ISO-10303-21;
HEADER;
/* Generated by software containing ST-Developer
 * from STEP Tools, Inc. (www.steptools.com) 
 */
/* OPTION: using custom schema-name function */

FILE_DESCRIPTION(
/* description */ (''),
/* implementation_level */ '2;1');

FILE_NAME(
/* name */ '08K2R025A10-SRC08-A_SIM.stp',
/* time_stamp */ '2020-02-05T09:45:00+01:00',
/* author */ (''),
/* organization */ (''),
/* preprocessor_version */ 'ST-DEVELOPER v16.7',
/* originating_system */ 'SIEMENS PLM Software NX 12.0',
/* authorisation */ '');

FILE_SCHEMA (('AUTOMOTIVE_DESIGN { 1 0 10303 214 3 1 1 1 }'));
ENDSEC;

DATA;
#10=PROPERTY_DEFINITION_REPRESENTATION(#14,#12);
#11=PROPERTY_DEFINITION_REPRESENTATION(#15,#13);
#12=REPRESENTATION('',(#16),#355);
#13=REPRESENTATION('',(#17),#355);
#14=PROPERTY_DEFINITION('pmi validation property','',#21);
#15=PROPERTY_DEFINITION('pmi validation property','',#21);
#16=VALUE_REPRESENTATION_ITEM('number of annotations',COUNT_MEASURE(0.));
#17=VALUE_REPRESENTATION_ITEM('number of views',COUNT_MEASURE(0.));
#18=SHAPE_REPRESENTATION_RELATIONSHIP('None',
'relationship between pp07449087887zzq-None and pp07449087887zzq-None',
#30,#19);
#19=ADVANCED_BREP_SHAPE_REPRESENTATION('pp07449087887zzq-None',(#75,#76),
#355);
#20=SHAPE_DEFINITION_REPRESENTATION(#21,#30);
#21=PRODUCT_DEFINITION_SHAPE('','',#22);
#22=PRODUCT_DEFINITION(' ','',#24,#23);
#23=PRODUCT_DEFINITION_CONTEXT('part definition',#29,'design');
#24=PRODUCT_DEFINITION_FORMATION_WITH_SPECIFIED_SOURCE(' ',' ',#26,
 .NOT_KNOWN.);
#25=PRODUCT_RELATED_PRODUCT_CATEGORY('part','',(#26));
#26=PRODUCT('pp07449087887zzq','pp07449087887zzq',' ',(#27));
#27=PRODUCT_CONTEXT(' ',#29,'mechanical');
#28=APPLICATION_PROTOCOL_DEFINITION('international standard',
'automotive_design',2010,#29);
#29=APPLICATION_CONTEXT(
'core data for automotive mechanical design processes');
#30=SHAPE_REPRESENTATION('pp07449087887zzq-None',(#208),#355);
#31=VERTEX_LOOP('',#182);
#32=B_SPLINE_CURVE_WITH_KNOTS('',3,(#308,#309,#310,#311,#312,#313,#314),
 .UNSPECIFIED.,.F.,.F.,(4,3,4),(0.,0.0105066487780916,1.),.UNSPECIFIED.);
#33=B_SPLINE_CURVE_WITH_KNOTS('',3,(#318,#319,#320,#321,#322,#323,#324),
 .UNSPECIFIED.,.F.,.F.,(4,3,4),(0.,0.986598662382851,1.),.UNSPECIFIED.);
#34=B_SPLINE_CURVE_WITH_KNOTS('',3,(#327,#328,#329,#330),.UNSPECIFIED.,
 .F.,.F.,(4,4),(0.,1.),.UNSPECIFIED.);
#35=B_SPLINE_CURVE_WITH_KNOTS('',3,(#341,#342,#343,#344),.UNSPECIFIED.,
 .F.,.F.,(4,4),(0.,1.),.UNSPECIFIED.);
#36=B_SPLINE_CURVE_WITH_KNOTS('',3,(#346,#347,#348,#349,#350,#351,#352),
 .UNSPECIFIED.,.F.,.F.,(4,1,1,1,4),(0.,0.25,0.5,0.75,1.),.UNSPECIFIED.);
#37=SURFACE_OF_REVOLUTION('',#51,#44);
#38=SURFACE_OF_REVOLUTION('',#32,#45);
#39=SURFACE_OF_REVOLUTION('',#33,#46);
#40=SURFACE_OF_REVOLUTION('',#34,#47);
#41=SURFACE_OF_REVOLUTION('',#52,#48);
#42=SURFACE_OF_REVOLUTION('',#35,#49);
#43=SURFACE_OF_REVOLUTION('',#36,#50);
#44=AXIS1_PLACEMENT('',#299,#253);
#45=AXIS1_PLACEMENT('',#315,#254);
#46=AXIS1_PLACEMENT('',#325,#257);
#47=AXIS1_PLACEMENT('',#331,#258);
#48=AXIS1_PLACEMENT('',#338,#266);
#49=AXIS1_PLACEMENT('',#345,#269);
#50=AXIS1_PLACEMENT('',#353,#270);
#51=LINE('',#298,#53);
#52=LINE('',#337,#54);
#53=VECTOR('',#252,0.200432353526452);
#54=VECTOR('',#265,5.10429897741392);
#55=(
BOUNDED_CURVE()
B_SPLINE_CURVE(3,(#288,#289,#290,#291,#292,#293,#294),.UNSPECIFIED.,.T.,
 .F.)
B_SPLINE_CURVE_WITH_KNOTS((1,3,3,3,1),(-0.5,0.,0.5,1.,1.5),
 .UNSPECIFIED.)
CURVE()
GEOMETRIC_REPRESENTATION_ITEM()
RATIONAL_B_SPLINE_CURVE((1.,0.333333333333333,0.333333333333333,1.,0.333333333333333,
0.333333333333333,1.))
REPRESENTATION_ITEM('')
);
#56=(
BOUNDED_CURVE()
B_SPLINE_CURVE(3,(#300,#301,#302,#303,#304,#305,#306),.UNSPECIFIED.,.T.,
 .F.)
B_SPLINE_CURVE_WITH_KNOTS((1,3,3,3,1),(-0.5,0.,0.5,1.,1.5),
 .UNSPECIFIED.)
CURVE()
GEOMETRIC_REPRESENTATION_ITEM()
RATIONAL_B_SPLINE_CURVE((1.,0.333333333333333,0.333333333333333,1.,0.333333333333333,
0.333333333333333,1.))
REPRESENTATION_ITEM('')
);
#57=PRESENTATION_LAYER_ASSIGNMENT('14','Layer 14',(#75));
#58=PRESENTATION_LAYER_ASSIGNMENT('96','Layer 96',(#76));
#59=STYLED_ITEM('',(#61),#75);
#60=STYLED_ITEM('',(#62),#76);
#61=PRESENTATION_STYLE_ASSIGNMENT((#63));
#62=PRESENTATION_STYLE_ASSIGNMENT((#64));
#63=SURFACE_STYLE_USAGE(.BOTH.,#65);
#64=SURFACE_STYLE_USAGE(.BOTH.,#66);
#65=SURFACE_SIDE_STYLE('',(#67));
#66=SURFACE_SIDE_STYLE('',(#68));
#67=SURFACE_STYLE_FILL_AREA(#69);
#68=SURFACE_STYLE_FILL_AREA(#70);
#69=FILL_AREA_STYLE('',(#71));
#70=FILL_AREA_STYLE('',(#72));
#71=FILL_AREA_STYLE_COLOUR('',#73);
#72=FILL_AREA_STYLE_COLOUR('',#74);
#73=COLOUR_RGB('Silver Gray',0.6,0.6,0.6);
#74=COLOUR_RGB('Light Gray',0.8,0.8,0.8);
#75=MANIFOLD_SOLID_BREP('',#77);
#76=MANIFOLD_SOLID_BREP('',#78);
#77=CLOSED_SHELL('',(#106,#107,#108,#109,#110,#111));
#78=CLOSED_SHELL('',(#112,#113,#114,#115,#116,#117,#118,#119));
#79=CONICAL_SURFACE('',#219,4.,45.);
#80=TOROIDAL_SURFACE('',#218,7.75,4.);
#81=SPHERICAL_SURFACE('',#217,3.75);
#82=CYLINDRICAL_SURFACE('',#213,5.);
#83=CYLINDRICAL_SURFACE('',#216,3.75);
#84=FACE_BOUND('',#126,.T.);
#85=FACE_BOUND('',#127,.T.);
#86=FACE_BOUND('',#128,.T.);
#87=FACE_BOUND('',#129,.T.);
#88=FACE_BOUND('',#131,.T.);
#89=FACE_BOUND('',#132,.T.);
#90=FACE_BOUND('',#133,.T.);
#91=FACE_BOUND('',#134,.T.);
#92=FACE_BOUND('',#135,.T.);
#93=FACE_BOUND('',#136,.T.);
#94=FACE_BOUND('',#137,.T.);
#95=FACE_BOUND('',#138,.T.);
#96=FACE_BOUND('',#139,.T.);
#97=FACE_BOUND('',#140,.T.);
#98=FACE_BOUND('',#141,.T.);
#99=FACE_BOUND('',#31,.T.);
#100=FACE_BOUND('',#143,.T.);
#101=FACE_BOUND('',#144,.T.);
#102=FACE_BOUND('',#145,.T.);
#103=FACE_BOUND('',#146,.T.);
#104=FACE_BOUND('',#147,.T.);
#105=FACE_BOUND('',#148,.T.);
#106=ADVANCED_FACE('',(#122),#120,.F.);
#107=ADVANCED_FACE('',(#84,#85),#82,.T.);
#108=ADVANCED_FACE('',(#86,#87),#83,.T.);
#109=ADVANCED_FACE('',(#123),#81,.T.);
#110=ADVANCED_FACE('',(#88,#89),#80,.F.);
#111=ADVANCED_FACE('',(#90,#91),#79,.T.);
#112=ADVANCED_FACE('',(#92,#93),#37,.T.);
#113=ADVANCED_FACE('',(#94,#95),#38,.T.);
#114=ADVANCED_FACE('',(#96,#97),#39,.T.);
#115=ADVANCED_FACE('',(#98,#99),#40,.T.);
#116=ADVANCED_FACE('',(#124),#121,.T.);
#117=ADVANCED_FACE('',(#100,#101),#41,.T.);
#118=ADVANCED_FACE('',(#102,#103),#42,.T.);
#119=ADVANCED_FACE('',(#104,#105),#43,.T.);
#120=PLANE('',#210);
#121=PLANE('',#223);
#122=FACE_OUTER_BOUND('',#125,.T.);
#123=FACE_OUTER_BOUND('',#130,.T.);
#124=FACE_OUTER_BOUND('',#142,.T.);
#125=EDGE_LOOP('',(#149));
#126=EDGE_LOOP('',(#150));
#127=EDGE_LOOP('',(#151));
#128=EDGE_LOOP('',(#152));
#129=EDGE_LOOP('',(#153));
#130=EDGE_LOOP('',(#154));
#131=EDGE_LOOP('',(#155));
#132=EDGE_LOOP('',(#156));
#133=EDGE_LOOP('',(#157));
#134=EDGE_LOOP('',(#158));
#135=EDGE_LOOP('',(#159));
#136=EDGE_LOOP('',(#160));
#137=EDGE_LOOP('',(#161));
#138=EDGE_LOOP('',(#162));
#139=EDGE_LOOP('',(#163));
#140=EDGE_LOOP('',(#164));
#141=EDGE_LOOP('',(#165));
#142=EDGE_LOOP('',(#166));
#143=EDGE_LOOP('',(#167));
#144=EDGE_LOOP('',(#168));
#145=EDGE_LOOP('',(#169));
#146=EDGE_LOOP('',(#170));
#147=EDGE_LOOP('',(#171));
#148=EDGE_LOOP('',(#172));
#149=ORIENTED_EDGE('',*,*,#186,.T.);
#150=ORIENTED_EDGE('',*,*,#187,.T.);
#151=ORIENTED_EDGE('',*,*,#188,.T.);
#152=ORIENTED_EDGE('',*,*,#189,.F.);
#153=ORIENTED_EDGE('',*,*,#190,.T.);
#154=ORIENTED_EDGE('',*,*,#190,.F.);
#155=ORIENTED_EDGE('',*,*,#189,.T.);
#156=ORIENTED_EDGE('',*,*,#188,.F.);
#157=ORIENTED_EDGE('',*,*,#187,.F.);
#158=ORIENTED_EDGE('',*,*,#186,.F.);
#159=ORIENTED_EDGE('',*,*,#191,.F.);
#160=ORIENTED_EDGE('',*,*,#192,.T.);
#161=ORIENTED_EDGE('',*,*,#192,.F.);
#162=ORIENTED_EDGE('',*,*,#193,.T.);
#163=ORIENTED_EDGE('',*,*,#193,.F.);
#164=ORIENTED_EDGE('',*,*,#194,.T.);
#165=ORIENTED_EDGE('',*,*,#194,.F.);
#166=ORIENTED_EDGE('',*,*,#195,.T.);
#167=ORIENTED_EDGE('',*,*,#195,.F.);
#168=ORIENTED_EDGE('',*,*,#196,.T.);
#169=ORIENTED_EDGE('',*,*,#196,.F.);
#170=ORIENTED_EDGE('',*,*,#197,.T.);
#171=ORIENTED_EDGE('',*,*,#197,.F.);
#172=ORIENTED_EDGE('',*,*,#191,.T.);
#173=VERTEX_POINT('',#273);
#174=VERTEX_POINT('',#276);
#175=VERTEX_POINT('',#278);
#176=VERTEX_POINT('',#281);
#177=VERTEX_POINT('',#283);
#178=VERTEX_POINT('',#295);
#179=VERTEX_POINT('',#297);
#180=VERTEX_POINT('',#307);
#181=VERTEX_POINT('',#317);
#182=VERTEX_POINT('',#326);
#183=VERTEX_POINT('',#333);
#184=VERTEX_POINT('',#336);
#185=VERTEX_POINT('',#340);
#186=EDGE_CURVE('',#173,#173,#198,.T.);
#187=EDGE_CURVE('',#174,#174,#199,.T.);
#188=EDGE_CURVE('',#175,#175,#200,.T.);
#189=EDGE_CURVE('',#176,#176,#201,.T.);
#190=EDGE_CURVE('',#177,#177,#202,.T.);
#191=EDGE_CURVE('',#178,#178,#55,.T.);
#192=EDGE_CURVE('',#179,#179,#203,.T.);
#193=EDGE_CURVE('',#180,#180,#56,.T.);
#194=EDGE_CURVE('',#181,#181,#204,.T.);
#195=EDGE_CURVE('',#183,#183,#205,.T.);
#196=EDGE_CURVE('',#184,#184,#206,.T.);
#197=EDGE_CURVE('',#185,#185,#207,.T.);
#198=CIRCLE('',#209,4.);
#199=CIRCLE('',#211,5.);
#200=CIRCLE('',#212,5.);
#201=CIRCLE('',#214,3.75);
#202=CIRCLE('',#215,3.75);
#203=CIRCLE('',#220,1.88586874196625);
#204=CIRCLE('',#221,0.570302291335713);
#205=CIRCLE('',#222,3.73682593263725);
#206=CIRCLE('',#224,3.9948609757119);
#207=CIRCLE('',#225,4.00000000000048);
#208=AXIS2_PLACEMENT_3D('',#271,#226,#227);
#209=AXIS2_PLACEMENT_3D('',#272,#228,#229);
#210=AXIS2_PLACEMENT_3D('',#274,#230,#231);
#211=AXIS2_PLACEMENT_3D('',#275,#232,#233);
#212=AXIS2_PLACEMENT_3D('',#277,#234,#235);
#213=AXIS2_PLACEMENT_3D('',#279,#236,#237);
#214=AXIS2_PLACEMENT_3D('',#280,#238,#239);
#215=AXIS2_PLACEMENT_3D('',#282,#240,#241);
#216=AXIS2_PLACEMENT_3D('',#284,#242,#243);
#217=AXIS2_PLACEMENT_3D('',#285,#244,#245);
#218=AXIS2_PLACEMENT_3D('',#286,#246,#247);
#219=AXIS2_PLACEMENT_3D('',#287,#248,#249);
#220=AXIS2_PLACEMENT_3D('',#296,#250,#251);
#221=AXIS2_PLACEMENT_3D('',#316,#255,#256);
#222=AXIS2_PLACEMENT_3D('',#332,#259,#260);
#223=AXIS2_PLACEMENT_3D('',#334,#261,#262);
#224=AXIS2_PLACEMENT_3D('',#335,#263,#264);
#225=AXIS2_PLACEMENT_3D('',#339,#267,#268);
#226=DIRECTION('',(0.,0.,1.));
#227=DIRECTION('',(1.,0.,0.));
#228=DIRECTION('',(1.,0.,0.));
#229=DIRECTION('',(0.,0.,1.));
#230=DIRECTION('',(-1.,0.,0.));
#231=DIRECTION('',(0.,0.,1.));
#232=DIRECTION('',(-1.,0.,0.));
#233=DIRECTION('',(0.,0.,1.));
#234=DIRECTION('',(1.,0.,0.));
#235=DIRECTION('',(0.,0.,-1.));
#236=DIRECTION('',(1.,0.,0.));
#237=DIRECTION('',(0.,0.,-1.));
#238=DIRECTION('',(1.,0.,0.));
#239=DIRECTION('',(0.,0.,-1.));
#240=DIRECTION('',(1.,0.,0.));
#241=DIRECTION('',(0.,0.,-1.));
#242=DIRECTION('',(1.,0.,0.));
#243=DIRECTION('',(0.,0.,-1.));
#244=DIRECTION('',(0.,0.,1.));
#245=DIRECTION('',(1.,0.,0.));
#246=DIRECTION('',(1.,0.,0.));
#247=DIRECTION('',(0.,0.,-1.));
#248=DIRECTION('',(-1.,0.,0.));
#249=DIRECTION('',(-1.38224978165483E-17,0.,1.));
#250=DIRECTION('',(1.,0.,0.));
#251=DIRECTION('',(0.,0.,-1.));
#252=DIRECTION('',(0.448803269668818,-0.893630586503494,0.));
#253=DIRECTION('',(1.,0.,0.));
#254=DIRECTION('',(1.,0.,0.));
#255=DIRECTION('',(1.,0.,0.));
#256=DIRECTION('',(0.,0.,-1.));
#257=DIRECTION('',(1.,0.,0.));
#258=DIRECTION('',(1.,0.,0.));
#259=DIRECTION('',(1.,0.,0.));
#260=DIRECTION('',(0.,0.,-1.));
#261=DIRECTION('',(1.,0.,0.));
#262=DIRECTION('',(0.,0.,-1.));
#263=DIRECTION('',(1.,0.,0.));
#264=DIRECTION('',(0.,0.,-1.));
#265=DIRECTION('',(0.998629534754569,0.0523359562430368,0.));
#266=DIRECTION('',(1.,0.,0.));
#267=DIRECTION('',(1.,0.,0.));
#268=DIRECTION('',(0.,0.,-1.));
#269=DIRECTION('',(1.,0.,0.));
#270=DIRECTION('',(1.,0.,0.));
#271=CARTESIAN_POINT('',(0.,0.,0.));
#272=CARTESIAN_POINT('',(110.,0.,0.));
#273=CARTESIAN_POINT('',(110.,0.,4.));
#274=CARTESIAN_POINT('',(110.,-5.,0.));
#275=CARTESIAN_POINT('',(109.,0.,0.));
#276=CARTESIAN_POINT('',(109.,0.,5.));
#277=CARTESIAN_POINT('',(25.,0.,0.));
#278=CARTESIAN_POINT('',(25.,0.,-5.));
#279=CARTESIAN_POINT('',(0.,0.,0.));
#280=CARTESIAN_POINT('',(22.0952624903444,0.,0.));
#281=CARTESIAN_POINT('',(22.0952624903444,0.,-3.75));
#282=CARTESIAN_POINT('',(4.25,0.,0.));
#283=CARTESIAN_POINT('',(4.25,0.,-3.75));
#284=CARTESIAN_POINT('',(0.,0.,0.));
#285=CARTESIAN_POINT('',(4.25,0.,0.));
#286=CARTESIAN_POINT('',(22.0952624903444,0.,0.));
#287=CARTESIAN_POINT('',(110.,0.,0.));
#288=CARTESIAN_POINT('',(0.553667389860818,-9.32413868337534E-15,-2.03046552348833));
#289=CARTESIAN_POINT('',(0.553667389860818,4.06093104697665,-2.03046552348835));
#290=CARTESIAN_POINT('',(0.553667389860818,4.06093104697667,2.03046552348831));
#291=CARTESIAN_POINT('',(0.553667389860818,9.54097911787244E-15,2.03046552348833));
#292=CARTESIAN_POINT('',(0.553667389860818,-4.06093104697665,2.03046552348835));
#293=CARTESIAN_POINT('',(0.553667389860818,-4.06093104697667,-2.03046552348831));
#294=CARTESIAN_POINT('',(0.553667389860818,-9.32413868337534E-15,-2.03046552348833));
#295=CARTESIAN_POINT('',(0.556322584112368,2.71050543121376E-16,-2.03520216003877));
#296=CARTESIAN_POINT('',(0.469023082753829,0.,0.));
#297=CARTESIAN_POINT('',(0.469023082753829,0.,-1.88586874196625));
#298=CARTESIAN_POINT('',(0.469023082753829,-1.59890616107434,1.00000000000193));
#299=CARTESIAN_POINT('',(0.,0.,0.));
#300=CARTESIAN_POINT('',(0.201196552433881,-0.967210404347658,0.631663439229517));
#301=CARTESIAN_POINT('',(0.20119655243388,-2.23053728280669,-1.3027573694658));
#302=CARTESIAN_POINT('',(0.20119655243388,-0.296116474111376,-2.56608424792483));
#303=CARTESIAN_POINT('',(0.201196552433881,0.967210404347658,-0.631663439229517));
#304=CARTESIAN_POINT('',(0.20119655243388,2.23053728280669,1.3027573694658));
#305=CARTESIAN_POINT('',(0.20119655243388,0.296116474111376,2.56608424792483));
#306=CARTESIAN_POINT('',(0.201196552433881,-0.967210404347658,0.631663439229517));
#307=CARTESIAN_POINT('',(0.201200787565595,-0.967209088380388,0.631662579800785));
#308=CARTESIAN_POINT('',(0.201196552433881,-0.96721156267584,0.631661665580381));
#309=CARTESIAN_POINT('',(0.202137328284656,-0.969422851999442,0.632951422215272));
#310=CARTESIAN_POINT('',(0.203078104135432,-0.971634141323044,0.634241178850162));
#311=CARTESIAN_POINT('',(0.204018879986207,-0.973845430646645,0.635530935485053));
#312=CARTESIAN_POINT('',(0.292619105328634,-1.18209985406417,0.756997412748452));
#313=CARTESIAN_POINT('',(0.380950879299223,-1.39045473028879,0.878487463503132));
#314=CARTESIAN_POINT('',(0.469023082753829,-1.59890616107434,1.00000000000193));
#315=CARTESIAN_POINT('',(0.,0.,0.));
#316=CARTESIAN_POINT('',(0.0418376188596674,0.,0.));
#317=CARTESIAN_POINT('',(0.0418376188596674,0.,-0.570302291335713));
#318=CARTESIAN_POINT('',(0.0418376188564651,-0.45731926896126,0.34074006183962));
#319=CARTESIAN_POINT('',(0.0775392247499215,-0.629802355005362,0.43710258940434));
#320=CARTESIAN_POINT('',(0.129728819469241,-0.797551086805203,0.532785724981205));
#321=CARTESIAN_POINT('',(0.198406402999033,-0.960565464376841,0.627789468577076));
#322=CARTESIAN_POINT('',(0.199339276231791,-0.962779749469232,0.629079939861262));
#323=CARTESIAN_POINT('',(0.20027214946455,-0.964994034561623,0.630370411145448));
#324=CARTESIAN_POINT('',(0.201205022697309,-0.967208319654014,0.631660882429634));
#325=CARTESIAN_POINT('',(0.,0.,0.));
#326=CARTESIAN_POINT('',(2.89252222366687E-14,-1.58851701730729E-10,1.19131526543051E-10));
#327=CARTESIAN_POINT('',(2.89252222366687E-14,-1.58851701730729E-10,1.19131526543051E-10));
#328=CARTESIAN_POINT('',(0.00845097872714849,-0.181034735718257,0.0688276985292709));
#329=CARTESIAN_POINT('',(0.0245406725408892,-0.329545006308535,0.199867738870384));
#330=CARTESIAN_POINT('',(0.0418376188596674,-0.457319268958698,0.340740061838709));
#331=CARTESIAN_POINT('',(0.,0.,0.));
#332=CARTESIAN_POINT('',(9.29999999999986,0.,0.));
#333=CARTESIAN_POINT('',(9.29999999999986,0.,-3.73682593263725));
#334=CARTESIAN_POINT('',(9.29999999999986,0.,0.));
#335=CARTESIAN_POINT('',(4.20269628693678,0.,0.));
#336=CARTESIAN_POINT('',(4.20269628693678,0.,-3.9948609757119));
#337=CARTESIAN_POINT('',(4.20269628693678,-3.86767555713579,1.0000000000001));
#338=CARTESIAN_POINT('',(0.,0.,0.));
#339=CARTESIAN_POINT('',(3.99999999999978,0.,0.));
#340=CARTESIAN_POINT('',(3.99999999999978,0.,-4.00000000000048));
#341=CARTESIAN_POINT('',(3.99999999999978,-3.87298334620789,1.0000000000001));
#342=CARTESIAN_POINT('',(4.06759631314875,-3.8729834360303,1.0000000000001));
#343=CARTESIAN_POINT('',(4.13519261688976,-3.87121336452219,1.0000000000001));
#344=CARTESIAN_POINT('',(4.20269628693678,-3.86767555713579,1.0000000000001));
#345=CARTESIAN_POINT('',(0.,0.,0.));
#346=CARTESIAN_POINT('',(0.553667389860818,-1.76714182851138,1.0000000000001));
#347=CARTESIAN_POINT('',(0.715133672118336,-2.08210636510051,1.0000000000001));
#348=CARTESIAN_POINT('',(1.12506712716458,-2.66746538025548,1.0000000000001));
#349=CARTESIAN_POINT('',(1.95490800222868,-3.3464256941201,1.0000000000001));
#350=CARTESIAN_POINT('',(2.93777160383583,-3.77519000970497,1.0000000000001));
#351=CARTESIAN_POINT('',(3.64589134723173,-3.87310521843978,1.0000000000001));
#352=CARTESIAN_POINT('',(3.99999999999978,-3.87298334620789,1.0000000000001));
#353=CARTESIAN_POINT('',(0.,0.,0.));
#354=MECHANICAL_DESIGN_GEOMETRIC_PRESENTATION_REPRESENTATION('',(#59,#60),
#355);
#355=(
GEOMETRIC_REPRESENTATION_CONTEXT(3)
GLOBAL_UNCERTAINTY_ASSIGNED_CONTEXT((#356))
GLOBAL_UNIT_ASSIGNED_CONTEXT((#362,#358,#357))
REPRESENTATION_CONTEXT('08K2R025A10-SRC08-A_SIM',
'TOP_LEVEL_ASSEMBLY_PART')
);
#356=UNCERTAINTY_MEASURE_WITH_UNIT(LENGTH_MEASURE(0.0508),#362,
'DISTANCE_ACCURACY_VALUE','Maximum Tolerance applied to model');
#357=(
NAMED_UNIT(*)
SI_UNIT($,.STERADIAN.)
SOLID_ANGLE_UNIT()
);
#358=(
CONVERSION_BASED_UNIT('DEGREE',#360)
NAMED_UNIT(#359)
PLANE_ANGLE_UNIT()
);
#359=DIMENSIONAL_EXPONENTS(0.,0.,0.,0.,0.,0.,0.);
#360=PLANE_ANGLE_MEASURE_WITH_UNIT(PLANE_ANGLE_MEASURE(0.0174532925),#361);
#361=(
NAMED_UNIT(*)
PLANE_ANGLE_UNIT()
SI_UNIT($,.RADIAN.)
);
#362=(
LENGTH_UNIT()
NAMED_UNIT(*)
SI_UNIT(.MILLI.,.METRE.)
);
ENDSEC;
END-ISO-10303-21;
