  0
SECTION
  2
HEADER
  9
$ACADVER
  1
AC1032
  9
$ACADMAINTVER
 90
        4
  9
$DWGCODEPAGE
  3
ANSI_1252
  9
$COMMENTS
  1
File was created by Mastercam 2019
  9
$REQUIREDVERSIONS
160
                 0
  9
$INSBASE
 10
0.0
 20
0.0
 30
0.0
  9
$EXTMIN
 10
-9.0
 20
-15.3375358581543
 30
0.0
  9
$EXTMAX
 10
52.92181396484375
 20
62.02201938842688
 30
0.0099999997764826
  9
$LIMMIN
 10
0.0
 20
0.0
  9
$LIMMAX
 10
420.0
 20
297.0
  9
$ORTHOMODE
 70
     0
  9
$REGENMODE
 70
     1
  9
$FILLMODE
 70
     1
  9
$QTEXTMODE
 70
     0
  9
$MIRRTEXT
 70
     1
  9
$LTSCALE
 40
1.0
  9
$ATTMODE
 70
     1
  9
$TEXTSIZE
 40
2.5
  9
$TRACEWID
 40
1.0
  9
$TEXTSTYLE
  7
Standard
  9
$CLAYER
  8
0
  9
$CELTYPE
  6
ByLayer
  9
$CECOLOR
 62
   256
  9
$CELTSCALE
 40
1.0
  9
$DISPSILH
 70
     0
  9
$DIMSCALE
 40
1.0
  9
$DIMASZ
 40
2.5
  9
$DIMEXO
 40
0.625
  9
$DIMDLI
 40
3.75
  9
$DIMRND
 40
0.0
  9
$DIMDLE
 40
0.0
  9
$DIMEXE
 40
1.25
  9
$DIMTP
 40
0.0
  9
$DIMTM
 40
0.0
  9
$DIMTXT
 40
2.5
  9
$DIMCEN
 40
2.5
  9
$DIMTSZ
 40
0.0
  9
$DIMTOL
 70
     0
  9
$DIMLIM
 70
     0
  9
$DIMTIH
 70
     0
  9
$DIMTOH
 70
     0
  9
$DIMSE1
 70
     0
  9
$DIMSE2
 70
     0
  9
$DIMTAD
 70
     1
  9
$DIMZIN
 70
     8
  9
$DIMBLK
  1

  9
$DIMASO
 70
     1
  9
$DIMSHO
 70
     1
  9
$DIMPOST
  1

  9
$DIMAPOST
  1

  9
$DIMALT
 70
     0
  9
$DIMALTD
 70
     3
  9
$DIMALTF
 40
0.03937007874016
  9
$DIMLFAC
 40
1.0
  9
$DIMTOFL
 70
     1
  9
$DIMTVP
 40
0.0
  9
$DIMTIX
 70
     0
  9
$DIMSOXD
 70
     0
  9
$DIMSAH
 70
     0
  9
$DIMBLK1
  1

  9
$DIMBLK2
  1

  9
$DIMSTYLE
  2
ISO-25
  9
$DIMCLRD
 70
     0
  9
$DIMCLRE
 70
     0
  9
$DIMCLRT
 70
     0
  9
$DIMTFAC
 40
1.0
  9
$DIMGAP
 40
0.625
  9
$DIMJUST
 70
     0
  9
$DIMSD1
 70
     0
  9
$DIMSD2
 70
     0
  9
$DIMTOLJ
 70
     0
  9
$DIMTZIN
 70
     8
  9
$DIMALTZ
 70
     0
  9
$DIMALTTZ
 70
     0
  9
$DIMUPT
 70
     0
  9
$DIMDEC
 70
     2
  9
$DIMTDEC
 70
     2
  9
$DIMALTU
 70
     2
  9
$DIMALTTD
 70
     3
  9
$DIMTXSTY
  7
Standard
  9
$DIMAUNIT
 70
     0
  9
$DIMADEC
 70
     0
  9
$DIMALTRND
 40
0.0
  9
$DIMAZIN
 70
     0
  9
$DIMDSEP
 70
    44
  9
$DIMATFIT
 70
     3
  9
$DIMFRAC
 70
     0
  9
$DIMLDRBLK
  1

  9
$DIMLUNIT
 70
     2
  9
$DIMLWD
 70
    -2
  9
$DIMLWE
 70
    -2
  9
$DIMTMOVE
 70
     0
  9
$DIMFXL
 40
1.0
  9
$DIMFXLON
 70
     0
  9
$DIMJOGANG
 40
0.7853981633974483
  9
$DIMTFILL
 70
     0
  9
$DIMTFILLCLR
 70
     0
  9
$DIMARCSYM
 70
     0
  9
$DIMLTYPE
  6

  9
$DIMLTEX1
  6

  9
$DIMLTEX2
  6

  9
$DIMTXTDIRECTION
 70
     0
  9
$LUNITS
 70
     2
  9
$LUPREC
 70
     4
  9
$SKETCHINC
 40
1.0
  9
$FILLETRAD
 40
10.0
  9
$AUNITS
 70
     0
  9
$AUPREC
 70
     0
  9
$MENU
  1
.
  9
$ELEVATION
 40
0.0
  9
$PELEVATION
 40
0.0
  9
$THICKNESS
 40
0.0
  9
$LIMCHECK
 70
     0
  9
$CHAMFERA
 40
0.0
  9
$CHAMFERB
 40
0.0
  9
$CHAMFERC
 40
0.0
  9
$CHAMFERD
 40
0.0
  9
$SKPOLY
 70
     0
  9
$TDCREATE
 40
2453737.5
  9
$TDUCREATE
 40
2453737.166666667
  9
$TDUPDATE
 40
2459116.727929097
  9
$TDUUPDATE
 40
2459116.394595764
  9
$TDINDWG
 40
0.0000000116
  9
$TDUSRTIMER
 40
0.0000000116
  9
$USRTIMER
 70
     1
  9
$ANGBASE
 50
0.0
  9
$ANGDIR
 70
     0
  9
$PDMODE
 70
     2
  9
$PDSIZE
 40
0.1
  9
$PLINEWID
 40
0.0
  9
$SPLFRAME
 70
     0
  9
$SPLINETYPE
 70
     6
  9
$SPLINESEGS
 70
     8
  9
$HANDSEED
  5
4CE
  9
$SURFTAB1
 70
     6
  9
$SURFTAB2
 70
     6
  9
$SURFTYPE
 70
     6
  9
$SURFU
 70
     6
  9
$SURFV
 70
     6
  9
$UCSBASE
  2

  9
$UCSNAME
  2

  9
$UCSORG
 10
0.0
 20
0.0
 30
0.0
  9
$UCSXDIR
 10
1.0
 20
0.0
 30
0.0
  9
$UCSYDIR
 10
0.0
 20
1.0
 30
0.0
  9
$UCSORTHOREF
  2

  9
$UCSORTHOVIEW
 70
     0
  9
$UCSORGTOP
 10
0.0
 20
0.0
 30
0.0
  9
$UCSORGBOTTOM
 10
0.0
 20
0.0
 30
0.0
  9
$UCSORGLEFT
 10
0.0
 20
0.0
 30
0.0
  9
$UCSORGRIGHT
 10
0.0
 20
0.0
 30
0.0
  9
$UCSORGFRONT
 10
0.0
 20
0.0
 30
0.0
  9
$UCSORGBACK
 10
0.0
 20
0.0
 30
0.0
  9
$PUCSBASE
  2

  9
$PUCSNAME
  2

  9
$PUCSORG
 10
0.0
 20
0.0
 30
0.0
  9
$PUCSXDIR
 10
1.0
 20
0.0
 30
0.0
  9
$PUCSYDIR
 10
0.0
 20
1.0
 30
0.0
  9
$PUCSORTHOREF
  2

  9
$PUCSORTHOVIEW
 70
     0
  9
$PUCSORGTOP
 10
0.0
 20
0.0
 30
0.0
  9
$PUCSORGBOTTOM
 10
0.0
 20
0.0
 30
0.0
  9
$PUCSORGLEFT
 10
0.0
 20
0.0
 30
0.0
  9
$PUCSORGRIGHT
 10
0.0
 20
0.0
 30
0.0
  9
$PUCSORGFRONT
 10
0.0
 20
0.0
 30
0.0
  9
$PUCSORGBACK
 10
0.0
 20
0.0
 30
0.0
  9
$USERI1
 70
     0
  9
$USERI2
 70
     0
  9
$USERI3
 70
     0
  9
$USERI4
 70
     0
  9
$USERI5
 70
     0
  9
$USERR1
 40
0.0
  9
$USERR2
 40
0.0
  9
$USERR3
 40
0.0
  9
$USERR4
 40
0.0
  9
$USERR5
 40
0.0
  9
$WORLDVIEW
 70
     1
  9
$SHADEDGE
 70
     3
  9
$SHADEDIF
 70
    70
  9
$TILEMODE
 70
     1
  9
$MAXACTVP
 70
    64
  9
$PINSBASE
 10
0.0
 20
0.0
 30
0.0
  9
$PLIMCHECK
 70
     0
  9
$PEXTMIN
 10
0.0
 20
0.0
 30
0.0
  9
$PEXTMAX
 10
0.0
 20
0.0
 30
0.0
  9
$PLIMMIN
 10
-20.0
 20
-7.5
  9
$PLIMMAX
 10
277.0
 20
202.5
  9
$UNITMODE
 70
     0
  9
$VISRETAIN
 70
     1
  9
$PLINEGEN
 70
     0
  9
$PSLTSCALE
 70
     1
  9
$TREEDEPTH
 70
  3020
  9
$CMLSTYLE
  2
Standard
  9
$CMLJUST
 70
     0
  9
$CMLSCALE
 40
20.0
  9
$PROXYGRAPHICS
 70
     1
  9
$MEASUREMENT
 70
     1
  9
$CELWEIGHT
370
    -1
  9
$ENDCAPS
280
     0
  9
$JOINSTYLE
280
     0
  9
$LWDISPLAY
290
     0
  9
$INSUNITS
 70
     4
  9
$HYPERLINKBASE
  1

  9
$STYLESHEET
  1

  9
$XEDIT
290
     1
  9
$CEPSNTYPE
380
     0
  9
$PSTYLEMODE
290
     1
  9
$FINGERPRINTGUID
  2
{75aa18b6-e1c9-4a67-82fb-f778f66ab110}
  9
$VERSIONGUID
  2
{FAEB1C32-E019-11D5-929B-00C0DF256EC4}
  9
$EXTNAMES
290
     1
  9
$PSVPSCALE
 40
0.0
  9
$OLESTARTUP
290
     0
  9
$SORTENTS
280
   127
  9
$INDEXCTL
280
     0
  9
$HIDETEXT
280
     1
  9
$XCLIPFRAME
280
     2
  9
$HALOGAP
280
     0
  9
$OBSCOLOR
 70
   257
  9
$OBSLTYPE
280
     0
  9
$INTERSECTIONDISPLAY
280
     0
  9
$INTERSECTIONCOLOR
 70
   257
  9
$DIMASSOC
280
     2
  9
$PROJECTNAME
  1

  9
$CAMERADISPLAY
290
     0
  9
$LENSLENGTH
 40
50.0
  9
$CAMERAHEIGHT
 40
0.0
  9
$STEPSPERSEC
 40
2.0
  9
$STEPSIZE
 40
6.0
  9
$3DDWFPREC
 40
2.0
  9
$PSOLWIDTH
 40
5.0
  9
$PSOLHEIGHT
 40
80.0
  9
$LOFTANG1
 40
1.570796326794897
  9
$LOFTANG2
 40
1.570796326794897
  9
$LOFTMAG1
 40
0.0
  9
$LOFTMAG2
 40
0.0
  9
$LOFTPARAM
 70
     7
  9
$LOFTNORMALS
280
     1
  9
$LATITUDE
 40
37.795
  9
$LONGITUDE
 40
-122.394
  9
$NORTHDIRECTION
 40
0.0
  9
$TIMEZONE
 70
 -8000
  9
$LIGHTGLYPHDISPLAY
280
     1
  9
$TILEMODELIGHTSYNCH
280
     1
  9
$CMATERIAL
347
44
  9
$SOLIDHIST
280
     0
  9
$SHOWHIST
280
     1
  9
$DWFFRAME
280
     2
  9
$DGNFRAME
280
     2
  9
$REALWORLDSCALE
290
     1
  9
$INTERFERECOLOR
 62
   256
  9
$CSHADOW
280
     0
  9
$SHADOWPLANELOCATION
 40
0.0
  0
ENDSEC
  0
SECTION
  2
CLASSES
  0
CLASS
  1
ACDBDICTIONARYWDFLT
  2
AcDbDictionaryWithDefault
  3
ObjectDBX Classes
 90
        0
 91
        3
280
     0
281
     0
  0
CLASS
  1
VISUALSTYLE
  2
AcDbVisualStyle
  3
ObjectDBX Classes
 90
     4095
 91
        3
280
     0
281
     0
  0
CLASS
  1
MATERIAL
  2
AcDbMaterial
  3
ObjectDBX Classes
 90
     1153
 91
        3
280
     0
281
     0
  0
CLASS
  1
SCALE
  2
AcDbScale
  3
ObjectDBX Classes
 90
     1153
 91
        3
280
     0
281
     0
  0
CLASS
  1
TABLESTYLE
  2
AcDbTableStyle
  3
ObjectDBX Classes
 90
     4095
 91
        3
280
     0
281
     0
  0
CLASS
  1
MLEADERSTYLE
  2
AcDbMLeaderStyle
  3
ACDB_MLEADERSTYLE_CLASS
 90
     4095
 91
        3
280
     0
281
     0
  0
CLASS
  1
SUN
  2
AcDbSun
  3
SCENEOE
 90
     1153
 91
        3
280
     0
281
     0
  0
CLASS
  1
DICTIONARYVAR
  2
AcDbDictionaryVar
  3
ObjectDBX Classes
 90
        0
 91
        3
280
     0
281
     0
  0
CLASS
  1
CELLSTYLEMAP
  2
AcDbCellStyleMap
  3
ObjectDBX Classes
 90
     1152
 91
        3
280
     0
281
     0
  0
ENDSEC
  0
SECTION
  2
TABLES
  0
TABLE
  2
VPORT
  5
8
330
0
100
AcDbSymbolTable
 70
     1
  0
VPORT
  5
29
330
8
100
AcDbSymbolTableRecord
100
AcDbViewportTableRecord
  2
*Active
 70
     0
 10
0.0
 20
0.0
 11
1.0
 21
1.0
 12
344.1869158878504
 22
148.5
 13
0.0
 23
0.0
 14
10.0
 24
10.0
 15
10.0
 25
10.0
 16
0.0
 26
0.0
 36
1.0
 17
0.0
 27
0.0
 37
0.0
 40
297.0
 41
1.972972972850329
 42
50.0
 43
0.0
 44
0.0
 50
0.0
 51
0.0
 71
     0
 72
   100
 73
     1
 74
     3
 75
     0
 76
     0
 77
     0
 78
     0
281
     0
 65
     1
110
0.0
120
0.0
130
0.0
111
1.0
121
0.0
131
0.0
112
0.0
122
1.0
132
0.0
 79
     0
146
0.0
348
2F
 60
     3
 61
     5
292
     1
282
     1
141
0.0
142
0.0
 63
   250
361
6D
  0
ENDTAB
  0
TABLE
  2
LTYPE
  5
5
330
0
100
AcDbSymbolTable
 70
     5
  0
LTYPE
  5
14
330
5
100
AcDbSymbolTableRecord
100
AcDbLinetypeTableRecord
  2
ByBlock
 70
     0
  3

 72
    65
 73
     0
 40
0.0
  0
LTYPE
  5
15
330
5
100
AcDbSymbolTableRecord
100
AcDbLinetypeTableRecord
  2
ByLayer
 70
     0
  3

 72
    65
 73
     0
 40
0.0
  0
LTYPE
  5
16
330
5
100
AcDbSymbolTableRecord
100
AcDbLinetypeTableRecord
  2
Continuous
 70
     0
  3
Solid line
 72
    65
 73
     0
 40
0.0
  0
LTYPE
  5
6F
330
5
100
AcDbSymbolTableRecord
100
AcDbLinetypeTableRecord
  2
Continuous2
 70
     0
  3
Solid Line
 72
    65
 73
     0
 40
0.0
  0
LTYPE
  5
70
330
5
100
AcDbSymbolTableRecord
100
AcDbLinetypeTableRecord
  2
DASHED
 70
     0
  3
__ __ __ __ __ __ __ __ __ __ __ __ __ __ __ __
 72
    83
 73
     2
 40
0.5
 49
0.375
 74
     0
 49
-0.125
 74
     0
  0
LTYPE
  5
71
330
5
100
AcDbSymbolTableRecord
100
AcDbLinetypeTableRecord
  2
CENTER
 70
     0
  3
____ _ ____ _ ____ _ ____ _ ____ _ ____ _ ____ _
 72
    83
 73
     4
 40
1.0
 49
0.625
 74
     0
 49
-0.125
 74
     0
 49
0.125
 74
     0
 49
-0.125
 74
     0
  0
LTYPE
  5
72
330
5
100
AcDbSymbolTableRecord
100
AcDbLinetypeTableRecord
  2
PHANTOM
 70
     0
  3
___ _ _ ___ _ _ ___ _ _ ___ _ _ ___ _ _ ___ _ _ 
 72
    83
 73
     6
 40
1.0
 49
0.5
 74
     0
 49
-0.1
 74
     0
 49
0.1
 74
     0
 49
-0.1
 74
     0
 49
0.1
 74
     0
 49
-0.1
 74
     0
  0
ENDTAB
  0
TABLE
  2
LAYER
  5
2
330
0
100
AcDbSymbolTable
 70
     2
  0
LAYER
  5
10
330
2
100
AcDbSymbolTableRecord
100
AcDbLayerTableRecord
  2
0
 70
     0
 62
     7
  6
Continuous
370
    -3
390
F
347
46
348
0
  0
LAYER
  5
75
330
2
100
AcDbSymbolTableRecord
100
AcDbLayerTableRecord
  2
DEFAULT
 70
     0
 62
     1
  6
Continuous
370
    -3
390
F
347
46
348
0
  0
ENDTAB
  0
TABLE
  2
STYLE
  5
3
330
0
100
AcDbSymbolTable
 70
     3
  0
STYLE
  5
11
330
3
100
AcDbSymbolTableRecord
100
AcDbTextStyleTableRecord
  2
Standard
 70
     0
 40
0.0
 41
1.0
 50
0.0
 71
     0
 42
2.5
  3
txt
  4

  0
STYLE
  5
73
330
3
100
AcDbSymbolTableRecord
100
AcDbTextStyleTableRecord
  2
MCArial Narrow
 70
     0
 40
0.0
 41
1.0
 50
0.0
 71
     0
 42
2.5
  3
ARIALN.TTF
  4

1001
ACAD
1000
Arial Narrow
1071
      256
  0
STYLE
  5
74
330
3
100
AcDbSymbolTableRecord
100
AcDbTextStyleTableRecord
  2
MCArial
 70
     0
 40
0.0
 41
1.0
 50
0.0
 71
     0
 42
2.5
  3
Arial.TTF
  4

1001
ACAD
1000
Arial
1071
      256
  0
ENDTAB
  0
TABLE
  2
VIEW
  5
6
330
0
100
AcDbSymbolTable
 70
     0
  0
ENDTAB
  0
TABLE
  2
UCS
  5
7
330
0
100
AcDbSymbolTable
 70
     0
  0
ENDTAB
  0
TABLE
  2
APPID
  5
9
330
0
100
AcDbSymbolTable
 70
     2
  0
APPID
  5
12
330
9
100
AcDbSymbolTableRecord
100
AcDbRegAppTableRecord
  2
ACAD
 70
     0
  0
APPID
  5
6E
330
9
100
AcDbSymbolTableRecord
100
AcDbRegAppTableRecord
  2
Mastercam 2019
 70
     0
  0
ENDTAB
  0
TABLE
  2
DIMSTYLE
  5
A
330
0
100
AcDbSymbolTable
 70
     1
100
AcDbDimStyleTable
  0
DIMSTYLE
105
27
330
A
100
AcDbSymbolTableRecord
100
AcDbDimStyleTableRecord
  2
ISO-25
 70
     0
 41
2.5
 42
0.625
 43
3.75
 44
1.25
 73
     0
 74
     0
 77
     1
 78
     8
140
2.5
141
2.5
143
0.03937007874016
147
0.625
171
     3
172
     1
178
     0
271
     2
272
     2
274
     3
278
    44
283
     0
284
     8
340
11
  0
ENDTAB
  0
TABLE
  2
BLOCK_RECORD
  5
1
330
0
100
AcDbSymbolTable
 70
     0
  0
BLOCK_RECORD
  5
1F
330
1
100
AcDbSymbolTableRecord
100
AcDbBlockTableRecord
  2
*Model_Space
340
22
 70
     0
280
     1
281
     0
  0
BLOCK_RECORD
  5
23
330
1
100
AcDbSymbolTableRecord
100
AcDbBlockTableRecord
  2
*Paper_Space
340
26
 70
     0
280
     1
281
     0
  0
ENDTAB
  0
ENDSEC
  0
SECTION
  2
BLOCKS
  0
BLOCK
  5
20
330
1F
100
AcDbEntity
  8
0
100
AcDbBlockBegin
  2
*Model_Space
 70
     0
 10
0.0
 20
0.0
 30
0.0
  3
*Model_Space
  1

  0
ENDBLK
  5
21
330
1F
100
AcDbEntity
  8
0
100
AcDbBlockEnd
  0
BLOCK
  5
24
330
23
100
AcDbEntity
 67
     1
  8
0
100
AcDbBlockBegin
  2
*Paper_Space
 70
     0
 10
0.0
 20
0.0
 30
0.0
  3
*Paper_Space
  1

  0
ENDBLK
  5
25
330
23
100
AcDbEntity
 67
     1
  8
0
100
AcDbBlockEnd
  0
ENDSEC
  0
SECTION
  2
ENTITIES
  0
LINE
  5
76
330
1F
100
AcDbEntity
  8
DEFAULT
  6
Continuous2
 62
     8
420
  8421504
370
    -3
100
AcDbLine
 10
0.0
 20
2.448206237792969
 30
0.0000000000000001
 11
-0.5
 21
2.448206237792969
 31
0.0000000000000001
  0
LINE
  5
77
330
1F
100
AcDbEntity
  8
DEFAULT
  6
Continuous2
 62
     8
420
  8421504
370
    -3
100
AcDbLine
 10
0.0
 20
2.448206237792969
 30
0.0000000000000001
 11
0.5
 21
2.448206237792969
 31
0.0000000000000003
  0
LINE
  5
78
330
1F
100
AcDbEntity
  8
DEFAULT
  6
Continuous2
 62
     8
420
  8421504
370
    -3
100
AcDbLine
 10
-0.5
 20
2.448206237792969
 30
0.0000000000000001
 11
-0.5
 21
5.448206237792969
 31
0.0000000000000003
  0
LINE
  5
79
330
1F
100
AcDbEntity
  8
DEFAULT
  6
Continuous2
 62
     8
420
  8421504
370
    -3
100
AcDbLine
 10
0.5
 20
2.448206237792969
 30
0.0000000000000003
 11
0.5
 21
5.448206237792969
 31
0.0000000000000004
  0
LINE
  5
7A
330
1F
100
AcDbEntity
  8
DEFAULT
  6
Continuous2
 62
     8
420
  8421504
370
    -3
100
AcDbLine
 10
-0.5
 20
6.948206237792968
 30
0.0000000000000004
 11
0.0
 21
6.948206237792968
 31
0.0000000000000004
  0
LINE
  5
7B
330
1F
100
AcDbEntity
  8
DEFAULT
  6
Continuous2
 62
     8
420
  8421504
370
    -3
100
AcDbLine
 10
0.5
 20
6.948206237792968
 30
0.0000000000000005
 11
0.0
 21
6.948206237792968
 31
0.0000000000000004
  0
LINE
  5
7C
330
1F
100
AcDbEntity
  8
DEFAULT
  6
Continuous2
 62
     8
420
  8421504
370
    -3
100
AcDbLine
 10
0.0
 20
6.948206237792967
 30
0.0000000000000004
 11
-0.5
 21
6.948206237792967
 31
0.0000000000000004
  0
LINE
  5
7D
330
1F
100
AcDbEntity
  8
DEFAULT
  6
Continuous2
 62
     8
420
  8421504
370
    -3
100
AcDbLine
 10
0.0
 20
6.948206237792967
 30
0.0000000000000004
 11
0.5
 21
6.948206237792967
 31
0.0000000000000005
  0
LINE
  5
7E
330
1F
100
AcDbEntity
  8
DEFAULT
  6
Continuous2
 62
     8
420
  8421504
370
    -3
100
AcDbLine
 10
-0.5
 20
6.948206237792967
 30
0.0000000000000004
 11
-3.000000000000001
 21
16.27833325671516
 31
0.0000000000000006
  0
LINE
  5
7F
330
1F
100
AcDbEntity
  8
DEFAULT
  6
Continuous2
 62
     8
420
  8421504
370
    -3
100
AcDbLine
 10
0.5
 20
6.948206237792967
 30
0.0000000000000005
 11
3.000000000000001
 21
16.27833325671516
 31
0.0000000000000017
  0
LINE
  5
80
330
1F
100
AcDbEntity
  8
DEFAULT
  6
Continuous2
 62
     8
420
  8421504
370
    -3
100
AcDbLine
 10
-3.0
 20
16.27833325671516
 30
0.0000000000000006
 11
-3.0
 21
52.44820623779296
 31
0.0000000000000028
  0
LINE
  5
81
330
1F
100
AcDbEntity
  8
DEFAULT
  6
Continuous2
 62
     8
420
  8421504
370
    -3
100
AcDbLine
 10
3.0
 20
16.27833325671516
 30
0.0000000000000017
 11
3.0
 21
52.44820623779296
 31
0.0000000000000039
  0
LINE
  5
82
330
1F
100
AcDbEntity
  8
DEFAULT
  6
Continuous2
 62
     8
420
  8421504
370
    -3
100
AcDbLine
 10
-3.0
 20
52.44820623779297
 30
0.0000000000000028
 11
0.0
 21
52.44820623779297
 31
0.0000000000000032
  0
LINE
  5
83
330
1F
100
AcDbEntity
  8
DEFAULT
  6
Continuous2
 62
     8
420
  8421504
370
    -3
100
AcDbLine
 10
3.0
 20
52.44820623779297
 30
0.0000000000000039
 11
0.0
 21
52.44820623779297
 31
0.0000000000000032
  0
LINE
  5
84
330
1F
100
AcDbEntity
  8
0
  6
Continuous2
 62
     7
420
 16777215
370
    -3
100
AcDbLine
 10
-0.5
 20
-15.11878967285156
 30
0.0099999997764826
 11
-0.5
 21
0.4482062458992004
 31
0.0099999997764826
  0
LINE
  5
85
330
1F
100
AcDbEntity
  8
0
  6
Continuous2
 62
     7
420
 16777215
370
    -3
100
AcDbLine
 10
0.5
 20
-15.11878967285156
 30
0.0099999997764826
 11
0.5
 21
0.4482100009918213
 31
0.0099999997764826
  0
LINE
  5
86
330
1F
100
AcDbEntity
  8
0
  6
Continuous2
 62
     7
420
 16777215
370
    -3
100
AcDbLine
 10
-8.0
 20
-14.11878967285156
 30
0.0099999997764826
 11
8.642669677734375
 21
-14.11878967285156
 31
0.0099999997764826
  0
POLYLINE
  5
87
330
1F
100
AcDbEntity
  8
0
  6
Continuous2
 62
     7
420
 13434879
370
    -3
100
AcDbPolyFaceMesh
 66
     1
 10
0.0
 20
0.0
 30
0.0
 70
    64
 71
   161
 72
   155
  0
VERTEX
  5
88
330
87
100
AcDbEntity
  8
0
100
AcDbVertex
100
AcDbPolyFaceMeshVertex
 10
10.37325668334961
 20
-14.76250171661377
 30
0.0099999997764826
 70
   192
  0
VERTEX
  5
89
330
87
100
AcDbEntity
  8
0
100
AcDbVertex
100
AcDbPolyFaceMeshVertex
 10
10.01309299468994
 20
-15.16563892364502
 30
0.0099999997764826
 70
   192
  0
VERTEX
  5
8A
330
87
100
AcDbEntity
  8
0
100
AcDbVertex
100
AcDbPolyFaceMeshVertex
 10
10.21568489074707
 20
-15.3375358581543
 30
0.0099999997764826
 70
   192
  0
VERTEX
  5
8B
330
87
100
AcDbEntity
  8
0
100
AcDbVertex
100
AcDbPolyFaceMeshVertex
 10
10.55947685241699
 20
-14.95281505584717
 30
0.0099999997764826
 70
   192
  0
VERTEX
  5
8C
330
87
100
AcDbEntity
  8
0
100
AcDbVertex
100
AcDbPolyFaceMeshVertex
 10
10.45818138122559
 20
-13.94087791442871
 30
0.0099999997764826
 70
   192
  0
VERTEX
  5
8D
330
87
100
AcDbEntity
  8
0
100
AcDbVertex
100
AcDbPolyFaceMeshVertex
 10
10.44692611694336
 20
-13.71679878234863
 30
0.0099999997764826
 70
   192
  0
VERTEX
  5
8E
330
87
100
AcDbEntity
  8
0
100
AcDbVertex
100
AcDbPolyFaceMeshVertex
 10
10.44308853149414
 20
-12.58182334899902
 30
0.0099999997764826
 70
   192
  0
VERTEX
  5
8F
330
87
100
AcDbEntity
  8
0
100
AcDbVertex
100
AcDbPolyFaceMeshVertex
 10
10.22182369232178
 20
-12.89926815032959
 30
0.0099999997764826
 70
   192
  0
VERTEX
  5
90
330
87
100
AcDbEntity
  8
0
100
AcDbVertex
100
AcDbPolyFaceMeshVertex
 10
10.20596408843994
 20
-14.47984409332275
 30
0.0099999997764826
 70
   192
  0
VERTEX
  5
91
330
87
100
AcDbEntity
  8
0
100
AcDbVertex
100
AcDbPolyFaceMeshVertex
 10
10.03764915466309
 20
-13.72293853759766
 30
0.0099999997764826
 70
   192
  0
VERTEX
  5
92
330
87
100
AcDbEntity
  8
0
100
AcDbVertex
100
AcDbPolyFaceMeshVertex
 10
10.05453205108643
 20
-14.00405979156494
 30
0.0099999997764826
 70
   192
  0
VERTEX
  5
93
330
87
100
AcDbEntity
  8
0
100
AcDbVertex
100
AcDbPolyFaceMeshVertex
 10
10.08369255065918
 20
-13.28577899932861
 30
0.0099999997764826
 70
   192
  0
VERTEX
  5
94
330
87
100
AcDbEntity
  8
0
100
AcDbVertex
100
AcDbPolyFaceMeshVertex
 10
10.10517978668213
 20
-14.24169635772705
 30
0.0099999997764826
 70
   192
  0
VERTEX
  5
95
330
87
100
AcDbEntity
  8
0
100
AcDbVertex
100
AcDbPolyFaceMeshVertex
 10
12.49663639068604
 20
-14.85561180114746
 30
0.0099999997764826
 70
   192
  0
VERTEX
  5
96
330
87
100
AcDbEntity
  8
0
100
AcDbVertex
100
AcDbPolyFaceMeshVertex
 10
12.720458984375
 20
-14.5394458770752
 30
0.0099999997764826
 70
   192
  0
VERTEX
  5
97
330
87
100
AcDbEntity
  8
0
100
AcDbVertex
100
AcDbPolyFaceMeshVertex
 10
12.49740314483643
 20
-13.72907733917236
 30
0.0099999997764826
 70
   192
  0
VERTEX
  5
98
330
87
100
AcDbEntity
  8
0
100
AcDbVertex
100
AcDbPolyFaceMeshVertex
 10
12.58744430541992
 20
-12.68337440490723
 30
0.0099999997764826
 70
   192
  0
VERTEX
  5
99
330
87
100
AcDbEntity
  8
0
100
AcDbVertex
100
AcDbPolyFaceMeshVertex
 10
12.45391845703125
 20
-13.3284969329834
 30
0.0099999997764826
 70
   192
  0
VERTEX
  5
9A
330
87
100
AcDbEntity
  8
0
100
AcDbVertex
100
AcDbPolyFaceMeshVertex
 10
12.40122318267822
 20
-12.4910135269165
 30
0.0099999997764826
 70
   192
  0
VERTEX
  5
9B
330
87
100
AcDbEntity
  8
0
100
AcDbVertex
100
AcDbPolyFaceMeshVertex
 10
12.32346057891846
 20
-12.97805404663086
 30
0.0099999997764826
 70
   192
  0
VERTEX
  5
9C
330
87
100
AcDbEntity
  8
0
100
AcDbVertex
100
AcDbPolyFaceMeshVertex
 10
12.17177200317383
 20
-12.33779144287109
 30
0.0099999997764826
 70
   192
  0
VERTEX
  5
9D
330
87
100
AcDbEntity
  8
0
100
AcDbVertex
100
AcDbPolyFaceMeshVertex
 10
12.1556568145752
 20
-12.76727676391602
 30
0.0099999997764826
 70
   192
  0
VERTEX
  5
9E
330
87
100
AcDbEntity
  8
0
100
AcDbVertex
100
AcDbPolyFaceMeshVertex
 10
11.97531986236572
 20
-12.63988876342773
 30
0.0099999997764826
 70
   192
  0
VERTEX
  5
9F
330
87
100
AcDbEntity
  8
0
100
AcDbVertex
100
AcDbPolyFaceMeshVertex
 10
11.48034954071045
 20
-12.50533866882324
 30
0.0099999997764826
 70
   192
  0
VERTEX
  5
A0
330
87
100
AcDbEntity
  8
0
100
AcDbVertex
100
AcDbPolyFaceMeshVertex
 10
11.66222286224365
 20
-12.51915168762207
 30
0.0099999997764826
 70
   192
  0
VERTEX
  5
A1
330
87
100
AcDbEntity
  8
0
100
AcDbVertex
100
AcDbPolyFaceMeshVertex
 10
11.73538112640381
 20
-12.18380069732666
 30
0.0099999997764826
 70
   192
  0
VERTEX
  5
A2
330
87
100
AcDbEntity
  8
0
100
AcDbVertex
100
AcDbPolyFaceMeshVertex
 10
11.81902694702148
 20
-12.56059169769287
 30
0.0099999997764826
 70
   192
  0
VERTEX
  5
A3
330
87
100
AcDbEntity
  8
0
100
AcDbVertex
100
AcDbPolyFaceMeshVertex
 10
11.95818138122559
 20
-12.23828601837158
 30
0.0099999997764826
 70
   192
  0
VERTEX
  5
A4
330
87
100
AcDbEntity
  8
0
100
AcDbVertex
100
AcDbPolyFaceMeshVertex
 10
10.73955917358398
 20
-12.80922698974609
 30
0.0099999997764826
 70
   192
  0
VERTEX
  5
A5
330
87
100
AcDbEntity
  8
0
100
AcDbVertex
100
AcDbPolyFaceMeshVertex
 10
11.07107353210449
 20
-12.58131122589111
 30
0.0099999997764826
 70
   192
  0
VERTEX
  5
A6
330
87
100
AcDbEntity
  8
0
100
AcDbVertex
100
AcDbPolyFaceMeshVertex
 10
11.08974647521973
 20
-12.21219444274902
 30
0.0099999997764826
 70
   192
  0
VERTEX
  5
A7
330
87
100
AcDbEntity
  8
0
100
AcDbVertex
100
AcDbPolyFaceMeshVertex
 10
11.47830390930176
 20
-12.16563987731934
 30
0.0099999997764826
 70
   192
  0
VERTEX
  5
A8
330
87
100
AcDbEntity
  8
0
100
AcDbVertex
100
AcDbPolyFaceMeshVertex
 10
10.73853588104248
 20
-12.35186004638672
 30
0.0099999997764826
 70
   192
  0
VERTEX
  5
A9
330
87
100
AcDbEntity
  8
0
100
AcDbVertex
100
AcDbPolyFaceMeshVertex
 10
10.52008438110352
 20
-13.18806457519531
 30
0.0099999997764826
 70
   192
  0
VERTEX
  5
AA
330
87
100
AcDbEntity
  8
0
100
AcDbVertex
100
AcDbPolyFaceMeshVertex
 10
12.74501609802246
 20
-12.10629463195801
 30
0.0099999997764826
 70
   192
  0
VERTEX
  5
AB
330
87
100
AcDbEntity
  8
0
100
AcDbVertex
100
AcDbPolyFaceMeshVertex
 10
12.94760799407959
 20
-12.27819061279297
 30
0.0099999997764826
 70
   192
  0
VERTEX
  5
AC
330
87
100
AcDbEntity
  8
0
100
AcDbVertex
100
AcDbPolyFaceMeshVertex
 10
10.80299663543701
 20
-14.68064594268799
 30
0.0099999997764826
 70
   192
  0
VERTEX
  5
AD
330
87
100
AcDbEntity
  8
0
100
AcDbVertex
100
AcDbPolyFaceMeshVertex
 10
10.62905406951904
 20
-14.47600746154785
 30
0.0099999997764826
 70
   192
  0
VERTEX
  5
AE
330
87
100
AcDbEntity
  8
0
100
AcDbVertex
100
AcDbPolyFaceMeshVertex
 10
10.77997493743896
 20
-15.09862041473389
 30
0.0099999997764826
 70
   192
  0
VERTEX
  5
AF
330
87
100
AcDbEntity
  8
0
100
AcDbVertex
100
AcDbPolyFaceMeshVertex
 10
10.97080039978027
 20
-15.18814945220947
 30
0.0099999997764826
 70
   192
  0
VERTEX
  5
B0
330
87
100
AcDbEntity
  8
0
100
AcDbVertex
100
AcDbPolyFaceMeshVertex
 10
10.95442962646484
 20
-14.79012775421143
 30
0.0099999997764826
 70
   192
  0
VERTEX
  5
B1
330
87
100
AcDbEntity
  8
0
100
AcDbVertex
100
AcDbPolyFaceMeshVertex
 10
10.54259490966797
 20
-14.29132175445557
 30
0.0099999997764826
 70
   192
  0
VERTEX
  5
B2
330
87
100
AcDbEntity
  8
0
100
AcDbVertex
100
AcDbPolyFaceMeshVertex
 10
10.49194622039795
 20
-14.13835430145264
 30
0.0099999997764826
 70
   192
  0
VERTEX
  5
B3
330
87
100
AcDbEntity
  8
0
100
AcDbVertex
100
AcDbPolyFaceMeshVertex
 10
12.8601245880127
 20
-14.15421390533447
 30
0.0099999997764826
 70
   192
  0
VERTEX
  5
B4
330
87
100
AcDbEntity
  8
0
100
AcDbVertex
100
AcDbPolyFaceMeshVertex
 10
12.9066801071167
 20
-13.71884536743164
 30
0.0099999997764826
 70
   192
  0
VERTEX
  5
B5
330
87
100
AcDbEntity
  8
0
100
AcDbVertex
100
AcDbPolyFaceMeshVertex
 10
12.88621711730957
 20
-13.41495704650879
 30
0.0099999997764826
 70
   192
  0
VERTEX
  5
B6
330
87
100
AcDbEntity
  8
0
100
AcDbVertex
100
AcDbPolyFaceMeshVertex
 10
12.82482528686523
 20
-13.14176464080811
 30
0.0099999997764826
 70
   192
  0
VERTEX
  5
B7
330
87
100
AcDbEntity
  8
0
100
AcDbVertex
100
AcDbPolyFaceMeshVertex
 10
12.73478412628174
 20
-12.92894077301025
 30
0.0099999997764826
 70
   192
  0
VERTEX
  5
B8
330
87
100
AcDbEntity
  8
0
100
AcDbVertex
100
AcDbPolyFaceMeshVertex
 10
11.48239707946777
 20
-15.26795864105225
 30
0.0099999997764826
 70
   192
  0
VERTEX
  5
B9
330
87
100
AcDbEntity
  8
0
100
AcDbVertex
100
AcDbPolyFaceMeshVertex
 10
11.85049057006836
 20
-15.22191429138184
 30
0.0099999997764826
 70
   192
  0
VERTEX
  5
BA
330
87
100
AcDbEntity
  8
0
100
AcDbVertex
100
AcDbPolyFaceMeshVertex
 10
11.87734889984131
 20
-14.84947299957275
 30
0.0099999997764826
 70
   192
  0
VERTEX
  5
BB
330
87
100
AcDbEntity
  8
0
100
AcDbVertex
100
AcDbPolyFaceMeshVertex
 10
12.19760799407959
 20
-15.08378410339355
 30
0.0099999997764826
 70
   192
  0
VERTEX
  5
BC
330
87
100
AcDbEntity
  8
0
100
AcDbVertex
100
AcDbPolyFaceMeshVertex
 10
12.20681667327881
 20
-14.61311531066895
 30
0.0099999997764826
 70
   192
  0
VERTEX
  5
BD
330
87
100
AcDbEntity
  8
0
100
AcDbVertex
100
AcDbPolyFaceMeshVertex
 10
12.42475700378418
 20
-14.23453426361084
 30
0.0099999997764826
 70
   192
  0
VERTEX
  5
BE
330
87
100
AcDbEntity
  8
0
100
AcDbVertex
100
AcDbPolyFaceMeshVertex
 10
11.09358406066895
 20
-14.86072826385498
 30
0.0099999997764826
 70
   192
  0
VERTEX
  5
BF
330
87
100
AcDbEntity
  8
0
100
AcDbVertex
100
AcDbPolyFaceMeshVertex
 10
11.21329689025879
 20
-15.24800586700439
 30
0.0099999997764826
 70
   192
  0
VERTEX
  5
C0
330
87
100
AcDbEntity
  8
0
100
AcDbVertex
100
AcDbPolyFaceMeshVertex
 10
11.27468872070312
 20
-14.91137599945068
 30
0.0099999997764826
 70
   192
  0
VERTEX
  5
C1
330
87
100
AcDbEntity
  8
0
100
AcDbVertex
100
AcDbPolyFaceMeshVertex
 10
11.47011947631836
 20
-14.92825889587402
 30
0.0099999997764826
 70
   192
  0
VERTEX
  5
C2
330
87
100
AcDbEntity
  8
0
100
AcDbVertex
100
AcDbPolyFaceMeshVertex
 10
15.46056842803955
 20
-15.21679878234863
 30
0.0099999997764826
 70
   192
  0
VERTEX
  5
C3
330
87
100
AcDbEntity
  8
0
100
AcDbVertex
100
AcDbPolyFaceMeshVertex
 10
15.82891845703125
 20
-15.21679878234863
 30
0.0099999997764826
 70
   192
  0
VERTEX
  5
C4
330
87
100
AcDbEntity
  8
0
100
AcDbVertex
100
AcDbPolyFaceMeshVertex
 10
15.46056842803955
 20
-12.86959552764893
 30
0.0099999997764826
 70
   192
  0
VERTEX
  5
C5
330
87
100
AcDbEntity
  8
0
100
AcDbVertex
100
AcDbPolyFaceMeshVertex
 10
15.46159172058105
 20
-12.40199661254883
 30
0.0099999997764826
 70
   192
  0
VERTEX
  5
C6
330
87
100
AcDbEntity
  8
0
100
AcDbVertex
100
AcDbPolyFaceMeshVertex
 10
15.30683326721191
 20
-12.9964714050293
 30
0.0099999997764826
 70
   192
  0
VERTEX
  5
C7
330
87
100
AcDbEntity
  8
0
100
AcDbVertex
100
AcDbPolyFaceMeshVertex
 10
15.26411533355713
 20
-12.60561180114746
 30
0.0099999997764826
 70
   192
  0
VERTEX
  5
C8
330
87
100
AcDbEntity
  8
0
100
AcDbVertex
100
AcDbPolyFaceMeshVertex
 10
15.11166000366211
 20
-13.12334728240967
 30
0.0099999997764826
 70
   192
  0
VERTEX
  5
C9
330
87
100
AcDbEntity
  8
0
100
AcDbVertex
100
AcDbPolyFaceMeshVertex
 10
15.0134334564209
 20
-12.79694938659668
 30
0.0099999997764826
 70
   192
  0
VERTEX
  5
CA
330
87
100
AcDbEntity
  8
0
100
AcDbVertex
100
AcDbPolyFaceMeshVertex
 10
14.90676498413086
 20
-13.2343635559082
 30
0.0099999997764826
 70
   192
  0
VERTEX
  5
CB
330
87
100
AcDbEntity
  8
0
100
AcDbVertex
100
AcDbPolyFaceMeshVertex
 10
14.72386932373047
 20
-12.95759010314941
 30
0.0099999997764826
 70
   192
  0
VERTEX
  5
CC
330
87
100
AcDbEntity
  8
0
100
AcDbVertex
100
AcDbPolyFaceMeshVertex
 10
14.72386932373047
 20
-13.31366157531738
 30
0.0099999997764826
 70
   192
  0
VERTEX
  5
CD
330
87
100
AcDbEntity
  8
0
100
AcDbVertex
100
AcDbPolyFaceMeshVertex
 10
15.59153747558594
 20
-12.20452117919922
 30
0.0099999997764826
 70
   192
  0
VERTEX
  5
CE
330
87
100
AcDbEntity
  8
0
100
AcDbVertex
100
AcDbPolyFaceMeshVertex
 10
15.82891845703125
 20
-12.20452117919922
 30
0.0099999997764826
 70
   192
  0
VERTEX
  5
CF
330
87
100
AcDbEntity
  8
0
100
AcDbVertex
100
AcDbPolyFaceMeshVertex
 10
16.97898483276367
 20
-15.21679878234863
 30
0.0099999997764826
 70
   192
  0
VERTEX
  5
D0
330
87
100
AcDbEntity
  8
0
100
AcDbVertex
100
AcDbPolyFaceMeshVertex
 10
17.39849472045898
 20
-15.21679878234863
 30
0.0099999997764826
 70
   192
  0
VERTEX
  5
D1
330
87
100
AcDbEntity
  8
0
100
AcDbVertex
100
AcDbPolyFaceMeshVertex
 10
17.39849472045898
 20
-14.79728984832764
 30
0.0099999997764826
 70
   192
  0
VERTEX
  5
D2
330
87
100
AcDbEntity
  8
0
100
AcDbVertex
100
AcDbPolyFaceMeshVertex
 10
16.97898483276367
 20
-14.79728984832764
 30
0.0099999997764826
 70
   192
  0
VERTEX
  5
D3
330
87
100
AcDbEntity
  8
0
100
AcDbVertex
100
AcDbPolyFaceMeshVertex
 10
19.89303779602051
 20
-13.73726272583008
 30
0.0099999997764826
 70
   192
  0
VERTEX
  5
D4
330
87
100
AcDbEntity
  8
0
100
AcDbVertex
100
AcDbPolyFaceMeshVertex
 10
19.87615585327148
 20
-13.33693885803223
 30
0.0099999997764826
 70
   192
  0
VERTEX
  5
D5
330
87
100
AcDbEntity
  8
0
100
AcDbVertex
100
AcDbPolyFaceMeshVertex
 10
19.86592292785645
 20
-14.21432590484619
 30
0.0099999997764826
 70
   192
  0
VERTEX
  5
D6
330
87
100
AcDbEntity
  8
0
100
AcDbVertex
100
AcDbPolyFaceMeshVertex
 10
19.82550811767578
 20
-13.02819061279297
 30
0.0099999997764826
 70
   192
  0
VERTEX
  5
D7
330
87
100
AcDbEntity
  8
0
100
AcDbVertex
100
AcDbPolyFaceMeshVertex
 10
19.78458023071289
 20
-14.58958053588867
 30
0.0099999997764826
 70
   192
  0
VERTEX
  5
D8
330
87
100
AcDbEntity
  8
0
100
AcDbVertex
100
AcDbPolyFaceMeshVertex
 10
19.74518585205078
 20
-12.78518199920654
 30
0.0099999997764826
 70
   192
  0
VERTEX
  5
D9
330
87
100
AcDbEntity
  8
0
100
AcDbVertex
100
AcDbPolyFaceMeshVertex
 10
19.64926147460938
 20
-14.87709903717041
 30
0.0099999997764826
 70
   192
  0
VERTEX
  5
DA
330
87
100
AcDbEntity
  8
0
100
AcDbVertex
100
AcDbPolyFaceMeshVertex
 10
19.63928604125977
 20
-12.58207893371582
 30
0.0099999997764826
 70
   192
  0
VERTEX
  5
DB
330
87
100
AcDbEntity
  8
0
100
AcDbVertex
100
AcDbPolyFaceMeshVertex
 10
19.51445770263672
 20
-13.73726272583008
 30
0.0099999997764826
 70
   192
  0
VERTEX
  5
DC
330
87
100
AcDbEntity
  8
0
100
AcDbVertex
100
AcDbPolyFaceMeshVertex
 10
19.50473594665527
 20
-12.42041397094727
 30
0.0099999997764826
 70
   192
  0
VERTEX
  5
DD
330
87
100
AcDbEntity
  8
0
100
AcDbVertex
100
AcDbPolyFaceMeshVertex
 10
19.47122573852539
 20
-13.12078952789307
 30
0.0099999997764826
 70
   192
  0
VERTEX
  5
DE
330
87
100
AcDbEntity
  8
0
100
AcDbVertex
100
AcDbPolyFaceMeshVertex
 10
19.34153747558594
 20
-12.75295162200928
 30
0.0099999997764826
 70
   192
  0
VERTEX
  5
DF
330
87
100
AcDbEntity
  8
0
100
AcDbVertex
100
AcDbPolyFaceMeshVertex
 10
19.33846664428711
 20
-12.30172252655029
 30
0.0099999997764826
 70
   192
  0
VERTEX
  5
E0
330
87
100
AcDbEntity
  8
0
100
AcDbVertex
100
AcDbPolyFaceMeshVertex
 10
19.14150238037109
 20
-12.22882175445557
 30
0.0099999997764826
 70
   192
  0
VERTEX
  5
E1
330
87
100
AcDbEntity
  8
0
100
AcDbVertex
100
AcDbPolyFaceMeshVertex
 10
19.14738655090332
 20
-12.57031154632568
 30
0.0099999997764826
 70
   192
  0
VERTEX
  5
E2
330
87
100
AcDbEntity
  8
0
100
AcDbVertex
100
AcDbPolyFaceMeshVertex
 10
18.91486549377441
 20
-12.20452117919922
 30
0.0099999997764826
 70
   192
  0
VERTEX
  5
E3
330
87
100
AcDbEntity
  8
0
100
AcDbVertex
100
AcDbPolyFaceMeshVertex
 10
18.61532592773438
 20
-12.2485179901123
 30
0.0099999997764826
 70
   192
  0
VERTEX
  5
E4
330
87
100
AcDbEntity
  8
0
100
AcDbVertex
100
AcDbPolyFaceMeshVertex
 10
18.68260192871094
 20
-12.56314945220947
 30
0.0099999997764826
 70
   192
  0
VERTEX
  5
E5
330
87
100
AcDbEntity
  8
0
100
AcDbVertex
100
AcDbPolyFaceMeshVertex
 10
18.91077423095703
 20
-12.50943183898926
 30
0.0099999997764826
 70
   192
  0
VERTEX
  5
E6
330
87
100
AcDbEntity
  8
0
100
AcDbVertex
100
AcDbPolyFaceMeshVertex
 10
18.31527519226074
 20
-13.73726272583008
 30
0.0099999997764826
 70
   192
  0
VERTEX
  5
E7
330
87
100
AcDbEntity
  8
0
100
AcDbVertex
100
AcDbPolyFaceMeshVertex
 10
18.36285400390625
 20
-13.11465072631836
 30
0.0099999997764826
 70
   192
  0
VERTEX
  5
E8
330
87
100
AcDbEntity
  8
0
100
AcDbVertex
100
AcDbPolyFaceMeshVertex
 10
18.37155151367188
 20
-12.38050937652588
 30
0.0099999997764826
 70
   192
  0
VERTEX
  5
E9
330
87
100
AcDbEntity
  8
0
100
AcDbVertex
100
AcDbPolyFaceMeshVertex
 10
18.50558853149414
 20
-12.72430229187012
 30
0.0099999997764826
 70
   192
  0
VERTEX
  5
EA
330
87
100
AcDbEntity
  8
0
100
AcDbVertex
100
AcDbPolyFaceMeshVertex
 10
18.23341941833496
 20
-14.95690822601318
 30
0.0099999997764826
 70
   192
  0
VERTEX
  5
EB
330
87
100
AcDbEntity
  8
0
100
AcDbVertex
100
AcDbPolyFaceMeshVertex
 10
18.527587890625
 20
-15.19019603729248
 30
0.0099999997764826
 70
   192
  0
VERTEX
  5
EC
330
87
100
AcDbEntity
  8
0
100
AcDbVertex
100
AcDbPolyFaceMeshVertex
 10
18.35850524902344
 20
-14.35245704650879
 30
0.0099999997764826
 70
   192
  0
VERTEX
  5
ED
330
87
100
AcDbEntity
  8
0
100
AcDbVertex
100
AcDbPolyFaceMeshVertex
 10
18.18225860595703
 20
-12.59358978271484
 30
0.0099999997764826
 70
   192
  0
VERTEX
  5
EE
330
87
100
AcDbEntity
  8
0
100
AcDbVertex
100
AcDbPolyFaceMeshVertex
 10
18.04617500305176
 20
-12.88085079193115
 30
0.0099999997764826
 70
   192
  0
VERTEX
  5
EF
330
87
100
AcDbEntity
  8
0
100
AcDbVertex
100
AcDbPolyFaceMeshVertex
 10
18.0108757019043
 20
-14.46475219726562
 30
0.0099999997764826
 70
   192
  0
VERTEX
  5
F0
330
87
100
AcDbEntity
  8
0
100
AcDbVertex
100
AcDbPolyFaceMeshVertex
 10
17.96406555175781
 20
-13.25712966918945
 30
0.0099999997764826
 70
   192
  0
VERTEX
  5
F1
330
87
100
AcDbEntity
  8
0
100
AcDbVertex
100
AcDbPolyFaceMeshVertex
 10
17.93669509887695
 20
-13.73726272583008
 30
0.0099999997764826
 70
   192
  0
VERTEX
  5
F2
330
87
100
AcDbEntity
  8
0
100
AcDbVertex
100
AcDbPolyFaceMeshVertex
 10
19.14840888977051
 20
-14.90370178222656
 30
0.0099999997764826
 70
   192
  0
VERTEX
  5
F3
330
87
100
AcDbEntity
  8
0
100
AcDbVertex
100
AcDbPolyFaceMeshVertex
 10
19.21593856811523
 20
-15.22370529174805
 30
0.0099999997764826
 70
   192
  0
VERTEX
  5
F4
330
87
100
AcDbEntity
  8
0
100
AcDbVertex
100
AcDbPolyFaceMeshVertex
 10
19.34153747558594
 20
-14.71952724456787
 30
0.0099999997764826
 70
   192
  0
VERTEX
  5
F5
330
87
100
AcDbEntity
  8
0
100
AcDbVertex
100
AcDbPolyFaceMeshVertex
 10
19.46022796630859
 20
-15.09094619750977
 30
0.0099999997764826
 70
   192
  0
VERTEX
  5
F6
330
87
100
AcDbEntity
  8
0
100
AcDbVertex
100
AcDbPolyFaceMeshVertex
 10
19.47122573852539
 20
-14.35117816925049
 30
0.0099999997764826
 70
   192
  0
VERTEX
  5
F7
330
87
100
AcDbEntity
  8
0
100
AcDbVertex
100
AcDbPolyFaceMeshVertex
 10
18.48819351196289
 20
-14.72055053710938
 30
0.0099999997764826
 70
   192
  0
VERTEX
  5
F8
330
87
100
AcDbEntity
  8
0
100
AcDbVertex
100
AcDbPolyFaceMeshVertex
 10
18.68132209777832
 20
-14.90395736694336
 30
0.0099999997764826
 70
   192
  0
VERTEX
  5
F9
330
87
100
AcDbEntity
  8
0
100
AcDbVertex
100
AcDbPolyFaceMeshVertex
 10
18.91486549377441
 20
-15.26795864105225
 30
0.0099999997764826
 70
   192
  0
VERTEX
  5
FA
330
87
100
AcDbEntity
  8
0
100
AcDbVertex
100
AcDbPolyFaceMeshVertex
 10
18.91486549377441
 20
-14.9650936126709
 30
0.0099999997764826
 70
   192
  0
VERTEX
  5
FB
330
87
100
AcDbEntity
  8
0
100
AcDbVertex
100
AcDbPolyFaceMeshVertex
 10
22.22386932373047
 20
-13.73726272583008
 30
0.0099999997764826
 70
   192
  0
VERTEX
  5
FC
330
87
100
AcDbEntity
  8
0
100
AcDbVertex
100
AcDbPolyFaceMeshVertex
 10
22.20698547363281
 20
-13.33693885803223
 30
0.0099999997764826
 70
   192
  0
VERTEX
  5
FD
330
87
100
AcDbEntity
  8
0
100
AcDbVertex
100
AcDbPolyFaceMeshVertex
 10
22.19675445556641
 20
-14.21432590484619
 30
0.0099999997764826
 70
   192
  0
VERTEX
  5
FE
330
87
100
AcDbEntity
  8
0
100
AcDbVertex
100
AcDbPolyFaceMeshVertex
 10
22.15633773803711
 20
-13.02819061279297
 30
0.0099999997764826
 70
   192
  0
VERTEX
  5
FF
330
87
100
AcDbEntity
  8
0
100
AcDbVertex
100
AcDbPolyFaceMeshVertex
 10
22.11540985107422
 20
-14.58958053588867
 30
0.0099999997764826
 70
   192
  0
VERTEX
  5
100
330
87
100
AcDbEntity
  8
0
100
AcDbVertex
100
AcDbPolyFaceMeshVertex
 10
22.07601928710938
 20
-12.78518199920654
 30
0.0099999997764826
 70
   192
  0
VERTEX
  5
101
330
87
100
AcDbEntity
  8
0
100
AcDbVertex
100
AcDbPolyFaceMeshVertex
 10
21.98009490966797
 20
-14.87709903717041
 30
0.0099999997764826
 70
   192
  0
VERTEX
  5
102
330
87
100
AcDbEntity
  8
0
100
AcDbVertex
100
AcDbPolyFaceMeshVertex
 10
21.97011756896973
 20
-12.58207893371582
 30
0.0099999997764826
 70
   192
  0
VERTEX
  5
103
330
87
100
AcDbEntity
  8
0
100
AcDbVertex
100
AcDbPolyFaceMeshVertex
 10
21.84528732299805
 20
-13.73726272583008
 30
0.0099999997764826
 70
   192
  0
VERTEX
  5
104
330
87
100
AcDbEntity
  8
0
100
AcDbVertex
100
AcDbPolyFaceMeshVertex
 10
21.83556747436523
 20
-12.42041397094727
 30
0.0099999997764826
 70
   192
  0
VERTEX
  5
105
330
87
100
AcDbEntity
  8
0
100
AcDbVertex
100
AcDbPolyFaceMeshVertex
 10
21.80205917358398
 20
-13.12078952789307
 30
0.0099999997764826
 70
   192
  0
VERTEX
  5
106
330
87
100
AcDbEntity
  8
0
100
AcDbVertex
100
AcDbPolyFaceMeshVertex
 10
21.6723690032959
 20
-12.75295162200928
 30
0.0099999997764826
 70
   192
  0
VERTEX
  5
107
330
87
100
AcDbEntity
  8
0
100
AcDbVertex
100
AcDbPolyFaceMeshVertex
 10
21.6693000793457
 20
-12.30172252655029
 30
0.0099999997764826
 70
   192
  0
VERTEX
  5
108
330
87
100
AcDbEntity
  8
0
100
AcDbVertex
100
AcDbPolyFaceMeshVertex
 10
21.47233581542969
 20
-12.22882175445557
 30
0.0099999997764826
 70
   192
  0
VERTEX
  5
109
330
87
100
AcDbEntity
  8
0
100
AcDbVertex
100
AcDbPolyFaceMeshVertex
 10
21.47821807861328
 20
-12.57031154632568
 30
0.0099999997764826
 70
   192
  0
VERTEX
  5
10A
330
87
100
AcDbEntity
  8
0
100
AcDbVertex
100
AcDbPolyFaceMeshVertex
 10
21.24569702148438
 20
-12.20452117919922
 30
0.0099999997764826
 70
   192
  0
VERTEX
  5
10B
330
87
100
AcDbEntity
  8
0
100
AcDbVertex
100
AcDbPolyFaceMeshVertex
 10
20.94615936279297
 20
-12.2485179901123
 30
0.0099999997764826
 70
   192
  0
VERTEX
  5
10C
330
87
100
AcDbEntity
  8
0
100
AcDbVertex
100
AcDbPolyFaceMeshVertex
 10
21.0134334564209
 20
-12.56314945220947
 30
0.0099999997764826
 70
   192
  0
VERTEX
  5
10D
330
87
100
AcDbEntity
  8
0
100
AcDbVertex
100
AcDbPolyFaceMeshVertex
 10
21.24160385131836
 20
-12.50943183898926
 30
0.0099999997764826
 70
   192
  0
VERTEX
  5
10E
330
87
100
AcDbEntity
  8
0
100
AcDbVertex
100
AcDbPolyFaceMeshVertex
 10
20.6461067199707
 20
-13.73726272583008
 30
0.0099999997764826
 70
   192
  0
VERTEX
  5
10F
330
87
100
AcDbEntity
  8
0
100
AcDbVertex
100
AcDbPolyFaceMeshVertex
 10
20.69368553161621
 20
-13.11465072631836
 30
0.0099999997764826
 70
   192
  0
VERTEX
  5
110
330
87
100
AcDbEntity
  8
0
100
AcDbVertex
100
AcDbPolyFaceMeshVertex
 10
20.7023811340332
 20
-12.38050937652588
 30
0.0099999997764826
 70
   192
  0
VERTEX
  5
111
330
87
100
AcDbEntity
  8
0
100
AcDbVertex
100
AcDbPolyFaceMeshVertex
 10
20.83642196655273
 20
-12.72430229187012
 30
0.0099999997764826
 70
   192
  0
VERTEX
  5
112
330
87
100
AcDbEntity
  8
0
100
AcDbVertex
100
AcDbPolyFaceMeshVertex
 10
20.56425094604492
 20
-14.95690822601318
 30
0.0099999997764826
 70
   192
  0
VERTEX
  5
113
330
87
100
AcDbEntity
  8
0
100
AcDbVertex
100
AcDbPolyFaceMeshVertex
 10
20.85841941833496
 20
-15.19019603729248
 30
0.0099999997764826
 70
   192
  0
VERTEX
  5
114
330
87
100
AcDbEntity
  8
0
100
AcDbVertex
100
AcDbPolyFaceMeshVertex
 10
20.6893367767334
 20
-14.35245704650879
 30
0.0099999997764826
 70
   192
  0
VERTEX
  5
115
330
87
100
AcDbEntity
  8
0
100
AcDbVertex
100
AcDbPolyFaceMeshVertex
 10
20.51309204101562
 20
-12.59358978271484
 30
0.0099999997764826
 70
   192
  0
VERTEX
  5
116
330
87
100
AcDbEntity
  8
0
100
AcDbVertex
100
AcDbPolyFaceMeshVertex
 10
20.37700653076172
 20
-12.88085079193115
 30
0.0099999997764826
 70
   192
  0
VERTEX
  5
117
330
87
100
AcDbEntity
  8
0
100
AcDbVertex
100
AcDbPolyFaceMeshVertex
 10
20.34170722961426
 20
-14.46475219726562
 30
0.0099999997764826
 70
   192
  0
VERTEX
  5
118
330
87
100
AcDbEntity
  8
0
100
AcDbVertex
100
AcDbPolyFaceMeshVertex
 10
20.29489517211914
 20
-13.25712966918945
 30
0.0099999997764826
 70
   192
  0
VERTEX
  5
119
330
87
100
AcDbEntity
  8
0
100
AcDbVertex
100
AcDbPolyFaceMeshVertex
 10
20.26752471923828
 20
-13.73726272583008
 30
0.0099999997764826
 70
   192
  0
VERTEX
  5
11A
330
87
100
AcDbEntity
  8
0
100
AcDbVertex
100
AcDbPolyFaceMeshVertex
 10
21.47924041748047
 20
-14.90370178222656
 30
0.0099999997764826
 70
   192
  0
VERTEX
  5
11B
330
87
100
AcDbEntity
  8
0
100
AcDbVertex
100
AcDbPolyFaceMeshVertex
 10
21.54677200317383
 20
-15.22370529174805
 30
0.0099999997764826
 70
   192
  0
VERTEX
  5
11C
330
87
100
AcDbEntity
  8
0
100
AcDbVertex
100
AcDbPolyFaceMeshVertex
 10
21.6723690032959
 20
-14.71952724456787
 30
0.0099999997764826
 70
   192
  0
VERTEX
  5
11D
330
87
100
AcDbEntity
  8
0
100
AcDbVertex
100
AcDbPolyFaceMeshVertex
 10
21.79105949401855
 20
-15.09094619750977
 30
0.0099999997764826
 70
   192
  0
VERTEX
  5
11E
330
87
100
AcDbEntity
  8
0
100
AcDbVertex
100
AcDbPolyFaceMeshVertex
 10
21.80205917358398
 20
-14.35117816925049
 30
0.0099999997764826
 70
   192
  0
VERTEX
  5
11F
330
87
100
AcDbEntity
  8
0
100
AcDbVertex
100
AcDbPolyFaceMeshVertex
 10
20.81902694702148
 20
-14.72055053710938
 30
0.0099999997764826
 70
   192
  0
VERTEX
  5
120
330
87
100
AcDbEntity
  8
0
100
AcDbVertex
100
AcDbPolyFaceMeshVertex
 10
21.01215362548828
 20
-14.90395736694336
 30
0.0099999997764826
 70
   192
  0
VERTEX
  5
121
330
87
100
AcDbEntity
  8
0
100
AcDbVertex
100
AcDbPolyFaceMeshVertex
 10
21.24569702148438
 20
-15.26795864105225
 30
0.0099999997764826
 70
   192
  0
VERTEX
  5
122
330
87
100
AcDbEntity
  8
0
100
AcDbVertex
100
AcDbPolyFaceMeshVertex
 10
21.24569702148438
 20
-14.9650936126709
 30
0.0099999997764826
 70
   192
  0
VERTEX
  5
123
330
87
100
AcDbEntity
  8
0
100
AcDbVertex
100
AcDbPolyFaceMeshVertex
 10
-5.5
 20
-15.11880016326904
 30
0.0099999997764826
 70
   192
  0
VERTEX
  5
124
330
87
100
AcDbEntity
  8
0
100
AcDbVertex
100
AcDbPolyFaceMeshVertex
 10
-5.5
 20
-13.11880016326904
 30
0.0099999997764826
 70
   192
  0
VERTEX
  5
125
330
87
100
AcDbEntity
  8
0
100
AcDbVertex
100
AcDbPolyFaceMeshVertex
 10
-0.5
 20
-14.11880016326904
 30
0.0099999997764826
 70
   192
  0
VERTEX
  5
126
330
87
100
AcDbEntity
  8
0
100
AcDbVertex
100
AcDbPolyFaceMeshVertex
 10
5.5
 20
-13.11880016326904
 30
0.0099999997764826
 70
   192
  0
VERTEX
  5
127
330
87
100
AcDbEntity
  8
0
100
AcDbVertex
100
AcDbPolyFaceMeshVertex
 10
5.5
 20
-15.11880016326904
 30
0.0099999997764826
 70
   192
  0
VERTEX
  5
128
330
87
100
AcDbEntity
  8
0
100
AcDbVertex
100
AcDbPolyFaceMeshVertex
 10
0.5
 20
-14.11880016326904
 30
0.0099999997764826
 70
   192
  0
VERTEX
  5
129
330
87
100
AcDbEntity
  8
0
100
AcDbFaceRecord
 10
0.0
 20
0.0
 30
0.0
 70
   128
 71
     1
 72
     2
 73
     3
  0
VERTEX
  5
12A
330
87
100
AcDbEntity
  8
0
100
AcDbFaceRecord
 10
0.0
 20
0.0
 30
0.0
 70
   128
 71
     1
 72
     3
 73
     4
  0
VERTEX
  5
12B
330
87
100
AcDbEntity
  8
0
100
AcDbFaceRecord
 10
0.0
 20
0.0
 30
0.0
 70
   128
 71
     1
 72
     4
 73
     5
  0
VERTEX
  5
12C
330
87
100
AcDbEntity
  8
0
100
AcDbFaceRecord
 10
0.0
 20
0.0
 30
0.0
 70
   128
 71
     1
 72
     5
 73
     6
  0
VERTEX
  5
12D
330
87
100
AcDbEntity
  8
0
100
AcDbFaceRecord
 10
0.0
 20
0.0
 30
0.0
 70
   128
 71
     1
 72
     6
 73
     7
  0
VERTEX
  5
12E
330
87
100
AcDbEntity
  8
0
100
AcDbFaceRecord
 10
0.0
 20
0.0
 30
0.0
 70
   128
 71
     1
 72
     7
 73
     8
  0
VERTEX
  5
12F
330
87
100
AcDbEntity
  8
0
100
AcDbFaceRecord
 10
0.0
 20
0.0
 30
0.0
 70
   128
 71
     1
 72
     8
 73
     9
  0
VERTEX
  5
130
330
87
100
AcDbEntity
  8
0
100
AcDbFaceRecord
 10
0.0
 20
0.0
 30
0.0
 70
   128
 71
    10
 72
    11
 73
    12
  0
VERTEX
  5
131
330
87
100
AcDbEntity
  8
0
100
AcDbFaceRecord
 10
0.0
 20
0.0
 30
0.0
 70
   128
 71
    13
 72
    12
 73
    11
  0
VERTEX
  5
132
330
87
100
AcDbEntity
  8
0
100
AcDbFaceRecord
 10
0.0
 20
0.0
 30
0.0
 70
   128
 71
    12
 72
    13
 73
     8
  0
VERTEX
  5
133
330
87
100
AcDbEntity
  8
0
100
AcDbFaceRecord
 10
0.0
 20
0.0
 30
0.0
 70
   128
 71
     9
 72
     8
 73
    13
  0
VERTEX
  5
134
330
87
100
AcDbEntity
  8
0
100
AcDbFaceRecord
 10
0.0
 20
0.0
 30
0.0
 70
   128
 71
    14
 72
    15
 73
    16
  0
VERTEX
  5
135
330
87
100
AcDbEntity
  8
0
100
AcDbFaceRecord
 10
0.0
 20
0.0
 30
0.0
 70
   128
 71
    17
 72
    16
 73
    15
  0
VERTEX
  5
136
330
87
100
AcDbEntity
  8
0
100
AcDbFaceRecord
 10
0.0
 20
0.0
 30
0.0
 70
   128
 71
    16
 72
    17
 73
    18
  0
VERTEX
  5
137
330
87
100
AcDbEntity
  8
0
100
AcDbFaceRecord
 10
0.0
 20
0.0
 30
0.0
 70
   128
 71
    19
 72
    18
 73
    17
  0
VERTEX
  5
138
330
87
100
AcDbEntity
  8
0
100
AcDbFaceRecord
 10
0.0
 20
0.0
 30
0.0
 70
   128
 71
    18
 72
    19
 73
    20
  0
VERTEX
  5
139
330
87
100
AcDbEntity
  8
0
100
AcDbFaceRecord
 10
0.0
 20
0.0
 30
0.0
 70
   128
 71
    21
 72
    20
 73
    19
  0
VERTEX
  5
13A
330
87
100
AcDbEntity
  8
0
100
AcDbFaceRecord
 10
0.0
 20
0.0
 30
0.0
 70
   128
 71
    20
 72
    21
 73
    22
  0
VERTEX
  5
13B
330
87
100
AcDbEntity
  8
0
100
AcDbFaceRecord
 10
0.0
 20
0.0
 30
0.0
 70
   128
 71
    23
 72
    22
 73
    21
  0
VERTEX
  5
13C
330
87
100
AcDbEntity
  8
0
100
AcDbFaceRecord
 10
0.0
 20
0.0
 30
0.0
 70
   128
 71
    24
 72
    25
 73
    26
  0
VERTEX
  5
13D
330
87
100
AcDbEntity
  8
0
100
AcDbFaceRecord
 10
0.0
 20
0.0
 30
0.0
 70
   128
 71
    27
 72
    26
 73
    25
  0
VERTEX
  5
13E
330
87
100
AcDbEntity
  8
0
100
AcDbFaceRecord
 10
0.0
 20
0.0
 30
0.0
 70
   128
 71
    26
 72
    27
 73
    28
  0
VERTEX
  5
13F
330
87
100
AcDbEntity
  8
0
100
AcDbFaceRecord
 10
0.0
 20
0.0
 30
0.0
 70
   128
 71
    23
 72
    28
 73
    27
  0
VERTEX
  5
140
330
87
100
AcDbEntity
  8
0
100
AcDbFaceRecord
 10
0.0
 20
0.0
 30
0.0
 70
   128
 71
    28
 72
    23
 73
    21
  0
VERTEX
  5
141
330
87
100
AcDbEntity
  8
0
100
AcDbFaceRecord
 10
0.0
 20
0.0
 30
0.0
 70
   128
 71
    29
 72
    30
 73
    31
  0
VERTEX
  5
142
330
87
100
AcDbEntity
  8
0
100
AcDbFaceRecord
 10
0.0
 20
0.0
 30
0.0
 70
   128
 71
    24
 72
    31
 73
    30
  0
VERTEX
  5
143
330
87
100
AcDbEntity
  8
0
100
AcDbFaceRecord
 10
0.0
 20
0.0
 30
0.0
 70
   128
 71
    31
 72
    24
 73
    32
  0
VERTEX
  5
144
330
87
100
AcDbEntity
  8
0
100
AcDbFaceRecord
 10
0.0
 20
0.0
 30
0.0
 70
   128
 71
    26
 72
    32
 73
    24
  0
VERTEX
  5
145
330
87
100
AcDbEntity
  8
0
100
AcDbFaceRecord
 10
0.0
 20
0.0
 30
0.0
 70
   128
 71
    33
 72
     7
 73
    34
  0
VERTEX
  5
146
330
87
100
AcDbEntity
  8
0
100
AcDbFaceRecord
 10
0.0
 20
0.0
 30
0.0
 70
   128
 71
    33
 72
    34
 73
    29
  0
VERTEX
  5
147
330
87
100
AcDbEntity
  8
0
100
AcDbFaceRecord
 10
0.0
 20
0.0
 30
0.0
 70
   128
 71
    33
 72
    29
 73
    31
  0
VERTEX
  5
148
330
87
100
AcDbEntity
  8
0
100
AcDbFaceRecord
 10
0.0
 20
0.0
 30
0.0
 70
   128
 71
    35
 72
    19
 73
    17
  0
VERTEX
  5
149
330
87
100
AcDbEntity
  8
0
100
AcDbFaceRecord
 10
0.0
 20
0.0
 30
0.0
 70
   128
 71
    35
 72
    17
 73
    36
  0
VERTEX
  5
14A
330
87
100
AcDbEntity
  8
0
100
AcDbFaceRecord
 10
0.0
 20
0.0
 30
0.0
 70
   128
 71
    37
 72
    20
 73
    22
  0
VERTEX
  5
14B
330
87
100
AcDbEntity
  8
0
100
AcDbFaceRecord
 10
0.0
 20
0.0
 30
0.0
 70
   128
 71
    37
 72
    22
 73
    38
  0
VERTEX
  5
14C
330
87
100
AcDbEntity
  8
0
100
AcDbFaceRecord
 10
0.0
 20
0.0
 30
0.0
 70
   128
 71
    37
 72
    38
 73
    39
  0
VERTEX
  5
14D
330
87
100
AcDbEntity
  8
0
100
AcDbFaceRecord
 10
0.0
 20
0.0
 30
0.0
 70
   128
 71
    37
 72
    39
 73
    40
  0
VERTEX
  5
14E
330
87
100
AcDbEntity
  8
0
100
AcDbFaceRecord
 10
0.0
 20
0.0
 30
0.0
 70
   128
 71
    37
 72
    40
 73
    41
  0
VERTEX
  5
14F
330
87
100
AcDbEntity
  8
0
100
AcDbFaceRecord
 10
0.0
 20
0.0
 30
0.0
 70
   128
 71
     4
 72
    39
 73
    38
  0
VERTEX
  5
150
330
87
100
AcDbEntity
  8
0
100
AcDbFaceRecord
 10
0.0
 20
0.0
 30
0.0
 70
   128
 71
     4
 72
    38
 73
    42
  0
VERTEX
  5
151
330
87
100
AcDbEntity
  8
0
100
AcDbFaceRecord
 10
0.0
 20
0.0
 30
0.0
 70
   128
 71
     4
 72
    42
 73
    43
  0
VERTEX
  5
152
330
87
100
AcDbEntity
  8
0
100
AcDbFaceRecord
 10
0.0
 20
0.0
 30
0.0
 70
   128
 71
     4
 72
    43
 73
     5
  0
VERTEX
  5
153
330
87
100
AcDbEntity
  8
0
100
AcDbFaceRecord
 10
0.0
 20
0.0
 30
0.0
 70
   128
 71
    44
 72
    45
 73
    46
  0
VERTEX
  5
154
330
87
100
AcDbEntity
  8
0
100
AcDbFaceRecord
 10
0.0
 20
0.0
 30
0.0
 70
   128
 71
    44
 72
    46
 73
    47
  0
VERTEX
  5
155
330
87
100
AcDbEntity
  8
0
100
AcDbFaceRecord
 10
0.0
 20
0.0
 30
0.0
 70
   128
 71
    44
 72
    47
 73
    48
  0
VERTEX
  5
156
330
87
100
AcDbEntity
  8
0
100
AcDbFaceRecord
 10
0.0
 20
0.0
 30
0.0
 70
   128
 71
    44
 72
    48
 73
    15
  0
VERTEX
  5
157
330
87
100
AcDbEntity
  8
0
100
AcDbFaceRecord
 10
0.0
 20
0.0
 30
0.0
 70
   128
 71
    49
 72
    50
 73
    51
  0
VERTEX
  5
158
330
87
100
AcDbEntity
  8
0
100
AcDbFaceRecord
 10
0.0
 20
0.0
 30
0.0
 70
   128
 71
    52
 72
    51
 73
    50
  0
VERTEX
  5
159
330
87
100
AcDbEntity
  8
0
100
AcDbFaceRecord
 10
0.0
 20
0.0
 30
0.0
 70
   128
 71
    51
 72
    52
 73
    53
  0
VERTEX
  5
15A
330
87
100
AcDbEntity
  8
0
100
AcDbFaceRecord
 10
0.0
 20
0.0
 30
0.0
 70
   128
 71
    14
 72
    53
 73
    52
  0
VERTEX
  5
15B
330
87
100
AcDbEntity
  8
0
100
AcDbFaceRecord
 10
0.0
 20
0.0
 30
0.0
 70
   128
 71
    53
 72
    14
 73
    54
  0
VERTEX
  5
15C
330
87
100
AcDbEntity
  8
0
100
AcDbFaceRecord
 10
0.0
 20
0.0
 30
0.0
 70
   128
 71
    16
 72
    54
 73
    14
  0
VERTEX
  5
15D
330
87
100
AcDbEntity
  8
0
100
AcDbFaceRecord
 10
0.0
 20
0.0
 30
0.0
 70
   128
 71
    41
 72
    40
 73
    55
  0
VERTEX
  5
15E
330
87
100
AcDbEntity
  8
0
100
AcDbFaceRecord
 10
0.0
 20
0.0
 30
0.0
 70
   128
 71
    56
 72
    55
 73
    40
  0
VERTEX
  5
15F
330
87
100
AcDbEntity
  8
0
100
AcDbFaceRecord
 10
0.0
 20
0.0
 30
0.0
 70
   128
 71
    55
 72
    56
 73
    57
  0
VERTEX
  5
160
330
87
100
AcDbEntity
  8
0
100
AcDbFaceRecord
 10
0.0
 20
0.0
 30
0.0
 70
   128
 71
    49
 72
    57
 73
    56
  0
VERTEX
  5
161
330
87
100
AcDbEntity
  8
0
100
AcDbFaceRecord
 10
0.0
 20
0.0
 30
0.0
 70
   128
 71
    57
 72
    49
 73
    58
  0
VERTEX
  5
162
330
87
100
AcDbEntity
  8
0
100
AcDbFaceRecord
 10
0.0
 20
0.0
 30
0.0
 70
   128
 71
    51
 72
    58
 73
    49
  0
VERTEX
  5
163
330
87
100
AcDbEntity
  8
0
100
AcDbFaceRecord
 10
0.0
 20
0.0
 30
0.0
 70
   128
 71
    17
 72
    15
 73
    48
  0
VERTEX
  5
164
330
87
100
AcDbEntity
  8
0
100
AcDbFaceRecord
 10
0.0
 20
0.0
 30
0.0
 70
   128
 71
    34
 72
     7
 73
     6
  0
VERTEX
  5
165
330
87
100
AcDbEntity
  8
0
100
AcDbFaceRecord
 10
0.0
 20
0.0
 30
0.0
 70
   128
 71
    59
 72
    60
 73
    61
  0
VERTEX
  5
166
330
87
100
AcDbEntity
  8
0
100
AcDbFaceRecord
 10
0.0
 20
0.0
 30
0.0
 70
   128
 71
    62
 72
    61
 73
    60
  0
VERTEX
  5
167
330
87
100
AcDbEntity
  8
0
100
AcDbFaceRecord
 10
0.0
 20
0.0
 30
0.0
 70
   128
 71
    61
 72
    62
 73
    63
  0
VERTEX
  5
168
330
87
100
AcDbEntity
  8
0
100
AcDbFaceRecord
 10
0.0
 20
0.0
 30
0.0
 70
   128
 71
    64
 72
    63
 73
    62
  0
VERTEX
  5
169
330
87
100
AcDbEntity
  8
0
100
AcDbFaceRecord
 10
0.0
 20
0.0
 30
0.0
 70
   128
 71
    63
 72
    64
 73
    65
  0
VERTEX
  5
16A
330
87
100
AcDbEntity
  8
0
100
AcDbFaceRecord
 10
0.0
 20
0.0
 30
0.0
 70
   128
 71
    66
 72
    65
 73
    64
  0
VERTEX
  5
16B
330
87
100
AcDbEntity
  8
0
100
AcDbFaceRecord
 10
0.0
 20
0.0
 30
0.0
 70
   128
 71
    65
 72
    66
 73
    67
  0
VERTEX
  5
16C
330
87
100
AcDbEntity
  8
0
100
AcDbFaceRecord
 10
0.0
 20
0.0
 30
0.0
 70
   128
 71
    68
 72
    67
 73
    66
  0
VERTEX
  5
16D
330
87
100
AcDbEntity
  8
0
100
AcDbFaceRecord
 10
0.0
 20
0.0
 30
0.0
 70
   128
 71
    67
 72
    68
 73
    69
  0
VERTEX
  5
16E
330
87
100
AcDbEntity
  8
0
100
AcDbFaceRecord
 10
0.0
 20
0.0
 30
0.0
 70
   128
 71
    70
 72
    62
 73
    60
  0
VERTEX
  5
16F
330
87
100
AcDbEntity
  8
0
100
AcDbFaceRecord
 10
0.0
 20
0.0
 30
0.0
 70
   128
 71
    70
 72
    60
 73
    71
  0
VERTEX
  5
170
330
87
100
AcDbEntity
  8
0
100
AcDbFaceRecord
 10
0.0
 20
0.0
 30
0.0
 70
   128
 71
    72
 72
    73
 73
    74
  0
VERTEX
  5
171
330
87
100
AcDbEntity
  8
0
100
AcDbFaceRecord
 10
0.0
 20
0.0
 30
0.0
 70
   128
 71
    72
 72
    74
 73
    75
  0
VERTEX
  5
172
330
87
100
AcDbEntity
  8
0
100
AcDbFaceRecord
 10
0.0
 20
0.0
 30
0.0
 70
   128
 71
    76
 72
    77
 73
    78
  0
VERTEX
  5
173
330
87
100
AcDbEntity
  8
0
100
AcDbFaceRecord
 10
0.0
 20
0.0
 30
0.0
 70
   128
 71
    79
 72
    78
 73
    77
  0
VERTEX
  5
174
330
87
100
AcDbEntity
  8
0
100
AcDbFaceRecord
 10
0.0
 20
0.0
 30
0.0
 70
   128
 71
    78
 72
    79
 73
    80
  0
VERTEX
  5
175
330
87
100
AcDbEntity
  8
0
100
AcDbFaceRecord
 10
0.0
 20
0.0
 30
0.0
 70
   128
 71
    81
 72
    80
 73
    79
  0
VERTEX
  5
176
330
87
100
AcDbEntity
  8
0
100
AcDbFaceRecord
 10
0.0
 20
0.0
 30
0.0
 70
   128
 71
    80
 72
    81
 73
    82
  0
VERTEX
  5
177
330
87
100
AcDbEntity
  8
0
100
AcDbFaceRecord
 10
0.0
 20
0.0
 30
0.0
 70
   128
 71
    83
 72
    82
 73
    81
  0
VERTEX
  5
178
330
87
100
AcDbEntity
  8
0
100
AcDbFaceRecord
 10
0.0
 20
0.0
 30
0.0
 70
   128
 71
    82
 72
    83
 73
    84
  0
VERTEX
  5
179
330
87
100
AcDbEntity
  8
0
100
AcDbFaceRecord
 10
0.0
 20
0.0
 30
0.0
 70
   128
 71
    85
 72
    84
 73
    83
  0
VERTEX
  5
17A
330
87
100
AcDbEntity
  8
0
100
AcDbFaceRecord
 10
0.0
 20
0.0
 30
0.0
 70
   128
 71
    84
 72
    85
 73
    86
  0
VERTEX
  5
17B
330
87
100
AcDbEntity
  8
0
100
AcDbFaceRecord
 10
0.0
 20
0.0
 30
0.0
 70
   128
 71
    87
 72
    86
 73
    85
  0
VERTEX
  5
17C
330
87
100
AcDbEntity
  8
0
100
AcDbFaceRecord
 10
0.0
 20
0.0
 30
0.0
 70
   128
 71
    88
 72
    89
 73
    90
  0
VERTEX
  5
17D
330
87
100
AcDbEntity
  8
0
100
AcDbFaceRecord
 10
0.0
 20
0.0
 30
0.0
 70
   128
 71
    88
 72
    90
 73
    87
  0
VERTEX
  5
17E
330
87
100
AcDbEntity
  8
0
100
AcDbFaceRecord
 10
0.0
 20
0.0
 30
0.0
 70
   128
 71
    88
 72
    87
 73
    85
  0
VERTEX
  5
17F
330
87
100
AcDbEntity
  8
0
100
AcDbFaceRecord
 10
0.0
 20
0.0
 30
0.0
 70
   128
 71
    91
 72
    92
 73
    93
  0
VERTEX
  5
180
330
87
100
AcDbEntity
  8
0
100
AcDbFaceRecord
 10
0.0
 20
0.0
 30
0.0
 70
   128
 71
    91
 72
    93
 73
    94
  0
VERTEX
  5
181
330
87
100
AcDbEntity
  8
0
100
AcDbFaceRecord
 10
0.0
 20
0.0
 30
0.0
 70
   128
 71
    91
 72
    94
 73
    90
  0
VERTEX
  5
182
330
87
100
AcDbEntity
  8
0
100
AcDbFaceRecord
 10
0.0
 20
0.0
 30
0.0
 70
   128
 71
    91
 72
    90
 73
    89
  0
VERTEX
  5
183
330
87
100
AcDbEntity
  8
0
100
AcDbFaceRecord
 10
0.0
 20
0.0
 30
0.0
 70
   128
 71
    95
 72
    96
 73
    97
  0
VERTEX
  5
184
330
87
100
AcDbEntity
  8
0
100
AcDbFaceRecord
 10
0.0
 20
0.0
 30
0.0
 70
   128
 71
    98
 72
    97
 73
    96
  0
VERTEX
  5
185
330
87
100
AcDbEntity
  8
0
100
AcDbFaceRecord
 10
0.0
 20
0.0
 30
0.0
 70
   128
 71
    97
 72
    98
 73
    92
  0
VERTEX
  5
186
330
87
100
AcDbEntity
  8
0
100
AcDbFaceRecord
 10
0.0
 20
0.0
 30
0.0
 70
   128
 71
    93
 72
    92
 73
    98
  0
VERTEX
  5
187
330
87
100
AcDbEntity
  8
0
100
AcDbFaceRecord
 10
0.0
 20
0.0
 30
0.0
 70
   128
 71
    99
 72
   100
 73
   101
  0
VERTEX
  5
188
330
87
100
AcDbEntity
  8
0
100
AcDbFaceRecord
 10
0.0
 20
0.0
 30
0.0
 70
   128
 71
    99
 72
   101
 73
    95
  0
VERTEX
  5
189
330
87
100
AcDbEntity
  8
0
100
AcDbFaceRecord
 10
0.0
 20
0.0
 30
0.0
 70
   128
 71
    99
 72
    95
 73
    97
  0
VERTEX
  5
18A
330
87
100
AcDbEntity
  8
0
100
AcDbFaceRecord
 10
0.0
 20
0.0
 30
0.0
 70
   128
 71
    99
 72
    97
 73
   102
  0
VERTEX
  5
18B
330
87
100
AcDbEntity
  8
0
100
AcDbFaceRecord
 10
0.0
 20
0.0
 30
0.0
 70
   128
 71
    99
 72
   102
 73
   103
  0
VERTEX
  5
18C
330
87
100
AcDbEntity
  8
0
100
AcDbFaceRecord
 10
0.0
 20
0.0
 30
0.0
 70
   128
 71
    99
 72
   103
 73
   104
  0
VERTEX
  5
18D
330
87
100
AcDbEntity
  8
0
100
AcDbFaceRecord
 10
0.0
 20
0.0
 30
0.0
 70
   128
 71
   105
 72
   106
 73
   104
  0
VERTEX
  5
18E
330
87
100
AcDbEntity
  8
0
100
AcDbFaceRecord
 10
0.0
 20
0.0
 30
0.0
 70
   128
 71
   105
 72
   104
 73
   103
  0
VERTEX
  5
18F
330
87
100
AcDbEntity
  8
0
100
AcDbFaceRecord
 10
0.0
 20
0.0
 30
0.0
 70
   128
 71
   107
 72
   108
 73
   109
  0
VERTEX
  5
190
330
87
100
AcDbEntity
  8
0
100
AcDbFaceRecord
 10
0.0
 20
0.0
 30
0.0
 70
   128
 71
   110
 72
   109
 73
   108
  0
VERTEX
  5
191
330
87
100
AcDbEntity
  8
0
100
AcDbFaceRecord
 10
0.0
 20
0.0
 30
0.0
 70
   128
 71
   109
 72
   110
 73
   111
  0
VERTEX
  5
192
330
87
100
AcDbEntity
  8
0
100
AcDbFaceRecord
 10
0.0
 20
0.0
 30
0.0
 70
   128
 71
    82
 72
   111
 73
   110
  0
VERTEX
  5
193
330
87
100
AcDbEntity
  8
0
100
AcDbFaceRecord
 10
0.0
 20
0.0
 30
0.0
 70
   128
 71
   111
 72
    82
 73
    84
  0
VERTEX
  5
194
330
87
100
AcDbEntity
  8
0
100
AcDbFaceRecord
 10
0.0
 20
0.0
 30
0.0
 70
   128
 71
   112
 72
   100
 73
   113
  0
VERTEX
  5
195
330
87
100
AcDbEntity
  8
0
100
AcDbFaceRecord
 10
0.0
 20
0.0
 30
0.0
 70
   128
 71
   114
 72
   113
 73
   100
  0
VERTEX
  5
196
330
87
100
AcDbEntity
  8
0
100
AcDbFaceRecord
 10
0.0
 20
0.0
 30
0.0
 70
   128
 71
   113
 72
   114
 73
   115
  0
VERTEX
  5
197
330
87
100
AcDbEntity
  8
0
100
AcDbFaceRecord
 10
0.0
 20
0.0
 30
0.0
 70
   128
 71
   108
 72
   115
 73
   114
  0
VERTEX
  5
198
330
87
100
AcDbEntity
  8
0
100
AcDbFaceRecord
 10
0.0
 20
0.0
 30
0.0
 70
   128
 71
   115
 72
   108
 73
   107
  0
VERTEX
  5
199
330
87
100
AcDbEntity
  8
0
100
AcDbFaceRecord
 10
0.0
 20
0.0
 30
0.0
 70
   128
 71
   101
 72
   100
 73
   112
  0
VERTEX
  5
19A
330
87
100
AcDbEntity
  8
0
100
AcDbFaceRecord
 10
0.0
 20
0.0
 30
0.0
 70
   128
 71
   116
 72
   117
 73
   118
  0
VERTEX
  5
19B
330
87
100
AcDbEntity
  8
0
100
AcDbFaceRecord
 10
0.0
 20
0.0
 30
0.0
 70
   128
 71
   119
 72
   118
 73
   117
  0
VERTEX
  5
19C
330
87
100
AcDbEntity
  8
0
100
AcDbFaceRecord
 10
0.0
 20
0.0
 30
0.0
 70
   128
 71
   118
 72
   119
 73
   120
  0
VERTEX
  5
19D
330
87
100
AcDbEntity
  8
0
100
AcDbFaceRecord
 10
0.0
 20
0.0
 30
0.0
 70
   128
 71
   121
 72
   120
 73
   119
  0
VERTEX
  5
19E
330
87
100
AcDbEntity
  8
0
100
AcDbFaceRecord
 10
0.0
 20
0.0
 30
0.0
 70
   128
 71
   120
 72
   121
 73
   122
  0
VERTEX
  5
19F
330
87
100
AcDbEntity
  8
0
100
AcDbFaceRecord
 10
0.0
 20
0.0
 30
0.0
 70
   128
 71
   123
 72
   122
 73
   121
  0
VERTEX
  5
1A0
330
87
100
AcDbEntity
  8
0
100
AcDbFaceRecord
 10
0.0
 20
0.0
 30
0.0
 70
   128
 71
   122
 72
   123
 73
   124
  0
VERTEX
  5
1A1
330
87
100
AcDbEntity
  8
0
100
AcDbFaceRecord
 10
0.0
 20
0.0
 30
0.0
 70
   128
 71
   125
 72
   124
 73
   123
  0
VERTEX
  5
1A2
330
87
100
AcDbEntity
  8
0
100
AcDbFaceRecord
 10
0.0
 20
0.0
 30
0.0
 70
   128
 71
   124
 72
   125
 73
   126
  0
VERTEX
  5
1A3
330
87
100
AcDbEntity
  8
0
100
AcDbFaceRecord
 10
0.0
 20
0.0
 30
0.0
 70
   128
 71
   127
 72
   126
 73
   125
  0
VERTEX
  5
1A4
330
87
100
AcDbEntity
  8
0
100
AcDbFaceRecord
 10
0.0
 20
0.0
 30
0.0
 70
   128
 71
   128
 72
   129
 73
   130
  0
VERTEX
  5
1A5
330
87
100
AcDbEntity
  8
0
100
AcDbFaceRecord
 10
0.0
 20
0.0
 30
0.0
 70
   128
 71
   128
 72
   130
 73
   127
  0
VERTEX
  5
1A6
330
87
100
AcDbEntity
  8
0
100
AcDbFaceRecord
 10
0.0
 20
0.0
 30
0.0
 70
   128
 71
   128
 72
   127
 73
   125
  0
VERTEX
  5
1A7
330
87
100
AcDbEntity
  8
0
100
AcDbFaceRecord
 10
0.0
 20
0.0
 30
0.0
 70
   128
 71
   131
 72
   132
 73
   133
  0
VERTEX
  5
1A8
330
87
100
AcDbEntity
  8
0
100
AcDbFaceRecord
 10
0.0
 20
0.0
 30
0.0
 70
   128
 71
   131
 72
   133
 73
   134
  0
VERTEX
  5
1A9
330
87
100
AcDbEntity
  8
0
100
AcDbFaceRecord
 10
0.0
 20
0.0
 30
0.0
 70
   128
 71
   131
 72
   134
 73
   130
  0
VERTEX
  5
1AA
330
87
100
AcDbEntity
  8
0
100
AcDbFaceRecord
 10
0.0
 20
0.0
 30
0.0
 70
   128
 71
   131
 72
   130
 73
   129
  0
VERTEX
  5
1AB
330
87
100
AcDbEntity
  8
0
100
AcDbFaceRecord
 10
0.0
 20
0.0
 30
0.0
 70
   128
 71
   135
 72
   136
 73
   137
  0
VERTEX
  5
1AC
330
87
100
AcDbEntity
  8
0
100
AcDbFaceRecord
 10
0.0
 20
0.0
 30
0.0
 70
   128
 71
   138
 72
   137
 73
   136
  0
VERTEX
  5
1AD
330
87
100
AcDbEntity
  8
0
100
AcDbFaceRecord
 10
0.0
 20
0.0
 30
0.0
 70
   128
 71
   137
 72
   138
 73
   132
  0
VERTEX
  5
1AE
330
87
100
AcDbEntity
  8
0
100
AcDbFaceRecord
 10
0.0
 20
0.0
 30
0.0
 70
   128
 71
   133
 72
   132
 73
   138
  0
VERTEX
  5
1AF
330
87
100
AcDbEntity
  8
0
100
AcDbFaceRecord
 10
0.0
 20
0.0
 30
0.0
 70
   128
 71
   139
 72
   140
 73
   141
  0
VERTEX
  5
1B0
330
87
100
AcDbEntity
  8
0
100
AcDbFaceRecord
 10
0.0
 20
0.0
 30
0.0
 70
   128
 71
   139
 72
   141
 73
   135
  0
VERTEX
  5
1B1
330
87
100
AcDbEntity
  8
0
100
AcDbFaceRecord
 10
0.0
 20
0.0
 30
0.0
 70
   128
 71
   139
 72
   135
 73
   137
  0
VERTEX
  5
1B2
330
87
100
AcDbEntity
  8
0
100
AcDbFaceRecord
 10
0.0
 20
0.0
 30
0.0
 70
   128
 71
   139
 72
   137
 73
   142
  0
VERTEX
  5
1B3
330
87
100
AcDbEntity
  8
0
100
AcDbFaceRecord
 10
0.0
 20
0.0
 30
0.0
 70
   128
 71
   139
 72
   142
 73
   143
  0
VERTEX
  5
1B4
330
87
100
AcDbEntity
  8
0
100
AcDbFaceRecord
 10
0.0
 20
0.0
 30
0.0
 70
   128
 71
   139
 72
   143
 73
   144
  0
VERTEX
  5
1B5
330
87
100
AcDbEntity
  8
0
100
AcDbFaceRecord
 10
0.0
 20
0.0
 30
0.0
 70
   128
 71
   145
 72
   146
 73
   144
  0
VERTEX
  5
1B6
330
87
100
AcDbEntity
  8
0
100
AcDbFaceRecord
 10
0.0
 20
0.0
 30
0.0
 70
   128
 71
   145
 72
   144
 73
   143
  0
VERTEX
  5
1B7
330
87
100
AcDbEntity
  8
0
100
AcDbFaceRecord
 10
0.0
 20
0.0
 30
0.0
 70
   128
 71
   147
 72
   148
 73
   149
  0
VERTEX
  5
1B8
330
87
100
AcDbEntity
  8
0
100
AcDbFaceRecord
 10
0.0
 20
0.0
 30
0.0
 70
   128
 71
   150
 72
   149
 73
   148
  0
VERTEX
  5
1B9
330
87
100
AcDbEntity
  8
0
100
AcDbFaceRecord
 10
0.0
 20
0.0
 30
0.0
 70
   128
 71
   149
 72
   150
 73
   151
  0
VERTEX
  5
1BA
330
87
100
AcDbEntity
  8
0
100
AcDbFaceRecord
 10
0.0
 20
0.0
 30
0.0
 70
   128
 71
   122
 72
   151
 73
   150
  0
VERTEX
  5
1BB
330
87
100
AcDbEntity
  8
0
100
AcDbFaceRecord
 10
0.0
 20
0.0
 30
0.0
 70
   128
 71
   151
 72
   122
 73
   124
  0
VERTEX
  5
1BC
330
87
100
AcDbEntity
  8
0
100
AcDbFaceRecord
 10
0.0
 20
0.0
 30
0.0
 70
   128
 71
   152
 72
   140
 73
   153
  0
VERTEX
  5
1BD
330
87
100
AcDbEntity
  8
0
100
AcDbFaceRecord
 10
0.0
 20
0.0
 30
0.0
 70
   128
 71
   154
 72
   153
 73
   140
  0
VERTEX
  5
1BE
330
87
100
AcDbEntity
  8
0
100
AcDbFaceRecord
 10
0.0
 20
0.0
 30
0.0
 70
   128
 71
   153
 72
   154
 73
   155
  0
VERTEX
  5
1BF
330
87
100
AcDbEntity
  8
0
100
AcDbFaceRecord
 10
0.0
 20
0.0
 30
0.0
 70
   128
 71
   148
 72
   155
 73
   154
  0
VERTEX
  5
1C0
330
87
100
AcDbEntity
  8
0
100
AcDbFaceRecord
 10
0.0
 20
0.0
 30
0.0
 70
   128
 71
   155
 72
   148
 73
   147
  0
VERTEX
  5
1C1
330
87
100
AcDbEntity
  8
0
100
AcDbFaceRecord
 10
0.0
 20
0.0
 30
0.0
 70
   128
 71
   141
 72
   140
 73
   152
  0
VERTEX
  5
1C2
330
87
100
AcDbEntity
  8
0
100
AcDbFaceRecord
 10
0.0
 20
0.0
 30
0.0
 70
   128
 71
   156
 72
   157
 73
   158
  0
VERTEX
  5
1C3
330
87
100
AcDbEntity
  8
0
100
AcDbFaceRecord
 10
0.0
 20
0.0
 30
0.0
 70
   128
 71
   159
 72
   160
 73
   161
  0
SEQEND
  5
1C9
330
87
100
AcDbEntity
  8
0
  6
Continuous2
 62
     7
420
 13434879
370
    -3
  0
LINE
  5
1C4
330
1F
100
AcDbEntity
  8
0
  6
Continuous2
 62
     7
420
 16777215
370
    -3
100
AcDbLine
 10
0.5
 20
5.448206237792969
 30
0.0000000000000004
 11
0.5
 21
6.948206237792968
 31
0.0000000000000005
  0
LINE
  5
1C5
330
1F
100
AcDbEntity
  8
0
  6
Continuous2
 62
     7
420
 16777215
370
    -3
100
AcDbLine
 10
-0.5
 20
5.448206237792969
 30
0.0000000000000003
 11
-0.5
 21
6.948206237792967
 31
0.0000000000000004
  0
LINE
  5
1C6
330
1F
100
AcDbEntity
  8
0
  6
Continuous2
 62
     7
420
 16777215
370
    -3
100
AcDbLine
 10
12.79171180725098
 20
2.448206186294556
 30
0.0000000000000003
 11
2.5
 21
2.448206186294556
 31
0.0000000000000003
  0
LINE
  5
1C7
330
1F
100
AcDbEntity
  8
0
  6
Continuous2
 62
     7
420
 16777215
370
    -3
100
AcDbLine
 10
12.79171180725098
 20
5.448206424713135
 30
0.0000000000000004
 11
2.5
 21
5.448206424713135
 31
0.0000000000000004
  0
LINE
  5
1C8
330
1F
100
AcDbEntity
  8
0
  6
Continuous2
 62
     7
420
 16777215
370
    -3
100
AcDbLine
 10
11.79171180725098
 20
-5.051793575286865
 30
0.0
 11
11.79171180725098
 21
19.39034652709961
 31
0.0000000000000011
  0
POLYLINE
  5
1CA
330
1F
100
AcDbEntity
  8
0
  6
Continuous2
 62
     7
420
 13434879
370
    -3
100
AcDbPolyFaceMesh
 66
     1
 10
0.0
 20
0.0
 30
0.0
 70
    64
 71
   195
 72
   183
  0
VERTEX
  5
1CB
330
1CA
100
AcDbEntity
  8
0
100
AcDbVertex
100
AcDbPolyFaceMeshVertex
 10
8.114459991455078
 20
22.43968772888184
 30
0.0099999997764826
 70
   192
  0
VERTEX
  5
1CC
330
1CA
100
AcDbEntity
  8
0
100
AcDbVertex
100
AcDbPolyFaceMeshVertex
 10
7.99525785446167
 20
22.10766220092773
 30
0.0099999997764826
 70
   192
  0
VERTEX
  5
1CD
330
1CA
100
AcDbEntity
  8
0
100
AcDbVertex
100
AcDbPolyFaceMeshVertex
 10
8.062277793884277
 20
21.59350776672363
 30
0.0099999997764826
 70
   192
  0
VERTEX
  5
1CE
330
1CA
100
AcDbEntity
  8
0
100
AcDbVertex
100
AcDbPolyFaceMeshVertex
 10
8.336749076843262
 20
21.90839576721191
 30
0.0099999997764826
 70
   192
  0
VERTEX
  5
1CF
330
1CA
100
AcDbEntity
  8
0
100
AcDbVertex
100
AcDbPolyFaceMeshVertex
 10
8.511459350585938
 20
22.33941459655762
 30
0.0099999997764826
 70
   192
  0
VERTEX
  5
1D0
330
1CA
100
AcDbEntity
  8
0
100
AcDbVertex
100
AcDbPolyFaceMeshVertex
 10
7.236560821533203
 20
21.6763858795166
 30
0.0099999997764826
 70
   192
  0
VERTEX
  5
1D1
330
1CA
100
AcDbEntity
  8
0
100
AcDbVertex
100
AcDbPolyFaceMeshVertex
 10
7.269302845001221
 20
21.3366870880127
 30
0.0099999997764826
 70
   192
  0
VERTEX
  5
1D2
330
1CA
100
AcDbEntity
  8
0
100
AcDbVertex
100
AcDbPolyFaceMeshVertex
 10
7.544541835784912
 20
21.7244758605957
 30
0.0099999997764826
 70
   192
  0
VERTEX
  5
1D3
330
1CA
100
AcDbEntity
  8
0
100
AcDbVertex
100
AcDbPolyFaceMeshVertex
 10
7.701858043670654
 20
21.40089225769043
 30
0.0099999997764826
 70
   192
  0
VERTEX
  5
1D4
330
1CA
100
AcDbEntity
  8
0
100
AcDbVertex
100
AcDbPolyFaceMeshVertex
 10
7.801362991333008
 20
21.86874580383301
 30
0.0099999997764826
 70
   192
  0
VERTEX
  5
1D5
330
1CA
100
AcDbEntity
  8
0
100
AcDbVertex
100
AcDbPolyFaceMeshVertex
 10
6.972065925598145
 20
21.7116870880127
 30
0.0099999997764826
 70
   192
  0
VERTEX
  5
1D6
330
1CA
100
AcDbEntity
  8
0
100
AcDbVertex
100
AcDbPolyFaceMeshVertex
 10
6.727012157440186
 20
21.81758689880371
 30
0.0099999997764826
 70
   192
  0
VERTEX
  5
1D7
330
1CA
100
AcDbEntity
  8
0
100
AcDbVertex
100
AcDbPolyFaceMeshVertex
 10
6.829586982727051
 20
21.38605499267578
 30
0.0099999997764826
 70
   192
  0
VERTEX
  5
1D8
330
1CA
100
AcDbEntity
  8
0
100
AcDbVertex
100
AcDbPolyFaceMeshVertex
 10
6.522628784179688
 20
21.99485397338867
 30
0.0099999997764826
 70
   192
  0
VERTEX
  5
1D9
330
1CA
100
AcDbEntity
  8
0
100
AcDbVertex
100
AcDbPolyFaceMeshVertex
 10
6.380148887634277
 20
22.24425888061523
 30
0.0099999997764826
 70
   192
  0
VERTEX
  5
1DA
330
1CA
100
AcDbEntity
  8
0
100
AcDbVertex
100
AcDbPolyFaceMeshVertex
 10
6.480422019958496
 20
21.5341625213623
 30
0.0099999997764826
 70
   192
  0
VERTEX
  5
1DB
330
1CA
100
AcDbEntity
  8
0
100
AcDbVertex
100
AcDbPolyFaceMeshVertex
 10
6.362754821777344
 20
23.48846054077148
 30
0.0099999997764826
 70
   192
  0
VERTEX
  5
1DC
330
1CA
100
AcDbEntity
  8
0
100
AcDbVertex
100
AcDbPolyFaceMeshVertex
 10
6.547953128814697
 20
24.25790023803711
 30
0.0099999997764826
 70
   192
  0
VERTEX
  5
1DD
330
1CA
100
AcDbEntity
  8
0
100
AcDbVertex
100
AcDbPolyFaceMeshVertex
 10
6.292154788970947
 20
23.20478057861328
 30
0.0099999997764826
 70
   192
  0
VERTEX
  5
1DE
330
1CA
100
AcDbEntity
  8
0
100
AcDbVertex
100
AcDbPolyFaceMeshVertex
 10
6.255320072174072
 20
24.03484344482422
 30
0.0099999997764826
 70
   192
  0
VERTEX
  5
1DF
330
1CA
100
AcDbEntity
  8
0
100
AcDbVertex
100
AcDbPolyFaceMeshVertex
 10
6.26862096786499
 20
22.91240310668945
 30
0.0099999997764826
 70
   192
  0
VERTEX
  5
1E0
330
1CA
100
AcDbEntity
  8
0
100
AcDbVertex
100
AcDbPolyFaceMeshVertex
 10
6.212856769561768
 20
21.77589225769043
 30
0.0099999997764826
 70
   192
  0
VERTEX
  5
1E1
330
1CA
100
AcDbEntity
  8
0
100
AcDbVertex
100
AcDbPolyFaceMeshVertex
 10
6.296504020690918
 20
22.55402946472168
 30
0.0099999997764826
 70
   192
  0
VERTEX
  5
1E2
330
1CA
100
AcDbEntity
  8
0
100
AcDbVertex
100
AcDbPolyFaceMeshVertex
 10
5.859344005584717
 20
22.91035652160645
 30
0.0099999997764826
 70
   192
  0
VERTEX
  5
1E3
330
1CA
100
AcDbEntity
  8
0
100
AcDbVertex
100
AcDbPolyFaceMeshVertex
 10
5.898993015289307
 20
22.49442863464355
 30
0.0099999997764826
 70
   192
  0
VERTEX
  5
1E4
330
1CA
100
AcDbEntity
  8
0
100
AcDbVertex
100
AcDbPolyFaceMeshVertex
 10
5.904109001159668
 20
23.34905052185059
 30
0.0099999997764826
 70
   192
  0
VERTEX
  5
1E5
330
1CA
100
AcDbEntity
  8
0
100
AcDbVertex
100
AcDbPolyFaceMeshVertex
 10
6.017940044403076
 20
22.10612678527832
 30
0.0099999997764826
 70
   192
  0
VERTEX
  5
1E6
330
1CA
100
AcDbEntity
  8
0
100
AcDbVertex
100
AcDbPolyFaceMeshVertex
 10
6.038403034210205
 20
23.72788619995117
 30
0.0099999997764826
 70
   192
  0
VERTEX
  5
1E7
330
1CA
100
AcDbEntity
  8
0
100
AcDbVertex
100
AcDbPolyFaceMeshVertex
 10
7.766574859619141
 20
23.94991874694824
 30
0.0099999997764826
 70
   192
  0
VERTEX
  5
1E8
330
1CA
100
AcDbEntity
  8
0
100
AcDbVertex
100
AcDbPolyFaceMeshVertex
 10
7.941541194915771
 20
23.75602531433105
 30
0.0099999997764826
 70
   192
  0
VERTEX
  5
1E9
330
1CA
100
AcDbEntity
  8
0
100
AcDbVertex
100
AcDbPolyFaceMeshVertex
 10
8.032605171203613
 20
24.20981025695801
 30
0.0099999997764826
 70
   192
  0
VERTEX
  5
1EA
330
1CA
100
AcDbEntity
  8
0
100
AcDbVertex
100
AcDbPolyFaceMeshVertex
 10
8.069439888000488
 20
23.47311210632324
 30
0.0099999997764826
 70
   192
  0
VERTEX
  5
1EB
330
1CA
100
AcDbEntity
  8
0
100
AcDbVertex
100
AcDbPolyFaceMeshVertex
 10
8.293006896972656
 20
23.93405914306641
 30
0.0099999997764826
 70
   192
  0
VERTEX
  5
1EC
330
1CA
100
AcDbEntity
  8
0
100
AcDbVertex
100
AcDbPolyFaceMeshVertex
 10
8.460298538208008
 20
23.56519889831543
 30
0.0099999997764826
 70
   192
  0
VERTEX
  5
1ED
330
1CA
100
AcDbEntity
  8
0
100
AcDbVertex
100
AcDbPolyFaceMeshVertex
 10
6.949811935424805
 20
24.0578670501709
 30
0.0099999997764826
 70
   192
  0
VERTEX
  5
1EE
330
1CA
100
AcDbEntity
  8
0
100
AcDbVertex
100
AcDbPolyFaceMeshVertex
 10
7.267257213592529
 20
24.09930610656738
 30
0.0099999997764826
 70
   192
  0
VERTEX
  5
1EF
330
1CA
100
AcDbEntity
  8
0
100
AcDbVertex
100
AcDbPolyFaceMeshVertex
 10
7.275443077087402
 20
24.43900489807129
 30
0.0099999997764826
 70
   192
  0
VERTEX
  5
1F0
330
1CA
100
AcDbEntity
  8
0
100
AcDbVertex
100
AcDbPolyFaceMeshVertex
 10
7.542496204376221
 20
24.06195831298828
 30
0.0099999997764826
 70
   192
  0
VERTEX
  5
1F1
330
1CA
100
AcDbEntity
  8
0
100
AcDbVertex
100
AcDbPolyFaceMeshVertex
 10
7.689836025238037
 20
24.38170623779297
 30
0.0099999997764826
 70
   192
  0
VERTEX
  5
1F2
330
1CA
100
AcDbEntity
  8
0
100
AcDbVertex
100
AcDbPolyFaceMeshVertex
 10
6.491422176361084
 20
23.7393970489502
 30
0.0099999997764826
 70
   192
  0
VERTEX
  5
1F3
330
1CA
100
AcDbEntity
  8
0
100
AcDbVertex
100
AcDbPolyFaceMeshVertex
 10
6.689154148101807
 20
23.93354797363281
 30
0.0099999997764826
 70
   192
  0
VERTEX
  5
1F4
330
1CA
100
AcDbEntity
  8
0
100
AcDbVertex
100
AcDbPolyFaceMeshVertex
 10
6.895071029663086
 20
24.39373016357422
 30
0.0099999997764826
 70
   192
  0
VERTEX
  5
1F5
330
1CA
100
AcDbEntity
  8
0
100
AcDbVertex
100
AcDbPolyFaceMeshVertex
 10
8.984173774719238
 20
21.38784599304199
 30
0.0099999997764826
 70
   192
  0
VERTEX
  5
1F6
330
1CA
100
AcDbEntity
  8
0
100
AcDbVertex
100
AcDbPolyFaceMeshVertex
 10
10.85866165161133
 20
21.38784599304199
 30
0.0099999997764826
 70
   192
  0
VERTEX
  5
1F7
330
1CA
100
AcDbEntity
  8
0
100
AcDbVertex
100
AcDbPolyFaceMeshVertex
 10
10.85866165161133
 20
21.74187088012695
 30
0.0099999997764826
 70
   192
  0
VERTEX
  5
1F8
330
1CA
100
AcDbEntity
  8
0
100
AcDbVertex
100
AcDbPolyFaceMeshVertex
 10
9.381172180175781
 20
21.74187088012695
 30
0.0099999997764826
 70
   192
  0
VERTEX
  5
1F9
330
1CA
100
AcDbEntity
  8
0
100
AcDbVertex
100
AcDbPolyFaceMeshVertex
 10
9.381172180175781
 20
24.38784599304199
 30
0.0099999997764826
 70
   192
  0
VERTEX
  5
1FA
330
1CA
100
AcDbEntity
  8
0
100
AcDbVertex
100
AcDbPolyFaceMeshVertex
 10
8.984173774719238
 20
24.38784599304199
 30
0.0099999997764826
 70
   192
  0
VERTEX
  5
1FB
330
1CA
100
AcDbEntity
  8
0
100
AcDbVertex
100
AcDbPolyFaceMeshVertex
 10
14.31295967102051
 20
22.27392959594727
 30
0.0099999997764826
 70
   192
  0
VERTEX
  5
1FC
330
1CA
100
AcDbEntity
  8
0
100
AcDbVertex
100
AcDbPolyFaceMeshVertex
 10
14.27612495422363
 20
22.54021644592285
 30
0.0099999997764826
 70
   192
  0
VERTEX
  5
1FD
330
1CA
100
AcDbEntity
  8
0
100
AcDbVertex
100
AcDbPolyFaceMeshVertex
 10
14.24133491516113
 20
21.91095352172852
 30
0.0099999997764826
 70
   192
  0
VERTEX
  5
1FE
330
1CA
100
AcDbEntity
  8
0
100
AcDbVertex
100
AcDbPolyFaceMeshVertex
 10
14.16561889648438
 20
22.75790023803711
 30
0.0099999997764826
 70
   192
  0
VERTEX
  5
1FF
330
1CA
100
AcDbEntity
  8
0
100
AcDbVertex
100
AcDbPolyFaceMeshVertex
 10
14.02646636962891
 20
21.60783195495605
 30
0.0099999997764826
 70
   192
  0
VERTEX
  5
200
330
1CA
100
AcDbEntity
  8
0
100
AcDbVertex
100
AcDbPolyFaceMeshVertex
 10
13.98860740661621
 20
22.91828536987305
 30
0.0099999997764826
 70
   192
  0
VERTEX
  5
201
330
1CA
100
AcDbEntity
  8
0
100
AcDbVertex
100
AcDbPolyFaceMeshVertex
 10
13.92210006713867
 20
22.26574516296387
 30
0.0099999997764826
 70
   192
  0
VERTEX
  5
202
330
1CA
100
AcDbEntity
  8
0
100
AcDbVertex
100
AcDbPolyFaceMeshVertex
 10
13.88066101074219
 20
22.49724197387695
 30
0.0099999997764826
 70
   192
  0
VERTEX
  5
203
330
1CA
100
AcDbEntity
  8
0
100
AcDbVertex
100
AcDbPolyFaceMeshVertex
 10
13.7563419342041
 20
22.68423080444336
 30
0.0099999997764826
 70
   192
  0
VERTEX
  5
204
330
1CA
100
AcDbEntity
  8
0
100
AcDbVertex
100
AcDbPolyFaceMeshVertex
 10
13.75225067138672
 20
23.01267623901367
 30
0.0099999997764826
 70
   192
  0
VERTEX
  5
205
330
1CA
100
AcDbEntity
  8
0
100
AcDbVertex
100
AcDbPolyFaceMeshVertex
 10
13.73997116088867
 20
23.40609359741211
 30
0.0099999997764826
 70
   192
  0
VERTEX
  5
206
330
1CA
100
AcDbEntity
  8
0
100
AcDbVertex
100
AcDbPolyFaceMeshVertex
 10
13.59877109527588
 20
23.25005531311035
 30
0.0099999997764826
 70
   192
  0
VERTEX
  5
207
330
1CA
100
AcDbEntity
  8
0
100
AcDbVertex
100
AcDbPolyFaceMeshVertex
 10
13.56807518005371
 20
22.80778121948242
 30
0.0099999997764826
 70
   192
  0
VERTEX
  5
208
330
1CA
100
AcDbEntity
  8
0
100
AcDbVertex
100
AcDbPolyFaceMeshVertex
 10
13.39873695373535
 20
23.15796852111816
 30
0.0099999997764826
 70
   192
  0
VERTEX
  5
209
330
1CA
100
AcDbEntity
  8
0
100
AcDbVertex
100
AcDbPolyFaceMeshVertex
 10
13.17516899108887
 20
23.12727355957031
 30
0.0099999997764826
 70
   192
  0
VERTEX
  5
20A
330
1CA
100
AcDbEntity
  8
0
100
AcDbVertex
100
AcDbPolyFaceMeshVertex
 10
13.21763229370117
 20
22.8387336730957
 30
0.0099999997764826
 70
   192
  0
VERTEX
  5
20B
330
1CA
100
AcDbEntity
  8
0
100
AcDbVertex
100
AcDbPolyFaceMeshVertex
 10
13.33478736877441
 20
22.84896469116211
 30
0.0099999997764826
 70
   192
  0
VERTEX
  5
20C
330
1CA
100
AcDbEntity
  8
0
100
AcDbVertex
100
AcDbPolyFaceMeshVertex
 10
13.14907836914062
 20
23.1282958984375
 30
0.0099999997764826
 70
   192
  0
VERTEX
  5
20D
330
1CA
100
AcDbEntity
  8
0
100
AcDbVertex
100
AcDbPolyFaceMeshVertex
 10
13.11582374572754
 20
23.1313648223877
 30
0.0099999997764826
 70
   192
  0
VERTEX
  5
20E
330
1CA
100
AcDbEntity
  8
0
100
AcDbVertex
100
AcDbPolyFaceMeshVertex
 10
13.07489681243896
 20
22.80803680419922
 30
0.0099999997764826
 70
   192
  0
VERTEX
  5
20F
330
1CA
100
AcDbEntity
  8
0
100
AcDbVertex
100
AcDbPolyFaceMeshVertex
 10
13.87733459472656
 20
22.02120208740234
 30
0.0099999997764826
 70
   192
  0
VERTEX
  5
210
330
1CA
100
AcDbEntity
  8
0
100
AcDbVertex
100
AcDbPolyFaceMeshVertex
 10
13.7430419921875
 20
21.81963348388672
 30
0.0099999997764826
 70
   192
  0
VERTEX
  5
211
330
1CA
100
AcDbEntity
  8
0
100
AcDbVertex
100
AcDbPolyFaceMeshVertex
 10
13.70211410522461
 20
21.40293884277344
 30
0.0099999997764826
 70
   192
  0
VERTEX
  5
212
330
1CA
100
AcDbEntity
  8
0
100
AcDbVertex
100
AcDbPolyFaceMeshVertex
 10
13.54377460479736
 20
21.68457221984863
 30
0.0099999997764826
 70
   192
  0
VERTEX
  5
213
330
1CA
100
AcDbEntity
  8
0
100
AcDbVertex
100
AcDbPolyFaceMeshVertex
 10
13.30409240722656
 20
21.63955116271973
 30
0.0099999997764826
 70
   192
  0
VERTEX
  5
214
330
1CA
100
AcDbEntity
  8
0
100
AcDbVertex
100
AcDbPolyFaceMeshVertex
 10
13.30204582214355
 20
21.33464050292969
 30
0.0099999997764826
 70
   192
  0
VERTEX
  5
215
330
1CA
100
AcDbEntity
  8
0
100
AcDbVertex
100
AcDbPolyFaceMeshVertex
 10
13.10175514221191
 20
21.6740837097168
 30
0.0099999997764826
 70
   192
  0
VERTEX
  5
216
330
1CA
100
AcDbEntity
  8
0
100
AcDbVertex
100
AcDbPolyFaceMeshVertex
 10
12.94060325622559
 20
21.39347267150879
 30
0.0099999997764826
 70
   192
  0
VERTEX
  5
217
330
1CA
100
AcDbEntity
  8
0
100
AcDbVertex
100
AcDbPolyFaceMeshVertex
 10
12.93267345428467
 20
21.77768135070801
 30
0.0099999997764826
 70
   192
  0
VERTEX
  5
218
330
1CA
100
AcDbEntity
  8
0
100
AcDbVertex
100
AcDbPolyFaceMeshVertex
 10
12.80247116088867
 20
21.95955467224121
 30
0.0099999997764826
 70
   192
  0
VERTEX
  5
219
330
1CA
100
AcDbEntity
  8
0
100
AcDbVertex
100
AcDbPolyFaceMeshVertex
 10
12.7167797088623
 20
22.22891044616699
 30
0.0099999997764826
 70
   192
  0
VERTEX
  5
21A
330
1CA
100
AcDbEntity
  8
0
100
AcDbVertex
100
AcDbPolyFaceMeshVertex
 10
12.34843063354492
 20
22.17979621887207
 30
0.0099999997764826
 70
   192
  0
VERTEX
  5
21B
330
1CA
100
AcDbEntity
  8
0
100
AcDbVertex
100
AcDbPolyFaceMeshVertex
 10
12.4412841796875
 20
21.84009742736816
 30
0.0099999997764826
 70
   192
  0
VERTEX
  5
21C
330
1CA
100
AcDbEntity
  8
0
100
AcDbVertex
100
AcDbPolyFaceMeshVertex
 10
12.64617919921875
 20
21.56997489929199
 30
0.0099999997764826
 70
   192
  0
VERTEX
  5
21D
330
1CA
100
AcDbEntity
  8
0
100
AcDbVertex
100
AcDbPolyFaceMeshVertex
 10
13.29590606689453
 20
24.09725952148438
 30
0.0099999997764826
 70
   192
  0
VERTEX
  5
21E
330
1CA
100
AcDbEntity
  8
0
100
AcDbVertex
100
AcDbPolyFaceMeshVertex
 10
13.49287033081055
 20
24.06400489807129
 30
0.0099999997764826
 70
   192
  0
VERTEX
  5
21F
330
1CA
100
AcDbEntity
  8
0
100
AcDbVertex
100
AcDbPolyFaceMeshVertex
 10
13.52356624603271
 20
24.37377738952637
 30
0.0099999997764826
 70
   192
  0
VERTEX
  5
220
330
1CA
100
AcDbEntity
  8
0
100
AcDbVertex
100
AcDbPolyFaceMeshVertex
 10
13.64993095397949
 20
23.9642448425293
 30
0.0099999997764826
 70
   192
  0
VERTEX
  5
221
330
1CA
100
AcDbEntity
  8
0
100
AcDbVertex
100
AcDbPolyFaceMeshVertex
 10
13.73997116088867
 20
24.29473495483398
 30
0.0099999997764826
 70
   192
  0
VERTEX
  5
222
330
1CA
100
AcDbEntity
  8
0
100
AcDbVertex
100
AcDbPolyFaceMeshVertex
 10
13.75276184082031
 20
23.81383514404297
 30
0.0099999997764826
 70
   192
  0
VERTEX
  5
223
330
1CA
100
AcDbEntity
  8
0
100
AcDbVertex
100
AcDbPolyFaceMeshVertex
 10
13.92235565185547
 20
24.17016220092773
 30
0.0099999997764826
 70
   192
  0
VERTEX
  5
224
330
1CA
100
AcDbEntity
  8
0
100
AcDbVertex
100
AcDbPolyFaceMeshVertex
 10
13.78703880310059
 20
23.62863731384277
 30
0.0099999997764826
 70
   192
  0
VERTEX
  5
225
330
1CA
100
AcDbEntity
  8
0
100
AcDbVertex
100
AcDbPolyFaceMeshVertex
 10
13.93181991577148
 20
23.1231803894043
 30
0.0099999997764826
 70
   192
  0
VERTEX
  5
226
330
1CA
100
AcDbEntity
  8
0
100
AcDbVertex
100
AcDbPolyFaceMeshVertex
 10
12.82012176513672
 20
23.79337120056152
 30
0.0099999997764826
 70
   192
  0
VERTEX
  5
227
330
1CA
100
AcDbEntity
  8
0
100
AcDbVertex
100
AcDbPolyFaceMeshVertex
 10
12.93778896331787
 20
23.96219825744629
 30
0.0099999997764826
 70
   192
  0
VERTEX
  5
228
330
1CA
100
AcDbEntity
  8
0
100
AcDbVertex
100
AcDbPolyFaceMeshVertex
 10
12.96081066131592
 20
24.34922027587891
 30
0.0099999997764826
 70
   192
  0
VERTEX
  5
229
330
1CA
100
AcDbEntity
  8
0
100
AcDbVertex
100
AcDbPolyFaceMeshVertex
 10
13.09894180297852
 20
24.0634937286377
 30
0.0099999997764826
 70
   192
  0
VERTEX
  5
22A
330
1CA
100
AcDbEntity
  8
0
100
AcDbVertex
100
AcDbPolyFaceMeshVertex
 10
13.28772068023682
 20
24.40012359619141
 30
0.0099999997764826
 70
   192
  0
VERTEX
  5
22B
330
1CA
100
AcDbEntity
  8
0
100
AcDbVertex
100
AcDbPolyFaceMeshVertex
 10
12.75361442565918
 20
23.55701446533203
 30
0.0099999997764826
 70
   192
  0
VERTEX
  5
22C
330
1CA
100
AcDbEntity
  8
0
100
AcDbVertex
100
AcDbPolyFaceMeshVertex
 10
12.69222259521484
 20
24.19650840759277
 30
0.0099999997764826
 70
   192
  0
VERTEX
  5
22D
330
1CA
100
AcDbEntity
  8
0
100
AcDbVertex
100
AcDbPolyFaceMeshVertex
 10
12.49577045440674
 20
23.95119857788086
 30
0.0099999997764826
 70
   192
  0
VERTEX
  5
22E
330
1CA
100
AcDbEntity
  8
0
100
AcDbVertex
100
AcDbPolyFaceMeshVertex
 10
12.3852653503418
 20
23.62249755859375
 30
0.0099999997764826
 70
   192
  0
VERTEX
  5
22F
330
1CA
100
AcDbEntity
  8
0
100
AcDbVertex
100
AcDbPolyFaceMeshVertex
 10
14.05613899230957
 20
24.00721740722656
 30
0.0099999997764826
 70
   192
  0
VERTEX
  5
230
330
1CA
100
AcDbEntity
  8
0
100
AcDbVertex
100
AcDbPolyFaceMeshVertex
 10
14.06125545501709
 20
23.26642608642578
 30
0.0099999997764826
 70
   192
  0
VERTEX
  5
231
330
1CA
100
AcDbEntity
  8
0
100
AcDbVertex
100
AcDbPolyFaceMeshVertex
 10
14.13824844360352
 20
23.81946182250977
 30
0.0099999997764826
 70
   192
  0
VERTEX
  5
232
330
1CA
100
AcDbEntity
  8
0
100
AcDbVertex
100
AcDbPolyFaceMeshVertex
 10
14.13952827453613
 20
23.43474197387695
 30
0.0099999997764826
 70
   192
  0
VERTEX
  5
233
330
1CA
100
AcDbEntity
  8
0
100
AcDbVertex
100
AcDbPolyFaceMeshVertex
 10
14.16561889648438
 20
23.62045097351074
 30
0.0099999997764826
 70
   192
  0
VERTEX
  5
234
330
1CA
100
AcDbEntity
  8
0
100
AcDbVertex
100
AcDbPolyFaceMeshVertex
 10
14.88390159606934
 20
21.38784599304199
 30
0.0099999997764826
 70
   192
  0
VERTEX
  5
235
330
1CA
100
AcDbEntity
  8
0
100
AcDbVertex
100
AcDbPolyFaceMeshVertex
 10
15.30340957641602
 20
21.38784599304199
 30
0.0099999997764826
 70
   192
  0
VERTEX
  5
236
330
1CA
100
AcDbEntity
  8
0
100
AcDbVertex
100
AcDbPolyFaceMeshVertex
 10
15.30340957641602
 20
21.80735397338867
 30
0.0099999997764826
 70
   192
  0
VERTEX
  5
237
330
1CA
100
AcDbEntity
  8
0
100
AcDbVertex
100
AcDbPolyFaceMeshVertex
 10
14.88390159606934
 20
21.80735397338867
 30
0.0099999997764826
 70
   192
  0
VERTEX
  5
238
330
1CA
100
AcDbEntity
  8
0
100
AcDbVertex
100
AcDbPolyFaceMeshVertex
 10
17.79795265197754
 20
22.86738204956055
 30
0.0099999997764826
 70
   192
  0
VERTEX
  5
239
330
1CA
100
AcDbEntity
  8
0
100
AcDbVertex
100
AcDbPolyFaceMeshVertex
 10
17.78106880187988
 20
23.2677059173584
 30
0.0099999997764826
 70
   192
  0
VERTEX
  5
23A
330
1CA
100
AcDbEntity
  8
0
100
AcDbVertex
100
AcDbPolyFaceMeshVertex
 10
17.77083778381348
 20
22.39031791687012
 30
0.0099999997764826
 70
   192
  0
VERTEX
  5
23B
330
1CA
100
AcDbEntity
  8
0
100
AcDbVertex
100
AcDbPolyFaceMeshVertex
 10
17.73042106628418
 20
23.57645416259766
 30
0.0099999997764826
 70
   192
  0
VERTEX
  5
23C
330
1CA
100
AcDbEntity
  8
0
100
AcDbVertex
100
AcDbPolyFaceMeshVertex
 10
17.68949317932129
 20
22.01506233215332
 30
0.0099999997764826
 70
   192
  0
VERTEX
  5
23D
330
1CA
100
AcDbEntity
  8
0
100
AcDbVertex
100
AcDbPolyFaceMeshVertex
 10
17.65010070800781
 20
23.81946182250977
 30
0.0099999997764826
 70
   192
  0
VERTEX
  5
23E
330
1CA
100
AcDbEntity
  8
0
100
AcDbVertex
100
AcDbPolyFaceMeshVertex
 10
17.55417633056641
 20
21.72754669189453
 30
0.0099999997764826
 70
   192
  0
VERTEX
  5
23F
330
1CA
100
AcDbEntity
  8
0
100
AcDbVertex
100
AcDbPolyFaceMeshVertex
 10
17.5442008972168
 20
24.0225658416748
 30
0.0099999997764826
 70
   192
  0
VERTEX
  5
240
330
1CA
100
AcDbEntity
  8
0
100
AcDbVertex
100
AcDbPolyFaceMeshVertex
 10
17.41937065124512
 20
22.86738204956055
 30
0.0099999997764826
 70
   192
  0
VERTEX
  5
241
330
1CA
100
AcDbEntity
  8
0
100
AcDbVertex
100
AcDbPolyFaceMeshVertex
 10
17.4096508026123
 20
24.18423080444336
 30
0.0099999997764826
 70
   192
  0
VERTEX
  5
242
330
1CA
100
AcDbEntity
  8
0
100
AcDbVertex
100
AcDbPolyFaceMeshVertex
 10
17.37614059448242
 20
23.48385620117188
 30
0.0099999997764826
 70
   192
  0
VERTEX
  5
243
330
1CA
100
AcDbEntity
  8
0
100
AcDbVertex
100
AcDbPolyFaceMeshVertex
 10
17.24645233154297
 20
23.85169219970703
 30
0.0099999997764826
 70
   192
  0
VERTEX
  5
244
330
1CA
100
AcDbEntity
  8
0
100
AcDbVertex
100
AcDbPolyFaceMeshVertex
 10
17.24338150024414
 20
24.30292129516602
 30
0.0099999997764826
 70
   192
  0
VERTEX
  5
245
330
1CA
100
AcDbEntity
  8
0
100
AcDbVertex
100
AcDbPolyFaceMeshVertex
 10
17.04641723632812
 20
24.37582397460938
 30
0.0099999997764826
 70
   192
  0
VERTEX
  5
246
330
1CA
100
AcDbEntity
  8
0
100
AcDbVertex
100
AcDbPolyFaceMeshVertex
 10
17.05230140686035
 20
24.03433227539062
 30
0.0099999997764826
 70
   192
  0
VERTEX
  5
247
330
1CA
100
AcDbEntity
  8
0
100
AcDbVertex
100
AcDbPolyFaceMeshVertex
 10
16.81978034973145
 20
24.40012359619141
 30
0.0099999997764826
 70
   192
  0
VERTEX
  5
248
330
1CA
100
AcDbEntity
  8
0
100
AcDbVertex
100
AcDbPolyFaceMeshVertex
 10
16.52024078369141
 20
24.35612678527832
 30
0.0099999997764826
 70
   192
  0
VERTEX
  5
249
330
1CA
100
AcDbEntity
  8
0
100
AcDbVertex
100
AcDbPolyFaceMeshVertex
 10
16.58751678466797
 20
24.04149627685547
 30
0.0099999997764826
 70
   192
  0
VERTEX
  5
24A
330
1CA
100
AcDbEntity
  8
0
100
AcDbVertex
100
AcDbPolyFaceMeshVertex
 10
16.81568717956543
 20
24.09521293640137
 30
0.0099999997764826
 70
   192
  0
VERTEX
  5
24B
330
1CA
100
AcDbEntity
  8
0
100
AcDbVertex
100
AcDbPolyFaceMeshVertex
 10
16.22019004821777
 20
22.86738204956055
 30
0.0099999997764826
 70
   192
  0
VERTEX
  5
24C
330
1CA
100
AcDbEntity
  8
0
100
AcDbVertex
100
AcDbPolyFaceMeshVertex
 10
16.26776885986328
 20
23.48999404907227
 30
0.0099999997764826
 70
   192
  0
VERTEX
  5
24D
330
1CA
100
AcDbEntity
  8
0
100
AcDbVertex
100
AcDbPolyFaceMeshVertex
 10
16.27646446228027
 20
24.22413444519043
 30
0.0099999997764826
 70
   192
  0
VERTEX
  5
24E
330
1CA
100
AcDbEntity
  8
0
100
AcDbVertex
100
AcDbPolyFaceMeshVertex
 10
16.41050338745117
 20
23.88034248352051
 30
0.0099999997764826
 70
   192
  0
VERTEX
  5
24F
330
1CA
100
AcDbEntity
  8
0
100
AcDbVertex
100
AcDbPolyFaceMeshVertex
 10
16.13833427429199
 20
21.64773750305176
 30
0.0099999997764826
 70
   192
  0
VERTEX
  5
250
330
1CA
100
AcDbEntity
  8
0
100
AcDbVertex
100
AcDbPolyFaceMeshVertex
 10
16.43250274658203
 20
21.41444969177246
 30
0.0099999997764826
 70
   192
  0
VERTEX
  5
251
330
1CA
100
AcDbEntity
  8
0
100
AcDbVertex
100
AcDbPolyFaceMeshVertex
 10
16.26342010498047
 20
22.25218772888184
 30
0.0099999997764826
 70
   192
  0
VERTEX
  5
252
330
1CA
100
AcDbEntity
  8
0
100
AcDbVertex
100
AcDbPolyFaceMeshVertex
 10
16.0871753692627
 20
24.01105499267578
 30
0.0099999997764826
 70
   192
  0
VERTEX
  5
253
330
1CA
100
AcDbEntity
  8
0
100
AcDbVertex
100
AcDbPolyFaceMeshVertex
 10
15.95108985900879
 20
23.72379302978516
 30
0.0099999997764826
 70
   192
  0
VERTEX
  5
254
330
1CA
100
AcDbEntity
  8
0
100
AcDbVertex
100
AcDbPolyFaceMeshVertex
 10
15.91579055786133
 20
22.139892578125
 30
0.0099999997764826
 70
   192
  0
VERTEX
  5
255
330
1CA
100
AcDbEntity
  8
0
100
AcDbVertex
100
AcDbPolyFaceMeshVertex
 10
15.86897945404053
 20
23.34751510620117
 30
0.0099999997764826
 70
   192
  0
VERTEX
  5
256
330
1CA
100
AcDbEntity
  8
0
100
AcDbVertex
100
AcDbPolyFaceMeshVertex
 10
15.84160804748535
 20
22.86738204956055
 30
0.0099999997764826
 70
   192
  0
VERTEX
  5
257
330
1CA
100
AcDbEntity
  8
0
100
AcDbVertex
100
AcDbPolyFaceMeshVertex
 10
17.05332374572754
 20
21.70094299316406
 30
0.0099999997764826
 70
   192
  0
VERTEX
  5
258
330
1CA
100
AcDbEntity
  8
0
100
AcDbVertex
100
AcDbPolyFaceMeshVertex
 10
17.1208553314209
 20
21.38093948364258
 30
0.0099999997764826
 70
   192
  0
VERTEX
  5
259
330
1CA
100
AcDbEntity
  8
0
100
AcDbVertex
100
AcDbPolyFaceMeshVertex
 10
17.24645233154297
 20
21.88511657714844
 30
0.0099999997764826
 70
   192
  0
VERTEX
  5
25A
330
1CA
100
AcDbEntity
  8
0
100
AcDbVertex
100
AcDbPolyFaceMeshVertex
 10
17.36514282226562
 20
21.51369857788086
 30
0.0099999997764826
 70
   192
  0
VERTEX
  5
25B
330
1CA
100
AcDbEntity
  8
0
100
AcDbVertex
100
AcDbPolyFaceMeshVertex
 10
17.37614059448242
 20
22.25346755981445
 30
0.0099999997764826
 70
   192
  0
VERTEX
  5
25C
330
1CA
100
AcDbEntity
  8
0
100
AcDbVertex
100
AcDbPolyFaceMeshVertex
 10
16.39310836791992
 20
21.88409423828125
 30
0.0099999997764826
 70
   192
  0
VERTEX
  5
25D
330
1CA
100
AcDbEntity
  8
0
100
AcDbVertex
100
AcDbPolyFaceMeshVertex
 10
16.58623695373535
 20
21.70068740844727
 30
0.0099999997764826
 70
   192
  0
VERTEX
  5
25E
330
1CA
100
AcDbEntity
  8
0
100
AcDbVertex
100
AcDbPolyFaceMeshVertex
 10
16.81978034973145
 20
21.3366870880127
 30
0.0099999997764826
 70
   192
  0
VERTEX
  5
25F
330
1CA
100
AcDbEntity
  8
0
100
AcDbVertex
100
AcDbPolyFaceMeshVertex
 10
16.81978034973145
 20
21.63955116271973
 30
0.0099999997764826
 70
   192
  0
VERTEX
  5
260
330
1CA
100
AcDbEntity
  8
0
100
AcDbVertex
100
AcDbPolyFaceMeshVertex
 10
20.1287841796875
 20
22.86738204956055
 30
0.0099999997764826
 70
   192
  0
VERTEX
  5
261
330
1CA
100
AcDbEntity
  8
0
100
AcDbVertex
100
AcDbPolyFaceMeshVertex
 10
20.11190223693848
 20
23.2677059173584
 30
0.0099999997764826
 70
   192
  0
VERTEX
  5
262
330
1CA
100
AcDbEntity
  8
0
100
AcDbVertex
100
AcDbPolyFaceMeshVertex
 10
20.10166931152344
 20
22.39031791687012
 30
0.0099999997764826
 70
   192
  0
VERTEX
  5
263
330
1CA
100
AcDbEntity
  8
0
100
AcDbVertex
100
AcDbPolyFaceMeshVertex
 10
20.06125450134277
 20
23.57645416259766
 30
0.0099999997764826
 70
   192
  0
VERTEX
  5
264
330
1CA
100
AcDbEntity
  8
0
100
AcDbVertex
100
AcDbPolyFaceMeshVertex
 10
20.02032661437988
 20
22.01506233215332
 30
0.0099999997764826
 70
   192
  0
VERTEX
  5
265
330
1CA
100
AcDbEntity
  8
0
100
AcDbVertex
100
AcDbPolyFaceMeshVertex
 10
19.98093414306641
 20
23.81946182250977
 30
0.0099999997764826
 70
   192
  0
VERTEX
  5
266
330
1CA
100
AcDbEntity
  8
0
100
AcDbVertex
100
AcDbPolyFaceMeshVertex
 10
19.885009765625
 20
21.72754669189453
 30
0.0099999997764826
 70
   192
  0
VERTEX
  5
267
330
1CA
100
AcDbEntity
  8
0
100
AcDbVertex
100
AcDbPolyFaceMeshVertex
 10
19.87503242492676
 20
24.0225658416748
 30
0.0099999997764826
 70
   192
  0
VERTEX
  5
268
330
1CA
100
AcDbEntity
  8
0
100
AcDbVertex
100
AcDbPolyFaceMeshVertex
 10
19.75020408630371
 20
22.86738204956055
 30
0.0099999997764826
 70
   192
  0
VERTEX
  5
269
330
1CA
100
AcDbEntity
  8
0
100
AcDbVertex
100
AcDbPolyFaceMeshVertex
 10
19.7404842376709
 20
24.18423080444336
 30
0.0099999997764826
 70
   192
  0
VERTEX
  5
26A
330
1CA
100
AcDbEntity
  8
0
100
AcDbVertex
100
AcDbPolyFaceMeshVertex
 10
19.70697402954102
 20
23.48385620117188
 30
0.0099999997764826
 70
   192
  0
VERTEX
  5
26B
330
1CA
100
AcDbEntity
  8
0
100
AcDbVertex
100
AcDbPolyFaceMeshVertex
 10
19.57728385925293
 20
23.85169219970703
 30
0.0099999997764826
 70
   192
  0
VERTEX
  5
26C
330
1CA
100
AcDbEntity
  8
0
100
AcDbVertex
100
AcDbPolyFaceMeshVertex
 10
19.57421493530273
 20
24.30292129516602
 30
0.0099999997764826
 70
   192
  0
VERTEX
  5
26D
330
1CA
100
AcDbEntity
  8
0
100
AcDbVertex
100
AcDbPolyFaceMeshVertex
 10
19.37725067138672
 20
24.37582397460938
 30
0.0099999997764826
 70
   192
  0
VERTEX
  5
26E
330
1CA
100
AcDbEntity
  8
0
100
AcDbVertex
100
AcDbPolyFaceMeshVertex
 10
19.38313293457031
 20
24.03433227539062
 30
0.0099999997764826
 70
   192
  0
VERTEX
  5
26F
330
1CA
100
AcDbEntity
  8
0
100
AcDbVertex
100
AcDbPolyFaceMeshVertex
 10
19.15061378479004
 20
24.40012359619141
 30
0.0099999997764826
 70
   192
  0
VERTEX
  5
270
330
1CA
100
AcDbEntity
  8
0
100
AcDbVertex
100
AcDbPolyFaceMeshVertex
 10
18.85107421875
 20
24.35612678527832
 30
0.0099999997764826
 70
   192
  0
VERTEX
  5
271
330
1CA
100
AcDbEntity
  8
0
100
AcDbVertex
100
AcDbPolyFaceMeshVertex
 10
18.91834831237793
 20
24.04149627685547
 30
0.0099999997764826
 70
   192
  0
VERTEX
  5
272
330
1CA
100
AcDbEntity
  8
0
100
AcDbVertex
100
AcDbPolyFaceMeshVertex
 10
19.14652061462402
 20
24.09521293640137
 30
0.0099999997764826
 70
   192
  0
VERTEX
  5
273
330
1CA
100
AcDbEntity
  8
0
100
AcDbVertex
100
AcDbPolyFaceMeshVertex
 10
18.55102157592773
 20
22.86738204956055
 30
0.0099999997764826
 70
   192
  0
VERTEX
  5
274
330
1CA
100
AcDbEntity
  8
0
100
AcDbVertex
100
AcDbPolyFaceMeshVertex
 10
18.59860038757324
 20
23.48999404907227
 30
0.0099999997764826
 70
   192
  0
VERTEX
  5
275
330
1CA
100
AcDbEntity
  8
0
100
AcDbVertex
100
AcDbPolyFaceMeshVertex
 10
18.60729789733887
 20
24.22413444519043
 30
0.0099999997764826
 70
   192
  0
VERTEX
  5
276
330
1CA
100
AcDbEntity
  8
0
100
AcDbVertex
100
AcDbPolyFaceMeshVertex
 10
18.74133682250977
 20
23.88034248352051
 30
0.0099999997764826
 70
   192
  0
VERTEX
  5
277
330
1CA
100
AcDbEntity
  8
0
100
AcDbVertex
100
AcDbPolyFaceMeshVertex
 10
18.46916770935059
 20
21.64773750305176
 30
0.0099999997764826
 70
   192
  0
VERTEX
  5
278
330
1CA
100
AcDbEntity
  8
0
100
AcDbVertex
100
AcDbPolyFaceMeshVertex
 10
18.76333427429199
 20
21.41444969177246
 30
0.0099999997764826
 70
   192
  0
VERTEX
  5
279
330
1CA
100
AcDbEntity
  8
0
100
AcDbVertex
100
AcDbPolyFaceMeshVertex
 10
18.59425163269043
 20
22.25218772888184
 30
0.0099999997764826
 70
   192
  0
VERTEX
  5
27A
330
1CA
100
AcDbEntity
  8
0
100
AcDbVertex
100
AcDbPolyFaceMeshVertex
 10
18.41800689697266
 20
24.01105499267578
 30
0.0099999997764826
 70
   192
  0
VERTEX
  5
27B
330
1CA
100
AcDbEntity
  8
0
100
AcDbVertex
100
AcDbPolyFaceMeshVertex
 10
18.28192329406738
 20
23.72379302978516
 30
0.0099999997764826
 70
   192
  0
VERTEX
  5
27C
330
1CA
100
AcDbEntity
  8
0
100
AcDbVertex
100
AcDbPolyFaceMeshVertex
 10
18.24662208557129
 20
22.139892578125
 30
0.0099999997764826
 70
   192
  0
VERTEX
  5
27D
330
1CA
100
AcDbEntity
  8
0
100
AcDbVertex
100
AcDbPolyFaceMeshVertex
 10
18.1998119354248
 20
23.34751510620117
 30
0.0099999997764826
 70
   192
  0
VERTEX
  5
27E
330
1CA
100
AcDbEntity
  8
0
100
AcDbVertex
100
AcDbPolyFaceMeshVertex
 10
18.17244148254395
 20
22.86738204956055
 30
0.0099999997764826
 70
   192
  0
VERTEX
  5
27F
330
1CA
100
AcDbEntity
  8
0
100
AcDbVertex
100
AcDbPolyFaceMeshVertex
 10
19.38415718078613
 20
21.70094299316406
 30
0.0099999997764826
 70
   192
  0
VERTEX
  5
280
330
1CA
100
AcDbEntity
  8
0
100
AcDbVertex
100
AcDbPolyFaceMeshVertex
 10
19.45168685913086
 20
21.38093948364258
 30
0.0099999997764826
 70
   192
  0
VERTEX
  5
281
330
1CA
100
AcDbEntity
  8
0
100
AcDbVertex
100
AcDbPolyFaceMeshVertex
 10
19.57728385925293
 20
21.88511657714844
 30
0.0099999997764826
 70
   192
  0
VERTEX
  5
282
330
1CA
100
AcDbEntity
  8
0
100
AcDbVertex
100
AcDbPolyFaceMeshVertex
 10
19.69597434997559
 20
21.51369857788086
 30
0.0099999997764826
 70
   192
  0
VERTEX
  5
283
330
1CA
100
AcDbEntity
  8
0
100
AcDbVertex
100
AcDbPolyFaceMeshVertex
 10
19.70697402954102
 20
22.25346755981445
 30
0.0099999997764826
 70
   192
  0
VERTEX
  5
284
330
1CA
100
AcDbEntity
  8
0
100
AcDbVertex
100
AcDbPolyFaceMeshVertex
 10
18.72394180297852
 20
21.88409423828125
 30
0.0099999997764826
 70
   192
  0
VERTEX
  5
285
330
1CA
100
AcDbEntity
  8
0
100
AcDbVertex
100
AcDbPolyFaceMeshVertex
 10
18.91706848144531
 20
21.70068740844727
 30
0.0099999997764826
 70
   192
  0
VERTEX
  5
286
330
1CA
100
AcDbEntity
  8
0
100
AcDbVertex
100
AcDbPolyFaceMeshVertex
 10
19.15061378479004
 20
21.3366870880127
 30
0.0099999997764826
 70
   192
  0
VERTEX
  5
287
330
1CA
100
AcDbEntity
  8
0
100
AcDbVertex
100
AcDbPolyFaceMeshVertex
 10
19.15061378479004
 20
21.63955116271973
 30
0.0099999997764826
 70
   192
  0
VERTEX
  5
288
330
1CA
100
AcDbEntity
  8
0
100
AcDbVertex
100
AcDbPolyFaceMeshVertex
 10
12.79170036315918
 20
-2.551789999008179
 30
0.0099999997764826
 70
   192
  0
VERTEX
  5
289
330
1CA
100
AcDbEntity
  8
0
100
AcDbVertex
100
AcDbPolyFaceMeshVertex
 10
10.79170036315918
 20
-2.551789999008179
 30
0.0099999997764826
 70
   192
  0
VERTEX
  5
28A
330
1CA
100
AcDbEntity
  8
0
100
AcDbVertex
100
AcDbPolyFaceMeshVertex
 10
11.79170036315918
 20
2.448210000991821
 30
0.0099999997764826
 70
   192
  0
VERTEX
  5
28B
330
1CA
100
AcDbEntity
  8
0
100
AcDbVertex
100
AcDbPolyFaceMeshVertex
 10
10.79170036315918
 20
10.44820976257324
 30
0.0099999997764826
 70
   192
  0
VERTEX
  5
28C
330
1CA
100
AcDbEntity
  8
0
100
AcDbVertex
100
AcDbPolyFaceMeshVertex
 10
12.79170036315918
 20
10.44820976257324
 30
0.0099999997764826
 70
   192
  0
VERTEX
  5
28D
330
1CA
100
AcDbEntity
  8
0
100
AcDbVertex
100
AcDbPolyFaceMeshVertex
 10
11.79170036315918
 20
5.448209762573242
 30
0.0099999997764826
 70
   192
  0
VERTEX
  5
28E
330
1CA
100
AcDbEntity
  8
0
100
AcDbFaceRecord
 10
0.0
 20
0.0
 30
0.0
 70
   128
 71
     1
 72
     2
 73
     3
  0
VERTEX
  5
28F
330
1CA
100
AcDbEntity
  8
0
100
AcDbFaceRecord
 10
0.0
 20
0.0
 30
0.0
 70
   128
 71
     1
 72
     3
 73
     4
  0
VERTEX
  5
290
330
1CA
100
AcDbEntity
  8
0
100
AcDbFaceRecord
 10
0.0
 20
0.0
 30
0.0
 70
   128
 71
     1
 72
     4
 73
     5
  0
VERTEX
  5
291
330
1CA
100
AcDbEntity
  8
0
100
AcDbFaceRecord
 10
0.0
 20
0.0
 30
0.0
 70
   128
 71
     6
 72
     7
 73
     8
  0
VERTEX
  5
292
330
1CA
100
AcDbEntity
  8
0
100
AcDbFaceRecord
 10
0.0
 20
0.0
 30
0.0
 70
   128
 71
     9
 72
     8
 73
     7
  0
VERTEX
  5
293
330
1CA
100
AcDbEntity
  8
0
100
AcDbFaceRecord
 10
0.0
 20
0.0
 30
0.0
 70
   128
 71
     8
 72
     9
 73
    10
  0
VERTEX
  5
294
330
1CA
100
AcDbEntity
  8
0
100
AcDbFaceRecord
 10
0.0
 20
0.0
 30
0.0
 70
   128
 71
     3
 72
    10
 73
     9
  0
VERTEX
  5
295
330
1CA
100
AcDbEntity
  8
0
100
AcDbFaceRecord
 10
0.0
 20
0.0
 30
0.0
 70
   128
 71
    10
 72
     3
 73
     2
  0
VERTEX
  5
296
330
1CA
100
AcDbEntity
  8
0
100
AcDbFaceRecord
 10
0.0
 20
0.0
 30
0.0
 70
   128
 71
    11
 72
    12
 73
    13
  0
VERTEX
  5
297
330
1CA
100
AcDbEntity
  8
0
100
AcDbFaceRecord
 10
0.0
 20
0.0
 30
0.0
 70
   128
 71
    11
 72
    13
 73
     7
  0
VERTEX
  5
298
330
1CA
100
AcDbEntity
  8
0
100
AcDbFaceRecord
 10
0.0
 20
0.0
 30
0.0
 70
   128
 71
    11
 72
     7
 73
     6
  0
VERTEX
  5
299
330
1CA
100
AcDbEntity
  8
0
100
AcDbFaceRecord
 10
0.0
 20
0.0
 30
0.0
 70
   128
 71
    14
 72
    15
 73
    16
  0
VERTEX
  5
29A
330
1CA
100
AcDbEntity
  8
0
100
AcDbFaceRecord
 10
0.0
 20
0.0
 30
0.0
 70
   128
 71
    14
 72
    16
 73
    13
  0
VERTEX
  5
29B
330
1CA
100
AcDbEntity
  8
0
100
AcDbFaceRecord
 10
0.0
 20
0.0
 30
0.0
 70
   128
 71
    14
 72
    13
 73
    12
  0
VERTEX
  5
29C
330
1CA
100
AcDbEntity
  8
0
100
AcDbFaceRecord
 10
0.0
 20
0.0
 30
0.0
 70
   128
 71
    17
 72
    18
 73
    19
  0
VERTEX
  5
29D
330
1CA
100
AcDbEntity
  8
0
100
AcDbFaceRecord
 10
0.0
 20
0.0
 30
0.0
 70
   128
 71
    20
 72
    19
 73
    18
  0
VERTEX
  5
29E
330
1CA
100
AcDbEntity
  8
0
100
AcDbFaceRecord
 10
0.0
 20
0.0
 30
0.0
 70
   128
 71
    19
 72
    20
 73
    21
  0
VERTEX
  5
29F
330
1CA
100
AcDbEntity
  8
0
100
AcDbFaceRecord
 10
0.0
 20
0.0
 30
0.0
 70
   128
 71
    22
 72
    21
 73
    20
  0
VERTEX
  5
2A0
330
1CA
100
AcDbEntity
  8
0
100
AcDbFaceRecord
 10
0.0
 20
0.0
 30
0.0
 70
   128
 71
    21
 72
    22
 73
    23
  0
VERTEX
  5
2A1
330
1CA
100
AcDbEntity
  8
0
100
AcDbFaceRecord
 10
0.0
 20
0.0
 30
0.0
 70
   128
 71
    16
 72
    23
 73
    22
  0
VERTEX
  5
2A2
330
1CA
100
AcDbEntity
  8
0
100
AcDbFaceRecord
 10
0.0
 20
0.0
 30
0.0
 70
   128
 71
    23
 72
    16
 73
    15
  0
VERTEX
  5
2A3
330
1CA
100
AcDbEntity
  8
0
100
AcDbFaceRecord
 10
0.0
 20
0.0
 30
0.0
 70
   128
 71
    24
 72
    25
 73
    26
  0
VERTEX
  5
2A4
330
1CA
100
AcDbEntity
  8
0
100
AcDbFaceRecord
 10
0.0
 20
0.0
 30
0.0
 70
   128
 71
    27
 72
    26
 73
    25
  0
VERTEX
  5
2A5
330
1CA
100
AcDbEntity
  8
0
100
AcDbFaceRecord
 10
0.0
 20
0.0
 30
0.0
 70
   128
 71
    26
 72
    27
 73
    28
  0
VERTEX
  5
2A6
330
1CA
100
AcDbEntity
  8
0
100
AcDbFaceRecord
 10
0.0
 20
0.0
 30
0.0
 70
   128
 71
    22
 72
    28
 73
    27
  0
VERTEX
  5
2A7
330
1CA
100
AcDbEntity
  8
0
100
AcDbFaceRecord
 10
0.0
 20
0.0
 30
0.0
 70
   128
 71
    28
 72
    22
 73
    20
  0
VERTEX
  5
2A8
330
1CA
100
AcDbEntity
  8
0
100
AcDbFaceRecord
 10
0.0
 20
0.0
 30
0.0
 70
   128
 71
    29
 72
    30
 73
    31
  0
VERTEX
  5
2A9
330
1CA
100
AcDbEntity
  8
0
100
AcDbFaceRecord
 10
0.0
 20
0.0
 30
0.0
 70
   128
 71
    32
 72
    31
 73
    30
  0
VERTEX
  5
2AA
330
1CA
100
AcDbEntity
  8
0
100
AcDbFaceRecord
 10
0.0
 20
0.0
 30
0.0
 70
   128
 71
    31
 72
    32
 73
    33
  0
VERTEX
  5
2AB
330
1CA
100
AcDbEntity
  8
0
100
AcDbFaceRecord
 10
0.0
 20
0.0
 30
0.0
 70
   128
 71
    34
 72
    33
 73
    32
  0
VERTEX
  5
2AC
330
1CA
100
AcDbEntity
  8
0
100
AcDbFaceRecord
 10
0.0
 20
0.0
 30
0.0
 70
   128
 71
    35
 72
    36
 73
    37
  0
VERTEX
  5
2AD
330
1CA
100
AcDbEntity
  8
0
100
AcDbFaceRecord
 10
0.0
 20
0.0
 30
0.0
 70
   128
 71
    38
 72
    37
 73
    36
  0
VERTEX
  5
2AE
330
1CA
100
AcDbEntity
  8
0
100
AcDbFaceRecord
 10
0.0
 20
0.0
 30
0.0
 70
   128
 71
    37
 72
    38
 73
    39
  0
VERTEX
  5
2AF
330
1CA
100
AcDbEntity
  8
0
100
AcDbFaceRecord
 10
0.0
 20
0.0
 30
0.0
 70
   128
 71
    29
 72
    39
 73
    38
  0
VERTEX
  5
2B0
330
1CA
100
AcDbEntity
  8
0
100
AcDbFaceRecord
 10
0.0
 20
0.0
 30
0.0
 70
   128
 71
    39
 72
    29
 73
    31
  0
VERTEX
  5
2B1
330
1CA
100
AcDbEntity
  8
0
100
AcDbFaceRecord
 10
0.0
 20
0.0
 30
0.0
 70
   128
 71
    17
 72
    40
 73
    18
  0
VERTEX
  5
2B2
330
1CA
100
AcDbEntity
  8
0
100
AcDbFaceRecord
 10
0.0
 20
0.0
 30
0.0
 70
   128
 71
    41
 72
    18
 73
    40
  0
VERTEX
  5
2B3
330
1CA
100
AcDbEntity
  8
0
100
AcDbFaceRecord
 10
0.0
 20
0.0
 30
0.0
 70
   128
 71
    18
 72
    41
 73
    42
  0
VERTEX
  5
2B4
330
1CA
100
AcDbEntity
  8
0
100
AcDbFaceRecord
 10
0.0
 20
0.0
 30
0.0
 70
   128
 71
    35
 72
    42
 73
    41
  0
VERTEX
  5
2B5
330
1CA
100
AcDbEntity
  8
0
100
AcDbFaceRecord
 10
0.0
 20
0.0
 30
0.0
 70
   128
 71
    42
 72
    35
 73
    37
  0
VERTEX
  5
2B6
330
1CA
100
AcDbEntity
  8
0
100
AcDbFaceRecord
 10
0.0
 20
0.0
 30
0.0
 70
   128
 71
    43
 72
    44
 73
    45
  0
VERTEX
  5
2B7
330
1CA
100
AcDbEntity
  8
0
100
AcDbFaceRecord
 10
0.0
 20
0.0
 30
0.0
 70
   128
 71
    43
 72
    45
 73
    46
  0
VERTEX
  5
2B8
330
1CA
100
AcDbEntity
  8
0
100
AcDbFaceRecord
 10
0.0
 20
0.0
 30
0.0
 70
   128
 71
    43
 72
    46
 73
    47
  0
VERTEX
  5
2B9
330
1CA
100
AcDbEntity
  8
0
100
AcDbFaceRecord
 10
0.0
 20
0.0
 30
0.0
 70
   128
 71
    43
 72
    47
 73
    48
  0
VERTEX
  5
2BA
330
1CA
100
AcDbEntity
  8
0
100
AcDbFaceRecord
 10
0.0
 20
0.0
 30
0.0
 70
   128
 71
    49
 72
    50
 73
    51
  0
VERTEX
  5
2BB
330
1CA
100
AcDbEntity
  8
0
100
AcDbFaceRecord
 10
0.0
 20
0.0
 30
0.0
 70
   128
 71
    52
 72
    51
 73
    50
  0
VERTEX
  5
2BC
330
1CA
100
AcDbEntity
  8
0
100
AcDbFaceRecord
 10
0.0
 20
0.0
 30
0.0
 70
   128
 71
    51
 72
    52
 73
    53
  0
VERTEX
  5
2BD
330
1CA
100
AcDbEntity
  8
0
100
AcDbFaceRecord
 10
0.0
 20
0.0
 30
0.0
 70
   128
 71
    54
 72
    53
 73
    52
  0
VERTEX
  5
2BE
330
1CA
100
AcDbEntity
  8
0
100
AcDbFaceRecord
 10
0.0
 20
0.0
 30
0.0
 70
   128
 71
    53
 72
    54
 73
    55
  0
VERTEX
  5
2BF
330
1CA
100
AcDbEntity
  8
0
100
AcDbFaceRecord
 10
0.0
 20
0.0
 30
0.0
 70
   128
 71
    56
 72
    55
 73
    54
  0
VERTEX
  5
2C0
330
1CA
100
AcDbEntity
  8
0
100
AcDbFaceRecord
 10
0.0
 20
0.0
 30
0.0
 70
   128
 71
    57
 72
    56
 73
    54
  0
VERTEX
  5
2C1
330
1CA
100
AcDbEntity
  8
0
100
AcDbFaceRecord
 10
0.0
 20
0.0
 30
0.0
 70
   128
 71
    57
 72
    54
 73
    58
  0
VERTEX
  5
2C2
330
1CA
100
AcDbEntity
  8
0
100
AcDbFaceRecord
 10
0.0
 20
0.0
 30
0.0
 70
   128
 71
    57
 72
    58
 73
    59
  0
VERTEX
  5
2C3
330
1CA
100
AcDbEntity
  8
0
100
AcDbFaceRecord
 10
0.0
 20
0.0
 30
0.0
 70
   128
 71
    57
 72
    59
 73
    60
  0
VERTEX
  5
2C4
330
1CA
100
AcDbEntity
  8
0
100
AcDbFaceRecord
 10
0.0
 20
0.0
 30
0.0
 70
   128
 71
    57
 72
    60
 73
    61
  0
VERTEX
  5
2C5
330
1CA
100
AcDbEntity
  8
0
100
AcDbFaceRecord
 10
0.0
 20
0.0
 30
0.0
 70
   128
 71
    62
 72
    63
 73
    64
  0
VERTEX
  5
2C6
330
1CA
100
AcDbEntity
  8
0
100
AcDbFaceRecord
 10
0.0
 20
0.0
 30
0.0
 70
   128
 71
    62
 72
    64
 73
    65
  0
VERTEX
  5
2C7
330
1CA
100
AcDbEntity
  8
0
100
AcDbFaceRecord
 10
0.0
 20
0.0
 30
0.0
 70
   128
 71
    62
 72
    65
 73
    61
  0
VERTEX
  5
2C8
330
1CA
100
AcDbEntity
  8
0
100
AcDbFaceRecord
 10
0.0
 20
0.0
 30
0.0
 70
   128
 71
    62
 72
    61
 73
    60
  0
VERTEX
  5
2C9
330
1CA
100
AcDbEntity
  8
0
100
AcDbFaceRecord
 10
0.0
 20
0.0
 30
0.0
 70
   128
 71
    64
 72
    63
 73
    66
  0
VERTEX
  5
2CA
330
1CA
100
AcDbEntity
  8
0
100
AcDbFaceRecord
 10
0.0
 20
0.0
 30
0.0
 70
   128
 71
    64
 72
    66
 73
    67
  0
VERTEX
  5
2CB
330
1CA
100
AcDbEntity
  8
0
100
AcDbFaceRecord
 10
0.0
 20
0.0
 30
0.0
 70
   128
 71
    64
 72
    67
 73
    68
  0
VERTEX
  5
2CC
330
1CA
100
AcDbEntity
  8
0
100
AcDbFaceRecord
 10
0.0
 20
0.0
 30
0.0
 70
   128
 71
    55
 72
    69
 73
    53
  0
VERTEX
  5
2CD
330
1CA
100
AcDbEntity
  8
0
100
AcDbFaceRecord
 10
0.0
 20
0.0
 30
0.0
 70
   128
 71
    70
 72
    53
 73
    69
  0
VERTEX
  5
2CE
330
1CA
100
AcDbEntity
  8
0
100
AcDbFaceRecord
 10
0.0
 20
0.0
 30
0.0
 70
   128
 71
    53
 72
    70
 73
    71
  0
VERTEX
  5
2CF
330
1CA
100
AcDbEntity
  8
0
100
AcDbFaceRecord
 10
0.0
 20
0.0
 30
0.0
 70
   128
 71
    72
 72
    71
 73
    70
  0
VERTEX
  5
2D0
330
1CA
100
AcDbEntity
  8
0
100
AcDbFaceRecord
 10
0.0
 20
0.0
 30
0.0
 70
   128
 71
    71
 72
    72
 73
    73
  0
VERTEX
  5
2D1
330
1CA
100
AcDbEntity
  8
0
100
AcDbFaceRecord
 10
0.0
 20
0.0
 30
0.0
 70
   128
 71
    71
 72
    73
 73
    74
  0
VERTEX
  5
2D2
330
1CA
100
AcDbEntity
  8
0
100
AcDbFaceRecord
 10
0.0
 20
0.0
 30
0.0
 70
   128
 71
    75
 72
    74
 73
    73
  0
VERTEX
  5
2D3
330
1CA
100
AcDbEntity
  8
0
100
AcDbFaceRecord
 10
0.0
 20
0.0
 30
0.0
 70
   128
 71
    74
 72
    75
 73
    76
  0
VERTEX
  5
2D4
330
1CA
100
AcDbEntity
  8
0
100
AcDbFaceRecord
 10
0.0
 20
0.0
 30
0.0
 70
   128
 71
    77
 72
    76
 73
    75
  0
VERTEX
  5
2D5
330
1CA
100
AcDbEntity
  8
0
100
AcDbFaceRecord
 10
0.0
 20
0.0
 30
0.0
 70
   128
 71
    76
 72
    77
 73
    78
  0
VERTEX
  5
2D6
330
1CA
100
AcDbEntity
  8
0
100
AcDbFaceRecord
 10
0.0
 20
0.0
 30
0.0
 70
   128
 71
    79
 72
    80
 73
    81
  0
VERTEX
  5
2D7
330
1CA
100
AcDbEntity
  8
0
100
AcDbFaceRecord
 10
0.0
 20
0.0
 30
0.0
 70
   128
 71
    79
 72
    81
 73
    82
  0
VERTEX
  5
2D8
330
1CA
100
AcDbEntity
  8
0
100
AcDbFaceRecord
 10
0.0
 20
0.0
 30
0.0
 70
   128
 71
    79
 72
    82
 73
    76
  0
VERTEX
  5
2D9
330
1CA
100
AcDbEntity
  8
0
100
AcDbFaceRecord
 10
0.0
 20
0.0
 30
0.0
 70
   128
 71
    79
 72
    76
 73
    78
  0
VERTEX
  5
2DA
330
1CA
100
AcDbEntity
  8
0
100
AcDbFaceRecord
 10
0.0
 20
0.0
 30
0.0
 70
   128
 71
    83
 72
    84
 73
    85
  0
VERTEX
  5
2DB
330
1CA
100
AcDbEntity
  8
0
100
AcDbFaceRecord
 10
0.0
 20
0.0
 30
0.0
 70
   128
 71
    86
 72
    85
 73
    84
  0
VERTEX
  5
2DC
330
1CA
100
AcDbEntity
  8
0
100
AcDbFaceRecord
 10
0.0
 20
0.0
 30
0.0
 70
   128
 71
    85
 72
    86
 73
    87
  0
VERTEX
  5
2DD
330
1CA
100
AcDbEntity
  8
0
100
AcDbFaceRecord
 10
0.0
 20
0.0
 30
0.0
 70
   128
 71
    88
 72
    87
 73
    86
  0
VERTEX
  5
2DE
330
1CA
100
AcDbEntity
  8
0
100
AcDbFaceRecord
 10
0.0
 20
0.0
 30
0.0
 70
   128
 71
    87
 72
    88
 73
    89
  0
VERTEX
  5
2DF
330
1CA
100
AcDbEntity
  8
0
100
AcDbFaceRecord
 10
0.0
 20
0.0
 30
0.0
 70
   128
 71
    90
 72
    89
 73
    88
  0
VERTEX
  5
2E0
330
1CA
100
AcDbEntity
  8
0
100
AcDbFaceRecord
 10
0.0
 20
0.0
 30
0.0
 70
   128
 71
    89
 72
    90
 73
    91
  0
VERTEX
  5
2E1
330
1CA
100
AcDbEntity
  8
0
100
AcDbFaceRecord
 10
0.0
 20
0.0
 30
0.0
 70
   128
 71
    58
 72
    91
 73
    90
  0
VERTEX
  5
2E2
330
1CA
100
AcDbEntity
  8
0
100
AcDbFaceRecord
 10
0.0
 20
0.0
 30
0.0
 70
   128
 71
    92
 72
    93
 73
    94
  0
VERTEX
  5
2E3
330
1CA
100
AcDbEntity
  8
0
100
AcDbFaceRecord
 10
0.0
 20
0.0
 30
0.0
 70
   128
 71
    95
 72
    94
 73
    93
  0
VERTEX
  5
2E4
330
1CA
100
AcDbEntity
  8
0
100
AcDbFaceRecord
 10
0.0
 20
0.0
 30
0.0
 70
   128
 71
    94
 72
    95
 73
    96
  0
VERTEX
  5
2E5
330
1CA
100
AcDbEntity
  8
0
100
AcDbFaceRecord
 10
0.0
 20
0.0
 30
0.0
 70
   128
 71
    83
 72
    96
 73
    95
  0
VERTEX
  5
2E6
330
1CA
100
AcDbEntity
  8
0
100
AcDbFaceRecord
 10
0.0
 20
0.0
 30
0.0
 70
   128
 71
    96
 72
    83
 73
    85
  0
VERTEX
  5
2E7
330
1CA
100
AcDbEntity
  8
0
100
AcDbFaceRecord
 10
0.0
 20
0.0
 30
0.0
 70
   128
 71
    97
 72
    92
 73
    94
  0
VERTEX
  5
2E8
330
1CA
100
AcDbEntity
  8
0
100
AcDbFaceRecord
 10
0.0
 20
0.0
 30
0.0
 70
   128
 71
    97
 72
    94
 73
    98
  0
VERTEX
  5
2E9
330
1CA
100
AcDbEntity
  8
0
100
AcDbFaceRecord
 10
0.0
 20
0.0
 30
0.0
 70
   128
 71
    97
 72
    98
 73
    99
  0
VERTEX
  5
2EA
330
1CA
100
AcDbEntity
  8
0
100
AcDbFaceRecord
 10
0.0
 20
0.0
 30
0.0
 70
   128
 71
    97
 72
    99
 73
   100
  0
VERTEX
  5
2EB
330
1CA
100
AcDbEntity
  8
0
100
AcDbFaceRecord
 10
0.0
 20
0.0
 30
0.0
 70
   128
 71
    89
 72
    91
 73
   101
  0
VERTEX
  5
2EC
330
1CA
100
AcDbEntity
  8
0
100
AcDbFaceRecord
 10
0.0
 20
0.0
 30
0.0
 70
   128
 71
   102
 72
   101
 73
    91
  0
VERTEX
  5
2ED
330
1CA
100
AcDbEntity
  8
0
100
AcDbFaceRecord
 10
0.0
 20
0.0
 30
0.0
 70
   128
 71
   101
 72
   102
 73
   103
  0
VERTEX
  5
2EE
330
1CA
100
AcDbEntity
  8
0
100
AcDbFaceRecord
 10
0.0
 20
0.0
 30
0.0
 70
   128
 71
   104
 72
   103
 73
   102
  0
VERTEX
  5
2EF
330
1CA
100
AcDbEntity
  8
0
100
AcDbFaceRecord
 10
0.0
 20
0.0
 30
0.0
 70
   128
 71
   103
 72
   104
 73
   105
  0
VERTEX
  5
2F0
330
1CA
100
AcDbEntity
  8
0
100
AcDbFaceRecord
 10
0.0
 20
0.0
 30
0.0
 70
   128
 71
    58
 72
    90
 73
    59
  0
VERTEX
  5
2F1
330
1CA
100
AcDbEntity
  8
0
100
AcDbFaceRecord
 10
0.0
 20
0.0
 30
0.0
 70
   128
 71
   106
 72
   107
 73
   108
  0
VERTEX
  5
2F2
330
1CA
100
AcDbEntity
  8
0
100
AcDbFaceRecord
 10
0.0
 20
0.0
 30
0.0
 70
   128
 71
   106
 72
   108
 73
   109
  0
VERTEX
  5
2F3
330
1CA
100
AcDbEntity
  8
0
100
AcDbFaceRecord
 10
0.0
 20
0.0
 30
0.0
 70
   128
 71
   110
 72
   111
 73
   112
  0
VERTEX
  5
2F4
330
1CA
100
AcDbEntity
  8
0
100
AcDbFaceRecord
 10
0.0
 20
0.0
 30
0.0
 70
   128
 71
   113
 72
   112
 73
   111
  0
VERTEX
  5
2F5
330
1CA
100
AcDbEntity
  8
0
100
AcDbFaceRecord
 10
0.0
 20
0.0
 30
0.0
 70
   128
 71
   112
 72
   113
 73
   114
  0
VERTEX
  5
2F6
330
1CA
100
AcDbEntity
  8
0
100
AcDbFaceRecord
 10
0.0
 20
0.0
 30
0.0
 70
   128
 71
   115
 72
   114
 73
   113
  0
VERTEX
  5
2F7
330
1CA
100
AcDbEntity
  8
0
100
AcDbFaceRecord
 10
0.0
 20
0.0
 30
0.0
 70
   128
 71
   114
 72
   115
 73
   116
  0
VERTEX
  5
2F8
330
1CA
100
AcDbEntity
  8
0
100
AcDbFaceRecord
 10
0.0
 20
0.0
 30
0.0
 70
   128
 71
   117
 72
   116
 73
   115
  0
VERTEX
  5
2F9
330
1CA
100
AcDbEntity
  8
0
100
AcDbFaceRecord
 10
0.0
 20
0.0
 30
0.0
 70
   128
 71
   116
 72
   117
 73
   118
  0
VERTEX
  5
2FA
330
1CA
100
AcDbEntity
  8
0
100
AcDbFaceRecord
 10
0.0
 20
0.0
 30
0.0
 70
   128
 71
   119
 72
   118
 73
   117
  0
VERTEX
  5
2FB
330
1CA
100
AcDbEntity
  8
0
100
AcDbFaceRecord
 10
0.0
 20
0.0
 30
0.0
 70
   128
 71
   118
 72
   119
 73
   120
  0
VERTEX
  5
2FC
330
1CA
100
AcDbEntity
  8
0
100
AcDbFaceRecord
 10
0.0
 20
0.0
 30
0.0
 70
   128
 71
   121
 72
   120
 73
   119
  0
VERTEX
  5
2FD
330
1CA
100
AcDbEntity
  8
0
100
AcDbFaceRecord
 10
0.0
 20
0.0
 30
0.0
 70
   128
 71
   122
 72
   123
 73
   124
  0
VERTEX
  5
2FE
330
1CA
100
AcDbEntity
  8
0
100
AcDbFaceRecord
 10
0.0
 20
0.0
 30
0.0
 70
   128
 71
   122
 72
   124
 73
   121
  0
VERTEX
  5
2FF
330
1CA
100
AcDbEntity
  8
0
100
AcDbFaceRecord
 10
0.0
 20
0.0
 30
0.0
 70
   128
 71
   122
 72
   121
 73
   119
  0
VERTEX
  5
300
330
1CA
100
AcDbEntity
  8
0
100
AcDbFaceRecord
 10
0.0
 20
0.0
 30
0.0
 70
   128
 71
   125
 72
   126
 73
   127
  0
VERTEX
  5
301
330
1CA
100
AcDbEntity
  8
0
100
AcDbFaceRecord
 10
0.0
 20
0.0
 30
0.0
 70
   128
 71
   125
 72
   127
 73
   128
  0
VERTEX
  5
302
330
1CA
100
AcDbEntity
  8
0
100
AcDbFaceRecord
 10
0.0
 20
0.0
 30
0.0
 70
   128
 71
   125
 72
   128
 73
   124
  0
VERTEX
  5
303
330
1CA
100
AcDbEntity
  8
0
100
AcDbFaceRecord
 10
0.0
 20
0.0
 30
0.0
 70
   128
 71
   125
 72
   124
 73
   123
  0
VERTEX
  5
304
330
1CA
100
AcDbEntity
  8
0
100
AcDbFaceRecord
 10
0.0
 20
0.0
 30
0.0
 70
   128
 71
   129
 72
   130
 73
   131
  0
VERTEX
  5
305
330
1CA
100
AcDbEntity
  8
0
100
AcDbFaceRecord
 10
0.0
 20
0.0
 30
0.0
 70
   128
 71
   132
 72
   131
 73
   130
  0
VERTEX
  5
306
330
1CA
100
AcDbEntity
  8
0
100
AcDbFaceRecord
 10
0.0
 20
0.0
 30
0.0
 70
   128
 71
   131
 72
   132
 73
   126
  0
VERTEX
  5
307
330
1CA
100
AcDbEntity
  8
0
100
AcDbFaceRecord
 10
0.0
 20
0.0
 30
0.0
 70
   128
 71
   127
 72
   126
 73
   132
  0
VERTEX
  5
308
330
1CA
100
AcDbEntity
  8
0
100
AcDbFaceRecord
 10
0.0
 20
0.0
 30
0.0
 70
   128
 71
   133
 72
   134
 73
   135
  0
VERTEX
  5
309
330
1CA
100
AcDbEntity
  8
0
100
AcDbFaceRecord
 10
0.0
 20
0.0
 30
0.0
 70
   128
 71
   133
 72
   135
 73
   129
  0
VERTEX
  5
30A
330
1CA
100
AcDbEntity
  8
0
100
AcDbFaceRecord
 10
0.0
 20
0.0
 30
0.0
 70
   128
 71
   133
 72
   129
 73
   131
  0
VERTEX
  5
30B
330
1CA
100
AcDbEntity
  8
0
100
AcDbFaceRecord
 10
0.0
 20
0.0
 30
0.0
 70
   128
 71
   133
 72
   131
 73
   136
  0
VERTEX
  5
30C
330
1CA
100
AcDbEntity
  8
0
100
AcDbFaceRecord
 10
0.0
 20
0.0
 30
0.0
 70
   128
 71
   133
 72
   136
 73
   137
  0
VERTEX
  5
30D
330
1CA
100
AcDbEntity
  8
0
100
AcDbFaceRecord
 10
0.0
 20
0.0
 30
0.0
 70
   128
 71
   133
 72
   137
 73
   138
  0
VERTEX
  5
30E
330
1CA
100
AcDbEntity
  8
0
100
AcDbFaceRecord
 10
0.0
 20
0.0
 30
0.0
 70
   128
 71
   139
 72
   140
 73
   138
  0
VERTEX
  5
30F
330
1CA
100
AcDbEntity
  8
0
100
AcDbFaceRecord
 10
0.0
 20
0.0
 30
0.0
 70
   128
 71
   139
 72
   138
 73
   137
  0
VERTEX
  5
310
330
1CA
100
AcDbEntity
  8
0
100
AcDbFaceRecord
 10
0.0
 20
0.0
 30
0.0
 70
   128
 71
   141
 72
   142
 73
   143
  0
VERTEX
  5
311
330
1CA
100
AcDbEntity
  8
0
100
AcDbFaceRecord
 10
0.0
 20
0.0
 30
0.0
 70
   128
 71
   144
 72
   143
 73
   142
  0
VERTEX
  5
312
330
1CA
100
AcDbEntity
  8
0
100
AcDbFaceRecord
 10
0.0
 20
0.0
 30
0.0
 70
   128
 71
   143
 72
   144
 73
   145
  0
VERTEX
  5
313
330
1CA
100
AcDbEntity
  8
0
100
AcDbFaceRecord
 10
0.0
 20
0.0
 30
0.0
 70
   128
 71
   116
 72
   145
 73
   144
  0
VERTEX
  5
314
330
1CA
100
AcDbEntity
  8
0
100
AcDbFaceRecord
 10
0.0
 20
0.0
 30
0.0
 70
   128
 71
   145
 72
   116
 73
   118
  0
VERTEX
  5
315
330
1CA
100
AcDbEntity
  8
0
100
AcDbFaceRecord
 10
0.0
 20
0.0
 30
0.0
 70
   128
 71
   146
 72
   134
 73
   147
  0
VERTEX
  5
316
330
1CA
100
AcDbEntity
  8
0
100
AcDbFaceRecord
 10
0.0
 20
0.0
 30
0.0
 70
   128
 71
   148
 72
   147
 73
   134
  0
VERTEX
  5
317
330
1CA
100
AcDbEntity
  8
0
100
AcDbFaceRecord
 10
0.0
 20
0.0
 30
0.0
 70
   128
 71
   147
 72
   148
 73
   149
  0
VERTEX
  5
318
330
1CA
100
AcDbEntity
  8
0
100
AcDbFaceRecord
 10
0.0
 20
0.0
 30
0.0
 70
   128
 71
   142
 72
   149
 73
   148
  0
VERTEX
  5
319
330
1CA
100
AcDbEntity
  8
0
100
AcDbFaceRecord
 10
0.0
 20
0.0
 30
0.0
 70
   128
 71
   149
 72
   142
 73
   141
  0
VERTEX
  5
31A
330
1CA
100
AcDbEntity
  8
0
100
AcDbFaceRecord
 10
0.0
 20
0.0
 30
0.0
 70
   128
 71
   135
 72
   134
 73
   146
  0
VERTEX
  5
31B
330
1CA
100
AcDbEntity
  8
0
100
AcDbFaceRecord
 10
0.0
 20
0.0
 30
0.0
 70
   128
 71
   150
 72
   151
 73
   152
  0
VERTEX
  5
31C
330
1CA
100
AcDbEntity
  8
0
100
AcDbFaceRecord
 10
0.0
 20
0.0
 30
0.0
 70
   128
 71
   153
 72
   152
 73
   151
  0
VERTEX
  5
31D
330
1CA
100
AcDbEntity
  8
0
100
AcDbFaceRecord
 10
0.0
 20
0.0
 30
0.0
 70
   128
 71
   152
 72
   153
 73
   154
  0
VERTEX
  5
31E
330
1CA
100
AcDbEntity
  8
0
100
AcDbFaceRecord
 10
0.0
 20
0.0
 30
0.0
 70
   128
 71
   155
 72
   154
 73
   153
  0
VERTEX
  5
31F
330
1CA
100
AcDbEntity
  8
0
100
AcDbFaceRecord
 10
0.0
 20
0.0
 30
0.0
 70
   128
 71
   154
 72
   155
 73
   156
  0
VERTEX
  5
320
330
1CA
100
AcDbEntity
  8
0
100
AcDbFaceRecord
 10
0.0
 20
0.0
 30
0.0
 70
   128
 71
   157
 72
   156
 73
   155
  0
VERTEX
  5
321
330
1CA
100
AcDbEntity
  8
0
100
AcDbFaceRecord
 10
0.0
 20
0.0
 30
0.0
 70
   128
 71
   156
 72
   157
 73
   158
  0
VERTEX
  5
322
330
1CA
100
AcDbEntity
  8
0
100
AcDbFaceRecord
 10
0.0
 20
0.0
 30
0.0
 70
   128
 71
   159
 72
   158
 73
   157
  0
VERTEX
  5
323
330
1CA
100
AcDbEntity
  8
0
100
AcDbFaceRecord
 10
0.0
 20
0.0
 30
0.0
 70
   128
 71
   158
 72
   159
 73
   160
  0
VERTEX
  5
324
330
1CA
100
AcDbEntity
  8
0
100
AcDbFaceRecord
 10
0.0
 20
0.0
 30
0.0
 70
   128
 71
   161
 72
   160
 73
   159
  0
VERTEX
  5
325
330
1CA
100
AcDbEntity
  8
0
100
AcDbFaceRecord
 10
0.0
 20
0.0
 30
0.0
 70
   128
 71
   162
 72
   163
 73
   164
  0
VERTEX
  5
326
330
1CA
100
AcDbEntity
  8
0
100
AcDbFaceRecord
 10
0.0
 20
0.0
 30
0.0
 70
   128
 71
   162
 72
   164
 73
   161
  0
VERTEX
  5
327
330
1CA
100
AcDbEntity
  8
0
100
AcDbFaceRecord
 10
0.0
 20
0.0
 30
0.0
 70
   128
 71
   162
 72
   161
 73
   159
  0
VERTEX
  5
328
330
1CA
100
AcDbEntity
  8
0
100
AcDbFaceRecord
 10
0.0
 20
0.0
 30
0.0
 70
   128
 71
   165
 72
   166
 73
   167
  0
VERTEX
  5
329
330
1CA
100
AcDbEntity
  8
0
100
AcDbFaceRecord
 10
0.0
 20
0.0
 30
0.0
 70
   128
 71
   165
 72
   167
 73
   168
  0
VERTEX
  5
32A
330
1CA
100
AcDbEntity
  8
0
100
AcDbFaceRecord
 10
0.0
 20
0.0
 30
0.0
 70
   128
 71
   165
 72
   168
 73
   164
  0
VERTEX
  5
32B
330
1CA
100
AcDbEntity
  8
0
100
AcDbFaceRecord
 10
0.0
 20
0.0
 30
0.0
 70
   128
 71
   165
 72
   164
 73
   163
  0
VERTEX
  5
32C
330
1CA
100
AcDbEntity
  8
0
100
AcDbFaceRecord
 10
0.0
 20
0.0
 30
0.0
 70
   128
 71
   169
 72
   170
 73
   171
  0
VERTEX
  5
32D
330
1CA
100
AcDbEntity
  8
0
100
AcDbFaceRecord
 10
0.0
 20
0.0
 30
0.0
 70
   128
 71
   172
 72
   171
 73
   170
  0
VERTEX
  5
32E
330
1CA
100
AcDbEntity
  8
0
100
AcDbFaceRecord
 10
0.0
 20
0.0
 30
0.0
 70
   128
 71
   171
 72
   172
 73
   166
  0
VERTEX
  5
32F
330
1CA
100
AcDbEntity
  8
0
100
AcDbFaceRecord
 10
0.0
 20
0.0
 30
0.0
 70
   128
 71
   167
 72
   166
 73
   172
  0
VERTEX
  5
330
330
1CA
100
AcDbEntity
  8
0
100
AcDbFaceRecord
 10
0.0
 20
0.0
 30
0.0
 70
   128
 71
   173
 72
   174
 73
   175
  0
VERTEX
  5
331
330
1CA
100
AcDbEntity
  8
0
100
AcDbFaceRecord
 10
0.0
 20
0.0
 30
0.0
 70
   128
 71
   173
 72
   175
 73
   169
  0
VERTEX
  5
332
330
1CA
100
AcDbEntity
  8
0
100
AcDbFaceRecord
 10
0.0
 20
0.0
 30
0.0
 70
   128
 71
   173
 72
   169
 73
   171
  0
VERTEX
  5
333
330
1CA
100
AcDbEntity
  8
0
100
AcDbFaceRecord
 10
0.0
 20
0.0
 30
0.0
 70
   128
 71
   173
 72
   171
 73
   176
  0
VERTEX
  5
334
330
1CA
100
AcDbEntity
  8
0
100
AcDbFaceRecord
 10
0.0
 20
0.0
 30
0.0
 70
   128
 71
   173
 72
   176
 73
   177
  0
VERTEX
  5
335
330
1CA
100
AcDbEntity
  8
0
100
AcDbFaceRecord
 10
0.0
 20
0.0
 30
0.0
 70
   128
 71
   173
 72
   177
 73
   178
  0
VERTEX
  5
336
330
1CA
100
AcDbEntity
  8
0
100
AcDbFaceRecord
 10
0.0
 20
0.0
 30
0.0
 70
   128
 71
   179
 72
   180
 73
   178
  0
VERTEX
  5
337
330
1CA
100
AcDbEntity
  8
0
100
AcDbFaceRecord
 10
0.0
 20
0.0
 30
0.0
 70
   128
 71
   179
 72
   178
 73
   177
  0
VERTEX
  5
338
330
1CA
100
AcDbEntity
  8
0
100
AcDbFaceRecord
 10
0.0
 20
0.0
 30
0.0
 70
   128
 71
   181
 72
   182
 73
   183
  0
VERTEX
  5
339
330
1CA
100
AcDbEntity
  8
0
100
AcDbFaceRecord
 10
0.0
 20
0.0
 30
0.0
 70
   128
 71
   184
 72
   183
 73
   182
  0
VERTEX
  5
33A
330
1CA
100
AcDbEntity
  8
0
100
AcDbFaceRecord
 10
0.0
 20
0.0
 30
0.0
 70
   128
 71
   183
 72
   184
 73
   185
  0
VERTEX
  5
33B
330
1CA
100
AcDbEntity
  8
0
100
AcDbFaceRecord
 10
0.0
 20
0.0
 30
0.0
 70
   128
 71
   156
 72
   185
 73
   184
  0
VERTEX
  5
33C
330
1CA
100
AcDbEntity
  8
0
100
AcDbFaceRecord
 10
0.0
 20
0.0
 30
0.0
 70
   128
 71
   185
 72
   156
 73
   158
  0
VERTEX
  5
33D
330
1CA
100
AcDbEntity
  8
0
100
AcDbFaceRecord
 10
0.0
 20
0.0
 30
0.0
 70
   128
 71
   186
 72
   174
 73
   187
  0
VERTEX
  5
33E
330
1CA
100
AcDbEntity
  8
0
100
AcDbFaceRecord
 10
0.0
 20
0.0
 30
0.0
 70
   128
 71
   188
 72
   187
 73
   174
  0
VERTEX
  5
33F
330
1CA
100
AcDbEntity
  8
0
100
AcDbFaceRecord
 10
0.0
 20
0.0
 30
0.0
 70
   128
 71
   187
 72
   188
 73
   189
  0
VERTEX
  5
340
330
1CA
100
AcDbEntity
  8
0
100
AcDbFaceRecord
 10
0.0
 20
0.0
 30
0.0
 70
   128
 71
   182
 72
   189
 73
   188
  0
VERTEX
  5
341
330
1CA
100
AcDbEntity
  8
0
100
AcDbFaceRecord
 10
0.0
 20
0.0
 30
0.0
 70
   128
 71
   189
 72
   182
 73
   181
  0
VERTEX
  5
342
330
1CA
100
AcDbEntity
  8
0
100
AcDbFaceRecord
 10
0.0
 20
0.0
 30
0.0
 70
   128
 71
   175
 72
   174
 73
   186
  0
VERTEX
  5
343
330
1CA
100
AcDbEntity
  8
0
100
AcDbFaceRecord
 10
0.0
 20
0.0
 30
0.0
 70
   128
 71
   190
 72
   191
 73
   192
  0
VERTEX
  5
344
330
1CA
100
AcDbEntity
  8
0
100
AcDbFaceRecord
 10
0.0
 20
0.0
 30
0.0
 70
   128
 71
   193
 72
   194
 73
   195
  0
SEQEND
  5
34A
330
1CA
100
AcDbEntity
  8
0
  6
Continuous2
 62
     7
420
 13434879
370
    -3
  0
LINE
  5
345
330
1F
100
AcDbEntity
  8
0
  6
Continuous2
 62
     7
420
 16777215
370
    -3
100
AcDbLine
 10
26.49929237365723
 20
2.448206186294556
 30
0.0000000000000001
 11
2.5
 21
2.448206186294556
 31
0.0000000000000001
  0
LINE
  5
346
330
1F
100
AcDbEntity
  8
0
  6
Continuous2
 62
     7
420
 16777215
370
    -3
100
AcDbLine
 10
44.65257263183594
 20
2.448206186294556
 30
0.0000000000000001
 11
2.5
 21
2.448206186294556
 31
0.0000000000000001
  0
LINE
  5
347
330
1F
100
AcDbEntity
  8
0
  6
Continuous2
 62
     7
420
 16777215
370
    -3
100
AcDbLine
 10
44.65257263183594
 20
52.44820785522461
 30
0.0000000000000032
 11
2.0
 21
52.44820785522461
 31
0.0000000000000032
  0
LINE
  5
348
330
1F
100
AcDbEntity
  8
0
  6
Continuous2
 62
     7
420
 16777215
370
    -3
100
AcDbLine
 10
43.65257263183594
 20
2.448206186294556
 30
0.0000000000000001
 11
43.65257263183594
 21
25.35070037841797
 31
0.0000000000000015
  0
LINE
  5
349
330
1F
100
AcDbEntity
  8
0
  6
Continuous2
 62
     7
420
 16777215
370
    -3
100
AcDbLine
 10
43.65257263183594
 20
31.54169654846191
 30
0.0000000000000019
 11
43.65257263183594
 21
52.44820785522461
 31
0.0000000000000032
  0
POLYLINE
  5
34B
330
1F
100
AcDbEntity
  8
0
  6
Continuous2
 62
     7
420
 13434879
370
    -3
100
AcDbPolyFaceMesh
 66
     1
 10
0.0
 20
0.0
 30
0.0
 70
    64
 71
   181
 72
   169
  0
VERTEX
  5
34C
330
34B
100
AcDbEntity
  8
0
100
AcDbVertex
100
AcDbPolyFaceMeshVertex
 10
37.666015625
 20
27.34819984436035
 30
0.0099999997764826
 70
   192
  0
VERTEX
  5
34D
330
34B
100
AcDbEntity
  8
0
100
AcDbVertex
100
AcDbPolyFaceMeshVertex
 10
38.06301116943359
 20
27.34819984436035
 30
0.0099999997764826
 70
   192
  0
VERTEX
  5
34E
330
34B
100
AcDbEntity
  8
0
100
AcDbVertex
100
AcDbPolyFaceMeshVertex
 10
37.666015625
 20
29.99417495727539
 30
0.0099999997764826
 70
   192
  0
VERTEX
  5
34F
330
34B
100
AcDbEntity
  8
0
100
AcDbVertex
100
AcDbPolyFaceMeshVertex
 10
38.06301116943359
 20
29.99417495727539
 30
0.0099999997764826
 70
   192
  0
VERTEX
  5
350
330
34B
100
AcDbEntity
  8
0
100
AcDbVertex
100
AcDbPolyFaceMeshVertex
 10
39.05550765991211
 20
30.34819984436035
 30
0.0099999997764826
 70
   192
  0
VERTEX
  5
351
330
34B
100
AcDbEntity
  8
0
100
AcDbVertex
100
AcDbPolyFaceMeshVertex
 10
39.05550765991211
 20
29.99417495727539
 30
0.0099999997764826
 70
   192
  0
VERTEX
  5
352
330
34B
100
AcDbEntity
  8
0
100
AcDbVertex
100
AcDbPolyFaceMeshVertex
 10
36.67760848999023
 20
30.34819984436035
 30
0.0099999997764826
 70
   192
  0
VERTEX
  5
353
330
34B
100
AcDbEntity
  8
0
100
AcDbVertex
100
AcDbPolyFaceMeshVertex
 10
36.67760848999023
 20
29.99417495727539
 30
0.0099999997764826
 70
   192
  0
VERTEX
  5
354
330
34B
100
AcDbEntity
  8
0
100
AcDbVertex
100
AcDbPolyFaceMeshVertex
 10
39.44636917114258
 20
27.34819984436035
 30
0.0099999997764826
 70
   192
  0
VERTEX
  5
355
330
34B
100
AcDbEntity
  8
0
100
AcDbVertex
100
AcDbPolyFaceMeshVertex
 10
41.32085800170898
 20
27.34819984436035
 30
0.0099999997764826
 70
   192
  0
VERTEX
  5
356
330
34B
100
AcDbEntity
  8
0
100
AcDbVertex
100
AcDbPolyFaceMeshVertex
 10
41.32085800170898
 20
27.70222473144531
 30
0.0099999997764826
 70
   192
  0
VERTEX
  5
357
330
34B
100
AcDbEntity
  8
0
100
AcDbVertex
100
AcDbPolyFaceMeshVertex
 10
39.84336853027344
 20
27.70222473144531
 30
0.0099999997764826
 70
   192
  0
VERTEX
  5
358
330
34B
100
AcDbEntity
  8
0
100
AcDbVertex
100
AcDbPolyFaceMeshVertex
 10
39.84336853027344
 20
30.34819984436035
 30
0.0099999997764826
 70
   192
  0
VERTEX
  5
359
330
34B
100
AcDbEntity
  8
0
100
AcDbVertex
100
AcDbPolyFaceMeshVertex
 10
39.44636917114258
 20
30.34819984436035
 30
0.0099999997764826
 70
   192
  0
VERTEX
  5
35A
330
34B
100
AcDbEntity
  8
0
100
AcDbVertex
100
AcDbPolyFaceMeshVertex
 10
44.65646362304688
 20
29.95529365539551
 30
0.0099999997764826
 70
   192
  0
VERTEX
  5
35B
330
34B
100
AcDbEntity
  8
0
100
AcDbVertex
100
AcDbPolyFaceMeshVertex
 10
44.65646362304688
 20
30.30727195739746
 30
0.0099999997764826
 70
   192
  0
VERTEX
  5
35C
330
34B
100
AcDbEntity
  8
0
100
AcDbVertex
100
AcDbPolyFaceMeshVertex
 10
43.45932769775391
 20
29.95529365539551
 30
0.0099999997764826
 70
   192
  0
VERTEX
  5
35D
330
34B
100
AcDbEntity
  8
0
100
AcDbVertex
100
AcDbPolyFaceMeshVertex
 10
43.16464996337891
 20
30.30727195739746
 30
0.0099999997764826
 70
   192
  0
VERTEX
  5
35E
330
34B
100
AcDbEntity
  8
0
100
AcDbVertex
100
AcDbPolyFaceMeshVertex
 10
43.29766464233398
 20
29.14901733398438
 30
0.0099999997764826
 70
   192
  0
VERTEX
  5
35F
330
34B
100
AcDbEntity
  8
0
100
AcDbVertex
100
AcDbPolyFaceMeshVertex
 10
43.21990203857422
 20
28.7213249206543
 30
0.0099999997764826
 70
   192
  0
VERTEX
  5
360
330
34B
100
AcDbEntity
  8
0
100
AcDbVertex
100
AcDbPolyFaceMeshVertex
 10
43.31710433959961
 20
28.83822441101074
 30
0.0099999997764826
 70
   192
  0
VERTEX
  5
361
330
34B
100
AcDbEntity
  8
0
100
AcDbVertex
100
AcDbPolyFaceMeshVertex
 10
43.59694671630859
 20
28.99170303344727
 30
0.0099999997764826
 70
   192
  0
VERTEX
  5
362
330
34B
100
AcDbEntity
  8
0
100
AcDbVertex
100
AcDbPolyFaceMeshVertex
 10
43.76628875732422
 20
29.01191139221191
 30
0.0099999997764826
 70
   192
  0
VERTEX
  5
363
330
34B
100
AcDbEntity
  8
0
100
AcDbVertex
100
AcDbPolyFaceMeshVertex
 10
43.8645133972168
 20
29.3372859954834
 30
0.0099999997764826
 70
   192
  0
VERTEX
  5
364
330
34B
100
AcDbEntity
  8
0
100
AcDbVertex
100
AcDbPolyFaceMeshVertex
 10
44.02540969848633
 20
28.96637916564941
 30
0.0099999997764826
 70
   192
  0
VERTEX
  5
365
330
34B
100
AcDbEntity
  8
0
100
AcDbVertex
100
AcDbPolyFaceMeshVertex
 10
44.22672271728516
 20
29.26924324035645
 30
0.0099999997764826
 70
   192
  0
VERTEX
  5
366
330
34B
100
AcDbEntity
  8
0
100
AcDbVertex
100
AcDbPolyFaceMeshVertex
 10
44.22979354858398
 20
28.82978248596191
 30
0.0099999997764826
 70
   192
  0
VERTEX
  5
367
330
34B
100
AcDbEntity
  8
0
100
AcDbVertex
100
AcDbPolyFaceMeshVertex
 10
44.52754211425781
 20
29.06511688232422
 30
0.0099999997764826
 70
   192
  0
VERTEX
  5
368
330
34B
100
AcDbEntity
  8
0
100
AcDbVertex
100
AcDbPolyFaceMeshVertex
 10
44.36255264282227
 20
28.61440086364746
 30
0.0099999997764826
 70
   192
  0
VERTEX
  5
369
330
34B
100
AcDbEntity
  8
0
100
AcDbVertex
100
AcDbPolyFaceMeshVertex
 10
44.40680694580078
 20
28.33250999450684
 30
0.0099999997764826
 70
   192
  0
VERTEX
  5
36A
330
34B
100
AcDbEntity
  8
0
100
AcDbVertex
100
AcDbPolyFaceMeshVertex
 10
43.57444000244141
 20
29.29021835327148
 30
0.0099999997764826
 70
   192
  0
VERTEX
  5
36B
330
34B
100
AcDbEntity
  8
0
100
AcDbVertex
100
AcDbPolyFaceMeshVertex
 10
43.44500350952148
 20
28.93107795715332
 30
0.0099999997764826
 70
   192
  0
VERTEX
  5
36C
330
34B
100
AcDbEntity
  8
0
100
AcDbVertex
100
AcDbPolyFaceMeshVertex
 10
44.73013305664062
 20
28.75406646728516
 30
0.0099999997764826
 70
   192
  0
VERTEX
  5
36D
330
34B
100
AcDbEntity
  8
0
100
AcDbVertex
100
AcDbPolyFaceMeshVertex
 10
44.56028366088867
 20
27.66129684448242
 30
0.0099999997764826
 70
   192
  0
VERTEX
  5
36E
330
34B
100
AcDbEntity
  8
0
100
AcDbVertex
100
AcDbPolyFaceMeshVertex
 10
44.73831939697266
 20
27.98564910888672
 30
0.0099999997764826
 70
   192
  0
VERTEX
  5
36F
330
34B
100
AcDbEntity
  8
0
100
AcDbVertex
100
AcDbPolyFaceMeshVertex
 10
44.79766464233398
 20
28.36525344848633
 30
0.0099999997764826
 70
   192
  0
VERTEX
  5
370
330
34B
100
AcDbEntity
  8
0
100
AcDbVertex
100
AcDbPolyFaceMeshVertex
 10
44.36075973510742
 20
28.03373908996582
 30
0.0099999997764826
 70
   192
  0
VERTEX
  5
371
330
34B
100
AcDbEntity
  8
0
100
AcDbVertex
100
AcDbPolyFaceMeshVertex
 10
44.22262954711914
 20
27.80045127868652
 30
0.0099999997764826
 70
   192
  0
VERTEX
  5
372
330
34B
100
AcDbEntity
  8
0
100
AcDbVertex
100
AcDbPolyFaceMeshVertex
 10
44.21904754638672
 20
27.38810348510742
 30
0.0099999997764826
 70
   192
  0
VERTEX
  5
373
330
34B
100
AcDbEntity
  8
0
100
AcDbVertex
100
AcDbPolyFaceMeshVertex
 10
44.01799011230469
 20
27.6500415802002
 30
0.0099999997764826
 70
   192
  0
VERTEX
  5
374
330
34B
100
AcDbEntity
  8
0
100
AcDbVertex
100
AcDbPolyFaceMeshVertex
 10
43.77242660522461
 20
27.59990501403809
 30
0.0099999997764826
 70
   192
  0
VERTEX
  5
375
330
34B
100
AcDbEntity
  8
0
100
AcDbVertex
100
AcDbPolyFaceMeshVertex
 10
43.77242660522461
 20
27.29704093933105
 30
0.0099999997764826
 70
   192
  0
VERTEX
  5
376
330
34B
100
AcDbEntity
  8
0
100
AcDbVertex
100
AcDbPolyFaceMeshVertex
 10
43.56753158569336
 20
27.63546180725098
 30
0.0099999997764826
 70
   192
  0
VERTEX
  5
377
330
34B
100
AcDbEntity
  8
0
100
AcDbVertex
100
AcDbPolyFaceMeshVertex
 10
43.40074920654297
 20
27.35433959960938
 30
0.0099999997764826
 70
   192
  0
VERTEX
  5
378
330
34B
100
AcDbEntity
  8
0
100
AcDbVertex
100
AcDbPolyFaceMeshVertex
 10
43.39486694335938
 20
27.74212837219238
 30
0.0099999997764826
 70
   192
  0
VERTEX
  5
379
330
34B
100
AcDbEntity
  8
0
100
AcDbVertex
100
AcDbPolyFaceMeshVertex
 10
43.2667121887207
 20
27.91939735412598
 30
0.0099999997764826
 70
   192
  0
VERTEX
  5
37A
330
34B
100
AcDbEntity
  8
0
100
AcDbVertex
100
AcDbPolyFaceMeshVertex
 10
43.19534683227539
 20
28.1667537689209
 30
0.0099999997764826
 70
   192
  0
VERTEX
  5
37B
330
34B
100
AcDbEntity
  8
0
100
AcDbVertex
100
AcDbPolyFaceMeshVertex
 10
42.80857849121094
 20
28.13401222229004
 30
0.0099999997764826
 70
   192
  0
VERTEX
  5
37C
330
34B
100
AcDbEntity
  8
0
100
AcDbVertex
100
AcDbPolyFaceMeshVertex
 10
42.90092086791992
 20
27.79277610778809
 30
0.0099999997764826
 70
   192
  0
VERTEX
  5
37D
330
34B
100
AcDbEntity
  8
0
100
AcDbVertex
100
AcDbPolyFaceMeshVertex
 10
43.10428237915039
 20
27.52623558044434
 30
0.0099999997764826
 70
   192
  0
VERTEX
  5
37E
330
34B
100
AcDbEntity
  8
0
100
AcDbVertex
100
AcDbPolyFaceMeshVertex
 10
42.87406158447266
 20
28.76634407043457
 30
0.0099999997764826
 70
   192
  0
VERTEX
  5
37F
330
34B
100
AcDbEntity
  8
0
100
AcDbVertex
100
AcDbPolyFaceMeshVertex
 10
47.09575653076172
 20
28.82773590087891
 30
0.0099999997764826
 70
   192
  0
VERTEX
  5
380
330
34B
100
AcDbEntity
  8
0
100
AcDbVertex
100
AcDbPolyFaceMeshVertex
 10
47.07887268066406
 20
29.22805976867676
 30
0.0099999997764826
 70
   192
  0
VERTEX
  5
381
330
34B
100
AcDbEntity
  8
0
100
AcDbVertex
100
AcDbPolyFaceMeshVertex
 10
47.06864166259766
 20
28.35067176818848
 30
0.0099999997764826
 70
   192
  0
VERTEX
  5
382
330
34B
100
AcDbEntity
  8
0
100
AcDbVertex
100
AcDbPolyFaceMeshVertex
 10
47.02822494506836
 20
29.53680801391602
 30
0.0099999997764826
 70
   192
  0
VERTEX
  5
383
330
34B
100
AcDbEntity
  8
0
100
AcDbVertex
100
AcDbPolyFaceMeshVertex
 10
46.98729705810547
 20
27.97541618347168
 30
0.0099999997764826
 70
   192
  0
VERTEX
  5
384
330
34B
100
AcDbEntity
  8
0
100
AcDbVertex
100
AcDbPolyFaceMeshVertex
 10
46.94790267944336
 20
29.77981567382812
 30
0.0099999997764826
 70
   192
  0
VERTEX
  5
385
330
34B
100
AcDbEntity
  8
0
100
AcDbVertex
100
AcDbPolyFaceMeshVertex
 10
46.85197830200195
 20
27.68790054321289
 30
0.0099999997764826
 70
   192
  0
VERTEX
  5
386
330
34B
100
AcDbEntity
  8
0
100
AcDbVertex
100
AcDbPolyFaceMeshVertex
 10
46.84200286865234
 20
29.98291969299316
 30
0.0099999997764826
 70
   192
  0
VERTEX
  5
387
330
34B
100
AcDbEntity
  8
0
100
AcDbVertex
100
AcDbPolyFaceMeshVertex
 10
46.7171745300293
 20
28.82773590087891
 30
0.0099999997764826
 70
   192
  0
VERTEX
  5
388
330
34B
100
AcDbEntity
  8
0
100
AcDbVertex
100
AcDbPolyFaceMeshVertex
 10
46.70745468139648
 20
30.14458465576172
 30
0.0099999997764826
 70
   192
  0
VERTEX
  5
389
330
34B
100
AcDbEntity
  8
0
100
AcDbVertex
100
AcDbPolyFaceMeshVertex
 10
46.67394256591797
 20
29.44421005249023
 30
0.0099999997764826
 70
   192
  0
VERTEX
  5
38A
330
34B
100
AcDbEntity
  8
0
100
AcDbVertex
100
AcDbPolyFaceMeshVertex
 10
46.54425430297852
 20
29.81204605102539
 30
0.0099999997764826
 70
   192
  0
VERTEX
  5
38B
330
34B
100
AcDbEntity
  8
0
100
AcDbVertex
100
AcDbPolyFaceMeshVertex
 10
46.54118347167969
 20
30.26327514648438
 30
0.0099999997764826
 70
   192
  0
VERTEX
  5
38C
330
34B
100
AcDbEntity
  8
0
100
AcDbVertex
100
AcDbPolyFaceMeshVertex
 10
46.34421920776367
 20
30.33617782592773
 30
0.0099999997764826
 70
   192
  0
VERTEX
  5
38D
330
34B
100
AcDbEntity
  8
0
100
AcDbVertex
100
AcDbPolyFaceMeshVertex
 10
46.35010528564453
 20
29.99468612670898
 30
0.0099999997764826
 70
   192
  0
VERTEX
  5
38E
330
34B
100
AcDbEntity
  8
0
100
AcDbVertex
100
AcDbPolyFaceMeshVertex
 10
46.11758422851562
 20
30.36047744750977
 30
0.0099999997764826
 70
   192
  0
VERTEX
  5
38F
330
34B
100
AcDbEntity
  8
0
100
AcDbVertex
100
AcDbPolyFaceMeshVertex
 10
45.81804275512695
 20
30.31648063659668
 30
0.0099999997764826
 70
   192
  0
VERTEX
  5
390
330
34B
100
AcDbEntity
  8
0
100
AcDbVertex
100
AcDbPolyFaceMeshVertex
 10
45.88531875610352
 20
30.00185012817383
 30
0.0099999997764826
 70
   192
  0
VERTEX
  5
391
330
34B
100
AcDbEntity
  8
0
100
AcDbVertex
100
AcDbPolyFaceMeshVertex
 10
46.11349105834961
 20
30.05556678771973
 30
0.0099999997764826
 70
   192
  0
VERTEX
  5
392
330
34B
100
AcDbEntity
  8
0
100
AcDbVertex
100
AcDbPolyFaceMeshVertex
 10
45.51799011230469
 20
28.82773590087891
 30
0.0099999997764826
 70
   192
  0
VERTEX
  5
393
330
34B
100
AcDbEntity
  8
0
100
AcDbVertex
100
AcDbPolyFaceMeshVertex
 10
45.56557083129883
 20
29.45034790039062
 30
0.0099999997764826
 70
   192
  0
VERTEX
  5
394
330
34B
100
AcDbEntity
  8
0
100
AcDbVertex
100
AcDbPolyFaceMeshVertex
 10
45.57426834106445
 20
30.18448829650879
 30
0.0099999997764826
 70
   192
  0
VERTEX
  5
395
330
34B
100
AcDbEntity
  8
0
100
AcDbVertex
100
AcDbPolyFaceMeshVertex
 10
45.70830535888672
 20
29.84069633483887
 30
0.0099999997764826
 70
   192
  0
VERTEX
  5
396
330
34B
100
AcDbEntity
  8
0
100
AcDbVertex
100
AcDbPolyFaceMeshVertex
 10
45.43613815307617
 20
27.60809135437012
 30
0.0099999997764826
 70
   192
  0
VERTEX
  5
397
330
34B
100
AcDbEntity
  8
0
100
AcDbVertex
100
AcDbPolyFaceMeshVertex
 10
45.73030471801758
 20
27.37480354309082
 30
0.0099999997764826
 70
   192
  0
VERTEX
  5
398
330
34B
100
AcDbEntity
  8
0
100
AcDbVertex
100
AcDbPolyFaceMeshVertex
 10
45.56122207641602
 20
28.2125415802002
 30
0.0099999997764826
 70
   192
  0
VERTEX
  5
399
330
34B
100
AcDbEntity
  8
0
100
AcDbVertex
100
AcDbPolyFaceMeshVertex
 10
45.38497924804688
 20
29.97140884399414
 30
0.0099999997764826
 70
   192
  0
VERTEX
  5
39A
330
34B
100
AcDbEntity
  8
0
100
AcDbVertex
100
AcDbPolyFaceMeshVertex
 10
45.24889373779297
 20
29.68414688110352
 30
0.0099999997764826
 70
   192
  0
VERTEX
  5
39B
330
34B
100
AcDbEntity
  8
0
100
AcDbVertex
100
AcDbPolyFaceMeshVertex
 10
45.21359252929688
 20
28.10024642944336
 30
0.0099999997764826
 70
   192
  0
VERTEX
  5
39C
330
34B
100
AcDbEntity
  8
0
100
AcDbVertex
100
AcDbPolyFaceMeshVertex
 10
45.16678237915039
 20
29.30786895751953
 30
0.0099999997764826
 70
   192
  0
VERTEX
  5
39D
330
34B
100
AcDbEntity
  8
0
100
AcDbVertex
100
AcDbPolyFaceMeshVertex
 10
45.13941192626953
 20
28.82773590087891
 30
0.0099999997764826
 70
   192
  0
VERTEX
  5
39E
330
34B
100
AcDbEntity
  8
0
100
AcDbVertex
100
AcDbPolyFaceMeshVertex
 10
46.35112762451172
 20
27.66129684448242
 30
0.0099999997764826
 70
   192
  0
VERTEX
  5
39F
330
34B
100
AcDbEntity
  8
0
100
AcDbVertex
100
AcDbPolyFaceMeshVertex
 10
46.41865539550781
 20
27.34129333496094
 30
0.0099999997764826
 70
   192
  0
VERTEX
  5
3A0
330
34B
100
AcDbEntity
  8
0
100
AcDbVertex
100
AcDbPolyFaceMeshVertex
 10
46.54425430297852
 20
27.8454704284668
 30
0.0099999997764826
 70
   192
  0
VERTEX
  5
3A1
330
34B
100
AcDbEntity
  8
0
100
AcDbVertex
100
AcDbPolyFaceMeshVertex
 10
46.66294479370117
 20
27.47405242919922
 30
0.0099999997764826
 70
   192
  0
VERTEX
  5
3A2
330
34B
100
AcDbEntity
  8
0
100
AcDbVertex
100
AcDbPolyFaceMeshVertex
 10
46.67394256591797
 20
28.21382141113281
 30
0.0099999997764826
 70
   192
  0
VERTEX
  5
3A3
330
34B
100
AcDbEntity
  8
0
100
AcDbVertex
100
AcDbPolyFaceMeshVertex
 10
45.69091033935547
 20
27.84444808959961
 30
0.0099999997764826
 70
   192
  0
VERTEX
  5
3A4
330
34B
100
AcDbEntity
  8
0
100
AcDbVertex
100
AcDbPolyFaceMeshVertex
 10
45.88404083251953
 20
27.66104125976562
 30
0.0099999997764826
 70
   192
  0
VERTEX
  5
3A5
330
34B
100
AcDbEntity
  8
0
100
AcDbVertex
100
AcDbPolyFaceMeshVertex
 10
46.11758422851562
 20
27.29704093933105
 30
0.0099999997764826
 70
   192
  0
VERTEX
  5
3A6
330
34B
100
AcDbEntity
  8
0
100
AcDbVertex
100
AcDbPolyFaceMeshVertex
 10
46.11758422851562
 20
27.59990501403809
 30
0.0099999997764826
 70
   192
  0
VERTEX
  5
3A7
330
34B
100
AcDbEntity
  8
0
100
AcDbVertex
100
AcDbPolyFaceMeshVertex
 10
47.67692565917969
 20
27.34819984436035
 30
0.0099999997764826
 70
   192
  0
VERTEX
  5
3A8
330
34B
100
AcDbEntity
  8
0
100
AcDbVertex
100
AcDbPolyFaceMeshVertex
 10
48.096435546875
 20
27.34819984436035
 30
0.0099999997764826
 70
   192
  0
VERTEX
  5
3A9
330
34B
100
AcDbEntity
  8
0
100
AcDbVertex
100
AcDbPolyFaceMeshVertex
 10
48.096435546875
 20
27.76770782470703
 30
0.0099999997764826
 70
   192
  0
VERTEX
  5
3AA
330
34B
100
AcDbEntity
  8
0
100
AcDbVertex
100
AcDbPolyFaceMeshVertex
 10
47.67692565917969
 20
27.76770782470703
 30
0.0099999997764826
 70
   192
  0
VERTEX
  5
3AB
330
34B
100
AcDbEntity
  8
0
100
AcDbVertex
100
AcDbPolyFaceMeshVertex
 10
50.59098052978516
 20
28.82773590087891
 30
0.0099999997764826
 70
   192
  0
VERTEX
  5
3AC
330
34B
100
AcDbEntity
  8
0
100
AcDbVertex
100
AcDbPolyFaceMeshVertex
 10
50.5740966796875
 20
29.22805976867676
 30
0.0099999997764826
 70
   192
  0
VERTEX
  5
3AD
330
34B
100
AcDbEntity
  8
0
100
AcDbVertex
100
AcDbPolyFaceMeshVertex
 10
50.56386566162109
 20
28.35067176818848
 30
0.0099999997764826
 70
   192
  0
VERTEX
  5
3AE
330
34B
100
AcDbEntity
  8
0
100
AcDbVertex
100
AcDbPolyFaceMeshVertex
 10
50.5234489440918
 20
29.53680801391602
 30
0.0099999997764826
 70
   192
  0
VERTEX
  5
3AF
330
34B
100
AcDbEntity
  8
0
100
AcDbVertex
100
AcDbPolyFaceMeshVertex
 10
50.48252105712891
 20
27.97541618347168
 30
0.0099999997764826
 70
   192
  0
VERTEX
  5
3B0
330
34B
100
AcDbEntity
  8
0
100
AcDbVertex
100
AcDbPolyFaceMeshVertex
 10
50.44313049316406
 20
29.77981567382812
 30
0.0099999997764826
 70
   192
  0
VERTEX
  5
3B1
330
34B
100
AcDbEntity
  8
0
100
AcDbVertex
100
AcDbPolyFaceMeshVertex
 10
50.34720611572266
 20
27.68790054321289
 30
0.0099999997764826
 70
   192
  0
VERTEX
  5
3B2
330
34B
100
AcDbEntity
  8
0
100
AcDbVertex
100
AcDbPolyFaceMeshVertex
 10
50.33722686767578
 20
29.98291969299316
 30
0.0099999997764826
 70
   192
  0
VERTEX
  5
3B3
330
34B
100
AcDbEntity
  8
0
100
AcDbVertex
100
AcDbPolyFaceMeshVertex
 10
50.21239852905273
 20
28.82773590087891
 30
0.0099999997764826
 70
   192
  0
VERTEX
  5
3B4
330
34B
100
AcDbEntity
  8
0
100
AcDbVertex
100
AcDbPolyFaceMeshVertex
 10
50.20267868041992
 20
30.14458465576172
 30
0.0099999997764826
 70
   192
  0
VERTEX
  5
3B5
330
34B
100
AcDbEntity
  8
0
100
AcDbVertex
100
AcDbPolyFaceMeshVertex
 10
50.16916656494141
 20
29.44421005249023
 30
0.0099999997764826
 70
   192
  0
VERTEX
  5
3B6
330
34B
100
AcDbEntity
  8
0
100
AcDbVertex
100
AcDbPolyFaceMeshVertex
 10
50.03947830200195
 20
29.81204605102539
 30
0.0099999997764826
 70
   192
  0
VERTEX
  5
3B7
330
34B
100
AcDbEntity
  8
0
100
AcDbVertex
100
AcDbPolyFaceMeshVertex
 10
50.03640747070312
 20
30.26327514648438
 30
0.0099999997764826
 70
   192
  0
VERTEX
  5
3B8
330
34B
100
AcDbEntity
  8
0
100
AcDbVertex
100
AcDbPolyFaceMeshVertex
 10
49.83944702148438
 20
30.33617782592773
 30
0.0099999997764826
 70
   192
  0
VERTEX
  5
3B9
330
34B
100
AcDbEntity
  8
0
100
AcDbVertex
100
AcDbPolyFaceMeshVertex
 10
49.84532928466797
 20
29.99468612670898
 30
0.0099999997764826
 70
   192
  0
VERTEX
  5
3BA
330
34B
100
AcDbEntity
  8
0
100
AcDbVertex
100
AcDbPolyFaceMeshVertex
 10
49.61280822753906
 20
30.36047744750977
 30
0.0099999997764826
 70
   192
  0
VERTEX
  5
3BB
330
34B
100
AcDbEntity
  8
0
100
AcDbVertex
100
AcDbPolyFaceMeshVertex
 10
49.31327056884766
 20
30.31648063659668
 30
0.0099999997764826
 70
   192
  0
VERTEX
  5
3BC
330
34B
100
AcDbEntity
  8
0
100
AcDbVertex
100
AcDbPolyFaceMeshVertex
 10
49.38054275512695
 20
30.00185012817383
 30
0.0099999997764826
 70
   192
  0
VERTEX
  5
3BD
330
34B
100
AcDbEntity
  8
0
100
AcDbVertex
100
AcDbPolyFaceMeshVertex
 10
49.60871505737305
 20
30.05556678771973
 30
0.0099999997764826
 70
   192
  0
VERTEX
  5
3BE
330
34B
100
AcDbEntity
  8
0
100
AcDbVertex
100
AcDbPolyFaceMeshVertex
 10
49.01321792602539
 20
28.82773590087891
 30
0.0099999997764826
 70
   192
  0
VERTEX
  5
3BF
330
34B
100
AcDbEntity
  8
0
100
AcDbVertex
100
AcDbPolyFaceMeshVertex
 10
49.06079483032227
 20
29.45034790039062
 30
0.0099999997764826
 70
   192
  0
VERTEX
  5
3C0
330
34B
100
AcDbEntity
  8
0
100
AcDbVertex
100
AcDbPolyFaceMeshVertex
 10
49.06949234008789
 20
30.18448829650879
 30
0.0099999997764826
 70
   192
  0
VERTEX
  5
3C1
330
34B
100
AcDbEntity
  8
0
100
AcDbVertex
100
AcDbPolyFaceMeshVertex
 10
49.20352935791016
 20
29.84069633483887
 30
0.0099999997764826
 70
   192
  0
VERTEX
  5
3C2
330
34B
100
AcDbEntity
  8
0
100
AcDbVertex
100
AcDbPolyFaceMeshVertex
 10
48.93136215209961
 20
27.60809135437012
 30
0.0099999997764826
 70
   192
  0
VERTEX
  5
3C3
330
34B
100
AcDbEntity
  8
0
100
AcDbVertex
100
AcDbPolyFaceMeshVertex
 10
49.22552871704102
 20
27.37480354309082
 30
0.0099999997764826
 70
   192
  0
VERTEX
  5
3C4
330
34B
100
AcDbEntity
  8
0
100
AcDbVertex
100
AcDbPolyFaceMeshVertex
 10
49.05644607543945
 20
28.2125415802002
 30
0.0099999997764826
 70
   192
  0
VERTEX
  5
3C5
330
34B
100
AcDbEntity
  8
0
100
AcDbVertex
100
AcDbPolyFaceMeshVertex
 10
48.88020324707031
 20
29.97140884399414
 30
0.0099999997764826
 70
   192
  0
VERTEX
  5
3C6
330
34B
100
AcDbEntity
  8
0
100
AcDbVertex
100
AcDbPolyFaceMeshVertex
 10
48.74411773681641
 20
29.68414688110352
 30
0.0099999997764826
 70
   192
  0
VERTEX
  5
3C7
330
34B
100
AcDbEntity
  8
0
100
AcDbVertex
100
AcDbPolyFaceMeshVertex
 10
48.70881652832031
 20
28.10024642944336
 30
0.0099999997764826
 70
   192
  0
VERTEX
  5
3C8
330
34B
100
AcDbEntity
  8
0
100
AcDbVertex
100
AcDbPolyFaceMeshVertex
 10
48.66200637817383
 20
29.30786895751953
 30
0.0099999997764826
 70
   192
  0
VERTEX
  5
3C9
330
34B
100
AcDbEntity
  8
0
100
AcDbVertex
100
AcDbPolyFaceMeshVertex
 10
48.63463592529297
 20
28.82773590087891
 30
0.0099999997764826
 70
   192
  0
VERTEX
  5
3CA
330
34B
100
AcDbEntity
  8
0
100
AcDbVertex
100
AcDbPolyFaceMeshVertex
 10
49.84635162353516
 20
27.66129684448242
 30
0.0099999997764826
 70
   192
  0
VERTEX
  5
3CB
330
34B
100
AcDbEntity
  8
0
100
AcDbVertex
100
AcDbPolyFaceMeshVertex
 10
49.91388320922852
 20
27.34129333496094
 30
0.0099999997764826
 70
   192
  0
VERTEX
  5
3CC
330
34B
100
AcDbEntity
  8
0
100
AcDbVertex
100
AcDbPolyFaceMeshVertex
 10
50.03947830200195
 20
27.8454704284668
 30
0.0099999997764826
 70
   192
  0
VERTEX
  5
3CD
330
34B
100
AcDbEntity
  8
0
100
AcDbVertex
100
AcDbPolyFaceMeshVertex
 10
50.15816879272461
 20
27.47405242919922
 30
0.0099999997764826
 70
   192
  0
VERTEX
  5
3CE
330
34B
100
AcDbEntity
  8
0
100
AcDbVertex
100
AcDbPolyFaceMeshVertex
 10
50.16916656494141
 20
28.21382141113281
 30
0.0099999997764826
 70
   192
  0
VERTEX
  5
3CF
330
34B
100
AcDbEntity
  8
0
100
AcDbVertex
100
AcDbPolyFaceMeshVertex
 10
49.18613433837891
 20
27.84444808959961
 30
0.0099999997764826
 70
   192
  0
VERTEX
  5
3D0
330
34B
100
AcDbEntity
  8
0
100
AcDbVertex
100
AcDbPolyFaceMeshVertex
 10
49.37926483154297
 20
27.66104125976562
 30
0.0099999997764826
 70
   192
  0
VERTEX
  5
3D1
330
34B
100
AcDbEntity
  8
0
100
AcDbVertex
100
AcDbPolyFaceMeshVertex
 10
49.61280822753906
 20
27.29704093933105
 30
0.0099999997764826
 70
   192
  0
VERTEX
  5
3D2
330
34B
100
AcDbEntity
  8
0
100
AcDbVertex
100
AcDbPolyFaceMeshVertex
 10
49.61280822753906
 20
27.59990501403809
 30
0.0099999997764826
 70
   192
  0
VERTEX
  5
3D3
330
34B
100
AcDbEntity
  8
0
100
AcDbVertex
100
AcDbPolyFaceMeshVertex
 10
52.92181396484375
 20
28.82773590087891
 30
0.0099999997764826
 70
   192
  0
VERTEX
  5
3D4
330
34B
100
AcDbEntity
  8
0
100
AcDbVertex
100
AcDbPolyFaceMeshVertex
 10
52.90493011474609
 20
29.22805976867676
 30
0.0099999997764826
 70
   192
  0
VERTEX
  5
3D5
330
34B
100
AcDbEntity
  8
0
100
AcDbVertex
100
AcDbPolyFaceMeshVertex
 10
52.89469909667969
 20
28.35067176818848
 30
0.0099999997764826
 70
   192
  0
VERTEX
  5
3D6
330
34B
100
AcDbEntity
  8
0
100
AcDbVertex
100
AcDbPolyFaceMeshVertex
 10
52.85427856445312
 20
29.53680801391602
 30
0.0099999997764826
 70
   192
  0
VERTEX
  5
3D7
330
34B
100
AcDbEntity
  8
0
100
AcDbVertex
100
AcDbPolyFaceMeshVertex
 10
52.8133544921875
 20
27.97541618347168
 30
0.0099999997764826
 70
   192
  0
VERTEX
  5
3D8
330
34B
100
AcDbEntity
  8
0
100
AcDbVertex
100
AcDbPolyFaceMeshVertex
 10
52.77396011352539
 20
29.77981567382812
 30
0.0099999997764826
 70
   192
  0
VERTEX
  5
3D9
330
34B
100
AcDbEntity
  8
0
100
AcDbVertex
100
AcDbPolyFaceMeshVertex
 10
52.67803573608398
 20
27.68790054321289
 30
0.0099999997764826
 70
   192
  0
VERTEX
  5
3DA
330
34B
100
AcDbEntity
  8
0
100
AcDbVertex
100
AcDbPolyFaceMeshVertex
 10
52.66806030273438
 20
29.98291969299316
 30
0.0099999997764826
 70
   192
  0
VERTEX
  5
3DB
330
34B
100
AcDbEntity
  8
0
100
AcDbVertex
100
AcDbPolyFaceMeshVertex
 10
52.54322814941406
 20
28.82773590087891
 30
0.0099999997764826
 70
   192
  0
VERTEX
  5
3DC
330
34B
100
AcDbEntity
  8
0
100
AcDbVertex
100
AcDbPolyFaceMeshVertex
 10
52.53350830078125
 20
30.14458465576172
 30
0.0099999997764826
 70
   192
  0
VERTEX
  5
3DD
330
34B
100
AcDbEntity
  8
0
100
AcDbVertex
100
AcDbPolyFaceMeshVertex
 10
52.5
 20
29.44421005249023
 30
0.0099999997764826
 70
   192
  0
VERTEX
  5
3DE
330
34B
100
AcDbEntity
  8
0
100
AcDbVertex
100
AcDbPolyFaceMeshVertex
 10
52.37031173706055
 20
29.81204605102539
 30
0.0099999997764826
 70
   192
  0
VERTEX
  5
3DF
330
34B
100
AcDbEntity
  8
0
100
AcDbVertex
100
AcDbPolyFaceMeshVertex
 10
52.36724090576172
 20
30.26327514648438
 30
0.0099999997764826
 70
   192
  0
VERTEX
  5
3E0
330
34B
100
AcDbEntity
  8
0
100
AcDbVertex
100
AcDbPolyFaceMeshVertex
 10
52.1702766418457
 20
30.33617782592773
 30
0.0099999997764826
 70
   192
  0
VERTEX
  5
3E1
330
34B
100
AcDbEntity
  8
0
100
AcDbVertex
100
AcDbPolyFaceMeshVertex
 10
52.1761589050293
 20
29.99468612670898
 30
0.0099999997764826
 70
   192
  0
VERTEX
  5
3E2
330
34B
100
AcDbEntity
  8
0
100
AcDbVertex
100
AcDbPolyFaceMeshVertex
 10
51.94364166259766
 20
30.36047744750977
 30
0.0099999997764826
 70
   192
  0
VERTEX
  5
3E3
330
34B
100
AcDbEntity
  8
0
100
AcDbVertex
100
AcDbPolyFaceMeshVertex
 10
51.64410018920898
 20
30.31648063659668
 30
0.0099999997764826
 70
   192
  0
VERTEX
  5
3E4
330
34B
100
AcDbEntity
  8
0
100
AcDbVertex
100
AcDbPolyFaceMeshVertex
 10
51.71137619018555
 20
30.00185012817383
 30
0.0099999997764826
 70
   192
  0
VERTEX
  5
3E5
330
34B
100
AcDbEntity
  8
0
100
AcDbVertex
100
AcDbPolyFaceMeshVertex
 10
51.93954467773438
 20
30.05556678771973
 30
0.0099999997764826
 70
   192
  0
VERTEX
  5
3E6
330
34B
100
AcDbEntity
  8
0
100
AcDbVertex
100
AcDbPolyFaceMeshVertex
 10
51.34404754638672
 20
28.82773590087891
 30
0.0099999997764826
 70
   192
  0
VERTEX
  5
3E7
330
34B
100
AcDbEntity
  8
0
100
AcDbVertex
100
AcDbPolyFaceMeshVertex
 10
51.39162826538086
 20
29.45034790039062
 30
0.0099999997764826
 70
   192
  0
VERTEX
  5
3E8
330
34B
100
AcDbEntity
  8
0
100
AcDbVertex
100
AcDbPolyFaceMeshVertex
 10
51.40032196044922
 20
30.18448829650879
 30
0.0099999997764826
 70
   192
  0
VERTEX
  5
3E9
330
34B
100
AcDbEntity
  8
0
100
AcDbVertex
100
AcDbPolyFaceMeshVertex
 10
51.53436279296875
 20
29.84069633483887
 30
0.0099999997764826
 70
   192
  0
VERTEX
  5
3EA
330
34B
100
AcDbEntity
  8
0
100
AcDbVertex
100
AcDbPolyFaceMeshVertex
 10
51.26219177246094
 20
27.60809135437012
 30
0.0099999997764826
 70
   192
  0
VERTEX
  5
3EB
330
34B
100
AcDbEntity
  8
0
100
AcDbVertex
100
AcDbPolyFaceMeshVertex
 10
51.55636215209961
 20
27.37480354309082
 30
0.0099999997764826
 70
   192
  0
VERTEX
  5
3EC
330
34B
100
AcDbEntity
  8
0
100
AcDbVertex
100
AcDbPolyFaceMeshVertex
 10
51.38727951049805
 20
28.2125415802002
 30
0.0099999997764826
 70
   192
  0
VERTEX
  5
3ED
330
34B
100
AcDbEntity
  8
0
100
AcDbVertex
100
AcDbPolyFaceMeshVertex
 10
51.21103286743164
 20
29.97140884399414
 30
0.0099999997764826
 70
   192
  0
VERTEX
  5
3EE
330
34B
100
AcDbEntity
  8
0
100
AcDbVertex
100
AcDbPolyFaceMeshVertex
 10
51.074951171875
 20
29.68414688110352
 30
0.0099999997764826
 70
   192
  0
VERTEX
  5
3EF
330
34B
100
AcDbEntity
  8
0
100
AcDbVertex
100
AcDbPolyFaceMeshVertex
 10
51.03964996337891
 20
28.10024642944336
 30
0.0099999997764826
 70
   192
  0
VERTEX
  5
3F0
330
34B
100
AcDbEntity
  8
0
100
AcDbVertex
100
AcDbPolyFaceMeshVertex
 10
50.99283599853516
 20
29.30786895751953
 30
0.0099999997764826
 70
   192
  0
VERTEX
  5
3F1
330
34B
100
AcDbEntity
  8
0
100
AcDbVertex
100
AcDbPolyFaceMeshVertex
 10
50.96546936035156
 20
28.82773590087891
 30
0.0099999997764826
 70
   192
  0
VERTEX
  5
3F2
330
34B
100
AcDbEntity
  8
0
100
AcDbVertex
100
AcDbPolyFaceMeshVertex
 10
52.17718505859375
 20
27.66129684448242
 30
0.0099999997764826
 70
   192
  0
VERTEX
  5
3F3
330
34B
100
AcDbEntity
  8
0
100
AcDbVertex
100
AcDbPolyFaceMeshVertex
 10
52.24471282958984
 20
27.34129333496094
 30
0.0099999997764826
 70
   192
  0
VERTEX
  5
3F4
330
34B
100
AcDbEntity
  8
0
100
AcDbVertex
100
AcDbPolyFaceMeshVertex
 10
52.37031173706055
 20
27.8454704284668
 30
0.0099999997764826
 70
   192
  0
VERTEX
  5
3F5
330
34B
100
AcDbEntity
  8
0
100
AcDbVertex
100
AcDbPolyFaceMeshVertex
 10
52.4890022277832
 20
27.47405242919922
 30
0.0099999997764826
 70
   192
  0
VERTEX
  5
3F6
330
34B
100
AcDbEntity
  8
0
100
AcDbVertex
100
AcDbPolyFaceMeshVertex
 10
52.5
 20
28.21382141113281
 30
0.0099999997764826
 70
   192
  0
VERTEX
  5
3F7
330
34B
100
AcDbEntity
  8
0
100
AcDbVertex
100
AcDbPolyFaceMeshVertex
 10
51.5169677734375
 20
27.84444808959961
 30
0.0099999997764826
 70
   192
  0
VERTEX
  5
3F8
330
34B
100
AcDbEntity
  8
0
100
AcDbVertex
100
AcDbPolyFaceMeshVertex
 10
51.7100944519043
 20
27.66104125976562
 30
0.0099999997764826
 70
   192
  0
VERTEX
  5
3F9
330
34B
100
AcDbEntity
  8
0
100
AcDbVertex
100
AcDbPolyFaceMeshVertex
 10
51.94364166259766
 20
27.29704093933105
 30
0.0099999997764826
 70
   192
  0
VERTEX
  5
3FA
330
34B
100
AcDbEntity
  8
0
100
AcDbVertex
100
AcDbPolyFaceMeshVertex
 10
51.94364166259766
 20
27.59990501403809
 30
0.0099999997764826
 70
   192
  0
VERTEX
  5
3FB
330
34B
100
AcDbEntity
  8
0
100
AcDbVertex
100
AcDbPolyFaceMeshVertex
 10
42.6525993347168
 20
7.448200225830078
 30
0.0099999997764826
 70
   192
  0
VERTEX
  5
3FC
330
34B
100
AcDbEntity
  8
0
100
AcDbVertex
100
AcDbPolyFaceMeshVertex
 10
44.6525993347168
 20
7.448200225830078
 30
0.0099999997764826
 70
   192
  0
VERTEX
  5
3FD
330
34B
100
AcDbEntity
  8
0
100
AcDbVertex
100
AcDbPolyFaceMeshVertex
 10
43.6525993347168
 20
2.448199987411499
 30
0.0099999997764826
 70
   192
  0
VERTEX
  5
3FE
330
34B
100
AcDbEntity
  8
0
100
AcDbVertex
100
AcDbPolyFaceMeshVertex
 10
44.6525993347168
 20
47.44820022583008
 30
0.0099999997764826
 70
   192
  0
VERTEX
  5
3FF
330
34B
100
AcDbEntity
  8
0
100
AcDbVertex
100
AcDbPolyFaceMeshVertex
 10
42.6525993347168
 20
47.44820022583008
 30
0.0099999997764826
 70
   192
  0
VERTEX
  5
400
330
34B
100
AcDbEntity
  8
0
100
AcDbVertex
100
AcDbPolyFaceMeshVertex
 10
43.6525993347168
 20
52.44820022583008
 30
0.0099999997764826
 70
   192
  0
VERTEX
  5
401
330
34B
100
AcDbEntity
  8
0
100
AcDbFaceRecord
 10
0.0
 20
0.0
 30
0.0
 70
   128
 71
     1
 72
     2
 73
     3
  0
VERTEX
  5
402
330
34B
100
AcDbEntity
  8
0
100
AcDbFaceRecord
 10
0.0
 20
0.0
 30
0.0
 70
   128
 71
     4
 72
     3
 73
     2
  0
VERTEX
  5
403
330
34B
100
AcDbEntity
  8
0
100
AcDbFaceRecord
 10
0.0
 20
0.0
 30
0.0
 70
   128
 71
     3
 72
     4
 73
     5
  0
VERTEX
  5
404
330
34B
100
AcDbEntity
  8
0
100
AcDbFaceRecord
 10
0.0
 20
0.0
 30
0.0
 70
   128
 71
     6
 72
     5
 73
     4
  0
VERTEX
  5
405
330
34B
100
AcDbEntity
  8
0
100
AcDbFaceRecord
 10
0.0
 20
0.0
 30
0.0
 70
   128
 71
     7
 72
     8
 73
     3
  0
VERTEX
  5
406
330
34B
100
AcDbEntity
  8
0
100
AcDbFaceRecord
 10
0.0
 20
0.0
 30
0.0
 70
   128
 71
     7
 72
     3
 73
     5
  0
VERTEX
  5
407
330
34B
100
AcDbEntity
  8
0
100
AcDbFaceRecord
 10
0.0
 20
0.0
 30
0.0
 70
   128
 71
     9
 72
    10
 73
    11
  0
VERTEX
  5
408
330
34B
100
AcDbEntity
  8
0
100
AcDbFaceRecord
 10
0.0
 20
0.0
 30
0.0
 70
   128
 71
     9
 72
    11
 73
    12
  0
VERTEX
  5
409
330
34B
100
AcDbEntity
  8
0
100
AcDbFaceRecord
 10
0.0
 20
0.0
 30
0.0
 70
   128
 71
     9
 72
    12
 73
    13
  0
VERTEX
  5
40A
330
34B
100
AcDbEntity
  8
0
100
AcDbFaceRecord
 10
0.0
 20
0.0
 30
0.0
 70
   128
 71
     9
 72
    13
 73
    14
  0
VERTEX
  5
40B
330
34B
100
AcDbEntity
  8
0
100
AcDbFaceRecord
 10
0.0
 20
0.0
 30
0.0
 70
   128
 71
    15
 72
    16
 73
    17
  0
VERTEX
  5
40C
330
34B
100
AcDbEntity
  8
0
100
AcDbFaceRecord
 10
0.0
 20
0.0
 30
0.0
 70
   128
 71
    18
 72
    17
 73
    16
  0
VERTEX
  5
40D
330
34B
100
AcDbEntity
  8
0
100
AcDbFaceRecord
 10
0.0
 20
0.0
 30
0.0
 70
   128
 71
    17
 72
    18
 73
    19
  0
VERTEX
  5
40E
330
34B
100
AcDbEntity
  8
0
100
AcDbFaceRecord
 10
0.0
 20
0.0
 30
0.0
 70
   128
 71
    20
 72
    19
 73
    18
  0
VERTEX
  5
40F
330
34B
100
AcDbEntity
  8
0
100
AcDbFaceRecord
 10
0.0
 20
0.0
 30
0.0
 70
   128
 71
    19
 72
    20
 73
    21
  0
VERTEX
  5
410
330
34B
100
AcDbEntity
  8
0
100
AcDbFaceRecord
 10
0.0
 20
0.0
 30
0.0
 70
   128
 71
    22
 72
    23
 73
    24
  0
VERTEX
  5
411
330
34B
100
AcDbEntity
  8
0
100
AcDbFaceRecord
 10
0.0
 20
0.0
 30
0.0
 70
   128
 71
    25
 72
    24
 73
    23
  0
VERTEX
  5
412
330
34B
100
AcDbEntity
  8
0
100
AcDbFaceRecord
 10
0.0
 20
0.0
 30
0.0
 70
   128
 71
    24
 72
    25
 73
    26
  0
VERTEX
  5
413
330
34B
100
AcDbEntity
  8
0
100
AcDbFaceRecord
 10
0.0
 20
0.0
 30
0.0
 70
   128
 71
    27
 72
    26
 73
    25
  0
VERTEX
  5
414
330
34B
100
AcDbEntity
  8
0
100
AcDbFaceRecord
 10
0.0
 20
0.0
 30
0.0
 70
   128
 71
    26
 72
    27
 73
    28
  0
VERTEX
  5
415
330
34B
100
AcDbEntity
  8
0
100
AcDbFaceRecord
 10
0.0
 20
0.0
 30
0.0
 70
   128
 71
    29
 72
    28
 73
    27
  0
VERTEX
  5
416
330
34B
100
AcDbEntity
  8
0
100
AcDbFaceRecord
 10
0.0
 20
0.0
 30
0.0
 70
   128
 71
    28
 72
    29
 73
    30
  0
VERTEX
  5
417
330
34B
100
AcDbEntity
  8
0
100
AcDbFaceRecord
 10
0.0
 20
0.0
 30
0.0
 70
   128
 71
    31
 72
    19
 73
    21
  0
VERTEX
  5
418
330
34B
100
AcDbEntity
  8
0
100
AcDbFaceRecord
 10
0.0
 20
0.0
 30
0.0
 70
   128
 71
    31
 72
    21
 73
    32
  0
VERTEX
  5
419
330
34B
100
AcDbEntity
  8
0
100
AcDbFaceRecord
 10
0.0
 20
0.0
 30
0.0
 70
   128
 71
    31
 72
    32
 73
    22
  0
VERTEX
  5
41A
330
34B
100
AcDbEntity
  8
0
100
AcDbFaceRecord
 10
0.0
 20
0.0
 30
0.0
 70
   128
 71
    31
 72
    22
 73
    24
  0
VERTEX
  5
41B
330
34B
100
AcDbEntity
  8
0
100
AcDbFaceRecord
 10
0.0
 20
0.0
 30
0.0
 70
   128
 71
    33
 72
    28
 73
    34
  0
VERTEX
  5
41C
330
34B
100
AcDbEntity
  8
0
100
AcDbFaceRecord
 10
0.0
 20
0.0
 30
0.0
 70
   128
 71
    33
 72
    34
 73
    35
  0
VERTEX
  5
41D
330
34B
100
AcDbEntity
  8
0
100
AcDbFaceRecord
 10
0.0
 20
0.0
 30
0.0
 70
   128
 71
    33
 72
    35
 73
    36
  0
VERTEX
  5
41E
330
34B
100
AcDbEntity
  8
0
100
AcDbFaceRecord
 10
0.0
 20
0.0
 30
0.0
 70
   128
 71
    34
 72
    28
 73
    30
  0
VERTEX
  5
41F
330
34B
100
AcDbEntity
  8
0
100
AcDbFaceRecord
 10
0.0
 20
0.0
 30
0.0
 70
   128
 71
    34
 72
    30
 73
    37
  0
VERTEX
  5
420
330
34B
100
AcDbEntity
  8
0
100
AcDbFaceRecord
 10
0.0
 20
0.0
 30
0.0
 70
   128
 71
    34
 72
    37
 73
    38
  0
VERTEX
  5
421
330
34B
100
AcDbEntity
  8
0
100
AcDbFaceRecord
 10
0.0
 20
0.0
 30
0.0
 70
   128
 71
    34
 72
    38
 73
    39
  0
VERTEX
  5
422
330
34B
100
AcDbEntity
  8
0
100
AcDbFaceRecord
 10
0.0
 20
0.0
 30
0.0
 70
   128
 71
    38
 72
    40
 73
    39
  0
VERTEX
  5
423
330
34B
100
AcDbEntity
  8
0
100
AcDbFaceRecord
 10
0.0
 20
0.0
 30
0.0
 70
   128
 71
    41
 72
    39
 73
    40
  0
VERTEX
  5
424
330
34B
100
AcDbEntity
  8
0
100
AcDbFaceRecord
 10
0.0
 20
0.0
 30
0.0
 70
   128
 71
    39
 72
    41
 73
    42
  0
VERTEX
  5
425
330
34B
100
AcDbEntity
  8
0
100
AcDbFaceRecord
 10
0.0
 20
0.0
 30
0.0
 70
   128
 71
    43
 72
    42
 73
    41
  0
VERTEX
  5
426
330
34B
100
AcDbEntity
  8
0
100
AcDbFaceRecord
 10
0.0
 20
0.0
 30
0.0
 70
   128
 71
    42
 72
    43
 73
    44
  0
VERTEX
  5
427
330
34B
100
AcDbEntity
  8
0
100
AcDbFaceRecord
 10
0.0
 20
0.0
 30
0.0
 70
   128
 71
    45
 72
    44
 73
    43
  0
VERTEX
  5
428
330
34B
100
AcDbEntity
  8
0
100
AcDbFaceRecord
 10
0.0
 20
0.0
 30
0.0
 70
   128
 71
    44
 72
    45
 73
    46
  0
VERTEX
  5
429
330
34B
100
AcDbEntity
  8
0
100
AcDbFaceRecord
 10
0.0
 20
0.0
 30
0.0
 70
   128
 71
    47
 72
    48
 73
    49
  0
VERTEX
  5
42A
330
34B
100
AcDbEntity
  8
0
100
AcDbFaceRecord
 10
0.0
 20
0.0
 30
0.0
 70
   128
 71
    47
 72
    49
 73
    50
  0
VERTEX
  5
42B
330
34B
100
AcDbEntity
  8
0
100
AcDbFaceRecord
 10
0.0
 20
0.0
 30
0.0
 70
   128
 71
    47
 72
    50
 73
    44
  0
VERTEX
  5
42C
330
34B
100
AcDbEntity
  8
0
100
AcDbFaceRecord
 10
0.0
 20
0.0
 30
0.0
 70
   128
 71
    47
 72
    44
 73
    46
  0
VERTEX
  5
42D
330
34B
100
AcDbEntity
  8
0
100
AcDbFaceRecord
 10
0.0
 20
0.0
 30
0.0
 70
   128
 71
    20
 72
    18
 73
    51
  0
VERTEX
  5
42E
330
34B
100
AcDbEntity
  8
0
100
AcDbFaceRecord
 10
0.0
 20
0.0
 30
0.0
 70
   128
 71
    52
 72
    53
 73
    54
  0
VERTEX
  5
42F
330
34B
100
AcDbEntity
  8
0
100
AcDbFaceRecord
 10
0.0
 20
0.0
 30
0.0
 70
   128
 71
    55
 72
    54
 73
    53
  0
VERTEX
  5
430
330
34B
100
AcDbEntity
  8
0
100
AcDbFaceRecord
 10
0.0
 20
0.0
 30
0.0
 70
   128
 71
    54
 72
    55
 73
    56
  0
VERTEX
  5
431
330
34B
100
AcDbEntity
  8
0
100
AcDbFaceRecord
 10
0.0
 20
0.0
 30
0.0
 70
   128
 71
    57
 72
    56
 73
    55
  0
VERTEX
  5
432
330
34B
100
AcDbEntity
  8
0
100
AcDbFaceRecord
 10
0.0
 20
0.0
 30
0.0
 70
   128
 71
    56
 72
    57
 73
    58
  0
VERTEX
  5
433
330
34B
100
AcDbEntity
  8
0
100
AcDbFaceRecord
 10
0.0
 20
0.0
 30
0.0
 70
   128
 71
    59
 72
    58
 73
    57
  0
VERTEX
  5
434
330
34B
100
AcDbEntity
  8
0
100
AcDbFaceRecord
 10
0.0
 20
0.0
 30
0.0
 70
   128
 71
    58
 72
    59
 73
    60
  0
VERTEX
  5
435
330
34B
100
AcDbEntity
  8
0
100
AcDbFaceRecord
 10
0.0
 20
0.0
 30
0.0
 70
   128
 71
    61
 72
    60
 73
    59
  0
VERTEX
  5
436
330
34B
100
AcDbEntity
  8
0
100
AcDbFaceRecord
 10
0.0
 20
0.0
 30
0.0
 70
   128
 71
    60
 72
    61
 73
    62
  0
VERTEX
  5
437
330
34B
100
AcDbEntity
  8
0
100
AcDbFaceRecord
 10
0.0
 20
0.0
 30
0.0
 70
   128
 71
    63
 72
    62
 73
    61
  0
VERTEX
  5
438
330
34B
100
AcDbEntity
  8
0
100
AcDbFaceRecord
 10
0.0
 20
0.0
 30
0.0
 70
   128
 71
    64
 72
    65
 73
    66
  0
VERTEX
  5
439
330
34B
100
AcDbEntity
  8
0
100
AcDbFaceRecord
 10
0.0
 20
0.0
 30
0.0
 70
   128
 71
    64
 72
    66
 73
    63
  0
VERTEX
  5
43A
330
34B
100
AcDbEntity
  8
0
100
AcDbFaceRecord
 10
0.0
 20
0.0
 30
0.0
 70
   128
 71
    64
 72
    63
 73
    61
  0
VERTEX
  5
43B
330
34B
100
AcDbEntity
  8
0
100
AcDbFaceRecord
 10
0.0
 20
0.0
 30
0.0
 70
   128
 71
    67
 72
    68
 73
    69
  0
VERTEX
  5
43C
330
34B
100
AcDbEntity
  8
0
100
AcDbFaceRecord
 10
0.0
 20
0.0
 30
0.0
 70
   128
 71
    67
 72
    69
 73
    70
  0
VERTEX
  5
43D
330
34B
100
AcDbEntity
  8
0
100
AcDbFaceRecord
 10
0.0
 20
0.0
 30
0.0
 70
   128
 71
    67
 72
    70
 73
    66
  0
VERTEX
  5
43E
330
34B
100
AcDbEntity
  8
0
100
AcDbFaceRecord
 10
0.0
 20
0.0
 30
0.0
 70
   128
 71
    67
 72
    66
 73
    65
  0
VERTEX
  5
43F
330
34B
100
AcDbEntity
  8
0
100
AcDbFaceRecord
 10
0.0
 20
0.0
 30
0.0
 70
   128
 71
    71
 72
    72
 73
    73
  0
VERTEX
  5
440
330
34B
100
AcDbEntity
  8
0
100
AcDbFaceRecord
 10
0.0
 20
0.0
 30
0.0
 70
   128
 71
    74
 72
    73
 73
    72
  0
VERTEX
  5
441
330
34B
100
AcDbEntity
  8
0
100
AcDbFaceRecord
 10
0.0
 20
0.0
 30
0.0
 70
   128
 71
    73
 72
    74
 73
    68
  0
VERTEX
  5
442
330
34B
100
AcDbEntity
  8
0
100
AcDbFaceRecord
 10
0.0
 20
0.0
 30
0.0
 70
   128
 71
    69
 72
    68
 73
    74
  0
VERTEX
  5
443
330
34B
100
AcDbEntity
  8
0
100
AcDbFaceRecord
 10
0.0
 20
0.0
 30
0.0
 70
   128
 71
    75
 72
    76
 73
    77
  0
VERTEX
  5
444
330
34B
100
AcDbEntity
  8
0
100
AcDbFaceRecord
 10
0.0
 20
0.0
 30
0.0
 70
   128
 71
    75
 72
    77
 73
    71
  0
VERTEX
  5
445
330
34B
100
AcDbEntity
  8
0
100
AcDbFaceRecord
 10
0.0
 20
0.0
 30
0.0
 70
   128
 71
    75
 72
    71
 73
    73
  0
VERTEX
  5
446
330
34B
100
AcDbEntity
  8
0
100
AcDbFaceRecord
 10
0.0
 20
0.0
 30
0.0
 70
   128
 71
    75
 72
    73
 73
    78
  0
VERTEX
  5
447
330
34B
100
AcDbEntity
  8
0
100
AcDbFaceRecord
 10
0.0
 20
0.0
 30
0.0
 70
   128
 71
    75
 72
    78
 73
    79
  0
VERTEX
  5
448
330
34B
100
AcDbEntity
  8
0
100
AcDbFaceRecord
 10
0.0
 20
0.0
 30
0.0
 70
   128
 71
    75
 72
    79
 73
    80
  0
VERTEX
  5
449
330
34B
100
AcDbEntity
  8
0
100
AcDbFaceRecord
 10
0.0
 20
0.0
 30
0.0
 70
   128
 71
    81
 72
    82
 73
    80
  0
VERTEX
  5
44A
330
34B
100
AcDbEntity
  8
0
100
AcDbFaceRecord
 10
0.0
 20
0.0
 30
0.0
 70
   128
 71
    81
 72
    80
 73
    79
  0
VERTEX
  5
44B
330
34B
100
AcDbEntity
  8
0
100
AcDbFaceRecord
 10
0.0
 20
0.0
 30
0.0
 70
   128
 71
    83
 72
    84
 73
    85
  0
VERTEX
  5
44C
330
34B
100
AcDbEntity
  8
0
100
AcDbFaceRecord
 10
0.0
 20
0.0
 30
0.0
 70
   128
 71
    86
 72
    85
 73
    84
  0
VERTEX
  5
44D
330
34B
100
AcDbEntity
  8
0
100
AcDbFaceRecord
 10
0.0
 20
0.0
 30
0.0
 70
   128
 71
    85
 72
    86
 73
    87
  0
VERTEX
  5
44E
330
34B
100
AcDbEntity
  8
0
100
AcDbFaceRecord
 10
0.0
 20
0.0
 30
0.0
 70
   128
 71
    58
 72
    87
 73
    86
  0
VERTEX
  5
44F
330
34B
100
AcDbEntity
  8
0
100
AcDbFaceRecord
 10
0.0
 20
0.0
 30
0.0
 70
   128
 71
    87
 72
    58
 73
    60
  0
VERTEX
  5
450
330
34B
100
AcDbEntity
  8
0
100
AcDbFaceRecord
 10
0.0
 20
0.0
 30
0.0
 70
   128
 71
    88
 72
    76
 73
    89
  0
VERTEX
  5
451
330
34B
100
AcDbEntity
  8
0
100
AcDbFaceRecord
 10
0.0
 20
0.0
 30
0.0
 70
   128
 71
    90
 72
    89
 73
    76
  0
VERTEX
  5
452
330
34B
100
AcDbEntity
  8
0
100
AcDbFaceRecord
 10
0.0
 20
0.0
 30
0.0
 70
   128
 71
    89
 72
    90
 73
    91
  0
VERTEX
  5
453
330
34B
100
AcDbEntity
  8
0
100
AcDbFaceRecord
 10
0.0
 20
0.0
 30
0.0
 70
   128
 71
    84
 72
    91
 73
    90
  0
VERTEX
  5
454
330
34B
100
AcDbEntity
  8
0
100
AcDbFaceRecord
 10
0.0
 20
0.0
 30
0.0
 70
   128
 71
    91
 72
    84
 73
    83
  0
VERTEX
  5
455
330
34B
100
AcDbEntity
  8
0
100
AcDbFaceRecord
 10
0.0
 20
0.0
 30
0.0
 70
   128
 71
    77
 72
    76
 73
    88
  0
VERTEX
  5
456
330
34B
100
AcDbEntity
  8
0
100
AcDbFaceRecord
 10
0.0
 20
0.0
 30
0.0
 70
   128
 71
    92
 72
    93
 73
    94
  0
VERTEX
  5
457
330
34B
100
AcDbEntity
  8
0
100
AcDbFaceRecord
 10
0.0
 20
0.0
 30
0.0
 70
   128
 71
    92
 72
    94
 73
    95
  0
VERTEX
  5
458
330
34B
100
AcDbEntity
  8
0
100
AcDbFaceRecord
 10
0.0
 20
0.0
 30
0.0
 70
   128
 71
    96
 72
    97
 73
    98
  0
VERTEX
  5
459
330
34B
100
AcDbEntity
  8
0
100
AcDbFaceRecord
 10
0.0
 20
0.0
 30
0.0
 70
   128
 71
    99
 72
    98
 73
    97
  0
VERTEX
  5
45A
330
34B
100
AcDbEntity
  8
0
100
AcDbFaceRecord
 10
0.0
 20
0.0
 30
0.0
 70
   128
 71
    98
 72
    99
 73
   100
  0
VERTEX
  5
45B
330
34B
100
AcDbEntity
  8
0
100
AcDbFaceRecord
 10
0.0
 20
0.0
 30
0.0
 70
   128
 71
   101
 72
   100
 73
    99
  0
VERTEX
  5
45C
330
34B
100
AcDbEntity
  8
0
100
AcDbFaceRecord
 10
0.0
 20
0.0
 30
0.0
 70
   128
 71
   100
 72
   101
 73
   102
  0
VERTEX
  5
45D
330
34B
100
AcDbEntity
  8
0
100
AcDbFaceRecord
 10
0.0
 20
0.0
 30
0.0
 70
   128
 71
   103
 72
   102
 73
   101
  0
VERTEX
  5
45E
330
34B
100
AcDbEntity
  8
0
100
AcDbFaceRecord
 10
0.0
 20
0.0
 30
0.0
 70
   128
 71
   102
 72
   103
 73
   104
  0
VERTEX
  5
45F
330
34B
100
AcDbEntity
  8
0
100
AcDbFaceRecord
 10
0.0
 20
0.0
 30
0.0
 70
   128
 71
   105
 72
   104
 73
   103
  0
VERTEX
  5
460
330
34B
100
AcDbEntity
  8
0
100
AcDbFaceRecord
 10
0.0
 20
0.0
 30
0.0
 70
   128
 71
   104
 72
   105
 73
   106
  0
VERTEX
  5
461
330
34B
100
AcDbEntity
  8
0
100
AcDbFaceRecord
 10
0.0
 20
0.0
 30
0.0
 70
   128
 71
   107
 72
   106
 73
   105
  0
VERTEX
  5
462
330
34B
100
AcDbEntity
  8
0
100
AcDbFaceRecord
 10
0.0
 20
0.0
 30
0.0
 70
   128
 71
   108
 72
   109
 73
   110
  0
VERTEX
  5
463
330
34B
100
AcDbEntity
  8
0
100
AcDbFaceRecord
 10
0.0
 20
0.0
 30
0.0
 70
   128
 71
   108
 72
   110
 73
   107
  0
VERTEX
  5
464
330
34B
100
AcDbEntity
  8
0
100
AcDbFaceRecord
 10
0.0
 20
0.0
 30
0.0
 70
   128
 71
   108
 72
   107
 73
   105
  0
VERTEX
  5
465
330
34B
100
AcDbEntity
  8
0
100
AcDbFaceRecord
 10
0.0
 20
0.0
 30
0.0
 70
   128
 71
   111
 72
   112
 73
   113
  0
VERTEX
  5
466
330
34B
100
AcDbEntity
  8
0
100
AcDbFaceRecord
 10
0.0
 20
0.0
 30
0.0
 70
   128
 71
   111
 72
   113
 73
   114
  0
VERTEX
  5
467
330
34B
100
AcDbEntity
  8
0
100
AcDbFaceRecord
 10
0.0
 20
0.0
 30
0.0
 70
   128
 71
   111
 72
   114
 73
   110
  0
VERTEX
  5
468
330
34B
100
AcDbEntity
  8
0
100
AcDbFaceRecord
 10
0.0
 20
0.0
 30
0.0
 70
   128
 71
   111
 72
   110
 73
   109
  0
VERTEX
  5
469
330
34B
100
AcDbEntity
  8
0
100
AcDbFaceRecord
 10
0.0
 20
0.0
 30
0.0
 70
   128
 71
   115
 72
   116
 73
   117
  0
VERTEX
  5
46A
330
34B
100
AcDbEntity
  8
0
100
AcDbFaceRecord
 10
0.0
 20
0.0
 30
0.0
 70
   128
 71
   118
 72
   117
 73
   116
  0
VERTEX
  5
46B
330
34B
100
AcDbEntity
  8
0
100
AcDbFaceRecord
 10
0.0
 20
0.0
 30
0.0
 70
   128
 71
   117
 72
   118
 73
   112
  0
VERTEX
  5
46C
330
34B
100
AcDbEntity
  8
0
100
AcDbFaceRecord
 10
0.0
 20
0.0
 30
0.0
 70
   128
 71
   113
 72
   112
 73
   118
  0
VERTEX
  5
46D
330
34B
100
AcDbEntity
  8
0
100
AcDbFaceRecord
 10
0.0
 20
0.0
 30
0.0
 70
   128
 71
   119
 72
   120
 73
   121
  0
VERTEX
  5
46E
330
34B
100
AcDbEntity
  8
0
100
AcDbFaceRecord
 10
0.0
 20
0.0
 30
0.0
 70
   128
 71
   119
 72
   121
 73
   115
  0
VERTEX
  5
46F
330
34B
100
AcDbEntity
  8
0
100
AcDbFaceRecord
 10
0.0
 20
0.0
 30
0.0
 70
   128
 71
   119
 72
   115
 73
   117
  0
VERTEX
  5
470
330
34B
100
AcDbEntity
  8
0
100
AcDbFaceRecord
 10
0.0
 20
0.0
 30
0.0
 70
   128
 71
   119
 72
   117
 73
   122
  0
VERTEX
  5
471
330
34B
100
AcDbEntity
  8
0
100
AcDbFaceRecord
 10
0.0
 20
0.0
 30
0.0
 70
   128
 71
   119
 72
   122
 73
   123
  0
VERTEX
  5
472
330
34B
100
AcDbEntity
  8
0
100
AcDbFaceRecord
 10
0.0
 20
0.0
 30
0.0
 70
   128
 71
   119
 72
   123
 73
   124
  0
VERTEX
  5
473
330
34B
100
AcDbEntity
  8
0
100
AcDbFaceRecord
 10
0.0
 20
0.0
 30
0.0
 70
   128
 71
   125
 72
   126
 73
   124
  0
VERTEX
  5
474
330
34B
100
AcDbEntity
  8
0
100
AcDbFaceRecord
 10
0.0
 20
0.0
 30
0.0
 70
   128
 71
   125
 72
   124
 73
   123
  0
VERTEX
  5
475
330
34B
100
AcDbEntity
  8
0
100
AcDbFaceRecord
 10
0.0
 20
0.0
 30
0.0
 70
   128
 71
   127
 72
   128
 73
   129
  0
VERTEX
  5
476
330
34B
100
AcDbEntity
  8
0
100
AcDbFaceRecord
 10
0.0
 20
0.0
 30
0.0
 70
   128
 71
   130
 72
   129
 73
   128
  0
VERTEX
  5
477
330
34B
100
AcDbEntity
  8
0
100
AcDbFaceRecord
 10
0.0
 20
0.0
 30
0.0
 70
   128
 71
   129
 72
   130
 73
   131
  0
VERTEX
  5
478
330
34B
100
AcDbEntity
  8
0
100
AcDbFaceRecord
 10
0.0
 20
0.0
 30
0.0
 70
   128
 71
   102
 72
   131
 73
   130
  0
VERTEX
  5
479
330
34B
100
AcDbEntity
  8
0
100
AcDbFaceRecord
 10
0.0
 20
0.0
 30
0.0
 70
   128
 71
   131
 72
   102
 73
   104
  0
VERTEX
  5
47A
330
34B
100
AcDbEntity
  8
0
100
AcDbFaceRecord
 10
0.0
 20
0.0
 30
0.0
 70
   128
 71
   132
 72
   120
 73
   133
  0
VERTEX
  5
47B
330
34B
100
AcDbEntity
  8
0
100
AcDbFaceRecord
 10
0.0
 20
0.0
 30
0.0
 70
   128
 71
   134
 72
   133
 73
   120
  0
VERTEX
  5
47C
330
34B
100
AcDbEntity
  8
0
100
AcDbFaceRecord
 10
0.0
 20
0.0
 30
0.0
 70
   128
 71
   133
 72
   134
 73
   135
  0
VERTEX
  5
47D
330
34B
100
AcDbEntity
  8
0
100
AcDbFaceRecord
 10
0.0
 20
0.0
 30
0.0
 70
   128
 71
   128
 72
   135
 73
   134
  0
VERTEX
  5
47E
330
34B
100
AcDbEntity
  8
0
100
AcDbFaceRecord
 10
0.0
 20
0.0
 30
0.0
 70
   128
 71
   135
 72
   128
 73
   127
  0
VERTEX
  5
47F
330
34B
100
AcDbEntity
  8
0
100
AcDbFaceRecord
 10
0.0
 20
0.0
 30
0.0
 70
   128
 71
   121
 72
   120
 73
   132
  0
VERTEX
  5
480
330
34B
100
AcDbEntity
  8
0
100
AcDbFaceRecord
 10
0.0
 20
0.0
 30
0.0
 70
   128
 71
   136
 72
   137
 73
   138
  0
VERTEX
  5
481
330
34B
100
AcDbEntity
  8
0
100
AcDbFaceRecord
 10
0.0
 20
0.0
 30
0.0
 70
   128
 71
   139
 72
   138
 73
   137
  0
VERTEX
  5
482
330
34B
100
AcDbEntity
  8
0
100
AcDbFaceRecord
 10
0.0
 20
0.0
 30
0.0
 70
   128
 71
   138
 72
   139
 73
   140
  0
VERTEX
  5
483
330
34B
100
AcDbEntity
  8
0
100
AcDbFaceRecord
 10
0.0
 20
0.0
 30
0.0
 70
   128
 71
   141
 72
   140
 73
   139
  0
VERTEX
  5
484
330
34B
100
AcDbEntity
  8
0
100
AcDbFaceRecord
 10
0.0
 20
0.0
 30
0.0
 70
   128
 71
   140
 72
   141
 73
   142
  0
VERTEX
  5
485
330
34B
100
AcDbEntity
  8
0
100
AcDbFaceRecord
 10
0.0
 20
0.0
 30
0.0
 70
   128
 71
   143
 72
   142
 73
   141
  0
VERTEX
  5
486
330
34B
100
AcDbEntity
  8
0
100
AcDbFaceRecord
 10
0.0
 20
0.0
 30
0.0
 70
   128
 71
   142
 72
   143
 73
   144
  0
VERTEX
  5
487
330
34B
100
AcDbEntity
  8
0
100
AcDbFaceRecord
 10
0.0
 20
0.0
 30
0.0
 70
   128
 71
   145
 72
   144
 73
   143
  0
VERTEX
  5
488
330
34B
100
AcDbEntity
  8
0
100
AcDbFaceRecord
 10
0.0
 20
0.0
 30
0.0
 70
   128
 71
   144
 72
   145
 73
   146
  0
VERTEX
  5
489
330
34B
100
AcDbEntity
  8
0
100
AcDbFaceRecord
 10
0.0
 20
0.0
 30
0.0
 70
   128
 71
   147
 72
   146
 73
   145
  0
VERTEX
  5
48A
330
34B
100
AcDbEntity
  8
0
100
AcDbFaceRecord
 10
0.0
 20
0.0
 30
0.0
 70
   128
 71
   148
 72
   149
 73
   150
  0
VERTEX
  5
48B
330
34B
100
AcDbEntity
  8
0
100
AcDbFaceRecord
 10
0.0
 20
0.0
 30
0.0
 70
   128
 71
   148
 72
   150
 73
   147
  0
VERTEX
  5
48C
330
34B
100
AcDbEntity
  8
0
100
AcDbFaceRecord
 10
0.0
 20
0.0
 30
0.0
 70
   128
 71
   148
 72
   147
 73
   145
  0
VERTEX
  5
48D
330
34B
100
AcDbEntity
  8
0
100
AcDbFaceRecord
 10
0.0
 20
0.0
 30
0.0
 70
   128
 71
   151
 72
   152
 73
   153
  0
VERTEX
  5
48E
330
34B
100
AcDbEntity
  8
0
100
AcDbFaceRecord
 10
0.0
 20
0.0
 30
0.0
 70
   128
 71
   151
 72
   153
 73
   154
  0
VERTEX
  5
48F
330
34B
100
AcDbEntity
  8
0
100
AcDbFaceRecord
 10
0.0
 20
0.0
 30
0.0
 70
   128
 71
   151
 72
   154
 73
   150
  0
VERTEX
  5
490
330
34B
100
AcDbEntity
  8
0
100
AcDbFaceRecord
 10
0.0
 20
0.0
 30
0.0
 70
   128
 71
   151
 72
   150
 73
   149
  0
VERTEX
  5
491
330
34B
100
AcDbEntity
  8
0
100
AcDbFaceRecord
 10
0.0
 20
0.0
 30
0.0
 70
   128
 71
   155
 72
   156
 73
   157
  0
VERTEX
  5
492
330
34B
100
AcDbEntity
  8
0
100
AcDbFaceRecord
 10
0.0
 20
0.0
 30
0.0
 70
   128
 71
   158
 72
   157
 73
   156
  0
VERTEX
  5
493
330
34B
100
AcDbEntity
  8
0
100
AcDbFaceRecord
 10
0.0
 20
0.0
 30
0.0
 70
   128
 71
   157
 72
   158
 73
   152
  0
VERTEX
  5
494
330
34B
100
AcDbEntity
  8
0
100
AcDbFaceRecord
 10
0.0
 20
0.0
 30
0.0
 70
   128
 71
   153
 72
   152
 73
   158
  0
VERTEX
  5
495
330
34B
100
AcDbEntity
  8
0
100
AcDbFaceRecord
 10
0.0
 20
0.0
 30
0.0
 70
   128
 71
   159
 72
   160
 73
   161
  0
VERTEX
  5
496
330
34B
100
AcDbEntity
  8
0
100
AcDbFaceRecord
 10
0.0
 20
0.0
 30
0.0
 70
   128
 71
   159
 72
   161
 73
   155
  0
VERTEX
  5
497
330
34B
100
AcDbEntity
  8
0
100
AcDbFaceRecord
 10
0.0
 20
0.0
 30
0.0
 70
   128
 71
   159
 72
   155
 73
   157
  0
VERTEX
  5
498
330
34B
100
AcDbEntity
  8
0
100
AcDbFaceRecord
 10
0.0
 20
0.0
 30
0.0
 70
   128
 71
   159
 72
   157
 73
   162
  0
VERTEX
  5
499
330
34B
100
AcDbEntity
  8
0
100
AcDbFaceRecord
 10
0.0
 20
0.0
 30
0.0
 70
   128
 71
   159
 72
   162
 73
   163
  0
VERTEX
  5
49A
330
34B
100
AcDbEntity
  8
0
100
AcDbFaceRecord
 10
0.0
 20
0.0
 30
0.0
 70
   128
 71
   159
 72
   163
 73
   164
  0
VERTEX
  5
49B
330
34B
100
AcDbEntity
  8
0
100
AcDbFaceRecord
 10
0.0
 20
0.0
 30
0.0
 70
   128
 71
   165
 72
   166
 73
   164
  0
VERTEX
  5
49C
330
34B
100
AcDbEntity
  8
0
100
AcDbFaceRecord
 10
0.0
 20
0.0
 30
0.0
 70
   128
 71
   165
 72
   164
 73
   163
  0
VERTEX
  5
49D
330
34B
100
AcDbEntity
  8
0
100
AcDbFaceRecord
 10
0.0
 20
0.0
 30
0.0
 70
   128
 71
   167
 72
   168
 73
   169
  0
VERTEX
  5
49E
330
34B
100
AcDbEntity
  8
0
100
AcDbFaceRecord
 10
0.0
 20
0.0
 30
0.0
 70
   128
 71
   170
 72
   169
 73
   168
  0
VERTEX
  5
49F
330
34B
100
AcDbEntity
  8
0
100
AcDbFaceRecord
 10
0.0
 20
0.0
 30
0.0
 70
   128
 71
   169
 72
   170
 73
   171
  0
VERTEX
  5
4A0
330
34B
100
AcDbEntity
  8
0
100
AcDbFaceRecord
 10
0.0
 20
0.0
 30
0.0
 70
   128
 71
   142
 72
   171
 73
   170
  0
VERTEX
  5
4A1
330
34B
100
AcDbEntity
  8
0
100
AcDbFaceRecord
 10
0.0
 20
0.0
 30
0.0
 70
   128
 71
   171
 72
   142
 73
   144
  0
VERTEX
  5
4A2
330
34B
100
AcDbEntity
  8
0
100
AcDbFaceRecord
 10
0.0
 20
0.0
 30
0.0
 70
   128
 71
   172
 72
   160
 73
   173
  0
VERTEX
  5
4A3
330
34B
100
AcDbEntity
  8
0
100
AcDbFaceRecord
 10
0.0
 20
0.0
 30
0.0
 70
   128
 71
   174
 72
   173
 73
   160
  0
VERTEX
  5
4A4
330
34B
100
AcDbEntity
  8
0
100
AcDbFaceRecord
 10
0.0
 20
0.0
 30
0.0
 70
   128
 71
   173
 72
   174
 73
   175
  0
VERTEX
  5
4A5
330
34B
100
AcDbEntity
  8
0
100
AcDbFaceRecord
 10
0.0
 20
0.0
 30
0.0
 70
   128
 71
   168
 72
   175
 73
   174
  0
VERTEX
  5
4A6
330
34B
100
AcDbEntity
  8
0
100
AcDbFaceRecord
 10
0.0
 20
0.0
 30
0.0
 70
   128
 71
   175
 72
   168
 73
   167
  0
VERTEX
  5
4A7
330
34B
100
AcDbEntity
  8
0
100
AcDbFaceRecord
 10
0.0
 20
0.0
 30
0.0
 70
   128
 71
   161
 72
   160
 73
   172
  0
VERTEX
  5
4A8
330
34B
100
AcDbEntity
  8
0
100
AcDbFaceRecord
 10
0.0
 20
0.0
 30
0.0
 70
   128
 71
   176
 72
   177
 73
   178
  0
VERTEX
  5
4A9
330
34B
100
AcDbEntity
  8
0
100
AcDbFaceRecord
 10
0.0
 20
0.0
 30
0.0
 70
   128
 71
   179
 72
   180
 73
   181
  0
SEQEND
  5
4C2
330
34B
100
AcDbEntity
  8
0
  6
Continuous2
 62
     7
420
 13434879
370
    -3
  0
LINE
  5
4AA
330
1F
100
AcDbEntity
  8
0
  6
Continuous2
 62
   176
420
      128
370
    -3
100
AcDbLine
 10
-3.0
 20
59.97781938842689
 30
0.0
 11
-3.0
 21
53.34820623779297
 31
0.0
  0
LINE
  5
4AB
330
1F
100
AcDbEntity
  8
0
  6
Continuous2
 62
   176
420
      128
370
    -3
100
AcDbLine
 10
-7.5
 20
56.97856938842689
 30
0.0
 11
-3.0
 21
57.72781938842689
 31
0.0
  0
LINE
  5
4AC
330
1F
100
AcDbEntity
  8
0
  6
Continuous2
 62
   176
420
      128
370
    -3
100
AcDbLine
 10
-7.5
 20
58.47706938842688
 30
0.0
 11
-3.0
 21
57.72781938842689
 31
0.0
  0
LINE
  5
4AD
330
1F
100
AcDbEntity
  8
0
  6
Continuous2
 62
   176
420
      128
370
    -3
100
AcDbLine
 10
7.5
 20
58.47706938842688
 30
0.0
 11
3.0
 21
57.72781938842689
 31
0.0
  0
LINE
  5
4AE
330
1F
100
AcDbEntity
  8
0
  6
Continuous2
 62
   176
420
      128
370
    -3
100
AcDbLine
 10
7.5
 20
56.97856938842688
 30
0.0
 11
3.0
 21
57.72781938842689
 31
0.0
  0
LINE
  5
4AF
330
1F
100
AcDbEntity
  8
0
  6
Continuous2
 62
   176
420
      128
370
    -3
100
AcDbLine
 10
-9.0
 20
57.72781938842689
 30
0.0
 11
-3.0
 21
57.72781938842689
 31
0.0
  0
LINE
  5
4B0
330
1F
100
AcDbEntity
  8
0
  6
Continuous2
 62
   176
420
      128
370
    -3
100
AcDbLine
 10
-9.0
 20
57.72781938842689
 30
0.0
 11
3.0
 21
57.72781938842689
 31
0.0
  0
LINE
  5
4B1
330
1F
100
AcDbEntity
  8
0
  6
Continuous2
 62
   176
420
      128
370
    -3
100
AcDbLine
 10
-7.5
 20
56.97856938842689
 30
0.0
 11
-3.0
 21
57.72781938842689
 31
0.0
  0
LINE
  5
4B2
330
1F
100
AcDbEntity
  8
0
  6
Continuous2
 62
   176
420
      128
370
    -3
100
AcDbLine
 10
-7.5
 20
58.47706938842688
 30
0.0
 11
-3.0
 21
57.72781938842689
 31
0.0
  0
LINE
  5
4B3
330
1F
100
AcDbEntity
  8
0
  6
Continuous2
 62
   176
420
      128
370
    -3
100
AcDbLine
 10
7.5
 20
58.47706938842688
 30
0.0
 11
3.0
 21
57.72781938842689
 31
0.0
  0
LINE
  5
4B4
330
1F
100
AcDbEntity
  8
0
  6
Continuous2
 62
   176
420
      128
370
    -3
100
AcDbLine
 10
7.5
 20
56.97856938842688
 30
0.0
 11
3.0
 21
57.72781938842689
 31
0.0
  0
TEXT
  5
4B5
330
1F
100
AcDbEntity
  8
0
  6
Continuous2
 62
   176
420
      128
370
    -3
100
AcDbText
 10
12.12756233842538
 20
58.69846938842689
 30
0.0
 40
3.0
  1
SHK Ø6.00
 41
0.75
  7
MCArial Narrow
 72
     1
 11
18.64783260869565
 21
60.19846938842689
 31
0.0
100
AcDbText
 73
     2
  0
LINE
  5
4B6
330
1F
100
AcDbEntity
  8
0
  6
Continuous2
 62
   176
420
      128
370
    -3
100
AcDbLine
 10
27.6484652173913
 20
57.72781938842689
 30
0.0
 11
3.0
 21
57.72781938842689
 31
0.0
  0
LINE
  5
4B7
330
1F
100
AcDbEntity
  8
0
  6
Continuous2
 62
   176
420
      128
370
    -3
100
AcDbLine
 10
-7.5
 20
56.97856938842689
 30
0.0
 11
-3.0
 21
57.72781938842689
 31
0.0
  0
LINE
  5
4B8
330
1F
100
AcDbEntity
  8
0
  6
Continuous2
 62
   176
420
      128
370
    -3
100
AcDbLine
 10
-7.5
 20
58.47706938842688
 30
0.0
 11
-3.0
 21
57.72781938842689
 31
0.0
  0
LINE
  5
4B9
330
1F
100
AcDbEntity
  8
0
  6
Continuous2
 62
   176
420
      128
370
    -3
100
AcDbLine
 10
7.5
 20
58.47706938842688
 30
0.0
 11
3.0
 21
57.72781938842689
 31
0.0
  0
LINE
  5
4BA
330
1F
100
AcDbEntity
  8
0
  6
Continuous2
 62
   176
420
      128
370
    -3
100
AcDbLine
 10
7.5
 20
56.97856938842688
 30
0.0
 11
3.0
 21
57.72781938842689
 31
0.0
  0
LINE
  5
4BB
330
1F
100
AcDbEntity
  8
0
  6
Continuous2
 62
   176
420
      128
370
    -3
100
AcDbLine
 10
3.0
 20
59.97781938842689
 30
0.0
 11
3.0
 21
53.34820623779297
 31
0.0
  0
LINE
  5
4BC
330
1F
100
AcDbEntity
  8
0
  6
Continuous2
 62
   176
420
      128
370
    -3
100
AcDbLine
 10
-7.5
 20
56.97856938842689
 30
0.0
 11
-3.0
 21
57.72781938842689
 31
0.0
  0
LINE
  5
4BD
330
1F
100
AcDbEntity
  8
0
  6
Continuous2
 62
   176
420
      128
370
    -3
100
AcDbLine
 10
-7.5
 20
58.47706938842688
 30
0.0
 11
-3.0
 21
57.72781938842689
 31
0.0
  0
LINE
  5
4BE
330
1F
100
AcDbEntity
  8
0
  6
Continuous2
 62
   176
420
      128
370
    -3
100
AcDbLine
 10
7.5
 20
58.47706938842688
 30
0.0
 11
3.0
 21
57.72781938842689
 31
0.0
  0
LINE
  5
4BF
330
1F
100
AcDbEntity
  8
0
  6
Continuous2
 62
   176
420
      128
370
    -3
100
AcDbLine
 10
7.5
 20
56.97856938842688
 30
0.0
 11
3.0
 21
57.72781938842689
 31
0.0
  0
VIEWPORT
  5
4C0
330
23
100
AcDbEntity
 67
     1
  8
0
100
AcDbViewport
 10
128.5
 20
97.5
 30
0.0
 40
314.226
 41
222.18
 68
     1
 69
     1
 12
128.5
 22
97.5
 13
0.0
 23
0.0
 14
10.0
 24
10.0
 15
10.0
 25
10.0
 16
0.0
 26
0.0
 36
1.0
 17
0.0
 27
0.0
 37
0.0
 42
50.0
 43
0.0
 44
0.0
 45
222.18
 50
0.0
 51
0.0
 72
   100
 90
   557152
  1

281
     0
 71
     1
 74
     0
110
0.0
120
0.0
130
0.0
111
1.0
121
0.0
131
0.0
112
0.0
122
1.0
132
0.0
 79
     0
146
0.0
170
     0
 61
     5
348
2F
292
     1
282
     1
141
0.0
142
0.0
 63
   256
361
4C1
  0
ENDSEC
  0
SECTION
  2
OBJECTS
  0
DICTIONARY
  5
C
330
0
100
AcDbDictionary
281
     1
  3
ACAD_DETAILVIEWSTYLE
350
4CA
  3
ACAD_GROUP
350
D
  3
ACAD_LAYOUT
350
1A
  3
ACAD_MATERIAL
350
43
  3
ACAD_MLEADERSTYLE
350
6B
  3
ACAD_MLINESTYLE
350
17
  3
ACAD_PLOTSETTINGS
350
19
  3
ACAD_PLOTSTYLENAME
350
E
  3
ACAD_SCALELIST
350
47
  3
ACAD_SECTIONVIEWSTYLE
350
4CB
  3
ACAD_TABLESTYLE
350
69
  3
ACAD_VISUALSTYLE
350
2A
  3
ACDB_RECOMPOSE_DATA
350
4C7
  3
AcDbVariableDictionary
350
4C3
  0
SUN
  5
6D
330
29
100
AcDbSun
 90
        1
290
     0
 63
     7
421
 16777215
 40
1.0
291
     1
 91
  2455826
 92
 54000000
292
     0
 70
     2
 71
   256
280
     1
  0
SUN
  5
4C1
330
4C0
100
AcDbSun
 90
        1
290
     0
 63
     7
421
 16777215
 40
1.0
291
     1
 91
  2455826
 92
 54000000
292
     0
 70
     2
 71
   256
280
     1
  0
DICTIONARY
  5
4CA
102
{ACAD_REACTORS
330
C
102
}
330
C
100
AcDbDictionary
281
     1
  0
DICTIONARY
  5
D
102
{ACAD_REACTORS
330
C
102
}
330
C
100
AcDbDictionary
281
     1
  0
DICTIONARY
  5
1A
102
{ACAD_REACTORS
330
C
102
}
330
C
100
AcDbDictionary
281
     1
  3
Layout2
350
26
  3
Model
350
22
  0
DICTIONARY
  5
43
102
{ACAD_REACTORS
330
C
102
}
330
C
100
AcDbDictionary
281
     1
  3
ByBlock
350
45
  3
ByLayer
350
44
  3
Global
350
46
  0
DICTIONARY
  5
6B
102
{ACAD_REACTORS
330
C
102
}
330
C
100
AcDbDictionary
281
     1
  3
Standard
350
6C
  0
DICTIONARY
  5
17
102
{ACAD_REACTORS
330
C
102
}
330
C
100
AcDbDictionary
281
     1
  3
Standard
350
18
  0
DICTIONARY
  5
19
102
{ACAD_REACTORS
330
C
102
}
330
C
100
AcDbDictionary
281
     1
  0
ACDBDICTIONARYWDFLT
  5
E
102
{ACAD_REACTORS
330
C
102
}
330
C
100
AcDbDictionary
281
     1
  3
Normal
350
F
100
AcDbDictionaryWithDefault
340
F
  0
DICTIONARY
  5
47
102
{ACAD_REACTORS
330
C
102
}
330
C
100
AcDbDictionary
281
     1
  3
A0
350
48
  3
A1
350
49
  3
A2
350
4A
  3
A3
350
4B
  3
A4
350
4C
  3
A5
350
4D
  3
A6
350
4E
  3
A7
350
4F
  3
A8
350
50
  3
A9
350
51
  3
B0
350
52
  3
B1
350
53
  3
B2
350
54
  3
B3
350
55
  3
B4
350
56
  3
B5
350
57
  3
B6
350
58
  3
B7
350
59
  3
B8
350
5A
  3
B9
350
5B
  3
C0
350
5C
  3
C1
350
5D
  3
C2
350
5E
  3
C3
350
5F
  3
C4
350
60
  3
C5
350
61
  3
C6
350
62
  3
C7
350
63
  3
C8
350
64
  3
C9
350
65
  3
D0
350
66
  3
D1
350
67
  3
D2
350
68
  0
DICTIONARY
  5
4CB
102
{ACAD_REACTORS
330
C
102
}
330
C
100
AcDbDictionary
281
     1
  0
DICTIONARY
  5
69
102
{ACAD_REACTORS
330
C
102
}
330
C
100
AcDbDictionary
281
     1
  3
Standard
350
6A
  0
DICTIONARY
  5
2A
102
{ACAD_REACTORS
330
C
102
}
330
C
100
AcDbDictionary
281
     1
  3
2dWireframe
350
2F
  3
Basic
350
32
  3
Brighten
350
36
  3
ColorChange
350
3A
  3
Conceptual
350
34
  3
Dim
350
35
  3
EdgeColorOff
350
3D
  3
Facepattern
350
39
  3
Flat
350
2B
  3
FlatWithEdges
350
2C
  3
Gouraud
350
2D
  3
GouraudWithEdges
350
2E
  3
Hidden
350
31
  3
JitterOff
350
3B
  3
Linepattern
350
38
  3
OverhangOff
350
3C
  3
Realistic
350
33
  3
Shaded
350
42
  3
Shaded with edges
350
41
  3
Shades of Gray
350
3E
  3
Sketchy
350
3F
  3
Thicken
350
37
  3
Wireframe
350
30
  3
X-Ray
350
40
  0
XRECORD
  5
4C7
102
{ACAD_REACTORS
330
C
102
}
330
C
100
AcDbXrecord
280
     1
 90
        1
330
6A
  0
DICTIONARY
  5
4C3
102
{ACAD_REACTORS
330
C
102
}
330
C
100
AcDbDictionary
281
     1
  3
CANNOSCALE
350
4C4
  3
CENTEREXE
350
4CC
  3
CENTERLTYPEFILE
350
4CD
  3
CMLEADERSTYLE
350
4C9
  3
CTABLESTYLE
350
4C8
  0
LAYOUT
  5
26
102
{ACAD_REACTORS
330
1A
102
}
330
1A
100
AcDbPlotSettings
  1

  2
none_device
  4
ISO_A4_(210.00_x_297.00_MM)
  6

 40
7.5
 41
20.0
 42
7.5
 43
20.0
 44
210.0
 45
297.0
 46
0.0
 47
0.0
 48
0.0
 49
0.0
140
0.0
141
0.0
142
1.0
143
1.0
 70
   688
 72
     1
 73
     1
 74
     5
  7

 75
    16
 76
     0
 77
     2
 78
   300
147
1.0
148
0.0
149
0.0
100
AcDbLayout
  1
Layout2
 70
     1
 71
     1
 10
-20.0
 20
-7.5
 11
277.0
 21
202.5
 12
0.0
 22
0.0
 32
0.0
 14
0.0
 24
0.0
 34
0.0
 15
0.0
 25
0.0
 35
0.0
146
0.0
 13
0.0
 23
0.0
 33
0.0
 16
1.0
 26
0.0
 36
0.0
 17
0.0
 27
1.0
 37
0.0
 76
     0
330
23
331
4C0
  0
LAYOUT
  5
22
102
{ACAD_REACTORS
330
1A
102
}
330
1A
100
AcDbPlotSettings
  1

  2
none_device
  4
Letter_(8.50_x_11.00_Inches)
  6

 40
6.35
 41
6.35
 42
6.35000508
 43
6.35000508
 44
215.9
 45
279.4
 46
0.0
 47
0.0
 48
0.0
 49
0.0
140
0.0
141
0.0
142
1.0
143
1.0
 70
  1712
 72
     1
 73
     0
 74
     0
  7

 75
     0
 76
     0
 77
     2
 78
   300
147
1.0
148
0.0
149
0.0
100
AcDbLayout
  1
Model
 70
     1
 71
     0
 10
0.0
 20
0.0
 11
420.0
 21
297.0
 12
0.0
 22
0.0
 32
0.0
 14
-9.0
 24
-15.3375358581543
 34
0.0
 15
52.92181396484375
 25
62.02201938842688
 35
0.0099999997764826
146
0.0
 13
0.0
 23
0.0
 33
0.0
 16
1.0
 26
0.0
 36
0.0
 17
0.0
 27
1.0
 37
0.0
 76
     0
330
1F
331
29
  0
MATERIAL
  5
45
102
{ACAD_REACTORS
330
43
102
}
330
43
100
AcDbMaterial
  1
ByBlock
 72
     1
 94
      127
  0
MATERIAL
  5
44
102
{ACAD_REACTORS
330
43
102
}
330
43
100
AcDbMaterial
  1
ByLayer
 72
     1
 94
      127
  0
MATERIAL
  5
46
102
{ACAD_REACTORS
330
43
102
}
330
43
100
AcDbMaterial
  1
Global
 72
     1
 94
      127
  0
MLEADERSTYLE
  5
6C
102
{ACAD_REACTORS
330
6B
102
}
330
6B
100
AcDbMLeaderStyle
179
     2
170
     2
171
     1
172
     0
 90
        2
 40
0.0
 41
0.0
173
     1
 91
-1056964608
340
14
 92
       -2
290
     1
 42
2.0
291
     1
 43
8.0
  3
Standard
341
0
 44
4.0
300

342
11
174
     1
178
     6
175
     1
176
     0
 93
-1056964608
 45
4.0
292
     0
297
     0
 46
4.0
343
0
 94
-1056964608
 47
1.0
 49
1.0
140
1.0
293
     1
141
0.0
294
     1
177
     0
142
1.0
295
     0
296
     0
143
3.75
271
     0
272
     9
273
     9
298
     0
  0
MLINESTYLE
  5
18
102
{ACAD_REACTORS
330
17
102
}
330
17
100
AcDbMlineStyle
  2
Standard
 70
     0
  3

 62
   256
 51
90.0
 52
90.0
 71
     2
 49
0.5
 62
   256
  6
BYLAYER
 49
-0.5
 62
   256
  6
BYLAYER
  0
ACDBPLACEHOLDER
  5
F
102
{ACAD_REACTORS
330
E
102
}
330
E
  0
SCALE
  5
48
102
{ACAD_REACTORS
330
47
102
}
330
47
100
AcDbScale
 70
     0
300
1:1
140
1.0
141
1.0
290
     1
  0
SCALE
  5
49
102
{ACAD_REACTORS
330
47
102
}
330
47
100
AcDbScale
 70
     0
300
1:2
140
1.0
141
2.0
290
     0
  0
SCALE
  5
4A
102
{ACAD_REACTORS
330
47
102
}
330
47
100
AcDbScale
 70
     0
300
1:4
140
1.0
141
4.0
290
     0
  0
SCALE
  5
4B
102
{ACAD_REACTORS
330
47
102
}
330
47
100
AcDbScale
 70
     0
300
1:5
140
1.0
141
5.0
290
     0
  0
SCALE
  5
4C
102
{ACAD_REACTORS
330
47
102
}
330
47
100
AcDbScale
 70
     0
300
1:8
140
1.0
141
8.0
290
     0
  0
SCALE
  5
4D
102
{ACAD_REACTORS
330
47
102
}
330
47
100
AcDbScale
 70
     0
300
1:10
140
1.0
141
10.0
290
     0
  0
SCALE
  5
4E
102
{ACAD_REACTORS
330
47
102
}
330
47
100
AcDbScale
 70
     0
300
1:16
140
1.0
141
16.0
290
     0
  0
SCALE
  5
4F
102
{ACAD_REACTORS
330
47
102
}
330
47
100
AcDbScale
 70
     0
300
1:20
140
1.0
141
20.0
290
     0
  0
SCALE
  5
50
102
{ACAD_REACTORS
330
47
102
}
330
47
100
AcDbScale
 70
     0
300
1:30
140
1.0
141
30.0
290
     0
  0
SCALE
  5
51
102
{ACAD_REACTORS
330
47
102
}
330
47
100
AcDbScale
 70
     0
300
1:40
140
1.0
141
40.0
290
     0
  0
SCALE
  5
52
102
{ACAD_REACTORS
330
47
102
}
330
47
100
AcDbScale
 70
     0
300
1:50
140
1.0
141
50.0
290
     0
  0
SCALE
  5
53
102
{ACAD_REACTORS
330
47
102
}
330
47
100
AcDbScale
 70
     0
300
1:100
140
1.0
141
100.0
290
     0
  0
SCALE
  5
54
102
{ACAD_REACTORS
330
47
102
}
330
47
100
AcDbScale
 70
     0
300
2:1
140
2.0
141
1.0
290
     0
  0
SCALE
  5
55
102
{ACAD_REACTORS
330
47
102
}
330
47
100
AcDbScale
 70
     0
300
4:1
140
4.0
141
1.0
290
     0
  0
SCALE
  5
56
102
{ACAD_REACTORS
330
47
102
}
330
47
100
AcDbScale
 70
     0
300
8:1
140
8.0
141
1.0
290
     0
  0
SCALE
  5
57
102
{ACAD_REACTORS
330
47
102
}
330
47
100
AcDbScale
 70
     0
300
10:1
140
10.0
141
1.0
290
     0
  0
SCALE
  5
58
102
{ACAD_REACTORS
330
47
102
}
330
47
100
AcDbScale
 70
     0
300
100:1
140
100.0
141
1.0
290
     0
  0
SCALE
  5
59
102
{ACAD_REACTORS
330
47
102
}
330
47
100
AcDbScale
 70
     0
300
1/128" = 1'-0"
140
0.0078125
141
12.0
290
     0
  0
SCALE
  5
5A
102
{ACAD_REACTORS
330
47
102
}
330
47
100
AcDbScale
 70
     0
300
1/64" = 1'-0"
140
0.015625
141
12.0
290
     0
  0
SCALE
  5
5B
102
{ACAD_REACTORS
330
47
102
}
330
47
100
AcDbScale
 70
     0
300
1/32" = 1'-0"
140
0.03125
141
12.0
290
     0
  0
SCALE
  5
5C
102
{ACAD_REACTORS
330
47
102
}
330
47
100
AcDbScale
 70
     0
300
1/16" = 1'-0"
140
0.0625
141
12.0
290
     0
  0
SCALE
  5
5D
102
{ACAD_REACTORS
330
47
102
}
330
47
100
AcDbScale
 70
     0
300
3/32" = 1'-0"
140
0.09375
141
12.0
290
     0
  0
SCALE
  5
5E
102
{ACAD_REACTORS
330
47
102
}
330
47
100
AcDbScale
 70
     0
300
1/8" = 1'-0"
140
0.125
141
12.0
290
     0
  0
SCALE
  5
5F
102
{ACAD_REACTORS
330
47
102
}
330
47
100
AcDbScale
 70
     0
300
3/16" = 1'-0"
140
0.1875
141
12.0
290
     0
  0
SCALE
  5
60
102
{ACAD_REACTORS
330
47
102
}
330
47
100
AcDbScale
 70
     0
300
1/4" = 1'-0"
140
0.25
141
12.0
290
     0
  0
SCALE
  5
61
102
{ACAD_REACTORS
330
47
102
}
330
47
100
AcDbScale
 70
     0
300
3/8" = 1'-0"
140
0.375
141
12.0
290
     0
  0
SCALE
  5
62
102
{ACAD_REACTORS
330
47
102
}
330
47
100
AcDbScale
 70
     0
300
1/2" = 1'-0"
140
0.5
141
12.0
290
     0
  0
SCALE
  5
63
102
{ACAD_REACTORS
330
47
102
}
330
47
100
AcDbScale
 70
     0
300
3/4" = 1'-0"
140
0.75
141
12.0
290
     0
  0
SCALE
  5
64
102
{ACAD_REACTORS
330
47
102
}
330
47
100
AcDbScale
 70
     0
300
1" = 1'-0"
140
1.0
141
12.0
290
     0
  0
SCALE
  5
65
102
{ACAD_REACTORS
330
47
102
}
330
47
100
AcDbScale
 70
     0
300
1-1/2" = 1'-0"
140
1.5
141
12.0
290
     0
  0
SCALE
  5
66
102
{ACAD_REACTORS
330
47
102
}
330
47
100
AcDbScale
 70
     0
300
3" = 1'-0"
140
3.0
141
12.0
290
     0
  0
SCALE
  5
67
102
{ACAD_REACTORS
330
47
102
}
330
47
100
AcDbScale
 70
     0
300
6" = 1'-0"
140
6.0
141
12.0
290
     0
  0
SCALE
  5
68
102
{ACAD_REACTORS
330
47
102
}
330
47
100
AcDbScale
 70
     0
300
1'-0" = 1'-0"
140
12.0
141
12.0
290
     0
  0
TABLESTYLE
  5
6A
102
{ACAD_REACTORS
330
69
102
}
102
{ACAD_XDICTIONARY
360
4C5
102
}
330
69
100
AcDbTableStyle
  3
Standard
 70
     0
 71
     0
 40
0.06
 41
0.06
280
     0
281
     0
  7
Standard
140
4.5
170
     2
 62
     0
 63
   257
283
     0
 90
        4
 91
        0
  1

274
    -2
284
     1
 64
     0
275
    -2
285
     1
 65
     0
276
    -2
286
     1
 66
     0
277
    -2
287
     1
 67
     0
278
    -2
288
     1
 68
     0
279
    -2
289
     1
 69
     0
  7
Standard
140
6.0
170
     5
 62
     0
 63
   257
283
     0
 90
        4
 91
        0
  1

274
    -2
284
     1
 64
     0
275
    -2
285
     1
 65
     0
276
    -2
286
     1
 66
     0
277
    -2
287
     1
 67
     0
278
    -2
288
     1
 68
     0
279
    -2
289
     1
 69
     0
  7
Standard
140
4.5
170
     5
 62
     0
 63
   257
283
     0
 90
        4
 91
        0
  1

274
    -2
284
     1
 64
     0
275
    -2
285
     1
 65
     0
276
    -2
286
     1
 66
     0
277
    -2
287
     1
 67
     0
278
    -2
288
     1
 68
     0
279
    -2
289
     1
 69
     0
  0
VISUALSTYLE
  5
2F
102
{ACAD_REACTORS
330
2A
102
}
330
2A
100
AcDbVisualStyle
  2
2dWireframe
 70
     4
177
     3
291
     0
 70
    58
 90
        0
176
     1
 90
        2
176
     1
 90
        0
176
     1
 90
        0
176
     1
 40
0.6
176
     1
 40
30.0
176
     1
 62
     7
420
 16777215
176
     1
 90
        1
176
     1
 90
        4
176
     1
 62
     7
176
     1
 62
   257
176
     1
 90
        1
176
     1
 90
        1
176
     1
 40
1.0
176
     1
 90
        0
176
     1
 62
   257
176
     1
 40
1.0
176
     1
 90
        1
176
     1
 90
        6
176
     1
 90
        2
176
     1
 62
     7
176
     1
 90
        5
176
     1
 90
        0
176
     1
 90
        0
176
     1
290
     0
176
     1
 90
        1
176
     1
 40
0.0
176
     1
 90
        0
176
     1
290
     1
176
     1
290
     1
176
     1
290
     0
176
     1
290
     0
176
     1
290
     0
176
     1
290
     0
176
     1
290
     0
176
     1
290
     0
176
     1
290
     0
176
     1
 90
       50
176
     1
 40
0.0
176
     1
 40
1.0
176
     1
 90
        0
176
     1
 62
    18
420
        0
176
     1
 90
       50
176
     1
 90
        3
176
     1
 62
     5
420
      255
176
     1
290
     0
176
     1
 90
       50
176
     1
 90
       50
176
     1
 90
       50
176
     1
290
     0
176
     1
 90
       50
176
     1
 62
   256
176
     0
 40
1.0
176
     0
 90
        2
176
     1
  1
strokes_ogs.tif
176
     1
290
     0
176
     1
 40
1.0
176
     1
 40
1.0
176
     1
  0
VISUALSTYLE
  5
32
102
{ACAD_REACTORS
330
2A
102
}
330
2A
100
AcDbVisualStyle
  2
Basic
 70
     7
177
     3
291
     1
 70
    58
 90
        1
176
     1
 90
        0
176
     1
 90
        1
176
     1
 90
        0
176
     1
 40
0.6
176
     1
 40
30.0
176
     1
 62
     7
420
 16777215
176
     1
 90
        0
176
     1
 90
        4
176
     1
 62
     7
176
     1
 62
   257
176
     1
 90
        1
176
     1
 90
        1
176
     1
 40
1.0
176
     1
 90
        8
176
     1
 62
     7
176
     1
 40
1.0
176
     1
 90
        1
176
     1
 90
        6
176
     1
 90
        2
176
     1
 62
     7
176
     1
 90
        5
176
     1
 90
        0
176
     1
 90
        0
176
     1
290
     0
176
     1
 90
        1
176
     1
 40
0.0
176
     1
 90
        0
176
     1
290
     0
176
     1
290
     1
176
     1
290
     1
176
     1
290
     0
176
     1
290
     0
176
     1
290
     0
176
     1
290
     0
176
     1
290
     0
176
     1
290
     0
176
     1
 90
       50
176
     1
 40
0.0
176
     1
 40
1.0
176
     1
 90
        0
176
     1
 62
    18
420
        0
176
     1
 90
       50
176
     1
 90
        3
176
     1
 62
     5
420
      255
176
     1
290
     0
176
     1
 90
       50
176
     1
 90
       50
176
     1
 90
       50
176
     1
290
     0
176
     1
 90
       50
176
     1
 62
   256
176
     0
 40
1.0
176
     0
 90
        2
176
     1
  1
strokes_ogs.tif
176
     1
290
     0
176
     1
 40
1.0
176
     1
 40
1.0
176
     1
  0
VISUALSTYLE
  5
36
102
{ACAD_REACTORS
330
2A
102
}
330
2A
100
AcDbVisualStyle
  2
Brighten
 70
    12
177
     3
291
     1
 70
    58
 90
        2
176
     1
 90
        2
176
     1
 90
        0
176
     1
 90
        0
176
     1
 40
0.6
176
     1
 40
30.0
176
     1
 62
     7
420
 16777215
176
     1
 90
        1
176
     1
 90
        4
176
     1
 62
     7
176
     1
 62
   257
176
     1
 90
        1
176
     1
 90
        1
176
     1
 40
1.0
176
     1
 90
        8
176
     1
 62
     7
176
     1
 40
1.0
176
     1
 90
        1
176
     1
 90
        6
176
     1
 90
        2
176
     1
 62
     7
176
     1
 90
        5
176
     1
 90
        0
176
     1
 90
        0
176
     1
290
     0
176
     1
 90
        1
176
     1
 40
50.0
176
     1
 90
        0
176
     1
290
     0
176
     1
290
     1
176
     1
290
     1
176
     1
290
     0
176
     1
290
     0
176
     1
290
     0
176
     1
290
     0
176
     1
290
     0
176
     1
290
     0
176
     1
 90
       50
176
     1
 40
0.0
176
     1
 40
1.0
176
     1
 90
        0
176
     1
 62
    18
420
        0
176
     1
 90
       50
176
     1
 90
        3
176
     1
 62
     5
420
      255
176
     1
290
     0
176
     1
 90
       50
176
     1
 90
       50
176
     1
 90
       50
176
     1
290
     0
176
     1
 90
       50
176
     1
 62
   256
176
     0
 40
1.0
176
     0
 90
        2
176
     1
  1
strokes_ogs.tif
176
     1
290
     0
176
     1
 40
1.0
176
     1
 40
1.0
176
     1
  0
VISUALSTYLE
  5
3A
102
{ACAD_REACTORS
330
2A
102
}
330
2A
100
AcDbVisualStyle
  2
ColorChange
 70
    16
177
     3
291
     1
 70
    58
 90
        2
176
     1
 90
        2
176
     1
 90
        3
176
     1
 90
        0
176
     1
 40
0.6
176
     1
 40
30.0
176
     1
 62
     8
420
  8421504
176
     1
 90
        1
176
     1
 90
        4
176
     1
 62
     7
176
     1
 62
   257
176
     1
 90
        1
176
     1
 90
        1
176
     1
 40
1.0
176
     1
 90
        8
176
     1
 62
     8
420
  8421504
176
     1
 40
1.0
176
     1
 90
        1
176
     1
 90
        6
176
     1
 90
        2
176
     1
 62
     7
176
     1
 90
        5
176
     1
 90
        0
176
     1
 90
        0
176
     1
290
     0
176
     1
 90
        1
176
     1
 40
0.0
176
     1
 90
        0
176
     1
290
     0
176
     1
290
     1
176
     1
290
     1
176
     1
290
     0
176
     1
290
     0
176
     1
290
     0
176
     1
290
     0
176
     1
290
     0
176
     1
290
     0
176
     1
 90
       50
176
     1
 40
0.0
176
     1
 40
1.0
176
     1
 90
        0
176
     1
 62
    18
420
        0
176
     1
 90
       50
176
     1
 90
        3
176
     1
 62
     5
420
      255
176
     1
290
     0
176
     1
 90
       50
176
     1
 90
       50
176
     1
 90
       50
176
     1
290
     0
176
     1
 90
       50
176
     1
 62
   256
176
     0
 40
1.0
176
     0
 90
        2
176
     1
  1
strokes_ogs.tif
176
     1
290
     0
176
     1
 40
1.0
176
     1
 40
1.0
176
     1
  0
VISUALSTYLE
  5
34
102
{ACAD_REACTORS
330
2A
102
}
330
2A
100
AcDbVisualStyle
  2
Conceptual
 70
     9
177
     3
291
     0
 70
    58
 90
        3
176
     1
 90
        2
176
     1
 90
        0
176
     1
 90
        0
176
     1
 40
0.6
176
     1
 40
30.0
176
     1
 62
     7
420
 16777215
176
     1
 90
        2
176
     1
 90
        2
176
     1
 62
     7
176
     1
 62
   257
176
     1
 90
        1
176
     1
 90
        1
176
     1
 40
179.0
176
     1
 90
        8
176
     1
 62
     7
176
     1
 40
1.0
176
     1
 90
        1
176
     1
 90
        6
176
     1
 90
        2
176
     1
 62
     7
176
     1
 90
        3
176
     1
 90
        0
176
     1
 90
        0
176
     1
290
     0
176
     1
 90
        1
176
     1
 40
0.0
176
     1
 90
        0
176
     1
290
     0
176
     1
290
     1
176
     1
290
     1
176
     1
290
     0
176
     1
290
     0
176
     1
290
     0
176
     1
290
     0
176
     1
290
     0
176
     1
290
     0
176
     1
 90
       50
176
     1
 40
0.0
176
     1
 40
1.0
176
     1
 90
        0
176
     1
 62
    18
420
        0
176
     1
 90
       50
176
     1
 90
        3
176
     1
 62
     5
420
      255
176
     1
290
     0
176
     1
 90
       50
176
     1
 90
       50
176
     1
 90
       50
176
     1
290
     0
176
     1
 90
       50
176
     1
 62
   256
176
     0
 40
1.0
176
     0
 90
        2
176
     1
  1
strokes_ogs.tif
176
     1
290
     0
176
     1
 40
1.0
176
     1
 40
1.0
176
     1
  0
VISUALSTYLE
  5
35
102
{ACAD_REACTORS
330
2A
102
}
330
2A
100
AcDbVisualStyle
  2
Dim
 70
    11
177
     3
291
     1
 70
    58
 90
        2
176
     1
 90
        2
176
     1
 90
        0
176
     1
 90
        0
176
     1
 40
0.6
176
     1
 40
30.0
176
     1
 62
     7
420
 16777215
176
     1
 90
        1
176
     1
 90
        4
176
     1
 62
     7
176
     1
 62
   257
176
     1
 90
        1
176
     1
 90
        1
176
     1
 40
1.0
176
     1
 90
        8
176
     1
 62
     7
176
     1
 40
1.0
176
     1
 90
        1
176
     1
 90
        6
176
     1
 90
        2
176
     1
 62
     7
176
     1
 90
        5
176
     1
 90
        0
176
     1
 90
        0
176
     1
290
     0
176
     1
 90
        1
176
     1
 40
-50.0
176
     1
 90
        0
176
     1
290
     0
176
     1
290
     1
176
     1
290
     1
176
     1
290
     0
176
     1
290
     0
176
     1
290
     0
176
     1
290
     0
176
     1
290
     0
176
     1
290
     0
176
     1
 90
       50
176
     1
 40
0.0
176
     1
 40
1.0
176
     1
 90
        0
176
     1
 62
    18
420
        0
176
     1
 90
       50
176
     1
 90
        3
176
     1
 62
     5
420
      255
176
     1
290
     0
176
     1
 90
       50
176
     1
 90
       50
176
     1
 90
       50
176
     1
290
     0
176
     1
 90
       50
176
     1
 62
   256
176
     0
 40
1.0
176
     0
 90
        2
176
     1
  1
strokes_ogs.tif
176
     1
290
     0
176
     1
 40
1.0
176
     1
 40
1.0
176
     1
  0
VISUALSTYLE
  5
3D
102
{ACAD_REACTORS
330
2A
102
}
330
2A
100
AcDbVisualStyle
  2
EdgeColorOff
 70
    22
177
     3
291
     1
 70
    58
 90
        2
176
     0
 90
        2
176
     0
 90
        0
176
     0
 90
        0
176
     0
 40
0.6
176
     0
 40
30.0
176
     0
 62
     7
420
 16777215
176
     0
 90
        1
176
     0
 90
        4
176
     0
 62
     7
176
     0
 62
   257
176
     0
 90
        1
176
     0
 90
        1
176
     0
 40
1.0
176
     0
 90
        8
176
     2
 62
     7
176
     0
 40
1.0
176
     0
 90
        1
176
     0
 90
        6
176
     0
 90
        2
176
     0
 62
     7
176
     0
 90
        5
176
     0
 90
        0
176
     0
 90
        0
176
     0
290
     0
176
     0
 90
        1
176
     0
 40
0.0
176
     0
 90
        0
176
     0
290
     0
176
     0
290
     1
176
     0
290
     1
176
     0
290
     0
176
     0
290
     0
176
     0
290
     0
176
     0
290
     0
176
     0
290
     0
176
     0
290
     0
176
     0
 90
       50
176
     0
 40
0.0
176
     0
 40
1.0
176
     0
 90
        0
176
     0
 62
    18
420
        0
176
     0
 90
       50
176
     0
 90
        3
176
     0
 62
     5
420
      255
176
     0
290
     0
176
     0
 90
       50
176
     0
 90
       50
176
     0
 90
       50
176
     0
290
     0
176
     0
 90
       50
176
     0
 62
   256
176
     0
 40
1.0
176
     0
 90
        2
176
     0
  1
strokes_ogs.tif
176
     0
290
     0
176
     0
 40
1.0
176
     0
 40
1.0
176
     0
  0
VISUALSTYLE
  5
39
102
{ACAD_REACTORS
330
2A
102
}
330
2A
100
AcDbVisualStyle
  2
Facepattern
 70
    15
177
     3
291
     1
 70
    58
 90
        2
176
     1
 90
        2
176
     1
 90
        0
176
     1
 90
        0
176
     1
 40
0.6
176
     1
 40
30.0
176
     1
 62
     7
420
 16777215
176
     1
 90
        1
176
     1
 90
        4
176
     1
 62
     7
176
     1
 62
   257
176
     1
 90
        1
176
     1
 90
        1
176
     1
 40
1.0
176
     1
 90
        8
176
     1
 62
     7
176
     1
 40
1.0
176
     1
 90
        1
176
     1
 90
        6
176
     1
 90
        2
176
     1
 62
     7
176
     1
 90
        5
176
     1
 90
        0
176
     1
 90
        0
176
     1
290
     0
176
     1
 90
        1
176
     1
 40
0.0
176
     1
 90
        0
176
     1
290
     0
176
     1
290
     1
176
     1
290
     1
176
     1
290
     0
176
     1
290
     0
176
     1
290
     0
176
     1
290
     0
176
     1
290
     0
176
     1
290
     0
176
     1
 90
       50
176
     1
 40
0.0
176
     1
 40
1.0
176
     1
 90
        0
176
     1
 62
    18
420
        0
176
     1
 90
       50
176
     1
 90
        3
176
     1
 62
     5
420
      255
176
     1
290
     0
176
     1
 90
       50
176
     1
 90
       50
176
     1
 90
       50
176
     1
290
     0
176
     1
 90
       50
176
     1
 62
   256
176
     0
 40
1.0
176
     0
 90
        2
176
     1
  1
strokes_ogs.tif
176
     1
290
     0
176
     1
 40
1.0
176
     1
 40
1.0
176
     1
  0
VISUALSTYLE
  5
2B
102
{ACAD_REACTORS
330
2A
102
}
330
2A
100
AcDbVisualStyle
  2
Flat
 70
     0
177
     3
291
     1
 70
    58
 90
        2
176
     1
 90
        1
176
     1
 90
        1
176
     1
 90
        2
176
     1
 40
0.6
176
     1
 40
30.0
176
     1
 62
     7
420
 16777215
176
     1
 90
        0
176
     1
 90
        0
176
     1
 62
     7
176
     1
 62
   257
176
     1
 90
        1
176
     1
 90
        1
176
     1
 40
1.0
176
     1
 90
        8
176
     1
 62
     7
176
     1
 40
1.0
176
     1
 90
        1
176
     1
 90
        6
176
     1
 90
        2
176
     1
 62
     7
176
     1
 90
        5
176
     1
 90
        0
176
     1
 90
        0
176
     1
290
     0
176
     1
 90
       13
176
     1
 40
0.0
176
     1
 90
        0
176
     1
290
     0
176
     1
290
     1
176
     1
290
     1
176
     1
290
     0
176
     1
290
     0
176
     1
290
     0
176
     1
290
     0
176
     1
290
     0
176
     1
290
     0
176
     1
 90
       50
176
     1
 40
0.0
176
     1
 40
1.0
176
     1
 90
        0
176
     1
 62
    18
420
        0
176
     1
 90
       50
176
     1
 90
        3
176
     1
 62
     5
420
      255
176
     1
290
     0
176
     1
 90
       50
176
     1
 90
       50
176
     1
 90
       50
176
     1
290
     0
176
     1
 90
       50
176
     1
 62
   256
176
     0
 40
1.0
176
     0
 90
        2
176
     1
  1
strokes_ogs.tif
176
     1
290
     0
176
     1
 40
1.0
176
     1
 40
1.0
176
     1
  0
VISUALSTYLE
  5
2C
102
{ACAD_REACTORS
330
2A
102
}
330
2A
100
AcDbVisualStyle
  2
FlatWithEdges
 70
     1
177
     3
291
     1
 70
    58
 90
        2
176
     1
 90
        1
176
     1
 90
        1
176
     1
 90
        2
176
     1
 40
0.6
176
     1
 40
30.0
176
     1
 62
     7
420
 16777215
176
     1
 90
        1
176
     1
 90
        0
176
     1
 62
     7
176
     1
 62
   257
176
     1
 90
        1
176
     1
 90
        1
176
     1
 40
1.0
176
     1
 90
        0
176
     1
 62
   257
176
     1
 40
1.0
176
     1
 90
        1
176
     1
 90
        6
176
     1
 90
        2
176
     1
 62
     7
176
     1
 90
        5
176
     1
 90
        0
176
     1
 90
        0
176
     1
290
     0
176
     1
 90
       13
176
     1
 40
0.0
176
     1
 90
        0
176
     1
290
     0
176
     1
290
     1
176
     1
290
     1
176
     1
290
     0
176
     1
290
     0
176
     1
290
     0
176
     1
290
     0
176
     1
290
     0
176
     1
290
     0
176
     1
 90
       50
176
     1
 40
0.0
176
     1
 40
1.0
176
     1
 90
        0
176
     1
 62
    18
420
        0
176
     1
 90
       50
176
     1
 90
        3
176
     1
 62
     5
420
      255
176
     1
290
     0
176
     1
 90
       50
176
     1
 90
       50
176
     1
 90
       50
176
     1
290
     0
176
     1
 90
       50
176
     1
 62
   256
176
     0
 40
1.0
176
     0
 90
        2
176
     1
  1
strokes_ogs.tif
176
     1
290
     0
176
     1
 40
1.0
176
     1
 40
1.0
176
     1
  0
VISUALSTYLE
  5
2D
102
{ACAD_REACTORS
330
2A
102
}
330
2A
100
AcDbVisualStyle
  2
Gouraud
 70
     2
177
     3
291
     1
 70
    58
 90
        2
176
     1
 90
        2
176
     1
 90
        1
176
     1
 90
        2
176
     1
 40
0.6
176
     1
 40
30.0
176
     1
 62
     7
420
 16777215
176
     1
 90
        0
176
     1
 90
        0
176
     1
 62
     7
176
     1
 62
   257
176
     1
 90
        1
176
     1
 90
        1
176
     1
 40
1.0
176
     1
 90
        0
176
     1
 62
     7
176
     1
 40
1.0
176
     1
 90
        1
176
     1
 90
        6
176
     1
 90
        2
176
     1
 62
     7
176
     1
 90
        5
176
     1
 90
        0
176
     1
 90
        0
176
     1
290
     0
176
     1
 90
       13
176
     1
 40
0.0
176
     1
 90
        0
176
     1
290
     0
176
     1
290
     1
176
     1
290
     1
176
     1
290
     0
176
     1
290
     0
176
     1
290
     0
176
     1
290
     0
176
     1
290
     0
176
     1
290
     0
176
     1
 90
       50
176
     1
 40
0.0
176
     1
 40
1.0
176
     1
 90
        0
176
     1
 62
    18
420
        0
176
     1
 90
       50
176
     1
 90
        3
176
     1
 62
     5
420
      255
176
     1
290
     0
176
     1
 90
       50
176
     1
 90
       50
176
     1
 90
       50
176
     1
290
     0
176
     1
 90
       50
176
     1
 62
   256
176
     0
 40
1.0
176
     0
 90
        2
176
     1
  1
strokes_ogs.tif
176
     1
290
     0
176
     1
 40
1.0
176
     1
 40
1.0
176
     1
  0
VISUALSTYLE
  5
2E
102
{ACAD_REACTORS
330
2A
102
}
330
2A
100
AcDbVisualStyle
  2
GouraudWithEdges
 70
     3
177
     3
291
     1
 70
    58
 90
        2
176
     1
 90
        2
176
     1
 90
        1
176
     1
 90
        2
176
     1
 40
0.6
176
     1
 40
30.0
176
     1
 62
     7
420
 16777215
176
     1
 90
        1
176
     1
 90
        0
176
     1
 62
     7
176
     1
 62
   257
176
     1
 90
        1
176
     1
 90
        1
176
     1
 40
1.0
176
     1
 90
        0
176
     1
 62
   257
176
     1
 40
1.0
176
     1
 90
        1
176
     1
 90
        6
176
     1
 90
        2
176
     1
 62
     7
176
     1
 90
        5
176
     1
 90
        0
176
     1
 90
        0
176
     1
290
     0
176
     1
 90
       13
176
     1
 40
0.0
176
     1
 90
        0
176
     1
290
     0
176
     1
290
     1
176
     1
290
     1
176
     1
290
     0
176
     1
290
     0
176
     1
290
     0
176
     1
290
     0
176
     1
290
     0
176
     1
290
     0
176
     1
 90
       50
176
     1
 40
0.0
176
     1
 40
1.0
176
     1
 90
        0
176
     1
 62
    18
420
        0
176
     1
 90
       50
176
     1
 90
        3
176
     1
 62
     5
420
      255
176
     1
290
     0
176
     1
 90
       50
176
     1
 90
       50
176
     1
 90
       50
176
     1
290
     0
176
     1
 90
       50
176
     1
 62
   256
176
     0
 40
1.0
176
     0
 90
        2
176
     1
  1
strokes_ogs.tif
176
     1
290
     0
176
     1
 40
1.0
176
     1
 40
1.0
176
     1
  0
VISUALSTYLE
  5
31
102
{ACAD_REACTORS
330
2A
102
}
330
2A
100
AcDbVisualStyle
  2
Hidden
 70
     6
177
     3
291
     0
 70
    58
 90
        1
176
     1
 90
        2
176
     1
 90
        2
176
     1
 90
        0
176
     1
 40
0.6
176
     1
 40
30.0
176
     1
 62
     7
420
 16777215
176
     1
 90
        2
176
     1
 90
        2
176
     1
 62
     7
176
     1
 62
   257
176
     1
 90
        2
176
     1
 90
        1
176
     1
 40
40.0
176
     1
 90
        0
176
     1
 62
   257
176
     1
 40
1.0
176
     1
 90
        1
176
     1
 90
        6
176
     1
 90
        2
176
     1
 62
     7
176
     1
 90
        3
176
     1
 90
        0
176
     1
 90
        0
176
     1
290
     0
176
     1
 90
        1
176
     1
 40
0.0
176
     1
 90
        0
176
     1
290
     0
176
     1
290
     1
176
     1
290
     1
176
     1
290
     0
176
     1
290
     0
176
     1
290
     0
176
     1
290
     0
176
     1
290
     0
176
     1
290
     0
176
     1
 90
       50
176
     1
 40
0.0
176
     1
 40
1.0
176
     1
 90
        0
176
     1
 62
    18
420
        0
176
     1
 90
       50
176
     1
 90
        3
176
     1
 62
     5
420
      255
176
     1
290
     0
176
     1
 90
       50
176
     1
 90
       50
176
     1
 90
       50
176
     1
290
     0
176
     1
 90
       50
176
     1
 62
   256
176
     0
 40
1.0
176
     0
 90
        2
176
     1
  1
strokes_ogs.tif
176
     1
290
     0
176
     1
 40
1.0
176
     1
 40
1.0
176
     1
  0
VISUALSTYLE
  5
3B
102
{ACAD_REACTORS
330
2A
102
}
330
2A
100
AcDbVisualStyle
  2
JitterOff
 70
    20
177
     3
291
     1
 70
    58
 90
        2
176
     0
 90
        2
176
     0
 90
        0
176
     0
 90
        0
176
     0
 40
0.6
176
     0
 40
30.0
176
     0
 62
     7
420
 16777215
176
     0
 90
        1
176
     0
 90
        4
176
     0
 62
     7
176
     0
 62
   257
176
     0
 90
        1
176
     0
 90
        1
176
     0
 40
1.0
176
     0
 90
       10
176
     2
 62
     7
176
     0
 40
1.0
176
     0
 90
        1
176
     0
 90
        6
176
     0
 90
        2
176
     0
 62
     7
176
     0
 90
        5
176
     0
 90
        0
176
     0
 90
        0
176
     0
290
     0
176
     0
 90
        1
176
     0
 40
0.0
176
     0
 90
        0
176
     0
290
     0
176
     0
290
     1
176
     0
290
     1
176
     0
290
     0
176
     0
290
     0
176
     0
290
     0
176
     0
290
     0
176
     0
290
     0
176
     0
290
     0
176
     0
 90
       50
176
     0
 40
0.0
176
     0
 40
1.0
176
     0
 90
        0
176
     0
 62
    18
420
        0
176
     0
 90
       50
176
     0
 90
        3
176
     0
 62
     5
420
      255
176
     0
290
     0
176
     0
 90
       50
176
     0
 90
       50
176
     0
 90
       50
176
     0
290
     0
176
     0
 90
       50
176
     0
 62
   256
176
     0
 40
1.0
176
     0
 90
        2
176
     0
  1
strokes_ogs.tif
176
     0
290
     0
176
     0
 40
1.0
176
     0
 40
1.0
176
     0
  0
VISUALSTYLE
  5
38
102
{ACAD_REACTORS
330
2A
102
}
330
2A
100
AcDbVisualStyle
  2
Linepattern
 70
    14
177
     3
291
     1
 70
    58
 90
        2
176
     1
 90
        2
176
     1
 90
        0
176
     1
 90
        0
176
     1
 40
0.6
176
     1
 40
30.0
176
     1
 62
     7
420
 16777215
176
     1
 90
        1
176
     1
 90
        4
176
     1
 62
     7
176
     1
 62
   257
176
     1
 90
        7
176
     1
 90
        7
176
     1
 40
1.0
176
     1
 90
        8
176
     1
 62
     7
176
     1
 40
1.0
176
     1
 90
        1
176
     1
 90
        6
176
     1
 90
        2
176
     1
 62
     7
176
     1
 90
        5
176
     1
 90
        0
176
     1
 90
        0
176
     1
290
     0
176
     1
 90
        1
176
     1
 40
0.0
176
     1
 90
        0
176
     1
290
     0
176
     1
290
     1
176
     1
290
     1
176
     1
290
     0
176
     1
290
     0
176
     1
290
     0
176
     1
290
     0
176
     1
290
     0
176
     1
290
     0
176
     1
 90
       50
176
     1
 40
0.0
176
     1
 40
1.0
176
     1
 90
        0
176
     1
 62
    18
420
        0
176
     1
 90
       50
176
     1
 90
        3
176
     1
 62
     5
420
      255
176
     1
290
     0
176
     1
 90
       50
176
     1
 90
       50
176
     1
 90
       50
176
     1
290
     0
176
     1
 90
       50
176
     1
 62
   256
176
     0
 40
1.0
176
     0
 90
        2
176
     1
  1
strokes_ogs.tif
176
     1
290
     0
176
     1
 40
1.0
176
     1
 40
1.0
176
     1
  0
VISUALSTYLE
  5
3C
102
{ACAD_REACTORS
330
2A
102
}
330
2A
100
AcDbVisualStyle
  2
OverhangOff
 70
    21
177
     3
291
     1
 70
    58
 90
        2
176
     0
 90
        2
176
     0
 90
        0
176
     0
 90
        0
176
     0
 40
0.6
176
     0
 40
30.0
176
     0
 62
     7
420
 16777215
176
     0
 90
        1
176
     0
 90
        4
176
     0
 62
     7
176
     0
 62
   257
176
     0
 90
        1
176
     0
 90
        1
176
     0
 40
1.0
176
     0
 90
        9
176
     2
 62
     7
176
     0
 40
1.0
176
     0
 90
        1
176
     0
 90
        6
176
     0
 90
        2
176
     0
 62
     7
176
     0
 90
        5
176
     0
 90
        0
176
     0
 90
        0
176
     0
290
     0
176
     0
 90
        1
176
     0
 40
0.0
176
     0
 90
        0
176
     0
290
     0
176
     0
290
     1
176
     0
290
     1
176
     0
290
     0
176
     0
290
     0
176
     0
290
     0
176
     0
290
     0
176
     0
290
     0
176
     0
290
     0
176
     0
 90
       50
176
     0
 40
0.0
176
     0
 40
1.0
176
     0
 90
        0
176
     0
 62
    18
420
        0
176
     0
 90
       50
176
     0
 90
        3
176
     0
 62
     5
420
      255
176
     0
290
     0
176
     0
 90
       50
176
     0
 90
       50
176
     0
 90
       50
176
     0
290
     0
176
     0
 90
       50
176
     0
 62
   256
176
     0
 40
1.0
176
     0
 90
        2
176
     0
  1
strokes_ogs.tif
176
     0
290
     0
176
     0
 40
1.0
176
     0
 40
1.0
176
     0
  0
VISUALSTYLE
  5
33
102
{ACAD_REACTORS
330
2A
102
}
330
2A
100
AcDbVisualStyle
  2
Realistic
 70
     8
177
     3
291
     0
 70
    58
 90
        2
176
     1
 90
        3
176
     1
 90
        0
176
     1
 90
        2
176
     1
 40
0.6
176
     1
 40
30.0
176
     1
 62
     7
420
 16777215
176
     1
 90
        0
176
     1
 90
        0
176
     1
 62
     7
176
     1
 62
   257
176
     1
 90
        1
176
     1
 90
        1
176
     1
 40
1.0
176
     1
 90
        8
176
     1
 62
   257
176
     1
 40
1.0
176
     1
 90
        1
176
     1
 90
        6
176
     1
 90
        2
176
     1
 62
     7
176
     1
 90
        3
176
     1
 90
        0
176
     1
 90
        0
176
     1
290
     0
176
     1
 90
       13
176
     1
 40
0.0
176
     1
 90
        0
176
     1
290
     0
176
     1
290
     1
176
     1
290
     1
176
     1
290
     0
176
     1
290
     0
176
     1
290
     0
176
     1
290
     0
176
     1
290
     0
176
     1
290
     0
176
     1
 90
       50
176
     1
 40
0.0
176
     1
 40
1.0
176
     1
 90
        0
176
     1
 62
    18
420
        0
176
     1
 90
       50
176
     1
 90
        3
176
     1
 62
     5
420
      255
176
     1
290
     0
176
     1
 90
       50
176
     1
 90
       50
176
     1
 90
       50
176
     1
290
     0
176
     1
 90
       50
176
     1
 62
   256
176
     0
 40
1.0
176
     0
 90
        2
176
     1
  1
strokes_ogs.tif
176
     1
290
     0
176
     1
 40
1.0
176
     1
 40
1.0
176
     1
  0
VISUALSTYLE
  5
42
102
{ACAD_REACTORS
330
2A
102
}
330
2A
100
AcDbVisualStyle
  2
Shaded
 70
    27
177
     3
291
     0
 70
    58
 90
        2
176
     1
 90
        2
176
     1
 90
        1
176
     1
 90
        2
176
     1
 40
0.6
176
     1
 40
30.0
176
     1
 62
     7
420
 16777215
176
     1
 90
        0
176
     1
 90
        4
176
     1
 62
     7
176
     1
 62
   257
176
     1
 90
        1
176
     1
 90
        1
176
     1
 40
1.0
176
     1
 90
        8
176
     1
 62
   257
176
     1
 40
1.0
176
     1
 90
        1
176
     1
 90
        6
176
     1
 90
        2
176
     1
 62
     8
420
  7895160
176
     1
 90
        3
176
     1
 90
        0
176
     1
 90
        0
176
     1
290
     0
176
     1
 90
        5
176
     1
 40
0.0
176
     1
 90
        0
176
     1
290
     0
176
     1
290
     1
176
     1
290
     1
176
     1
290
     0
176
     1
290
     0
176
     1
290
     0
176
     1
290
     0
176
     1
290
     0
176
     1
290
     0
176
     1
 90
       50
176
     1
 40
0.0
176
     1
 40
1.0
176
     1
 90
        0
176
     1
 62
    18
420
        0
176
     1
 90
       50
176
     1
 90
        3
176
     1
 62
     5
420
      255
176
     1
290
     0
176
     1
 90
       50
176
     1
 90
       50
176
     1
 90
       50
176
     1
290
     0
176
     1
 90
       50
176
     1
 62
   256
176
     0
 40
1.0
176
     0
 90
        2
176
     1
  1
strokes_ogs.tif
176
     1
290
     0
176
     1
 40
1.0
176
     1
 40
1.0
176
     1
  0
VISUALSTYLE
  5
41
102
{ACAD_REACTORS
330
2A
102
}
330
2A
100
AcDbVisualStyle
  2
Shaded with edges
 70
    26
177
     3
291
     0
 70
    58
 90
        2
176
     1
 90
        2
176
     1
 90
        1
176
     1
 90
        2
176
     1
 40
0.6
176
     1
 40
30.0
176
     1
 62
     7
420
 16777215
176
     1
 90
        1
176
     1
 90
       10
176
     1
 62
     7
176
     1
 62
   257
176
     1
 90
        2
176
     1
 90
        1
176
     1
 40
1.0
176
     1
 90
        8
176
     1
 62
   257
176
     1
 40
1.0
176
     1
 90
        1
176
     1
 90
        6
176
     1
 90
        2
176
     1
 62
     7
176
     1
 90
        3
176
     1
 90
        0
176
     1
 90
        0
176
     1
290
     0
176
     1
 90
        5
176
     1
 40
0.0
176
     1
 90
        0
176
     1
290
     0
176
     1
290
     1
176
     1
290
     1
176
     1
290
     0
176
     1
290
     0
176
     1
290
     0
176
     1
290
     0
176
     1
290
     0
176
     1
290
     0
176
     1
 90
       50
176
     1
 40
0.0
176
     1
 40
1.0
176
     1
 90
        0
176
     1
 62
    18
420
        0
176
     1
 90
       50
176
     1
 90
        3
176
     1
 62
     5
420
      255
176
     1
290
     0
176
     1
 90
       50
176
     1
 90
       50
176
     1
 90
       50
176
     1
290
     0
176
     1
 90
       50
176
     1
 62
   256
176
     0
 40
1.0
176
     0
 90
        2
176
     1
  1
strokes_ogs.tif
176
     1
290
     0
176
     1
 40
1.0
176
     1
 40
1.0
176
     1
  0
VISUALSTYLE
  5
3E
102
{ACAD_REACTORS
330
2A
102
}
330
2A
100
AcDbVisualStyle
  2
Shades of Gray
 70
    23
177
     3
291
     0
 70
    58
 90
        2
176
     1
 90
        2
176
     1
 90
        3
176
     1
 90
        0
176
     1
 40
0.6
176
     1
 40
30.0
176
     1
 62
     7
420
 16777215
176
     1
 90
        2
176
     1
 90
        2
176
     1
 62
     7
176
     1
 62
     7
176
     1
 90
        1
176
     1
 90
        1
176
     1
 40
40.0
176
     1
 90
        8
176
     1
 62
     7
176
     1
 40
1.0
176
     1
 90
        1
176
     1
 90
        6
176
     1
 90
        2
176
     1
 62
     7
176
     1
 90
        3
176
     1
 90
        0
176
     1
 90
        0
176
     1
290
     0
176
     1
 90
        1
176
     1
 40
0.0
176
     1
 90
        0
176
     1
290
     0
176
     1
290
     1
176
     1
290
     1
176
     1
290
     0
176
     1
290
     0
176
     1
290
     0
176
     1
290
     0
176
     1
290
     0
176
     1
290
     0
176
     1
 90
       50
176
     1
 40
0.0
176
     1
 40
1.0
176
     1
 90
        0
176
     1
 62
    18
420
        0
176
     1
 90
       50
176
     1
 90
        3
176
     1
 62
     5
420
      255
176
     1
290
     0
176
     1
 90
       50
176
     1
 90
       50
176
     1
 90
       50
176
     1
290
     0
176
     1
 90
       50
176
     1
 62
   256
176
     0
 40
1.0
176
     0
 90
        2
176
     1
  1
strokes_ogs.tif
176
     1
290
     0
176
     1
 40
1.0
176
     1
 40
1.0
176
     1
  0
VISUALSTYLE
  5
3F
102
{ACAD_REACTORS
330
2A
102
}
330
2A
100
AcDbVisualStyle
  2
Sketchy
 70
    24
177
     3
291
     0
 70
    58
 90
        1
176
     1
 90
        2
176
     1
 90
        2
176
     1
 90
        0
176
     1
 40
0.6
176
     1
 40
30.0
176
     1
 62
     7
420
 16777215
176
     1
 90
        2
176
     1
 90
        2
176
     1
 62
     7
176
     1
 62
     7
176
     1
 90
        1
176
     1
 90
        1
176
     1
 40
40.0
176
     1
 90
       11
176
     1
 62
     7
176
     1
 40
1.0
176
     1
 90
        1
176
     1
 90
        6
176
     1
 90
        2
176
     1
 62
     7
176
     1
 90
        6
176
     1
 90
        0
176
     1
 90
        0
176
     1
290
     0
176
     1
 90
        1
176
     1
 40
0.0
176
     1
 90
        0
176
     1
290
     0
176
     1
290
     1
176
     1
290
     1
176
     1
290
     0
176
     1
290
     0
176
     1
290
     0
176
     1
290
     0
176
     1
290
     0
176
     1
290
     0
176
     1
 90
       50
176
     1
 40
0.0
176
     1
 40
1.0
176
     1
 90
        0
176
     1
 62
    18
420
        0
176
     1
 90
       50
176
     1
 90
        3
176
     1
 62
     5
420
      255
176
     1
290
     0
176
     1
 90
       50
176
     1
 90
       50
176
     1
 90
       50
176
     1
290
     0
176
     1
 90
       50
176
     1
 62
   256
176
     0
 40
1.0
176
     0
 90
        2
176
     1
  1
strokes_ogs.tif
176
     1
290
     0
176
     1
 40
1.0
176
     1
 40
1.0
176
     1
  0
VISUALSTYLE
  5
37
102
{ACAD_REACTORS
330
2A
102
}
330
2A
100
AcDbVisualStyle
  2
Thicken
 70
    13
177
     3
291
     1
 70
    58
 90
        2
176
     1
 90
        2
176
     1
 90
        0
176
     1
 90
        0
176
     1
 40
0.6
176
     1
 40
30.0
176
     1
 62
     7
420
 16777215
176
     1
 90
        1
176
     1
 90
        4
176
     1
 62
     7
176
     1
 62
   257
176
     1
 90
        1
176
     1
 90
        1
176
     1
 40
1.0
176
     1
 90
       12
176
     1
 62
     7
176
     1
 40
1.0
176
     1
 90
        1
176
     1
 90
        6
176
     1
 90
        2
176
     1
 62
     7
176
     1
 90
        5
176
     1
 90
        0
176
     1
 90
        0
176
     1
290
     0
176
     1
 90
        1
176
     1
 40
0.0
176
     1
 90
        0
176
     1
290
     0
176
     1
290
     1
176
     1
290
     1
176
     1
290
     0
176
     1
290
     0
176
     1
290
     0
176
     1
290
     0
176
     1
290
     0
176
     1
290
     0
176
     1
 90
       50
176
     1
 40
0.0
176
     1
 40
1.0
176
     1
 90
        0
176
     1
 62
    18
420
        0
176
     1
 90
       50
176
     1
 90
        3
176
     1
 62
     5
420
      255
176
     1
290
     0
176
     1
 90
       50
176
     1
 90
       50
176
     1
 90
       50
176
     1
290
     0
176
     1
 90
       50
176
     1
 62
   256
176
     0
 40
1.0
176
     0
 90
        2
176
     1
  1
strokes_ogs.tif
176
     1
290
     0
176
     1
 40
1.0
176
     1
 40
1.0
176
     1
  0
VISUALSTYLE
  5
30
102
{ACAD_REACTORS
330
2A
102
}
330
2A
100
AcDbVisualStyle
  2
Wireframe
 70
     5
177
     3
291
     0
 70
    58
 90
        0
176
     1
 90
        2
176
     1
 90
        0
176
     1
 90
        0
176
     1
 40
0.6
176
     1
 40
30.0
176
     1
 62
     7
420
 16777215
176
     1
 90
        1
176
     1
 90
        4
176
     1
 62
     7
176
     1
 62
   257
176
     1
 90
        1
176
     1
 90
        1
176
     1
 40
1.0
176
     1
 90
        0
176
     1
 62
   257
176
     1
 40
1.0
176
     1
 90
        1
176
     1
 90
        6
176
     1
 90
        2
176
     1
 62
     7
176
     1
 90
        3
176
     1
 90
        0
176
     1
 90
        0
176
     1
290
     0
176
     1
 90
        1
176
     1
 40
0.0
176
     1
 90
        0
176
     1
290
     0
176
     1
290
     1
176
     1
290
     1
176
     1
290
     0
176
     1
290
     0
176
     1
290
     0
176
     1
290
     0
176
     1
290
     0
176
     1
290
     0
176
     1
 90
       50
176
     1
 40
0.0
176
     1
 40
1.0
176
     1
 90
        0
176
     1
 62
    18
420
        0
176
     1
 90
       50
176
     1
 90
        3
176
     1
 62
     5
420
      255
176
     1
290
     0
176
     1
 90
       50
176
     1
 90
       50
176
     1
 90
       50
176
     1
290
     0
176
     1
 90
       50
176
     1
 62
   256
176
     0
 40
1.0
176
     0
 90
        2
176
     1
  1
strokes_ogs.tif
176
     1
290
     0
176
     1
 40
1.0
176
     1
 40
1.0
176
     1
  0
VISUALSTYLE
  5
40
102
{ACAD_REACTORS
330
2A
102
}
330
2A
100
AcDbVisualStyle
  2
X-Ray
 70
    25
177
     3
291
     0
 70
    58
 90
        2
176
     1
 90
        2
176
     1
 90
        1
176
     1
 90
        1
176
     1
 40
0.5
176
     1
 40
30.0
176
     1
 62
     7
420
 16777215
176
     1
 90
        1
176
     1
 90
        0
176
     1
 62
     7
176
     1
 62
   257
176
     1
 90
        1
176
     1
 90
        1
176
     1
 40
1.0
176
     1
 90
        8
176
     1
 62
     7
176
     1
 40
1.0
176
     1
 90
        1
176
     1
 90
        6
176
     1
 90
        2
176
     1
 62
     7
176
     1
 90
        3
176
     1
 90
        0
176
     1
 90
        0
176
     1
290
     0
176
     1
 90
       13
176
     1
 40
0.0
176
     1
 90
        0
176
     1
290
     0
176
     1
290
     1
176
     1
290
     1
176
     1
290
     0
176
     1
290
     0
176
     1
290
     0
176
     1
290
     0
176
     1
290
     0
176
     1
290
     0
176
     1
 90
       50
176
     1
 40
0.0
176
     1
 40
1.0
176
     1
 90
        0
176
     1
 62
    18
420
        0
176
     1
 90
       50
176
     1
 90
        3
176
     1
 62
     5
420
      255
176
     1
290
     0
176
     1
 90
       50
176
     1
 90
       50
176
     1
 90
       50
176
     1
290
     0
176
     1
 90
       50
176
     1
 62
   256
176
     0
 40
1.0
176
     0
 90
        2
176
     1
  1
strokes_ogs.tif
176
     1
290
     0
176
     1
 40
1.0
176
     1
 40
1.0
176
     1
  0
DICTIONARYVAR
  5
4C4
102
{ACAD_REACTORS
330
4C3
102
}
330
4C3
100
DictionaryVariables
280
     0
  1
1:1
  0
DICTIONARYVAR
  5
4CC
102
{ACAD_REACTORS
330
4C3
102
}
330
4C3
100
DictionaryVariables
280
     0
  1
3.500000
  0
DICTIONARYVAR
  5
4CD
102
{ACAD_REACTORS
330
4C3
102
}
330
4C3
100
DictionaryVariables
280
     0
  1
acadiso.lin
  0
DICTIONARYVAR
  5
4C9
102
{ACAD_REACTORS
330
4C3
102
}
330
4C3
100
DictionaryVariables
280
     0
  1
Standard
  0
DICTIONARYVAR
  5
4C8
102
{ACAD_REACTORS
330
4C3
102
}
330
4C3
100
DictionaryVariables
280
     0
  1
Standard
  0
DICTIONARY
  5
4C5
330
6A
100
AcDbDictionary
280
     1
281
     1
  3
ACAD_ROUNDTRIP_2008_TABLESTYLE_CELLSTYLEMAP
360
4C6
  0
CELLSTYLEMAP
  5
4C6
102
{ACAD_REACTORS
330
4C5
102
}
330
4C5
100
AcDbCellStyleMap
 90
        3
300
CELLSTYLE
  1
TABLEFORMAT_BEGIN
 90
        5
170
     1
 91
        0
 92
    32768
 62
   257
 93
        1
300
CONTENTFORMAT
  1
CONTENTFORMAT_BEGIN
 90
        0
 91
        0
 92
        4
 93
        0
300

 40
0.0
140
1.0
 94
        5
 62
     0
340
11
144
6.0
309
CONTENTFORMAT_END
171
     1
301
MARGIN
  1
CELLMARGIN_BEGIN
 40
1.5
 40
1.5
 40
1.5
 40
1.5
 40
1.5
 40
1.5
309
CELLMARGIN_END
 94
        6
 95
        1
302
GRIDFORMAT
  1
GRIDFORMAT_BEGIN
 90
        0
 91
        1
 62
     0
 92
       -2
340
14
 93
        0
 40
0.045
309
GRIDFORMAT_END
 95
        2
302
GRIDFORMAT
  1
GRIDFORMAT_BEGIN
 90
        0
 91
        1
 62
     0
 92
       -2
340
14
 93
        0
 40
0.045
309
GRIDFORMAT_END
 95
        4
302
GRIDFORMAT
  1
GRIDFORMAT_BEGIN
 90
        0
 91
        1
 62
     0
 92
       -2
340
14
 93
        0
 40
0.045
309
GRIDFORMAT_END
 95
        8
302
GRIDFORMAT
  1
GRIDFORMAT_BEGIN
 90
        0
 91
        1
 62
     0
 92
       -2
340
14
 93
        0
 40
0.045
309
GRIDFORMAT_END
 95
       16
302
GRIDFORMAT
  1
GRIDFORMAT_BEGIN
 90
        0
 91
        1
 62
     0
 92
       -2
340
14
 93
        0
 40
0.045
309
GRIDFORMAT_END
 95
       32
302
GRIDFORMAT
  1
GRIDFORMAT_BEGIN
 90
        0
 91
        1
 62
     0
 92
       -2
340
14
 93
        0
 40
0.045
309
GRIDFORMAT_END
309
TABLEFORMAT_END
  1
CELLSTYLE_BEGIN
 90
        1
 91
        1
300
_TITLE
309
CELLSTYLE_END
300
CELLSTYLE
  1
TABLEFORMAT_BEGIN
 90
        5
170
     1
 91
        0
 92
        0
 62
   257
 93
        1
300
CONTENTFORMAT
  1
CONTENTFORMAT_BEGIN
 90
        0
 91
        0
 92
        4
 93
        0
300

 40
0.0
140
1.0
 94
        5
 62
     0
340
11
144
4.5
309
CONTENTFORMAT_END
171
     1
301
MARGIN
  1
CELLMARGIN_BEGIN
 40
1.5
 40
1.5
 40
1.5
 40
1.5
 40
1.5
 40
1.5
309
CELLMARGIN_END
 94
        6
 95
        1
302
GRIDFORMAT
  1
GRIDFORMAT_BEGIN
 90
        0
 91
        1
 62
     0
 92
       -2
340
14
 93
        0
 40
0.045
309
GRIDFORMAT_END
 95
        2
302
GRIDFORMAT
  1
GRIDFORMAT_BEGIN
 90
        0
 91
        1
 62
     0
 92
       -2
340
14
 93
        0
 40
0.045
309
GRIDFORMAT_END
 95
        4
302
GRIDFORMAT
  1
GRIDFORMAT_BEGIN
 90
        0
 91
        1
 62
     0
 92
       -2
340
14
 93
        0
 40
0.045
309
GRIDFORMAT_END
 95
        8
302
GRIDFORMAT
  1
GRIDFORMAT_BEGIN
 90
        0
 91
        1
 62
     0
 92
       -2
340
14
 93
        0
 40
0.045
309
GRIDFORMAT_END
 95
       16
302
GRIDFORMAT
  1
GRIDFORMAT_BEGIN
 90
        0
 91
        1
 62
     0
 92
       -2
340
14
 93
        0
 40
0.045
309
GRIDFORMAT_END
 95
       32
302
GRIDFORMAT
  1
GRIDFORMAT_BEGIN
 90
        0
 91
        1
 62
     0
 92
       -2
340
14
 93
        0
 40
0.045
309
GRIDFORMAT_END
309
TABLEFORMAT_END
  1
CELLSTYLE_BEGIN
 90
        2
 91
        1
300
_HEADER
309
CELLSTYLE_END
300
CELLSTYLE
  1
TABLEFORMAT_BEGIN
 90
        5
170
     1
 91
        0
 92
        0
 62
   257
 93
        1
300
CONTENTFORMAT
  1
CONTENTFORMAT_BEGIN
 90
        0
 91
        0
 92
        4
 93
        0
300

 40
0.0
140
1.0
 94
        2
 62
     0
340
11
144
4.5
309
CONTENTFORMAT_END
171
     1
301
MARGIN
  1
CELLMARGIN_BEGIN
 40
1.5
 40
1.5
 40
1.5
 40
1.5
 40
1.5
 40
1.5
309
CELLMARGIN_END
 94
        6
 95
        1
302
GRIDFORMAT
  1
GRIDFORMAT_BEGIN
 90
        0
 91
        1
 62
     0
 92
       -2
340
14
 93
        0
 40
0.045
309
GRIDFORMAT_END
 95
        2
302
GRIDFORMAT
  1
GRIDFORMAT_BEGIN
 90
        0
 91
        1
 62
     0
 92
       -2
340
14
 93
        0
 40
0.045
309
GRIDFORMAT_END
 95
        4
302
GRIDFORMAT
  1
GRIDFORMAT_BEGIN
 90
        0
 91
        1
 62
     0
 92
       -2
340
14
 93
        0
 40
0.045
309
GRIDFORMAT_END
 95
        8
302
GRIDFORMAT
  1
GRIDFORMAT_BEGIN
 90
        0
 91
        1
 62
     0
 92
       -2
340
14
 93
        0
 40
0.045
309
GRIDFORMAT_END
 95
       16
302
GRIDFORMAT
  1
GRIDFORMAT_BEGIN
 90
        0
 91
        1
 62
     0
 92
       -2
340
14
 93
        0
 40
0.045
309
GRIDFORMAT_END
 95
       32
302
GRIDFORMAT
  1
GRIDFORMAT_BEGIN
 90
        0
 91
        1
 62
     0
 92
       -2
340
14
 93
        0
 40
0.045
309
GRIDFORMAT_END
309
TABLEFORMAT_END
  1
CELLSTYLE_BEGIN
 90
        3
 91
        2
300
_DATA
309
CELLSTYLE_END
  0
ENDSEC
  0
EOF
