  0
SECTION
  2
HEADER
  9
$ACADVER
  1
AC1015
  9
$ACADMAINTVER
 70
    20
  9
$DWGCODEPAGE
  3
ANSI_1250
  9
$INSBASE
 10
0.0
 20
0.0
 30
0.0
  9
$EXTMIN
 10
-5.004279903344098
 20
-5.002645146923157
 30
-0.0000000349181948
  9
$EXTMAX
 10
5.002270665925095
 20
5.0083962734804
 30
0.0000000814935746
  9
$LIMMIN
 10
-0.5
 20
-0.5
  9
$LIMMAX
 10
5.0
 20
5.0
  9
$ORTHOMODE
 70
     0
  9
$REGENMODE
 70
     1
  9
$FILLMODE
 70
     1
  9
$QTEXTMODE
 70
     0
  9
$MIRRTEXT
 70
     1
  9
$LTSCALE
 40
1.0
  9
$ATTMODE
 70
     1
  9
$TEXTSIZE
 40
0.2
  9
$TRACEWID
 40
0.05
  9
$TEXTSTYLE
  7
Standard
  9
$CLAYER
  8
0
  9
$CELTYPE
  6
ByLayer
  9
$CECOLOR
 62
   256
  9
$CELTSCALE
 40
1.0
  9
$DISPSILH
 70
     0
  9
$DIMSCALE
 40
1.0
  9
$DIMASZ
 40
0.18
  9
$DIMEXO
 40
0.0625
  9
$DIMDLI
 40
0.38
  9
$DIMRND
 40
0.0
  9
$DIMDLE
 40
0.0
  9
$DIMEXE
 40
0.18
  9
$DIMTP
 40
0.0
  9
$DIMTM
 40
0.0
  9
$DIMTXT
 40
0.18
  9
$DIMCEN
 40
0.09
  9
$DIMTSZ
 40
0.0
  9
$DIMTOL
 70
     0
  9
$DIMLIM
 70
     0
  9
$DIMTIH
 70
     1
  9
$DIMTOH
 70
     1
  9
$DIMSE1
 70
     0
  9
$DIMSE2
 70
     0
  9
$DIMTAD
 70
     0
  9
$DIMZIN
 70
     0
  9
$DIMBLK
  1

  9
$DIMASO
 70
     1
  9
$DIMSHO
 70
     1
  9
$DIMPOST
  1

  9
$DIMAPOST
  1

  9
$DIMALT
 70
     0
  9
$DIMALTD
 70
     2
  9
$DIMALTF
 40
25.4
  9
$DIMLFAC
 40
1.0
  9
$DIMTOFL
 70
     0
  9
$DIMTVP
 40
0.0
  9
$DIMTIX
 70
     0
  9
$DIMSOXD
 70
     0
  9
$DIMSAH
 70
     0
  9
$DIMBLK1
  1

  9
$DIMBLK2
  1

  9
$DIMSTYLE
  2
Standard
  9
$DIMCLRD
 70
     0
  9
$DIMCLRE
 70
     0
  9
$DIMCLRT
 70
     0
  9
$DIMTFAC
 40
1.0
  9
$DIMGAP
 40
0.09
  9
$DIMJUST
 70
     0
  9
$DIMSD1
 70
     0
  9
$DIMSD2
 70
     0
  9
$DIMTOLJ
 70
     1
  9
$DIMTZIN
 70
     0
  9
$DIMALTZ
 70
     0
  9
$DIMALTTZ
 70
     0
  9
$DIMUPT
 70
     0
  9
$DIMDEC
 70
     4
  9
$DIMTDEC
 70
     4
  9
$DIMALTU
 70
     2
  9
$DIMALTTD
 70
     2
  9
$DIMTXSTY
  7
Standard
  9
$DIMAUNIT
 70
     0
  9
$DIMADEC
 70
     0
  9
$DIMALTRND
 40
0.0
  9
$DIMAZIN
 70
     0
  9
$DIMDSEP
 70
    46
  9
$DIMATFIT
 70
     3
  9
$DIMFRAC
 70
     0
  9
$DIMLDRBLK
  1

  9
$DIMLUNIT
 70
     2
  9
$DIMLWD
 70
    -2
  9
$DIMLWE
 70
    -2
  9
$DIMTMOVE
 70
     0
  9
$LUNITS
 70
     2
  9
$LUPREC
 70
     4
  9
$SKETCHINC
 40
0.1
  9
$FILLETRAD
 40
0.5
  9
$AUNITS
 70
     0
  9
$AUPREC
 70
     0
  9
$MENU
  1
.
  9
$ELEVATION
 40
0.0
  9
$PELEVATION
 40
0.0
  9
$THICKNESS
 40
0.0
  9
$LIMCHECK
 70
     0
  9
$CHAMFERA
 40
0.0
  9
$CHAMFERB
 40
0.0
  9
$CHAMFERC
 40
0.0
  9
$CHAMFERD
 40
0.0
  9
$SKPOLY
 70
     0
  9
$TDCREATE
 40
2459597.477974537
  9
$TDUCREATE
 40
2459597.436315729
  9
$TDUPDATE
 40
2459597.478379630
  9
$TDUUPDATE
 40
2459597.436712963
  9
$TDINDWG
 40
0.0003240856
  9
$TDUSRTIMER
 40
0.0003240856
  9
$USRTIMER
 70
     1
  9
$ANGBASE
 50
0.0
  9
$ANGDIR
 70
     0
  9
$PDMODE
 70
     0
  9
$PDSIZE
 40
0.0
  9
$PLINEWID
 40
0.0
  9
$SPLFRAME
 70
     0
  9
$SPLINETYPE
 70
     6
  9
$SPLINESEGS
 70
     8
  9
$HANDSEED
  5
40D
  9
$SURFTAB1
 70
     6
  9
$SURFTAB2
 70
     6
  9
$SURFTYPE
 70
     6
  9
$SURFU
 70
     6
  9
$SURFV
 70
     6
  9
$UCSBASE
  2

  9
$UCSNAME
  2

  9
$UCSORG
 10
0.0
 20
0.0
 30
0.0
  9
$UCSXDIR
 10
1.0
 20
0.0
 30
0.0
  9
$UCSYDIR
 10
0.0
 20
1.0
 30
0.0
  9
$UCSORTHOREF
  2

  9
$UCSORTHOVIEW
 70
     0
  9
$UCSORGTOP
 10
0.0
 20
0.0
 30
0.0
  9
$UCSORGBOTTOM
 10
0.0
 20
0.0
 30
0.0
  9
$UCSORGLEFT
 10
0.0
 20
0.0
 30
0.0
  9
$UCSORGRIGHT
 10
0.0
 20
0.0
 30
0.0
  9
$UCSORGFRONT
 10
0.0
 20
0.0
 30
0.0
  9
$UCSORGBACK
 10
0.0
 20
0.0
 30
0.0
  9
$PUCSBASE
  2

  9
$PUCSNAME
  2

  9
$PUCSORG
 10
0.0
 20
0.0
 30
0.0
  9
$PUCSXDIR
 10
1.0
 20
0.0
 30
0.0
  9
$PUCSYDIR
 10
0.0
 20
1.0
 30
0.0
  9
$PUCSORTHOREF
  2

  9
$PUCSORTHOVIEW
 70
     0
  9
$PUCSORGTOP
 10
0.0
 20
0.0
 30
0.0
  9
$PUCSORGBOTTOM
 10
0.0
 20
0.0
 30
0.0
  9
$PUCSORGLEFT
 10
0.0
 20
0.0
 30
0.0
  9
$PUCSORGRIGHT
 10
0.0
 20
0.0
 30
0.0
  9
$PUCSORGFRONT
 10
0.0
 20
0.0
 30
0.0
  9
$PUCSORGBACK
 10
0.0
 20
0.0
 30
0.0
  9
$USERI1
 70
     0
  9
$USERI2
 70
     0
  9
$USERI3
 70
     0
  9
$USERI4
 70
     0
  9
$USERI5
 70
     0
  9
$USERR1
 40
0.0
  9
$USERR2
 40
0.0
  9
$USERR3
 40
0.0
  9
$USERR4
 40
0.0
  9
$USERR5
 40
0.0
  9
$WORLDVIEW
 70
     1
  9
$SHADEDGE
 70
     3
  9
$SHADEDIF
 70
    70
  9
$TILEMODE
 70
     1
  9
$MAXACTVP
 70
    64
  9
$PINSBASE
 10
0.0
 20
0.0
 30
0.0
  9
$PLIMCHECK
 70
     0
  9
$PEXTMIN
 10
-0.5
 20
-0.5
 30
-0.5
  9
$PEXTMAX
 10
5.0
 20
5.0
 30
5.0
  9
$PLIMMIN
 10
-0.5
 20
-0.5
  9
$PLIMMAX
 10
5.0
 20
5.0
  9
$UNITMODE
 70
     0
  9
$VISRETAIN
 70
     1
  9
$PLINEGEN
 70
     0
  9
$PSLTSCALE
 70
     1
  9
$TREEDEPTH
 70
  3020
  9
$CMLSTYLE
  2
Standard
  9
$CMLJUST
 70
     0
  9
$CMLSCALE
 40
1.0
  9
$PROXYGRAPHICS
 70
     1
  9
$MEASUREMENT
 70
     1
  9
$CELWEIGHT
370
    13
  9
$ENDCAPS
280
     0
  9
$JOINSTYLE
280
     0
  9
$LWDISPLAY
290
     0
  9
$INSUNITS
 70
     4
  9
$HYPERLINKBASE
  1

  9
$STYLESHEET
  1

  9
$XEDIT
290
     1
  9
$CEPSNTYPE
380
     0
  9
$PSTYLEMODE
290
     1
  9
$FINGERPRINTGUID
  2
{E7BB4AF8-FC98-4FE1-A961-C6873BA6D878}
  9
$VERSIONGUID
  2
{8A7115A1-098C-7441-BC0B-31F55E96E7C5}
  9
$EXTNAMES
290
     1
  9
$PSVPSCALE
 40
0.0
  9
$OLESTARTUP
290
     0
  0
ENDSEC
  0
SECTION
  2
CLASSES
  0
CLASS
  1
ACDBDICTIONARYWDFLT
  2
AcDbDictionaryWithDefault
  3
ObjectDBX Classes
 90
        0
280
     0
281
     0
  0
CLASS
  1
VISUALSTYLE
  2
AcDbVisualStyle
  3
ObjectDBX Classes
 90
     4095
280
     0
281
     0
  0
CLASS
  1
MATERIAL
  2
AcDbMaterial
  3
ObjectDBX Classes
 90
     1153
280
     0
281
     0
  0
CLASS
  1
SCALE
  2
AcDbScale
  3
ObjectDBX Classes
 90
     1153
280
     0
281
     0
  0
CLASS
  1
TABLESTYLE
  2
AcDbTableStyle
  3
ObjectDBX Classes
 90
     4095
280
     0
281
     0
  0
CLASS
  1
MLEADERSTYLE
  2
AcDbMLeaderStyle
  3
ACDB_MLEADERSTYLE_CLASS
 90
     4095
280
     0
281
     0
  0
CLASS
  1
SUN
  2
AcDbSun
  3
SCENEOE
 90
    33921
280
     0
281
     0
  0
CLASS
  1
DIMASSOC
  2
AcDbDimAssoc
  3
"AcDbDimAssoc|Product Desc:     AcDim ARX App For Dimension|Company:          Autodesk, Inc.|WEB Address:      www.autodesk.com"
 90
        0
280
     0
281
     0
  0
CLASS
  1
DICTIONARYVAR
  2
AcDbDictionaryVar
  3
ObjectDBX Classes
 90
        0
280
     0
281
     0
  0
CLASS
  1
ACDBPLACEHOLDER
  2
AcDbPlaceHolder
  3
ObjectDBX Classes
 90
        0
280
     0
281
     0
  0
CLASS
  1
LAYOUT
  2
AcDbLayout
  3
ObjectDBX Classes
 90
        0
280
     0
281
     0
  0
CLASS
  1
ACDBSECTIONVIEWSTYLE
  2
AcDbSectionViewStyle
  3
ObjectDBX Classes
 90
     1025
280
     0
281
     0
  0
CLASS
  1
ACDBDETAILVIEWSTYLE
  2
AcDbDetailViewStyle
  3
ObjectDBX Classes
 90
     1025
280
     0
281
     0
  0
CLASS
  1
CELLSTYLEMAP
  2
AcDbCellStyleMap
  3
ObjectDBX Classes
 90
     1152
280
     0
281
     0
  0
ENDSEC
  0
SECTION
  2
TABLES
  0
TABLE
  2
VPORT
  5
8
330
0
100
AcDbSymbolTable
 70
    16
  0
VPORT
  5
29
330
8
100
AcDbSymbolTableRecord
100
AcDbViewportTableRecord
  2
*Active
 70
     0
 10
0.0
 20
0.0
 11
1.0
 21
1.0
 12
2.686175172935197
 22
-0.7801314791086896
 13
0.0
 23
0.0
 14
0.5
 24
0.5
 15
0.5
 25
0.5
 16
0.0
 26
0.0
 36
1.0
 17
0.0
 27
0.0
 37
0.0
 40
16.12994176997364
 41
2.283154121863799
 42
50.0
 43
754.7848609999999
 44
-754.7848609999999
 50
0.0
 51
0.0
 71
     0
 72
   100
 73
     1
 74
     3
 75
     0
 76
     0
 77
     0
 78
     0
281
     0
 65
     1
110
0.0
120
0.0
130
0.0
111
1.0
121
0.0
131
0.0
112
0.0
122
1.0
132
0.0
 79
     0
146
0.0
1001
ACAD_NAV_VCDISPLAY
1070
     3
  0
VPORT
  5
354
330
8
100
AcDbSymbolTableRecord
100
AcDbViewportTableRecord
  2
L1
 70
     0
 10
0.0
 20
0.0
 11
1.0
 21
1.0
 12
222.17155
 22
144.62001
 13
0.0
 23
0.0
 14
0.5
 24
0.5
 15
0.5
 25
0.5
 16
0.0
 26
0.0
 36
1.0
 17
0.0
 27
0.0
 37
0.0
 40
207.433333
 41
0.085602
 42
50.0
 43
754.7848609999999
 44
-754.7848609999999
 50
0.0
 51
0.0
 71
     0
 72
   100
 73
     1
 74
     3
 75
     0
 76
     0
 77
     0
 78
     0
281
     0
 65
     1
110
0.0
120
0.0
130
0.0
111
1.0
121
0.0
131
0.0
112
0.0
122
1.0
132
0.0
 79
     0
146
0.0
  0
VPORT
  5
355
330
8
100
AcDbSymbolTableRecord
100
AcDbViewportTableRecord
  2
L2
 70
     0
 10
0.0
 20
0.0
 11
0.5
 21
1.0
 12
0.0
 22
0.0
 13
0.0
 23
0.0
 14
0.5
 24
0.5
 15
0.5
 25
0.5
 16
0.0
 26
-1.0
 36
0.0
 17
0.0
 27
0.0
 37
0.0
 40
1468.474613
 41
0.012092
 42
50.0
 43
759.928036
 44
-759.928036
 50
0.0
 51
0.0
 71
     0
 72
   100
 73
     1
 74
     3
 75
     0
 76
     0
 77
     0
 78
     0
281
     0
 65
     1
110
0.0
120
0.0
130
0.0
111
1.0
121
0.0
131
0.0
112
0.0
122
1.0
132
0.0
 79
     0
146
0.0
  0
VPORT
  5
356
330
8
100
AcDbSymbolTableRecord
100
AcDbViewportTableRecord
  2
L2
 70
     0
 10
0.5
 20
0.0
 11
1.0
 21
1.0
 12
0.0
 22
0.0
 13
0.0
 23
0.0
 14
0.5
 24
0.5
 15
0.5
 25
0.5
 16
1.0
 26
0.0
 36
0.0
 17
0.0
 27
0.0
 37
0.0
 40
1468.474613
 41
0.012092
 42
50.0
 43
741.526513
 44
-741.526513
 50
0.0
 51
0.0
 71
     0
 72
   100
 73
     1
 74
     3
 75
     0
 76
     0
 77
     0
 78
     0
281
     0
 65
     1
110
0.0
120
0.0
130
0.0
111
1.0
121
0.0
131
0.0
112
0.0
122
1.0
132
0.0
 79
     0
146
0.0
  0
VPORT
  5
357
330
8
100
AcDbSymbolTableRecord
100
AcDbViewportTableRecord
  2
L3
 70
     0
 10
0.0
 20
0.5
 11
1.0
 21
1.0
 12
222.17155
 22
144.62001
 13
0.0
 23
0.0
 14
0.5
 24
0.5
 15
0.5
 25
0.5
 16
0.0
 26
0.0
 36
1.0
 17
0.0
 27
0.0
 37
0.0
 40
207.433333
 41
0.085602
 42
50.0
 43
754.7848609999999
 44
-754.7848609999999
 50
0.0
 51
0.0
 71
     0
 72
   100
 73
     1
 74
     3
 75
     0
 76
     0
 77
     0
 78
     0
281
     0
 65
     1
110
0.0
120
0.0
130
0.0
111
1.0
121
0.0
131
0.0
112
0.0
122
1.0
132
0.0
 79
     0
146
0.0
  0
VPORT
  5
358
330
8
100
AcDbSymbolTableRecord
100
AcDbViewportTableRecord
  2
L3
 70
     0
 10
0.0
 20
0.0
 11
1.0
 21
0.5
 12
0.0
 22
0.0
 13
0.0
 23
0.0
 14
0.5
 24
0.5
 15
0.5
 25
0.5
 16
0.0
 26
-1.0
 36
0.0
 17
0.0
 27
0.0
 37
0.0
 40
1468.474613
 41
0.012092
 42
50.0
 43
759.928036
 44
-759.928036
 50
0.0
 51
0.0
 71
     0
 72
   100
 73
     1
 74
     3
 75
     0
 76
     0
 77
     0
 78
     0
281
     0
 65
     1
110
0.0
120
0.0
130
0.0
111
1.0
121
0.0
131
0.0
112
0.0
122
1.0
132
0.0
 79
     0
146
0.0
  0
VPORT
  5
359
330
8
100
AcDbSymbolTableRecord
100
AcDbViewportTableRecord
  2
L4
 70
     0
 10
0.0
 20
0.5
 11
0.5
 21
1.0
 12
222.17155
 22
144.62001
 13
0.0
 23
0.0
 14
0.5
 24
0.5
 15
0.5
 25
0.5
 16
0.0
 26
0.0
 36
1.0
 17
0.0
 27
0.0
 37
0.0
 40
207.433333
 41
0.085602
 42
50.0
 43
754.7848609999999
 44
-754.7848609999999
 50
0.0
 51
0.0
 71
     0
 72
   100
 73
     1
 74
     3
 75
     0
 76
     0
 77
     0
 78
     0
281
     0
 65
     1
110
0.0
120
0.0
130
0.0
111
1.0
121
0.0
131
0.0
112
0.0
122
1.0
132
0.0
 79
     0
146
0.0
  0
VPORT
  5
35A
330
8
100
AcDbSymbolTableRecord
100
AcDbViewportTableRecord
  2
L4
 70
     0
 10
0.0
 20
0.0
 11
0.5
 21
0.5
 12
0.0
 22
0.0
 13
0.0
 23
0.0
 14
0.5
 24
0.5
 15
0.5
 25
0.5
 16
0.0
 26
-1.0
 36
0.0
 17
0.0
 27
0.0
 37
0.0
 40
1468.474613
 41
0.012092
 42
50.0
 43
759.928036
 44
-759.928036
 50
0.0
 51
0.0
 71
     0
 72
   100
 73
     1
 74
     3
 75
     0
 76
     0
 77
     0
 78
     0
281
     0
 65
     1
110
0.0
120
0.0
130
0.0
111
1.0
121
0.0
131
0.0
112
0.0
122
1.0
132
0.0
 79
     0
146
0.0
  0
VPORT
  5
35B
330
8
100
AcDbSymbolTableRecord
100
AcDbViewportTableRecord
  2
L4
 70
     0
 10
0.5
 20
0.0
 11
1.0
 21
0.5
 12
0.0
 22
0.0
 13
0.0
 23
0.0
 14
0.5
 24
0.5
 15
0.5
 25
0.5
 16
1.0
 26
0.0
 36
0.0
 17
0.0
 27
0.0
 37
0.0
 40
1468.474613
 41
0.012092
 42
50.0
 43
741.526513
 44
-741.526513
 50
0.0
 51
0.0
 71
     0
 72
   100
 73
     1
 74
     3
 75
     0
 76
     0
 77
     0
 78
     0
281
     0
 65
     1
110
0.0
120
0.0
130
0.0
111
1.0
121
0.0
131
0.0
112
0.0
122
1.0
132
0.0
 79
     0
146
0.0
  0
VPORT
  5
35C
330
8
100
AcDbSymbolTableRecord
100
AcDbViewportTableRecord
  2
L4
 70
     0
 10
0.5
 20
0.5
 11
1.0
 21
1.0
 12
0.0
 22
0.0
 13
0.0
 23
0.0
 14
0.5
 24
0.5
 15
0.5
 25
0.5
 16
0.5773502691896259
 26
-0.5773502691896259
 36
0.5773502691896259
 17
0.0
 27
0.0
 37
0.0
 40
1443.660046
 41
0.0123
 42
50.0
 43
752.2837459999999
 44
-752.2837459999999
 50
0.0
 51
0.0
 71
     0
 72
   100
 73
     1
 74
     3
 75
     0
 76
     0
 77
     0
 78
     0
281
     0
 65
     1
110
0.0
120
0.0
130
0.0
111
1.0
121
0.0
131
0.0
112
0.0
122
1.0
132
0.0
 79
     0
146
0.0
  0
VPORT
  5
35D
330
8
100
AcDbSymbolTableRecord
100
AcDbViewportTableRecord
  2
L6
 70
     0
 10
0.0
 20
0.5
 11
0.333333
 21
1.0
 12
0.0
 22
0.0
 13
0.0
 23
0.0
 14
0.5
 24
0.5
 15
0.5
 25
0.5
 16
0.7188730927569434
 26
-0.5850486126764433
 36
0.3754192287502549
 17
0.0
 27
0.0
 37
0.0
 40
1524.316104
 41
0.011649
 42
50.0
 43
789.0167589999999
 44
-789.0167589999999
 50
0.0
 51
0.0
 71
     0
 72
   100
 73
     1
 74
     3
 75
     0
 76
     0
 77
     0
 78
     0
281
     0
 65
     1
110
0.0
120
0.0
130
0.0
111
1.0
121
0.0
131
0.0
112
0.0
122
1.0
132
0.0
 79
     0
146
0.0
  0
VPORT
  5
35E
330
8
100
AcDbSymbolTableRecord
100
AcDbViewportTableRecord
  2
L6
 70
     0
 10
0.0
 20
0.0
 11
0.333333
 21
0.5
 12
0.0
 22
0.0
 13
0.0
 23
0.0
 14
0.5
 24
0.5
 15
0.5
 25
0.5
 16
-1.0
 26
0.0
 36
0.0
 17
0.0
 27
0.0
 37
0.0
 40
1468.474613
 41
0.012092
 42
50.0
 43
741.526513
 44
-741.526513
 50
0.0
 51
0.0
 71
     0
 72
   100
 73
     1
 74
     3
 75
     0
 76
     0
 77
     0
 78
     0
281
     0
 65
     1
110
0.0
120
0.0
130
0.0
111
1.0
121
0.0
131
0.0
112
0.0
122
1.0
132
0.0
 79
     0
146
0.0
  0
VPORT
  5
35F
330
8
100
AcDbSymbolTableRecord
100
AcDbViewportTableRecord
  2
L6
 70
     0
 10
0.333333
 20
0.5
 11
0.666667
 21
1.0
 12
222.17155
 22
144.62001
 13
0.0
 23
0.0
 14
0.5
 24
0.5
 15
0.5
 25
0.5
 16
0.0
 26
0.0
 36
1.0
 17
0.0
 27
0.0
 37
0.0
 40
207.433333
 41
0.085602
 42
50.0
 43
754.7848609999999
 44
-754.7848609999999
 50
0.0
 51
0.0
 71
     0
 72
   100
 73
     1
 74
     3
 75
     0
 76
     0
 77
     0
 78
     0
281
     0
 65
     1
110
0.0
120
0.0
130
0.0
111
1.0
121
0.0
131
0.0
112
0.0
122
1.0
132
0.0
 79
     0
146
0.0
  0
VPORT
  5
360
330
8
100
AcDbSymbolTableRecord
100
AcDbViewportTableRecord
  2
L6
 70
     0
 10
0.333333
 20
0.0
 11
0.666667
 21
0.5
 12
0.0
 22
0.0
 13
0.0
 23
0.0
 14
0.5
 24
0.5
 15
0.5
 25
0.5
 16
0.0
 26
-1.0
 36
0.0
 17
0.0
 27
0.0
 37
0.0
 40
1468.474613
 41
0.012092
 42
50.0
 43
759.928036
 44
-759.928036
 50
0.0
 51
0.0
 71
     0
 72
   100
 73
     1
 74
     3
 75
     0
 76
     0
 77
     0
 78
     0
281
     0
 65
     1
110
0.0
120
0.0
130
0.0
111
1.0
121
0.0
131
0.0
112
0.0
122
1.0
132
0.0
 79
     0
146
0.0
  0
VPORT
  5
361
330
8
100
AcDbSymbolTableRecord
100
AcDbViewportTableRecord
  2
L6
 70
     0
 10
0.666667
 20
0.5
 11
1.0
 21
1.0
 12
0.0
 22
0.0
 13
0.0
 23
0.0
 14
0.5
 24
0.5
 15
0.5
 25
0.5
 16
0.5773502691896259
 26
-0.5773502691896259
 36
0.5773502691896259
 17
0.0
 27
0.0
 37
0.0
 40
1443.660046
 41
0.0123
 42
50.0
 43
752.2837459999999
 44
-752.2837459999999
 50
0.0
 51
0.0
 71
     0
 72
   100
 73
     1
 74
     3
 75
     0
 76
     0
 77
     0
 78
     0
281
     0
 65
     1
110
0.0
120
0.0
130
0.0
111
1.0
121
0.0
131
0.0
112
0.0
122
1.0
132
0.0
 79
     0
146
0.0
  0
VPORT
  5
362
330
8
100
AcDbSymbolTableRecord
100
AcDbViewportTableRecord
  2
L6
 70
     0
 10
0.666667
 20
0.0
 11
1.0
 21
0.5
 12
0.0
 22
0.0
 13
0.0
 23
0.0
 14
0.5
 24
0.5
 15
0.5
 25
0.5
 16
1.0
 26
0.0
 36
0.0
 17
0.0
 27
0.0
 37
0.0
 40
1468.474613
 41
0.012092
 42
50.0
 43
741.526513
 44
-741.526513
 50
0.0
 51
0.0
 71
     0
 72
   100
 73
     1
 74
     3
 75
     0
 76
     0
 77
     0
 78
     0
281
     0
 65
     1
110
0.0
120
0.0
130
0.0
111
1.0
121
0.0
131
0.0
112
0.0
122
1.0
132
0.0
 79
     0
146
0.0
  0
ENDTAB
  0
TABLE
  2
LTYPE
  5
5
330
0
100
AcDbSymbolTable
 70
     6
  0
LTYPE
  5
14
330
5
100
AcDbSymbolTableRecord
100
AcDbLinetypeTableRecord
  2
ByBlock
 70
     0
  3

 72
    65
 73
     0
 40
0.0
  0
LTYPE
  5
15
330
5
100
AcDbSymbolTableRecord
100
AcDbLinetypeTableRecord
  2
ByLayer
 70
     0
  3

 72
    65
 73
     0
 40
0.0
  0
LTYPE
  5
16
330
5
100
AcDbSymbolTableRecord
100
AcDbLinetypeTableRecord
  2
Continuous
 70
     0
  3
Solid line
 72
    65
 73
     0
 40
0.0
  0
LTYPE
  5
6E
330
5
100
AcDbSymbolTableRecord
100
AcDbLinetypeTableRecord
  2
CENTER
 70
     0
  3
____ _ ____ _ ____ _ ____
 72
    65
 73
     4
 40
47.4
 49
22.0
 74
     4
 75
     0
340
0
 46
0.0
 50
0.0
 44
0.0
 45
0.0
 49
-8.5
 74
     4
 75
     0
340
0
 46
0.0
 50
0.0
 44
0.0
 45
0.0
 49
8.5
 74
     4
 75
     0
340
0
 46
0.0
 50
0.0
 44
0.0
 45
0.0
 49
-8.5
 74
     4
 75
     0
340
0
 46
0.0
 50
0.0
 44
0.0
 45
0.0
  0
LTYPE
  5
6F
330
5
100
AcDbSymbolTableRecord
100
AcDbLinetypeTableRecord
  2
DASHDOT
 70
     0
  3
_._._._._._._._._._._._._._._._.
 72
    65
 73
     4
 40
70.0
 49
31.0
 74
     4
 75
     0
340
0
 46
0.0
 50
0.0
 44
0.0
 45
0.0
 49
-13.0
 74
     4
 75
     0
340
0
 46
0.0
 50
0.0
 44
0.0
 45
0.0
 49
13.0
 74
     4
 75
     0
340
0
 46
0.0
 50
0.0
 44
0.0
 45
0.0
 49
-13.0
 74
     4
 75
     0
340
0
 46
0.0
 50
0.0
 44
0.0
 45
0.0
  0
LTYPE
  5
70
330
5
100
AcDbSymbolTableRecord
100
AcDbLinetypeTableRecord
  2
DASHED
 70
     0
  3
__ __ __ __ __ __ __ __ __
 72
    65
 73
     2
 40
25.72
 49
12.86
 74
     4
 75
     0
340
0
 46
0.0
 50
0.0
 44
0.0
 45
0.0
 49
-12.86
 74
     4
 75
     0
340
0
 46
0.0
 50
0.0
 44
0.0
 45
0.0
  0
LTYPE
  5
71
330
5
100
AcDbSymbolTableRecord
100
AcDbLinetypeTableRecord
  2
DOT
 70
     0
  3
.........................
 72
    65
 73
     2
 40
10.0
 49
0.0
 74
     4
 75
     0
340
0
 46
0.0
 50
0.0
 44
0.0
 45
0.0
 49
-10.0
 74
     4
 75
     0
340
0
 46
0.0
 50
0.0
 44
0.0
 45
0.0
  0
LTYPE
  5
72
330
5
100
AcDbSymbolTableRecord
100
AcDbLinetypeTableRecord
  2
PHANTOM
 70
     0
  3
____ _ _ ____ _ _ _____ _ _ ____
 72
    65
 73
     6
 40
50.5
 49
18.0
 74
     4
 75
     0
340
0
 46
0.0
 50
0.0
 44
0.0
 45
0.0
 49
-6.5
 74
     4
 75
     0
340
0
 46
0.0
 50
0.0
 44
0.0
 45
0.0
 49
6.5
 74
     4
 75
     0
340
0
 46
0.0
 50
0.0
 44
0.0
 45
0.0
 49
-6.5
 74
     4
 75
     0
340
0
 46
0.0
 50
0.0
 44
0.0
 45
0.0
 49
6.5
 74
     4
 75
     0
340
0
 46
0.0
 50
0.0
 44
0.0
 45
0.0
 49
-6.5
 74
     4
 75
     0
340
0
 46
0.0
 50
0.0
 44
0.0
 45
0.0
  0
ENDTAB
  0
TABLE
  2
LAYER
  5
2
330
0
100
AcDbSymbolTable
 70
     3
  0
LAYER
  5
10
102
{ACAD_XDICTIONARY
360
3C4
102
}
330
2
100
AcDbSymbolTableRecord
100
AcDbLayerTableRecord
  2
0
 70
     0
 62
     7
  6
Continuous
370
    -3
390
F
  0
LAYER
  5
74
102
{ACAD_XDICTIONARY
360
3C6
102
}
330
2
100
AcDbSymbolTableRecord
100
AcDbLayerTableRecord
  2
40
 70
     0
 62
     7
  6
Continuous
370
    -3
390
F
  0
LAYER
  5
28B
330
2
100
AcDbSymbolTableRecord
100
AcDbLayerTableRecord
  2
Defpoints
 70
     0
 62
     7
  6
Continuous
290
     0
370
    -3
390
F
  0
ENDTAB
  0
TABLE
  2
STYLE
  5
3
330
0
100
AcDbSymbolTable
 70
     6
  0
STYLE
  5
11
330
3
100
AcDbSymbolTableRecord
100
AcDbTextStyleTableRecord
  2
Standard
 70
     0
 40
0.0
 41
1.0
 50
0.0
 71
     0
 42
0.2
  3
txt
  4

  0
STYLE
  5
164
330
3
100
AcDbSymbolTableRecord
100
AcDbTextStyleTableRecord
  2
cesky
 70
     0
 40
0.0
 41
1.0
 50
0.0
 71
     0
 42
0.2
  3
simplex.shx
  4

  0
STYLE
  5
165
330
3
100
AcDbSymbolTableRecord
100
AcDbTextStyleTableRecord
  2
DWGDirectTextStyle
 70
     0
 40
0.0
 41
1.0
 50
0.0
 71
     0
 42
0.2
  3
simplex
  4

  0
STYLE
  5
182
330
3
100
AcDbSymbolTableRecord
100
AcDbTextStyleTableRecord
  2
ces840
 70
     0
 40
0.0
 41
1.0
 50
0.0
 71
     0
 42
0.2
  3
simplex.shx
  4

  0
STYLE
  5
18E
330
3
100
AcDbSymbolTableRecord
100
AcDbTextStyleTableRecord
  2
blockfont
 70
     0
 40
0.0
 41
1.0
 50
0.0
 71
     0
 42
0.2
  3
simplex.shx
  4

  0
STYLE
  5
192
330
3
100
AcDbSymbolTableRecord
100
AcDbTextStyleTableRecord
  2
slimfont
 70
     0
 40
0.0
 41
1.0
 50
0.0
 71
     0
 42
0.2
  3
simplex.shx
  4

  0
ENDTAB
  0
TABLE
  2
VIEW
  5
6
330
0
100
AcDbSymbolTable
 70
     0
  0
ENDTAB
  0
TABLE
  2
UCS
  5
7
330
0
100
AcDbSymbolTable
 70
     0
  0
ENDTAB
  0
TABLE
  2
APPID
  5
9
330
0
100
AcDbSymbolTable
 70
    10
  0
APPID
  5
12
330
9
100
AcDbSymbolTableRecord
100
AcDbRegAppTableRecord
  2
ACAD
 70
     0
  0
APPID
  5
287
330
9
100
AcDbSymbolTableRecord
100
AcDbRegAppTableRecord
  2
ACAD_DSTYLE_DIMBREAK
 70
     0
  0
APPID
  5
2BB
330
9
100
AcDbSymbolTableRecord
100
AcDbRegAppTableRecord
  2
ACAD_DSTYLE_DIMANGULAR_EXTENSION
 70
     0
  0
APPID
  5
36A
330
9
100
AcDbSymbolTableRecord
100
AcDbRegAppTableRecord
  2
ACAD_DSTYLE_DIM_LINETYPE
 70
     0
  0
APPID
  5
36B
330
9
100
AcDbSymbolTableRecord
100
AcDbRegAppTableRecord
  2
ACAD_DSTYLE_DIM_EXT1_LINETYPE
 70
     0
  0
APPID
  5
36C
330
9
100
AcDbSymbolTableRecord
100
AcDbRegAppTableRecord
  2
ACAD_DSTYLE_DIM_EXT2_LINETYPE
 70
     0
  0
APPID
  5
36D
330
9
100
AcDbSymbolTableRecord
100
AcDbRegAppTableRecord
  2
ACAD_DSTYLE_DIMFLIPARROW_SYMBOL
 70
     0
  0
APPID
  5
36E
330
9
100
AcDbSymbolTableRecord
100
AcDbRegAppTableRecord
  2
ACAD_DSTYLE_DIMFLIPARROW_WHICH_SYMBOL
 70
     0
  0
APPID
  5
3A9
330
9
100
AcDbSymbolTableRecord
100
AcDbRegAppTableRecord
  2
ACAD_MLEADERVER
 70
     0
  0
APPID
  5
3CD
330
9
100
AcDbSymbolTableRecord
100
AcDbRegAppTableRecord
  2
ACAD_NAV_VCDISPLAY
 70
     0
  0
ENDTAB
  0
TABLE
  2
DIMSTYLE
  5
A
330
0
100
AcDbSymbolTable
 70
     1
100
AcDbDimStyleTable
 71
     0
  0
DIMSTYLE
105
27
330
A
100
AcDbSymbolTableRecord
100
AcDbDimStyleTableRecord
  2
Standard
 70
     0
340
11
1001
ACAD_DSTYLE_DIMBREAK
1070
   391
1040
6.349999999999999
  0
ENDTAB
  0
TABLE
  2
BLOCK_RECORD
  5
1
330
0
100
AcDbSymbolTable
 70
    17
  0
BLOCK_RECORD
  5
1F
330
1
100
AcDbSymbolTableRecord
100
AcDbBlockTableRecord
  2
*Model_Space
340
22
  0
BLOCK_RECORD
  5
1B
330
1
100
AcDbSymbolTableRecord
100
AcDbBlockTableRecord
  2
*Paper_Space
340
1E
  0
BLOCK_RECORD
  5
23
330
1
100
AcDbSymbolTableRecord
100
AcDbBlockTableRecord
  2
*Paper_Space0
340
26
  0
BLOCK_RECORD
  5
1B7
330
1
100
AcDbSymbolTableRecord
100
AcDbBlockTableRecord
  2
LABLE3D_1
340
0
  0
BLOCK_RECORD
  5
1B9
330
1
100
AcDbSymbolTableRecord
100
AcDbBlockTableRecord
  2
_Dot
340
0
  0
BLOCK_RECORD
  5
1C6
330
1
100
AcDbSymbolTableRecord
100
AcDbBlockTableRecord
  2
FCFEntity1
340
0
  0
BLOCK_RECORD
  5
1FA
330
1
100
AcDbSymbolTableRecord
100
AcDbBlockTableRecord
  2
ZMENA_A1
340
0
  0
BLOCK_RECORD
  5
254
330
1
100
AcDbSymbolTableRecord
100
AcDbBlockTableRecord
  2
STS_NOM2
340
0
  0
BLOCK_RECORD
  5
278
330
1
100
AcDbSymbolTableRecord
100
AcDbBlockTableRecord
  2
STS_MAT3
340
0
  0
BLOCK_RECORD
  5
27F
330
1
100
AcDbSymbolTableRecord
100
AcDbBlockTableRecord
  2
STS_MAT4
340
0
  0
BLOCK_RECORD
  5
28C
330
1
100
AcDbSymbolTableRecord
100
AcDbBlockTableRecord
  2
*D8
340
0
  0
BLOCK_RECORD
  5
298
330
1
100
AcDbSymbolTableRecord
100
AcDbBlockTableRecord
  2
_U0
340
0
  0
BLOCK_RECORD
  5
2A5
330
1
100
AcDbSymbolTableRecord
100
AcDbBlockTableRecord
  2
*D10
340
0
  0
BLOCK_RECORD
  5
2B3
330
1
100
AcDbSymbolTableRecord
100
AcDbBlockTableRecord
  2
_U1
340
0
  0
BLOCK_RECORD
  5
2BE
330
1
100
AcDbSymbolTableRecord
100
AcDbBlockTableRecord
  2
*D12
340
0
  0
BLOCK_RECORD
  5
2CC
330
1
100
AcDbSymbolTableRecord
100
AcDbBlockTableRecord
  2
_U2
340
0
  0
BLOCK_RECORD
  5
2D9
330
1
100
AcDbSymbolTableRecord
100
AcDbBlockTableRecord
  2
*D14
340
0
  0
BLOCK_RECORD
  5
2E8
330
1
100
AcDbSymbolTableRecord
100
AcDbBlockTableRecord
  2
_U3
340
0
  0
BLOCK_RECORD
  5
2F1
330
1
100
AcDbSymbolTableRecord
100
AcDbBlockTableRecord
  2
TabularNote1
340
0
  0
ENDTAB
  0
ENDSEC
  0
SECTION
  2
BLOCKS
  0
BLOCK
  5
20
330
1F
100
AcDbEntity
  8
0
100
AcDbBlockBegin
  2
*Model_Space
 70
     0
 10
0.0
 20
0.0
 30
0.0
  3
*Model_Space
  1

  0
ENDBLK
  5
21
330
1F
100
AcDbEntity
  8
0
100
AcDbBlockEnd
  0
BLOCK
  5
1C
330
1B
100
AcDbEntity
 67
     1
  8
0
100
AcDbBlockBegin
  2
*Paper_Space
 70
     0
 10
0.0
 20
0.0
 30
0.0
  3
*Paper_Space
  1

  0
ENDBLK
  5
1D
330
1B
100
AcDbEntity
 67
     1
  8
0
100
AcDbBlockEnd
  0
BLOCK
  5
24
330
23
100
AcDbEntity
 67
     1
  8
0
100
AcDbBlockBegin
  2
*Paper_Space0
 70
     0
 10
0.0
 20
0.0
 30
0.0
  3
*Paper_Space0
  1

  0
ENDBLK
  5
25
330
23
100
AcDbEntity
 67
     1
  8
0
100
AcDbBlockEnd
  0
BLOCK
  5
1C4
330
1B7
100
AcDbEntity
  8
0
100
AcDbBlockBegin
  2
LABLE3D_1
 70
     0
 10
216.468441
 20
205.870418
 30
0.0
  3
LABLE3D_1
  1

  0
MTEXT
  5
1C2
330
1B7
100
AcDbEntity
  8
40
  6
Continuous
 62
     9
370
    18
100
AcDbMText
 10
216.733441
 20
205.940656
 30
0.0
 40
5.0
 41
0.0
 71
     7
 72
     5
  1
\A1;\W1.6278;D\H1.25;\A1;\S^ ;\H5.00;
  7
cesky
 73
     2
 44
1.084337
1001
ACAD
1000
MTEXTBEGIN
1070
    73
1070
     2
1070
    44
1040
1.084337
1070
    74
1070
     0
1000
MTEXTEND
  0
ENDBLK
  5
1C5
330
1B7
100
AcDbEntity
  8
0
100
AcDbBlockEnd
  0
BLOCK
  5
1BA
330
1B9
100
AcDbEntity
  8
0
100
AcDbBlockBegin
  2
_Dot
 70
     0
 10
0.0
 20
0.0
 30
0.0
  3
_Dot
  1

  0
LWPOLYLINE
  5
1BC
330
1B9
100
AcDbEntity
  8
0
  6
ByBlock
 62
     0
100
AcDbPolyline
 90
        2
 70
     1
 43
0.5
 10
-0.25
 20
0.0
 42
1.0
 10
0.25
 20
0.0
 42
1.0
  0
LINE
  5
1BD
330
1B9
100
AcDbEntity
  8
0
  6
ByBlock
 62
     0
370
    -2
100
AcDbLine
 10
-0.5
 20
0.0
 30
0.0
 11
-1.0
 21
0.0
 31
0.0
  0
ENDBLK
  5
1BB
330
1B9
100
AcDbEntity
  8
0
100
AcDbBlockEnd
  0
BLOCK
  5
1F3
330
1C6
100
AcDbEntity
  8
0
100
AcDbBlockBegin
  2
FCFEntity1
 70
     0
 10
160.438976
 20
76.967572
 30
0.0
  3
FCFEntity1
  1

  0
LINE
  5
1CB
330
1C6
100
AcDbEntity
  8
40
  6
Continuous
 62
     4
370
    25
100
AcDbLine
 10
160.438976
 20
73.467572
 30
0.0
 11
160.438976
 21
80.467572
 31
0.0
  0
CIRCLE
  5
1CC
330
1C6
100
AcDbEntity
  8
40
  6
Continuous
 62
     3
370
    25
100
AcDbCircle
 10
165.272309
 20
76.967572
 30
0.0
 40
1.75
  0
CIRCLE
  5
1CD
330
1C6
100
AcDbEntity
  8
40
  6
Continuous
 62
     3
370
    25
100
AcDbCircle
 10
165.272309
 20
76.967572
 30
0.0
 40
2.625
  0
LINE
  5
1CE
330
1C6
100
AcDbEntity
  8
40
  6
Continuous
 62
     4
370
    25
100
AcDbLine
 10
171.155642
 20
73.467572
 30
0.0
 11
171.155642
 21
80.467572
 31
0.0
  0
CIRCLE
  5
1CF
330
1C6
100
AcDbEntity
  8
40
  6
Continuous
 62
     3
370
    25
100
AcDbCircle
 10
175.988976
 20
76.967572
 30
0.0
 40
1.75
  0
LINE
  5
1D0
330
1C6
100
AcDbEntity
  8
40
  6
Continuous
 62
     3
370
    25
100
AcDbLine
 10
174.473228
 20
74.29434399999999
 30
0.0
 11
177.449606
 21
79.58568199999999
 31
0.0
  0
LINE
  5
1D1
330
1C6
100
AcDbEntity
  8
40
  6
Continuous
 62
     3
370
    25
100
AcDbLine
 10
181.0389759999999
 20
75.467572
 30
0.0
 11
180.788976
 21
75.967572
 31
0.0
  0
LINE
  5
1D2
330
1C6
100
AcDbEntity
  8
40
  6
Continuous
 62
     3
370
    25
100
AcDbLine
 10
180.788976
 20
75.967572
 30
0.0
 11
180.663976
 21
76.800905
 31
0.0
  0
LINE
  5
1D3
330
1C6
100
AcDbEntity
  8
40
  6
Continuous
 62
     3
370
    25
100
AcDbLine
 10
180.663976
 20
76.800905
 30
0.0
 11
180.663976
 21
77.300905
 31
0.0
  0
LINE
  5
1D4
330
1C6
100
AcDbEntity
  8
40
  6
Continuous
 62
     3
370
    25
100
AcDbLine
 10
180.663976
 20
77.300905
 30
0.0
 11
180.788976
 21
78.134239
 31
0.0
  0
LINE
  5
1D5
330
1C6
100
AcDbEntity
  8
40
  6
Continuous
 62
     3
370
    25
100
AcDbLine
 10
180.788976
 20
78.134239
 30
0.0
 11
181.0389759999999
 21
78.634239
 31
0.0
  0
LINE
  5
1D6
330
1C6
100
AcDbEntity
  8
40
  6
Continuous
 62
     3
370
    25
100
AcDbLine
 10
181.0389759999999
 20
78.634239
 30
0.0
 11
181.413976
 21
78.800905
 31
0.0
  0
LINE
  5
1D7
330
1C6
100
AcDbEntity
  8
40
  6
Continuous
 62
     3
370
    25
100
AcDbLine
 10
181.413976
 20
78.800905
 30
0.0
 11
181.663976
 21
78.800905
 31
0.0
  0
LINE
  5
1D8
330
1C6
100
AcDbEntity
  8
40
  6
Continuous
 62
     3
370
    25
100
AcDbLine
 10
181.663976
 20
78.800905
 30
0.0
 11
182.038976
 21
78.634239
 31
0.0
  0
LINE
  5
1D9
330
1C6
100
AcDbEntity
  8
40
  6
Continuous
 62
     3
370
    25
100
AcDbLine
 10
182.038976
 20
78.634239
 30
0.0
 11
182.288976
 21
78.134239
 31
0.0
  0
LINE
  5
1DA
330
1C6
100
AcDbEntity
  8
40
  6
Continuous
 62
     3
370
    25
100
AcDbLine
 10
182.288976
 20
78.134239
 30
0.0
 11
182.413976
 21
77.300905
 31
0.0
  0
LINE
  5
1DB
330
1C6
100
AcDbEntity
  8
40
  6
Continuous
 62
     3
370
    25
100
AcDbLine
 10
182.413976
 20
77.300905
 30
0.0
 11
182.413976
 21
76.800905
 31
0.0
  0
LINE
  5
1DC
330
1C6
100
AcDbEntity
  8
40
  6
Continuous
 62
     3
370
    25
100
AcDbLine
 10
182.413976
 20
76.800905
 30
0.0
 11
182.288976
 21
75.967572
 31
0.0
  0
LINE
  5
1DD
330
1C6
100
AcDbEntity
  8
40
  6
Continuous
 62
     3
370
    25
100
AcDbLine
 10
182.288976
 20
75.967572
 30
0.0
 11
182.038976
 21
75.467572
 31
0.0
  0
LINE
  5
1DE
330
1C6
100
AcDbEntity
  8
40
  6
Continuous
 62
     3
370
    25
100
AcDbLine
 10
182.038976
 20
75.467572
 30
0.0
 11
181.663976
 21
75.300905
 31
0.0
  0
LINE
  5
1DF
330
1C6
100
AcDbEntity
  8
40
  6
Continuous
 62
     3
370
    25
100
AcDbLine
 10
181.663976
 20
75.300905
 30
0.0
 11
181.413976
 21
75.300905
 31
0.0
  0
LINE
  5
1E0
330
1C6
100
AcDbEntity
  8
40
  6
Continuous
 62
     3
370
    25
100
AcDbLine
 10
181.413976
 20
75.300905
 30
0.0
 11
181.0389759999999
 21
75.467572
 31
0.0
  0
LINE
  5
1E1
330
1C6
100
AcDbEntity
  8
40
  6
Continuous
 62
     3
370
    25
100
AcDbLine
 10
183.938976
 20
74.550905
 30
0.0
 11
184.063976
 21
74.717572
 31
0.0
  0
LINE
  5
1E2
330
1C6
100
AcDbEntity
  8
40
  6
Continuous
 62
     3
370
    25
100
AcDbLine
 10
184.063976
 20
74.717572
 30
0.0
 11
184.188976
 21
75.050905
 31
0.0
  0
LINE
  5
1E3
330
1C6
100
AcDbEntity
  8
40
  6
Continuous
 62
     3
370
    25
100
AcDbLine
 10
184.188976
 20
75.050905
 30
0.0
 11
184.188976
 21
75.38423900000001
 31
0.0
  0
LINE
  5
1E4
330
1C6
100
AcDbEntity
  8
40
  6
Continuous
 62
     3
370
    25
100
AcDbLine
 10
184.188976
 20
75.38423900000001
 30
0.0
 11
184.063976
 21
75.550905
 31
0.0
  0
LINE
  5
1E5
330
1C6
100
AcDbEntity
  8
40
  6
Continuous
 62
     3
370
    25
100
AcDbLine
 10
184.063976
 20
75.550905
 30
0.0
 11
183.938976
 21
75.38423900000001
 31
0.0
  0
LINE
  5
1E6
330
1C6
100
AcDbEntity
  8
40
  6
Continuous
 62
     3
370
    25
100
AcDbLine
 10
183.938976
 20
75.38423900000001
 30
0.0
 11
184.063976
 21
75.217572
 31
0.0
  0
LINE
  5
1E7
330
1C6
100
AcDbEntity
  8
40
  6
Continuous
 62
     3
370
    25
100
AcDbLine
 10
184.063976
 20
75.217572
 30
0.0
 11
184.188976
 21
75.38423900000001
 31
0.0
  0
LINE
  5
1E8
330
1C6
100
AcDbEntity
  8
40
  6
Continuous
 62
     3
370
    25
100
AcDbLine
 10
186.276476
 20
78.050905
 30
0.0
 11
186.526476
 21
78.217572
 31
0.0
  0
LINE
  5
1E9
330
1C6
100
AcDbEntity
  8
40
  6
Continuous
 62
     3
370
    25
100
AcDbLine
 10
186.526476
 20
78.217572
 30
0.0
 11
186.901476
 21
78.71757200000001
 31
0.0
  0
LINE
  5
1EA
330
1C6
100
AcDbEntity
  8
40
  6
Continuous
 62
     3
370
    25
100
AcDbLine
 10
186.901476
 20
78.71757200000001
 30
0.0
 11
186.901476
 21
75.217572
 31
0.0
  0
LINE
  5
1EB
330
1C6
100
AcDbEntity
  8
40
  6
Continuous
 62
     4
370
    25
100
AcDbLine
 10
189.447309
 20
73.467572
 30
0.0
 11
189.447309
 21
80.467572
 31
0.0
  0
LINE
  5
1EC
330
1C6
100
AcDbEntity
  8
40
  6
Continuous
 62
     3
370
    25
100
AcDbLine
 10
190.780642
 20
75.217572
 30
0.0
 11
191.780642
 21
78.71757200000001
 31
0.0
  0
LINE
  5
1ED
330
1C6
100
AcDbEntity
  8
40
  6
Continuous
 62
     3
370
    25
100
AcDbLine
 10
191.780642
 20
78.71757200000001
 30
0.0
 11
192.780642
 21
75.217572
 31
0.0
  0
LINE
  5
1EE
330
1C6
100
AcDbEntity
  8
40
  6
Continuous
 62
     3
370
    25
100
AcDbLine
 10
192.405642
 20
76.38423900000001
 30
0.0
 11
191.155642
 21
76.38423900000001
 31
0.0
  0
LINE
  5
1EF
330
1C6
100
AcDbEntity
  8
40
  6
Continuous
 62
     4
370
    25
100
AcDbLine
 10
194.638976
 20
73.467572
 30
0.0
 11
194.638976
 21
80.467572
 31
0.0
  0
LINE
  5
1F0
330
1C6
100
AcDbEntity
  8
40
  6
Continuous
 62
     4
370
    25
100
AcDbLine
 10
160.438976
 20
80.467572
 30
0.0
 11
194.638976
 21
80.467572
 31
0.0
  0
LINE
  5
1F1
330
1C6
100
AcDbEntity
  8
40
  6
Continuous
 62
     4
370
    25
100
AcDbLine
 10
160.438976
 20
73.467572
 30
0.0
 11
194.638976
 21
73.467572
 31
0.0
  0
ENDBLK
  5
1F4
330
1C6
100
AcDbEntity
  8
0
100
AcDbBlockEnd
  0
BLOCK
  5
21E
330
1FA
100
AcDbEntity
  8
0
100
AcDbBlockBegin
  2
ZMENA_A1
 70
     0
 10
0.0
 20
0.0
 30
0.0
  3
ZMENA_A1
  1

  0
LINE
  5
1FB
330
1FA
100
AcDbEntity
  8
40
  6
Continuous
 62
     3
370
    13
100
AcDbLine
 10
0.653543
 20
0.220472
 30
0.0
 11
0.653543
 21
0.629921
 31
0.0
  0
LINE
  5
1FC
330
1FA
100
AcDbEntity
  8
40
  6
Continuous
 62
     3
370
    13
100
AcDbLine
 10
0.653543
 20
0.543307
 30
0.0
 11
0.598425
 21
0.598425
 31
0.0
  0
LINE
  5
1FD
330
1FA
100
AcDbEntity
  8
40
  6
Continuous
 62
     3
370
    13
100
AcDbLine
 10
0.598425
 20
0.598425
 30
0.0
 11
0.543307
 21
0.629921
 31
0.0
  0
LINE
  5
1FE
330
1FA
100
AcDbEntity
  8
40
  6
Continuous
 62
     3
370
    13
100
AcDbLine
 10
0.543307
 20
0.629921
 30
0.0
 11
0.464567
 21
0.629921
 31
0.0
  0
LINE
  5
1FF
330
1FA
100
AcDbEntity
  8
40
  6
Continuous
 62
     3
370
    13
100
AcDbLine
 10
0.464567
 20
0.629921
 30
0.0
 11
0.409449
 21
0.598425
 31
0.0
  0
LINE
  5
200
330
1FA
100
AcDbEntity
  8
40
  6
Continuous
 62
     3
370
    13
100
AcDbLine
 10
0.409449
 20
0.598425
 30
0.0
 11
0.354331
 21
0.543307
 31
0.0
  0
LINE
  5
201
330
1FA
100
AcDbEntity
  8
40
  6
Continuous
 62
     3
370
    13
100
AcDbLine
 10
0.354331
 20
0.543307
 30
0.0
 11
0.322835
 21
0.4566930000000001
 31
0.0
  0
LINE
  5
202
330
1FA
100
AcDbEntity
  8
40
  6
Continuous
 62
     3
370
    13
100
AcDbLine
 10
0.322835
 20
0.4566930000000001
 30
0.0
 11
0.322835
 21
0.4015750000000001
 31
0.0
  0
LINE
  5
203
330
1FA
100
AcDbEntity
  8
40
  6
Continuous
 62
     3
370
    13
100
AcDbLine
 10
0.322835
 20
0.4015750000000001
 30
0.0
 11
0.354331
 21
0.314961
 31
0.0
  0
LINE
  5
204
330
1FA
100
AcDbEntity
  8
40
  6
Continuous
 62
     3
370
    13
100
AcDbLine
 10
0.354331
 20
0.314961
 30
0.0
 11
0.409449
 21
0.251969
 31
0.0
  0
LINE
  5
205
330
1FA
100
AcDbEntity
  8
40
  6
Continuous
 62
     3
370
    13
100
AcDbLine
 10
0.409449
 20
0.251969
 30
0.0
 11
0.464567
 21
0.220472
 31
0.0
  0
LINE
  5
206
330
1FA
100
AcDbEntity
  8
40
  6
Continuous
 62
     3
370
    13
100
AcDbLine
 10
0.464567
 20
0.220472
 30
0.0
 11
0.543307
 21
0.220472
 31
0.0
  0
LINE
  5
207
330
1FA
100
AcDbEntity
  8
40
  6
Continuous
 62
     3
370
    13
100
AcDbLine
 10
0.543307
 20
0.220472
 30
0.0
 11
0.598425
 21
0.251969
 31
0.0
  0
LINE
  5
208
330
1FA
100
AcDbEntity
  8
40
  6
Continuous
 62
     3
370
    13
100
AcDbLine
 10
0.598425
 20
0.251969
 30
0.0
 11
0.653543
 21
0.314961
 31
0.0
  0
LINE
  5
209
330
1FA
100
AcDbEntity
  8
40
  6
Continuous
 62
     3
370
    13
100
AcDbLine
 10
0.204724
 20
0.905512
 30
0.0
 11
0.094488
 21
0.795276
 31
0.0
  0
LINE
  5
20A
330
1FA
100
AcDbEntity
  8
40
  6
Continuous
 62
     3
370
    13
100
AcDbLine
 10
0.346457
 20
0.976378
 30
0.0
 11
0.204724
 21
0.905512
 31
0.0
  0
LINE
  5
20B
330
1FA
100
AcDbEntity
  8
40
  6
Continuous
 62
     3
370
    13
100
AcDbLine
 10
0.503937
 20
1.0
 30
0.0
 11
0.346457
 21
0.976378
 31
0.0
  0
LINE
  5
20C
330
1FA
100
AcDbEntity
  8
40
  6
Continuous
 62
     3
370
    13
100
AcDbLine
 10
0.653543
 20
0.976378
 30
0.0
 11
0.503937
 21
1.0
 31
0.0
  0
LINE
  5
20D
330
1FA
100
AcDbEntity
  8
40
  6
Continuous
 62
     3
370
    13
100
AcDbLine
 10
0.795276
 20
0.905512
 30
0.0
 11
0.653543
 21
0.976378
 31
0.0
  0
LINE
  5
20E
330
1FA
100
AcDbEntity
  8
40
  6
Continuous
 62
     3
370
    13
100
AcDbLine
 10
0.905512
 20
0.795276
 30
0.0
 11
0.795276
 21
0.905512
 31
0.0
  0
LINE
  5
20F
330
1FA
100
AcDbEntity
  8
40
  6
Continuous
 62
     3
370
    13
100
AcDbLine
 10
0.976378
 20
0.653543
 30
0.0
 11
0.905512
 21
0.795276
 31
0.0
  0
LINE
  5
210
330
1FA
100
AcDbEntity
  8
40
  6
Continuous
 62
     3
370
    13
100
AcDbLine
 10
1.0
 20
0.503937
 30
0.0
 11
0.976378
 21
0.653543
 31
0.0
  0
LINE
  5
211
330
1FA
100
AcDbEntity
  8
40
  6
Continuous
 62
     3
370
    13
100
AcDbLine
 10
0.976378
 20
0.346457
 30
0.0
 11
1.0
 21
0.503937
 31
0.0
  0
LINE
  5
212
330
1FA
100
AcDbEntity
  8
40
  6
Continuous
 62
     3
370
    13
100
AcDbLine
 10
0.905512
 20
0.204724
 30
0.0
 11
0.976378
 21
0.346457
 31
0.0
  0
LINE
  5
213
330
1FA
100
AcDbEntity
  8
40
  6
Continuous
 62
     3
370
    13
100
AcDbLine
 10
0.795276
 20
0.094488
 30
0.0
 11
0.905512
 21
0.204724
 31
0.0
  0
LINE
  5
214
330
1FA
100
AcDbEntity
  8
40
  6
Continuous
 62
     3
370
    13
100
AcDbLine
 10
0.653543
 20
0.023622
 30
0.0
 11
0.795276
 21
0.094488
 31
0.0
  0
LINE
  5
215
330
1FA
100
AcDbEntity
  8
40
  6
Continuous
 62
     3
370
    13
100
AcDbLine
 10
0.496063
 20
0.0
 30
0.0
 11
0.653543
 21
0.023622
 31
0.0
  0
LINE
  5
216
330
1FA
100
AcDbEntity
  8
40
  6
Continuous
 62
     3
370
    13
100
AcDbLine
 10
0.346457
 20
0.023622
 30
0.0
 11
0.496063
 21
0.0
 31
0.0
  0
LINE
  5
217
330
1FA
100
AcDbEntity
  8
40
  6
Continuous
 62
     3
370
    13
100
AcDbLine
 10
0.204724
 20
0.094488
 30
0.0
 11
0.346457
 21
0.023622
 31
0.0
  0
LINE
  5
218
330
1FA
100
AcDbEntity
  8
40
  6
Continuous
 62
     3
370
    13
100
AcDbLine
 10
0.094488
 20
0.204724
 30
0.0
 11
0.204724
 21
0.094488
 31
0.0
  0
LINE
  5
219
330
1FA
100
AcDbEntity
  8
40
  6
Continuous
 62
     3
370
    13
100
AcDbLine
 10
0.023622
 20
0.346457
 30
0.0
 11
0.094488
 21
0.204724
 31
0.0
  0
LINE
  5
21A
330
1FA
100
AcDbEntity
  8
40
  6
Continuous
 62
     3
370
    13
100
AcDbLine
 10
0.0
 20
0.503937
 30
0.0
 11
0.023622
 21
0.346457
 31
0.0
  0
LINE
  5
21B
330
1FA
100
AcDbEntity
  8
40
  6
Continuous
 62
     3
370
    13
100
AcDbLine
 10
0.023622
 20
0.653543
 30
0.0
 11
0.0
 21
0.503937
 31
0.0
  0
LINE
  5
21C
330
1FA
100
AcDbEntity
  8
40
  6
Continuous
 62
     3
370
    13
100
AcDbLine
 10
0.094488
 20
0.795276
 30
0.0
 11
0.023622
 21
0.653543
 31
0.0
  0
ENDBLK
  5
21F
330
1FA
100
AcDbEntity
  8
0
100
AcDbBlockEnd
  0
BLOCK
  5
276
330
254
100
AcDbEntity
  8
0
100
AcDbBlockBegin
  2
STS_NOM2
 70
     0
 10
0.0
 20
0.0
 30
0.0
  3
STS_NOM2
  1

  0
LINE
  5
255
330
254
100
AcDbEntity
  8
40
  6
Continuous
 62
     4
370
    13
100
AcDbLine
 10
0.259843
 20
0.0
 30
0.0
 11
0.0
 21
0.503937
 31
0.0
  0
LINE
  5
256
330
254
100
AcDbEntity
  8
40
  6
Continuous
 62
     4
370
    13
100
AcDbLine
 10
0.259843
 20
0.0
 30
0.0
 11
0.771654
 21
1.0
 31
0.0
  0
LINE
  5
257
330
254
100
AcDbEntity
  8
40
  6
Continuous
 62
     4
370
    13
100
AcDbLine
 10
0.173228
 20
0.5511810000000001
 30
0.0
 11
0.141732
 21
0.5275590000000001
 31
0.0
  0
LINE
  5
258
330
254
100
AcDbEntity
  8
40
  6
Continuous
 62
     4
370
    13
100
AcDbLine
 10
0.204724
 20
0.5669290000000001
 30
0.0
 11
0.173228
 21
0.5511810000000001
 31
0.0
  0
LINE
  5
259
330
254
100
AcDbEntity
  8
40
  6
Continuous
 62
     4
370
    13
100
AcDbLine
 10
0.23622
 20
0.574803
 30
0.0
 11
0.204724
 21
0.5669290000000001
 31
0.0
  0
LINE
  5
25A
330
254
100
AcDbEntity
  8
40
  6
Continuous
 62
     4
370
    13
100
AcDbLine
 10
0.275591
 20
0.574803
 30
0.0
 11
0.23622
 21
0.574803
 31
0.0
  0
LINE
  5
25B
330
254
100
AcDbEntity
  8
40
  6
Continuous
 62
     4
370
    13
100
AcDbLine
 10
0.307087
 20
0.5669290000000001
 30
0.0
 11
0.275591
 21
0.574803
 31
0.0
  0
LINE
  5
25C
330
254
100
AcDbEntity
  8
40
  6
Continuous
 62
     4
370
    13
100
AcDbLine
 10
0.346457
 20
0.5511810000000001
 30
0.0
 11
0.307087
 21
0.5669290000000001
 31
0.0
  0
LINE
  5
25D
330
254
100
AcDbEntity
  8
40
  6
Continuous
 62
     4
370
    13
100
AcDbLine
 10
0.370079
 20
0.5275590000000001
 30
0.0
 11
0.346457
 21
0.5511810000000001
 31
0.0
  0
LINE
  5
25E
330
254
100
AcDbEntity
  8
40
  6
Continuous
 62
     4
370
    13
100
AcDbLine
 10
0.393701
 20
0.496063
 30
0.0
 11
0.370079
 21
0.5275590000000001
 31
0.0
  0
LINE
  5
25F
330
254
100
AcDbEntity
  8
40
  6
Continuous
 62
     4
370
    13
100
AcDbLine
 10
0.417323
 20
0.464567
 30
0.0
 11
0.393701
 21
0.496063
 31
0.0
  0
LINE
  5
260
330
254
100
AcDbEntity
  8
40
  6
Continuous
 62
     4
370
    13
100
AcDbLine
 10
0.425197
 20
0.425197
 30
0.0
 11
0.417323
 21
0.464567
 31
0.0
  0
LINE
  5
261
330
254
100
AcDbEntity
  8
40
  6
Continuous
 62
     4
370
    13
100
AcDbLine
 10
0.425197
 20
0.385827
 30
0.0
 11
0.425197
 21
0.425197
 31
0.0
  0
LINE
  5
262
330
254
100
AcDbEntity
  8
40
  6
Continuous
 62
     4
370
    13
100
AcDbLine
 10
0.425197
 20
0.346457
 30
0.0
 11
0.425197
 21
0.385827
 31
0.0
  0
LINE
  5
263
330
254
100
AcDbEntity
  8
40
  6
Continuous
 62
     4
370
    13
100
AcDbLine
 10
0.417323
 20
0.307087
 30
0.0
 11
0.425197
 21
0.346457
 31
0.0
  0
LINE
  5
264
330
254
100
AcDbEntity
  8
40
  6
Continuous
 62
     4
370
    13
100
AcDbLine
 10
0.393701
 20
0.275591
 30
0.0
 11
0.417323
 21
0.307087
 31
0.0
  0
LINE
  5
265
330
254
100
AcDbEntity
  8
40
  6
Continuous
 62
     4
370
    13
100
AcDbLine
 10
0.370079
 20
0.244094
 30
0.0
 11
0.393701
 21
0.275591
 31
0.0
  0
LINE
  5
266
330
254
100
AcDbEntity
  8
40
  6
Continuous
 62
     4
370
    13
100
AcDbLine
 10
0.346457
 20
0.220472
 30
0.0
 11
0.370079
 21
0.244094
 31
0.0
  0
LINE
  5
267
330
254
100
AcDbEntity
  8
40
  6
Continuous
 62
     4
370
    13
100
AcDbLine
 10
0.307087
 20
0.204724
 30
0.0
 11
0.346457
 21
0.220472
 31
0.0
  0
LINE
  5
268
330
254
100
AcDbEntity
  8
40
  6
Continuous
 62
     4
370
    13
100
AcDbLine
 10
0.275591
 20
0.19685
 30
0.0
 11
0.307087
 21
0.204724
 31
0.0
  0
LINE
  5
269
330
254
100
AcDbEntity
  8
40
  6
Continuous
 62
     4
370
    13
100
AcDbLine
 10
0.23622
 20
0.19685
 30
0.0
 11
0.275591
 21
0.19685
 31
0.0
  0
LINE
  5
26A
330
254
100
AcDbEntity
  8
40
  6
Continuous
 62
     4
370
    13
100
AcDbLine
 10
0.204724
 20
0.204724
 30
0.0
 11
0.23622
 21
0.19685
 31
0.0
  0
LINE
  5
26B
330
254
100
AcDbEntity
  8
40
  6
Continuous
 62
     4
370
    13
100
AcDbLine
 10
0.173228
 20
0.220472
 30
0.0
 11
0.204724
 21
0.204724
 31
0.0
  0
LINE
  5
26C
330
254
100
AcDbEntity
  8
40
  6
Continuous
 62
     4
370
    13
100
AcDbLine
 10
0.141732
 20
0.244094
 30
0.0
 11
0.173228
 21
0.220472
 31
0.0
  0
LINE
  5
26D
330
254
100
AcDbEntity
  8
40
  6
Continuous
 62
     4
370
    13
100
AcDbLine
 10
0.11811
 20
0.275591
 30
0.0
 11
0.141732
 21
0.244094
 31
0.0
  0
LINE
  5
26E
330
254
100
AcDbEntity
  8
40
  6
Continuous
 62
     4
370
    13
100
AcDbLine
 10
0.102362
 20
0.307087
 30
0.0
 11
0.11811
 21
0.275591
 31
0.0
  0
LINE
  5
26F
330
254
100
AcDbEntity
  8
40
  6
Continuous
 62
     4
370
    13
100
AcDbLine
 10
0.086614
 20
0.346457
 30
0.0
 11
0.102362
 21
0.307087
 31
0.0
  0
LINE
  5
270
330
254
100
AcDbEntity
  8
40
  6
Continuous
 62
     4
370
    13
100
AcDbLine
 10
0.086614
 20
0.385827
 30
0.0
 11
0.086614
 21
0.346457
 31
0.0
  0
LINE
  5
271
330
254
100
AcDbEntity
  8
40
  6
Continuous
 62
     4
370
    13
100
AcDbLine
 10
0.086614
 20
0.425197
 30
0.0
 11
0.086614
 21
0.385827
 31
0.0
  0
LINE
  5
272
330
254
100
AcDbEntity
  8
40
  6
Continuous
 62
     4
370
    13
100
AcDbLine
 10
0.102362
 20
0.464567
 30
0.0
 11
0.086614
 21
0.425197
 31
0.0
  0
LINE
  5
273
330
254
100
AcDbEntity
  8
40
  6
Continuous
 62
     4
370
    13
100
AcDbLine
 10
0.11811
 20
0.496063
 30
0.0
 11
0.102362
 21
0.464567
 31
0.0
  0
LINE
  5
274
330
254
100
AcDbEntity
  8
40
  6
Continuous
 62
     4
370
    13
100
AcDbLine
 10
0.141732
 20
0.5275590000000001
 30
0.0
 11
0.11811
 21
0.496063
 31
0.0
  0
ENDBLK
  5
277
330
254
100
AcDbEntity
  8
0
100
AcDbBlockEnd
  0
BLOCK
  5
27D
330
278
100
AcDbEntity
  8
0
100
AcDbBlockBegin
  2
STS_MAT3
 70
     0
 10
0.0
 20
0.0
 30
0.0
  3
STS_MAT3
  1

  0
LINE
  5
279
330
278
100
AcDbEntity
  8
40
  6
Continuous
 62
     4
370
    13
100
AcDbLine
 10
0.259843
 20
0.0
 30
0.0
 11
0.0
 21
0.503937
 31
0.0
  0
LINE
  5
27A
330
278
100
AcDbEntity
  8
40
  6
Continuous
 62
     4
370
    13
100
AcDbLine
 10
0.0
 20
0.503937
 30
0.0
 11
0.511811
 21
0.503937
 31
0.0
  0
LINE
  5
27B
330
278
100
AcDbEntity
  8
40
  6
Continuous
 62
     4
370
    13
100
AcDbLine
 10
0.259843
 20
0.0
 30
0.0
 11
0.771654
 21
1.0
 31
0.0
  0
ENDBLK
  5
27E
330
278
100
AcDbEntity
  8
0
100
AcDbBlockEnd
  0
BLOCK
  5
284
330
27F
100
AcDbEntity
  8
0
100
AcDbBlockBegin
  2
STS_MAT4
 70
     0
 10
0.0
 20
0.0
 30
0.0
  3
STS_MAT4
  1

  0
LINE
  5
280
330
27F
100
AcDbEntity
  8
40
  6
Continuous
 62
     4
370
    13
100
AcDbLine
 10
0.259843
 20
0.0
 30
0.0
 11
0.0
 21
0.503937
 31
0.0
  0
LINE
  5
281
330
27F
100
AcDbEntity
  8
40
  6
Continuous
 62
     4
370
    13
100
AcDbLine
 10
0.0
 20
0.503937
 30
0.0
 11
0.511811
 21
0.503937
 31
0.0
  0
LINE
  5
282
330
27F
100
AcDbEntity
  8
40
  6
Continuous
 62
     4
370
    13
100
AcDbLine
 10
0.259843
 20
0.0
 30
0.0
 11
0.771654
 21
1.0
 31
0.0
  0
ENDBLK
  5
285
330
27F
100
AcDbEntity
  8
0
100
AcDbBlockEnd
  0
BLOCK
  5
28D
330
28C
100
AcDbEntity
  8
0
100
AcDbBlockBegin
  2
*D8
 70
     1
 10
0.0
 20
0.0
 30
0.0
  3
*D8
  1

  0
LINE
  5
28F
330
28C
100
AcDbEntity
  8
0
 62
     4
370
    -2
100
AcDbLine
 10
173.4545629999999
 20
159.436482
 30
0.0
 11
157.278144
 21
159.436482
 31
0.0
  0
LINE
  5
290
330
28C
100
AcDbEntity
  8
0
 62
     4
370
    -2
100
AcDbLine
 10
173.4545629999999
 20
130.636482
 30
0.0
 11
157.278144
 21
130.636482
 31
0.0
  0
LINE
  5
291
330
28C
100
AcDbEntity
  8
0
 62
     4
370
    -2
100
AcDbLine
 10
158.278144
 20
155.936482
 30
0.0
 11
158.278144
 21
134.136482
 31
0.0
  0
SOLID
  5
292
330
28C
100
AcDbEntity
  8
0
 62
     4
100
AcDbTrace
 10
158.861477
 20
155.936482
 30
0.0
 11
157.69481
 21
155.936482
 31
0.0
 12
158.278144
 22
159.436482
 32
0.0
 13
158.278144
 23
159.436482
 33
0.0
  0
SOLID
  5
293
330
28C
100
AcDbEntity
  8
0
 62
     4
100
AcDbTrace
 10
157.69481
 20
134.136482
 30
0.0
 11
158.861477
 21
134.136482
 31
0.0
 12
158.278144
 22
130.636482
 32
0.0
 13
158.278144
 23
130.636482
 33
0.0
  0
MTEXT
  5
294
330
28C
100
AcDbEntity
  8
0
 62
     3
370
    13
100
AcDbMText
 10
153.028144
 20
144.646944
 30
0.0
 40
3.5
 41
0.0
 71
     5
 72
     1
  1
\A1;28.8
  7
cesky
 11
0.0
 21
1.0
 31
0.0
 73
     1
 44
1.0
1001
ACAD
1000
MTEXTBEGIN
1070
    73
1070
     1
1070
    44
1040
1.0
1070
    74
1070
     0
1000
MTEXTEND
  0
POINT
  5
295
330
28C
100
AcDbEntity
  8
Defpoints
 62
     0
100
AcDbPoint
 10
173.4545629999999
 20
159.436482
 30
0.0
  0
POINT
  5
296
330
28C
100
AcDbEntity
  8
Defpoints
 62
     0
100
AcDbPoint
 10
173.4545629999999
 20
130.636482
 30
0.0
  0
POINT
  5
297
330
28C
100
AcDbEntity
  8
Defpoints
 62
     0
100
AcDbPoint
 10
158.278144
 20
130.636482
 30
0.0
  0
ENDBLK
  5
28E
330
28C
100
AcDbEntity
  8
0
100
AcDbBlockEnd
  0
BLOCK
  5
2A0
330
298
100
AcDbEntity
  8
0
100
AcDbBlockBegin
  2
_U0
 70
     0
 10
0.0
 20
0.0
 30
0.0
  3
_U0
  1

  0
MTEXT
  5
299
330
298
100
AcDbEntity
  8
40
  6
Continuous
 62
     3
370
    13
100
AcDbMText
 10
157.390727
 20
147.119027
 30
0.0
 40
3.5
 41
0.0
 71
     7
 72
     5
  1
\W1.0875;d{\A1;\H.50x;\S^ 1;}
  7
cesky
 11
0.0000000000000001
 21
1.0
 31
0.0
 73
     2
 44
1.084337
1001
ACAD
1000
MTEXTBEGIN
1070
    73
1070
     2
1070
    44
1040
1.084337
1070
    74
1070
     0
1000
MTEXTEND
  0
MTEXT
  5
29A
330
298
100
AcDbEntity
  8
40
  6
Continuous
 62
     3
370
    13
100
AcDbMText
 10
157.390727
 20
138.631527
 30
0.0
 40
3.5
 41
0.0
 71
     7
 72
     5
  1
\W3.0115;\H2.63;%%c\H3.50;
  7
cesky
 11
0.0000000000000001
 21
1.0
 31
0.0
 73
     2
 44
1.084337
1001
ACAD
1000
MTEXTBEGIN
1070
    73
1070
     2
1070
    44
1040
1.084337
1070
    74
1070
     0
1000
MTEXTEND
  0
LINE
  5
29B
330
298
100
AcDbEntity
  8
40
 62
     4
370
    13
100
AcDbLine
 10
173.4545629999999
 20
159.436482
 30
0.0
 11
157.278144
 21
159.436482
 31
0.0
  0
LINE
  5
29C
330
298
100
AcDbEntity
  8
40
 62
     4
370
    13
100
AcDbLine
 10
173.4545629999999
 20
130.636482
 30
0.0
 11
157.278144
 21
130.636482
 31
0.0
  0
LINE
  5
29D
330
298
100
AcDbEntity
  8
40
 62
     4
370
    13
100
AcDbLine
 10
158.278144
 20
159.436482
 30
0.0
 11
158.278144
 21
130.636482
 31
0.0
  0
SOLID
  5
29E
330
298
100
AcDbEntity
  8
40
 62
     4
370
    13
100
AcDbTrace
 10
158.278144
 20
159.436482
 30
0.0
 11
158.895288
 21
155.936484
 31
0.0
 12
157.660999
 22
155.93648
 32
0.0
 13
157.660999
 23
155.93648
 33
0.0
  0
SOLID
  5
29F
330
298
100
AcDbEntity
  8
40
 62
     4
370
    13
100
AcDbTrace
 10
158.278144
 20
130.636482
 30
0.0
 11
157.660999
 21
134.13648
 31
0.0
 12
158.895288
 22
134.136484
 32
0.0
 13
158.895288
 23
134.136484
 33
0.0
  0
ENDBLK
  5
2A1
330
298
100
AcDbEntity
  8
0
100
AcDbBlockEnd
  0
BLOCK
  5
2A6
330
2A5
100
AcDbEntity
  8
0
100
AcDbBlockBegin
  2
*D10
 70
     1
 10
0.0
 20
0.0
 30
0.0
  3
*D10
  1

  0
LINE
  5
2A8
330
2A5
100
AcDbEntity
  8
0
 62
     4
370
    -2
100
AcDbLine
 10
173.4545629999999
 20
145.036482
 30
0.0
 11
173.4545629999999
 21
153.710981
 31
0.0
  0
LINE
  5
2A9
330
2A5
100
AcDbEntity
  8
0
 62
     4
370
    -2
100
AcDbLine
 10
179.854563
 20
145.036482
 30
0.0
 11
179.854563
 21
153.710981
 31
0.0
  0
LINE
  5
2AA
330
2A5
100
AcDbEntity
  8
0
 62
     4
370
    -2
100
AcDbLine
 10
179.854563
 20
152.710981
 30
0.0
 11
201.354563
 21
152.710981
 31
0.0
  0
LINE
  5
2AB
330
2A5
100
AcDbEntity
  8
0
 62
     4
370
    -2
100
AcDbLine
 10
173.4545629999999
 20
152.710981
 30
0.0
 11
169.954563
 21
152.710981
 31
0.0
  0
LINE
  5
2AC
330
2A5
100
AcDbEntity
  8
0
 62
     4
370
    -2
100
AcDbLine
 10
179.854563
 20
152.710981
 30
0.0
 11
183.354563
 21
152.710981
 31
0.0
  0
SOLID
  5
2AD
330
2A5
100
AcDbEntity
  8
0
 62
     4
100
AcDbTrace
 10
176.954563
 20
153.294314
 30
0.0
 11
176.954563
 21
152.127647
 31
0.0
 12
173.4545629999999
 22
152.710981
 32
0.0
 13
173.4545629999999
 23
152.710981
 33
0.0
  0
SOLID
  5
2AE
330
2A5
100
AcDbEntity
  8
0
 62
     4
100
AcDbTrace
 10
176.354563
 20
152.127647
 30
0.0
 11
176.354563
 21
153.294314
 31
0.0
 12
179.854563
 22
152.710981
 32
0.0
 13
179.854563
 23
152.710981
 33
0.0
  0
MTEXT
  5
2AF
330
2A5
100
AcDbEntity
  8
0
 62
     3
370
    13
100
AcDbMText
 10
194.1045629999999
 20
157.960981
 30
0.0
 40
3.5
 41
0.0
 71
     5
 72
     1
  1
\A1;6.4
  7
cesky
 73
     1
 44
1.0
1001
ACAD
1000
MTEXTBEGIN
1070
    73
1070
     1
1070
    44
1040
1.0
1070
    74
1070
     0
1000
MTEXTEND
  0
POINT
  5
2B0
330
2A5
100
AcDbEntity
  8
Defpoints
 62
     0
100
AcDbPoint
 10
173.4545629999999
 20
145.036482
 30
0.0
  0
POINT
  5
2B1
330
2A5
100
AcDbEntity
  8
Defpoints
 62
     0
100
AcDbPoint
 10
179.854563
 20
145.036482
 30
0.0
  0
POINT
  5
2B2
330
2A5
100
AcDbEntity
  8
Defpoints
 62
     0
100
AcDbPoint
 10
179.854563
 20
152.710981
 30
0.0
  0
ENDBLK
  5
2A7
330
2A5
100
AcDbEntity
  8
0
100
AcDbBlockEnd
  0
BLOCK
  5
2B8
330
2B3
100
AcDbEntity
  8
0
100
AcDbBlockBegin
  2
_U1
 70
     0
 10
0.0
 20
0.0
 30
0.0
  3
_U1
  1

  0
LINE
  5
3B4
330
2B3
100
AcDbEntity
  8
40
  6
Continuous
 62
     4
370
    13
100
AcDbLine
 10
173.4545629999999
 20
145.036482
 30
0.0
 11
173.4545629999999
 21
153.710981
 31
0.0
  0
LINE
  5
3B5
330
2B3
100
AcDbEntity
  8
40
  6
Continuous
 62
     4
370
    13
100
AcDbLine
 10
179.854563
 20
145.036482
 30
0.0
 11
179.854563
 21
153.710981
 31
0.0
  0
LINE
  5
3B6
330
2B3
100
AcDbEntity
  8
40
  6
Continuous
 62
     4
370
    13
100
AcDbLine
 10
183.354563
 20
152.710981
 30
0.0
 11
196.5212296666667
 21
152.710981
 31
0.0
  0
LINE
  5
3B7
330
2B3
100
AcDbEntity
  8
40
  6
Continuous
 62
     4
370
    13
100
AcDbLine
 10
173.4545629999999
 20
152.710981
 30
0.0
 11
179.854563
 21
152.710981
 31
0.0
  0
SOLID
  5
3B8
330
2B3
100
AcDbEntity
  8
40
  6
Continuous
 62
     4
370
    13
100
AcDbTrace
 10
176.954563
 20
153.2943143333333
 30
0.0
 11
176.954563
 21
152.1276476666666
 31
0.0
 12
173.4545629999999
 22
152.710981
 32
0.0
 13
173.4545629999999
 23
152.710981
 33
0.0
  0
LINE
  5
3B9
330
2B3
100
AcDbEntity
  8
40
  6
Continuous
 62
     4
370
    13
100
AcDbLine
 10
176.954563
 20
152.710981
 30
0.0
 11
180.4545629999999
 21
152.710981
 31
0.0
  0
SOLID
  5
3BA
330
2B3
100
AcDbEntity
  8
40
  6
Continuous
 62
     4
370
    13
100
AcDbTrace
 10
176.354563
 20
153.2943143333333
 30
0.0
 11
176.354563
 21
152.1276476666666
 31
0.0
 12
179.854563
 22
152.710981
 32
0.0
 13
179.854563
 23
152.710981
 33
0.0
  0
LINE
  5
3BB
330
2B3
100
AcDbEntity
  8
40
  6
Continuous
 62
     4
370
    13
100
AcDbLine
 10
176.354563
 20
152.710981
 30
0.0
 11
172.854563
 21
152.710981
 31
0.0
  0
LINE
  5
3BC
330
2B3
100
AcDbEntity
  8
40
  6
Continuous
 62
     4
370
    13
100
AcDbLine
 10
179.854563
 20
152.710981
 30
0.0
 11
183.354563
 21
152.710981
 31
0.0
  0
MTEXT
  5
3BD
330
2B3
100
AcDbEntity
  8
40
  6
Continuous
 62
     3
370
    13
100
AcDbMText
 10
193.4378963333333
 20
157.960981
 30
0.0
 40
3.5
 41
0.0
 71
     1
 72
     1
  1
\A1;\C3;t
  7
cesky
 73
     1
 44
1.0
1001
ACAD
1000
MTEXTBEGIN
1070
    73
1070
     1
1070
    44
1040
1.0
1070
    74
1070
     0
1000
MTEXTEND
  0
POINT
  5
3BE
330
2B3
100
AcDbEntity
  8
Defpoints
  6
Continuous
 62
     0
370
    13
100
AcDbPoint
 10
173.4545629999999
 20
145.036482
 30
0.0
  0
POINT
  5
3BF
330
2B3
100
AcDbEntity
  8
Defpoints
  6
Continuous
 62
     0
370
    13
100
AcDbPoint
 10
179.854563
 20
145.036482
 30
0.0
  0
POINT
  5
3C0
330
2B3
100
AcDbEntity
  8
Defpoints
  6
Continuous
 62
     0
370
    13
100
AcDbPoint
 10
179.854563
 20
152.710981
 30
0.0
  0
ENDBLK
  5
2B9
330
2B3
100
AcDbEntity
  8
0
100
AcDbBlockEnd
  0
BLOCK
  5
2BF
330
2BE
100
AcDbEntity
  8
0
100
AcDbBlockBegin
  2
*D12
 70
     1
 10
0.0
 20
0.0
 30
0.0
  3
*D12
  1

  0
LINE
  5
2C1
330
2BE
100
AcDbEntity
  8
0
 62
     4
370
    -2
100
AcDbLine
 10
199.294563
 20
127.208686
 30
0.0
 11
228.226958
 21
122.107124
 31
0.0
  0
LINE
  5
2C2
330
2BE
100
AcDbEntity
  8
0
 62
     4
370
    -2
100
AcDbLine
 10
199.294563
 20
162.864279
 30
0.0
 11
228.226958
 21
167.96584
 31
0.0
  0
ARC
  5
2C3
330
2BE
100
AcDbEntity
  8
0
 62
     4
370
    -2
100
AcDbCircle
 10
98.18810500000001
 20
145.036482
 30
0.0
 40
131.044912194463
100
AcDbArc
 50
351.530324
 51
8.469675999999999
  0
SOLID
  5
2C4
330
2BE
100
AcDbEntity
  8
0
 62
     4
100
AcDbTrace
 10
227.228062
 20
125.829022
 30
0.0
 11
228.379608
 21
125.641794
 31
0.0
 12
227.24215
 22
122.280772
 32
0.0
 13
227.24215
 23
122.280772
 33
0.0
  0
SOLID
  5
2C5
330
2BE
100
AcDbEntity
  8
0
 62
     4
100
AcDbTrace
 10
228.379608
 20
164.43117
 30
0.0
 11
227.228062
 21
164.243942
 31
0.0
 12
227.24215
 22
167.792192
 32
0.0
 13
227.24215
 23
167.792192
 33
0.0
  0
MTEXT
  5
2C6
330
2BE
100
AcDbEntity
  8
0
 62
     3
370
    13
100
AcDbMText
 10
223.983017
 20
145.036482
 30
0.0
 40
3.5
 41
0.0
 71
     5
 72
     1
  1
\A1;20%%d
  7
cesky
 11
0.0000000000000004
 21
1.0
 31
0.0
 73
     1
 44
1.0
1001
ACAD
1000
MTEXTBEGIN
1070
    73
1070
     1
1070
    44
1040
1.0
1070
    74
1070
     0
1000
MTEXTEND
  0
POINT
  5
2C7
330
2BE
100
AcDbEntity
  8
Defpoints
 62
     0
100
AcDbPoint
 10
229.01131
 20
137.416898
 30
0.0
  0
POINT
  5
2C8
330
2BE
100
AcDbEntity
  8
Defpoints
 62
     0
100
AcDbPoint
 10
179.854563
 20
159.436482
 30
0.0
  0
POINT
  5
2C9
330
2BE
100
AcDbEntity
  8
Defpoints
 62
     0
100
AcDbPoint
 10
199.294563
 20
127.208686
 30
0.0
  0
POINT
  5
2CA
330
2BE
100
AcDbEntity
  8
Defpoints
 62
     0
100
AcDbPoint
 10
179.854563
 20
130.636482
 30
0.0
  0
POINT
  5
2CB
330
2BE
100
AcDbEntity
  8
Defpoints
 62
     0
100
AcDbPoint
 10
199.294563
 20
162.864279
 30
0.0
  0
ENDBLK
  5
2C0
330
2BE
100
AcDbEntity
  8
0
100
AcDbBlockEnd
  0
BLOCK
  5
2D4
330
2CC
100
AcDbEntity
  8
0
100
AcDbBlockBegin
  2
_U2
 70
     0
 10
0.0
 20
0.0
 30
0.0
  3
_U2
  1

  0
MTEXT
  5
2CD
330
2CC
100
AcDbEntity
  8
40
  6
Continuous
 62
     3
370
    13
100
AcDbMText
 10
232.50185
 20
134.714815
 30
0.0
 40
3.5
 41
0.0
 71
     7
 72
     5
  1
\W1.0515;20%%d
  7
cesky
 11
0.0000000000000001
 21
1.0
 31
0.0
 73
     2
 44
1.084337
1001
ACAD
1000
MTEXTBEGIN
1070
    73
1070
     2
1070
    44
1040
1.084337
1070
    74
1070
     0
1000
MTEXTEND
  0
MTEXT
  5
2CE
330
2CC
100
AcDbEntity
  8
40
  6
Continuous
 62
     3
370
    13
100
AcDbMText
 10
232.50185
 20
145.931482
 30
0.0
 40
3.5
 41
0.0
 71
     7
 72
     5
  1
\W1.7059;\W0.8529;{\W1.0000;%%p}\W1.7059;2{\W1.0000;%%d}
  7
cesky
 11
0.0000000000000001
 21
1.0
 31
0.0
 73
     2
 44
1.084337
1001
ACAD
1000
MTEXTBEGIN
1070
    73
1070
     2
1070
    44
1040
1.084337
1070
    74
1070
     0
1000
MTEXTEND
  0
LINE
  5
2CF
330
2CC
100
AcDbEntity
  8
40
 62
     4
370
    13
100
AcDbLine
 10
199.294563
 20
127.208686
 30
0.0
 11
231.673785
 21
121.499355
 31
0.0
  0
LINE
  5
2D0
330
2CC
100
AcDbEntity
  8
40
 62
     4
370
    13
100
AcDbLine
 10
199.294563
 20
162.864279
 30
0.0
 11
231.673785
 21
168.573609
 31
0.0
  0
ARC
  5
2D1
330
2CC
100
AcDbEntity
  8
40
 62
     4
370
    13
100
AcDbCircle
 10
98.18810500000001
 20
145.036482
 30
0.0
 40
134.5449121944631
100
AcDbArc
 50
350.0
 51
9.999943
  0
SOLID
  5
2D2
330
2CC
100
AcDbEntity
  8
40
 62
     4
370
    13
100
AcDbTrace
 10
230.688977
 20
121.673003
 30
0.0
 11
230.665865
 21
125.226919
 31
0.0
 12
231.882771
 22
125.020501
 32
0.0
 13
231.882771
 23
125.020501
 33
0.0
  0
SOLID
  5
2D3
330
2CC
100
AcDbEntity
  8
40
 62
     4
370
    13
100
AcDbTrace
 10
230.688977
 20
168.399961
 30
0.0
 11
231.882771
 21
165.052468
 31
0.0
 12
230.665866
 22
164.846041
 32
0.0
 13
230.665866
 23
164.846041
 33
0.0
  0
ENDBLK
  5
2D5
330
2CC
100
AcDbEntity
  8
0
100
AcDbBlockEnd
  0
BLOCK
  5
2DA
330
2D9
100
AcDbEntity
  8
0
100
AcDbBlockBegin
  2
*D14
 70
     1
 10
0.0
 20
0.0
 30
0.0
  3
*D14
  1

  0
LINE
  5
2DC
330
2D9
100
AcDbEntity
  8
0
 62
     4
370
    -2
100
AcDbLine
 10
197.495638
 20
105.036482
 30
0.0
 11
176.59076
 21
105.036482
 31
0.0
  0
ARC
  5
2DD
330
2D9
100
AcDbEntity
  8
0
 62
     4
370
    -2
100
AcDbCircle
 10
198.495638
 20
105.036482
 30
0.0
 40
20.90487851916483
100
AcDbArc
 50
153.792025
 51
163.396013
  0
ARC
  5
2DE
330
2D9
100
AcDbEntity
  8
0
 62
     4
370
    -2
100
AcDbCircle
 10
198.495638
 20
105.036482
 30
0.0
 40
20.90487851916483
100
AcDbArc
 50
189.603987
 51
199.207975
  0
SOLID
  5
2DF
330
2D9
100
AcDbEntity
  8
0
 62
     4
100
AcDbTrace
 10
177.891435
 20
111.129466
 30
0.0
 11
179.033439
 21
110.890848
 31
0.0
 12
177.746581
 22
107.584146
 32
0.0
 13
177.746581
 23
107.584146
 33
0.0
  0
SOLID
  5
2E0
330
2D9
100
AcDbEntity
  8
0
 62
     4
100
AcDbTrace
 10
178.465039
 20
101.5976
 30
0.0
 11
177.302468
 21
101.499935
 31
0.0
 12
177.59076
 22
105.036482
 32
0.0
 13
177.59076
 23
105.036482
 33
0.0
  0
MTEXT
  5
2E1
330
2D9
100
AcDbEntity
  8
0
 62
     3
370
    13
100
AcDbMText
 10
187.957086
 20
93.460035
 30
0.0
 40
3.5
 41
0.0
 71
     5
 72
     1
  1
\A1;7%%d
  7
cesky
 73
     1
 44
1.0
1001
ACAD
1000
MTEXTBEGIN
1070
    73
1070
     1
1070
    44
1040
1.0
1070
    74
1070
     0
1000
MTEXTEND
  0
ARC
  5
2E2
330
2D9
100
AcDbEntity
  8
0
 62
     4
370
    -2
100
AcDbCircle
 10
198.495638
 20
105.036482
 30
0.0
 40
20.90487851916483
100
AcDbArc
 50
180.0
 51
212.568881
  0
POINT
  5
2E3
330
2D9
100
AcDbEntity
  8
Defpoints
 62
     0
100
AcDbPoint
 10
177.660062
 20
106.737275
 30
0.0
  0
POINT
  5
2E4
330
2D9
100
AcDbEntity
  8
Defpoints
 62
     0
100
AcDbPoint
 10
198.495638
 20
105.036482
 30
0.0
  0
POINT
  5
2E5
330
2D9
100
AcDbEntity
  8
Defpoints
 62
     0
100
AcDbPoint
 10
198.495638
 20
105.036482
 30
0.0
  0
POINT
  5
2E6
330
2D9
100
AcDbEntity
  8
Defpoints
 62
     0
100
AcDbPoint
 10
173.4545629999999
 20
108.111139
 30
0.0
  0
POINT
  5
2E7
330
2D9
100
AcDbEntity
  8
Defpoints
 62
     0
100
AcDbPoint
 10
197.495638
 20
105.036482
 30
0.0
  0
ENDBLK
  5
2DB
330
2D9
100
AcDbEntity
  8
0
100
AcDbBlockEnd
  0
BLOCK
  5
2EF
330
2E8
100
AcDbEntity
  8
0
100
AcDbBlockBegin
  2
_U3
 70
     0
 10
0.0
 20
0.0
 30
0.0
  3
_U3
  1

  0
MTEXT
  5
2E9
330
2E8
100
AcDbEntity
  8
40
  6
Continuous
 62
     3
370
    13
100
AcDbMText
 10
183.710817
 20
88.749301
 30
0.0
 40
3.5
 41
0.0
 71
     7
 72
     5
  1
\W1.2852;7%%d
  7
cesky
 11
0.7394785784434714
 21
-0.6731800888493531
 31
0.0
 73
     2
 44
1.084337
1001
ACAD
1000
MTEXTBEGIN
1070
    73
1070
     2
1070
    44
1040
1.084337
1070
    74
1070
     0
1000
MTEXTEND
  0
LINE
  5
2EA
330
2E8
100
AcDbEntity
  8
40
 62
     4
370
    13
100
AcDbLine
 10
198.495638
 20
105.036482
 30
0.0
 11
174.692527
 21
105.036482
 31
0.0
  0
ARC
  5
2EB
330
2E8
100
AcDbEntity
  8
40
 62
     4
370
    13
100
AcDbCircle
 10
198.495638
 20
105.036482
 30
0.0
 40
22.80311100294345
100
AcDbArc
 50
180.0
 51
240.71791
  0
ARC
  5
2EC
330
2E8
100
AcDbEntity
  8
40
 62
     4
370
    13
100
AcDbCircle
 10
198.495638
 20
105.036482
 30
0.0
 40
22.80311100294345
100
AcDbArc
 50
152.007214
 51
179.999943
  0
SOLID
  5
2ED
330
2E8
100
AcDbEntity
  8
40
 62
     4
370
    13
100
AcDbTrace
 10
175.862498
 20
107.815482
 30
0.0
 11
175.81252
 21
111.369122
 31
0.0
 12
177.030951
 22
111.171909
 32
0.0
 13
177.030951
 23
111.171909
 33
0.0
  0
SOLID
  5
2EE
330
2E8
100
AcDbEntity
  8
40
 62
     4
370
    13
100
AcDbTrace
 10
175.692527
 20
105.036482
 30
0.0
 11
176.443225
 21
101.56268
 31
0.0
 12
175.209842
 22
101.515417
 32
0.0
 13
175.209842
 23
101.515417
 33
0.0
  0
ENDBLK
  5
2F0
330
2E8
100
AcDbEntity
  8
0
100
AcDbBlockEnd
  0
BLOCK
  5
346
330
2F1
100
AcDbEntity
  8
0
100
AcDbBlockBegin
  2
TabularNote1
 70
     0
 10
0.0
 20
0.0
 30
0.0
  3
TabularNote1
  1

  0
LINE
  5
2F2
330
2F1
100
AcDbEntity
  8
40
  6
Continuous
 62
     7
370
    18
100
AcDbLine
 10
0.0
 20
0.0
 30
0.0
 11
80.0
 21
0.0
 31
0.0
  0
LINE
  5
2F3
330
2F1
100
AcDbEntity
  8
40
  6
Continuous
 62
     7
370
    18
100
AcDbLine
 10
0.0
 20
0.0
 30
0.0
 11
0.0
 21
-7.291666999999999
 31
0.0
  0
LINE
  5
2F4
330
2F1
100
AcDbEntity
  8
40
  6
Continuous
 62
     7
370
    18
100
AcDbLine
 10
80.0
 20
0.0
 30
0.0
 11
80.0
 21
-7.291666999999999
 31
0.0
  0
LINE
  5
2F5
330
2F1
100
AcDbEntity
  8
40
  6
Continuous
 62
     7
370
    18
100
AcDbLine
 10
0.0
 20
-7.291666999999999
 30
0.0
 11
80.0
 21
-7.291666999999999
 31
0.0
  0
MTEXT
  5
2F6
330
2F1
100
AcDbEntity
  8
40
  6
Continuous
 62
     3
370
    18
100
AcDbMText
 10
40.0
 20
-5.041666999999999
 30
0.0
 40
4.5
 41
0.0
 71
     8
 72
     5
  1
\W1.1617;OZNACENI
  7
cesky
 73
     2
 44
1.084337
1001
ACAD
1000
MTEXTBEGIN
1070
    73
1070
     2
1070
    44
1040
1.084337
1070
    74
1070
     0
1000
MTEXTEND
  0
LINE
  5
2F7
330
2F1
100
AcDbEntity
  8
40
  6
Continuous
 62
     7
370
    18
100
AcDbLine
 10
80.0
 20
0.0
 30
0.0
 11
131.0
 21
0.0
 31
0.0
  0
LINE
  5
2F8
330
2F1
100
AcDbEntity
  8
40
  6
Continuous
 62
     7
370
    18
100
AcDbLine
 10
131.0
 20
0.0
 30
0.0
 11
131.0
 21
-7.291666999999999
 31
0.0
  0
LINE
  5
2F9
330
2F1
100
AcDbEntity
  8
40
  6
Continuous
 62
     7
370
    18
100
AcDbLine
 10
80.0
 20
-7.291666999999999
 30
0.0
 11
131.0
 21
-7.291666999999999
 31
0.0
  0
MTEXT
  5
2FA
330
2F1
100
AcDbEntity
  8
40
  6
Continuous
 62
     3
370
    18
100
AcDbMText
 10
105.5
 20
-5.041666999999999
 30
0.0
 40
4.5
 41
0.0
 71
     8
 72
     5
  1
\W1.0913;POLOTOVAR
  7
cesky
 73
     2
 44
1.084337
1001
ACAD
1000
MTEXTBEGIN
1070
    73
1070
     2
1070
    44
1040
1.084337
1070
    74
1070
     0
1000
MTEXTEND
  0
LINE
  5
2FB
330
2F1
100
AcDbEntity
  8
40
  6
Continuous
 62
     7
370
    18
100
AcDbLine
 10
131.0
 20
0.0
 30
0.0
 11
171.0
 21
0.0
 31
0.0
  0
LINE
  5
2FC
330
2F1
100
AcDbEntity
  8
40
  6
Continuous
 62
     7
370
    18
100
AcDbLine
 10
171.0
 20
0.0
 30
0.0
 11
171.0
 21
-7.291666999999999
 31
0.0
  0
LINE
  5
2FD
330
2F1
100
AcDbEntity
  8
40
  6
Continuous
 62
     7
370
    18
100
AcDbLine
 10
131.0
 20
-7.291666999999999
 30
0.0
 11
171.0
 21
-7.291666999999999
 31
0.0
  0
MTEXT
  5
2FE
330
2F1
100
AcDbEntity
  8
40
  6
Continuous
 62
     3
370
    18
100
AcDbMText
 10
151.0
 20
-5.041666999999999
 30
0.0
 40
4.5
 41
0.0
 71
     8
 72
     5
  1
\W1.3125;d
  7
cesky
 73
     2
 44
1.084337
1001
ACAD
1000
MTEXTBEGIN
1070
    73
1070
     2
1070
    44
1040
1.084337
1070
    74
1070
     0
1000
MTEXTEND
  0
LINE
  5
2FF
330
2F1
100
AcDbEntity
  8
40
  6
Continuous
 62
     7
370
    18
100
AcDbLine
 10
171.0
 20
0.0
 30
0.0
 11
208.0
 21
0.0
 31
0.0
  0
LINE
  5
300
330
2F1
100
AcDbEntity
  8
40
  6
Continuous
 62
     7
370
    18
100
AcDbLine
 10
208.0
 20
0.0
 30
0.0
 11
208.0
 21
-7.291666999999999
 31
0.0
  0
LINE
  5
301
330
2F1
100
AcDbEntity
  8
40
  6
Continuous
 62
     7
370
    18
100
AcDbLine
 10
171.0
 20
-7.291666999999999
 30
0.0
 11
208.0
 21
-7.291666999999999
 31
0.0
  0
MTEXT
  5
302
330
2F1
100
AcDbEntity
  8
40
  6
Continuous
 62
     3
370
    18
100
AcDbMText
 10
189.5
 20
-5.041666999999999
 30
0.0
 40
4.5
 41
0.0
 71
     8
 72
     5
  1
\W1.2668;s \W0.6334;%%p\W1.2668;0,13
  7
cesky
 73
     2
 44
1.084337
1001
ACAD
1000
MTEXTBEGIN
1070
    73
1070
     2
1070
    44
1040
1.084337
1070
    74
1070
     0
1000
MTEXTEND
  0
LINE
  5
303
330
2F1
100
AcDbEntity
  8
40
  6
Continuous
 62
     7
370
    18
100
AcDbLine
 10
208.0
 20
0.0
 30
0.0
 11
247.0
 21
0.0
 31
0.0
  0
LINE
  5
304
330
2F1
100
AcDbEntity
  8
40
  6
Continuous
 62
     7
370
    18
100
AcDbLine
 10
247.0
 20
0.0
 30
0.0
 11
247.0
 21
-7.291666999999999
 31
0.0
  0
LINE
  5
305
330
2F1
100
AcDbEntity
  8
40
  6
Continuous
 62
     7
370
    18
100
AcDbLine
 10
208.0
 20
-7.291666999999999
 30
0.0
 11
247.0
 21
-7.291666999999999
 31
0.0
  0
MTEXT
  5
306
330
2F1
100
AcDbEntity
  8
40
  6
Continuous
 62
     3
370
    18
100
AcDbMText
 10
227.5
 20
-5.041666999999999
 30
0.0
 40
4.5
 41
0.0
 71
     8
 72
     5
  1
\W1.5828;d{\A1;\H.50x;\S^ 1;} \W0.7914;%%p\W1.5828;0,08
  7
cesky
 73
     2
 44
1.084337
1001
ACAD
1000
MTEXTBEGIN
1070
    73
1070
     2
1070
    44
1040
1.084337
1070
    74
1070
     0
1000
MTEXTEND
  0
LINE
  5
307
330
2F1
100
AcDbEntity
  8
40
  6
Continuous
 62
     7
370
    18
100
AcDbLine
 10
247.0
 20
0.0
 30
0.0
 11
279.0
 21
0.0
 31
0.0
  0
LINE
  5
308
330
2F1
100
AcDbEntity
  8
40
  6
Continuous
 62
     7
370
    18
100
AcDbLine
 10
279.0
 20
0.0
 30
0.0
 11
279.0
 21
-7.291666999999999
 31
0.0
  0
LINE
  5
309
330
2F1
100
AcDbEntity
  8
40
  6
Continuous
 62
     7
370
    18
100
AcDbLine
 10
247.0
 20
-7.291666999999999
 30
0.0
 11
279.0
 21
-7.291666999999999
 31
0.0
  0
MTEXT
  5
30A
330
2F1
100
AcDbEntity
  8
40
  6
Continuous
 62
     3
370
    18
100
AcDbMText
 10
263.0
 20
-5.041666999999999
 30
0.0
 40
4.5
 41
0.0
 71
     8
 72
     5
  1
\W1.2838;t \W0.6419;%%p\W1.2838;0,3
  7
cesky
 73
     2
 44
1.084337
1001
ACAD
1000
MTEXTBEGIN
1070
    73
1070
     2
1070
    44
1040
1.084337
1070
    74
1070
     0
1000
MTEXTEND
  0
LINE
  5
30B
330
2F1
100
AcDbEntity
  8
40
  6
Continuous
 62
     7
370
    18
100
AcDbLine
 10
279.0
 20
0.0
 30
0.0
 11
314.0
 21
0.0
 31
0.0
  0
LINE
  5
30C
330
2F1
100
AcDbEntity
  8
40
  6
Continuous
 62
     7
370
    18
100
AcDbLine
 10
314.0
 20
0.0
 30
0.0
 11
314.0
 21
-7.291666999999999
 31
0.0
  0
LINE
  5
30D
330
2F1
100
AcDbEntity
  8
40
  6
Continuous
 62
     7
370
    18
100
AcDbLine
 10
279.0
 20
-7.291666999999999
 30
0.0
 11
314.0
 21
-7.291666999999999
 31
0.0
  0
MTEXT
  5
30E
330
2F1
100
AcDbEntity
  8
40
  6
Continuous
 62
     3
370
    18
100
AcDbMText
 10
296.5
 20
-5.041666999999999
 30
0.0
 40
4.5
 41
0.0
 71
     8
 72
     5
  1
\W1.1599;#######
  7
cesky
 73
     2
 44
1.084337
1001
ACAD
1000
MTEXTBEGIN
1070
    73
1070
     2
1070
    44
1040
1.084337
1070
    74
1070
     0
1000
MTEXTEND
  0
LINE
  5
30F
330
2F1
100
AcDbEntity
  8
40
  6
Continuous
 62
     7
370
    18
100
AcDbLine
 10
314.0
 20
0.0
 30
0.0
 11
337.0
 21
0.0
 31
0.0
  0
LINE
  5
310
330
2F1
100
AcDbEntity
  8
40
  6
Continuous
 62
     7
370
    18
100
AcDbLine
 10
337.0
 20
0.0
 30
0.0
 11
337.0
 21
-7.291666999999999
 31
0.0
  0
LINE
  5
311
330
2F1
100
AcDbEntity
  8
40
  6
Continuous
 62
     7
370
    18
100
AcDbLine
 10
314.0
 20
-7.291666999999999
 30
0.0
 11
337.0
 21
-7.291666999999999
 31
0.0
  0
MTEXT
  5
312
330
2F1
100
AcDbEntity
  8
40
  6
Continuous
 62
     3
370
    18
100
AcDbMText
 10
325.5
 20
-5.041666999999999
 30
0.0
 40
4.5
 41
0.0
 71
     8
 72
     5
  1
\W1.3150;/s{\A1;\H.50x;\S^ 1;}/
  7
cesky
 73
     2
 44
1.084337
1001
ACAD
1000
MTEXTBEGIN
1070
    73
1070
     2
1070
    44
1040
1.084337
1070
    74
1070
     0
1000
MTEXTEND
  0
LINE
  5
313
330
2F1
100
AcDbEntity
  8
40
  6
Continuous
 62
     7
370
    18
100
AcDbLine
 10
0.0
 20
-7.291666999999999
 30
0.0
 11
0.0
 21
-14.583333
 31
0.0
  0
LINE
  5
314
330
2F1
100
AcDbEntity
  8
40
  6
Continuous
 62
     7
370
    18
100
AcDbLine
 10
80.0
 20
-7.291666999999999
 30
0.0
 11
80.0
 21
-14.583333
 31
0.0
  0
LINE
  5
315
330
2F1
100
AcDbEntity
  8
40
  6
Continuous
 62
     7
370
    18
100
AcDbLine
 10
0.0
 20
-14.583333
 30
0.0
 11
80.0
 21
-14.583333
 31
0.0
  0
MTEXT
  5
316
330
2F1
100
AcDbEntity
  8
40
  6
Continuous
 62
     3
370
    18
100
AcDbMText
 10
40.0
 20
-12.333333
 30
0.0
 40
4.5
 41
0.0
 71
     8
 72
     5
  1
\W1.1020;RCMX 10 03 MO SN
  7
cesky
 73
     2
 44
1.084337
1001
ACAD
1000
MTEXTBEGIN
1070
    73
1070
     2
1070
    44
1040
1.084337
1070
    74
1070
     0
1000
MTEXTEND
  0
LINE
  5
317
330
2F1
100
AcDbEntity
  8
40
  6
Continuous
 62
     7
370
    18
100
AcDbLine
 10
131.0
 20
-7.291666999999999
 30
0.0
 11
131.0
 21
-14.583333
 31
0.0
  0
LINE
  5
318
330
2F1
100
AcDbEntity
  8
40
  6
Continuous
 62
     7
370
    18
100
AcDbLine
 10
80.0
 20
-14.583333
 30
0.0
 11
131.0
 21
-14.583333
 31
0.0
  0
MTEXT
  5
319
330
2F1
100
AcDbEntity
  8
40
  6
Continuous
 62
     3
370
    18
100
AcDbMText
 10
105.5
 20
-12.333333
 30
0.0
 40
4.5
 41
0.0
 71
     8
 72
     5
  1
\W1.1970;214 010
  7
cesky
 73
     2
 44
1.084337
1001
ACAD
1000
MTEXTBEGIN
1070
    73
1070
     2
1070
    44
1040
1.084337
1070
    74
1070
     0
1000
MTEXTEND
  0
LINE
  5
31A
330
2F1
100
AcDbEntity
  8
40
  6
Continuous
 62
     7
370
    18
100
AcDbLine
 10
171.0
 20
-7.291666999999999
 30
0.0
 11
171.0
 21
-14.583333
 31
0.0
  0
LINE
  5
31B
330
2F1
100
AcDbEntity
  8
40
  6
Continuous
 62
     7
370
    18
100
AcDbLine
 10
131.0
 20
-14.583333
 30
0.0
 11
171.0
 21
-14.583333
 31
0.0
  0
MTEXT
  5
31C
330
2F1
100
AcDbEntity
  8
40
  6
Continuous
 62
     3
370
    18
100
AcDbMText
 10
151.0
 20
-12.333333
 30
0.0
 40
4.5
 41
0.0
 71
     8
 72
     5
  1
\W1.1617;########
  7
cesky
 73
     2
 44
1.084337
1001
ACAD
1000
MTEXTBEGIN
1070
    73
1070
     2
1070
    44
1040
1.084337
1070
    74
1070
     0
1000
MTEXTEND
  0
LINE
  5
31D
330
2F1
100
AcDbEntity
  8
40
  6
Continuous
 62
     7
370
    18
100
AcDbLine
 10
208.0
 20
-7.291666999999999
 30
0.0
 11
208.0
 21
-14.583333
 31
0.0
  0
LINE
  5
31E
330
2F1
100
AcDbEntity
  8
40
  6
Continuous
 62
     7
370
    18
100
AcDbLine
 10
171.0
 20
-14.583333
 30
0.0
 11
208.0
 21
-14.583333
 31
0.0
  0
MTEXT
  5
31F
330
2F1
100
AcDbEntity
  8
40
  6
Continuous
 62
     3
370
    18
100
AcDbMText
 10
189.5
 20
-12.333333
 30
0.0
 40
4.5
 41
0.0
 71
     8
 72
     5
  1
\W1.3781;3,18
  7
cesky
 73
     2
 44
1.084337
1001
ACAD
1000
MTEXTBEGIN
1070
    73
1070
     2
1070
    44
1040
1.084337
1070
    74
1070
     0
1000
MTEXTEND
  0
LINE
  5
320
330
2F1
100
AcDbEntity
  8
40
  6
Continuous
 62
     7
370
    18
100
AcDbLine
 10
247.0
 20
-7.291666999999999
 30
0.0
 11
247.0
 21
-14.583333
 31
0.0
  0
LINE
  5
321
330
2F1
100
AcDbEntity
  8
40
  6
Continuous
 62
     7
370
    18
100
AcDbLine
 10
208.0
 20
-14.583333
 30
0.0
 11
247.0
 21
-14.583333
 31
0.0
  0
MTEXT
  5
322
330
2F1
100
AcDbEntity
  8
40
  6
Continuous
 62
     3
370
    18
100
AcDbMText
 10
227.5
 20
-12.333333
 30
0.0
 40
4.5
 41
0.0
 71
     8
 72
     5
  1
\W1.4041;3,6
  7
cesky
 73
     2
 44
1.084337
1001
ACAD
1000
MTEXTBEGIN
1070
    73
1070
     2
1070
    44
1040
1.084337
1070
    74
1070
     0
1000
MTEXTEND
  0
LINE
  5
323
330
2F1
100
AcDbEntity
  8
40
  6
Continuous
 62
     7
370
    18
100
AcDbLine
 10
279.0
 20
-7.291666999999999
 30
0.0
 11
279.0
 21
-14.583333
 31
0.0
  0
LINE
  5
324
330
2F1
100
AcDbEntity
  8
40
  6
Continuous
 62
     7
370
    18
100
AcDbLine
 10
247.0
 20
-14.583333
 30
0.0
 11
279.0
 21
-14.583333
 31
0.0
  0
MTEXT
  5
325
330
2F1
100
AcDbEntity
  8
40
  6
Continuous
 62
     3
370
    18
100
AcDbMText
 10
263.0
 20
-12.333333
 30
0.0
 40
4.5
 41
0.0
 71
     8
 72
     5
  1
\W1.3722;0,8
  7
cesky
 73
     2
 44
1.084337
1001
ACAD
1000
MTEXTBEGIN
1070
    73
1070
     2
1070
    44
1040
1.084337
1070
    74
1070
     0
1000
MTEXTEND
  0
LINE
  5
326
330
2F1
100
AcDbEntity
  8
40
  6
Continuous
 62
     7
370
    18
100
AcDbLine
 10
314.0
 20
-7.291666999999999
 30
0.0
 11
314.0
 21
-14.583333
 31
0.0
  0
LINE
  5
327
330
2F1
100
AcDbEntity
  8
40
  6
Continuous
 62
     7
370
    18
100
AcDbLine
 10
279.0
 20
-14.583333
 30
0.0
 11
314.0
 21
-14.583333
 31
0.0
  0
MTEXT
  5
328
330
2F1
100
AcDbEntity
  8
40
  6
Continuous
 62
     3
370
    18
100
AcDbMText
 10
296.5
 20
-12.333333
 30
0.0
 40
4.5
 41
0.0
 71
     8
 72
     5
  1
\W1.3722;0,2
  7
cesky
 73
     2
 44
1.084337
1001
ACAD
1000
MTEXTBEGIN
1070
    73
1070
     2
1070
    44
1040
1.084337
1070
    74
1070
     0
1000
MTEXTEND
  0
LINE
  5
329
330
2F1
100
AcDbEntity
  8
40
  6
Continuous
 62
     7
370
    18
100
AcDbLine
 10
337.0
 20
-7.291666999999999
 30
0.0
 11
337.0
 21
-14.583333
 31
0.0
  0
LINE
  5
32A
330
2F1
100
AcDbEntity
  8
40
  6
Continuous
 62
     7
370
    18
100
AcDbLine
 10
314.0
 20
-14.583333
 30
0.0
 11
337.0
 21
-14.583333
 31
0.0
  0
MTEXT
  5
32B
330
2F1
100
AcDbEntity
  8
40
  6
Continuous
 62
     3
370
    18
100
AcDbMText
 10
325.5
 20
-12.333333
 30
0.0
 40
4.5
 41
0.0
 71
     8
 72
     5
  1
\W1.2920;3,23
  7
cesky
 73
     2
 44
1.084337
1001
ACAD
1000
MTEXTBEGIN
1070
    73
1070
     2
1070
    44
1040
1.084337
1070
    74
1070
     0
1000
MTEXTEND
  0
LINE
  5
32C
330
2F1
100
AcDbEntity
  8
40
  6
Continuous
 62
     7
370
    18
100
AcDbLine
 10
0.0
 20
-14.583333
 30
0.0
 11
0.0
 21
-21.875
 31
0.0
  0
LINE
  5
32D
330
2F1
100
AcDbEntity
  8
40
  6
Continuous
 62
     7
370
    18
100
AcDbLine
 10
80.0
 20
-14.583333
 30
0.0
 11
80.0
 21
-21.875
 31
0.0
  0
LINE
  5
32E
330
2F1
100
AcDbEntity
  8
40
  6
Continuous
 62
     7
370
    18
100
AcDbLine
 10
0.0
 20
-21.875
 30
0.0
 11
80.0
 21
-21.875
 31
0.0
  0
MTEXT
  5
32F
330
2F1
100
AcDbEntity
  8
40
  6
Continuous
 62
     3
370
    18
100
AcDbMText
 10
40.0
 20
-19.625
 30
0.0
 40
4.5
 41
0.0
 71
     8
 72
     5
  1
\W1.1020;RCMX 12 04 MO SN
  7
cesky
 73
     2
 44
1.084337
1001
ACAD
1000
MTEXTBEGIN
1070
    73
1070
     2
1070
    44
1040
1.084337
1070
    74
1070
     0
1000
MTEXTEND
  0
LINE
  5
330
330
2F1
100
AcDbEntity
  8
40
  6
Continuous
 62
     7
370
    18
100
AcDbLine
 10
131.0
 20
-14.583333
 30
0.0
 11
131.0
 21
-21.875
 31
0.0
  0
LINE
  5
331
330
2F1
100
AcDbEntity
  8
40
  6
Continuous
 62
     7
370
    18
100
AcDbLine
 10
80.0
 20
-21.875
 30
0.0
 11
131.0
 21
-21.875
 31
0.0
  0
MTEXT
  5
332
330
2F1
100
AcDbEntity
  8
40
  6
Continuous
 62
     3
370
    18
100
AcDbMText
 10
105.5
 20
-19.625
 30
0.0
 40
4.5
 41
0.0
 71
     8
 72
     5
  1
\W1.2067;822 071
  7
cesky
 73
     2
 44
1.084337
1001
ACAD
1000
MTEXTBEGIN
1070
    73
1070
     2
1070
    44
1040
1.084337
1070
    74
1070
     0
1000
MTEXTEND
  0
LINE
  5
333
330
2F1
100
AcDbEntity
  8
40
  6
Continuous
 62
     7
370
    18
100
AcDbLine
 10
171.0
 20
-14.583333
 30
0.0
 11
171.0
 21
-21.875
 31
0.0
  0
LINE
  5
334
330
2F1
100
AcDbEntity
  8
40
  6
Continuous
 62
     7
370
    18
100
AcDbLine
 10
131.0
 20
-21.875
 30
0.0
 11
171.0
 21
-21.875
 31
0.0
  0
MTEXT
  5
335
330
2F1
100
AcDbEntity
  8
40
  6
Continuous
 62
     3
370
    18
100
AcDbMText
 10
151.0
 20
-19.625
 30
0.0
 40
4.5
 41
0.0
 71
     8
 72
     5
  1
\W1.1617;########
  7
cesky
 73
     2
 44
1.084337
1001
ACAD
1000
MTEXTBEGIN
1070
    73
1070
     2
1070
    44
1040
1.084337
1070
    74
1070
     0
1000
MTEXTEND
  0
LINE
  5
336
330
2F1
100
AcDbEntity
  8
40
  6
Continuous
 62
     7
370
    18
100
AcDbLine
 10
208.0
 20
-14.583333
 30
0.0
 11
208.0
 21
-21.875
 31
0.0
  0
LINE
  5
337
330
2F1
100
AcDbEntity
  8
40
  6
Continuous
 62
     7
370
    18
100
AcDbLine
 10
171.0
 20
-21.875
 30
0.0
 11
208.0
 21
-21.875
 31
0.0
  0
MTEXT
  5
338
330
2F1
100
AcDbEntity
  8
40
  6
Continuous
 62
     3
370
    18
100
AcDbMText
 10
189.5
 20
-19.625
 30
0.0
 40
4.5
 41
0.0
 71
     8
 72
     5
  1
\W1.3125;4,76
  7
cesky
 73
     2
 44
1.084337
1001
ACAD
1000
MTEXTBEGIN
1070
    73
1070
     2
1070
    44
1040
1.084337
1070
    74
1070
     0
1000
MTEXTEND
  0
LINE
  5
339
330
2F1
100
AcDbEntity
  8
40
  6
Continuous
 62
     7
370
    18
100
AcDbLine
 10
247.0
 20
-14.583333
 30
0.0
 11
247.0
 21
-21.875
 31
0.0
  0
LINE
  5
33A
330
2F1
100
AcDbEntity
  8
40
  6
Continuous
 62
     7
370
    18
100
AcDbLine
 10
208.0
 20
-21.875
 30
0.0
 11
247.0
 21
-21.875
 31
0.0
  0
MTEXT
  5
33B
330
2F1
100
AcDbEntity
  8
40
  6
Continuous
 62
     3
370
    18
100
AcDbMText
 10
227.5
 20
-19.625
 30
0.0
 40
4.5
 41
0.0
 71
     8
 72
     5
  1
\W1.3722;4,2
  7
cesky
 73
     2
 44
1.084337
1001
ACAD
1000
MTEXTBEGIN
1070
    73
1070
     2
1070
    44
1040
1.084337
1070
    74
1070
     0
1000
MTEXTEND
  0
LINE
  5
33C
330
2F1
100
AcDbEntity
  8
40
  6
Continuous
 62
     7
370
    18
100
AcDbLine
 10
279.0
 20
-14.583333
 30
0.0
 11
279.0
 21
-21.875
 31
0.0
  0
LINE
  5
33D
330
2F1
100
AcDbEntity
  8
40
  6
Continuous
 62
     7
370
    18
100
AcDbLine
 10
247.0
 20
-21.875
 30
0.0
 11
279.0
 21
-21.875
 31
0.0
  0
MTEXT
  5
33E
330
2F1
100
AcDbEntity
  8
40
  6
Continuous
 62
     3
370
    18
100
AcDbMText
 10
263.0
 20
-19.625
 30
0.0
 40
4.5
 41
0.0
 71
     8
 72
     5
  1
\W1.4015;1,56
  7
cesky
 73
     2
 44
1.084337
1001
ACAD
1000
MTEXTBEGIN
1070
    73
1070
     2
1070
    44
1040
1.084337
1070
    74
1070
     0
1000
MTEXTEND
  0
LINE
  5
33F
330
2F1
100
AcDbEntity
  8
40
  6
Continuous
 62
     7
370
    18
100
AcDbLine
 10
314.0
 20
-14.583333
 30
0.0
 11
314.0
 21
-21.875
 31
0.0
  0
LINE
  5
340
330
2F1
100
AcDbEntity
  8
40
  6
Continuous
 62
     7
370
    18
100
AcDbLine
 10
279.0
 20
-21.875
 30
0.0
 11
314.0
 21
-21.875
 31
0.0
  0
MTEXT
  5
341
330
2F1
100
AcDbEntity
  8
40
  6
Continuous
 62
     3
370
    18
100
AcDbMText
 10
296.5
 20
-19.625
 30
0.0
 40
4.5
 41
0.0
 71
     8
 72
     5
  1
\W1.3722;0,2
  7
cesky
 73
     2
 44
1.084337
1001
ACAD
1000
MTEXTBEGIN
1070
    73
1070
     2
1070
    44
1040
1.084337
1070
    74
1070
     0
1000
MTEXTEND
  0
LINE
  5
342
330
2F1
100
AcDbEntity
  8
40
  6
Continuous
 62
     7
370
    18
100
AcDbLine
 10
337.0
 20
-14.583333
 30
0.0
 11
337.0
 21
-21.875
 31
0.0
  0
LINE
  5
343
330
2F1
100
AcDbEntity
  8
40
  6
Continuous
 62
     7
370
    18
100
AcDbLine
 10
314.0
 20
-21.875
 30
0.0
 11
337.0
 21
-21.875
 31
0.0
  0
MTEXT
  5
344
330
2F1
100
AcDbEntity
  8
40
  6
Continuous
 62
     3
370
    18
100
AcDbMText
 10
325.5
 20
-19.625
 30
0.0
 40
4.5
 41
0.0
 71
     8
 72
     5
  1
\W1.5034;4,81
  7
cesky
 73
     2
 44
1.084337
1001
ACAD
1000
MTEXTBEGIN
1070
    73
1070
     2
1070
    44
1040
1.084337
1070
    74
1070
     0
1000
MTEXTEND
  0
ENDBLK
  5
347
330
2F1
100
AcDbEntity
  8
0
100
AcDbBlockEnd
  0
ENDSEC
  0
SECTION
  2
ENTITIES
  0
POINT
  5
73
330
1F
100
AcDbEntity
  8
40
  6
Continuous
 62
     5
 60
     1
370
    13
100
AcDbPoint
 10
173.4545629999999
 20
145.036482
 30
0.0
  0
POINT
  5
75
330
1F
100
AcDbEntity
  8
40
  6
Continuous
 62
     5
 60
     1
370
    13
100
AcDbPoint
 10
198.894563
 20
145.036482
 30
0.0
  0
POINT
  5
76
330
1F
100
AcDbEntity
  8
40
  6
Continuous
 62
     5
 60
     1
370
    13
100
AcDbPoint
 10
158.291203
 20
128.22253
 30
0.0
  0
POINT
  5
77
330
1F
100
AcDbEntity
  8
40
  6
Continuous
 62
     5
 60
     1
370
    13
100
AcDbPoint
 10
360.0
 20
269.000007
 30
0.0
  0
POINT
  5
78
330
1F
100
AcDbEntity
  8
40
  6
Continuous
 62
     5
 60
     1
370
    13
100
AcDbPoint
 10
400.9999829999999
 20
269.000009
 30
0.0
  0
POINT
  5
79
330
1F
100
AcDbEntity
  8
40
  6
Continuous
 62
     5
 60
     1
370
    13
100
AcDbPoint
 10
382.999983
 20
269.000009
 30
0.0
  0
LINE
  5
8F
330
1F
100
AcDbEntity
  8
40
  6
Continuous
 62
    30
 60
     1
370
    18
100
AcDbLine
 10
198.894563
 20
183.436482
 30
0.0
 11
197.860516
 21
179.289148
 31
0.0
  0
LINE
  5
90
330
1F
100
AcDbEntity
  8
40
  6
Continuous
 62
    30
 60
     1
370
    18
100
AcDbLine
 10
198.495638
 20
185.036482
 30
0.0
 11
198.894563
 21
183.436482
 31
0.0
  0
LINE
  5
91
330
1F
100
AcDbEntity
  8
40
  6
Continuous
 62
    30
 60
     1
370
    18
100
AcDbLine
 10
173.4545629999999
 20
181.961825
 30
0.0
 11
198.495638
 21
185.036482
 31
0.0
  0
LINE
  5
92
330
1F
100
AcDbEntity
  8
40
  6
Continuous
 62
    30
 60
     1
370
    18
100
AcDbLine
 10
173.4545629999999
 20
159.436482
 30
0.0
 11
173.4545629999999
 21
181.961825
 31
0.0
  0
LINE
  5
93
330
1F
100
AcDbEntity
  8
40
  6
Continuous
 62
    30
 60
     1
370
    18
100
AcDbLine
 10
173.4545629999999
 20
159.436482
 30
0.0
 11
179.854563
 21
159.436482
 31
0.0
  0
LINE
  5
94
330
1F
100
AcDbEntity
  8
40
  6
Continuous
 62
    30
 60
     1
370
    18
100
AcDbLine
 10
179.854563
 20
159.436482
 30
0.0
 11
199.294563
 21
162.864279
 31
0.0
  0
LINE
  5
95
330
1F
100
AcDbEntity
  8
40
  6
Continuous
 62
    30
 60
     1
370
    18
100
AcDbLine
 10
199.294563
 20
168.396482
 30
0.0
 11
199.294563
 21
162.864279
 31
0.0
  0
LINE
  5
96
330
1F
100
AcDbEntity
  8
40
  6
Continuous
 62
    30
 60
     1
370
    18
100
AcDbLine
 10
197.860516
 20
179.289148
 30
0.0
 11
199.294563
 21
168.396482
 31
0.0
  0
LINE
  5
97
330
1F
100
AcDbEntity
  8
40
  6
Continuous
 62
    30
 60
     1
370
    18
100
AcDbLine
 10
197.860516
 20
110.783817
 30
0.0
 11
198.894563
 21
106.636482
 31
0.0
  0
LINE
  5
98
330
1F
100
AcDbEntity
  8
40
  6
Continuous
 62
    30
 60
     1
370
    18
100
AcDbLine
 10
199.294563
 20
121.676482
 30
0.0
 11
197.860516
 21
110.783817
 31
0.0
  0
LINE
  5
99
330
1F
100
AcDbEntity
  8
40
  6
Continuous
 62
    30
 60
     1
370
    18
100
AcDbLine
 10
199.294563
 20
127.208686
 30
0.0
 11
199.294563
 21
121.676482
 31
0.0
  0
LINE
  5
9A
330
1F
100
AcDbEntity
  8
40
  6
Continuous
 62
    30
 60
     1
370
    18
100
AcDbLine
 10
199.294563
 20
127.208686
 30
0.0
 11
179.854563
 21
130.636482
 31
0.0
  0
LINE
  5
9B
330
1F
100
AcDbEntity
  8
40
  6
Continuous
 62
    30
 60
     1
370
    18
100
AcDbLine
 10
179.854563
 20
130.636482
 30
0.0
 11
173.4545629999999
 21
130.636482
 31
0.0
  0
LINE
  5
9C
330
1F
100
AcDbEntity
  8
40
  6
Continuous
 62
    30
 60
     1
370
    18
100
AcDbLine
 10
173.4545629999999
 20
108.111139
 30
0.0
 11
173.4545629999999
 21
130.636482
 31
0.0
  0
LINE
  5
9D
330
1F
100
AcDbEntity
  8
40
  6
Continuous
 62
    30
 60
     1
370
    18
100
AcDbLine
 10
198.495638
 20
105.036482
 30
0.0
 11
173.4545629999999
 21
108.111139
 31
0.0
  0
LINE
  5
9E
330
1F
100
AcDbEntity
  8
40
  6
Continuous
 62
    30
 60
     1
370
    18
100
AcDbLine
 10
198.894563
 20
106.636482
 30
0.0
 11
198.495638
 21
105.036482
 31
0.0
  0
LINE
  5
E1
330
1F
100
AcDbEntity
  8
40
  6
Continuous
 62
    15
 60
     1
370
    13
100
AcDbLine
 10
276.65659
 20
183.636503
 30
0.0
 11
277.273734
 21
180.136505
 31
0.0
  0
LINE
  5
E2
330
1F
100
AcDbEntity
  8
40
  6
Continuous
 62
    15
 60
     1
370
    13
100
AcDbLine
 10
277.273734
 20
180.136505
 30
0.0
 11
276.039445
 21
180.136501
 31
0.0
  0
LINE
  5
E3
330
1F
100
AcDbEntity
  8
40
  6
Continuous
 62
    15
 60
     1
370
    13
100
AcDbLine
 10
276.039445
 20
180.136501
 30
0.0
 11
276.65659
 21
183.636503
 31
0.0
  0
LINE
  5
E7
330
1F
100
AcDbEntity
  8
40
  6
Continuous
 62
    15
 60
     1
370
    13
100
AcDbLine
 10
374.498886
 20
184.736503
 30
0.0
 11
375.116031
 21
181.236505
 31
0.0
  0
LINE
  5
E8
330
1F
100
AcDbEntity
  8
40
  6
Continuous
 62
    15
 60
     1
370
    13
100
AcDbLine
 10
375.116031
 20
181.236505
 30
0.0
 11
373.881742
 21
181.236501
 31
0.0
  0
LINE
  5
E9
330
1F
100
AcDbEntity
  8
40
  6
Continuous
 62
    15
 60
     1
370
    13
100
AcDbLine
 10
373.881742
 20
181.236501
 30
0.0
 11
374.498886
 21
184.736503
 31
0.0
  0
LINE
  5
ED
330
1F
100
AcDbEntity
  8
40
  6
Continuous
 62
    15
 60
     1
370
    13
100
AcDbLine
 10
312.550161
 20
206.106998
 30
0.0
 11
316.050159
 21
206.724143
 31
0.0
  0
LINE
  5
EE
330
1F
100
AcDbEntity
  8
40
  6
Continuous
 62
    15
 60
     1
370
    13
100
AcDbLine
 10
316.050159
 20
206.724143
 30
0.0
 11
316.050163
 21
205.489854
 31
0.0
  0
LINE
  5
EF
330
1F
100
AcDbEntity
  8
40
  6
Continuous
 62
    15
 60
     1
370
    13
100
AcDbLine
 10
316.050163
 20
205.489854
 30
0.0
 11
312.550161
 21
206.106998
 31
0.0
  0
LINE
  5
F0
330
1F
100
AcDbEntity
  8
40
  6
Continuous
 62
    15
 60
     1
370
    13
100
AcDbLine
 10
308.150161
 20
206.106998
 30
0.0
 11
304.650163
 21
205.489854
 31
0.0
  0
LINE
  5
F1
330
1F
100
AcDbEntity
  8
40
  6
Continuous
 62
    15
 60
     1
370
    13
100
AcDbLine
 10
304.650163
 20
205.489854
 30
0.0
 11
304.650159
 21
206.724143
 31
0.0
  0
LINE
  5
F2
330
1F
100
AcDbEntity
  8
40
  6
Continuous
 62
    15
 60
     1
370
    13
100
AcDbLine
 10
304.650159
 20
206.724143
 30
0.0
 11
308.150161
 21
206.106998
 31
0.0
  0
LINE
  5
F5
330
1F
100
AcDbEntity
  8
40
  6
Continuous
 62
    15
 60
     1
370
    13
100
AcDbLine
 10
288.198429
 20
177.564934
 30
0.0
 11
289.756082
 21
174.370475
 31
0.0
  0
LINE
  5
F6
330
1F
100
AcDbEntity
  8
40
  6
Continuous
 62
    15
 60
     1
370
    13
100
AcDbLine
 10
289.756082
 20
174.370475
 30
0.0
 11
288.569575
 21
174.030372
 31
0.0
  0
LINE
  5
F7
330
1F
100
AcDbEntity
  8
40
  6
Continuous
 62
    15
 60
     1
370
    13
100
AcDbLine
 10
288.569575
 20
174.030372
 30
0.0
 11
288.198429
 21
177.564934
 31
0.0
  0
LINE
  5
F8
330
1F
100
AcDbEntity
  8
40
  6
Continuous
 62
    15
 60
     1
370
    13
100
AcDbLine
 10
287.452935
 20
183.636503
 30
0.0
 11
286.957967
 21
187.155858
 31
0.0
  0
LINE
  5
F9
330
1F
100
AcDbEntity
  8
40
  6
Continuous
 62
    15
 60
     1
370
    13
100
AcDbLine
 10
286.957967
 20
187.155858
 30
0.0
 11
288.191509
 21
187.112908
 31
0.0
  0
LINE
  5
FA
330
1F
100
AcDbEntity
  8
40
  6
Continuous
 62
    15
 60
     1
370
    13
100
AcDbLine
 10
288.191509
 20
187.112908
 30
0.0
 11
287.452935
 21
183.636503
 31
0.0
  0
CIRCLE
  5
135
330
1F
100
AcDbEntity
  8
40
  6
Continuous
 62
    30
370
    18
100
AcDbCircle
 10
0.0
 20
0.0
 30
0.0
 40
5.0
  0
CIRCLE
  5
136
330
1F
100
AcDbEntity
  8
40
  6
Continuous
 62
    30
370
    18
100
AcDbCircle
 10
0.0
 20
0.0
 30
0.0
 40
4.281583190632892
  0
CIRCLE
  5
137
330
1F
100
AcDbEntity
  8
40
  6
Continuous
 62
    30
370
    18
100
AcDbCircle
 10
0.0
 20
0.0
 30
0.0
 40
2.919999999999999
  0
CIRCLE
  5
138
330
1F
100
AcDbEntity
  8
40
  6
Continuous
 62
    30
370
    18
100
AcDbCircle
 10
0.0
 20
0.0
 30
0.0
 40
4.799999999999999
  0
CIRCLE
  5
139
330
1F
100
AcDbEntity
  8
40
  6
Continuous
 62
    30
370
    18
100
AcDbCircle
 10
0.0
 20
0.0
 30
0.0
 40
2.228474563121569
  0
CIRCLE
  5
13A
330
1F
100
AcDbEntity
  8
40
  6
Continuous
 62
    30
370
    18
100
AcDbCircle
 10
0.0
 20
0.0
 30
0.0
 40
1.8
  0
LINE
  5
14F
330
1F
100
AcDbEntity
  8
40
  6
Continuous
 62
     4
 60
     1
370
    13
100
AcDbLine
 10
199.294563
 20
168.396482
 30
0.0
 11
199.294563
 21
162.864279
 31
0.0
  0
LINE
  5
150
330
1F
100
AcDbEntity
  8
40
  6
Continuous
 62
     4
 60
     1
370
    13
100
AcDbLine
 10
199.294563
 20
162.864279
 30
0.0
 11
179.854563
 21
159.436482
 31
0.0
  0
LINE
  5
151
330
1F
100
AcDbEntity
  8
40
  6
Continuous
 62
     4
 60
     1
370
    13
100
AcDbLine
 10
179.854563
 20
159.436482
 30
0.0
 11
173.4545629999999
 21
159.436482
 31
0.0
  0
LINE
  5
152
330
1F
100
AcDbEntity
  8
40
  6
Continuous
 62
     4
 60
     1
370
    13
100
AcDbLine
 10
173.4545629999999
 20
159.436482
 30
0.0
 11
173.4545629999999
 21
181.961825
 31
0.0
  0
LINE
  5
153
330
1F
100
AcDbEntity
  8
40
  6
Continuous
 62
     4
 60
     1
370
    13
100
AcDbLine
 10
173.4545629999999
 20
181.961825
 30
0.0
 11
198.495638
 21
185.036482
 31
0.0
  0
LINE
  5
154
330
1F
100
AcDbEntity
  8
40
  6
Continuous
 62
     4
 60
     1
370
    13
100
AcDbLine
 10
198.495638
 20
185.036482
 30
0.0
 11
198.894563
 21
183.436482
 31
0.0
  0
LINE
  5
155
330
1F
100
AcDbEntity
  8
40
  6
Continuous
 62
     4
 60
     1
370
    13
100
AcDbLine
 10
198.894563
 20
183.436482
 30
0.0
 11
197.860516
 21
179.289148
 31
0.0
  0
LINE
  5
156
330
1F
100
AcDbEntity
  8
40
  6
Continuous
 62
     4
 60
     1
370
    13
100
AcDbLine
 10
197.860516
 20
179.289148
 30
0.0
 11
199.294563
 21
168.396482
 31
0.0
  0
LINE
  5
157
330
1F
100
AcDbEntity
  8
40
  6
Continuous
 62
     4
 60
     1
370
    13
100
AcDbLine
 10
198.495638
 20
105.036482
 30
0.0
 11
173.4545629999999
 21
108.111139
 31
0.0
  0
LINE
  5
158
330
1F
100
AcDbEntity
  8
40
  6
Continuous
 62
     4
 60
     1
370
    13
100
AcDbLine
 10
173.4545629999999
 20
108.111139
 30
0.0
 11
173.4545629999999
 21
130.636482
 31
0.0
  0
LINE
  5
159
330
1F
100
AcDbEntity
  8
40
  6
Continuous
 62
     4
 60
     1
370
    13
100
AcDbLine
 10
173.4545629999999
 20
130.636482
 30
0.0
 11
179.854563
 21
130.636482
 31
0.0
  0
LINE
  5
15A
330
1F
100
AcDbEntity
  8
40
  6
Continuous
 62
     4
 60
     1
370
    13
100
AcDbLine
 10
179.854563
 20
130.636482
 30
0.0
 11
199.294563
 21
127.208686
 31
0.0
  0
LINE
  5
15B
330
1F
100
AcDbEntity
  8
40
  6
Continuous
 62
     4
 60
     1
370
    13
100
AcDbLine
 10
199.294563
 20
127.208686
 30
0.0
 11
199.294563
 21
121.676482
 31
0.0
  0
LINE
  5
15C
330
1F
100
AcDbEntity
  8
40
  6
Continuous
 62
     4
 60
     1
370
    13
100
AcDbLine
 10
199.294563
 20
121.676482
 30
0.0
 11
197.860516
 21
110.783817
 31
0.0
  0
LINE
  5
15D
330
1F
100
AcDbEntity
  8
40
  6
Continuous
 62
     4
 60
     1
370
    13
100
AcDbLine
 10
197.860516
 20
110.783817
 30
0.0
 11
198.894563
 21
106.636482
 31
0.0
  0
LINE
  5
15E
330
1F
100
AcDbEntity
  8
40
  6
Continuous
 62
     4
 60
     1
370
    13
100
AcDbLine
 10
198.894563
 20
106.636482
 30
0.0
 11
198.495638
 21
105.036482
 31
0.0
  0
LINE
  5
166
330
1F
100
AcDbEntity
  8
40
  6
Continuous
 62
    15
 60
     1
370
    13
100
AcDbLine
 10
276.65659
 20
183.636503
 30
0.0
 11
277.273734
 21
180.136505
 31
0.0
  0
LINE
  5
167
330
1F
100
AcDbEntity
  8
40
  6
Continuous
 62
    15
 60
     1
370
    13
100
AcDbLine
 10
277.273734
 20
180.136505
 30
0.0
 11
276.039445
 21
180.136501
 31
0.0
  0
LINE
  5
168
330
1F
100
AcDbEntity
  8
40
  6
Continuous
 62
    15
 60
     1
370
    13
100
AcDbLine
 10
276.039445
 20
180.136501
 30
0.0
 11
276.65659
 21
183.636503
 31
0.0
  0
LINE
  5
16B
330
1F
100
AcDbEntity
  8
40
  6
Continuous
 62
    15
 60
     1
370
    13
100
AcDbLine
 10
374.498886
 20
184.736503
 30
0.0
 11
375.116031
 21
181.236505
 31
0.0
  0
LINE
  5
16C
330
1F
100
AcDbEntity
  8
40
  6
Continuous
 62
    15
 60
     1
370
    13
100
AcDbLine
 10
375.116031
 20
181.236505
 30
0.0
 11
373.881742
 21
181.236501
 31
0.0
  0
LINE
  5
16D
330
1F
100
AcDbEntity
  8
40
  6
Continuous
 62
    15
 60
     1
370
    13
100
AcDbLine
 10
373.881742
 20
181.236501
 30
0.0
 11
374.498886
 21
184.736503
 31
0.0
  0
LINE
  5
170
330
1F
100
AcDbEntity
  8
40
  6
Continuous
 62
    15
 60
     1
370
    13
100
AcDbLine
 10
312.550161
 20
206.106998
 30
0.0
 11
316.050159
 21
206.724143
 31
0.0
  0
LINE
  5
171
330
1F
100
AcDbEntity
  8
40
  6
Continuous
 62
    15
 60
     1
370
    13
100
AcDbLine
 10
316.050159
 20
206.724143
 30
0.0
 11
316.050163
 21
205.489854
 31
0.0
  0
LINE
  5
172
330
1F
100
AcDbEntity
  8
40
  6
Continuous
 62
    15
 60
     1
370
    13
100
AcDbLine
 10
316.050163
 20
205.489854
 30
0.0
 11
312.550161
 21
206.106998
 31
0.0
  0
LINE
  5
174
330
1F
100
AcDbEntity
  8
40
  6
Continuous
 62
    15
 60
     1
370
    13
100
AcDbLine
 10
308.150161
 20
206.106998
 30
0.0
 11
304.650163
 21
205.489854
 31
0.0
  0
LINE
  5
175
330
1F
100
AcDbEntity
  8
40
  6
Continuous
 62
    15
 60
     1
370
    13
100
AcDbLine
 10
304.650163
 20
205.489854
 30
0.0
 11
304.650159
 21
206.724143
 31
0.0
  0
LINE
  5
176
330
1F
100
AcDbEntity
  8
40
  6
Continuous
 62
    15
 60
     1
370
    13
100
AcDbLine
 10
304.650159
 20
206.724143
 30
0.0
 11
308.150161
 21
206.106998
 31
0.0
  0
LINE
  5
179
330
1F
100
AcDbEntity
  8
40
  6
Continuous
 62
    15
 60
     1
370
    13
100
AcDbLine
 10
288.198429
 20
177.564934
 30
0.0
 11
289.756082
 21
174.370475
 31
0.0
  0
LINE
  5
17A
330
1F
100
AcDbEntity
  8
40
  6
Continuous
 62
    15
 60
     1
370
    13
100
AcDbLine
 10
289.756082
 20
174.370475
 30
0.0
 11
288.569575
 21
174.030372
 31
0.0
  0
LINE
  5
17B
330
1F
100
AcDbEntity
  8
40
  6
Continuous
 62
    15
 60
     1
370
    13
100
AcDbLine
 10
288.569575
 20
174.030372
 30
0.0
 11
288.198429
 21
177.564934
 31
0.0
  0
LINE
  5
17D
330
1F
100
AcDbEntity
  8
40
  6
Continuous
 62
    15
 60
     1
370
    13
100
AcDbLine
 10
287.452935
 20
183.636503
 30
0.0
 11
286.957967
 21
187.155858
 31
0.0
  0
LINE
  5
17E
330
1F
100
AcDbEntity
  8
40
  6
Continuous
 62
    15
 60
     1
370
    13
100
AcDbLine
 10
286.957967
 20
187.155858
 30
0.0
 11
288.191509
 21
187.112908
 31
0.0
  0
LINE
  5
17F
330
1F
100
AcDbEntity
  8
40
  6
Continuous
 62
    15
 60
     1
370
    13
100
AcDbLine
 10
288.191509
 20
187.112908
 30
0.0
 11
287.452935
 21
183.636503
 31
0.0
  0
MTEXT
  5
1F9
330
1F
100
AcDbEntity
  8
40
  6
Continuous
 62
     3
370
    13
100
AcDbMText
 10
320.765717
 20
277.825434
 30
0.0
 40
2.5
 41
0.0
 71
     7
 72
     5
  1
\W0.5569;    
  7
cesky
 73
     2
 44
1.084337
1001
ACAD
1000
MTEXTBEGIN
1070
    73
1070
     2
1070
    44
1040
1.084337
1070
    74
1070
     0
1000
MTEXTEND
  0
ENDSEC
  0
SECTION
  2
OBJECTS
  0
DICTIONARY
  5
C
330
0
100
AcDbDictionary
281
     1
  3
ACAD_CIP_PREVIOUS_PRODUCT_INFO
350
3C3
  3
ACAD_COLOR
350
3AE
  3
ACAD_DETAILVIEWSTYLE
350
3B1
  3
ACAD_GROUP
350
D
  3
ACAD_LAYOUT
350
1A
  3
ACAD_MATERIAL
350
43
  3
ACAD_MLEADERSTYLE
350
6B
  3
ACAD_MLINESTYLE
350
17
  3
ACAD_PLOTSETTINGS
350
19
  3
ACAD_PLOTSTYLENAME
350
E
  3
ACAD_SCALELIST
350
47
  3
ACAD_SECTIONVIEWSTYLE
350
3AF
  3
ACAD_TABLESTYLE
350
69
  3
ACAD_VISUALSTYLE
350
2A
  3
ACDB_RECOMPOSE_DATA
350
3D0
  3
AcDbVariableDictionary
350
363
  3
DWGPROPS
350
3D1
  0
DICTIONARY
  5
3C4
330
10
100
AcDbDictionary
280
     1
281
     1
  3
ADSK_XREC_LAYER_RECONCILED
360
3C5
  0
DICTIONARY
  5
3C6
330
74
100
AcDbDictionary
280
     1
281
     1
  3
ADSK_XREC_LAYER_RECONCILED
360
3C7
  0
XRECORD
  5
3C3
102
{ACAD_REACTORS
330
C
102
}
330
C
100
AcDbXrecord
280
     1
300
ACD
300
2019
300
87084ACD_2019_0F
  0
DICTIONARY
  5
3AE
102
{ACAD_REACTORS
330
C
102
}
330
C
100
AcDbDictionary
281
     1
  0
DICTIONARY
  5
3B1
102
{ACAD_REACTORS
330
C
102
}
330
C
100
AcDbDictionary
281
     1
  3
Metric50
350
3B2
  0
DICTIONARY
  5
D
102
{ACAD_REACTORS
330
C
102
}
330
C
100
AcDbDictionary
281
     1
  3
ANNOTATION
350
348
  3
ANNOTATION2
350
349
  3
ANNOTATION3
350
34A
  3
ANNOTATION4
350
34B
  3
Group10
350
351
  3
Group11
350
352
  3
Group5
350
34C
  3
Group6
350
34D
  3
Group7
350
34E
  3
Group8
350
34F
  3
Group9
350
350
  3
RAZITKO
350
353
  0
DICTIONARY
  5
1A
102
{ACAD_REACTORS
330
C
102
}
330
C
100
AcDbDictionary
281
     1
  3
Layout1
350
1E
  3
Layout2
350
26
  3
Model
350
22
  0
DICTIONARY
  5
43
102
{ACAD_REACTORS
330
C
102
}
330
C
100
AcDbDictionary
281
     1
  3
ByBlock
350
45
  3
ByLayer
350
44
  3
Global
350
46
  0
DICTIONARY
  5
6B
102
{ACAD_REACTORS
330
C
102
}
330
C
100
AcDbDictionary
281
     1
  3
Standard
350
6C
  0
DICTIONARY
  5
17
102
{ACAD_REACTORS
330
C
102
}
330
C
100
AcDbDictionary
281
     1
  3
Standard
350
18
  0
DICTIONARY
  5
19
102
{ACAD_REACTORS
330
C
102
}
330
C
100
AcDbDictionary
281
     1
  0
ACDBDICTIONARYWDFLT
  5
E
102
{ACAD_REACTORS
330
C
102
}
330
C
100
AcDbDictionary
281
     1
  3
Normal
350
F
100
AcDbDictionaryWithDefault
340
F
  0
DICTIONARY
  5
47
102
{ACAD_REACTORS
330
C
102
}
330
C
100
AcDbDictionary
281
     1
  3
A0
350
48
  3
A1
350
49
  3
A2
350
4A
  3
A3
350
4B
  3
A4
350
4C
  3
A5
350
4D
  3
A6
350
4E
  3
A7
350
4F
  3
A8
350
50
  3
A9
350
51
  3
B0
350
52
  3
B1
350
53
  3
B2
350
54
  3
B3
350
55
  3
B4
350
56
  3
B5
350
57
  3
B6
350
58
  3
B7
350
59
  3
B8
350
5A
  3
B9
350
5B
  3
C0
350
5C
  3
C1
350
5D
  3
C2
350
5E
  3
C3
350
5F
  3
C4
350
60
  3
C5
350
61
  3
C6
350
62
  3
C7
350
63
  3
C8
350
64
  3
C9
350
65
  3
D0
350
66
  3
D1
350
67
  3
D2
350
68
  0
DICTIONARY
  5
3AF
102
{ACAD_REACTORS
330
C
102
}
330
C
100
AcDbDictionary
281
     1
  3
Metric50
350
3B0
  0
DICTIONARY
  5
69
102
{ACAD_REACTORS
330
C
102
}
330
C
100
AcDbDictionary
281
     1
  3
Standard
350
6A
  0
DICTIONARY
  5
2A
102
{ACAD_REACTORS
330
C
102
}
330
C
100
AcDbDictionary
281
     1
  3
2dWireframe
350
2F
  3
Basic
350
32
  3
Brighten
350
36
  3
ColorChange
350
3A
  3
Conceptual
350
34
  3
Dim
350
35
  3
EdgeColorOff
350
3D
  3
Facepattern
350
39
  3
Flat
350
2B
  3
FlatWithEdges
350
2C
  3
Gouraud
350
2D
  3
GouraudWithEdges
350
2E
  3
Hidden
350
31
  3
JitterOff
350
3B
  3
Linepattern
350
38
  3
OverhangOff
350
3C
  3
Realistic
350
33
  3
Shaded
350
42
  3
Shaded with edges
350
41
  3
Shades of Gray
350
3E
  3
Sketchy
350
3F
  3
Thicken
350
37
  3
Wireframe
350
30
  3
X-Ray
350
40
  0
XRECORD
  5
3D0
102
{ACAD_REACTORS
330
C
102
}
330
C
100
AcDbXrecord
280
     1
 90
        1
330
6A
  0
DICTIONARY
  5
363
102
{ACAD_REACTORS
330
C
102
}
330
C
100
AcDbDictionary
281
     1
  3
CANNOSCALE
350
371
  3
CMLEADERSTYLE
350
365
  3
CTABLESTYLE
350
364
  3
CVIEWDETAILSTYLE
350
3C8
  3
CVIEWSECTIONSTYLE
350
3C9
  3
DIMASSOC
350
368
  3
HIDETEXT
350
369
  3
INDEXCTL
350
3CB
  3
MSLTSCALE
350
372
  3
SORTENTS
350
3CA
  3
XCLIPFRAME
350
3CC
  0
XRECORD
  5
3D1
102
{ACAD_REACTORS
330
C
102
}
330
C
100
AcDbXrecord
280
     1
  1
DWGPROPS COOKIE
  2

  3

  4

  6

  7

  8
fo3459
  9

300
=
301
=
302
=
303
=
304
=
305
=
306
=
307
=
308
=
309
=
 40
0.0003125115740741
 41
2459597.477974537
 42
2459597.47837963
  1

 90
        0
  0
XRECORD
  5
3C5
102
{ACAD_REACTORS
330
3C4
102
}
330
3C4
100
AcDbXrecord
280
     1
290
     1
  0
XRECORD
  5
3C7
102
{ACAD_REACTORS
330
3C6
102
}
330
3C6
100
AcDbXrecord
280
     1
290
     1
  0
ACDBDETAILVIEWSTYLE
  5
3B2
102
{ACAD_XDICTIONARY
360
40B
102
}
102
{ACAD_REACTORS
330
3B1
102
}
330
3B1
100
AcDbModelDocViewStyle
 70
     0
  3
Metric50
290
     0
100
AcDbDetailViewStyle
 70
     0
 71
     0
 90
        3
 71
     1
340
11
 40
5.0
340
0
 40
5.0
300

 40
0.0
280
     1
 71
     2
340
16
 90
       25
 71
     3
340
11
 40
5.0
 90
        0
 40
15.0
 90
        1
300
%<\AcVar ViewDetailId>% (%<\AcVar ViewScale \f "%sn">%)
 71
     4
340
16
 90
       25
340
16
 90
       25
280
     0
  0
GROUP
  5
348
102
{ACAD_REACTORS
330
D
102
}
330
D
100
AcDbGroup
300

 70
     0
 71
     1
  0
GROUP
  5
349
102
{ACAD_REACTORS
330
D
102
}
330
D
100
AcDbGroup
300

 70
     0
 71
     1
  0
GROUP
  5
34A
102
{ACAD_REACTORS
330
D
102
}
330
D
100
AcDbGroup
300

 70
     0
 71
     1
  0
GROUP
  5
34B
102
{ACAD_REACTORS
330
D
102
}
330
D
100
AcDbGroup
300

 70
     0
 71
     1
  0
GROUP
  5
351
102
{ACAD_REACTORS
330
D
102
}
330
D
100
AcDbGroup
300

 70
     0
 71
     1
  0
GROUP
  5
352
102
{ACAD_REACTORS
330
D
102
}
330
D
100
AcDbGroup
300

 70
     0
 71
     1
  0
GROUP
  5
34C
102
{ACAD_REACTORS
330
D
102
}
330
D
100
AcDbGroup
300

 70
     0
 71
     1
  0
GROUP
  5
34D
102
{ACAD_REACTORS
330
D
102
}
330
D
100
AcDbGroup
300

 70
     0
 71
     1
  0
GROUP
  5
34E
102
{ACAD_REACTORS
330
D
102
}
330
D
100
AcDbGroup
300

 70
     0
 71
     1
  0
GROUP
  5
34F
102
{ACAD_REACTORS
330
D
102
}
330
D
100
AcDbGroup
300

 70
     0
 71
     1
  0
GROUP
  5
350
102
{ACAD_REACTORS
330
D
102
}
330
D
100
AcDbGroup
300

 70
     0
 71
     1
  0
GROUP
  5
353
102
{ACAD_REACTORS
330
D
102
}
330
D
100
AcDbGroup
300

 70
     0
 71
     1
  0
LAYOUT
  5
1E
102
{ACAD_XDICTIONARY
360
3D2
102
}
102
{ACAD_REACTORS
330
1A
102
}
330
1A
100
AcDbPlotSettings
  1

  2
none_device
  4

  6

 40
0.0
 41
0.0
 42
0.0
 43
0.0
 44
0.0
 45
0.0
 46
0.0
 47
0.0
 48
0.0
 49
0.0
140
0.0
141
0.0
142
1.0
143
1.0
 70
   688
 72
     0
 73
     0
 74
     5
  7

 75
    16
147
1.0
148
0.0
149
0.0
100
AcDbLayout
  1
Layout1
 70
     1
 71
     1
 10
-0.5
 20
-0.5
 11
5.0
 21
5.0
 12
0.0
 22
0.0
 32
0.0
 14
-0.5
 24
-0.5
 34
-0.5
 15
5.0
 25
5.0
 35
5.0
146
0.0
 13
0.0
 23
0.0
 33
0.0
 16
1.0
 26
0.0
 36
0.0
 17
0.0
 27
1.0
 37
0.0
 76
     0
330
1B
  0
LAYOUT
  5
26
102
{ACAD_XDICTIONARY
360
3D6
102
}
102
{ACAD_REACTORS
330
1A
102
}
330
1A
100
AcDbPlotSettings
  1

  2
none_device
  4

  6

 40
0.0
 41
0.0
 42
0.0
 43
0.0
 44
0.0
 45
0.0
 46
0.0
 47
0.0
 48
0.0
 49
0.0
140
0.0
141
0.0
142
1.0
143
1.0
 70
   688
 72
     0
 73
     0
 74
     5
  7

 75
    16
147
1.0
148
0.0
149
0.0
100
AcDbLayout
  1
Layout2
 70
     1
 71
     2
 10
0.0
 20
0.0
 11
0.0
 21
0.0
 12
0.0
 22
0.0
 32
0.0
 14
0.0
 24
0.0
 34
0.0
 15
0.0
 25
0.0
 35
0.0
146
0.0
 13
0.0
 23
0.0
 33
0.0
 16
1.0
 26
0.0
 36
0.0
 17
0.0
 27
1.0
 37
0.0
 76
     0
330
23
  0
LAYOUT
  5
22
102
{ACAD_XDICTIONARY
360
3D4
102
}
102
{ACAD_REACTORS
330
1A
102
}
330
1A
100
AcDbPlotSettings
  1

  2
none_device
  4
Letter_(8.50_x_11.00_Inches)
  6

 40
6.349999999999999
 41
6.349999999999999
 42
6.350005
 43
6.350005
 44
215.9
 45
279.4
 46
0.0
 47
0.0
 48
0.0
 49
0.0
140
0.0
141
0.0
142
1.0
143
1.0
 70
  1712
 72
     0
 73
     0
 74
     0
  7

 75
     0
147
1.0
148
0.0
149
0.0
100
AcDbLayout
  1
Model
 70
     1
 71
     0
 10
-0.5
 20
-0.5
 11
5.0
 21
5.0
 12
0.0
 22
0.0
 32
0.0
 14
-0.5
 24
-0.5
 34
-0.5
 15
5.0
 25
5.0
 35
5.0
146
0.0
 13
0.0
 23
0.0
 33
0.0
 16
1.0
 26
0.0
 36
0.0
 17
0.0
 27
1.0
 37
0.0
 76
     0
330
1F
331
29
  0
MATERIAL
  5
45
102
{ACAD_XDICTIONARY
360
3A5
102
}
102
{ACAD_REACTORS
330
43
102
}
330
43
100
AcDbMaterial
  1
ByBlock
  0
MATERIAL
  5
44
102
{ACAD_XDICTIONARY
360
3A3
102
}
102
{ACAD_REACTORS
330
43
102
}
330
43
100
AcDbMaterial
  1
ByLayer
  0
MATERIAL
  5
46
102
{ACAD_XDICTIONARY
360
3A7
102
}
102
{ACAD_REACTORS
330
43
102
}
330
43
100
AcDbMaterial
  1
Global
  0
MLEADERSTYLE
  5
6C
102
{ACAD_REACTORS
330
6B
102
}
330
6B
100
AcDbMLeaderStyle
170
     2
171
     1
172
     0
 90
        2
 40
0.0
 41
0.0
173
     1
 91
-1056964608
340
14
 92
       -2
290
     1
 42
0.09
291
     1
 43
0.36
  3
Standard
 44
0.18
300

342
11
174
     1
178
     6
175
     1
176
     0
 93
-1056964608
 45
0.18
292
     0
297
     0
 46
0.18
 94
-1056964608
 47
1.0
 49
1.0
140
1.0
293
     1
141
0.0
294
     1
177
     0
142
1.0
295
     0
296
     0
143
0.125
1001
ACAD_MLEADERVER
1070
     2
  0
MLINESTYLE
  5
18
102
{ACAD_REACTORS
330
17
102
}
330
17
100
AcDbMlineStyle
  2
STANDARD
 70
     0
  3

 62
   256
 51
90.0
 52
90.0
 71
     2
 49
0.5
 62
   256
  6
BYLAYER
 49
-0.5
 62
   256
  6
BYLAYER
  0
ACDBPLACEHOLDER
  5
F
102
{ACAD_REACTORS
330
E
102
}
330
E
  0
SCALE
  5
48
102
{ACAD_REACTORS
330
47
102
}
330
47
100
AcDbScale
 70
     0
300
1:1
140
1.0
141
1.0
290
     1
  0
SCALE
  5
49
102
{ACAD_REACTORS
330
47
102
}
330
47
100
AcDbScale
 70
     0
300
1:2
140
1.0
141
2.0
290
     0
  0
SCALE
  5
4A
102
{ACAD_REACTORS
330
47
102
}
330
47
100
AcDbScale
 70
     0
300
1:4
140
1.0
141
4.0
290
     0
  0
SCALE
  5
4B
102
{ACAD_REACTORS
330
47
102
}
330
47
100
AcDbScale
 70
     0
300
1:5
140
1.0
141
5.0
290
     0
  0
SCALE
  5
4C
102
{ACAD_REACTORS
330
47
102
}
330
47
100
AcDbScale
 70
     0
300
1:8
140
1.0
141
8.0
290
     0
  0
SCALE
  5
4D
102
{ACAD_REACTORS
330
47
102
}
330
47
100
AcDbScale
 70
     0
300
1:10
140
1.0
141
10.0
290
     0
  0
SCALE
  5
4E
102
{ACAD_REACTORS
330
47
102
}
330
47
100
AcDbScale
 70
     0
300
1:16
140
1.0
141
16.0
290
     0
  0
SCALE
  5
4F
102
{ACAD_REACTORS
330
47
102
}
330
47
100
AcDbScale
 70
     0
300
1:20
140
1.0
141
20.0
290
     0
  0
SCALE
  5
50
102
{ACAD_REACTORS
330
47
102
}
330
47
100
AcDbScale
 70
     0
300
1:30
140
1.0
141
30.0
290
     0
  0
SCALE
  5
51
102
{ACAD_REACTORS
330
47
102
}
330
47
100
AcDbScale
 70
     0
300
1:40
140
1.0
141
40.0
290
     0
  0
SCALE
  5
52
102
{ACAD_REACTORS
330
47
102
}
330
47
100
AcDbScale
 70
     0
300
1:50
140
1.0
141
50.0
290
     0
  0
SCALE
  5
53
102
{ACAD_REACTORS
330
47
102
}
330
47
100
AcDbScale
 70
     0
300
1:100
140
1.0
141
100.0
290
     0
  0
SCALE
  5
54
102
{ACAD_REACTORS
330
47
102
}
330
47
100
AcDbScale
 70
     0
300
2:1
140
2.0
141
1.0
290
     0
  0
SCALE
  5
55
102
{ACAD_REACTORS
330
47
102
}
330
47
100
AcDbScale
 70
     0
300
4:1
140
4.0
141
1.0
290
     0
  0
SCALE
  5
56
102
{ACAD_REACTORS
330
47
102
}
330
47
100
AcDbScale
 70
     0
300
8:1
140
8.0
141
1.0
290
     0
  0
SCALE
  5
57
102
{ACAD_REACTORS
330
47
102
}
330
47
100
AcDbScale
 70
     0
300
10:1
140
10.0
141
1.0
290
     0
  0
SCALE
  5
58
102
{ACAD_REACTORS
330
47
102
}
330
47
100
AcDbScale
 70
     0
300
100:1
140
100.0
141
1.0
290
     0
  0
SCALE
  5
59
102
{ACAD_REACTORS
330
47
102
}
330
47
100
AcDbScale
 70
     0
300
1/128" = 1'-0"
140
0.007812
141
12.0
290
     0
  0
SCALE
  5
5A
102
{ACAD_REACTORS
330
47
102
}
330
47
100
AcDbScale
 70
     0
300
1/64" = 1'-0"
140
0.015625
141
12.0
290
     0
  0
SCALE
  5
5B
102
{ACAD_REACTORS
330
47
102
}
330
47
100
AcDbScale
 70
     0
300
1/32" = 1'-0"
140
0.03125
141
12.0
290
     0
  0
SCALE
  5
5C
102
{ACAD_REACTORS
330
47
102
}
330
47
100
AcDbScale
 70
     0
300
1/16" = 1'-0"
140
0.0625
141
12.0
290
     0
  0
SCALE
  5
5D
102
{ACAD_REACTORS
330
47
102
}
330
47
100
AcDbScale
 70
     0
300
3/32" = 1'-0"
140
0.09375
141
12.0
290
     0
  0
SCALE
  5
5E
102
{ACAD_REACTORS
330
47
102
}
330
47
100
AcDbScale
 70
     0
300
1/8" = 1'-0"
140
0.125
141
12.0
290
     0
  0
SCALE
  5
5F
102
{ACAD_REACTORS
330
47
102
}
330
47
100
AcDbScale
 70
     0
300
3/16" = 1'-0"
140
0.1875
141
12.0
290
     0
  0
SCALE
  5
60
102
{ACAD_REACTORS
330
47
102
}
330
47
100
AcDbScale
 70
     0
300
1/4" = 1'-0"
140
0.25
141
12.0
290
     0
  0
SCALE
  5
61
102
{ACAD_REACTORS
330
47
102
}
330
47
100
AcDbScale
 70
     0
300
3/8" = 1'-0"
140
0.375
141
12.0
290
     0
  0
SCALE
  5
62
102
{ACAD_REACTORS
330
47
102
}
330
47
100
AcDbScale
 70
     0
300
1/2" = 1'-0"
140
0.5
141
12.0
290
     0
  0
SCALE
  5
63
102
{ACAD_REACTORS
330
47
102
}
330
47
100
AcDbScale
 70
     0
300
3/4" = 1'-0"
140
0.75
141
12.0
290
     0
  0
SCALE
  5
64
102
{ACAD_REACTORS
330
47
102
}
330
47
100
AcDbScale
 70
     0
300
1" = 1'-0"
140
1.0
141
12.0
290
     0
  0
SCALE
  5
65
102
{ACAD_REACTORS
330
47
102
}
330
47
100
AcDbScale
 70
     0
300
1-1/2" = 1'-0"
140
1.5
141
12.0
290
     0
  0
SCALE
  5
66
102
{ACAD_REACTORS
330
47
102
}
330
47
100
AcDbScale
 70
     0
300
3" = 1'-0"
140
3.0
141
12.0
290
     0
  0
SCALE
  5
67
102
{ACAD_REACTORS
330
47
102
}
330
47
100
AcDbScale
 70
     0
300
6" = 1'-0"
140
6.0
141
12.0
290
     0
  0
SCALE
  5
68
102
{ACAD_REACTORS
330
47
102
}
330
47
100
AcDbScale
 70
     0
300
1'-0" = 1'-0"
140
12.0
141
12.0
290
     0
  0
ACDBSECTIONVIEWSTYLE
  5
3B0
102
{ACAD_XDICTIONARY
360
409
102
}
102
{ACAD_REACTORS
330
3AF
102
}
330
3AF
100
AcDbModelDocViewStyle
 70
     0
  3
Metric50
290
     0
100
AcDbSectionViewStyle
 70
     0
 71
     0
 90
      102
 71
     1
340
11
 40
5.0
340
0
340
0
 40
5.0
300
I, O, Q, S, X, Z
 40
10.0
 90
        0
 40
2.5
 90
        0
 71
     2
340
16
 90
       25
340
16
 90
       50
 40
5.0
 40
2.5
 40
5.0
 71
     3
340
11
 40
5.0
 90
        0
 40
15.0
 90
        1
300
%<\AcVar ViewSectionStartId>%-%<\AcVar ViewSectionEndId>% (%<\AcVar ViewScale \f "%sn">%)
 71
     4
300
ANSI31
 40
1.0
 90
        0
290
     0
290
     0
 90
        6
 40
0.0
 40
1.570796326794896
 40
0.2617993877991494
 40
1.308996938995747
 40
-0.2617993877991494
 40
1.832595714594046
  0
TABLESTYLE
  5
6A
102
{ACAD_XDICTIONARY
360
3CE
102
}
102
{ACAD_REACTORS
330
69
102
}
330
69
100
AcDbTableStyle
  3
Standard
 70
     0
 71
     0
 40
0.06
 41
0.06
280
     0
281
     0
  7
Standard
140
0.18
170
     2
 62
     0
 63
     7
283
     0
274
    -2
284
     1
 64
     0
275
    -2
285
     1
 65
     0
276
    -2
286
     1
 66
     0
277
    -2
287
     1
 67
     0
278
    -2
288
     1
 68
     0
279
    -2
289
     1
 69
     0
  7
Standard
140
0.25
170
     5
 62
     0
 63
     7
283
     0
274
    -2
284
     1
 64
     0
275
    -2
285
     1
 65
     0
276
    -2
286
     1
 66
     0
277
    -2
287
     1
 67
     0
278
    -2
288
     1
 68
     0
279
    -2
289
     1
 69
     0
  7
Standard
140
0.18
170
     5
 62
     0
 63
     7
283
     0
274
    -2
284
     1
 64
     0
275
    -2
285
     1
 65
     0
276
    -2
286
     1
 66
     0
277
    -2
287
     1
 67
     0
278
    -2
288
     1
 68
     0
279
    -2
289
     1
 69
     0
  0
VISUALSTYLE
  5
2F
102
{ACAD_XDICTIONARY
360
3E0
102
}
102
{ACAD_REACTORS
330
2A
102
}
330
2A
100
AcDbVisualStyle
  2

 70
     4
 71
     0
 72
     2
 73
     0
 90
        0
 40
-0.6
 41
-30.0
 62
     5
 63
     7
 74
     1
 91
        4
 64
     7
 65
   257
 75
     1
175
     1
 42
1.0
 92
        0
 66
   257
 43
1.0
 76
     1
 77
     6
 78
     2
 67
     7
 79
     5
170
     0
171
     0
290
     0
174
     0
 93
        1
 44
0.0
173
     0
291
     0
 45
0.0
1001
ACAD
1000
AcDbSavedByObjectVersion
1070
     0
  0
VISUALSTYLE
  5
32
102
{ACAD_XDICTIONARY
360
3E6
102
}
102
{ACAD_REACTORS
330
2A
102
}
330
2A
100
AcDbVisualStyle
  2

 70
     7
 71
     1
 72
     0
 73
     1
 90
        0
 40
-0.6
 41
-30.0
 62
     5
 63
     7
 74
     0
 91
        4
 64
     7
 65
   257
 75
     1
175
     1
 42
1.0
 92
        8
 66
     7
 43
1.0
 76
     1
 77
     6
 78
     2
 67
     7
 79
     5
170
     0
171
     0
290
     0
174
     0
 93
        1
 44
0.0
173
     0
291
     1
 45
0.0
1001
ACAD
1000
AcDbSavedByObjectVersion
1070
     0
  0
VISUALSTYLE
  5
36
102
{ACAD_XDICTIONARY
360
3EE
102
}
102
{ACAD_REACTORS
330
2A
102
}
330
2A
100
AcDbVisualStyle
  2

 70
    12
 71
     2
 72
     2
 73
     0
 90
        0
 40
-0.6
 41
-30.0
 62
     5
 63
     7
 74
     1
 91
        4
 64
     7
 65
   257
 75
     1
175
     1
 42
1.0
 92
        8
 66
     7
 43
1.0
 76
     1
 77
     6
 78
     2
 67
     7
 79
     5
170
     0
171
     0
290
     0
174
     0
 93
        1
 44
50.0
173
     0
291
     1
 45
0.0
1001
ACAD
1000
AcDbSavedByObjectVersion
1070
     0
  0
VISUALSTYLE
  5
3A
102
{ACAD_XDICTIONARY
360
3F6
102
}
102
{ACAD_REACTORS
330
2A
102
}
330
2A
100
AcDbVisualStyle
  2

 70
    16
 71
     2
 72
     2
 73
     3
 90
        0
 40
-0.6
 41
-30.0
 62
     5
 63
     8
 74
     1
 91
        4
 64
     7
 65
   257
 75
     1
175
     1
 42
1.0
 92
        8
 66
     8
 43
1.0
 76
     1
 77
     6
 78
     2
 67
     7
 79
     5
170
     0
171
     0
290
     0
174
     0
 93
        1
 44
0.0
173
     0
291
     1
 45
0.0
1001
ACAD
1000
AcDbSavedByObjectVersion
1070
     0
  0
VISUALSTYLE
  5
34
102
{ACAD_XDICTIONARY
360
3EA
102
}
102
{ACAD_REACTORS
330
2A
102
}
330
2A
100
AcDbVisualStyle
  2

 70
     9
 71
     3
 72
     2
 73
     0
 90
        0
 40
-0.6
 41
-30.0
 62
     5
 63
     7
 74
     2
 91
        2
 64
     7
 65
   257
 75
     1
175
     1
 42
179.0
 92
        8
 66
     7
 43
1.0
 76
     1
 77
     6
 78
     2
 67
     7
 79
     3
170
     0
171
     0
290
     0
174
     0
 93
        1
 44
0.0
173
     0
291
     0
 45
0.0
1001
ACAD
1000
AcDbSavedByObjectVersion
1070
     0
  0
VISUALSTYLE
  5
35
102
{ACAD_XDICTIONARY
360
3EC
102
}
102
{ACAD_REACTORS
330
2A
102
}
330
2A
100
AcDbVisualStyle
  2

 70
    11
 71
     2
 72
     2
 73
     0
 90
        0
 40
-0.6
 41
-30.0
 62
     5
 63
     7
 74
     1
 91
        4
 64
     7
 65
   257
 75
     1
175
     1
 42
1.0
 92
        8
 66
     7
 43
1.0
 76
     1
 77
     6
 78
     2
 67
     7
 79
     5
170
     0
171
     0
290
     0
174
     0
 93
        1
 44
-50.0
173
     0
291
     1
 45
0.0
1001
ACAD
1000
AcDbSavedByObjectVersion
1070
     0
  0
VISUALSTYLE
  5
3D
102
{ACAD_XDICTIONARY
360
3FC
102
}
102
{ACAD_REACTORS
330
2A
102
}
330
2A
100
AcDbVisualStyle
  2

 70
    22
 71
     2
 72
     2
 73
     0
 90
        0
 40
-0.6
 41
-30.0
 62
     5
 63
     7
 74
     1
 91
        4
 64
     7
 65
   257
 75
     1
175
     1
 42
1.0
 92
        8
 66
     7
 43
1.0
 76
     1
 77
     6
 78
     2
 67
     7
 79
     5
170
     0
171
     0
290
     0
174
     0
 93
        1
 44
0.0
173
     0
291
     1
 45
0.0
1001
ACAD
1000
AcDbSavedByObjectVersion
1070
     0
  0
VISUALSTYLE
  5
39
102
{ACAD_XDICTIONARY
360
3F4
102
}
102
{ACAD_REACTORS
330
2A
102
}
330
2A
100
AcDbVisualStyle
  2

 70
    15
 71
     2
 72
     2
 73
     0
 90
        0
 40
-0.6
 41
-30.0
 62
     5
 63
     7
 74
     1
 91
        4
 64
     7
 65
   257
 75
     1
175
     1
 42
1.0
 92
        8
 66
     7
 43
1.0
 76
     1
 77
     6
 78
     2
 67
     7
 79
     5
170
     0
171
     0
290
     0
174
     0
 93
        1
 44
0.0
173
     0
291
     1
 45
0.0
1001
ACAD
1000
AcDbSavedByObjectVersion
1070
     0
  0
VISUALSTYLE
  5
2B
102
{ACAD_XDICTIONARY
360
3D8
102
}
102
{ACAD_REACTORS
330
2A
102
}
330
2A
100
AcDbVisualStyle
  2

 70
     0
 71
     2
 72
     1
 73
     1
 90
        2
 40
-0.6
 41
30.0
 62
     5
 63
     7
 74
     0
 91
        0
 64
     7
 65
   257
 75
     1
175
     1
 42
1.0
 92
        8
 66
     7
 43
1.0
 76
     1
 77
     6
 78
     2
 67
     7
 79
     5
170
     0
171
     0
290
     0
174
     0
 93
       13
 44
0.0
173
     0
291
     1
 45
0.0
1001
ACAD
1000
AcDbSavedByObjectVersion
1070
     0
  0
VISUALSTYLE
  5
2C
102
{ACAD_XDICTIONARY
360
3DA
102
}
102
{ACAD_REACTORS
330
2A
102
}
330
2A
100
AcDbVisualStyle
  2

 70
     1
 71
     2
 72
     1
 73
     1
 90
        2
 40
-0.6
 41
30.0
 62
     5
 63
     7
 74
     1
 91
        0
 64
     7
 65
   257
 75
     1
175
     1
 42
1.0
 92
        0
 66
   257
 43
1.0
 76
     1
 77
     6
 78
     2
 67
     7
 79
     5
170
     0
171
     0
290
     0
174
     0
 93
       13
 44
0.0
173
     0
291
     1
 45
0.0
1001
ACAD
1000
AcDbSavedByObjectVersion
1070
     0
  0
VISUALSTYLE
  5
2D
102
{ACAD_XDICTIONARY
360
3DC
102
}
102
{ACAD_REACTORS
330
2A
102
}
330
2A
100
AcDbVisualStyle
  2

 70
     2
 71
     2
 72
     2
 73
     1
 90
        2
 40
-0.6
 41
30.0
 62
     5
 63
     7
 74
     0
 91
        0
 64
     7
 65
   257
 75
     1
175
     1
 42
1.0
 92
        0
 66
     7
 43
1.0
 76
     1
 77
     6
 78
     2
 67
     7
 79
     5
170
     0
171
     0
290
     0
174
     0
 93
       13
 44
0.0
173
     0
291
     1
 45
0.0
1001
ACAD
1000
AcDbSavedByObjectVersion
1070
     0
  0
VISUALSTYLE
  5
2E
102
{ACAD_XDICTIONARY
360
3DE
102
}
102
{ACAD_REACTORS
330
2A
102
}
330
2A
100
AcDbVisualStyle
  2

 70
     3
 71
     2
 72
     2
 73
     1
 90
        2
 40
-0.6
 41
30.0
 62
     5
 63
     7
 74
     1
 91
        0
 64
     7
 65
   257
 75
     1
175
     1
 42
1.0
 92
        0
 66
   257
 43
1.0
 76
     1
 77
     6
 78
     2
 67
     7
 79
     5
170
     0
171
     0
290
     0
174
     0
 93
       13
 44
0.0
173
     0
291
     1
 45
0.0
1001
ACAD
1000
AcDbSavedByObjectVersion
1070
     0
  0
VISUALSTYLE
  5
31
102
{ACAD_XDICTIONARY
360
3E4
102
}
102
{ACAD_REACTORS
330
2A
102
}
330
2A
100
AcDbVisualStyle
  2

 70
     6
 71
     1
 72
     2
 73
     2
 90
        0
 40
-0.6
 41
-30.0
 62
     5
 63
     7
 74
     2
 91
        2
 64
     7
 65
   257
 75
     2
175
     1
 42
40.0
 92
        0
 66
   257
 43
1.0
 76
     1
 77
     6
 78
     2
 67
     7
 79
     3
170
     0
171
     0
290
     0
174
     0
 93
        1
 44
0.0
173
     0
291
     0
 45
0.0
1001
ACAD
1000
AcDbSavedByObjectVersion
1070
     0
  0
VISUALSTYLE
  5
3B
102
{ACAD_XDICTIONARY
360
3F8
102
}
102
{ACAD_REACTORS
330
2A
102
}
330
2A
100
AcDbVisualStyle
  2

 70
    20
 71
     2
 72
     2
 73
     0
 90
        0
 40
-0.6
 41
-30.0
 62
     5
 63
     7
 74
     1
 91
        4
 64
     7
 65
   257
 75
     1
175
     1
 42
1.0
 92
       10
 66
     7
 43
1.0
 76
     1
 77
     6
 78
     2
 67
     7
 79
     5
170
     0
171
     0
290
     0
174
     0
 93
        1
 44
0.0
173
     0
291
     1
 45
0.0
1001
ACAD
1000
AcDbSavedByObjectVersion
1070
     0
  0
VISUALSTYLE
  5
38
102
{ACAD_XDICTIONARY
360
3F2
102
}
102
{ACAD_REACTORS
330
2A
102
}
330
2A
100
AcDbVisualStyle
  2

 70
    14
 71
     2
 72
     2
 73
     0
 90
        0
 40
-0.6
 41
-30.0
 62
     5
 63
     7
 74
     1
 91
        4
 64
     7
 65
   257
 75
     7
175
     7
 42
1.0
 92
        8
 66
     7
 43
1.0
 76
     1
 77
     6
 78
     2
 67
     7
 79
     5
170
     0
171
     0
290
     0
174
     0
 93
        1
 44
0.0
173
     0
291
     1
 45
0.0
1001
ACAD
1000
AcDbSavedByObjectVersion
1070
     0
  0
VISUALSTYLE
  5
3C
102
{ACAD_XDICTIONARY
360
3FA
102
}
102
{ACAD_REACTORS
330
2A
102
}
330
2A
100
AcDbVisualStyle
  2

 70
    21
 71
     2
 72
     2
 73
     0
 90
        0
 40
-0.6
 41
-30.0
 62
     5
 63
     7
 74
     1
 91
        4
 64
     7
 65
   257
 75
     1
175
     1
 42
1.0
 92
        9
 66
     7
 43
1.0
 76
     1
 77
     6
 78
     2
 67
     7
 79
     5
170
     0
171
     0
290
     0
174
     0
 93
        1
 44
0.0
173
     0
291
     1
 45
0.0
1001
ACAD
1000
AcDbSavedByObjectVersion
1070
     0
  0
VISUALSTYLE
  5
33
102
{ACAD_XDICTIONARY
360
3E8
102
}
102
{ACAD_REACTORS
330
2A
102
}
330
2A
100
AcDbVisualStyle
  2

 70
     8
 71
     2
 72
     3
 73
     0
 90
        2
 40
-0.6
 41
30.0
 62
     5
 63
     7
 74
     0
 91
        0
 64
     7
 65
   257
 75
     1
175
     1
 42
1.0
 92
        8
 66
   257
 43
1.0
 76
     1
 77
     6
 78
     2
 67
     7
 79
     3
170
     0
171
     0
290
     0
174
     0
 93
       13
 44
0.0
173
     0
291
     0
 45
0.0
1001
ACAD
1000
AcDbSavedByObjectVersion
1070
     0
  0
VISUALSTYLE
  5
42
102
{ACAD_XDICTIONARY
360
406
102
}
102
{ACAD_REACTORS
330
2A
102
}
330
2A
100
AcDbVisualStyle
  2

 70
    27
 71
     2
 72
     2
 73
     1
 90
        2
 40
-0.6
 41
30.0
 62
     5
 63
     7
 74
     0
 91
        4
 64
     7
 65
   257
 75
     1
175
     1
 42
1.0
 92
        8
 66
   257
 43
1.0
 76
     1
 77
     6
 78
     2
 67
     8
 79
     3
170
     0
171
     0
290
     0
174
     0
 93
        5
 44
0.0
173
     0
291
     0
 45
0.0
1001
ACAD
1000
AcDbSavedByObjectVersion
1070
     0
  0
VISUALSTYLE
  5
41
102
{ACAD_XDICTIONARY
360
404
102
}
102
{ACAD_REACTORS
330
2A
102
}
330
2A
100
AcDbVisualStyle
  2

 70
    26
 71
     2
 72
     2
 73
     1
 90
        2
 40
-0.6
 41
30.0
 62
     5
 63
     7
 74
     1
 91
       10
 64
     7
 65
   257
 75
     2
175
     1
 42
1.0
 92
        8
 66
   257
 43
1.0
 76
     1
 77
     6
 78
     2
 67
     7
 79
     3
170
     0
171
     0
290
     0
174
     0
 93
        5
 44
0.0
173
     0
291
     0
 45
0.0
1001
ACAD
1000
AcDbSavedByObjectVersion
1070
     0
  0
VISUALSTYLE
  5
3E
102
{ACAD_XDICTIONARY
360
3FE
102
}
102
{ACAD_REACTORS
330
2A
102
}
330
2A
100
AcDbVisualStyle
  2

 70
    23
 71
     2
 72
     2
 73
     3
 90
        0
 40
-0.6
 41
-30.0
 62
     5
 63
     7
 74
     2
 91
        2
 64
     7
 65
     7
 75
     1
175
     1
 42
40.0
 92
        8
 66
     7
 43
1.0
 76
     1
 77
     6
 78
     2
 67
     7
 79
     3
170
     0
171
     0
290
     0
174
     0
 93
        1
 44
0.0
173
     0
291
     0
 45
0.0
1001
ACAD
1000
AcDbSavedByObjectVersion
1070
     0
  0
VISUALSTYLE
  5
3F
102
{ACAD_XDICTIONARY
360
400
102
}
102
{ACAD_REACTORS
330
2A
102
}
330
2A
100
AcDbVisualStyle
  2

 70
    24
 71
     1
 72
     2
 73
     2
 90
        0
 40
-0.6
 41
-30.0
 62
     5
 63
     7
 74
     2
 91
        2
 64
     7
 65
     7
 75
     1
175
     1
 42
40.0
 92
       11
 66
     7
 43
1.0
 76
     1
 77
     6
 78
     2
 67
     7
 79
     6
170
     0
171
     0
290
     0
174
     0
 93
        1
 44
0.0
173
     0
291
     0
 45
0.0
1001
ACAD
1000
AcDbSavedByObjectVersion
1070
     0
  0
VISUALSTYLE
  5
37
102
{ACAD_XDICTIONARY
360
3F0
102
}
102
{ACAD_REACTORS
330
2A
102
}
330
2A
100
AcDbVisualStyle
  2

 70
    13
 71
     2
 72
     2
 73
     0
 90
        0
 40
-0.6
 41
-30.0
 62
     5
 63
     7
 74
     1
 91
        4
 64
     7
 65
   257
 75
     1
175
     1
 42
1.0
 92
       12
 66
     7
 43
1.0
 76
     1
 77
     6
 78
     2
 67
     7
 79
     5
170
     0
171
     0
290
     0
174
     0
 93
        1
 44
0.0
173
     0
291
     1
 45
0.0
1001
ACAD
1000
AcDbSavedByObjectVersion
1070
     0
  0
VISUALSTYLE
  5
30
102
{ACAD_XDICTIONARY
360
3E2
102
}
102
{ACAD_REACTORS
330
2A
102
}
330
2A
100
AcDbVisualStyle
  2

 70
     5
 71
     0
 72
     2
 73
     0
 90
        0
 40
-0.6
 41
-30.0
 62
     5
 63
     7
 74
     1
 91
        4
 64
     7
 65
   257
 75
     1
175
     1
 42
1.0
 92
        0
 66
   257
 43
1.0
 76
     1
 77
     6
 78
     2
 67
     7
 79
     3
170
     0
171
     0
290
     0
174
     0
 93
        1
 44
0.0
173
     0
291
     0
 45
0.0
1001
ACAD
1000
AcDbSavedByObjectVersion
1070
     0
  0
VISUALSTYLE
  5
40
102
{ACAD_XDICTIONARY
360
402
102
}
102
{ACAD_REACTORS
330
2A
102
}
330
2A
100
AcDbVisualStyle
  2

 70
    25
 71
     2
 72
     2
 73
     1
 90
        1
 40
0.5
 41
-30.0
 62
     5
 63
     7
 74
     1
 91
        0
 64
     7
 65
   257
 75
     1
175
     1
 42
1.0
 92
        8
 66
     7
 43
1.0
 76
     1
 77
     6
 78
     2
 67
     7
 79
     3
170
     0
171
     0
290
     0
174
     0
 93
       13
 44
0.0
173
     0
291
     0
 45
0.0
1001
ACAD
1000
AcDbSavedByObjectVersion
1070
     0
  0
DICTIONARYVAR
  5
371
102
{ACAD_REACTORS
330
363
102
}
330
363
100
DictionaryVariables
280
     0
  1
1:1
  0
DICTIONARYVAR
  5
365
102
{ACAD_REACTORS
330
363
102
}
330
363
100
DictionaryVariables
280
     0
  1
STANDARD
  0
DICTIONARYVAR
  5
364
102
{ACAD_REACTORS
330
363
102
}
330
363
100
DictionaryVariables
280
     0
  1
STANDARD
  0
DICTIONARYVAR
  5
3C8
102
{ACAD_REACTORS
330
363
102
}
330
363
100
DictionaryVariables
280
     0
  1
Metric50
  0
DICTIONARYVAR
  5
3C9
102
{ACAD_REACTORS
330
363
102
}
330
363
100
DictionaryVariables
280
     0
  1
Metric50
  0
DICTIONARYVAR
  5
368
102
{ACAD_REACTORS
330
363
102
}
330
363
100
DictionaryVariables
280
     0
  1
2
  0
DICTIONARYVAR
  5
369
102
{ACAD_REACTORS
330
363
102
}
330
363
100
DictionaryVariables
280
     0
  1
1
  0
DICTIONARYVAR
  5
3CB
102
{ACAD_REACTORS
330
363
102
}
330
363
100
DictionaryVariables
280
     0
  1
0
  0
DICTIONARYVAR
  5
372
102
{ACAD_REACTORS
330
363
102
}
330
363
100
DictionaryVariables
280
     0
  1
1
  0
DICTIONARYVAR
  5
3CA
102
{ACAD_REACTORS
330
363
102
}
330
363
100
DictionaryVariables
280
     0
  1
127
  0
DICTIONARYVAR
  5
3CC
102
{ACAD_REACTORS
330
363
102
}
330
363
100
DictionaryVariables
280
     0
  1
2
  0
DICTIONARY
  5
40B
330
3B2
100
AcDbDictionary
280
     1
281
     1
  3
ACAD_XREC_ROUNDTRIP
360
40C
  0
DICTIONARY
  5
3D2
330
1E
100
AcDbDictionary
280
     1
281
     1
  3
ACAD_XREC_ROUNDTRIP
360
3D3
  0
DICTIONARY
  5
3D6
330
26
100
AcDbDictionary
280
     1
281
     1
  3
ACAD_XREC_ROUNDTRIP
360
3D7
  0
DICTIONARY
  5
3D4
330
22
100
AcDbDictionary
280
     1
281
     1
  3
ACAD_XREC_ROUNDTRIP
360
3D5
  0
DICTIONARY
  5
3A5
330
45
100
AcDbDictionary
280
     1
281
     1
  3
ACAD_XREC_ROUNDTRIP
360
3A6
  0
DICTIONARY
  5
3A3
330
44
100
AcDbDictionary
280
     1
281
     1
  3
ACAD_XREC_ROUNDTRIP
360
3A4
  0
DICTIONARY
  5
3A7
330
46
100
AcDbDictionary
280
     1
281
     1
  3
ACAD_XREC_ROUNDTRIP
360
3A8
  0
DICTIONARY
  5
409
330
3B0
100
AcDbDictionary
280
     1
281
     1
  3
ACAD_XREC_ROUNDTRIP
360
40A
  0
DICTIONARY
  5
3CE
330
6A
100
AcDbDictionary
280
     1
281
     1
  3
ACAD_ROUNDTRIP_2008_TABLESTYLE_CELLSTYLEMAP
360
3CF
  3
ACAD_XREC_ROUNDTRIP
360
408
  0
DICTIONARY
  5
3E0
330
2F
100
AcDbDictionary
280
     1
281
     1
  3
ACAD_XREC_ROUNDTRIP
360
3E1
  0
DICTIONARY
  5
3E6
330
32
100
AcDbDictionary
280
     1
281
     1
  3
ACAD_XREC_ROUNDTRIP
360
3E7
  0
DICTIONARY
  5
3EE
330
36
100
AcDbDictionary
280
     1
281
     1
  3
ACAD_XREC_ROUNDTRIP
360
3EF
  0
DICTIONARY
  5
3F6
330
3A
100
AcDbDictionary
280
     1
281
     1
  3
ACAD_XREC_ROUNDTRIP
360
3F7
  0
DICTIONARY
  5
3EA
330
34
100
AcDbDictionary
280
     1
281
     1
  3
ACAD_XREC_ROUNDTRIP
360
3EB
  0
DICTIONARY
  5
3EC
330
35
100
AcDbDictionary
280
     1
281
     1
  3
ACAD_XREC_ROUNDTRIP
360
3ED
  0
DICTIONARY
  5
3FC
330
3D
100
AcDbDictionary
280
     1
281
     1
  3
ACAD_XREC_ROUNDTRIP
360
3FD
  0
DICTIONARY
  5
3F4
330
39
100
AcDbDictionary
280
     1
281
     1
  3
ACAD_XREC_ROUNDTRIP
360
3F5
  0
DICTIONARY
  5
3D8
330
2B
100
AcDbDictionary
280
     1
281
     1
  3
ACAD_XREC_ROUNDTRIP
360
3D9
  0
DICTIONARY
  5
3DA
330
2C
100
AcDbDictionary
280
     1
281
     1
  3
ACAD_XREC_ROUNDTRIP
360
3DB
  0
DICTIONARY
  5
3DC
330
2D
100
AcDbDictionary
280
     1
281
     1
  3
ACAD_XREC_ROUNDTRIP
360
3DD
  0
DICTIONARY
  5
3DE
330
2E
100
AcDbDictionary
280
     1
281
     1
  3
ACAD_XREC_ROUNDTRIP
360
3DF
  0
DICTIONARY
  5
3E4
330
31
100
AcDbDictionary
280
     1
281
     1
  3
ACAD_XREC_ROUNDTRIP
360
3E5
  0
DICTIONARY
  5
3F8
330
3B
100
AcDbDictionary
280
     1
281
     1
  3
ACAD_XREC_ROUNDTRIP
360
3F9
  0
DICTIONARY
  5
3F2
330
38
100
AcDbDictionary
280
     1
281
     1
  3
ACAD_XREC_ROUNDTRIP
360
3F3
  0
DICTIONARY
  5
3FA
330
3C
100
AcDbDictionary
280
     1
281
     1
  3
ACAD_XREC_ROUNDTRIP
360
3FB
  0
DICTIONARY
  5
3E8
330
33
100
AcDbDictionary
280
     1
281
     1
  3
ACAD_XREC_ROUNDTRIP
360
3E9
  0
DICTIONARY
  5
406
330
42
100
AcDbDictionary
280
     1
281
     1
  3
ACAD_XREC_ROUNDTRIP
360
407
  0
DICTIONARY
  5
404
330
41
100
AcDbDictionary
280
     1
281
     1
  3
ACAD_XREC_ROUNDTRIP
360
405
  0
DICTIONARY
  5
3FE
330
3E
100
AcDbDictionary
280
     1
281
     1
  3
ACAD_XREC_ROUNDTRIP
360
3FF
  0
DICTIONARY
  5
400
330
3F
100
AcDbDictionary
280
     1
281
     1
  3
ACAD_XREC_ROUNDTRIP
360
401
  0
DICTIONARY
  5
3F0
330
37
100
AcDbDictionary
280
     1
281
     1
  3
ACAD_XREC_ROUNDTRIP
360
3F1
  0
DICTIONARY
  5
3E2
330
30
100
AcDbDictionary
280
     1
281
     1
  3
ACAD_XREC_ROUNDTRIP
360
3E3
  0
DICTIONARY
  5
402
330
40
100
AcDbDictionary
280
     1
281
     1
  3
ACAD_XREC_ROUNDTRIP
360
403
  0
XRECORD
  5
40C
102
{ACAD_REACTORS
330
40B
102
}
330
40B
100
AcDbXrecord
280
     1
102
DISPLAYNAME
  1
Metric50
102
FLAGS
 90
        0
  0
XRECORD
  5
3D3
102
{ACAD_REACTORS
330
3D2
102
}
330
3D2
100
AcDbXrecord
280
     1
102
SHADEPLOT
 70
     0
102
SHADEPLOTRESLEVEL
 70
     2
102
SHADEPLOTCUSTOMDPI
 70
   300
  0
XRECORD
  5
3D7
102
{ACAD_REACTORS
330
3D6
102
}
330
3D6
100
AcDbXrecord
280
     1
102
SHADEPLOT
 70
     0
102
SHADEPLOTRESLEVEL
 70
     2
102
SHADEPLOTCUSTOMDPI
 70
   300
  0
XRECORD
  5
3D5
102
{ACAD_REACTORS
330
3D4
102
}
330
3D4
100
AcDbXrecord
280
     1
102
SHADEPLOT
 70
     0
102
SHADEPLOTRESLEVEL
 70
     2
102
SHADEPLOTCUSTOMDPI
 70
   300
  0
XRECORD
  5
3A6
102
{ACAD_REACTORS
330
3A5
102
}
330
3A5
100
AcDbXrecord
280
     1
102
MATERIAL
148
0.0
149
0.0
149
0.0
 93
        0
 94
      127
282
     0
 72
     1
 77
     1
171
     1
175
     1
179
     1
273
     0
  0
XRECORD
  5
3A4
102
{ACAD_REACTORS
330
3A3
102
}
330
3A3
100
AcDbXrecord
280
     1
102
MATERIAL
148
0.0
149
0.0
149
0.0
 93
        0
 94
      127
282
     0
 72
     1
 77
     1
171
     1
175
     1
179
     1
273
     0
  0
XRECORD
  5
3A8
102
{ACAD_REACTORS
330
3A7
102
}
330
3A7
100
AcDbXrecord
280
     1
102
MATERIAL
148
0.0
149
0.0
149
0.0
 93
        0
 94
      127
282
     0
 72
     1
 77
     1
171
     1
175
     1
179
     1
273
     0
  0
XRECORD
  5
40A
102
{ACAD_REACTORS
330
409
102
}
330
409
100
AcDbXrecord
280
     1
102
DISPLAYNAME
  1
Metric50
102
FLAGS
 90
        0
  0
CELLSTYLEMAP
  5
3CF
102
{ACAD_REACTORS
330
3CE
102
}
330
3CE
100
AcDbCellStyleMap
 90
        3
300
CELLSTYLE
  1
TABLEFORMAT_BEGIN
 90
        5
170
     1
 91
        0
 92
    32768
 62
   257
 93
        1
300
CONTENTFORMAT
  1
CONTENTFORMAT_BEGIN
 90
        0
 91
        0
 92
        4
 93
        0
300

 40
0.0
140
1.0
 94
        5
 62
     0
340
11
144
0.25
309
CONTENTFORMAT_END
171
     0
 94
        6
 95
        1
302
GRIDFORMAT
  1
GRIDFORMAT_BEGIN
 90
        0
 91
        1
 62
     0
 92
       -2
340
0
 93
        0
 40
0.045
309
GRIDFORMAT_END
 95
        2
302
GRIDFORMAT
  1
GRIDFORMAT_BEGIN
 90
        0
 91
        1
 62
     0
 92
       -2
340
0
 93
        0
 40
0.045
309
GRIDFORMAT_END
 95
        4
302
GRIDFORMAT
  1
GRIDFORMAT_BEGIN
 90
        0
 91
        1
 62
     0
 92
       -2
340
0
 93
        0
 40
0.045
309
GRIDFORMAT_END
 95
        8
302
GRIDFORMAT
  1
GRIDFORMAT_BEGIN
 90
        0
 91
        1
 62
     0
 92
       -2
340
0
 93
        0
 40
0.045
309
GRIDFORMAT_END
 95
       16
302
GRIDFORMAT
  1
GRIDFORMAT_BEGIN
 90
        0
 91
        1
 62
     0
 92
       -2
340
0
 93
        0
 40
0.045
309
GRIDFORMAT_END
 95
       32
302
GRIDFORMAT
  1
GRIDFORMAT_BEGIN
 90
        0
 91
        1
 62
     0
 92
       -2
340
0
 93
        0
 40
0.045
309
GRIDFORMAT_END
309
TABLEFORMAT_END
  1
CELLSTYLE_BEGIN
 90
        1
 91
        1
300
_TITLE
309
CELLSTYLE_END
300
CELLSTYLE
  1
TABLEFORMAT_BEGIN
 90
        5
170
     1
 91
        0
 92
        0
 62
   257
 93
        1
300
CONTENTFORMAT
  1
CONTENTFORMAT_BEGIN
 90
        0
 91
        0
 92
        4
 93
        0
300

 40
0.0
140
1.0
 94
        5
 62
     0
340
11
144
0.18
309
CONTENTFORMAT_END
171
     0
 94
        6
 95
        1
302
GRIDFORMAT
  1
GRIDFORMAT_BEGIN
 90
        0
 91
        1
 62
     0
 92
       -2
340
0
 93
        0
 40
0.045
309
GRIDFORMAT_END
 95
        2
302
GRIDFORMAT
  1
GRIDFORMAT_BEGIN
 90
        0
 91
        1
 62
     0
 92
       -2
340
0
 93
        0
 40
0.045
309
GRIDFORMAT_END
 95
        4
302
GRIDFORMAT
  1
GRIDFORMAT_BEGIN
 90
        0
 91
        1
 62
     0
 92
       -2
340
0
 93
        0
 40
0.045
309
GRIDFORMAT_END
 95
        8
302
GRIDFORMAT
  1
GRIDFORMAT_BEGIN
 90
        0
 91
        1
 62
     0
 92
       -2
340
0
 93
        0
 40
0.045
309
GRIDFORMAT_END
 95
       16
302
GRIDFORMAT
  1
GRIDFORMAT_BEGIN
 90
        0
 91
        1
 62
     0
 92
       -2
340
0
 93
        0
 40
0.045
309
GRIDFORMAT_END
 95
       32
302
GRIDFORMAT
  1
GRIDFORMAT_BEGIN
 90
        0
 91
        1
 62
     0
 92
       -2
340
0
 93
        0
 40
0.045
309
GRIDFORMAT_END
309
TABLEFORMAT_END
  1
CELLSTYLE_BEGIN
 90
        2
 91
        1
300
_HEADER
309
CELLSTYLE_END
300
CELLSTYLE
  1
TABLEFORMAT_BEGIN
 90
        5
170
     1
 91
        0
 92
        0
 62
   257
 93
        1
300
CONTENTFORMAT
  1
CONTENTFORMAT_BEGIN
 90
        0
 91
        0
 92
        4
 93
        0
300

 40
0.0
140
1.0
 94
        2
 62
     0
340
11
144
0.18
309
CONTENTFORMAT_END
171
     0
 94
        6
 95
        1
302
GRIDFORMAT
  1
GRIDFORMAT_BEGIN
 90
        0
 91
        1
 62
     0
 92
       -2
340
0
 93
        0
 40
0.045
309
GRIDFORMAT_END
 95
        2
302
GRIDFORMAT
  1
GRIDFORMAT_BEGIN
 90
        0
 91
        1
 62
     0
 92
       -2
340
0
 93
        0
 40
0.045
309
GRIDFORMAT_END
 95
        4
302
GRIDFORMAT
  1
GRIDFORMAT_BEGIN
 90
        0
 91
        1
 62
     0
 92
       -2
340
0
 93
        0
 40
0.045
309
GRIDFORMAT_END
 95
        8
302
GRIDFORMAT
  1
GRIDFORMAT_BEGIN
 90
        0
 91
        1
 62
     0
 92
       -2
340
0
 93
        0
 40
0.045
309
GRIDFORMAT_END
 95
       16
302
GRIDFORMAT
  1
GRIDFORMAT_BEGIN
 90
        0
 91
        1
 62
     0
 92
       -2
340
0
 93
        0
 40
0.045
309
GRIDFORMAT_END
 95
       32
302
GRIDFORMAT
  1
GRIDFORMAT_BEGIN
 90
        0
 91
        1
 62
     0
 92
       -2
340
0
 93
        0
 40
0.045
309
GRIDFORMAT_END
309
TABLEFORMAT_END
  1
CELLSTYLE_BEGIN
 90
        3
 91
        2
300
_DATA
309
CELLSTYLE_END
  0
XRECORD
  5
408
102
{ACAD_REACTORS
330
3CE
102
}
330
3CE
100
AcDbXrecord
280
     1
102
ACAD_ROUNDTRIP_PRE2007_TABLESTYLE
 90
        4
 91
        0
  1

 92
        4
 93
        0
  2

 94
        4
 95
        0
  3

  0
XRECORD
  5
3E1
102
{ACAD_REACTORS
330
3E0
102
}
330
3E0
100
AcDbXrecord
280
     1
102
RTVSPost2010Prop28
280
     1
102
RTVSPost2010PropOp28
 70
     1
102
RTVSPost2010Prop29
280
     1
102
RTVSPost2010PropOp29
 70
     1
102
RTVSPost2010Prop30
280
     0
102
RTVSPost2010PropOp30
 70
     1
102
RTVSPost2010Prop31
280
     0
102
RTVSPost2010PropOp31
 70
     1
102
RTVSPost2010Prop32
280
     0
102
RTVSPost2010PropOp32
 70
     1
102
RTVSPost2010Prop33
280
     0
102
RTVSPost2010PropOp33
 70
     1
102
RTVSPost2010Prop34
280
     0
102
RTVSPost2010PropOp34
 70
     1
102
RTVSPost2010Prop35
280
     0
102
RTVSPost2010PropOp35
 70
     1
102
RTVSPost2010Prop36
280
     0
102
RTVSPost2010PropOp36
 70
     1
102
RTVSPost2010Prop37
 90
       50
102
RTVSPost2010PropOp37
 70
     1
102
RTVSPost2010Prop38
140
0.0
102
RTVSPost2010PropOp38
 70
     1
102
RTVSPost2010Prop39
140
1.0
102
RTVSPost2010PropOp39
 70
     1
102
RTVSPost2010Prop40
 90
        0
102
RTVSPost2010PropOp40
 70
     1
102
RTVSPost2010Prop41ColorIndex
 90
       18
102
RTVSPost2010Prop41ColorRGB
 90
        0
102
RTVSPost2010PropOp41
 70
     1
102
RTVSPost2010Prop42
 90
       50
102
RTVSPost2010PropOp42
 70
     1
102
RTVSPost2010Prop43
 90
        3
102
RTVSPost2010PropOp43
 70
     1
102
RTVSPost2010Prop44ColorIndex
 90
        5
102
RTVSPost2010Prop44ColorRGB
 90
      255
102
RTVSPost2010PropOp44
 70
     1
102
RTVSPost2010Prop45
280
     0
102
RTVSPost2010PropOp45
 70
     1
102
RTVSPost2010Prop46
 90
       50
102
RTVSPost2010PropOp46
 70
     1
102
RTVSPost2010Prop47
 90
       50
102
RTVSPost2010PropOp47
 70
     1
102
RTVSPost2010Prop48
 90
       50
102
RTVSPost2010PropOp48
 70
     1
102
RTVSPost2010Prop49
280
     0
102
RTVSPost2010PropOp49
 70
     1
102
RTVSPost2010Prop50
 90
       50
102
RTVSPost2010PropOp50
 70
     1
102
RTVSPost2010Prop51ColorIndex
 90
      256
102
RTVSPost2010Prop51ColorRGB
 90
-16777216
102
RTVSPost2010PropOp51
 70
     0
102
RTVSPost2010Prop52
140
1.0
102
RTVSPost2010PropOp52
 70
     0
102
RTVSPost2010Prop53
 90
        2
102
RTVSPost2010PropOp53
 70
     1
102
RTVSPost2010Prop54
  1
strokes_ogs.tif
102
RTVSPost2010PropOp54
 70
     1
102
RTVSPost2010Prop55
280
     0
102
RTVSPost2010PropOp55
 70
     1
102
RTVSPost2010Prop56
140
1.0
102
RTVSPost2010PropOp56
 70
     1
102
RTVSPost2010Prop57
140
1.0
102
RTVSPost2010PropOp57
 70
     1
102
RTVSPropertyOp0
 70
     1
102
RTVSPropertyOp1
 70
     1
102
RTVSPropertyOp2
 70
     1
102
RTVSPropertyOp3
 70
     1
102
RTVSPropertyOp4
 70
     1
102
RTVSPropertyOp5
 70
     1
102
RTVSPropertyOp6
 70
     1
102
RTVSPropertyOp7
 70
     1
102
RTVSPropertyOp8
 70
     1
102
RTVSPropertyOp9
 70
     1
102
RTVSPropertyOp10
 70
     1
102
RTVSPropertyOp11
 70
     1
102
RTVSPropertyOp12
 70
     1
102
RTVSPropertyOp13
 70
     1
102
RTVSPropertyOp14
 70
     1
102
RTVSPropertyOp15
 70
     1
102
RTVSPropertyOp16
 70
     1
102
RTVSPropertyOp17
 70
     1
102
RTVSPropertyOp18
 70
     1
102
RTVSPropertyOp19
 70
     1
102
RTVSPropertyOp20
 70
     1
102
RTVSPropertyOp21
 70
     1
102
RTVSPropertyOp22
 70
     1
102
RTVSPropertyOp23
 70
     1
102
RTVSPropertyOp24
 70
     1
102
RTVSPropertyOp25
 70
     1
102
RTVSPropertyOp26
 70
     1
102
RTVSPropertyOp27
 70
     1
102
RTVSPropertyOp28
 70
     1
102
RTVSPropertyOp29
 70
     1
102
RTVSPropertyOp30
 70
     1
102
RTVSPropertyOp31
 70
     1
102
RTVSPropertyOp32
 70
     1
102
RTVSPropertyOp33
 70
     1
102
RTVSPropertyOp34
 70
     1
102
RTVSPropertyOp35
 70
     1
102
RTVSPropertyOp36
 70
     1
102
RTVSPropertyOp37
 70
     1
102
RTVSPropertyOp38
 70
     1
102
RTVSPropertyOp39
 70
     1
102
RTVSPropertyOp40
 70
     1
102
RTVSPropertyOp41
 70
     1
102
RTVSPropertyOp42
 70
     1
102
RTVSPropertyOp43
 70
     1
102
RTVSPropertyOp44
 70
     1
102
RTVSPropertyOp45
 70
     1
102
RTVSPropertyOp46
 70
     1
102
RTVSPropertyOp47
 70
     1
102
RTVSPropertyOp48
 70
     1
102
RTVSPropertyOp49
 70
     1
102
RTVSPropertyOp50
 70
     1
102
RTVSPropertyOp51
 70
     0
102
RTVSPropertyOp52
 70
     0
102
RTVSPropertyOp53
 70
     1
102
RTVSPropertyOp54
 70
     1
102
RTVSPropertyOp55
 70
     1
102
RTVSPropertyOp56
 70
     1
102
RTVSPropertyOp57
 70
     1
102
RTVSPropertyOp58
 70
     1
102
RTVSPropertyOp59
 70
     1
102
RTVSPropertyOp60
 70
     1
102
RTVSPropertyOp61
 70
     1
102
RTVSPropertyOp62
 70
     1
  0
XRECORD
  5
3E7
102
{ACAD_REACTORS
330
3E6
102
}
330
3E6
100
AcDbXrecord
280
     1
102
RTVSPost2010Prop28
280
     0
102
RTVSPost2010PropOp28
 70
     1
102
RTVSPost2010Prop29
280
     1
102
RTVSPost2010PropOp29
 70
     1
102
RTVSPost2010Prop30
280
     1
102
RTVSPost2010PropOp30
 70
     1
102
RTVSPost2010Prop31
280
     0
102
RTVSPost2010PropOp31
 70
     1
102
RTVSPost2010Prop32
280
     0
102
RTVSPost2010PropOp32
 70
     1
102
RTVSPost2010Prop33
280
     0
102
RTVSPost2010PropOp33
 70
     1
102
RTVSPost2010Prop34
280
     0
102
RTVSPost2010PropOp34
 70
     1
102
RTVSPost2010Prop35
280
     0
102
RTVSPost2010PropOp35
 70
     1
102
RTVSPost2010Prop36
280
     0
102
RTVSPost2010PropOp36
 70
     1
102
RTVSPost2010Prop37
 90
       50
102
RTVSPost2010PropOp37
 70
     1
102
RTVSPost2010Prop38
140
0.0
102
RTVSPost2010PropOp38
 70
     1
102
RTVSPost2010Prop39
140
1.0
102
RTVSPost2010PropOp39
 70
     1
102
RTVSPost2010Prop40
 90
        0
102
RTVSPost2010PropOp40
 70
     1
102
RTVSPost2010Prop41ColorIndex
 90
       18
102
RTVSPost2010Prop41ColorRGB
 90
        0
102
RTVSPost2010PropOp41
 70
     1
102
RTVSPost2010Prop42
 90
       50
102
RTVSPost2010PropOp42
 70
     1
102
RTVSPost2010Prop43
 90
        3
102
RTVSPost2010PropOp43
 70
     1
102
RTVSPost2010Prop44ColorIndex
 90
        5
102
RTVSPost2010Prop44ColorRGB
 90
      255
102
RTVSPost2010PropOp44
 70
     1
102
RTVSPost2010Prop45
280
     0
102
RTVSPost2010PropOp45
 70
     1
102
RTVSPost2010Prop46
 90
       50
102
RTVSPost2010PropOp46
 70
     1
102
RTVSPost2010Prop47
 90
       50
102
RTVSPost2010PropOp47
 70
     1
102
RTVSPost2010Prop48
 90
       50
102
RTVSPost2010PropOp48
 70
     1
102
RTVSPost2010Prop49
280
     0
102
RTVSPost2010PropOp49
 70
     1
102
RTVSPost2010Prop50
 90
       50
102
RTVSPost2010PropOp50
 70
     1
102
RTVSPost2010Prop51ColorIndex
 90
      256
102
RTVSPost2010Prop51ColorRGB
 90
-16777216
102
RTVSPost2010PropOp51
 70
     0
102
RTVSPost2010Prop52
140
1.0
102
RTVSPost2010PropOp52
 70
     0
102
RTVSPost2010Prop53
 90
        2
102
RTVSPost2010PropOp53
 70
     1
102
RTVSPost2010Prop54
  1
strokes_ogs.tif
102
RTVSPost2010PropOp54
 70
     1
102
RTVSPost2010Prop55
280
     0
102
RTVSPost2010PropOp55
 70
     1
102
RTVSPost2010Prop56
140
1.0
102
RTVSPost2010PropOp56
 70
     1
102
RTVSPost2010Prop57
140
1.0
102
RTVSPost2010PropOp57
 70
     1
102
RTVSPropertyOp0
 70
     1
102
RTVSPropertyOp1
 70
     1
102
RTVSPropertyOp2
 70
     1
102
RTVSPropertyOp3
 70
     1
102
RTVSPropertyOp4
 70
     1
102
RTVSPropertyOp5
 70
     1
102
RTVSPropertyOp6
 70
     1
102
RTVSPropertyOp7
 70
     1
102
RTVSPropertyOp8
 70
     1
102
RTVSPropertyOp9
 70
     1
102
RTVSPropertyOp10
 70
     1
102
RTVSPropertyOp11
 70
     1
102
RTVSPropertyOp12
 70
     1
102
RTVSPropertyOp13
 70
     1
102
RTVSPropertyOp14
 70
     1
102
RTVSPropertyOp15
 70
     1
102
RTVSPropertyOp16
 70
     1
102
RTVSPropertyOp17
 70
     1
102
RTVSPropertyOp18
 70
     1
102
RTVSPropertyOp19
 70
     1
102
RTVSPropertyOp20
 70
     1
102
RTVSPropertyOp21
 70
     1
102
RTVSPropertyOp22
 70
     1
102
RTVSPropertyOp23
 70
     1
102
RTVSPropertyOp24
 70
     1
102
RTVSPropertyOp25
 70
     1
102
RTVSPropertyOp26
 70
     1
102
RTVSPropertyOp27
 70
     1
102
RTVSPropertyOp28
 70
     1
102
RTVSPropertyOp29
 70
     1
102
RTVSPropertyOp30
 70
     1
102
RTVSPropertyOp31
 70
     1
102
RTVSPropertyOp32
 70
     1
102
RTVSPropertyOp33
 70
     1
102
RTVSPropertyOp34
 70
     1
102
RTVSPropertyOp35
 70
     1
102
RTVSPropertyOp36
 70
     1
102
RTVSPropertyOp37
 70
     1
102
RTVSPropertyOp38
 70
     1
102
RTVSPropertyOp39
 70
     1
102
RTVSPropertyOp40
 70
     1
102
RTVSPropertyOp41
 70
     1
102
RTVSPropertyOp42
 70
     1
102
RTVSPropertyOp43
 70
     1
102
RTVSPropertyOp44
 70
     1
102
RTVSPropertyOp45
 70
     1
102
RTVSPropertyOp46
 70
     1
102
RTVSPropertyOp47
 70
     1
102
RTVSPropertyOp48
 70
     1
102
RTVSPropertyOp49
 70
     1
102
RTVSPropertyOp50
 70
     1
102
RTVSPropertyOp51
 70
     0
102
RTVSPropertyOp52
 70
     0
102
RTVSPropertyOp53
 70
     1
102
RTVSPropertyOp54
 70
     1
102
RTVSPropertyOp55
 70
     1
102
RTVSPropertyOp56
 70
     1
102
RTVSPropertyOp57
 70
     1
102
RTVSPropertyOp58
 70
     1
102
RTVSPropertyOp59
 70
     1
102
RTVSPropertyOp60
 70
     1
102
RTVSPropertyOp61
 70
     1
102
RTVSPropertyOp62
 70
     1
  0
XRECORD
  5
3EF
102
{ACAD_REACTORS
330
3EE
102
}
330
3EE
100
AcDbXrecord
280
     1
102
RTVSPost2010Prop28
280
     0
102
RTVSPost2010PropOp28
 70
     1
102
RTVSPost2010Prop29
280
     1
102
RTVSPost2010PropOp29
 70
     1
102
RTVSPost2010Prop30
280
     1
102
RTVSPost2010PropOp30
 70
     1
102
RTVSPost2010Prop31
280
     0
102
RTVSPost2010PropOp31
 70
     1
102
RTVSPost2010Prop32
280
     0
102
RTVSPost2010PropOp32
 70
     1
102
RTVSPost2010Prop33
280
     0
102
RTVSPost2010PropOp33
 70
     1
102
RTVSPost2010Prop34
280
     0
102
RTVSPost2010PropOp34
 70
     1
102
RTVSPost2010Prop35
280
     0
102
RTVSPost2010PropOp35
 70
     1
102
RTVSPost2010Prop36
280
     0
102
RTVSPost2010PropOp36
 70
     1
102
RTVSPost2010Prop37
 90
       50
102
RTVSPost2010PropOp37
 70
     1
102
RTVSPost2010Prop38
140
0.0
102
RTVSPost2010PropOp38
 70
     1
102
RTVSPost2010Prop39
140
1.0
102
RTVSPost2010PropOp39
 70
     1
102
RTVSPost2010Prop40
 90
        0
102
RTVSPost2010PropOp40
 70
     1
102
RTVSPost2010Prop41ColorIndex
 90
       18
102
RTVSPost2010Prop41ColorRGB
 90
        0
102
RTVSPost2010PropOp41
 70
     1
102
RTVSPost2010Prop42
 90
       50
102
RTVSPost2010PropOp42
 70
     1
102
RTVSPost2010Prop43
 90
        3
102
RTVSPost2010PropOp43
 70
     1
102
RTVSPost2010Prop44ColorIndex
 90
        5
102
RTVSPost2010Prop44ColorRGB
 90
      255
102
RTVSPost2010PropOp44
 70
     1
102
RTVSPost2010Prop45
280
     0
102
RTVSPost2010PropOp45
 70
     1
102
RTVSPost2010Prop46
 90
       50
102
RTVSPost2010PropOp46
 70
     1
102
RTVSPost2010Prop47
 90
       50
102
RTVSPost2010PropOp47
 70
     1
102
RTVSPost2010Prop48
 90
       50
102
RTVSPost2010PropOp48
 70
     1
102
RTVSPost2010Prop49
280
     0
102
RTVSPost2010PropOp49
 70
     1
102
RTVSPost2010Prop50
 90
       50
102
RTVSPost2010PropOp50
 70
     1
102
RTVSPost2010Prop51ColorIndex
 90
      256
102
RTVSPost2010Prop51ColorRGB
 90
-16777216
102
RTVSPost2010PropOp51
 70
     0
102
RTVSPost2010Prop52
140
1.0
102
RTVSPost2010PropOp52
 70
     0
102
RTVSPost2010Prop53
 90
        2
102
RTVSPost2010PropOp53
 70
     1
102
RTVSPost2010Prop54
  1
strokes_ogs.tif
102
RTVSPost2010PropOp54
 70
     1
102
RTVSPost2010Prop55
280
     0
102
RTVSPost2010PropOp55
 70
     1
102
RTVSPost2010Prop56
140
1.0
102
RTVSPost2010PropOp56
 70
     1
102
RTVSPost2010Prop57
140
1.0
102
RTVSPost2010PropOp57
 70
     1
102
RTVSPropertyOp0
 70
     1
102
RTVSPropertyOp1
 70
     1
102
RTVSPropertyOp2
 70
     1
102
RTVSPropertyOp3
 70
     1
102
RTVSPropertyOp4
 70
     1
102
RTVSPropertyOp5
 70
     1
102
RTVSPropertyOp6
 70
     1
102
RTVSPropertyOp7
 70
     1
102
RTVSPropertyOp8
 70
     1
102
RTVSPropertyOp9
 70
     1
102
RTVSPropertyOp10
 70
     1
102
RTVSPropertyOp11
 70
     1
102
RTVSPropertyOp12
 70
     1
102
RTVSPropertyOp13
 70
     1
102
RTVSPropertyOp14
 70
     1
102
RTVSPropertyOp15
 70
     1
102
RTVSPropertyOp16
 70
     1
102
RTVSPropertyOp17
 70
     1
102
RTVSPropertyOp18
 70
     1
102
RTVSPropertyOp19
 70
     1
102
RTVSPropertyOp20
 70
     1
102
RTVSPropertyOp21
 70
     1
102
RTVSPropertyOp22
 70
     1
102
RTVSPropertyOp23
 70
     1
102
RTVSPropertyOp24
 70
     1
102
RTVSPropertyOp25
 70
     1
102
RTVSPropertyOp26
 70
     1
102
RTVSPropertyOp27
 70
     1
102
RTVSPropertyOp28
 70
     1
102
RTVSPropertyOp29
 70
     1
102
RTVSPropertyOp30
 70
     1
102
RTVSPropertyOp31
 70
     1
102
RTVSPropertyOp32
 70
     1
102
RTVSPropertyOp33
 70
     1
102
RTVSPropertyOp34
 70
     1
102
RTVSPropertyOp35
 70
     1
102
RTVSPropertyOp36
 70
     1
102
RTVSPropertyOp37
 70
     1
102
RTVSPropertyOp38
 70
     1
102
RTVSPropertyOp39
 70
     1
102
RTVSPropertyOp40
 70
     1
102
RTVSPropertyOp41
 70
     1
102
RTVSPropertyOp42
 70
     1
102
RTVSPropertyOp43
 70
     1
102
RTVSPropertyOp44
 70
     1
102
RTVSPropertyOp45
 70
     1
102
RTVSPropertyOp46
 70
     1
102
RTVSPropertyOp47
 70
     1
102
RTVSPropertyOp48
 70
     1
102
RTVSPropertyOp49
 70
     1
102
RTVSPropertyOp50
 70
     1
102
RTVSPropertyOp51
 70
     0
102
RTVSPropertyOp52
 70
     0
102
RTVSPropertyOp53
 70
     1
102
RTVSPropertyOp54
 70
     1
102
RTVSPropertyOp55
 70
     1
102
RTVSPropertyOp56
 70
     1
102
RTVSPropertyOp57
 70
     1
102
RTVSPropertyOp58
 70
     1
102
RTVSPropertyOp59
 70
     1
102
RTVSPropertyOp60
 70
     1
102
RTVSPropertyOp61
 70
     1
102
RTVSPropertyOp62
 70
     1
  0
XRECORD
  5
3F7
102
{ACAD_REACTORS
330
3F6
102
}
330
3F6
100
AcDbXrecord
280
     1
102
RTVSPost2010Prop28
280
     0
102
RTVSPost2010PropOp28
 70
     1
102
RTVSPost2010Prop29
280
     1
102
RTVSPost2010PropOp29
 70
     1
102
RTVSPost2010Prop30
280
     1
102
RTVSPost2010PropOp30
 70
     1
102
RTVSPost2010Prop31
280
     0
102
RTVSPost2010PropOp31
 70
     1
102
RTVSPost2010Prop32
280
     0
102
RTVSPost2010PropOp32
 70
     1
102
RTVSPost2010Prop33
280
     0
102
RTVSPost2010PropOp33
 70
     1
102
RTVSPost2010Prop34
280
     0
102
RTVSPost2010PropOp34
 70
     1
102
RTVSPost2010Prop35
280
     0
102
RTVSPost2010PropOp35
 70
     1
102
RTVSPost2010Prop36
280
     0
102
RTVSPost2010PropOp36
 70
     1
102
RTVSPost2010Prop37
 90
       50
102
RTVSPost2010PropOp37
 70
     1
102
RTVSPost2010Prop38
140
0.0
102
RTVSPost2010PropOp38
 70
     1
102
RTVSPost2010Prop39
140
1.0
102
RTVSPost2010PropOp39
 70
     1
102
RTVSPost2010Prop40
 90
        0
102
RTVSPost2010PropOp40
 70
     1
102
RTVSPost2010Prop41ColorIndex
 90
       18
102
RTVSPost2010Prop41ColorRGB
 90
        0
102
RTVSPost2010PropOp41
 70
     1
102
RTVSPost2010Prop42
 90
       50
102
RTVSPost2010PropOp42
 70
     1
102
RTVSPost2010Prop43
 90
        3
102
RTVSPost2010PropOp43
 70
     1
102
RTVSPost2010Prop44ColorIndex
 90
        5
102
RTVSPost2010Prop44ColorRGB
 90
      255
102
RTVSPost2010PropOp44
 70
     1
102
RTVSPost2010Prop45
280
     0
102
RTVSPost2010PropOp45
 70
     1
102
RTVSPost2010Prop46
 90
       50
102
RTVSPost2010PropOp46
 70
     1
102
RTVSPost2010Prop47
 90
       50
102
RTVSPost2010PropOp47
 70
     1
102
RTVSPost2010Prop48
 90
       50
102
RTVSPost2010PropOp48
 70
     1
102
RTVSPost2010Prop49
280
     0
102
RTVSPost2010PropOp49
 70
     1
102
RTVSPost2010Prop50
 90
       50
102
RTVSPost2010PropOp50
 70
     1
102
RTVSPost2010Prop51ColorIndex
 90
      256
102
RTVSPost2010Prop51ColorRGB
 90
-16777216
102
RTVSPost2010PropOp51
 70
     0
102
RTVSPost2010Prop52
140
1.0
102
RTVSPost2010PropOp52
 70
     0
102
RTVSPost2010Prop53
 90
        2
102
RTVSPost2010PropOp53
 70
     1
102
RTVSPost2010Prop54
  1
strokes_ogs.tif
102
RTVSPost2010PropOp54
 70
     1
102
RTVSPost2010Prop55
280
     0
102
RTVSPost2010PropOp55
 70
     1
102
RTVSPost2010Prop56
140
1.0
102
RTVSPost2010PropOp56
 70
     1
102
RTVSPost2010Prop57
140
1.0
102
RTVSPost2010PropOp57
 70
     1
102
RTVSPropertyOp0
 70
     1
102
RTVSPropertyOp1
 70
     1
102
RTVSPropertyOp2
 70
     1
102
RTVSPropertyOp3
 70
     1
102
RTVSPropertyOp4
 70
     1
102
RTVSPropertyOp5
 70
     1
102
RTVSPropertyOp6
 70
     1
102
RTVSPropertyOp7
 70
     1
102
RTVSPropertyOp8
 70
     1
102
RTVSPropertyOp9
 70
     1
102
RTVSPropertyOp10
 70
     1
102
RTVSPropertyOp11
 70
     1
102
RTVSPropertyOp12
 70
     1
102
RTVSPropertyOp13
 70
     1
102
RTVSPropertyOp14
 70
     1
102
RTVSPropertyOp15
 70
     1
102
RTVSPropertyOp16
 70
     1
102
RTVSPropertyOp17
 70
     1
102
RTVSPropertyOp18
 70
     1
102
RTVSPropertyOp19
 70
     1
102
RTVSPropertyOp20
 70
     1
102
RTVSPropertyOp21
 70
     1
102
RTVSPropertyOp22
 70
     1
102
RTVSPropertyOp23
 70
     1
102
RTVSPropertyOp24
 70
     1
102
RTVSPropertyOp25
 70
     1
102
RTVSPropertyOp26
 70
     1
102
RTVSPropertyOp27
 70
     1
102
RTVSPropertyOp28
 70
     1
102
RTVSPropertyOp29
 70
     1
102
RTVSPropertyOp30
 70
     1
102
RTVSPropertyOp31
 70
     1
102
RTVSPropertyOp32
 70
     1
102
RTVSPropertyOp33
 70
     1
102
RTVSPropertyOp34
 70
     1
102
RTVSPropertyOp35
 70
     1
102
RTVSPropertyOp36
 70
     1
102
RTVSPropertyOp37
 70
     1
102
RTVSPropertyOp38
 70
     1
102
RTVSPropertyOp39
 70
     1
102
RTVSPropertyOp40
 70
     1
102
RTVSPropertyOp41
 70
     1
102
RTVSPropertyOp42
 70
     1
102
RTVSPropertyOp43
 70
     1
102
RTVSPropertyOp44
 70
     1
102
RTVSPropertyOp45
 70
     1
102
RTVSPropertyOp46
 70
     1
102
RTVSPropertyOp47
 70
     1
102
RTVSPropertyOp48
 70
     1
102
RTVSPropertyOp49
 70
     1
102
RTVSPropertyOp50
 70
     1
102
RTVSPropertyOp51
 70
     0
102
RTVSPropertyOp52
 70
     0
102
RTVSPropertyOp53
 70
     1
102
RTVSPropertyOp54
 70
     1
102
RTVSPropertyOp55
 70
     1
102
RTVSPropertyOp56
 70
     1
102
RTVSPropertyOp57
 70
     1
102
RTVSPropertyOp58
 70
     1
102
RTVSPropertyOp59
 70
     1
102
RTVSPropertyOp60
 70
     1
102
RTVSPropertyOp61
 70
     1
102
RTVSPropertyOp62
 70
     1
  0
XRECORD
  5
3EB
102
{ACAD_REACTORS
330
3EA
102
}
330
3EA
100
AcDbXrecord
280
     1
102
RTVSPost2010Prop28
280
     0
102
RTVSPost2010PropOp28
 70
     1
102
RTVSPost2010Prop29
280
     1
102
RTVSPost2010PropOp29
 70
     1
102
RTVSPost2010Prop30
280
     1
102
RTVSPost2010PropOp30
 70
     1
102
RTVSPost2010Prop31
280
     0
102
RTVSPost2010PropOp31
 70
     1
102
RTVSPost2010Prop32
280
     0
102
RTVSPost2010PropOp32
 70
     1
102
RTVSPost2010Prop33
280
     0
102
RTVSPost2010PropOp33
 70
     1
102
RTVSPost2010Prop34
280
     0
102
RTVSPost2010PropOp34
 70
     1
102
RTVSPost2010Prop35
280
     0
102
RTVSPost2010PropOp35
 70
     1
102
RTVSPost2010Prop36
280
     0
102
RTVSPost2010PropOp36
 70
     1
102
RTVSPost2010Prop37
 90
       50
102
RTVSPost2010PropOp37
 70
     1
102
RTVSPost2010Prop38
140
0.0
102
RTVSPost2010PropOp38
 70
     1
102
RTVSPost2010Prop39
140
1.0
102
RTVSPost2010PropOp39
 70
     1
102
RTVSPost2010Prop40
 90
        0
102
RTVSPost2010PropOp40
 70
     1
102
RTVSPost2010Prop41ColorIndex
 90
       18
102
RTVSPost2010Prop41ColorRGB
 90
        0
102
RTVSPost2010PropOp41
 70
     1
102
RTVSPost2010Prop42
 90
       50
102
RTVSPost2010PropOp42
 70
     1
102
RTVSPost2010Prop43
 90
        3
102
RTVSPost2010PropOp43
 70
     1
102
RTVSPost2010Prop44ColorIndex
 90
        5
102
RTVSPost2010Prop44ColorRGB
 90
      255
102
RTVSPost2010PropOp44
 70
     1
102
RTVSPost2010Prop45
280
     0
102
RTVSPost2010PropOp45
 70
     1
102
RTVSPost2010Prop46
 90
       50
102
RTVSPost2010PropOp46
 70
     1
102
RTVSPost2010Prop47
 90
       50
102
RTVSPost2010PropOp47
 70
     1
102
RTVSPost2010Prop48
 90
       50
102
RTVSPost2010PropOp48
 70
     1
102
RTVSPost2010Prop49
280
     0
102
RTVSPost2010PropOp49
 70
     1
102
RTVSPost2010Prop50
 90
       50
102
RTVSPost2010PropOp50
 70
     1
102
RTVSPost2010Prop51ColorIndex
 90
      256
102
RTVSPost2010Prop51ColorRGB
 90
-16777216
102
RTVSPost2010PropOp51
 70
     0
102
RTVSPost2010Prop52
140
1.0
102
RTVSPost2010PropOp52
 70
     0
102
RTVSPost2010Prop53
 90
        2
102
RTVSPost2010PropOp53
 70
     1
102
RTVSPost2010Prop54
  1
strokes_ogs.tif
102
RTVSPost2010PropOp54
 70
     1
102
RTVSPost2010Prop55
280
     0
102
RTVSPost2010PropOp55
 70
     1
102
RTVSPost2010Prop56
140
1.0
102
RTVSPost2010PropOp56
 70
     1
102
RTVSPost2010Prop57
140
1.0
102
RTVSPost2010PropOp57
 70
     1
102
RTVSPropertyOp0
 70
     1
102
RTVSPropertyOp1
 70
     1
102
RTVSPropertyOp2
 70
     1
102
RTVSPropertyOp3
 70
     1
102
RTVSPropertyOp4
 70
     1
102
RTVSPropertyOp5
 70
     1
102
RTVSPropertyOp6
 70
     1
102
RTVSPropertyOp7
 70
     1
102
RTVSPropertyOp8
 70
     1
102
RTVSPropertyOp9
 70
     1
102
RTVSPropertyOp10
 70
     1
102
RTVSPropertyOp11
 70
     1
102
RTVSPropertyOp12
 70
     1
102
RTVSPropertyOp13
 70
     1
102
RTVSPropertyOp14
 70
     1
102
RTVSPropertyOp15
 70
     1
102
RTVSPropertyOp16
 70
     1
102
RTVSPropertyOp17
 70
     1
102
RTVSPropertyOp18
 70
     1
102
RTVSPropertyOp19
 70
     1
102
RTVSPropertyOp20
 70
     1
102
RTVSPropertyOp21
 70
     1
102
RTVSPropertyOp22
 70
     1
102
RTVSPropertyOp23
 70
     1
102
RTVSPropertyOp24
 70
     1
102
RTVSPropertyOp25
 70
     1
102
RTVSPropertyOp26
 70
     1
102
RTVSPropertyOp27
 70
     1
102
RTVSPropertyOp28
 70
     1
102
RTVSPropertyOp29
 70
     1
102
RTVSPropertyOp30
 70
     1
102
RTVSPropertyOp31
 70
     1
102
RTVSPropertyOp32
 70
     1
102
RTVSPropertyOp33
 70
     1
102
RTVSPropertyOp34
 70
     1
102
RTVSPropertyOp35
 70
     1
102
RTVSPropertyOp36
 70
     1
102
RTVSPropertyOp37
 70
     1
102
RTVSPropertyOp38
 70
     1
102
RTVSPropertyOp39
 70
     1
102
RTVSPropertyOp40
 70
     1
102
RTVSPropertyOp41
 70
     1
102
RTVSPropertyOp42
 70
     1
102
RTVSPropertyOp43
 70
     1
102
RTVSPropertyOp44
 70
     1
102
RTVSPropertyOp45
 70
     1
102
RTVSPropertyOp46
 70
     1
102
RTVSPropertyOp47
 70
     1
102
RTVSPropertyOp48
 70
     1
102
RTVSPropertyOp49
 70
     1
102
RTVSPropertyOp50
 70
     1
102
RTVSPropertyOp51
 70
     0
102
RTVSPropertyOp52
 70
     0
102
RTVSPropertyOp53
 70
     1
102
RTVSPropertyOp54
 70
     1
102
RTVSPropertyOp55
 70
     1
102
RTVSPropertyOp56
 70
     1
102
RTVSPropertyOp57
 70
     1
102
RTVSPropertyOp58
 70
     1
102
RTVSPropertyOp59
 70
     1
102
RTVSPropertyOp60
 70
     1
102
RTVSPropertyOp61
 70
     1
102
RTVSPropertyOp62
 70
     1
  0
XRECORD
  5
3ED
102
{ACAD_REACTORS
330
3EC
102
}
330
3EC
100
AcDbXrecord
280
     1
102
RTVSPost2010Prop28
280
     0
102
RTVSPost2010PropOp28
 70
     1
102
RTVSPost2010Prop29
280
     1
102
RTVSPost2010PropOp29
 70
     1
102
RTVSPost2010Prop30
280
     1
102
RTVSPost2010PropOp30
 70
     1
102
RTVSPost2010Prop31
280
     0
102
RTVSPost2010PropOp31
 70
     1
102
RTVSPost2010Prop32
280
     0
102
RTVSPost2010PropOp32
 70
     1
102
RTVSPost2010Prop33
280
     0
102
RTVSPost2010PropOp33
 70
     1
102
RTVSPost2010Prop34
280
     0
102
RTVSPost2010PropOp34
 70
     1
102
RTVSPost2010Prop35
280
     0
102
RTVSPost2010PropOp35
 70
     1
102
RTVSPost2010Prop36
280
     0
102
RTVSPost2010PropOp36
 70
     1
102
RTVSPost2010Prop37
 90
       50
102
RTVSPost2010PropOp37
 70
     1
102
RTVSPost2010Prop38
140
0.0
102
RTVSPost2010PropOp38
 70
     1
102
RTVSPost2010Prop39
140
1.0
102
RTVSPost2010PropOp39
 70
     1
102
RTVSPost2010Prop40
 90
        0
102
RTVSPost2010PropOp40
 70
     1
102
RTVSPost2010Prop41ColorIndex
 90
       18
102
RTVSPost2010Prop41ColorRGB
 90
        0
102
RTVSPost2010PropOp41
 70
     1
102
RTVSPost2010Prop42
 90
       50
102
RTVSPost2010PropOp42
 70
     1
102
RTVSPost2010Prop43
 90
        3
102
RTVSPost2010PropOp43
 70
     1
102
RTVSPost2010Prop44ColorIndex
 90
        5
102
RTVSPost2010Prop44ColorRGB
 90
      255
102
RTVSPost2010PropOp44
 70
     1
102
RTVSPost2010Prop45
280
     0
102
RTVSPost2010PropOp45
 70
     1
102
RTVSPost2010Prop46
 90
       50
102
RTVSPost2010PropOp46
 70
     1
102
RTVSPost2010Prop47
 90
       50
102
RTVSPost2010PropOp47
 70
     1
102
RTVSPost2010Prop48
 90
       50
102
RTVSPost2010PropOp48
 70
     1
102
RTVSPost2010Prop49
280
     0
102
RTVSPost2010PropOp49
 70
     1
102
RTVSPost2010Prop50
 90
       50
102
RTVSPost2010PropOp50
 70
     1
102
RTVSPost2010Prop51ColorIndex
 90
      256
102
RTVSPost2010Prop51ColorRGB
 90
-16777216
102
RTVSPost2010PropOp51
 70
     0
102
RTVSPost2010Prop52
140
1.0
102
RTVSPost2010PropOp52
 70
     0
102
RTVSPost2010Prop53
 90
        2
102
RTVSPost2010PropOp53
 70
     1
102
RTVSPost2010Prop54
  1
strokes_ogs.tif
102
RTVSPost2010PropOp54
 70
     1
102
RTVSPost2010Prop55
280
     0
102
RTVSPost2010PropOp55
 70
     1
102
RTVSPost2010Prop56
140
1.0
102
RTVSPost2010PropOp56
 70
     1
102
RTVSPost2010Prop57
140
1.0
102
RTVSPost2010PropOp57
 70
     1
102
RTVSPropertyOp0
 70
     1
102
RTVSPropertyOp1
 70
     1
102
RTVSPropertyOp2
 70
     1
102
RTVSPropertyOp3
 70
     1
102
RTVSPropertyOp4
 70
     1
102
RTVSPropertyOp5
 70
     1
102
RTVSPropertyOp6
 70
     1
102
RTVSPropertyOp7
 70
     1
102
RTVSPropertyOp8
 70
     1
102
RTVSPropertyOp9
 70
     1
102
RTVSPropertyOp10
 70
     1
102
RTVSPropertyOp11
 70
     1
102
RTVSPropertyOp12
 70
     1
102
RTVSPropertyOp13
 70
     1
102
RTVSPropertyOp14
 70
     1
102
RTVSPropertyOp15
 70
     1
102
RTVSPropertyOp16
 70
     1
102
RTVSPropertyOp17
 70
     1
102
RTVSPropertyOp18
 70
     1
102
RTVSPropertyOp19
 70
     1
102
RTVSPropertyOp20
 70
     1
102
RTVSPropertyOp21
 70
     1
102
RTVSPropertyOp22
 70
     1
102
RTVSPropertyOp23
 70
     1
102
RTVSPropertyOp24
 70
     1
102
RTVSPropertyOp25
 70
     1
102
RTVSPropertyOp26
 70
     1
102
RTVSPropertyOp27
 70
     1
102
RTVSPropertyOp28
 70
     1
102
RTVSPropertyOp29
 70
     1
102
RTVSPropertyOp30
 70
     1
102
RTVSPropertyOp31
 70
     1
102
RTVSPropertyOp32
 70
     1
102
RTVSPropertyOp33
 70
     1
102
RTVSPropertyOp34
 70
     1
102
RTVSPropertyOp35
 70
     1
102
RTVSPropertyOp36
 70
     1
102
RTVSPropertyOp37
 70
     1
102
RTVSPropertyOp38
 70
     1
102
RTVSPropertyOp39
 70
     1
102
RTVSPropertyOp40
 70
     1
102
RTVSPropertyOp41
 70
     1
102
RTVSPropertyOp42
 70
     1
102
RTVSPropertyOp43
 70
     1
102
RTVSPropertyOp44
 70
     1
102
RTVSPropertyOp45
 70
     1
102
RTVSPropertyOp46
 70
     1
102
RTVSPropertyOp47
 70
     1
102
RTVSPropertyOp48
 70
     1
102
RTVSPropertyOp49
 70
     1
102
RTVSPropertyOp50
 70
     1
102
RTVSPropertyOp51
 70
     0
102
RTVSPropertyOp52
 70
     0
102
RTVSPropertyOp53
 70
     1
102
RTVSPropertyOp54
 70
     1
102
RTVSPropertyOp55
 70
     1
102
RTVSPropertyOp56
 70
     1
102
RTVSPropertyOp57
 70
     1
102
RTVSPropertyOp58
 70
     1
102
RTVSPropertyOp59
 70
     1
102
RTVSPropertyOp60
 70
     1
102
RTVSPropertyOp61
 70
     1
102
RTVSPropertyOp62
 70
     1
  0
XRECORD
  5
3FD
102
{ACAD_REACTORS
330
3FC
102
}
330
3FC
100
AcDbXrecord
280
     1
102
RTVSPost2010Prop28
280
     0
102
RTVSPost2010PropOp28
 70
     0
102
RTVSPost2010Prop29
280
     1
102
RTVSPost2010PropOp29
 70
     0
102
RTVSPost2010Prop30
280
     1
102
RTVSPost2010PropOp30
 70
     0
102
RTVSPost2010Prop31
280
     0
102
RTVSPost2010PropOp31
 70
     0
102
RTVSPost2010Prop32
280
     0
102
RTVSPost2010PropOp32
 70
     0
102
RTVSPost2010Prop33
280
     0
102
RTVSPost2010PropOp33
 70
     0
102
RTVSPost2010Prop34
280
     0
102
RTVSPost2010PropOp34
 70
     0
102
RTVSPost2010Prop35
280
     0
102
RTVSPost2010PropOp35
 70
     0
102
RTVSPost2010Prop36
280
     0
102
RTVSPost2010PropOp36
 70
     0
102
RTVSPost2010Prop37
 90
       50
102
RTVSPost2010PropOp37
 70
     0
102
RTVSPost2010Prop38
140
0.0
102
RTVSPost2010PropOp38
 70
     0
102
RTVSPost2010Prop39
140
1.0
102
RTVSPost2010PropOp39
 70
     0
102
RTVSPost2010Prop40
 90
        0
102
RTVSPost2010PropOp40
 70
     0
102
RTVSPost2010Prop41ColorIndex
 90
       18
102
RTVSPost2010Prop41ColorRGB
 90
        0
102
RTVSPost2010PropOp41
 70
     0
102
RTVSPost2010Prop42
 90
       50
102
RTVSPost2010PropOp42
 70
     0
102
RTVSPost2010Prop43
 90
        3
102
RTVSPost2010PropOp43
 70
     0
102
RTVSPost2010Prop44ColorIndex
 90
        5
102
RTVSPost2010Prop44ColorRGB
 90
      255
102
RTVSPost2010PropOp44
 70
     0
102
RTVSPost2010Prop45
280
     0
102
RTVSPost2010PropOp45
 70
     0
102
RTVSPost2010Prop46
 90
       50
102
RTVSPost2010PropOp46
 70
     0
102
RTVSPost2010Prop47
 90
       50
102
RTVSPost2010PropOp47
 70
     0
102
RTVSPost2010Prop48
 90
       50
102
RTVSPost2010PropOp48
 70
     0
102
RTVSPost2010Prop49
280
     0
102
RTVSPost2010PropOp49
 70
     0
102
RTVSPost2010Prop50
 90
       50
102
RTVSPost2010PropOp50
 70
     0
102
RTVSPost2010Prop51ColorIndex
 90
      256
102
RTVSPost2010Prop51ColorRGB
 90
-16777216
102
RTVSPost2010PropOp51
 70
     0
102
RTVSPost2010Prop52
140
1.0
102
RTVSPost2010PropOp52
 70
     0
102
RTVSPost2010Prop53
 90
        2
102
RTVSPost2010PropOp53
 70
     0
102
RTVSPost2010Prop54
  1
strokes_ogs.tif
102
RTVSPost2010PropOp54
 70
     0
102
RTVSPost2010Prop55
280
     0
102
RTVSPost2010PropOp55
 70
     0
102
RTVSPost2010Prop56
140
1.0
102
RTVSPost2010PropOp56
 70
     0
102
RTVSPost2010Prop57
140
1.0
102
RTVSPost2010PropOp57
 70
     0
102
RTVSPropertyOp0
 70
     0
102
RTVSPropertyOp1
 70
     0
102
RTVSPropertyOp2
 70
     0
102
RTVSPropertyOp3
 70
     0
102
RTVSPropertyOp4
 70
     0
102
RTVSPropertyOp5
 70
     0
102
RTVSPropertyOp6
 70
     0
102
RTVSPropertyOp7
 70
     0
102
RTVSPropertyOp8
 70
     0
102
RTVSPropertyOp9
 70
     0
102
RTVSPropertyOp10
 70
     0
102
RTVSPropertyOp11
 70
     0
102
RTVSPropertyOp12
 70
     0
102
RTVSPropertyOp13
 70
     0
102
RTVSPropertyOp14
 70
     2
102
RTVSPropertyOp15
 70
     0
102
RTVSPropertyOp16
 70
     0
102
RTVSPropertyOp17
 70
     0
102
RTVSPropertyOp18
 70
     0
102
RTVSPropertyOp19
 70
     0
102
RTVSPropertyOp20
 70
     0
102
RTVSPropertyOp21
 70
     0
102
RTVSPropertyOp22
 70
     0
102
RTVSPropertyOp23
 70
     0
102
RTVSPropertyOp24
 70
     0
102
RTVSPropertyOp25
 70
     0
102
RTVSPropertyOp26
 70
     0
102
RTVSPropertyOp27
 70
     0
102
RTVSPropertyOp28
 70
     0
102
RTVSPropertyOp29
 70
     0
102
RTVSPropertyOp30
 70
     0
102
RTVSPropertyOp31
 70
     0
102
RTVSPropertyOp32
 70
     0
102
RTVSPropertyOp33
 70
     0
102
RTVSPropertyOp34
 70
     0
102
RTVSPropertyOp35
 70
     0
102
RTVSPropertyOp36
 70
     0
102
RTVSPropertyOp37
 70
     0
102
RTVSPropertyOp38
 70
     0
102
RTVSPropertyOp39
 70
     0
102
RTVSPropertyOp40
 70
     0
102
RTVSPropertyOp41
 70
     0
102
RTVSPropertyOp42
 70
     0
102
RTVSPropertyOp43
 70
     0
102
RTVSPropertyOp44
 70
     0
102
RTVSPropertyOp45
 70
     0
102
RTVSPropertyOp46
 70
     0
102
RTVSPropertyOp47
 70
     0
102
RTVSPropertyOp48
 70
     0
102
RTVSPropertyOp49
 70
     0
102
RTVSPropertyOp50
 70
     0
102
RTVSPropertyOp51
 70
     0
102
RTVSPropertyOp52
 70
     0
102
RTVSPropertyOp53
 70
     0
102
RTVSPropertyOp54
 70
     0
102
RTVSPropertyOp55
 70
     0
102
RTVSPropertyOp56
 70
     0
102
RTVSPropertyOp57
 70
     0
102
RTVSPropertyOp58
 70
     1
102
RTVSPropertyOp59
 70
     1
102
RTVSPropertyOp60
 70
     1
102
RTVSPropertyOp61
 70
     1
102
RTVSPropertyOp62
 70
     1
  0
XRECORD
  5
3F5
102
{ACAD_REACTORS
330
3F4
102
}
330
3F4
100
AcDbXrecord
280
     1
102
RTVSPost2010Prop28
280
     0
102
RTVSPost2010PropOp28
 70
     1
102
RTVSPost2010Prop29
280
     1
102
RTVSPost2010PropOp29
 70
     1
102
RTVSPost2010Prop30
280
     1
102
RTVSPost2010PropOp30
 70
     1
102
RTVSPost2010Prop31
280
     0
102
RTVSPost2010PropOp31
 70
     1
102
RTVSPost2010Prop32
280
     0
102
RTVSPost2010PropOp32
 70
     1
102
RTVSPost2010Prop33
280
     0
102
RTVSPost2010PropOp33
 70
     1
102
RTVSPost2010Prop34
280
     0
102
RTVSPost2010PropOp34
 70
     1
102
RTVSPost2010Prop35
280
     0
102
RTVSPost2010PropOp35
 70
     1
102
RTVSPost2010Prop36
280
     0
102
RTVSPost2010PropOp36
 70
     1
102
RTVSPost2010Prop37
 90
       50
102
RTVSPost2010PropOp37
 70
     1
102
RTVSPost2010Prop38
140
0.0
102
RTVSPost2010PropOp38
 70
     1
102
RTVSPost2010Prop39
140
1.0
102
RTVSPost2010PropOp39
 70
     1
102
RTVSPost2010Prop40
 90
        0
102
RTVSPost2010PropOp40
 70
     1
102
RTVSPost2010Prop41ColorIndex
 90
       18
102
RTVSPost2010Prop41ColorRGB
 90
        0
102
RTVSPost2010PropOp41
 70
     1
102
RTVSPost2010Prop42
 90
       50
102
RTVSPost2010PropOp42
 70
     1
102
RTVSPost2010Prop43
 90
        3
102
RTVSPost2010PropOp43
 70
     1
102
RTVSPost2010Prop44ColorIndex
 90
        5
102
RTVSPost2010Prop44ColorRGB
 90
      255
102
RTVSPost2010PropOp44
 70
     1
102
RTVSPost2010Prop45
280
     0
102
RTVSPost2010PropOp45
 70
     1
102
RTVSPost2010Prop46
 90
       50
102
RTVSPost2010PropOp46
 70
     1
102
RTVSPost2010Prop47
 90
       50
102
RTVSPost2010PropOp47
 70
     1
102
RTVSPost2010Prop48
 90
       50
102
RTVSPost2010PropOp48
 70
     1
102
RTVSPost2010Prop49
280
     0
102
RTVSPost2010PropOp49
 70
     1
102
RTVSPost2010Prop50
 90
       50
102
RTVSPost2010PropOp50
 70
     1
102
RTVSPost2010Prop51ColorIndex
 90
      256
102
RTVSPost2010Prop51ColorRGB
 90
-16777216
102
RTVSPost2010PropOp51
 70
     0
102
RTVSPost2010Prop52
140
1.0
102
RTVSPost2010PropOp52
 70
     0
102
RTVSPost2010Prop53
 90
        2
102
RTVSPost2010PropOp53
 70
     1
102
RTVSPost2010Prop54
  1
strokes_ogs.tif
102
RTVSPost2010PropOp54
 70
     1
102
RTVSPost2010Prop55
280
     0
102
RTVSPost2010PropOp55
 70
     1
102
RTVSPost2010Prop56
140
1.0
102
RTVSPost2010PropOp56
 70
     1
102
RTVSPost2010Prop57
140
1.0
102
RTVSPost2010PropOp57
 70
     1
102
RTVSPropertyOp0
 70
     1
102
RTVSPropertyOp1
 70
     1
102
RTVSPropertyOp2
 70
     1
102
RTVSPropertyOp3
 70
     1
102
RTVSPropertyOp4
 70
     1
102
RTVSPropertyOp5
 70
     1
102
RTVSPropertyOp6
 70
     1
102
RTVSPropertyOp7
 70
     1
102
RTVSPropertyOp8
 70
     1
102
RTVSPropertyOp9
 70
     1
102
RTVSPropertyOp10
 70
     1
102
RTVSPropertyOp11
 70
     1
102
RTVSPropertyOp12
 70
     1
102
RTVSPropertyOp13
 70
     1
102
RTVSPropertyOp14
 70
     1
102
RTVSPropertyOp15
 70
     1
102
RTVSPropertyOp16
 70
     1
102
RTVSPropertyOp17
 70
     1
102
RTVSPropertyOp18
 70
     1
102
RTVSPropertyOp19
 70
     1
102
RTVSPropertyOp20
 70
     1
102
RTVSPropertyOp21
 70
     1
102
RTVSPropertyOp22
 70
     1
102
RTVSPropertyOp23
 70
     1
102
RTVSPropertyOp24
 70
     1
102
RTVSPropertyOp25
 70
     1
102
RTVSPropertyOp26
 70
     1
102
RTVSPropertyOp27
 70
     1
102
RTVSPropertyOp28
 70
     1
102
RTVSPropertyOp29
 70
     1
102
RTVSPropertyOp30
 70
     1
102
RTVSPropertyOp31
 70
     1
102
RTVSPropertyOp32
 70
     1
102
RTVSPropertyOp33
 70
     1
102
RTVSPropertyOp34
 70
     1
102
RTVSPropertyOp35
 70
     1
102
RTVSPropertyOp36
 70
     1
102
RTVSPropertyOp37
 70
     1
102
RTVSPropertyOp38
 70
     1
102
RTVSPropertyOp39
 70
     1
102
RTVSPropertyOp40
 70
     1
102
RTVSPropertyOp41
 70
     1
102
RTVSPropertyOp42
 70
     1
102
RTVSPropertyOp43
 70
     1
102
RTVSPropertyOp44
 70
     1
102
RTVSPropertyOp45
 70
     1
102
RTVSPropertyOp46
 70
     1
102
RTVSPropertyOp47
 70
     1
102
RTVSPropertyOp48
 70
     1
102
RTVSPropertyOp49
 70
     1
102
RTVSPropertyOp50
 70
     1
102
RTVSPropertyOp51
 70
     0
102
RTVSPropertyOp52
 70
     0
102
RTVSPropertyOp53
 70
     1
102
RTVSPropertyOp54
 70
     1
102
RTVSPropertyOp55
 70
     1
102
RTVSPropertyOp56
 70
     1
102
RTVSPropertyOp57
 70
     1
102
RTVSPropertyOp58
 70
     1
102
RTVSPropertyOp59
 70
     1
102
RTVSPropertyOp60
 70
     1
102
RTVSPropertyOp61
 70
     1
102
RTVSPropertyOp62
 70
     1
  0
XRECORD
  5
3D9
102
{ACAD_REACTORS
330
3D8
102
}
330
3D8
100
AcDbXrecord
280
     1
102
RTVSPost2010Prop28
280
     0
102
RTVSPost2010PropOp28
 70
     1
102
RTVSPost2010Prop29
280
     1
102
RTVSPost2010PropOp29
 70
     1
102
RTVSPost2010Prop30
280
     1
102
RTVSPost2010PropOp30
 70
     1
102
RTVSPost2010Prop31
280
     0
102
RTVSPost2010PropOp31
 70
     1
102
RTVSPost2010Prop32
280
     0
102
RTVSPost2010PropOp32
 70
     1
102
RTVSPost2010Prop33
280
     0
102
RTVSPost2010PropOp33
 70
     1
102
RTVSPost2010Prop34
280
     0
102
RTVSPost2010PropOp34
 70
     1
102
RTVSPost2010Prop35
280
     0
102
RTVSPost2010PropOp35
 70
     1
102
RTVSPost2010Prop36
280
     0
102
RTVSPost2010PropOp36
 70
     1
102
RTVSPost2010Prop37
 90
       50
102
RTVSPost2010PropOp37
 70
     1
102
RTVSPost2010Prop38
140
0.0
102
RTVSPost2010PropOp38
 70
     1
102
RTVSPost2010Prop39
140
1.0
102
RTVSPost2010PropOp39
 70
     1
102
RTVSPost2010Prop40
 90
        0
102
RTVSPost2010PropOp40
 70
     1
102
RTVSPost2010Prop41ColorIndex
 90
       18
102
RTVSPost2010Prop41ColorRGB
 90
        0
102
RTVSPost2010PropOp41
 70
     1
102
RTVSPost2010Prop42
 90
       50
102
RTVSPost2010PropOp42
 70
     1
102
RTVSPost2010Prop43
 90
        3
102
RTVSPost2010PropOp43
 70
     1
102
RTVSPost2010Prop44ColorIndex
 90
        5
102
RTVSPost2010Prop44ColorRGB
 90
      255
102
RTVSPost2010PropOp44
 70
     1
102
RTVSPost2010Prop45
280
     0
102
RTVSPost2010PropOp45
 70
     1
102
RTVSPost2010Prop46
 90
       50
102
RTVSPost2010PropOp46
 70
     1
102
RTVSPost2010Prop47
 90
       50
102
RTVSPost2010PropOp47
 70
     1
102
RTVSPost2010Prop48
 90
       50
102
RTVSPost2010PropOp48
 70
     1
102
RTVSPost2010Prop49
280
     0
102
RTVSPost2010PropOp49
 70
     1
102
RTVSPost2010Prop50
 90
       50
102
RTVSPost2010PropOp50
 70
     1
102
RTVSPost2010Prop51ColorIndex
 90
      256
102
RTVSPost2010Prop51ColorRGB
 90
-16777216
102
RTVSPost2010PropOp51
 70
     0
102
RTVSPost2010Prop52
140
1.0
102
RTVSPost2010PropOp52
 70
     0
102
RTVSPost2010Prop53
 90
        2
102
RTVSPost2010PropOp53
 70
     1
102
RTVSPost2010Prop54
  1
strokes_ogs.tif
102
RTVSPost2010PropOp54
 70
     1
102
RTVSPost2010Prop55
280
     0
102
RTVSPost2010PropOp55
 70
     1
102
RTVSPost2010Prop56
140
1.0
102
RTVSPost2010PropOp56
 70
     1
102
RTVSPost2010Prop57
140
1.0
102
RTVSPost2010PropOp57
 70
     1
102
RTVSPropertyOp0
 70
     1
102
RTVSPropertyOp1
 70
     1
102
RTVSPropertyOp2
 70
     1
102
RTVSPropertyOp3
 70
     1
102
RTVSPropertyOp4
 70
     1
102
RTVSPropertyOp5
 70
     1
102
RTVSPropertyOp6
 70
     1
102
RTVSPropertyOp7
 70
     1
102
RTVSPropertyOp8
 70
     1
102
RTVSPropertyOp9
 70
     1
102
RTVSPropertyOp10
 70
     1
102
RTVSPropertyOp11
 70
     1
102
RTVSPropertyOp12
 70
     1
102
RTVSPropertyOp13
 70
     1
102
RTVSPropertyOp14
 70
     1
102
RTVSPropertyOp15
 70
     1
102
RTVSPropertyOp16
 70
     1
102
RTVSPropertyOp17
 70
     1
102
RTVSPropertyOp18
 70
     1
102
RTVSPropertyOp19
 70
     1
102
RTVSPropertyOp20
 70
     1
102
RTVSPropertyOp21
 70
     1
102
RTVSPropertyOp22
 70
     1
102
RTVSPropertyOp23
 70
     1
102
RTVSPropertyOp24
 70
     1
102
RTVSPropertyOp25
 70
     1
102
RTVSPropertyOp26
 70
     1
102
RTVSPropertyOp27
 70
     1
102
RTVSPropertyOp28
 70
     1
102
RTVSPropertyOp29
 70
     1
102
RTVSPropertyOp30
 70
     1
102
RTVSPropertyOp31
 70
     1
102
RTVSPropertyOp32
 70
     1
102
RTVSPropertyOp33
 70
     1
102
RTVSPropertyOp34
 70
     1
102
RTVSPropertyOp35
 70
     1
102
RTVSPropertyOp36
 70
     1
102
RTVSPropertyOp37
 70
     1
102
RTVSPropertyOp38
 70
     1
102
RTVSPropertyOp39
 70
     1
102
RTVSPropertyOp40
 70
     1
102
RTVSPropertyOp41
 70
     1
102
RTVSPropertyOp42
 70
     1
102
RTVSPropertyOp43
 70
     1
102
RTVSPropertyOp44
 70
     1
102
RTVSPropertyOp45
 70
     1
102
RTVSPropertyOp46
 70
     1
102
RTVSPropertyOp47
 70
     1
102
RTVSPropertyOp48
 70
     1
102
RTVSPropertyOp49
 70
     1
102
RTVSPropertyOp50
 70
     1
102
RTVSPropertyOp51
 70
     0
102
RTVSPropertyOp52
 70
     0
102
RTVSPropertyOp53
 70
     1
102
RTVSPropertyOp54
 70
     1
102
RTVSPropertyOp55
 70
     1
102
RTVSPropertyOp56
 70
     1
102
RTVSPropertyOp57
 70
     1
102
RTVSPropertyOp58
 70
     1
102
RTVSPropertyOp59
 70
     1
102
RTVSPropertyOp60
 70
     1
102
RTVSPropertyOp61
 70
     1
102
RTVSPropertyOp62
 70
     1
  0
XRECORD
  5
3DB
102
{ACAD_REACTORS
330
3DA
102
}
330
3DA
100
AcDbXrecord
280
     1
102
RTVSPost2010Prop28
280
     0
102
RTVSPost2010PropOp28
 70
     1
102
RTVSPost2010Prop29
280
     1
102
RTVSPost2010PropOp29
 70
     1
102
RTVSPost2010Prop30
280
     1
102
RTVSPost2010PropOp30
 70
     1
102
RTVSPost2010Prop31
280
     0
102
RTVSPost2010PropOp31
 70
     1
102
RTVSPost2010Prop32
280
     0
102
RTVSPost2010PropOp32
 70
     1
102
RTVSPost2010Prop33
280
     0
102
RTVSPost2010PropOp33
 70
     1
102
RTVSPost2010Prop34
280
     0
102
RTVSPost2010PropOp34
 70
     1
102
RTVSPost2010Prop35
280
     0
102
RTVSPost2010PropOp35
 70
     1
102
RTVSPost2010Prop36
280
     0
102
RTVSPost2010PropOp36
 70
     1
102
RTVSPost2010Prop37
 90
       50
102
RTVSPost2010PropOp37
 70
     1
102
RTVSPost2010Prop38
140
0.0
102
RTVSPost2010PropOp38
 70
     1
102
RTVSPost2010Prop39
140
1.0
102
RTVSPost2010PropOp39
 70
     1
102
RTVSPost2010Prop40
 90
        0
102
RTVSPost2010PropOp40
 70
     1
102
RTVSPost2010Prop41ColorIndex
 90
       18
102
RTVSPost2010Prop41ColorRGB
 90
        0
102
RTVSPost2010PropOp41
 70
     1
102
RTVSPost2010Prop42
 90
       50
102
RTVSPost2010PropOp42
 70
     1
102
RTVSPost2010Prop43
 90
        3
102
RTVSPost2010PropOp43
 70
     1
102
RTVSPost2010Prop44ColorIndex
 90
        5
102
RTVSPost2010Prop44ColorRGB
 90
      255
102
RTVSPost2010PropOp44
 70
     1
102
RTVSPost2010Prop45
280
     0
102
RTVSPost2010PropOp45
 70
     1
102
RTVSPost2010Prop46
 90
       50
102
RTVSPost2010PropOp46
 70
     1
102
RTVSPost2010Prop47
 90
       50
102
RTVSPost2010PropOp47
 70
     1
102
RTVSPost2010Prop48
 90
       50
102
RTVSPost2010PropOp48
 70
     1
102
RTVSPost2010Prop49
280
     0
102
RTVSPost2010PropOp49
 70
     1
102
RTVSPost2010Prop50
 90
       50
102
RTVSPost2010PropOp50
 70
     1
102
RTVSPost2010Prop51ColorIndex
 90
      256
102
RTVSPost2010Prop51ColorRGB
 90
-16777216
102
RTVSPost2010PropOp51
 70
     0
102
RTVSPost2010Prop52
140
1.0
102
RTVSPost2010PropOp52
 70
     0
102
RTVSPost2010Prop53
 90
        2
102
RTVSPost2010PropOp53
 70
     1
102
RTVSPost2010Prop54
  1
strokes_ogs.tif
102
RTVSPost2010PropOp54
 70
     1
102
RTVSPost2010Prop55
280
     0
102
RTVSPost2010PropOp55
 70
     1
102
RTVSPost2010Prop56
140
1.0
102
RTVSPost2010PropOp56
 70
     1
102
RTVSPost2010Prop57
140
1.0
102
RTVSPost2010PropOp57
 70
     1
102
RTVSPropertyOp0
 70
     1
102
RTVSPropertyOp1
 70
     1
102
RTVSPropertyOp2
 70
     1
102
RTVSPropertyOp3
 70
     1
102
RTVSPropertyOp4
 70
     1
102
RTVSPropertyOp5
 70
     1
102
RTVSPropertyOp6
 70
     1
102
RTVSPropertyOp7
 70
     1
102
RTVSPropertyOp8
 70
     1
102
RTVSPropertyOp9
 70
     1
102
RTVSPropertyOp10
 70
     1
102
RTVSPropertyOp11
 70
     1
102
RTVSPropertyOp12
 70
     1
102
RTVSPropertyOp13
 70
     1
102
RTVSPropertyOp14
 70
     1
102
RTVSPropertyOp15
 70
     1
102
RTVSPropertyOp16
 70
     1
102
RTVSPropertyOp17
 70
     1
102
RTVSPropertyOp18
 70
     1
102
RTVSPropertyOp19
 70
     1
102
RTVSPropertyOp20
 70
     1
102
RTVSPropertyOp21
 70
     1
102
RTVSPropertyOp22
 70
     1
102
RTVSPropertyOp23
 70
     1
102
RTVSPropertyOp24
 70
     1
102
RTVSPropertyOp25
 70
     1
102
RTVSPropertyOp26
 70
     1
102
RTVSPropertyOp27
 70
     1
102
RTVSPropertyOp28
 70
     1
102
RTVSPropertyOp29
 70
     1
102
RTVSPropertyOp30
 70
     1
102
RTVSPropertyOp31
 70
     1
102
RTVSPropertyOp32
 70
     1
102
RTVSPropertyOp33
 70
     1
102
RTVSPropertyOp34
 70
     1
102
RTVSPropertyOp35
 70
     1
102
RTVSPropertyOp36
 70
     1
102
RTVSPropertyOp37
 70
     1
102
RTVSPropertyOp38
 70
     1
102
RTVSPropertyOp39
 70
     1
102
RTVSPropertyOp40
 70
     1
102
RTVSPropertyOp41
 70
     1
102
RTVSPropertyOp42
 70
     1
102
RTVSPropertyOp43
 70
     1
102
RTVSPropertyOp44
 70
     1
102
RTVSPropertyOp45
 70
     1
102
RTVSPropertyOp46
 70
     1
102
RTVSPropertyOp47
 70
     1
102
RTVSPropertyOp48
 70
     1
102
RTVSPropertyOp49
 70
     1
102
RTVSPropertyOp50
 70
     1
102
RTVSPropertyOp51
 70
     0
102
RTVSPropertyOp52
 70
     0
102
RTVSPropertyOp53
 70
     1
102
RTVSPropertyOp54
 70
     1
102
RTVSPropertyOp55
 70
     1
102
RTVSPropertyOp56
 70
     1
102
RTVSPropertyOp57
 70
     1
102
RTVSPropertyOp58
 70
     1
102
RTVSPropertyOp59
 70
     1
102
RTVSPropertyOp60
 70
     1
102
RTVSPropertyOp61
 70
     1
102
RTVSPropertyOp62
 70
     1
  0
XRECORD
  5
3DD
102
{ACAD_REACTORS
330
3DC
102
}
330
3DC
100
AcDbXrecord
280
     1
102
RTVSPost2010Prop28
280
     0
102
RTVSPost2010PropOp28
 70
     1
102
RTVSPost2010Prop29
280
     1
102
RTVSPost2010PropOp29
 70
     1
102
RTVSPost2010Prop30
280
     1
102
RTVSPost2010PropOp30
 70
     1
102
RTVSPost2010Prop31
280
     0
102
RTVSPost2010PropOp31
 70
     1
102
RTVSPost2010Prop32
280
     0
102
RTVSPost2010PropOp32
 70
     1
102
RTVSPost2010Prop33
280
     0
102
RTVSPost2010PropOp33
 70
     1
102
RTVSPost2010Prop34
280
     0
102
RTVSPost2010PropOp34
 70
     1
102
RTVSPost2010Prop35
280
     0
102
RTVSPost2010PropOp35
 70
     1
102
RTVSPost2010Prop36
280
     0
102
RTVSPost2010PropOp36
 70
     1
102
RTVSPost2010Prop37
 90
       50
102
RTVSPost2010PropOp37
 70
     1
102
RTVSPost2010Prop38
140
0.0
102
RTVSPost2010PropOp38
 70
     1
102
RTVSPost2010Prop39
140
1.0
102
RTVSPost2010PropOp39
 70
     1
102
RTVSPost2010Prop40
 90
        0
102
RTVSPost2010PropOp40
 70
     1
102
RTVSPost2010Prop41ColorIndex
 90
       18
102
RTVSPost2010Prop41ColorRGB
 90
        0
102
RTVSPost2010PropOp41
 70
     1
102
RTVSPost2010Prop42
 90
       50
102
RTVSPost2010PropOp42
 70
     1
102
RTVSPost2010Prop43
 90
        3
102
RTVSPost2010PropOp43
 70
     1
102
RTVSPost2010Prop44ColorIndex
 90
        5
102
RTVSPost2010Prop44ColorRGB
 90
      255
102
RTVSPost2010PropOp44
 70
     1
102
RTVSPost2010Prop45
280
     0
102
RTVSPost2010PropOp45
 70
     1
102
RTVSPost2010Prop46
 90
       50
102
RTVSPost2010PropOp46
 70
     1
102
RTVSPost2010Prop47
 90
       50
102
RTVSPost2010PropOp47
 70
     1
102
RTVSPost2010Prop48
 90
       50
102
RTVSPost2010PropOp48
 70
     1
102
RTVSPost2010Prop49
280
     0
102
RTVSPost2010PropOp49
 70
     1
102
RTVSPost2010Prop50
 90
       50
102
RTVSPost2010PropOp50
 70
     1
102
RTVSPost2010Prop51ColorIndex
 90
      256
102
RTVSPost2010Prop51ColorRGB
 90
-16777216
102
RTVSPost2010PropOp51
 70
     0
102
RTVSPost2010Prop52
140
1.0
102
RTVSPost2010PropOp52
 70
     0
102
RTVSPost2010Prop53
 90
        2
102
RTVSPost2010PropOp53
 70
     1
102
RTVSPost2010Prop54
  1
strokes_ogs.tif
102
RTVSPost2010PropOp54
 70
     1
102
RTVSPost2010Prop55
280
     0
102
RTVSPost2010PropOp55
 70
     1
102
RTVSPost2010Prop56
140
1.0
102
RTVSPost2010PropOp56
 70
     1
102
RTVSPost2010Prop57
140
1.0
102
RTVSPost2010PropOp57
 70
     1
102
RTVSPropertyOp0
 70
     1
102
RTVSPropertyOp1
 70
     1
102
RTVSPropertyOp2
 70
     1
102
RTVSPropertyOp3
 70
     1
102
RTVSPropertyOp4
 70
     1
102
RTVSPropertyOp5
 70
     1
102
RTVSPropertyOp6
 70
     1
102
RTVSPropertyOp7
 70
     1
102
RTVSPropertyOp8
 70
     1
102
RTVSPropertyOp9
 70
     1
102
RTVSPropertyOp10
 70
     1
102
RTVSPropertyOp11
 70
     1
102
RTVSPropertyOp12
 70
     1
102
RTVSPropertyOp13
 70
     1
102
RTVSPropertyOp14
 70
     1
102
RTVSPropertyOp15
 70
     1
102
RTVSPropertyOp16
 70
     1
102
RTVSPropertyOp17
 70
     1
102
RTVSPropertyOp18
 70
     1
102
RTVSPropertyOp19
 70
     1
102
RTVSPropertyOp20
 70
     1
102
RTVSPropertyOp21
 70
     1
102
RTVSPropertyOp22
 70
     1
102
RTVSPropertyOp23
 70
     1
102
RTVSPropertyOp24
 70
     1
102
RTVSPropertyOp25
 70
     1
102
RTVSPropertyOp26
 70
     1
102
RTVSPropertyOp27
 70
     1
102
RTVSPropertyOp28
 70
     1
102
RTVSPropertyOp29
 70
     1
102
RTVSPropertyOp30
 70
     1
102
RTVSPropertyOp31
 70
     1
102
RTVSPropertyOp32
 70
     1
102
RTVSPropertyOp33
 70
     1
102
RTVSPropertyOp34
 70
     1
102
RTVSPropertyOp35
 70
     1
102
RTVSPropertyOp36
 70
     1
102
RTVSPropertyOp37
 70
     1
102
RTVSPropertyOp38
 70
     1
102
RTVSPropertyOp39
 70
     1
102
RTVSPropertyOp40
 70
     1
102
RTVSPropertyOp41
 70
     1
102
RTVSPropertyOp42
 70
     1
102
RTVSPropertyOp43
 70
     1
102
RTVSPropertyOp44
 70
     1
102
RTVSPropertyOp45
 70
     1
102
RTVSPropertyOp46
 70
     1
102
RTVSPropertyOp47
 70
     1
102
RTVSPropertyOp48
 70
     1
102
RTVSPropertyOp49
 70
     1
102
RTVSPropertyOp50
 70
     1
102
RTVSPropertyOp51
 70
     0
102
RTVSPropertyOp52
 70
     0
102
RTVSPropertyOp53
 70
     1
102
RTVSPropertyOp54
 70
     1
102
RTVSPropertyOp55
 70
     1
102
RTVSPropertyOp56
 70
     1
102
RTVSPropertyOp57
 70
     1
102
RTVSPropertyOp58
 70
     1
102
RTVSPropertyOp59
 70
     1
102
RTVSPropertyOp60
 70
     1
102
RTVSPropertyOp61
 70
     1
102
RTVSPropertyOp62
 70
     1
  0
XRECORD
  5
3DF
102
{ACAD_REACTORS
330
3DE
102
}
330
3DE
100
AcDbXrecord
280
     1
102
RTVSPost2010Prop28
280
     0
102
RTVSPost2010PropOp28
 70
     1
102
RTVSPost2010Prop29
280
     1
102
RTVSPost2010PropOp29
 70
     1
102
RTVSPost2010Prop30
280
     1
102
RTVSPost2010PropOp30
 70
     1
102
RTVSPost2010Prop31
280
     0
102
RTVSPost2010PropOp31
 70
     1
102
RTVSPost2010Prop32
280
     0
102
RTVSPost2010PropOp32
 70
     1
102
RTVSPost2010Prop33
280
     0
102
RTVSPost2010PropOp33
 70
     1
102
RTVSPost2010Prop34
280
     0
102
RTVSPost2010PropOp34
 70
     1
102
RTVSPost2010Prop35
280
     0
102
RTVSPost2010PropOp35
 70
     1
102
RTVSPost2010Prop36
280
     0
102
RTVSPost2010PropOp36
 70
     1
102
RTVSPost2010Prop37
 90
       50
102
RTVSPost2010PropOp37
 70
     1
102
RTVSPost2010Prop38
140
0.0
102
RTVSPost2010PropOp38
 70
     1
102
RTVSPost2010Prop39
140
1.0
102
RTVSPost2010PropOp39
 70
     1
102
RTVSPost2010Prop40
 90
        0
102
RTVSPost2010PropOp40
 70
     1
102
RTVSPost2010Prop41ColorIndex
 90
       18
102
RTVSPost2010Prop41ColorRGB
 90
        0
102
RTVSPost2010PropOp41
 70
     1
102
RTVSPost2010Prop42
 90
       50
102
RTVSPost2010PropOp42
 70
     1
102
RTVSPost2010Prop43
 90
        3
102
RTVSPost2010PropOp43
 70
     1
102
RTVSPost2010Prop44ColorIndex
 90
        5
102
RTVSPost2010Prop44ColorRGB
 90
      255
102
RTVSPost2010PropOp44
 70
     1
102
RTVSPost2010Prop45
280
     0
102
RTVSPost2010PropOp45
 70
     1
102
RTVSPost2010Prop46
 90
       50
102
RTVSPost2010PropOp46
 70
     1
102
RTVSPost2010Prop47
 90
       50
102
RTVSPost2010PropOp47
 70
     1
102
RTVSPost2010Prop48
 90
       50
102
RTVSPost2010PropOp48
 70
     1
102
RTVSPost2010Prop49
280
     0
102
RTVSPost2010PropOp49
 70
     1
102
RTVSPost2010Prop50
 90
       50
102
RTVSPost2010PropOp50
 70
     1
102
RTVSPost2010Prop51ColorIndex
 90
      256
102
RTVSPost2010Prop51ColorRGB
 90
-16777216
102
RTVSPost2010PropOp51
 70
     0
102
RTVSPost2010Prop52
140
1.0
102
RTVSPost2010PropOp52
 70
     0
102
RTVSPost2010Prop53
 90
        2
102
RTVSPost2010PropOp53
 70
     1
102
RTVSPost2010Prop54
  1
strokes_ogs.tif
102
RTVSPost2010PropOp54
 70
     1
102
RTVSPost2010Prop55
280
     0
102
RTVSPost2010PropOp55
 70
     1
102
RTVSPost2010Prop56
140
1.0
102
RTVSPost2010PropOp56
 70
     1
102
RTVSPost2010Prop57
140
1.0
102
RTVSPost2010PropOp57
 70
     1
102
RTVSPropertyOp0
 70
     1
102
RTVSPropertyOp1
 70
     1
102
RTVSPropertyOp2
 70
     1
102
RTVSPropertyOp3
 70
     1
102
RTVSPropertyOp4
 70
     1
102
RTVSPropertyOp5
 70
     1
102
RTVSPropertyOp6
 70
     1
102
RTVSPropertyOp7
 70
     1
102
RTVSPropertyOp8
 70
     1
102
RTVSPropertyOp9
 70
     1
102
RTVSPropertyOp10
 70
     1
102
RTVSPropertyOp11
 70
     1
102
RTVSPropertyOp12
 70
     1
102
RTVSPropertyOp13
 70
     1
102
RTVSPropertyOp14
 70
     1
102
RTVSPropertyOp15
 70
     1
102
RTVSPropertyOp16
 70
     1
102
RTVSPropertyOp17
 70
     1
102
RTVSPropertyOp18
 70
     1
102
RTVSPropertyOp19
 70
     1
102
RTVSPropertyOp20
 70
     1
102
RTVSPropertyOp21
 70
     1
102
RTVSPropertyOp22
 70
     1
102
RTVSPropertyOp23
 70
     1
102
RTVSPropertyOp24
 70
     1
102
RTVSPropertyOp25
 70
     1
102
RTVSPropertyOp26
 70
     1
102
RTVSPropertyOp27
 70
     1
102
RTVSPropertyOp28
 70
     1
102
RTVSPropertyOp29
 70
     1
102
RTVSPropertyOp30
 70
     1
102
RTVSPropertyOp31
 70
     1
102
RTVSPropertyOp32
 70
     1
102
RTVSPropertyOp33
 70
     1
102
RTVSPropertyOp34
 70
     1
102
RTVSPropertyOp35
 70
     1
102
RTVSPropertyOp36
 70
     1
102
RTVSPropertyOp37
 70
     1
102
RTVSPropertyOp38
 70
     1
102
RTVSPropertyOp39
 70
     1
102
RTVSPropertyOp40
 70
     1
102
RTVSPropertyOp41
 70
     1
102
RTVSPropertyOp42
 70
     1
102
RTVSPropertyOp43
 70
     1
102
RTVSPropertyOp44
 70
     1
102
RTVSPropertyOp45
 70
     1
102
RTVSPropertyOp46
 70
     1
102
RTVSPropertyOp47
 70
     1
102
RTVSPropertyOp48
 70
     1
102
RTVSPropertyOp49
 70
     1
102
RTVSPropertyOp50
 70
     1
102
RTVSPropertyOp51
 70
     0
102
RTVSPropertyOp52
 70
     0
102
RTVSPropertyOp53
 70
     1
102
RTVSPropertyOp54
 70
     1
102
RTVSPropertyOp55
 70
     1
102
RTVSPropertyOp56
 70
     1
102
RTVSPropertyOp57
 70
     1
102
RTVSPropertyOp58
 70
     1
102
RTVSPropertyOp59
 70
     1
102
RTVSPropertyOp60
 70
     1
102
RTVSPropertyOp61
 70
     1
102
RTVSPropertyOp62
 70
     1
  0
XRECORD
  5
3E5
102
{ACAD_REACTORS
330
3E4
102
}
330
3E4
100
AcDbXrecord
280
     1
102
RTVSPost2010Prop28
280
     0
102
RTVSPost2010PropOp28
 70
     1
102
RTVSPost2010Prop29
280
     1
102
RTVSPost2010PropOp29
 70
     1
102
RTVSPost2010Prop30
280
     1
102
RTVSPost2010PropOp30
 70
     1
102
RTVSPost2010Prop31
280
     0
102
RTVSPost2010PropOp31
 70
     1
102
RTVSPost2010Prop32
280
     0
102
RTVSPost2010PropOp32
 70
     1
102
RTVSPost2010Prop33
280
     0
102
RTVSPost2010PropOp33
 70
     1
102
RTVSPost2010Prop34
280
     0
102
RTVSPost2010PropOp34
 70
     1
102
RTVSPost2010Prop35
280
     0
102
RTVSPost2010PropOp35
 70
     1
102
RTVSPost2010Prop36
280
     0
102
RTVSPost2010PropOp36
 70
     1
102
RTVSPost2010Prop37
 90
       50
102
RTVSPost2010PropOp37
 70
     1
102
RTVSPost2010Prop38
140
0.0
102
RTVSPost2010PropOp38
 70
     1
102
RTVSPost2010Prop39
140
1.0
102
RTVSPost2010PropOp39
 70
     1
102
RTVSPost2010Prop40
 90
        0
102
RTVSPost2010PropOp40
 70
     1
102
RTVSPost2010Prop41ColorIndex
 90
       18
102
RTVSPost2010Prop41ColorRGB
 90
        0
102
RTVSPost2010PropOp41
 70
     1
102
RTVSPost2010Prop42
 90
       50
102
RTVSPost2010PropOp42
 70
     1
102
RTVSPost2010Prop43
 90
        3
102
RTVSPost2010PropOp43
 70
     1
102
RTVSPost2010Prop44ColorIndex
 90
        5
102
RTVSPost2010Prop44ColorRGB
 90
      255
102
RTVSPost2010PropOp44
 70
     1
102
RTVSPost2010Prop45
280
     0
102
RTVSPost2010PropOp45
 70
     1
102
RTVSPost2010Prop46
 90
       50
102
RTVSPost2010PropOp46
 70
     1
102
RTVSPost2010Prop47
 90
       50
102
RTVSPost2010PropOp47
 70
     1
102
RTVSPost2010Prop48
 90
       50
102
RTVSPost2010PropOp48
 70
     1
102
RTVSPost2010Prop49
280
     0
102
RTVSPost2010PropOp49
 70
     1
102
RTVSPost2010Prop50
 90
       50
102
RTVSPost2010PropOp50
 70
     1
102
RTVSPost2010Prop51ColorIndex
 90
      256
102
RTVSPost2010Prop51ColorRGB
 90
-16777216
102
RTVSPost2010PropOp51
 70
     0
102
RTVSPost2010Prop52
140
1.0
102
RTVSPost2010PropOp52
 70
     0
102
RTVSPost2010Prop53
 90
        2
102
RTVSPost2010PropOp53
 70
     1
102
RTVSPost2010Prop54
  1
strokes_ogs.tif
102
RTVSPost2010PropOp54
 70
     1
102
RTVSPost2010Prop55
280
     0
102
RTVSPost2010PropOp55
 70
     1
102
RTVSPost2010Prop56
140
1.0
102
RTVSPost2010PropOp56
 70
     1
102
RTVSPost2010Prop57
140
1.0
102
RTVSPost2010PropOp57
 70
     1
102
RTVSPropertyOp0
 70
     1
102
RTVSPropertyOp1
 70
     1
102
RTVSPropertyOp2
 70
     1
102
RTVSPropertyOp3
 70
     1
102
RTVSPropertyOp4
 70
     1
102
RTVSPropertyOp5
 70
     1
102
RTVSPropertyOp6
 70
     1
102
RTVSPropertyOp7
 70
     1
102
RTVSPropertyOp8
 70
     1
102
RTVSPropertyOp9
 70
     1
102
RTVSPropertyOp10
 70
     1
102
RTVSPropertyOp11
 70
     1
102
RTVSPropertyOp12
 70
     1
102
RTVSPropertyOp13
 70
     1
102
RTVSPropertyOp14
 70
     1
102
RTVSPropertyOp15
 70
     1
102
RTVSPropertyOp16
 70
     1
102
RTVSPropertyOp17
 70
     1
102
RTVSPropertyOp18
 70
     1
102
RTVSPropertyOp19
 70
     1
102
RTVSPropertyOp20
 70
     1
102
RTVSPropertyOp21
 70
     1
102
RTVSPropertyOp22
 70
     1
102
RTVSPropertyOp23
 70
     1
102
RTVSPropertyOp24
 70
     1
102
RTVSPropertyOp25
 70
     1
102
RTVSPropertyOp26
 70
     1
102
RTVSPropertyOp27
 70
     1
102
RTVSPropertyOp28
 70
     1
102
RTVSPropertyOp29
 70
     1
102
RTVSPropertyOp30
 70
     1
102
RTVSPropertyOp31
 70
     1
102
RTVSPropertyOp32
 70
     1
102
RTVSPropertyOp33
 70
     1
102
RTVSPropertyOp34
 70
     1
102
RTVSPropertyOp35
 70
     1
102
RTVSPropertyOp36
 70
     1
102
RTVSPropertyOp37
 70
     1
102
RTVSPropertyOp38
 70
     1
102
RTVSPropertyOp39
 70
     1
102
RTVSPropertyOp40
 70
     1
102
RTVSPropertyOp41
 70
     1
102
RTVSPropertyOp42
 70
     1
102
RTVSPropertyOp43
 70
     1
102
RTVSPropertyOp44
 70
     1
102
RTVSPropertyOp45
 70
     1
102
RTVSPropertyOp46
 70
     1
102
RTVSPropertyOp47
 70
     1
102
RTVSPropertyOp48
 70
     1
102
RTVSPropertyOp49
 70
     1
102
RTVSPropertyOp50
 70
     1
102
RTVSPropertyOp51
 70
     0
102
RTVSPropertyOp52
 70
     0
102
RTVSPropertyOp53
 70
     1
102
RTVSPropertyOp54
 70
     1
102
RTVSPropertyOp55
 70
     1
102
RTVSPropertyOp56
 70
     1
102
RTVSPropertyOp57
 70
     1
102
RTVSPropertyOp58
 70
     1
102
RTVSPropertyOp59
 70
     1
102
RTVSPropertyOp60
 70
     1
102
RTVSPropertyOp61
 70
     1
102
RTVSPropertyOp62
 70
     1
  0
XRECORD
  5
3F9
102
{ACAD_REACTORS
330
3F8
102
}
330
3F8
100
AcDbXrecord
280
     1
102
RTVSPost2010Prop28
280
     0
102
RTVSPost2010PropOp28
 70
     0
102
RTVSPost2010Prop29
280
     1
102
RTVSPost2010PropOp29
 70
     0
102
RTVSPost2010Prop30
280
     1
102
RTVSPost2010PropOp30
 70
     0
102
RTVSPost2010Prop31
280
     0
102
RTVSPost2010PropOp31
 70
     0
102
RTVSPost2010Prop32
280
     0
102
RTVSPost2010PropOp32
 70
     0
102
RTVSPost2010Prop33
280
     0
102
RTVSPost2010PropOp33
 70
     0
102
RTVSPost2010Prop34
280
     0
102
RTVSPost2010PropOp34
 70
     0
102
RTVSPost2010Prop35
280
     0
102
RTVSPost2010PropOp35
 70
     0
102
RTVSPost2010Prop36
280
     0
102
RTVSPost2010PropOp36
 70
     0
102
RTVSPost2010Prop37
 90
       50
102
RTVSPost2010PropOp37
 70
     0
102
RTVSPost2010Prop38
140
0.0
102
RTVSPost2010PropOp38
 70
     0
102
RTVSPost2010Prop39
140
1.0
102
RTVSPost2010PropOp39
 70
     0
102
RTVSPost2010Prop40
 90
        0
102
RTVSPost2010PropOp40
 70
     0
102
RTVSPost2010Prop41ColorIndex
 90
       18
102
RTVSPost2010Prop41ColorRGB
 90
        0
102
RTVSPost2010PropOp41
 70
     0
102
RTVSPost2010Prop42
 90
       50
102
RTVSPost2010PropOp42
 70
     0
102
RTVSPost2010Prop43
 90
        3
102
RTVSPost2010PropOp43
 70
     0
102
RTVSPost2010Prop44ColorIndex
 90
        5
102
RTVSPost2010Prop44ColorRGB
 90
      255
102
RTVSPost2010PropOp44
 70
     0
102
RTVSPost2010Prop45
280
     0
102
RTVSPost2010PropOp45
 70
     0
102
RTVSPost2010Prop46
 90
       50
102
RTVSPost2010PropOp46
 70
     0
102
RTVSPost2010Prop47
 90
       50
102
RTVSPost2010PropOp47
 70
     0
102
RTVSPost2010Prop48
 90
       50
102
RTVSPost2010PropOp48
 70
     0
102
RTVSPost2010Prop49
280
     0
102
RTVSPost2010PropOp49
 70
     0
102
RTVSPost2010Prop50
 90
       50
102
RTVSPost2010PropOp50
 70
     0
102
RTVSPost2010Prop51ColorIndex
 90
      256
102
RTVSPost2010Prop51ColorRGB
 90
-16777216
102
RTVSPost2010PropOp51
 70
     0
102
RTVSPost2010Prop52
140
1.0
102
RTVSPost2010PropOp52
 70
     0
102
RTVSPost2010Prop53
 90
        2
102
RTVSPost2010PropOp53
 70
     0
102
RTVSPost2010Prop54
  1
strokes_ogs.tif
102
RTVSPost2010PropOp54
 70
     0
102
RTVSPost2010Prop55
280
     0
102
RTVSPost2010PropOp55
 70
     0
102
RTVSPost2010Prop56
140
1.0
102
RTVSPost2010PropOp56
 70
     0
102
RTVSPost2010Prop57
140
1.0
102
RTVSPost2010PropOp57
 70
     0
102
RTVSPropertyOp0
 70
     0
102
RTVSPropertyOp1
 70
     0
102
RTVSPropertyOp2
 70
     0
102
RTVSPropertyOp3
 70
     0
102
RTVSPropertyOp4
 70
     0
102
RTVSPropertyOp5
 70
     0
102
RTVSPropertyOp6
 70
     0
102
RTVSPropertyOp7
 70
     0
102
RTVSPropertyOp8
 70
     0
102
RTVSPropertyOp9
 70
     0
102
RTVSPropertyOp10
 70
     0
102
RTVSPropertyOp11
 70
     0
102
RTVSPropertyOp12
 70
     0
102
RTVSPropertyOp13
 70
     0
102
RTVSPropertyOp14
 70
     2
102
RTVSPropertyOp15
 70
     0
102
RTVSPropertyOp16
 70
     0
102
RTVSPropertyOp17
 70
     0
102
RTVSPropertyOp18
 70
     0
102
RTVSPropertyOp19
 70
     0
102
RTVSPropertyOp20
 70
     0
102
RTVSPropertyOp21
 70
     0
102
RTVSPropertyOp22
 70
     0
102
RTVSPropertyOp23
 70
     0
102
RTVSPropertyOp24
 70
     0
102
RTVSPropertyOp25
 70
     0
102
RTVSPropertyOp26
 70
     0
102
RTVSPropertyOp27
 70
     0
102
RTVSPropertyOp28
 70
     0
102
RTVSPropertyOp29
 70
     0
102
RTVSPropertyOp30
 70
     0
102
RTVSPropertyOp31
 70
     0
102
RTVSPropertyOp32
 70
     0
102
RTVSPropertyOp33
 70
     0
102
RTVSPropertyOp34
 70
     0
102
RTVSPropertyOp35
 70
     0
102
RTVSPropertyOp36
 70
     0
102
RTVSPropertyOp37
 70
     0
102
RTVSPropertyOp38
 70
     0
102
RTVSPropertyOp39
 70
     0
102
RTVSPropertyOp40
 70
     0
102
RTVSPropertyOp41
 70
     0
102
RTVSPropertyOp42
 70
     0
102
RTVSPropertyOp43
 70
     0
102
RTVSPropertyOp44
 70
     0
102
RTVSPropertyOp45
 70
     0
102
RTVSPropertyOp46
 70
     0
102
RTVSPropertyOp47
 70
     0
102
RTVSPropertyOp48
 70
     0
102
RTVSPropertyOp49
 70
     0
102
RTVSPropertyOp50
 70
     0
102
RTVSPropertyOp51
 70
     0
102
RTVSPropertyOp52
 70
     0
102
RTVSPropertyOp53
 70
     0
102
RTVSPropertyOp54
 70
     0
102
RTVSPropertyOp55
 70
     0
102
RTVSPropertyOp56
 70
     0
102
RTVSPropertyOp57
 70
     0
102
RTVSPropertyOp58
 70
     1
102
RTVSPropertyOp59
 70
     1
102
RTVSPropertyOp60
 70
     1
102
RTVSPropertyOp61
 70
     1
102
RTVSPropertyOp62
 70
     1
  0
XRECORD
  5
3F3
102
{ACAD_REACTORS
330
3F2
102
}
330
3F2
100
AcDbXrecord
280
     1
102
RTVSPost2010Prop28
280
     0
102
RTVSPost2010PropOp28
 70
     1
102
RTVSPost2010Prop29
280
     1
102
RTVSPost2010PropOp29
 70
     1
102
RTVSPost2010Prop30
280
     1
102
RTVSPost2010PropOp30
 70
     1
102
RTVSPost2010Prop31
280
     0
102
RTVSPost2010PropOp31
 70
     1
102
RTVSPost2010Prop32
280
     0
102
RTVSPost2010PropOp32
 70
     1
102
RTVSPost2010Prop33
280
     0
102
RTVSPost2010PropOp33
 70
     1
102
RTVSPost2010Prop34
280
     0
102
RTVSPost2010PropOp34
 70
     1
102
RTVSPost2010Prop35
280
     0
102
RTVSPost2010PropOp35
 70
     1
102
RTVSPost2010Prop36
280
     0
102
RTVSPost2010PropOp36
 70
     1
102
RTVSPost2010Prop37
 90
       50
102
RTVSPost2010PropOp37
 70
     1
102
RTVSPost2010Prop38
140
0.0
102
RTVSPost2010PropOp38
 70
     1
102
RTVSPost2010Prop39
140
1.0
102
RTVSPost2010PropOp39
 70
     1
102
RTVSPost2010Prop40
 90
        0
102
RTVSPost2010PropOp40
 70
     1
102
RTVSPost2010Prop41ColorIndex
 90
       18
102
RTVSPost2010Prop41ColorRGB
 90
        0
102
RTVSPost2010PropOp41
 70
     1
102
RTVSPost2010Prop42
 90
       50
102
RTVSPost2010PropOp42
 70
     1
102
RTVSPost2010Prop43
 90
        3
102
RTVSPost2010PropOp43
 70
     1
102
RTVSPost2010Prop44ColorIndex
 90
        5
102
RTVSPost2010Prop44ColorRGB
 90
      255
102
RTVSPost2010PropOp44
 70
     1
102
RTVSPost2010Prop45
280
     0
102
RTVSPost2010PropOp45
 70
     1
102
RTVSPost2010Prop46
 90
       50
102
RTVSPost2010PropOp46
 70
     1
102
RTVSPost2010Prop47
 90
       50
102
RTVSPost2010PropOp47
 70
     1
102
RTVSPost2010Prop48
 90
       50
102
RTVSPost2010PropOp48
 70
     1
102
RTVSPost2010Prop49
280
     0
102
RTVSPost2010PropOp49
 70
     1
102
RTVSPost2010Prop50
 90
       50
102
RTVSPost2010PropOp50
 70
     1
102
RTVSPost2010Prop51ColorIndex
 90
      256
102
RTVSPost2010Prop51ColorRGB
 90
-16777216
102
RTVSPost2010PropOp51
 70
     0
102
RTVSPost2010Prop52
140
1.0
102
RTVSPost2010PropOp52
 70
     0
102
RTVSPost2010Prop53
 90
        2
102
RTVSPost2010PropOp53
 70
     1
102
RTVSPost2010Prop54
  1
strokes_ogs.tif
102
RTVSPost2010PropOp54
 70
     1
102
RTVSPost2010Prop55
280
     0
102
RTVSPost2010PropOp55
 70
     1
102
RTVSPost2010Prop56
140
1.0
102
RTVSPost2010PropOp56
 70
     1
102
RTVSPost2010Prop57
140
1.0
102
RTVSPost2010PropOp57
 70
     1
102
RTVSPropertyOp0
 70
     1
102
RTVSPropertyOp1
 70
     1
102
RTVSPropertyOp2
 70
     1
102
RTVSPropertyOp3
 70
     1
102
RTVSPropertyOp4
 70
     1
102
RTVSPropertyOp5
 70
     1
102
RTVSPropertyOp6
 70
     1
102
RTVSPropertyOp7
 70
     1
102
RTVSPropertyOp8
 70
     1
102
RTVSPropertyOp9
 70
     1
102
RTVSPropertyOp10
 70
     1
102
RTVSPropertyOp11
 70
     1
102
RTVSPropertyOp12
 70
     1
102
RTVSPropertyOp13
 70
     1
102
RTVSPropertyOp14
 70
     1
102
RTVSPropertyOp15
 70
     1
102
RTVSPropertyOp16
 70
     1
102
RTVSPropertyOp17
 70
     1
102
RTVSPropertyOp18
 70
     1
102
RTVSPropertyOp19
 70
     1
102
RTVSPropertyOp20
 70
     1
102
RTVSPropertyOp21
 70
     1
102
RTVSPropertyOp22
 70
     1
102
RTVSPropertyOp23
 70
     1
102
RTVSPropertyOp24
 70
     1
102
RTVSPropertyOp25
 70
     1
102
RTVSPropertyOp26
 70
     1
102
RTVSPropertyOp27
 70
     1
102
RTVSPropertyOp28
 70
     1
102
RTVSPropertyOp29
 70
     1
102
RTVSPropertyOp30
 70
     1
102
RTVSPropertyOp31
 70
     1
102
RTVSPropertyOp32
 70
     1
102
RTVSPropertyOp33
 70
     1
102
RTVSPropertyOp34
 70
     1
102
RTVSPropertyOp35
 70
     1
102
RTVSPropertyOp36
 70
     1
102
RTVSPropertyOp37
 70
     1
102
RTVSPropertyOp38
 70
     1
102
RTVSPropertyOp39
 70
     1
102
RTVSPropertyOp40
 70
     1
102
RTVSPropertyOp41
 70
     1
102
RTVSPropertyOp42
 70
     1
102
RTVSPropertyOp43
 70
     1
102
RTVSPropertyOp44
 70
     1
102
RTVSPropertyOp45
 70
     1
102
RTVSPropertyOp46
 70
     1
102
RTVSPropertyOp47
 70
     1
102
RTVSPropertyOp48
 70
     1
102
RTVSPropertyOp49
 70
     1
102
RTVSPropertyOp50
 70
     1
102
RTVSPropertyOp51
 70
     0
102
RTVSPropertyOp52
 70
     0
102
RTVSPropertyOp53
 70
     1
102
RTVSPropertyOp54
 70
     1
102
RTVSPropertyOp55
 70
     1
102
RTVSPropertyOp56
 70
     1
102
RTVSPropertyOp57
 70
     1
102
RTVSPropertyOp58
 70
     1
102
RTVSPropertyOp59
 70
     1
102
RTVSPropertyOp60
 70
     1
102
RTVSPropertyOp61
 70
     1
102
RTVSPropertyOp62
 70
     1
  0
XRECORD
  5
3FB
102
{ACAD_REACTORS
330
3FA
102
}
330
3FA
100
AcDbXrecord
280
     1
102
RTVSPost2010Prop28
280
     0
102
RTVSPost2010PropOp28
 70
     0
102
RTVSPost2010Prop29
280
     1
102
RTVSPost2010PropOp29
 70
     0
102
RTVSPost2010Prop30
280
     1
102
RTVSPost2010PropOp30
 70
     0
102
RTVSPost2010Prop31
280
     0
102
RTVSPost2010PropOp31
 70
     0
102
RTVSPost2010Prop32
280
     0
102
RTVSPost2010PropOp32
 70
     0
102
RTVSPost2010Prop33
280
     0
102
RTVSPost2010PropOp33
 70
     0
102
RTVSPost2010Prop34
280
     0
102
RTVSPost2010PropOp34
 70
     0
102
RTVSPost2010Prop35
280
     0
102
RTVSPost2010PropOp35
 70
     0
102
RTVSPost2010Prop36
280
     0
102
RTVSPost2010PropOp36
 70
     0
102
RTVSPost2010Prop37
 90
       50
102
RTVSPost2010PropOp37
 70
     0
102
RTVSPost2010Prop38
140
0.0
102
RTVSPost2010PropOp38
 70
     0
102
RTVSPost2010Prop39
140
1.0
102
RTVSPost2010PropOp39
 70
     0
102
RTVSPost2010Prop40
 90
        0
102
RTVSPost2010PropOp40
 70
     0
102
RTVSPost2010Prop41ColorIndex
 90
       18
102
RTVSPost2010Prop41ColorRGB
 90
        0
102
RTVSPost2010PropOp41
 70
     0
102
RTVSPost2010Prop42
 90
       50
102
RTVSPost2010PropOp42
 70
     0
102
RTVSPost2010Prop43
 90
        3
102
RTVSPost2010PropOp43
 70
     0
102
RTVSPost2010Prop44ColorIndex
 90
        5
102
RTVSPost2010Prop44ColorRGB
 90
      255
102
RTVSPost2010PropOp44
 70
     0
102
RTVSPost2010Prop45
280
     0
102
RTVSPost2010PropOp45
 70
     0
102
RTVSPost2010Prop46
 90
       50
102
RTVSPost2010PropOp46
 70
     0
102
RTVSPost2010Prop47
 90
       50
102
RTVSPost2010PropOp47
 70
     0
102
RTVSPost2010Prop48
 90
       50
102
RTVSPost2010PropOp48
 70
     0
102
RTVSPost2010Prop49
280
     0
102
RTVSPost2010PropOp49
 70
     0
102
RTVSPost2010Prop50
 90
       50
102
RTVSPost2010PropOp50
 70
     0
102
RTVSPost2010Prop51ColorIndex
 90
      256
102
RTVSPost2010Prop51ColorRGB
 90
-16777216
102
RTVSPost2010PropOp51
 70
     0
102
RTVSPost2010Prop52
140
1.0
102
RTVSPost2010PropOp52
 70
     0
102
RTVSPost2010Prop53
 90
        2
102
RTVSPost2010PropOp53
 70
     0
102
RTVSPost2010Prop54
  1
strokes_ogs.tif
102
RTVSPost2010PropOp54
 70
     0
102
RTVSPost2010Prop55
280
     0
102
RTVSPost2010PropOp55
 70
     0
102
RTVSPost2010Prop56
140
1.0
102
RTVSPost2010PropOp56
 70
     0
102
RTVSPost2010Prop57
140
1.0
102
RTVSPost2010PropOp57
 70
     0
102
RTVSPropertyOp0
 70
     0
102
RTVSPropertyOp1
 70
     0
102
RTVSPropertyOp2
 70
     0
102
RTVSPropertyOp3
 70
     0
102
RTVSPropertyOp4
 70
     0
102
RTVSPropertyOp5
 70
     0
102
RTVSPropertyOp6
 70
     0
102
RTVSPropertyOp7
 70
     0
102
RTVSPropertyOp8
 70
     0
102
RTVSPropertyOp9
 70
     0
102
RTVSPropertyOp10
 70
     0
102
RTVSPropertyOp11
 70
     0
102
RTVSPropertyOp12
 70
     0
102
RTVSPropertyOp13
 70
     0
102
RTVSPropertyOp14
 70
     2
102
RTVSPropertyOp15
 70
     0
102
RTVSPropertyOp16
 70
     0
102
RTVSPropertyOp17
 70
     0
102
RTVSPropertyOp18
 70
     0
102
RTVSPropertyOp19
 70
     0
102
RTVSPropertyOp20
 70
     0
102
RTVSPropertyOp21
 70
     0
102
RTVSPropertyOp22
 70
     0
102
RTVSPropertyOp23
 70
     0
102
RTVSPropertyOp24
 70
     0
102
RTVSPropertyOp25
 70
     0
102
RTVSPropertyOp26
 70
     0
102
RTVSPropertyOp27
 70
     0
102
RTVSPropertyOp28
 70
     0
102
RTVSPropertyOp29
 70
     0
102
RTVSPropertyOp30
 70
     0
102
RTVSPropertyOp31
 70
     0
102
RTVSPropertyOp32
 70
     0
102
RTVSPropertyOp33
 70
     0
102
RTVSPropertyOp34
 70
     0
102
RTVSPropertyOp35
 70
     0
102
RTVSPropertyOp36
 70
     0
102
RTVSPropertyOp37
 70
     0
102
RTVSPropertyOp38
 70
     0
102
RTVSPropertyOp39
 70
     0
102
RTVSPropertyOp40
 70
     0
102
RTVSPropertyOp41
 70
     0
102
RTVSPropertyOp42
 70
     0
102
RTVSPropertyOp43
 70
     0
102
RTVSPropertyOp44
 70
     0
102
RTVSPropertyOp45
 70
     0
102
RTVSPropertyOp46
 70
     0
102
RTVSPropertyOp47
 70
     0
102
RTVSPropertyOp48
 70
     0
102
RTVSPropertyOp49
 70
     0
102
RTVSPropertyOp50
 70
     0
102
RTVSPropertyOp51
 70
     0
102
RTVSPropertyOp52
 70
     0
102
RTVSPropertyOp53
 70
     0
102
RTVSPropertyOp54
 70
     0
102
RTVSPropertyOp55
 70
     0
102
RTVSPropertyOp56
 70
     0
102
RTVSPropertyOp57
 70
     0
102
RTVSPropertyOp58
 70
     1
102
RTVSPropertyOp59
 70
     1
102
RTVSPropertyOp60
 70
     1
102
RTVSPropertyOp61
 70
     1
102
RTVSPropertyOp62
 70
     1
  0
XRECORD
  5
3E9
102
{ACAD_REACTORS
330
3E8
102
}
330
3E8
100
AcDbXrecord
280
     1
102
RTVSPost2010Prop28
280
     0
102
RTVSPost2010PropOp28
 70
     1
102
RTVSPost2010Prop29
280
     1
102
RTVSPost2010PropOp29
 70
     1
102
RTVSPost2010Prop30
280
     1
102
RTVSPost2010PropOp30
 70
     1
102
RTVSPost2010Prop31
280
     0
102
RTVSPost2010PropOp31
 70
     1
102
RTVSPost2010Prop32
280
     0
102
RTVSPost2010PropOp32
 70
     1
102
RTVSPost2010Prop33
280
     0
102
RTVSPost2010PropOp33
 70
     1
102
RTVSPost2010Prop34
280
     0
102
RTVSPost2010PropOp34
 70
     1
102
RTVSPost2010Prop35
280
     0
102
RTVSPost2010PropOp35
 70
     1
102
RTVSPost2010Prop36
280
     0
102
RTVSPost2010PropOp36
 70
     1
102
RTVSPost2010Prop37
 90
       50
102
RTVSPost2010PropOp37
 70
     1
102
RTVSPost2010Prop38
140
0.0
102
RTVSPost2010PropOp38
 70
     1
102
RTVSPost2010Prop39
140
1.0
102
RTVSPost2010PropOp39
 70
     1
102
RTVSPost2010Prop40
 90
        0
102
RTVSPost2010PropOp40
 70
     1
102
RTVSPost2010Prop41ColorIndex
 90
       18
102
RTVSPost2010Prop41ColorRGB
 90
        0
102
RTVSPost2010PropOp41
 70
     1
102
RTVSPost2010Prop42
 90
       50
102
RTVSPost2010PropOp42
 70
     1
102
RTVSPost2010Prop43
 90
        3
102
RTVSPost2010PropOp43
 70
     1
102
RTVSPost2010Prop44ColorIndex
 90
        5
102
RTVSPost2010Prop44ColorRGB
 90
      255
102
RTVSPost2010PropOp44
 70
     1
102
RTVSPost2010Prop45
280
     0
102
RTVSPost2010PropOp45
 70
     1
102
RTVSPost2010Prop46
 90
       50
102
RTVSPost2010PropOp46
 70
     1
102
RTVSPost2010Prop47
 90
       50
102
RTVSPost2010PropOp47
 70
     1
102
RTVSPost2010Prop48
 90
       50
102
RTVSPost2010PropOp48
 70
     1
102
RTVSPost2010Prop49
280
     0
102
RTVSPost2010PropOp49
 70
     1
102
RTVSPost2010Prop50
 90
       50
102
RTVSPost2010PropOp50
 70
     1
102
RTVSPost2010Prop51ColorIndex
 90
      256
102
RTVSPost2010Prop51ColorRGB
 90
-16777216
102
RTVSPost2010PropOp51
 70
     0
102
RTVSPost2010Prop52
140
1.0
102
RTVSPost2010PropOp52
 70
     0
102
RTVSPost2010Prop53
 90
        2
102
RTVSPost2010PropOp53
 70
     1
102
RTVSPost2010Prop54
  1
strokes_ogs.tif
102
RTVSPost2010PropOp54
 70
     1
102
RTVSPost2010Prop55
280
     0
102
RTVSPost2010PropOp55
 70
     1
102
RTVSPost2010Prop56
140
1.0
102
RTVSPost2010PropOp56
 70
     1
102
RTVSPost2010Prop57
140
1.0
102
RTVSPost2010PropOp57
 70
     1
102
RTVSPropertyOp0
 70
     1
102
RTVSPropertyOp1
 70
     1
102
RTVSPropertyOp2
 70
     1
102
RTVSPropertyOp3
 70
     1
102
RTVSPropertyOp4
 70
     1
102
RTVSPropertyOp5
 70
     1
102
RTVSPropertyOp6
 70
     1
102
RTVSPropertyOp7
 70
     1
102
RTVSPropertyOp8
 70
     1
102
RTVSPropertyOp9
 70
     1
102
RTVSPropertyOp10
 70
     1
102
RTVSPropertyOp11
 70
     1
102
RTVSPropertyOp12
 70
     1
102
RTVSPropertyOp13
 70
     1
102
RTVSPropertyOp14
 70
     1
102
RTVSPropertyOp15
 70
     1
102
RTVSPropertyOp16
 70
     1
102
RTVSPropertyOp17
 70
     1
102
RTVSPropertyOp18
 70
     1
102
RTVSPropertyOp19
 70
     1
102
RTVSPropertyOp20
 70
     1
102
RTVSPropertyOp21
 70
     1
102
RTVSPropertyOp22
 70
     1
102
RTVSPropertyOp23
 70
     1
102
RTVSPropertyOp24
 70
     1
102
RTVSPropertyOp25
 70
     1
102
RTVSPropertyOp26
 70
     1
102
RTVSPropertyOp27
 70
     1
102
RTVSPropertyOp28
 70
     1
102
RTVSPropertyOp29
 70
     1
102
RTVSPropertyOp30
 70
     1
102
RTVSPropertyOp31
 70
     1
102
RTVSPropertyOp32
 70
     1
102
RTVSPropertyOp33
 70
     1
102
RTVSPropertyOp34
 70
     1
102
RTVSPropertyOp35
 70
     1
102
RTVSPropertyOp36
 70
     1
102
RTVSPropertyOp37
 70
     1
102
RTVSPropertyOp38
 70
     1
102
RTVSPropertyOp39
 70
     1
102
RTVSPropertyOp40
 70
     1
102
RTVSPropertyOp41
 70
     1
102
RTVSPropertyOp42
 70
     1
102
RTVSPropertyOp43
 70
     1
102
RTVSPropertyOp44
 70
     1
102
RTVSPropertyOp45
 70
     1
102
RTVSPropertyOp46
 70
     1
102
RTVSPropertyOp47
 70
     1
102
RTVSPropertyOp48
 70
     1
102
RTVSPropertyOp49
 70
     1
102
RTVSPropertyOp50
 70
     1
102
RTVSPropertyOp51
 70
     0
102
RTVSPropertyOp52
 70
     0
102
RTVSPropertyOp53
 70
     1
102
RTVSPropertyOp54
 70
     1
102
RTVSPropertyOp55
 70
     1
102
RTVSPropertyOp56
 70
     1
102
RTVSPropertyOp57
 70
     1
102
RTVSPropertyOp58
 70
     1
102
RTVSPropertyOp59
 70
     1
102
RTVSPropertyOp60
 70
     1
102
RTVSPropertyOp61
 70
     1
102
RTVSPropertyOp62
 70
     1
  0
XRECORD
  5
407
102
{ACAD_REACTORS
330
406
102
}
330
406
100
AcDbXrecord
280
     1
102
RTVSPost2010Prop28
280
     0
102
RTVSPost2010PropOp28
 70
     1
102
RTVSPost2010Prop29
280
     1
102
RTVSPost2010PropOp29
 70
     1
102
RTVSPost2010Prop30
280
     1
102
RTVSPost2010PropOp30
 70
     1
102
RTVSPost2010Prop31
280
     0
102
RTVSPost2010PropOp31
 70
     1
102
RTVSPost2010Prop32
280
     0
102
RTVSPost2010PropOp32
 70
     1
102
RTVSPost2010Prop33
280
     0
102
RTVSPost2010PropOp33
 70
     1
102
RTVSPost2010Prop34
280
     0
102
RTVSPost2010PropOp34
 70
     1
102
RTVSPost2010Prop35
280
     0
102
RTVSPost2010PropOp35
 70
     1
102
RTVSPost2010Prop36
280
     0
102
RTVSPost2010PropOp36
 70
     1
102
RTVSPost2010Prop37
 90
       50
102
RTVSPost2010PropOp37
 70
     1
102
RTVSPost2010Prop38
140
0.0
102
RTVSPost2010PropOp38
 70
     1
102
RTVSPost2010Prop39
140
1.0
102
RTVSPost2010PropOp39
 70
     1
102
RTVSPost2010Prop40
 90
        0
102
RTVSPost2010PropOp40
 70
     1
102
RTVSPost2010Prop41ColorIndex
 90
       18
102
RTVSPost2010Prop41ColorRGB
 90
        0
102
RTVSPost2010PropOp41
 70
     1
102
RTVSPost2010Prop42
 90
       50
102
RTVSPost2010PropOp42
 70
     1
102
RTVSPost2010Prop43
 90
        3
102
RTVSPost2010PropOp43
 70
     1
102
RTVSPost2010Prop44ColorIndex
 90
        5
102
RTVSPost2010Prop44ColorRGB
 90
      255
102
RTVSPost2010PropOp44
 70
     1
102
RTVSPost2010Prop45
280
     0
102
RTVSPost2010PropOp45
 70
     1
102
RTVSPost2010Prop46
 90
       50
102
RTVSPost2010PropOp46
 70
     1
102
RTVSPost2010Prop47
 90
       50
102
RTVSPost2010PropOp47
 70
     1
102
RTVSPost2010Prop48
 90
       50
102
RTVSPost2010PropOp48
 70
     1
102
RTVSPost2010Prop49
280
     0
102
RTVSPost2010PropOp49
 70
     1
102
RTVSPost2010Prop50
 90
       50
102
RTVSPost2010PropOp50
 70
     1
102
RTVSPost2010Prop51ColorIndex
 90
      256
102
RTVSPost2010Prop51ColorRGB
 90
-16777216
102
RTVSPost2010PropOp51
 70
     0
102
RTVSPost2010Prop52
140
1.0
102
RTVSPost2010PropOp52
 70
     0
102
RTVSPost2010Prop53
 90
        2
102
RTVSPost2010PropOp53
 70
     1
102
RTVSPost2010Prop54
  1
strokes_ogs.tif
102
RTVSPost2010PropOp54
 70
     1
102
RTVSPost2010Prop55
280
     0
102
RTVSPost2010PropOp55
 70
     1
102
RTVSPost2010Prop56
140
1.0
102
RTVSPost2010PropOp56
 70
     1
102
RTVSPost2010Prop57
140
1.0
102
RTVSPost2010PropOp57
 70
     1
102
RTVSPropertyOp0
 70
     1
102
RTVSPropertyOp1
 70
     1
102
RTVSPropertyOp2
 70
     1
102
RTVSPropertyOp3
 70
     1
102
RTVSPropertyOp4
 70
     1
102
RTVSPropertyOp5
 70
     1
102
RTVSPropertyOp6
 70
     1
102
RTVSPropertyOp7
 70
     1
102
RTVSPropertyOp8
 70
     1
102
RTVSPropertyOp9
 70
     1
102
RTVSPropertyOp10
 70
     1
102
RTVSPropertyOp11
 70
     1
102
RTVSPropertyOp12
 70
     1
102
RTVSPropertyOp13
 70
     1
102
RTVSPropertyOp14
 70
     1
102
RTVSPropertyOp15
 70
     1
102
RTVSPropertyOp16
 70
     1
102
RTVSPropertyOp17
 70
     1
102
RTVSPropertyOp18
 70
     1
102
RTVSPropertyOp19
 70
     1
102
RTVSPropertyOp20
 70
     1
102
RTVSPropertyOp21
 70
     1
102
RTVSPropertyOp22
 70
     1
102
RTVSPropertyOp23
 70
     1
102
RTVSPropertyOp24
 70
     1
102
RTVSPropertyOp25
 70
     1
102
RTVSPropertyOp26
 70
     1
102
RTVSPropertyOp27
 70
     1
102
RTVSPropertyOp28
 70
     1
102
RTVSPropertyOp29
 70
     1
102
RTVSPropertyOp30
 70
     1
102
RTVSPropertyOp31
 70
     1
102
RTVSPropertyOp32
 70
     1
102
RTVSPropertyOp33
 70
     1
102
RTVSPropertyOp34
 70
     1
102
RTVSPropertyOp35
 70
     1
102
RTVSPropertyOp36
 70
     1
102
RTVSPropertyOp37
 70
     1
102
RTVSPropertyOp38
 70
     1
102
RTVSPropertyOp39
 70
     1
102
RTVSPropertyOp40
 70
     1
102
RTVSPropertyOp41
 70
     1
102
RTVSPropertyOp42
 70
     1
102
RTVSPropertyOp43
 70
     1
102
RTVSPropertyOp44
 70
     1
102
RTVSPropertyOp45
 70
     1
102
RTVSPropertyOp46
 70
     1
102
RTVSPropertyOp47
 70
     1
102
RTVSPropertyOp48
 70
     1
102
RTVSPropertyOp49
 70
     1
102
RTVSPropertyOp50
 70
     1
102
RTVSPropertyOp51
 70
     0
102
RTVSPropertyOp52
 70
     0
102
RTVSPropertyOp53
 70
     1
102
RTVSPropertyOp54
 70
     1
102
RTVSPropertyOp55
 70
     1
102
RTVSPropertyOp56
 70
     1
102
RTVSPropertyOp57
 70
     1
102
RTVSPropertyOp58
 70
     1
102
RTVSPropertyOp59
 70
     1
102
RTVSPropertyOp60
 70
     1
102
RTVSPropertyOp61
 70
     1
102
RTVSPropertyOp62
 70
     1
  0
XRECORD
  5
405
102
{ACAD_REACTORS
330
404
102
}
330
404
100
AcDbXrecord
280
     1
102
RTVSPost2010Prop28
280
     0
102
RTVSPost2010PropOp28
 70
     1
102
RTVSPost2010Prop29
280
     1
102
RTVSPost2010PropOp29
 70
     1
102
RTVSPost2010Prop30
280
     1
102
RTVSPost2010PropOp30
 70
     1
102
RTVSPost2010Prop31
280
     0
102
RTVSPost2010PropOp31
 70
     1
102
RTVSPost2010Prop32
280
     0
102
RTVSPost2010PropOp32
 70
     1
102
RTVSPost2010Prop33
280
     0
102
RTVSPost2010PropOp33
 70
     1
102
RTVSPost2010Prop34
280
     0
102
RTVSPost2010PropOp34
 70
     1
102
RTVSPost2010Prop35
280
     0
102
RTVSPost2010PropOp35
 70
     1
102
RTVSPost2010Prop36
280
     0
102
RTVSPost2010PropOp36
 70
     1
102
RTVSPost2010Prop37
 90
       50
102
RTVSPost2010PropOp37
 70
     1
102
RTVSPost2010Prop38
140
0.0
102
RTVSPost2010PropOp38
 70
     1
102
RTVSPost2010Prop39
140
1.0
102
RTVSPost2010PropOp39
 70
     1
102
RTVSPost2010Prop40
 90
        0
102
RTVSPost2010PropOp40
 70
     1
102
RTVSPost2010Prop41ColorIndex
 90
       18
102
RTVSPost2010Prop41ColorRGB
 90
        0
102
RTVSPost2010PropOp41
 70
     1
102
RTVSPost2010Prop42
 90
       50
102
RTVSPost2010PropOp42
 70
     1
102
RTVSPost2010Prop43
 90
        3
102
RTVSPost2010PropOp43
 70
     1
102
RTVSPost2010Prop44ColorIndex
 90
        5
102
RTVSPost2010Prop44ColorRGB
 90
      255
102
RTVSPost2010PropOp44
 70
     1
102
RTVSPost2010Prop45
280
     0
102
RTVSPost2010PropOp45
 70
     1
102
RTVSPost2010Prop46
 90
       50
102
RTVSPost2010PropOp46
 70
     1
102
RTVSPost2010Prop47
 90
       50
102
RTVSPost2010PropOp47
 70
     1
102
RTVSPost2010Prop48
 90
       50
102
RTVSPost2010PropOp48
 70
     1
102
RTVSPost2010Prop49
280
     0
102
RTVSPost2010PropOp49
 70
     1
102
RTVSPost2010Prop50
 90
       50
102
RTVSPost2010PropOp50
 70
     1
102
RTVSPost2010Prop51ColorIndex
 90
      256
102
RTVSPost2010Prop51ColorRGB
 90
-16777216
102
RTVSPost2010PropOp51
 70
     0
102
RTVSPost2010Prop52
140
1.0
102
RTVSPost2010PropOp52
 70
     0
102
RTVSPost2010Prop53
 90
        2
102
RTVSPost2010PropOp53
 70
     1
102
RTVSPost2010Prop54
  1
strokes_ogs.tif
102
RTVSPost2010PropOp54
 70
     1
102
RTVSPost2010Prop55
280
     0
102
RTVSPost2010PropOp55
 70
     1
102
RTVSPost2010Prop56
140
1.0
102
RTVSPost2010PropOp56
 70
     1
102
RTVSPost2010Prop57
140
1.0
102
RTVSPost2010PropOp57
 70
     1
102
RTVSPropertyOp0
 70
     1
102
RTVSPropertyOp1
 70
     1
102
RTVSPropertyOp2
 70
     1
102
RTVSPropertyOp3
 70
     1
102
RTVSPropertyOp4
 70
     1
102
RTVSPropertyOp5
 70
     1
102
RTVSPropertyOp6
 70
     1
102
RTVSPropertyOp7
 70
     1
102
RTVSPropertyOp8
 70
     1
102
RTVSPropertyOp9
 70
     1
102
RTVSPropertyOp10
 70
     1
102
RTVSPropertyOp11
 70
     1
102
RTVSPropertyOp12
 70
     1
102
RTVSPropertyOp13
 70
     1
102
RTVSPropertyOp14
 70
     1
102
RTVSPropertyOp15
 70
     1
102
RTVSPropertyOp16
 70
     1
102
RTVSPropertyOp17
 70
     1
102
RTVSPropertyOp18
 70
     1
102
RTVSPropertyOp19
 70
     1
102
RTVSPropertyOp20
 70
     1
102
RTVSPropertyOp21
 70
     1
102
RTVSPropertyOp22
 70
     1
102
RTVSPropertyOp23
 70
     1
102
RTVSPropertyOp24
 70
     1
102
RTVSPropertyOp25
 70
     1
102
RTVSPropertyOp26
 70
     1
102
RTVSPropertyOp27
 70
     1
102
RTVSPropertyOp28
 70
     1
102
RTVSPropertyOp29
 70
     1
102
RTVSPropertyOp30
 70
     1
102
RTVSPropertyOp31
 70
     1
102
RTVSPropertyOp32
 70
     1
102
RTVSPropertyOp33
 70
     1
102
RTVSPropertyOp34
 70
     1
102
RTVSPropertyOp35
 70
     1
102
RTVSPropertyOp36
 70
     1
102
RTVSPropertyOp37
 70
     1
102
RTVSPropertyOp38
 70
     1
102
RTVSPropertyOp39
 70
     1
102
RTVSPropertyOp40
 70
     1
102
RTVSPropertyOp41
 70
     1
102
RTVSPropertyOp42
 70
     1
102
RTVSPropertyOp43
 70
     1
102
RTVSPropertyOp44
 70
     1
102
RTVSPropertyOp45
 70
     1
102
RTVSPropertyOp46
 70
     1
102
RTVSPropertyOp47
 70
     1
102
RTVSPropertyOp48
 70
     1
102
RTVSPropertyOp49
 70
     1
102
RTVSPropertyOp50
 70
     1
102
RTVSPropertyOp51
 70
     0
102
RTVSPropertyOp52
 70
     0
102
RTVSPropertyOp53
 70
     1
102
RTVSPropertyOp54
 70
     1
102
RTVSPropertyOp55
 70
     1
102
RTVSPropertyOp56
 70
     1
102
RTVSPropertyOp57
 70
     1
102
RTVSPropertyOp58
 70
     1
102
RTVSPropertyOp59
 70
     1
102
RTVSPropertyOp60
 70
     1
102
RTVSPropertyOp61
 70
     1
102
RTVSPropertyOp62
 70
     1
  0
XRECORD
  5
3FF
102
{ACAD_REACTORS
330
3FE
102
}
330
3FE
100
AcDbXrecord
280
     1
102
RTVSPost2010Prop28
280
     0
102
RTVSPost2010PropOp28
 70
     1
102
RTVSPost2010Prop29
280
     1
102
RTVSPost2010PropOp29
 70
     1
102
RTVSPost2010Prop30
280
     1
102
RTVSPost2010PropOp30
 70
     1
102
RTVSPost2010Prop31
280
     0
102
RTVSPost2010PropOp31
 70
     1
102
RTVSPost2010Prop32
280
     0
102
RTVSPost2010PropOp32
 70
     1
102
RTVSPost2010Prop33
280
     0
102
RTVSPost2010PropOp33
 70
     1
102
RTVSPost2010Prop34
280
     0
102
RTVSPost2010PropOp34
 70
     1
102
RTVSPost2010Prop35
280
     0
102
RTVSPost2010PropOp35
 70
     1
102
RTVSPost2010Prop36
280
     0
102
RTVSPost2010PropOp36
 70
     1
102
RTVSPost2010Prop37
 90
       50
102
RTVSPost2010PropOp37
 70
     1
102
RTVSPost2010Prop38
140
0.0
102
RTVSPost2010PropOp38
 70
     1
102
RTVSPost2010Prop39
140
1.0
102
RTVSPost2010PropOp39
 70
     1
102
RTVSPost2010Prop40
 90
        0
102
RTVSPost2010PropOp40
 70
     1
102
RTVSPost2010Prop41ColorIndex
 90
       18
102
RTVSPost2010Prop41ColorRGB
 90
        0
102
RTVSPost2010PropOp41
 70
     1
102
RTVSPost2010Prop42
 90
       50
102
RTVSPost2010PropOp42
 70
     1
102
RTVSPost2010Prop43
 90
        3
102
RTVSPost2010PropOp43
 70
     1
102
RTVSPost2010Prop44ColorIndex
 90
        5
102
RTVSPost2010Prop44ColorRGB
 90
      255
102
RTVSPost2010PropOp44
 70
     1
102
RTVSPost2010Prop45
280
     0
102
RTVSPost2010PropOp45
 70
     1
102
RTVSPost2010Prop46
 90
       50
102
RTVSPost2010PropOp46
 70
     1
102
RTVSPost2010Prop47
 90
       50
102
RTVSPost2010PropOp47
 70
     1
102
RTVSPost2010Prop48
 90
       50
102
RTVSPost2010PropOp48
 70
     1
102
RTVSPost2010Prop49
280
     0
102
RTVSPost2010PropOp49
 70
     1
102
RTVSPost2010Prop50
 90
       50
102
RTVSPost2010PropOp50
 70
     1
102
RTVSPost2010Prop51ColorIndex
 90
      256
102
RTVSPost2010Prop51ColorRGB
 90
-16777216
102
RTVSPost2010PropOp51
 70
     0
102
RTVSPost2010Prop52
140
1.0
102
RTVSPost2010PropOp52
 70
     0
102
RTVSPost2010Prop53
 90
        2
102
RTVSPost2010PropOp53
 70
     1
102
RTVSPost2010Prop54
  1
strokes_ogs.tif
102
RTVSPost2010PropOp54
 70
     1
102
RTVSPost2010Prop55
280
     0
102
RTVSPost2010PropOp55
 70
     1
102
RTVSPost2010Prop56
140
1.0
102
RTVSPost2010PropOp56
 70
     1
102
RTVSPost2010Prop57
140
1.0
102
RTVSPost2010PropOp57
 70
     1
102
RTVSPropertyOp0
 70
     1
102
RTVSPropertyOp1
 70
     1
102
RTVSPropertyOp2
 70
     1
102
RTVSPropertyOp3
 70
     1
102
RTVSPropertyOp4
 70
     1
102
RTVSPropertyOp5
 70
     1
102
RTVSPropertyOp6
 70
     1
102
RTVSPropertyOp7
 70
     1
102
RTVSPropertyOp8
 70
     1
102
RTVSPropertyOp9
 70
     1
102
RTVSPropertyOp10
 70
     1
102
RTVSPropertyOp11
 70
     1
102
RTVSPropertyOp12
 70
     1
102
RTVSPropertyOp13
 70
     1
102
RTVSPropertyOp14
 70
     1
102
RTVSPropertyOp15
 70
     1
102
RTVSPropertyOp16
 70
     1
102
RTVSPropertyOp17
 70
     1
102
RTVSPropertyOp18
 70
     1
102
RTVSPropertyOp19
 70
     1
102
RTVSPropertyOp20
 70
     1
102
RTVSPropertyOp21
 70
     1
102
RTVSPropertyOp22
 70
     1
102
RTVSPropertyOp23
 70
     1
102
RTVSPropertyOp24
 70
     1
102
RTVSPropertyOp25
 70
     1
102
RTVSPropertyOp26
 70
     1
102
RTVSPropertyOp27
 70
     1
102
RTVSPropertyOp28
 70
     1
102
RTVSPropertyOp29
 70
     1
102
RTVSPropertyOp30
 70
     1
102
RTVSPropertyOp31
 70
     1
102
RTVSPropertyOp32
 70
     1
102
RTVSPropertyOp33
 70
     1
102
RTVSPropertyOp34
 70
     1
102
RTVSPropertyOp35
 70
     1
102
RTVSPropertyOp36
 70
     1
102
RTVSPropertyOp37
 70
     1
102
RTVSPropertyOp38
 70
     1
102
RTVSPropertyOp39
 70
     1
102
RTVSPropertyOp40
 70
     1
102
RTVSPropertyOp41
 70
     1
102
RTVSPropertyOp42
 70
     1
102
RTVSPropertyOp43
 70
     1
102
RTVSPropertyOp44
 70
     1
102
RTVSPropertyOp45
 70
     1
102
RTVSPropertyOp46
 70
     1
102
RTVSPropertyOp47
 70
     1
102
RTVSPropertyOp48
 70
     1
102
RTVSPropertyOp49
 70
     1
102
RTVSPropertyOp50
 70
     1
102
RTVSPropertyOp51
 70
     0
102
RTVSPropertyOp52
 70
     0
102
RTVSPropertyOp53
 70
     1
102
RTVSPropertyOp54
 70
     1
102
RTVSPropertyOp55
 70
     1
102
RTVSPropertyOp56
 70
     1
102
RTVSPropertyOp57
 70
     1
102
RTVSPropertyOp58
 70
     1
102
RTVSPropertyOp59
 70
     1
102
RTVSPropertyOp60
 70
     1
102
RTVSPropertyOp61
 70
     1
102
RTVSPropertyOp62
 70
     1
  0
XRECORD
  5
401
102
{ACAD_REACTORS
330
400
102
}
330
400
100
AcDbXrecord
280
     1
102
RTVSPost2010Prop28
280
     0
102
RTVSPost2010PropOp28
 70
     1
102
RTVSPost2010Prop29
280
     1
102
RTVSPost2010PropOp29
 70
     1
102
RTVSPost2010Prop30
280
     1
102
RTVSPost2010PropOp30
 70
     1
102
RTVSPost2010Prop31
280
     0
102
RTVSPost2010PropOp31
 70
     1
102
RTVSPost2010Prop32
280
     0
102
RTVSPost2010PropOp32
 70
     1
102
RTVSPost2010Prop33
280
     0
102
RTVSPost2010PropOp33
 70
     1
102
RTVSPost2010Prop34
280
     0
102
RTVSPost2010PropOp34
 70
     1
102
RTVSPost2010Prop35
280
     0
102
RTVSPost2010PropOp35
 70
     1
102
RTVSPost2010Prop36
280
     0
102
RTVSPost2010PropOp36
 70
     1
102
RTVSPost2010Prop37
 90
       50
102
RTVSPost2010PropOp37
 70
     1
102
RTVSPost2010Prop38
140
0.0
102
RTVSPost2010PropOp38
 70
     1
102
RTVSPost2010Prop39
140
1.0
102
RTVSPost2010PropOp39
 70
     1
102
RTVSPost2010Prop40
 90
        0
102
RTVSPost2010PropOp40
 70
     1
102
RTVSPost2010Prop41ColorIndex
 90
       18
102
RTVSPost2010Prop41ColorRGB
 90
        0
102
RTVSPost2010PropOp41
 70
     1
102
RTVSPost2010Prop42
 90
       50
102
RTVSPost2010PropOp42
 70
     1
102
RTVSPost2010Prop43
 90
        3
102
RTVSPost2010PropOp43
 70
     1
102
RTVSPost2010Prop44ColorIndex
 90
        5
102
RTVSPost2010Prop44ColorRGB
 90
      255
102
RTVSPost2010PropOp44
 70
     1
102
RTVSPost2010Prop45
280
     0
102
RTVSPost2010PropOp45
 70
     1
102
RTVSPost2010Prop46
 90
       50
102
RTVSPost2010PropOp46
 70
     1
102
RTVSPost2010Prop47
 90
       50
102
RTVSPost2010PropOp47
 70
     1
102
RTVSPost2010Prop48
 90
       50
102
RTVSPost2010PropOp48
 70
     1
102
RTVSPost2010Prop49
280
     0
102
RTVSPost2010PropOp49
 70
     1
102
RTVSPost2010Prop50
 90
       50
102
RTVSPost2010PropOp50
 70
     1
102
RTVSPost2010Prop51ColorIndex
 90
      256
102
RTVSPost2010Prop51ColorRGB
 90
-16777216
102
RTVSPost2010PropOp51
 70
     0
102
RTVSPost2010Prop52
140
1.0
102
RTVSPost2010PropOp52
 70
     0
102
RTVSPost2010Prop53
 90
        2
102
RTVSPost2010PropOp53
 70
     1
102
RTVSPost2010Prop54
  1
strokes_ogs.tif
102
RTVSPost2010PropOp54
 70
     1
102
RTVSPost2010Prop55
280
     0
102
RTVSPost2010PropOp55
 70
     1
102
RTVSPost2010Prop56
140
1.0
102
RTVSPost2010PropOp56
 70
     1
102
RTVSPost2010Prop57
140
1.0
102
RTVSPost2010PropOp57
 70
     1
102
RTVSPropertyOp0
 70
     1
102
RTVSPropertyOp1
 70
     1
102
RTVSPropertyOp2
 70
     1
102
RTVSPropertyOp3
 70
     1
102
RTVSPropertyOp4
 70
     1
102
RTVSPropertyOp5
 70
     1
102
RTVSPropertyOp6
 70
     1
102
RTVSPropertyOp7
 70
     1
102
RTVSPropertyOp8
 70
     1
102
RTVSPropertyOp9
 70
     1
102
RTVSPropertyOp10
 70
     1
102
RTVSPropertyOp11
 70
     1
102
RTVSPropertyOp12
 70
     1
102
RTVSPropertyOp13
 70
     1
102
RTVSPropertyOp14
 70
     1
102
RTVSPropertyOp15
 70
     1
102
RTVSPropertyOp16
 70
     1
102
RTVSPropertyOp17
 70
     1
102
RTVSPropertyOp18
 70
     1
102
RTVSPropertyOp19
 70
     1
102
RTVSPropertyOp20
 70
     1
102
RTVSPropertyOp21
 70
     1
102
RTVSPropertyOp22
 70
     1
102
RTVSPropertyOp23
 70
     1
102
RTVSPropertyOp24
 70
     1
102
RTVSPropertyOp25
 70
     1
102
RTVSPropertyOp26
 70
     1
102
RTVSPropertyOp27
 70
     1
102
RTVSPropertyOp28
 70
     1
102
RTVSPropertyOp29
 70
     1
102
RTVSPropertyOp30
 70
     1
102
RTVSPropertyOp31
 70
     1
102
RTVSPropertyOp32
 70
     1
102
RTVSPropertyOp33
 70
     1
102
RTVSPropertyOp34
 70
     1
102
RTVSPropertyOp35
 70
     1
102
RTVSPropertyOp36
 70
     1
102
RTVSPropertyOp37
 70
     1
102
RTVSPropertyOp38
 70
     1
102
RTVSPropertyOp39
 70
     1
102
RTVSPropertyOp40
 70
     1
102
RTVSPropertyOp41
 70
     1
102
RTVSPropertyOp42
 70
     1
102
RTVSPropertyOp43
 70
     1
102
RTVSPropertyOp44
 70
     1
102
RTVSPropertyOp45
 70
     1
102
RTVSPropertyOp46
 70
     1
102
RTVSPropertyOp47
 70
     1
102
RTVSPropertyOp48
 70
     1
102
RTVSPropertyOp49
 70
     1
102
RTVSPropertyOp50
 70
     1
102
RTVSPropertyOp51
 70
     0
102
RTVSPropertyOp52
 70
     0
102
RTVSPropertyOp53
 70
     1
102
RTVSPropertyOp54
 70
     1
102
RTVSPropertyOp55
 70
     1
102
RTVSPropertyOp56
 70
     1
102
RTVSPropertyOp57
 70
     1
102
RTVSPropertyOp58
 70
     1
102
RTVSPropertyOp59
 70
     1
102
RTVSPropertyOp60
 70
     1
102
RTVSPropertyOp61
 70
     1
102
RTVSPropertyOp62
 70
     1
  0
XRECORD
  5
3F1
102
{ACAD_REACTORS
330
3F0
102
}
330
3F0
100
AcDbXrecord
280
     1
102
RTVSPost2010Prop28
280
     0
102
RTVSPost2010PropOp28
 70
     1
102
RTVSPost2010Prop29
280
     1
102
RTVSPost2010PropOp29
 70
     1
102
RTVSPost2010Prop30
280
     1
102
RTVSPost2010PropOp30
 70
     1
102
RTVSPost2010Prop31
280
     0
102
RTVSPost2010PropOp31
 70
     1
102
RTVSPost2010Prop32
280
     0
102
RTVSPost2010PropOp32
 70
     1
102
RTVSPost2010Prop33
280
     0
102
RTVSPost2010PropOp33
 70
     1
102
RTVSPost2010Prop34
280
     0
102
RTVSPost2010PropOp34
 70
     1
102
RTVSPost2010Prop35
280
     0
102
RTVSPost2010PropOp35
 70
     1
102
RTVSPost2010Prop36
280
     0
102
RTVSPost2010PropOp36
 70
     1
102
RTVSPost2010Prop37
 90
       50
102
RTVSPost2010PropOp37
 70
     1
102
RTVSPost2010Prop38
140
0.0
102
RTVSPost2010PropOp38
 70
     1
102
RTVSPost2010Prop39
140
1.0
102
RTVSPost2010PropOp39
 70
     1
102
RTVSPost2010Prop40
 90
        0
102
RTVSPost2010PropOp40
 70
     1
102
RTVSPost2010Prop41ColorIndex
 90
       18
102
RTVSPost2010Prop41ColorRGB
 90
        0
102
RTVSPost2010PropOp41
 70
     1
102
RTVSPost2010Prop42
 90
       50
102
RTVSPost2010PropOp42
 70
     1
102
RTVSPost2010Prop43
 90
        3
102
RTVSPost2010PropOp43
 70
     1
102
RTVSPost2010Prop44ColorIndex
 90
        5
102
RTVSPost2010Prop44ColorRGB
 90
      255
102
RTVSPost2010PropOp44
 70
     1
102
RTVSPost2010Prop45
280
     0
102
RTVSPost2010PropOp45
 70
     1
102
RTVSPost2010Prop46
 90
       50
102
RTVSPost2010PropOp46
 70
     1
102
RTVSPost2010Prop47
 90
       50
102
RTVSPost2010PropOp47
 70
     1
102
RTVSPost2010Prop48
 90
       50
102
RTVSPost2010PropOp48
 70
     1
102
RTVSPost2010Prop49
280
     0
102
RTVSPost2010PropOp49
 70
     1
102
RTVSPost2010Prop50
 90
       50
102
RTVSPost2010PropOp50
 70
     1
102
RTVSPost2010Prop51ColorIndex
 90
      256
102
RTVSPost2010Prop51ColorRGB
 90
-16777216
102
RTVSPost2010PropOp51
 70
     0
102
RTVSPost2010Prop52
140
1.0
102
RTVSPost2010PropOp52
 70
     0
102
RTVSPost2010Prop53
 90
        2
102
RTVSPost2010PropOp53
 70
     1
102
RTVSPost2010Prop54
  1
strokes_ogs.tif
102
RTVSPost2010PropOp54
 70
     1
102
RTVSPost2010Prop55
280
     0
102
RTVSPost2010PropOp55
 70
     1
102
RTVSPost2010Prop56
140
1.0
102
RTVSPost2010PropOp56
 70
     1
102
RTVSPost2010Prop57
140
1.0
102
RTVSPost2010PropOp57
 70
     1
102
RTVSPropertyOp0
 70
     1
102
RTVSPropertyOp1
 70
     1
102
RTVSPropertyOp2
 70
     1
102
RTVSPropertyOp3
 70
     1
102
RTVSPropertyOp4
 70
     1
102
RTVSPropertyOp5
 70
     1
102
RTVSPropertyOp6
 70
     1
102
RTVSPropertyOp7
 70
     1
102
RTVSPropertyOp8
 70
     1
102
RTVSPropertyOp9
 70
     1
102
RTVSPropertyOp10
 70
     1
102
RTVSPropertyOp11
 70
     1
102
RTVSPropertyOp12
 70
     1
102
RTVSPropertyOp13
 70
     1
102
RTVSPropertyOp14
 70
     1
102
RTVSPropertyOp15
 70
     1
102
RTVSPropertyOp16
 70
     1
102
RTVSPropertyOp17
 70
     1
102
RTVSPropertyOp18
 70
     1
102
RTVSPropertyOp19
 70
     1
102
RTVSPropertyOp20
 70
     1
102
RTVSPropertyOp21
 70
     1
102
RTVSPropertyOp22
 70
     1
102
RTVSPropertyOp23
 70
     1
102
RTVSPropertyOp24
 70
     1
102
RTVSPropertyOp25
 70
     1
102
RTVSPropertyOp26
 70
     1
102
RTVSPropertyOp27
 70
     1
102
RTVSPropertyOp28
 70
     1
102
RTVSPropertyOp29
 70
     1
102
RTVSPropertyOp30
 70
     1
102
RTVSPropertyOp31
 70
     1
102
RTVSPropertyOp32
 70
     1
102
RTVSPropertyOp33
 70
     1
102
RTVSPropertyOp34
 70
     1
102
RTVSPropertyOp35
 70
     1
102
RTVSPropertyOp36
 70
     1
102
RTVSPropertyOp37
 70
     1
102
RTVSPropertyOp38
 70
     1
102
RTVSPropertyOp39
 70
     1
102
RTVSPropertyOp40
 70
     1
102
RTVSPropertyOp41
 70
     1
102
RTVSPropertyOp42
 70
     1
102
RTVSPropertyOp43
 70
     1
102
RTVSPropertyOp44
 70
     1
102
RTVSPropertyOp45
 70
     1
102
RTVSPropertyOp46
 70
     1
102
RTVSPropertyOp47
 70
     1
102
RTVSPropertyOp48
 70
     1
102
RTVSPropertyOp49
 70
     1
102
RTVSPropertyOp50
 70
     1
102
RTVSPropertyOp51
 70
     0
102
RTVSPropertyOp52
 70
     0
102
RTVSPropertyOp53
 70
     1
102
RTVSPropertyOp54
 70
     1
102
RTVSPropertyOp55
 70
     1
102
RTVSPropertyOp56
 70
     1
102
RTVSPropertyOp57
 70
     1
102
RTVSPropertyOp58
 70
     1
102
RTVSPropertyOp59
 70
     1
102
RTVSPropertyOp60
 70
     1
102
RTVSPropertyOp61
 70
     1
102
RTVSPropertyOp62
 70
     1
  0
XRECORD
  5
3E3
102
{ACAD_REACTORS
330
3E2
102
}
330
3E2
100
AcDbXrecord
280
     1
102
RTVSPost2010Prop28
280
     0
102
RTVSPost2010PropOp28
 70
     1
102
RTVSPost2010Prop29
280
     1
102
RTVSPost2010PropOp29
 70
     1
102
RTVSPost2010Prop30
280
     1
102
RTVSPost2010PropOp30
 70
     1
102
RTVSPost2010Prop31
280
     0
102
RTVSPost2010PropOp31
 70
     1
102
RTVSPost2010Prop32
280
     0
102
RTVSPost2010PropOp32
 70
     1
102
RTVSPost2010Prop33
280
     0
102
RTVSPost2010PropOp33
 70
     1
102
RTVSPost2010Prop34
280
     0
102
RTVSPost2010PropOp34
 70
     1
102
RTVSPost2010Prop35
280
     0
102
RTVSPost2010PropOp35
 70
     1
102
RTVSPost2010Prop36
280
     0
102
RTVSPost2010PropOp36
 70
     1
102
RTVSPost2010Prop37
 90
       50
102
RTVSPost2010PropOp37
 70
     1
102
RTVSPost2010Prop38
140
0.0
102
RTVSPost2010PropOp38
 70
     1
102
RTVSPost2010Prop39
140
1.0
102
RTVSPost2010PropOp39
 70
     1
102
RTVSPost2010Prop40
 90
        0
102
RTVSPost2010PropOp40
 70
     1
102
RTVSPost2010Prop41ColorIndex
 90
       18
102
RTVSPost2010Prop41ColorRGB
 90
        0
102
RTVSPost2010PropOp41
 70
     1
102
RTVSPost2010Prop42
 90
       50
102
RTVSPost2010PropOp42
 70
     1
102
RTVSPost2010Prop43
 90
        3
102
RTVSPost2010PropOp43
 70
     1
102
RTVSPost2010Prop44ColorIndex
 90
        5
102
RTVSPost2010Prop44ColorRGB
 90
      255
102
RTVSPost2010PropOp44
 70
     1
102
RTVSPost2010Prop45
280
     0
102
RTVSPost2010PropOp45
 70
     1
102
RTVSPost2010Prop46
 90
       50
102
RTVSPost2010PropOp46
 70
     1
102
RTVSPost2010Prop47
 90
       50
102
RTVSPost2010PropOp47
 70
     1
102
RTVSPost2010Prop48
 90
       50
102
RTVSPost2010PropOp48
 70
     1
102
RTVSPost2010Prop49
280
     0
102
RTVSPost2010PropOp49
 70
     1
102
RTVSPost2010Prop50
 90
       50
102
RTVSPost2010PropOp50
 70
     1
102
RTVSPost2010Prop51ColorIndex
 90
      256
102
RTVSPost2010Prop51ColorRGB
 90
-16777216
102
RTVSPost2010PropOp51
 70
     0
102
RTVSPost2010Prop52
140
1.0
102
RTVSPost2010PropOp52
 70
     0
102
RTVSPost2010Prop53
 90
        2
102
RTVSPost2010PropOp53
 70
     1
102
RTVSPost2010Prop54
  1
strokes_ogs.tif
102
RTVSPost2010PropOp54
 70
     1
102
RTVSPost2010Prop55
280
     0
102
RTVSPost2010PropOp55
 70
     1
102
RTVSPost2010Prop56
140
1.0
102
RTVSPost2010PropOp56
 70
     1
102
RTVSPost2010Prop57
140
1.0
102
RTVSPost2010PropOp57
 70
     1
102
RTVSPropertyOp0
 70
     1
102
RTVSPropertyOp1
 70
     1
102
RTVSPropertyOp2
 70
     1
102
RTVSPropertyOp3
 70
     1
102
RTVSPropertyOp4
 70
     1
102
RTVSPropertyOp5
 70
     1
102
RTVSPropertyOp6
 70
     1
102
RTVSPropertyOp7
 70
     1
102
RTVSPropertyOp8
 70
     1
102
RTVSPropertyOp9
 70
     1
102
RTVSPropertyOp10
 70
     1
102
RTVSPropertyOp11
 70
     1
102
RTVSPropertyOp12
 70
     1
102
RTVSPropertyOp13
 70
     1
102
RTVSPropertyOp14
 70
     1
102
RTVSPropertyOp15
 70
     1
102
RTVSPropertyOp16
 70
     1
102
RTVSPropertyOp17
 70
     1
102
RTVSPropertyOp18
 70
     1
102
RTVSPropertyOp19
 70
     1
102
RTVSPropertyOp20
 70
     1
102
RTVSPropertyOp21
 70
     1
102
RTVSPropertyOp22
 70
     1
102
RTVSPropertyOp23
 70
     1
102
RTVSPropertyOp24
 70
     1
102
RTVSPropertyOp25
 70
     1
102
RTVSPropertyOp26
 70
     1
102
RTVSPropertyOp27
 70
     1
102
RTVSPropertyOp28
 70
     1
102
RTVSPropertyOp29
 70
     1
102
RTVSPropertyOp30
 70
     1
102
RTVSPropertyOp31
 70
     1
102
RTVSPropertyOp32
 70
     1
102
RTVSPropertyOp33
 70
     1
102
RTVSPropertyOp34
 70
     1
102
RTVSPropertyOp35
 70
     1
102
RTVSPropertyOp36
 70
     1
102
RTVSPropertyOp37
 70
     1
102
RTVSPropertyOp38
 70
     1
102
RTVSPropertyOp39
 70
     1
102
RTVSPropertyOp40
 70
     1
102
RTVSPropertyOp41
 70
     1
102
RTVSPropertyOp42
 70
     1
102
RTVSPropertyOp43
 70
     1
102
RTVSPropertyOp44
 70
     1
102
RTVSPropertyOp45
 70
     1
102
RTVSPropertyOp46
 70
     1
102
RTVSPropertyOp47
 70
     1
102
RTVSPropertyOp48
 70
     1
102
RTVSPropertyOp49
 70
     1
102
RTVSPropertyOp50
 70
     1
102
RTVSPropertyOp51
 70
     0
102
RTVSPropertyOp52
 70
     0
102
RTVSPropertyOp53
 70
     1
102
RTVSPropertyOp54
 70
     1
102
RTVSPropertyOp55
 70
     1
102
RTVSPropertyOp56
 70
     1
102
RTVSPropertyOp57
 70
     1
102
RTVSPropertyOp58
 70
     1
102
RTVSPropertyOp59
 70
     1
102
RTVSPropertyOp60
 70
     1
102
RTVSPropertyOp61
 70
     1
102
RTVSPropertyOp62
 70
     1
  0
XRECORD
  5
403
102
{ACAD_REACTORS
330
402
102
}
330
402
100
AcDbXrecord
280
     1
102
RTVSPost2010Prop28
280
     0
102
RTVSPost2010PropOp28
 70
     1
102
RTVSPost2010Prop29
280
     1
102
RTVSPost2010PropOp29
 70
     1
102
RTVSPost2010Prop30
280
     1
102
RTVSPost2010PropOp30
 70
     1
102
RTVSPost2010Prop31
280
     0
102
RTVSPost2010PropOp31
 70
     1
102
RTVSPost2010Prop32
280
     0
102
RTVSPost2010PropOp32
 70
     1
102
RTVSPost2010Prop33
280
     0
102
RTVSPost2010PropOp33
 70
     1
102
RTVSPost2010Prop34
280
     0
102
RTVSPost2010PropOp34
 70
     1
102
RTVSPost2010Prop35
280
     0
102
RTVSPost2010PropOp35
 70
     1
102
RTVSPost2010Prop36
280
     0
102
RTVSPost2010PropOp36
 70
     1
102
RTVSPost2010Prop37
 90
       50
102
RTVSPost2010PropOp37
 70
     1
102
RTVSPost2010Prop38
140
0.0
102
RTVSPost2010PropOp38
 70
     1
102
RTVSPost2010Prop39
140
1.0
102
RTVSPost2010PropOp39
 70
     1
102
RTVSPost2010Prop40
 90
        0
102
RTVSPost2010PropOp40
 70
     1
102
RTVSPost2010Prop41ColorIndex
 90
       18
102
RTVSPost2010Prop41ColorRGB
 90
        0
102
RTVSPost2010PropOp41
 70
     1
102
RTVSPost2010Prop42
 90
       50
102
RTVSPost2010PropOp42
 70
     1
102
RTVSPost2010Prop43
 90
        3
102
RTVSPost2010PropOp43
 70
     1
102
RTVSPost2010Prop44ColorIndex
 90
        5
102
RTVSPost2010Prop44ColorRGB
 90
      255
102
RTVSPost2010PropOp44
 70
     1
102
RTVSPost2010Prop45
280
     0
102
RTVSPost2010PropOp45
 70
     1
102
RTVSPost2010Prop46
 90
       50
102
RTVSPost2010PropOp46
 70
     1
102
RTVSPost2010Prop47
 90
       50
102
RTVSPost2010PropOp47
 70
     1
102
RTVSPost2010Prop48
 90
       50
102
RTVSPost2010PropOp48
 70
     1
102
RTVSPost2010Prop49
280
     0
102
RTVSPost2010PropOp49
 70
     1
102
RTVSPost2010Prop50
 90
       50
102
RTVSPost2010PropOp50
 70
     1
102
RTVSPost2010Prop51ColorIndex
 90
      256
102
RTVSPost2010Prop51ColorRGB
 90
-16777216
102
RTVSPost2010PropOp51
 70
     0
102
RTVSPost2010Prop52
140
1.0
102
RTVSPost2010PropOp52
 70
     0
102
RTVSPost2010Prop53
 90
        2
102
RTVSPost2010PropOp53
 70
     1
102
RTVSPost2010Prop54
  1
strokes_ogs.tif
102
RTVSPost2010PropOp54
 70
     1
102
RTVSPost2010Prop55
280
     0
102
RTVSPost2010PropOp55
 70
     1
102
RTVSPost2010Prop56
140
1.0
102
RTVSPost2010PropOp56
 70
     1
102
RTVSPost2010Prop57
140
1.0
102
RTVSPost2010PropOp57
 70
     1
102
RTVSPropertyOp0
 70
     1
102
RTVSPropertyOp1
 70
     1
102
RTVSPropertyOp2
 70
     1
102
RTVSPropertyOp3
 70
     1
102
RTVSPropertyOp4
 70
     1
102
RTVSPropertyOp5
 70
     1
102
RTVSPropertyOp6
 70
     1
102
RTVSPropertyOp7
 70
     1
102
RTVSPropertyOp8
 70
     1
102
RTVSPropertyOp9
 70
     1
102
RTVSPropertyOp10
 70
     1
102
RTVSPropertyOp11
 70
     1
102
RTVSPropertyOp12
 70
     1
102
RTVSPropertyOp13
 70
     1
102
RTVSPropertyOp14
 70
     1
102
RTVSPropertyOp15
 70
     1
102
RTVSPropertyOp16
 70
     1
102
RTVSPropertyOp17
 70
     1
102
RTVSPropertyOp18
 70
     1
102
RTVSPropertyOp19
 70
     1
102
RTVSPropertyOp20
 70
     1
102
RTVSPropertyOp21
 70
     1
102
RTVSPropertyOp22
 70
     1
102
RTVSPropertyOp23
 70
     1
102
RTVSPropertyOp24
 70
     1
102
RTVSPropertyOp25
 70
     1
102
RTVSPropertyOp26
 70
     1
102
RTVSPropertyOp27
 70
     1
102
RTVSPropertyOp28
 70
     1
102
RTVSPropertyOp29
 70
     1
102
RTVSPropertyOp30
 70
     1
102
RTVSPropertyOp31
 70
     1
102
RTVSPropertyOp32
 70
     1
102
RTVSPropertyOp33
 70
     1
102
RTVSPropertyOp34
 70
     1
102
RTVSPropertyOp35
 70
     1
102
RTVSPropertyOp36
 70
     1
102
RTVSPropertyOp37
 70
     1
102
RTVSPropertyOp38
 70
     1
102
RTVSPropertyOp39
 70
     1
102
RTVSPropertyOp40
 70
     1
102
RTVSPropertyOp41
 70
     1
102
RTVSPropertyOp42
 70
     1
102
RTVSPropertyOp43
 70
     1
102
RTVSPropertyOp44
 70
     1
102
RTVSPropertyOp45
 70
     1
102
RTVSPropertyOp46
 70
     1
102
RTVSPropertyOp47
 70
     1
102
RTVSPropertyOp48
 70
     1
102
RTVSPropertyOp49
 70
     1
102
RTVSPropertyOp50
 70
     1
102
RTVSPropertyOp51
 70
     0
102
RTVSPropertyOp52
 70
     0
102
RTVSPropertyOp53
 70
     1
102
RTVSPropertyOp54
 70
     1
102
RTVSPropertyOp55
 70
     1
102
RTVSPropertyOp56
 70
     1
102
RTVSPropertyOp57
 70
     1
102
RTVSPropertyOp58
 70
     1
102
RTVSPropertyOp59
 70
     1
102
RTVSPropertyOp60
 70
     1
102
RTVSPropertyOp61
 70
     1
102
RTVSPropertyOp62
 70
     1
  0
ENDSEC
  0
EOF
