  0
SECTION
  2
HEADER
  9
$ACADVER
  1
AC1009
  9
$INSBASE
 10
0.0
 20
0.0
 30
0.0
  9
$EXTMIN
 10
-304.3715542168716865
 20
-54.2748879040415417
 30
0.0
  9
$EXTMAX
 10
-5.6140392463204867
 20
36.2228326087679733
 30
0.0
  9
$LIMMIN
 10
0.0
 20
0.0
  9
$LIMMAX
 10
420.0
 20
297.0
  9
$ORTHOMODE
 70
     1
  9
$REGENMODE
 70
     1
  9
$FILLMODE
 70
     1
  9
$QTEXTMODE
 70
     0
  9
$MIRRTEXT
 70
     0
  9
$DRAGMODE
 70
     2
  9
$LTSCALE
 40
10.0
  9
$OSMODE
 70
  4095
  9
$ATTMODE
 70
     1
  9
$TEXTSIZE
 40
2.5
  9
$TRACEWID
 40
1.0
  9
$TEXTSTYLE
  7
STANDARD
  9
$CLAYER
  8
COTES
  9
$CELTYPE
  6
BYLAYER
  9
$CECOLOR
 62
   256
  9
$DIMSCALE
 40
1.0
  9
$DIMASZ
 40
2.5
  9
$DIMEXO
 40
1.0
  9
$DIMDLI
 40
1.0
  9
$DIMRND
 40
0.0
  9
$DIMDLE
 40
0.0
  9
$DIMEXE
 40
1.0
  9
$DIMTP
 40
0.0
  9
$DIMTM
 40
0.0
  9
$DIMTXT
 40
2.5
  9
$DIMCEN
 40
2.5
  9
$DIMTSZ
 40
0.0
  9
$DIMTOL
 70
     0
  9
$DIMLIM
 70
     0
  9
$DIMTIH
 70
     0
  9
$DIMTOH
 70
     0
  9
$DIMSE1
 70
     0
  9
$DIMSE2
 70
     0
  9
$DIMTAD
 70
     1
  9
$DIMZIN
 70
    10
  9
$DIMBLK
  1

  9
$DIMASO
 70
     0
  9
$DIMSHO
 70
     1
  9
$DIMPOST
  1

  9
$DIMAPOST
  1

  9
$DIMALT
 70
     0
  9
$DIMALTD
 70
     3
  9
$DIMALTF
 40
0.03937007874016
  9
$DIMLFAC
 40
1.0
  9
$DIMTOFL
 70
     1
  9
$DIMTVP
 40
0.0
  9
$DIMTIX
 70
     0
  9
$DIMSOXD
 70
     0
  9
$DIMSAH
 70
     0
  9
$DIMBLK1
  1

  9
$DIMBLK2
  1

  9
$DIMSTYLE
  2
ISO-25
  9
$DIMCLRD
 70
     0
  9
$DIMCLRE
 70
     0
  9
$DIMCLRT
 70
     0
  9
$DIMTFAC
 40
1.0
  9
$DIMGAP
 40
0.625
  9
$LUNITS
 70
     2
  9
$LUPREC
 70
     4
  9
$SKETCHINC
 40
1.0
  9
$FILLETRAD
 40
0.0
  9
$AUNITS
 70
     0
  9
$AUPREC
 70
     0
  9
$MENU
  1
.
  9
$ELEVATION
 40
0.0
  9
$PELEVATION
 40
0.0
  9
$THICKNESS
 40
0.0
  9
$LIMCHECK
 70
     0
  9
$BLIPMODE
 70
     0
  9
$CHAMFERA
 40
0.5
  9
$CHAMFERB
 40
0.5
  9
$SKPOLY
 70
     0
  9
$TDCREATE
 40
2457332.5054629631340504
  9
$TDUPDATE
 40
2460007.4961689808405936
  9
$TDINDWG
 40
1.3586155787
  9
$TDUSRTIMER
 40
1.3586083218
  9
$USRTIMER
 70
     1
  9
$ANGBASE
 50
0.0
  9
$ANGDIR
 70
     0
  9
$PDMODE
 70
     0
  9
$PDSIZE
 40
0.0
  9
$PLINEWID
 40
0.0
  9
$COORDS
 70
     1
  9
$SPLFRAME
 70
     0
  9
$SPLINETYPE
 70
     6
  9
$SPLINESEGS
 70
     8
  9
$ATTDIA
 70
     1
  9
$ATTREQ
 70
     1
  9
$HANDLING
 70
     1
  9
$HANDSEED
  5
89C6
  9
$SURFTAB1
 70
     6
  9
$SURFTAB2
 70
     6
  9
$SURFTYPE
 70
     6
  9
$SURFU
 70
     6
  9
$SURFV
 70
     6
  9
$UCSNAME
  2

  9
$UCSORG
 10
0.0
 20
0.0
 30
0.0
  9
$UCSXDIR
 10
1.0
 20
0.0
 30
0.0
  9
$UCSYDIR
 10
0.0
 20
1.0
 30
0.0
  9
$PUCSNAME
  2

  9
$PUCSORG
 10
0.0
 20
0.0
 30
0.0
  9
$PUCSXDIR
 10
1.0
 20
0.0
 30
0.0
  9
$PUCSYDIR
 10
0.0
 20
1.0
 30
0.0
  9
$USERI1
 70
     0
  9
$USERI2
 70
     0
  9
$USERI3
 70
     0
  9
$USERI4
 70
     0
  9
$USERI5
 70
     0
  9
$USERR1
 40
0.0
  9
$USERR2
 40
0.0
  9
$USERR3
 40
0.0
  9
$USERR4
 40
0.0
  9
$USERR5
 40
0.0
  9
$WORLDVIEW
 70
     1
  9
$SHADEDGE
 70
     3
  9
$SHADEDIF
 70
    70
  9
$TILEMODE
 70
     1
  9
$MAXACTVP
 70
    64
  9
$PLIMCHECK
 70
     0
  9
$PEXTMIN
 10
25.6999999999999886
 20
19.5
 30
0.0
  9
$PEXTMAX
 10
231.3000000000000114
 20
175.5
 30
0.0
  9
$PLIMMIN
 10
-20.0
 20
-7.5
  9
$PLIMMAX
 10
277.0
 20
202.5
  9
$UNITMODE
 70
     0
  9
$VISRETAIN
 70
     1
  9
$PLINEGEN
 70
     0
  9
$PSLTSCALE
 70
     1
  0
ENDSEC
  0
SECTION
  2
TABLES
  0
TABLE
  2
VPORT
 70
     1
  0
VPORT
  2
*ACTIVE
 70
     0
 10
0.0
 20
0.0
 11
1.0
 21
1.0
 12
-160.0992519121525106
 22
-7.2101835888979053
 13
0.0
 23
0.0
 14
10.0
 24
10.0
 15
10.0
 25
10.0
 16
0.0
 26
0.0
 36
1.0
 17
0.0
 27
0.0
 37
0.0
 40
152.6566667702491884
 41
2.2927120669056151
 42
50.0
 43
0.0
 44
0.0
 50
0.0
 51
0.0
 71
     0
 72
 20000
 73
     1
 74
     2
 75
     0
 76
     0
 77
     0
 78
     0
  0
ENDTAB
  0
TABLE
  2
LTYPE
 70
     1
  0
LTYPE
  2
CONTINUOUS
 70
     0
  3
Solid line
 72
    65
 73
     0
 40
0.0
  0
ENDTAB
  0
TABLE
  2
LAYER
 70
    10
  0
LAYER
  2
0
 70
     0
 62
     7
  6
CONTINUOUS
  0
LAYER
  2
DEFPOINTS
 70
     0
 62
     7
  6
CONTINUOUS
  0
LAYER
  2
COS
 70
     0
 62
     4
  6
CONTINUOUS
  0
LAYER
  2
CAP
 70
     0
 62
     4
  6
CONTINUOUS
  0
LAYER
  2
COTES
 70
     0
 62
     2
  6
CONTINUOUS
  0
LAYER
  2
REFER\U+00C8NCIA
 70
     0
 62
     5
  6
CONTINUOUS
  0
LAYER
  2
MAQUINA
 70
     1
 62
     7
  6
CONTINUOUS
  0
LAYER
  2
RESERVA
 70
     0
 62
     7
  6
CONTINUOUS
  0
LAYER
  2
CAIXETI
 70
     0
 62
     7
  6
CONTINUOUS
  0
LAYER
  2
ARISTAS_VISIBLES_ISO_
 70
     0
 62
     7
  6
CONTINUOUS
  0
ENDTAB
  0
TABLE
  2
STYLE
 70
     3
  0
STYLE
  2
STANDARD
 70
     0
 40
0.0
 41
1.0
 50
0.0
 71
     0
 42
2.5
  3
SIMPLEX.SHX
  4

  0
STYLE
  2
STYLE1
 70
     0
 40
0.0
 41
1.0
 50
0.0
 71
     0
 42
6.0
  3
txt
  4

  0
STYLE
  2
SIMPLEX
 70
     0
 40
0.0
 41
1.0
 50
0.0
 71
     0
 42
3.0
  3
SIMPLEX.SHX
  4

  0
ENDTAB
  0
TABLE
  2
VIEW
 70
     0
  0
ENDTAB
  0
TABLE
  2
UCS
 70
     0
  0
ENDTAB
  0
TABLE
  2
APPID
 70
    10
  0
APPID
  2
ACAD
 70
     0
  0
APPID
  2
ACAD_PSEXT
 70
     0
  0
APPID
  2
ACADANNOPO
 70
     0
  0
APPID
  2
ACADANNOTATIVE
 70
     0
  0
APPID
  2
ACAD_DSTYLE_DIMJAG
 70
     0
  0
APPID
  2
ACAD_DSTYLE_DIMTALN
 70
     0
  0
APPID
  2
ACAD_MLEADERVER
 70
     0
  0
APPID
  2
ACAECLAYERSTANDARD
 70
     0
  0
APPID
  2
ACAD_EXEMPT_FROM_CAD_STANDARDS
 70
     0
  0
APPID
  2
ACAD_NAV_VCDISPLAY
 70
     0
  0
ENDTAB
  0
TABLE
  2
DIMSTYLE
 70
     2
  0
DIMSTYLE
  2
ISO-25
 70
     0
  3

  4

  5

  6

  7

 40
1.0
 41
2.5
 42
0.625
 43
3.75
 44
1.25
 45
0.0
 46
0.0
 47
0.0
 48
0.0
140
2.5
141
2.5
142
0.0
143
0.03937007874016
144
1.0
145
0.0
146
1.0
147
0.625
 71
     0
 72
     0
 73
     0
 74
     0
 75
     0
 76
     0
 77
     1
 78
     8
170
     0
171
     3
172
     1
173
     0
174
     0
175
     0
176
     0
177
     0
178
     0
  0
DIMSTYLE
  2
STANDARD
 70
     0
  3

  4

  5

  6

  7

 40
1.0
 41
0.18
 42
0.0625
 43
0.38
 44
0.18
 45
0.0
 46
0.0
 47
0.0
 48
0.0
140
0.18
141
0.09
142
0.0
143
25.3999999999999986
144
1.0
145
0.0
146
1.0
147
0.09
 71
     0
 72
     0
 73
     1
 74
     1
 75
     0
 76
     0
 77
     0
 78
     0
170
     0
171
     2
172
     0
173
     0
174
     0
175
     0
176
     0
177
     0
178
     0
  0
ENDTAB
  0
ENDSEC
  0
SECTION
  2
BLOCKS
  0
BLOCK
  8
0
  2
$MODEL_SPACE
 70
     0
 10
0.0
 20
0.0
 30
0.0
  3
$MODEL_SPACE
  1

  0
ENDBLK
  5
21
  8
0
  0
BLOCK
 67
     1
  8
0
  2
$PAPER_SPACE
 70
     0
 10
0.0
 20
0.0
 30
0.0
  3
$PAPER_SPACE
  1

  0
ENDBLK
  5
D9
 67
     1
  8
0
  0
BLOCK
  8
0
  2
*U1
 70
     1
 10
0.0
 20
0.0
 30
0.0
  3
*U1
  1

  0
TEXT
  5
88DF
  8
COTES
 10
-301.8715542168716865
 20
14.1990230849584194
 30
0.0
 40
2.5
  1
40
 50
90.0000000000000284
  0
ENDBLK
  5
88E1
  8
0
  0
BLOCK
  8
0
  2
*U2
 70
     1
 10
0.0
 20
0.0
 30
0.0
  3
*U2
  1

  0
TEXT
  5
88E3
  8
COTES
 10
-158.5981261082353058
 20
-33.8954221367868627
 30
0.0
 40
2.5
  1
250
  0
ENDBLK
  5
88E5
  8
0
  0
BLOCK
  8
0
  2
*U3
 70
     1
 10
0.0
 20
0.0
 30
0.0
  3
*U3
  1

  0
TEXT
  5
88E7
  8
COTES
 10
-8.3217186504111265
 20
9.1490230849582641
 30
0.0
 40
2.5
  1
50
 50
90.0000000000000284
  0
ENDBLK
  5
88E9
  8
0
  0
ENDSEC
  0
SECTION
  2
ENTITIES
  0
TEXT
  5
8505
  8
REFER\U+00C8NCIA
 10
-187.3907520232280888
 20
-54.2748879040415204
 30
0.0
 40
5.0
  1
PRSCL4040S16
  7
SIMPLEX
 72
     1
 11
-160.1288472613233012
 21
-54.2748879040415204
 31
0.0
  0
LINE
  5
884C
  8
COS
 10
-34.8384455116226874
 20
1.318891704494461
 30
0.0
 11
-35.2179409244061006
 21
1.976197040674718
 31
0.0
  0
POLYLINE
  8
COS
  5
8902
  66
     1
 10
0.00000
 20
0.00000
 30
0.00000
  70
     8
  0
VERTEX
  8
COS
  5
8903
 10
-35.5655
 20
1.62864
 30
0.00000
  70
    32
  0
VERTEX
  8
COS
  5
8904
 10
-35.5627
 20
1.63139
 30
0.00000
  70
    32
  0
VERTEX
  8
COS
  5
8905
 10
-35.5600
 20
1.63415
 30
0.00000
  70
    32
  0
VERTEX
  8
COS
  5
8906
 10
-35.5572
 20
1.63691
 30
0.00000
  70
    32
  0
VERTEX
  8
COS
  5
8907
 10
-35.5545
 20
1.63967
 30
0.00000
  70
    32
  0
VERTEX
  8
COS
  5
8908
 10
-35.5517
 20
1.64243
 30
0.00000
  70
    32
  0
VERTEX
  8
COS
  5
8909
 10
-35.5489
 20
1.64520
 30
0.00000
  70
    32
  0
VERTEX
  8
COS
  5
890A
 10
-35.5462
 20
1.64796
 30
0.00000
  70
    32
  0
VERTEX
  8
COS
  5
890B
 10
-35.5434
 20
1.65073
 30
0.00000
  70
    32
  0
VERTEX
  8
COS
  5
890C
 10
-35.5406
 20
1.65351
 30
0.00000
  70
    32
  0
VERTEX
  8
COS
  5
890D
 10
-35.5379
 20
1.65628
 30
0.00000
  70
    32
  0
VERTEX
  8
COS
  5
890E
 10
-35.5351
 20
1.65905
 30
0.00000
  70
    32
  0
VERTEX
  8
COS
  5
890F
 10
-35.5323
 20
1.66183
 30
0.00000
  70
    32
  0
VERTEX
  8
COS
  5
8910
 10
-35.5295
 20
1.66461
 30
0.00000
  70
    32
  0
VERTEX
  8
COS
  5
8911
 10
-35.5267
 20
1.66739
 30
0.00000
  70
    32
  0
VERTEX
  8
COS
  5
8912
 10
-35.5240
 20
1.67018
 30
0.00000
  70
    32
  0
VERTEX
  8
COS
  5
8913
 10
-35.5212
 20
1.67296
 30
0.00000
  70
    32
  0
VERTEX
  8
COS
  5
8914
 10
-35.5184
 20
1.67575
 30
0.00000
  70
    32
  0
VERTEX
  8
COS
  5
8915
 10
-35.5156
 20
1.67854
 30
0.00000
  70
    32
  0
VERTEX
  8
COS
  5
8916
 10
-35.5128
 20
1.68133
 30
0.00000
  70
    32
  0
VERTEX
  8
COS
  5
8917
 10
-35.5100
 20
1.68413
 30
0.00000
  70
    32
  0
VERTEX
  8
COS
  5
8918
 10
-35.5072
 20
1.68693
 30
0.00000
  70
    32
  0
VERTEX
  8
COS
  5
8919
 10
-35.5044
 20
1.68972
 30
0.00000
  70
    32
  0
VERTEX
  8
COS
  5
891A
 10
-35.5016
 20
1.69253
 30
0.00000
  70
    32
  0
VERTEX
  8
COS
  5
891B
 10
-35.4988
 20
1.69533
 30
0.00000
  70
    32
  0
VERTEX
  8
COS
  5
891C
 10
-35.4960
 20
1.69813
 30
0.00000
  70
    32
  0
VERTEX
  8
COS
  5
891D
 10
-35.4932
 20
1.70094
 30
0.00000
  70
    32
  0
VERTEX
  8
COS
  5
891E
 10
-35.4904
 20
1.70375
 30
0.00000
  70
    32
  0
VERTEX
  8
COS
  5
891F
 10
-35.4876
 20
1.70656
 30
0.00000
  70
    32
  0
VERTEX
  8
COS
  5
8920
 10
-35.4848
 20
1.70938
 30
0.00000
  70
    32
  0
VERTEX
  8
COS
  5
8921
 10
-35.4819
 20
1.71219
 30
0.00000
  70
    32
  0
VERTEX
  8
COS
  5
8922
 10
-35.4791
 20
1.71501
 30
0.00000
  70
    32
  0
VERTEX
  8
COS
  5
8923
 10
-35.4763
 20
1.71783
 30
0.00000
  70
    32
  0
VERTEX
  8
COS
  5
8924
 10
-35.4735
 20
1.72065
 30
0.00000
  70
    32
  0
VERTEX
  8
COS
  5
8925
 10
-35.4707
 20
1.72348
 30
0.00000
  70
    32
  0
VERTEX
  8
COS
  5
8926
 10
-35.4678
 20
1.72630
 30
0.00000
  70
    32
  0
VERTEX
  8
COS
  5
8927
 10
-35.4650
 20
1.72913
 30
0.00000
  70
    32
  0
VERTEX
  8
COS
  5
8928
 10
-35.4622
 20
1.73196
 30
0.00000
  70
    32
  0
VERTEX
  8
COS
  5
8929
 10
-35.4593
 20
1.73480
 30
0.00000
  70
    32
  0
VERTEX
  8
COS
  5
892A
 10
-35.4565
 20
1.73763
 30
0.00000
  70
    32
  0
VERTEX
  8
COS
  5
892B
 10
-35.4537
 20
1.74047
 30
0.00000
  70
    32
  0
VERTEX
  8
COS
  5
892C
 10
-35.4508
 20
1.74331
 30
0.00000
  70
    32
  0
VERTEX
  8
COS
  5
892D
 10
-35.4480
 20
1.74615
 30
0.00000
  70
    32
  0
VERTEX
  8
COS
  5
892E
 10
-35.4451
 20
1.74900
 30
0.00000
  70
    32
  0
VERTEX
  8
COS
  5
892F
 10
-35.4423
 20
1.75184
 30
0.00000
  70
    32
  0
VERTEX
  8
COS
  5
8930
 10
-35.4394
 20
1.75469
 30
0.00000
  70
    32
  0
VERTEX
  8
COS
  5
8931
 10
-35.4366
 20
1.75754
 30
0.00000
  70
    32
  0
VERTEX
  8
COS
  5
8932
 10
-35.4337
 20
1.76039
 30
0.00000
  70
    32
  0
VERTEX
  8
COS
  5
8933
 10
-35.4309
 20
1.76325
 30
0.00000
  70
    32
  0
VERTEX
  8
COS
  5
8934
 10
-35.4280
 20
1.76611
 30
0.00000
  70
    32
  0
VERTEX
  8
COS
  5
8935
 10
-35.4252
 20
1.76897
 30
0.00000
  70
    32
  0
VERTEX
  8
COS
  5
8936
 10
-35.4223
 20
1.77183
 30
0.00000
  70
    32
  0
VERTEX
  8
COS
  5
8937
 10
-35.4194
 20
1.77469
 30
0.00000
  70
    32
  0
VERTEX
  8
COS
  5
8938
 10
-35.4166
 20
1.77756
 30
0.00000
  70
    32
  0
VERTEX
  8
COS
  5
8939
 10
-35.4137
 20
1.78043
 30
0.00000
  70
    32
  0
VERTEX
  8
COS
  5
893A
 10
-35.4108
 20
1.78330
 30
0.00000
  70
    32
  0
VERTEX
  8
COS
  5
893B
 10
-35.4080
 20
1.78617
 30
0.00000
  70
    32
  0
VERTEX
  8
COS
  5
893C
 10
-35.4051
 20
1.78904
 30
0.00000
  70
    32
  0
VERTEX
  8
COS
  5
893D
 10
-35.4022
 20
1.79192
 30
0.00000
  70
    32
  0
VERTEX
  8
COS
  5
893E
 10
-35.3993
 20
1.79480
 30
0.00000
  70
    32
  0
VERTEX
  8
COS
  5
893F
 10
-35.3965
 20
1.79768
 30
0.00000
  70
    32
  0
VERTEX
  8
COS
  5
8940
 10
-35.3936
 20
1.80057
 30
0.00000
  70
    32
  0
VERTEX
  8
COS
  5
8941
 10
-35.3907
 20
1.80345
 30
0.00000
  70
    32
  0
VERTEX
  8
COS
  5
8942
 10
-35.3878
 20
1.80634
 30
0.00000
  70
    32
  0
VERTEX
  8
COS
  5
8943
 10
-35.3849
 20
1.80923
 30
0.00000
  70
    32
  0
VERTEX
  8
COS
  5
8944
 10
-35.3820
 20
1.81212
 30
0.00000
  70
    32
  0
VERTEX
  8
COS
  5
8945
 10
-35.3791
 20
1.81502
 30
0.00000
  70
    32
  0
VERTEX
  8
COS
  5
8946
 10
-35.3762
 20
1.81792
 30
0.00000
  70
    32
  0
VERTEX
  8
COS
  5
8947
 10
-35.3733
 20
1.82082
 30
0.00000
  70
    32
  0
VERTEX
  8
COS
  5
8948
 10
-35.3704
 20
1.82372
 30
0.00000
  70
    32
  0
VERTEX
  8
COS
  5
8949
 10
-35.3675
 20
1.82662
 30
0.00000
  70
    32
  0
VERTEX
  8
COS
  5
894A
 10
-35.3646
 20
1.82953
 30
0.00000
  70
    32
  0
VERTEX
  8
COS
  5
894B
 10
-35.3617
 20
1.83244
 30
0.00000
  70
    32
  0
VERTEX
  8
COS
  5
894C
 10
-35.3588
 20
1.83535
 30
0.00000
  70
    32
  0
VERTEX
  8
COS
  5
894D
 10
-35.3559
 20
1.83826
 30
0.00000
  70
    32
  0
VERTEX
  8
COS
  5
894E
 10
-35.3530
 20
1.84118
 30
0.00000
  70
    32
  0
VERTEX
  8
COS
  5
894F
 10
-35.3500
 20
1.84409
 30
0.00000
  70
    32
  0
VERTEX
  8
COS
  5
8950
 10
-35.3471
 20
1.84701
 30
0.00000
  70
    32
  0
VERTEX
  8
COS
  5
8951
 10
-35.3442
 20
1.84994
 30
0.00000
  70
    32
  0
VERTEX
  8
COS
  5
8952
 10
-35.3413
 20
1.85286
 30
0.00000
  70
    32
  0
VERTEX
  8
COS
  5
8953
 10
-35.3384
 20
1.85579
 30
0.00000
  70
    32
  0
VERTEX
  8
COS
  5
8954
 10
-35.3354
 20
1.85872
 30
0.00000
  70
    32
  0
VERTEX
  8
COS
  5
8955
 10
-35.3325
 20
1.86165
 30
0.00000
  70
    32
  0
VERTEX
  8
COS
  5
8956
 10
-35.3296
 20
1.86458
 30
0.00000
  70
    32
  0
VERTEX
  8
COS
  5
8957
 10
-35.3266
 20
1.86752
 30
0.00000
  70
    32
  0
VERTEX
  8
COS
  5
8958
 10
-35.3237
 20
1.87046
 30
0.00000
  70
    32
  0
VERTEX
  8
COS
  5
8959
 10
-35.3207
 20
1.87340
 30
0.00000
  70
    32
  0
VERTEX
  8
COS
  5
895A
 10
-35.3178
 20
1.87634
 30
0.00000
  70
    32
  0
VERTEX
  8
COS
  5
895B
 10
-35.3149
 20
1.87929
 30
0.00000
  70
    32
  0
VERTEX
  8
COS
  5
895C
 10
-35.3119
 20
1.88223
 30
0.00000
  70
    32
  0
VERTEX
  8
COS
  5
895D
 10
-35.3090
 20
1.88518
 30
0.00000
  70
    32
  0
VERTEX
  8
COS
  5
895E
 10
-35.3060
 20
1.88814
 30
0.00000
  70
    32
  0
VERTEX
  8
COS
  5
895F
 10
-35.3030
 20
1.89109
 30
0.00000
  70
    32
  0
VERTEX
  8
COS
  5
8960
 10
-35.3001
 20
1.89405
 30
0.00000
  70
    32
  0
VERTEX
  8
COS
  5
8961
 10
-35.2971
 20
1.89701
 30
0.00000
  70
    32
  0
VERTEX
  8
COS
  5
8962
 10
-35.2942
 20
1.89997
 30
0.00000
  70
    32
  0
SEQEND
  8
COS
  5
8963
  0
LINE
  5
884E
  8
COS
 10
-35.2179409244061006
 20
1.976197040674718
 30
0.0
 11
-35.2941707261420703
 21
1.8999672389387849
 31
0.0
  0
LINE
  5
884F
  8
COS
 10
-46.1870543542698826
 20
-8.9929163891889061
 30
0.0
 11
-45.5297490180895394
 21
-9.3724118019724152
 31
0.0
  0
LINE
  5
8850
  8
COS
 10
-46.1108245525340266
 20
-8.9166865874531567
 30
0.0
 11
-46.1870543542698826
 21
-8.9929163891889328
 31
0.0
  0
POLYLINE
  8
COS
  5
8964
  66
     1
 10
0.00000
 20
0.00000
 30
0.00000
  70
     8
  0
VERTEX
  8
COS
  5
8965
 10
-46.1108
 20
-8.91669
 30
0.00000
  70
    32
  0
VERTEX
  8
COS
  5
8966
 10
-46.1079
 20
-8.91373
 30
0.00000
  70
    32
  0
VERTEX
  8
COS
  5
8967
 10
-46.1049
 20
-8.91077
 30
0.00000
  70
    32
  0
VERTEX
  8
COS
  5
8968
 10
-46.1019
 20
-8.90781
 30
0.00000
  70
    32
  0
VERTEX
  8
COS
  5
8969
 10
-46.0990
 20
-8.90485
 30
0.00000
  70
    32
  0
VERTEX
  8
COS
  5
896A
 10
-46.0960
 20
-8.90190
 30
0.00000
  70
    32
  0
VERTEX
  8
COS
  5
896B
 10
-46.0931
 20
-8.89895
 30
0.00000
  70
    32
  0
VERTEX
  8
COS
  5
896C
 10
-46.0901
 20
-8.89600
 30
0.00000
  70
    32
  0
VERTEX
  8
COS
  5
896D
 10
-46.0872
 20
-8.89306
 30
0.00000
  70
    32
  0
VERTEX
  8
COS
  5
896E
 10
-46.0843
 20
-8.89012
 30
0.00000
  70
    32
  0
VERTEX
  8
COS
  5
896F
 10
-46.0813
 20
-8.88718
 30
0.00000
  70
    32
  0
VERTEX
  8
COS
  5
8970
 10
-46.0784
 20
-8.88424
 30
0.00000
  70
    32
  0
VERTEX
  8
COS
  5
8971
 10
-46.0754
 20
-8.88130
 30
0.00000
  70
    32
  0
VERTEX
  8
COS
  5
8972
 10
-46.0725
 20
-8.87837
 30
0.00000
  70
    32
  0
VERTEX
  8
COS
  5
8973
 10
-46.0696
 20
-8.87544
 30
0.00000
  70
    32
  0
VERTEX
  8
COS
  5
8974
 10
-46.0666
 20
-8.87251
 30
0.00000
  70
    32
  0
VERTEX
  8
COS
  5
8975
 10
-46.0637
 20
-8.86958
 30
0.00000
  70
    32
  0
VERTEX
  8
COS
  5
8976
 10
-46.0608
 20
-8.86666
 30
0.00000
  70
    32
  0
VERTEX
  8
COS
  5
8977
 10
-46.0579
 20
-8.86373
 30
0.00000
  70
    32
  0
VERTEX
  8
COS
  5
8978
 10
-46.0550
 20
-8.86081
 30
0.00000
  70
    32
  0
VERTEX
  8
COS
  5
8979
 10
-46.0520
 20
-8.85790
 30
0.00000
  70
    32
  0
VERTEX
  8
COS
  5
897A
 10
-46.0491
 20
-8.85498
 30
0.00000
  70
    32
  0
VERTEX
  8
COS
  5
897B
 10
-46.0462
 20
-8.85207
 30
0.00000
  70
    32
  0
VERTEX
  8
COS
  5
897C
 10
-46.0433
 20
-8.84916
 30
0.00000
  70
    32
  0
VERTEX
  8
COS
  5
897D
 10
-46.0404
 20
-8.84625
 30
0.00000
  70
    32
  0
VERTEX
  8
COS
  5
897E
 10
-46.0375
 20
-8.84334
 30
0.00000
  70
    32
  0
VERTEX
  8
COS
  5
897F
 10
-46.0346
 20
-8.84044
 30
0.00000
  70
    32
  0
VERTEX
  8
COS
  5
8980
 10
-46.0317
 20
-8.83754
 30
0.00000
  70
    32
  0
VERTEX
  8
COS
  5
8981
 10
-46.0288
 20
-8.83464
 30
0.00000
  70
    32
  0
VERTEX
  8
COS
  5
8982
 10
-46.0259
 20
-8.83174
 30
0.00000
  70
    32
  0
VERTEX
  8
COS
  5
8983
 10
-46.0230
 20
-8.82884
 30
0.00000
  70
    32
  0
VERTEX
  8
COS
  5
8984
 10
-46.0201
 20
-8.82595
 30
0.00000
  70
    32
  0
VERTEX
  8
COS
  5
8985
 10
-46.0172
 20
-8.82306
 30
0.00000
  70
    32
  0
VERTEX
  8
COS
  5
8986
 10
-46.0143
 20
-8.82017
 30
0.00000
  70
    32
  0
VERTEX
  8
COS
  5
8987
 10
-46.0114
 20
-8.81729
 30
0.00000
  70
    32
  0
VERTEX
  8
COS
  5
8988
 10
-46.0085
 20
-8.81440
 30
0.00000
  70
    32
  0
VERTEX
  8
COS
  5
8989
 10
-46.0057
 20
-8.81152
 30
0.00000
  70
    32
  0
VERTEX
  8
COS
  5
898A
 10
-46.0028
 20
-8.80864
 30
0.00000
  70
    32
  0
VERTEX
  8
COS
  5
898B
 10
-45.9999
 20
-8.80576
 30
0.00000
  70
    32
  0
VERTEX
  8
COS
  5
898C
 10
-45.9970
 20
-8.80289
 30
0.00000
  70
    32
  0
VERTEX
  8
COS
  5
898D
 10
-45.9942
 20
-8.80002
 30
0.00000
  70
    32
  0
VERTEX
  8
COS
  5
898E
 10
-45.9913
 20
-8.79714
 30
0.00000
  70
    32
  0
VERTEX
  8
COS
  5
898F
 10
-45.9884
 20
-8.79428
 30
0.00000
  70
    32
  0
VERTEX
  8
COS
  5
8990
 10
-45.9855
 20
-8.79141
 30
0.00000
  70
    32
  0
VERTEX
  8
COS
  5
8991
 10
-45.9827
 20
-8.78855
 30
0.00000
  70
    32
  0
VERTEX
  8
COS
  5
8992
 10
-45.9798
 20
-8.78568
 30
0.00000
  70
    32
  0
VERTEX
  8
COS
  5
8993
 10
-45.9770
 20
-8.78283
 30
0.00000
  70
    32
  0
VERTEX
  8
COS
  5
8994
 10
-45.9741
 20
-8.77997
 30
0.00000
  70
    32
  0
VERTEX
  8
COS
  5
8995
 10
-45.9713
 20
-8.77711
 30
0.00000
  70
    32
  0
VERTEX
  8
COS
  5
8996
 10
-45.9684
 20
-8.77426
 30
0.00000
  70
    32
  0
VERTEX
  8
COS
  5
8997
 10
-45.9655
 20
-8.77141
 30
0.00000
  70
    32
  0
VERTEX
  8
COS
  5
8998
 10
-45.9627
 20
-8.76856
 30
0.00000
  70
    32
  0
VERTEX
  8
COS
  5
8999
 10
-45.9599
 20
-8.76571
 30
0.00000
  70
    32
  0
VERTEX
  8
COS
  5
899A
 10
-45.9570
 20
-8.76287
 30
0.00000
  70
    32
  0
VERTEX
  8
COS
  5
899B
 10
-45.9542
 20
-8.76003
 30
0.00000
  70
    32
  0
VERTEX
  8
COS
  5
899C
 10
-45.9513
 20
-8.75719
 30
0.00000
  70
    32
  0
VERTEX
  8
COS
  5
899D
 10
-45.9485
 20
-8.75435
 30
0.00000
  70
    32
  0
VERTEX
  8
COS
  5
899E
 10
-45.9457
 20
-8.75152
 30
0.00000
  70
    32
  0
VERTEX
  8
COS
  5
899F
 10
-45.9428
 20
-8.74868
 30
0.00000
  70
    32
  0
VERTEX
  8
COS
  5
89A0
 10
-45.9400
 20
-8.74585
 30
0.00000
  70
    32
  0
VERTEX
  8
COS
  5
89A1
 10
-45.9372
 20
-8.74302
 30
0.00000
  70
    32
  0
VERTEX
  8
COS
  5
89A2
 10
-45.9343
 20
-8.74020
 30
0.00000
  70
    32
  0
VERTEX
  8
COS
  5
89A3
 10
-45.9315
 20
-8.73737
 30
0.00000
  70
    32
  0
VERTEX
  8
COS
  5
89A4
 10
-45.9287
 20
-8.73455
 30
0.00000
  70
    32
  0
VERTEX
  8
COS
  5
89A5
 10
-45.9259
 20
-8.73173
 30
0.00000
  70
    32
  0
VERTEX
  8
COS
  5
89A6
 10
-45.9230
 20
-8.72891
 30
0.00000
  70
    32
  0
VERTEX
  8
COS
  5
89A7
 10
-45.9202
 20
-8.72609
 30
0.00000
  70
    32
  0
VERTEX
  8
COS
  5
89A8
 10
-45.9174
 20
-8.72328
 30
0.00000
  70
    32
  0
VERTEX
  8
COS
  5
89A9
 10
-45.9146
 20
-8.72047
 30
0.00000
  70
    32
  0
VERTEX
  8
COS
  5
89AA
 10
-45.9118
 20
-8.71766
 30
0.00000
  70
    32
  0
VERTEX
  8
COS
  5
89AB
 10
-45.9090
 20
-8.71485
 30
0.00000
  70
    32
  0
VERTEX
  8
COS
  5
89AC
 10
-45.9062
 20
-8.71205
 30
0.00000
  70
    32
  0
VERTEX
  8
COS
  5
89AD
 10
-45.9034
 20
-8.70924
 30
0.00000
  70
    32
  0
VERTEX
  8
COS
  5
89AE
 10
-45.9006
 20
-8.70644
 30
0.00000
  70
    32
  0
VERTEX
  8
COS
  5
89AF
 10
-45.8978
 20
-8.70364
 30
0.00000
  70
    32
  0
VERTEX
  8
COS
  5
89B0
 10
-45.8950
 20
-8.70085
 30
0.00000
  70
    32
  0
VERTEX
  8
COS
  5
89B1
 10
-45.8922
 20
-8.69805
 30
0.00000
  70
    32
  0
VERTEX
  8
COS
  5
89B2
 10
-45.8894
 20
-8.69526
 30
0.00000
  70
    32
  0
VERTEX
  8
COS
  5
89B3
 10
-45.8866
 20
-8.69247
 30
0.00000
  70
    32
  0
VERTEX
  8
COS
  5
89B4
 10
-45.8838
 20
-8.68968
 30
0.00000
  70
    32
  0
VERTEX
  8
COS
  5
89B5
 10
-45.8810
 20
-8.68690
 30
0.00000
  70
    32
  0
VERTEX
  8
COS
  5
89B6
 10
-45.8783
 20
-8.68411
 30
0.00000
  70
    32
  0
VERTEX
  8
COS
  5
89B7
 10
-45.8755
 20
-8.68133
 30
0.00000
  70
    32
  0
VERTEX
  8
COS
  5
89B8
 10
-45.8727
 20
-8.67855
 30
0.00000
  70
    32
  0
VERTEX
  8
COS
  5
89B9
 10
-45.8699
 20
-8.67577
 30
0.00000
  70
    32
  0
VERTEX
  8
COS
  5
89BA
 10
-45.8671
 20
-8.67300
 30
0.00000
  70
    32
  0
VERTEX
  8
COS
  5
89BB
 10
-45.8644
 20
-8.67022
 30
0.00000
  70
    32
  0
VERTEX
  8
COS
  5
89BC
 10
-45.8616
 20
-8.66745
 30
0.00000
  70
    32
  0
VERTEX
  8
COS
  5
89BD
 10
-45.8588
 20
-8.66468
 30
0.00000
  70
    32
  0
VERTEX
  8
COS
  5
89BE
 10
-45.8561
 20
-8.66192
 30
0.00000
  70
    32
  0
VERTEX
  8
COS
  5
89BF
 10
-45.8533
 20
-8.65915
 30
0.00000
  70
    32
  0
VERTEX
  8
COS
  5
89C0
 10
-45.8505
 20
-8.65639
 30
0.00000
  70
    32
  0
VERTEX
  8
COS
  5
89C1
 10
-45.8478
 20
-8.65363
 30
0.00000
  70
    32
  0
VERTEX
  8
COS
  5
89C2
 10
-45.8450
 20
-8.65087
 30
0.00000
  70
    32
  0
VERTEX
  8
COS
  5
89C3
 10
-45.8423
 20
-8.64811
 30
0.00000
  70
    32
  0
VERTEX
  8
COS
  5
89C4
 10
-45.8395
 20
-8.64536
 30
0.00000
  70
    32
  0
SEQEND
  8
COS
  5
89C5
  0
ARC
  5
8852
  8
COS
 10
-38.3336899223632486
 20
-5.8771673912323763
 30
0.0
 40
8.3500000000000103
 50
68.6530679085448128
 51
201.3469320914551872
  0
CIRCLE
  5
8853
  8
COS
 10
-50.5666372368904007
 20
6.355779923294933
 30
0.0
 40
3.0999999999999912
  0
LINE
  5
8856
  8
COS
 10
-54.9902451884838612
 20
36.2228326087679591
 30
0.0
 11
-35.2179409244061006
 21
1.976197040674718
 31
0.0
  0
LINE
  5
8857
  8
COS
 10
-46.1870543542698826
 20
-8.9929163891889328
 30
0.0
 11
-50.4933779265016867
 21
-6.5066593155432733
 31
0.0
  0
ARC
  5
8858
  8
COS
 10
-60.4933779265017719
 20
-23.8271673912325213
 30
0.0
 40
20.0000000000002203
 50
60.0
 51
90.0
  0
LINE
  5
8859
  8
COS
 10
-60.4933779265016867
 20
-3.8271673912320381
 30
0.0
 11
-77.9202924627415427
 21
-3.8271673912320381
 31
0.0
  0
LINE
  5
885A
  8
COS
 10
-77.9202924627415427
 20
-3.8271673912320381
 30
0.0
 11
-77.9336899223630866
 21
-3.77716739123204
 31
0.0
  0
LINE
  5
885B
  8
COS
 10
-77.9336899223630866
 20
-3.77716739123204
 30
0.0
 11
-280.4336899223632145
 21
-3.77716739123204
 31
0.0
  0
LINE
  5
885C
  8
COS
 10
-280.4336899223632145
 20
-3.77716739123204
 30
0.0
 11
-280.4336899223632145
 21
36.2228326087679591
 31
0.0
  0
LINE
  5
885D
  8
COS
 10
-280.4336899223632145
 20
36.2228326087679591
 30
0.0
 11
-54.9902451884838612
 21
36.2228326087679591
 31
0.0
  0
CIRCLE
  5
885F
  8
COS
 10
-38.3336899223631775
 20
-5.8771673912323177
 30
0.0
 40
3.101923788646666
  0
CIRCLE
  5
8860
  8
COS
 10
-38.3336899223631775
 20
-5.8771673912323177
 30
0.0
 40
7.999999999999968
  0
LINE
  5
886E
  8
COTES
 10
-281.4336899223632145
 20
36.2228326087679591
 30
0.0
 11
-301.163874812780989
 21
36.222832608767952
 31
0.0
  0
LINE
  5
886F
  8
COTES
 10
-281.4336899223632145
 20
-3.77716739123204
 30
0.0
 11
-301.163874812780989
 21
-3.7771673912320471
 31
0.0
  0
LINE
  5
8870
  8
COTES
 10
-300.1638748127811027
 20
33.722832608767952
 30
0.0
 11
-300.1638748127811027
 21
-1.2771673912320449
 31
0.0
  0
SOLID
  5
8871
  8
COTES
 10
-299.7472081461144171
 20
33.722832608767952
 30
0.0
 11
-300.5805414794476746
 21
33.722832608767952
 31
0.0
 12
-300.1638748127811027
 22
36.222832608767952
 32
0.0
 13
-300.1638748127811027
 23
36.222832608767952
 33
0.0
  0
SOLID
  5
8872
  8
COTES
 10
-299.7472081461144171
 20
-1.2771673912320449
 30
0.0
 11
-300.5805414794476746
 21
-1.2771673912320449
 31
0.0
 12
-300.1638748127811027
 22
-3.7771673912320458
 32
0.0
 13
-300.1638748127811027
 23
-3.7771673912320458
 33
0.0
  0
INSERT
  5
8873
  8
COTES
  2
*U1
 10
0.0
 20
0.0
 30
0.0
  0
LINE
  5
8874
  8
COTES
 10
-280.4336899223632145
 20
-4.77716739123204
 30
0.0
 11
-280.4336899223632145
 21
-35.5204221367868627
 31
0.0
  0
LINE
  5
8875
  8
COTES
 10
-30.3339908655361192
 20
-6.9465575937079027
 30
0.0
 11
-30.3339908655361192
 21
-35.5204221367868627
 31
0.0
  0
LINE
  5
8876
  8
COTES
 10
-277.9336899223632145
 20
-34.5204221367868627
 30
0.0
 11
-32.8339908655361228
 21
-34.5204221367868627
 31
0.0
  0
SOLID
  5
8877
  8
COTES
 10
-277.9336899223632145
 20
-34.1037554701201984
 30
0.0
 11
-277.9336899223632145
 21
-34.9370888034535412
 31
0.0
 12
-280.4336899223632145
 22
-34.5204221367868627
 32
0.0
 13
-280.4336899223632145
 23
-34.5204221367868627
 33
0.0
  0
SOLID
  5
8878
  8
COTES
 10
-32.8339908655361228
 20
-34.1037554701201984
 30
0.0
 11
-32.8339908655361228
 21
-34.9370888034535412
 31
0.0
 12
-30.3339908655361192
 22
-34.5204221367868627
 32
0.0
 13
-30.3339908655361192
 23
-34.5204221367868627
 33
0.0
  0
INSERT
  5
8879
  8
COTES
  2
*U2
 10
0.0
 20
0.0
 30
0.0
  0
LINE
  5
887A
  8
COTES
 10
-53.9902451884838683
 20
36.2228326087679591
 30
0.0
 11
-5.6140392463204867
 21
36.2228326087679733
 31
0.0
  0
LINE
  5
887B
  8
COTES
 10
-37.3336899223631775
 20
-13.8771673912322893
 30
0.0
 11
-5.6140392463204867
 21
-13.8771673912322804
 31
0.0
  0
LINE
  5
887C
  8
COTES
 10
-6.6140392463204867
 20
33.7228326087679733
 30
0.0
 11
-6.6140392463204867
 21
-11.3771673912322804
 31
0.0
  0
SOLID
  5
887D
  8
COTES
 10
-6.1973725796538011
 20
33.7228326087679733
 30
0.0
 11
-7.0307059129871723
 21
33.7228326087679733
 31
0.0
 12
-6.6140392463204867
 22
36.2228326087679733
 32
0.0
 13
-6.6140392463204867
 23
36.2228326087679733
 33
0.0
  0
SOLID
  5
887E
  8
COTES
 10
-6.1973725796538011
 20
-11.3771673912322804
 30
0.0
 11
-7.0307059129871723
 21
-11.3771673912322804
 31
0.0
 12
-6.6140392463204867
 22
-13.8771673912322804
 32
0.0
 13
-6.6140392463204867
 23
-13.8771673912322804
 33
0.0
  0
INSERT
  5
887F
  8
COTES
  2
*U3
 10
0.0
 20
0.0
 30
0.0
  0
VIEWPORT
  5
2F8F
 67
     1
  8
0
 10
128.5
 20
97.5
 30
0.0
 40
355.6624869109946872
 41
222.1800000000000068
 68
     1
 69
     1
1001
ACAD
1000
MVIEW
1002
{
1070
    16
1010
0.0
1020
0.0
1030
0.0
1010
0.0
1020
0.0
1030
1.0
1040
0.0
1040
222.1800000000000068
1040
128.5
1040
97.5
1040
50.0
1040
0.0
1040
0.0
1070
     0
1070
  1000
1070
     1
1070
     1
1070
     0
1070
     0
1070
     0
1070
     0
1040
0.0
1040
0.0
1040
0.0
1040
10.0
1040
10.0
1040
10.0
1040
10.0
1070
     0
1002
{
1002
}
1002
}
  0
VIEWPORT
  5
2F93
 67
     1
  8
COTES
 10
128.5
 20
97.5
 30
0.0
 40
205.5999999999999943
 41
156.0
 68
     2
 69
     2
1001
ACAD
1000
MVIEW
1002
{
1070
    16
1010
0.0
1020
0.0
1030
0.0
1010
0.0
1020
0.0
1030
1.0
1040
0.0
1040
233.4971795724864876
1040
21739.342280751629005
1040
-1809.738570137672923
1040
50.0
1040
0.0
1040
0.0
1070
     0
1070
  1000
1070
     1
1070
     3
1070
     0
1070
     0
1070
     0
1070
     0
1040
0.0
1040
0.0
1040
0.0
1040
10.0
1040
10.0
1040
10.0
1040
10.0
1070
     0
1002
{
1002
}
1002
}
  0
ENDSEC
  0
EOF
