  0
SECTION
  2
HEADER
  9
$ACADVER
  1
AC1018
  9
$ACADMAINTVER
 70
   104
  9
$DWGCODEPAGE
  3
ANSI_1250
  9
$LASTSAVEDBY
  1
pp0701
  9
$INSBASE
 10
0.0
 20
0.0
 30
0.0
  9
$EXTMIN
 10
189.1981753333333
 20
218.1135816666667
 30
0.0
  9
$EXTMAX
 10
344.67439
 20
281.2346466666667
 30
0.0
  9
$LIMMIN
 10
-0.5
 20
-0.5
  9
$LIMMAX
 10
5.0
 20
5.0
  9
$ORTHOMODE
 70
     0
  9
$REGENMODE
 70
     1
  9
$FILLMODE
 70
     1
  9
$QTEXTMODE
 70
     0
  9
$MIRRTEXT
 70
     1
  9
$LTSCALE
 40
1.0
  9
$ATTMODE
 70
     1
  9
$TEXTSIZE
 40
0.2
  9
$TRACEWID
 40
0.05
  9
$TEXTSTYLE
  7
Standard
  9
$CLAYER
  8
0
  9
$CELTYPE
  6
ByLayer
  9
$CECOLOR
 62
   256
  9
$CELTSCALE
 40
1.0
  9
$DISPSILH
 70
     0
  9
$DIMSCALE
 40
1.0
  9
$DIMASZ
 40
0.18
  9
$DIMEXO
 40
0.0625
  9
$DIMDLI
 40
0.38
  9
$DIMRND
 40
0.0
  9
$DIMDLE
 40
0.0
  9
$DIMEXE
 40
0.18
  9
$DIMTP
 40
0.0
  9
$DIMTM
 40
0.0
  9
$DIMTXT
 40
0.18
  9
$DIMCEN
 40
0.09
  9
$DIMTSZ
 40
0.0
  9
$DIMTOL
 70
     0
  9
$DIMLIM
 70
     0
  9
$DIMTIH
 70
     1
  9
$DIMTOH
 70
     1
  9
$DIMSE1
 70
     0
  9
$DIMSE2
 70
     0
  9
$DIMTAD
 70
     0
  9
$DIMZIN
 70
     0
  9
$DIMBLK
  1

  9
$DIMASO
 70
     1
  9
$DIMSHO
 70
     1
  9
$DIMPOST
  1

  9
$DIMAPOST
  1

  9
$DIMALT
 70
     0
  9
$DIMALTD
 70
     2
  9
$DIMALTF
 40
25.4
  9
$DIMLFAC
 40
1.0
  9
$DIMTOFL
 70
     0
  9
$DIMTVP
 40
0.0
  9
$DIMTIX
 70
     0
  9
$DIMSOXD
 70
     0
  9
$DIMSAH
 70
     0
  9
$DIMBLK1
  1

  9
$DIMBLK2
  1

  9
$DIMSTYLE
  2
Standard
  9
$DIMCLRD
 70
     0
  9
$DIMCLRE
 70
     0
  9
$DIMCLRT
 70
     0
  9
$DIMTFAC
 40
1.0
  9
$DIMGAP
 40
0.09
  9
$DIMJUST
 70
     0
  9
$DIMSD1
 70
     0
  9
$DIMSD2
 70
     0
  9
$DIMTOLJ
 70
     1
  9
$DIMTZIN
 70
     0
  9
$DIMALTZ
 70
     0
  9
$DIMALTTZ
 70
     0
  9
$DIMUPT
 70
     0
  9
$DIMDEC
 70
     4
  9
$DIMTDEC
 70
     4
  9
$DIMALTU
 70
     2
  9
$DIMALTTD
 70
     2
  9
$DIMTXSTY
  7
Standard
  9
$DIMAUNIT
 70
     0
  9
$DIMADEC
 70
     0
  9
$DIMALTRND
 40
0.0
  9
$DIMAZIN
 70
     0
  9
$DIMDSEP
 70
    46
  9
$DIMATFIT
 70
     3
  9
$DIMFRAC
 70
     0
  9
$DIMLDRBLK
  1

  9
$DIMLUNIT
 70
     2
  9
$DIMLWD
 70
    -2
  9
$DIMLWE
 70
    -2
  9
$DIMTMOVE
 70
     0
  9
$LUNITS
 70
     2
  9
$LUPREC
 70
     4
  9
$SKETCHINC
 40
0.1
  9
$FILLETRAD
 40
0.5
  9
$AUNITS
 70
     0
  9
$AUPREC
 70
     0
  9
$MENU
  1
.
  9
$ELEVATION
 40
0.0
  9
$PELEVATION
 40
0.0
  9
$THICKNESS
 40
0.0
  9
$LIMCHECK
 70
     0
  9
$CHAMFERA
 40
0.0
  9
$CHAMFERB
 40
0.0
  9
$CHAMFERC
 40
0.0
  9
$CHAMFERD
 40
0.0
  9
$SKPOLY
 70
     0
  9
$TDCREATE
 40
2458876.513043982
  9
$TDUCREATE
 40
2458876.471387430
  9
$TDUPDATE
 40
2458876.518645833
  9
$TDUUPDATE
 40
2458876.476979167
  9
$TDINDWG
 40
0.0030671412
  9
$TDUSRTIMER
 40
0.0030671412
  9
$USRTIMER
 70
     1
  9
$ANGBASE
 50
0.0
  9
$ANGDIR
 70
     0
  9
$PDMODE
 70
     0
  9
$PDSIZE
 40
0.0
  9
$PLINEWID
 40
0.0
  9
$SPLFRAME
 70
     0
  9
$SPLINETYPE
 70
     6
  9
$SPLINESEGS
 70
     8
  9
$HANDSEED
  5
3ED
  9
$SURFTAB1
 70
     6
  9
$SURFTAB2
 70
     6
  9
$SURFTYPE
 70
     6
  9
$SURFU
 70
     6
  9
$SURFV
 70
     6
  9
$UCSBASE
  2

  9
$UCSNAME
  2

  9
$UCSORG
 10
237.144248
 20
243.731161
 30
0.0
  9
$UCSXDIR
 10
1.0
 20
0.0
 30
0.0
  9
$UCSYDIR
 10
0.0
 20
1.0
 30
0.0
  9
$UCSORTHOREF
  2

  9
$UCSORTHOVIEW
 70
     0
  9
$UCSORGTOP
 10
0.0
 20
0.0
 30
0.0
  9
$UCSORGBOTTOM
 10
0.0
 20
0.0
 30
0.0
  9
$UCSORGLEFT
 10
0.0
 20
0.0
 30
0.0
  9
$UCSORGRIGHT
 10
0.0
 20
0.0
 30
0.0
  9
$UCSORGFRONT
 10
0.0
 20
0.0
 30
0.0
  9
$UCSORGBACK
 10
0.0
 20
0.0
 30
0.0
  9
$PUCSBASE
  2

  9
$PUCSNAME
  2

  9
$PUCSORG
 10
0.0
 20
0.0
 30
0.0
  9
$PUCSXDIR
 10
1.0
 20
0.0
 30
0.0
  9
$PUCSYDIR
 10
0.0
 20
1.0
 30
0.0
  9
$PUCSORTHOREF
  2

  9
$PUCSORTHOVIEW
 70
     0
  9
$PUCSORGTOP
 10
0.0
 20
0.0
 30
0.0
  9
$PUCSORGBOTTOM
 10
0.0
 20
0.0
 30
0.0
  9
$PUCSORGLEFT
 10
0.0
 20
0.0
 30
0.0
  9
$PUCSORGRIGHT
 10
0.0
 20
0.0
 30
0.0
  9
$PUCSORGFRONT
 10
0.0
 20
0.0
 30
0.0
  9
$PUCSORGBACK
 10
0.0
 20
0.0
 30
0.0
  9
$USERI1
 70
     0
  9
$USERI2
 70
     0
  9
$USERI3
 70
     0
  9
$USERI4
 70
     0
  9
$USERI5
 70
     0
  9
$USERR1
 40
0.0
  9
$USERR2
 40
0.0
  9
$USERR3
 40
0.0
  9
$USERR4
 40
0.0
  9
$USERR5
 40
0.0
  9
$WORLDVIEW
 70
     1
  9
$SHADEDGE
 70
     3
  9
$SHADEDIF
 70
    70
  9
$TILEMODE
 70
     1
  9
$MAXACTVP
 70
    64
  9
$PINSBASE
 10
0.0
 20
0.0
 30
0.0
  9
$PLIMCHECK
 70
     0
  9
$PEXTMIN
 10
-0.5
 20
-0.5
 30
-0.5
  9
$PEXTMAX
 10
5.0
 20
5.0
 30
5.0
  9
$PLIMMIN
 10
-0.5
 20
-0.5
  9
$PLIMMAX
 10
5.0
 20
5.0
  9
$UNITMODE
 70
     0
  9
$VISRETAIN
 70
     1
  9
$PLINEGEN
 70
     0
  9
$PSLTSCALE
 70
     1
  9
$TREEDEPTH
 70
  3020
  9
$CMLSTYLE
  2
Standard
  9
$CMLJUST
 70
     0
  9
$CMLSCALE
 40
1.0
  9
$PROXYGRAPHICS
 70
     1
  9
$MEASUREMENT
 70
     1
  9
$CELWEIGHT
370
    13
  9
$ENDCAPS
280
     0
  9
$JOINSTYLE
280
     0
  9
$LWDISPLAY
290
     0
  9
$INSUNITS
 70
     4
  9
$HYPERLINKBASE
  1

  9
$STYLESHEET
  1

  9
$XEDIT
290
     1
  9
$CEPSNTYPE
380
     0
  9
$PSTYLEMODE
290
     1
  9
$FINGERPRINTGUID
  2
{A1BA4CA2-BCDC-40F4-84F7-CEEFBE9D6A3E}
  9
$VERSIONGUID
  2
{13413D86-8105-DE43-9170-244515C26BAC}
  9
$EXTNAMES
290
     1
  9
$PSVPSCALE
 40
0.0
  9
$OLESTARTUP
290
     0
  9
$SORTENTS
280
   127
  9
$INDEXCTL
280
     0
  9
$HIDETEXT
280
     1
  9
$XCLIPFRAME
290
     0
  9
$HALOGAP
280
     0
  9
$OBSCOLOR
 70
   257
  9
$OBSLTYPE
280
     0
  9
$INTERSECTIONDISPLAY
280
     0
  9
$INTERSECTIONCOLOR
 70
   257
  9
$DIMASSOC
280
     2
  9
$PROJECTNAME
  1

  0
ENDSEC
  0
SECTION
  2
CLASSES
  0
CLASS
  1
ACDBDICTIONARYWDFLT
  2
AcDbDictionaryWithDefault
  3
ObjectDBX Classes
 90
        0
 91
        1
280
     0
281
     0
  0
CLASS
  1
VISUALSTYLE
  2
AcDbVisualStyle
  3
ObjectDBX Classes
 90
     4095
 91
       24
280
     0
281
     0
  0
CLASS
  1
MATERIAL
  2
AcDbMaterial
  3
ObjectDBX Classes
 90
     1153
 91
        3
280
     0
281
     0
  0
CLASS
  1
SCALE
  2
AcDbScale
  3
ObjectDBX Classes
 90
     1153
 91
       33
280
     0
281
     0
  0
CLASS
  1
TABLESTYLE
  2
AcDbTableStyle
  3
ObjectDBX Classes
 90
     4095
 91
        1
280
     0
281
     0
  0
CLASS
  1
MLEADERSTYLE
  2
AcDbMLeaderStyle
  3
ACDB_MLEADERSTYLE_CLASS
 90
     4095
 91
        1
280
     0
281
     0
  0
CLASS
  1
SUN
  2
AcDbSun
  3
SCENEOE
 90
     1153
 91
        0
280
     0
281
     0
  0
CLASS
  1
IMAGEDEF
  2
AcDbRasterImageDef
  3
ISM
 90
        0
 91
        1
280
     0
281
     0
  0
CLASS
  1
IMAGE
  2
AcDbRasterImage
  3
ISM
 90
     2175
 91
        1
280
     0
281
     1
  0
CLASS
  1
IMAGEDEF_REACTOR
  2
AcDbRasterImageDefReactor
  3
ISM
 90
        1
 91
        1
280
     0
281
     0
  0
CLASS
  1
DIMASSOC
  2
AcDbDimAssoc
  3
"AcDbDimAssoc|Product Desc:     AcDim ARX App For Dimension|Company:          Autodesk, Inc.|WEB Address:      www.autodesk.com"
 90
        0
 91
        6
280
     0
281
     0
  0
CLASS
  1
DICTIONARYVAR
  2
AcDbDictionaryVar
  3
ObjectDBX Classes
 90
        0
 91
        8
280
     0
281
     0
  0
CLASS
  1
CELLSTYLEMAP
  2
AcDbCellStyleMap
  3
ObjectDBX Classes
 90
     1152
 91
        2
280
     0
281
     0
  0
CLASS
  1
ACDBSECTIONVIEWSTYLE
  2
AcDbSectionViewStyle
  3
ObjectDBX Classes
 90
     1025
 91
        1
280
     0
281
     0
  0
CLASS
  1
ACDBDETAILVIEWSTYLE
  2
AcDbDetailViewStyle
  3
ObjectDBX Classes
 90
     1025
 91
        1
280
     0
281
     0
  0
CLASS
  1
RASTERVARIABLES
  2
AcDbRasterVariables
  3
ISM
 90
        0
 91
        1
280
     0
281
     0
  0
CLASS
  1
SORTENTSTABLE
  2
AcDbSortentsTable
  3
ObjectDBX Classes
 90
        0
 91
        1
280
     0
281
     0
  0
ENDSEC
  0
SECTION
  2
TABLES
  0
TABLE
  2
VPORT
  5
8
330
0
100
AcDbSymbolTable
 70
    16
  0
VPORT
  5
29
330
8
100
AcDbSymbolTableRecord
100
AcDbViewportTableRecord
  2
*Active
 70
     0
 10
0.0
 20
0.0
 11
1.0
 21
1.0
 12
292.6304444903484
 22
232.5314035730241
 13
0.0
 23
0.0
 14
0.5
 24
0.5
 15
0.5
 25
0.5
 16
0.0
 26
0.0
 36
1.0
 17
0.0
 27
0.0
 37
0.0
 40
130.927186756158
 41
2.188141391106043
 42
50.0
 43
736.352931
 44
-736.352931
 50
0.0
 51
0.0
 71
     0
 72
   100
 73
     1
 74
     3
 75
     0
 76
     0
 77
     0
 78
     0
281
     0
 65
     1
110
237.144248
120
243.731161
130
0.0
111
1.0
121
0.0
131
0.0
112
0.0
122
1.0
132
0.0
 79
     0
146
0.0
1001
ACAD_NAV_VCDISPLAY
1070
     3
  0
VPORT
  5
1A0
330
8
100
AcDbSymbolTableRecord
100
AcDbViewportTableRecord
  2
L1
 70
     0
 10
0.0
 20
0.0
 11
1.0
 21
1.0
 12
387.834203
 22
151.323965
 13
0.0
 23
0.0
 14
0.5
 24
0.5
 15
0.5
 25
0.5
 16
0.0
 26
0.0
 36
1.0
 17
0.0
 27
0.0
 37
0.0
 40
207.433333
 41
0.085602
 42
50.0
 43
736.352931
 44
-736.352931
 50
0.0
 51
0.0
 71
     0
 72
   100
 73
     1
 74
     3
 75
     0
 76
     0
 77
     0
 78
     0
281
     0
 65
     1
110
0.0
120
0.0
130
0.0
111
1.0
121
0.0
131
0.0
112
0.0
122
1.0
132
0.0
 79
     0
146
0.0
  0
VPORT
  5
1A1
330
8
100
AcDbSymbolTableRecord
100
AcDbViewportTableRecord
  2
L2
 70
     0
 10
0.0
 20
0.0
 11
0.5
 21
1.0
 12
0.0
 22
0.0
 13
0.0
 23
0.0
 14
0.5
 24
0.5
 15
0.5
 25
0.5
 16
0.0
 26
-1.0
 36
0.0
 17
0.0
 27
0.0
 37
0.0
 40
1478.660809
 41
0.012009
 42
50.0
 43
765.39502
 44
-765.39502
 50
0.0
 51
0.0
 71
     0
 72
   100
 73
     1
 74
     3
 75
     0
 76
     0
 77
     0
 78
     0
281
     0
 65
     1
110
0.0
120
0.0
130
0.0
111
1.0
121
0.0
131
0.0
112
0.0
122
1.0
132
0.0
 79
     0
146
0.0
  0
VPORT
  5
1A2
330
8
100
AcDbSymbolTableRecord
100
AcDbViewportTableRecord
  2
L2
 70
     0
 10
0.5
 20
0.0
 11
1.0
 21
1.0
 12
0.0
 22
0.0
 13
0.0
 23
0.0
 14
0.5
 24
0.5
 15
0.5
 25
0.5
 16
1.0
 26
0.0
 36
0.0
 17
0.0
 27
0.0
 37
0.0
 40
1478.660809
 41
0.012009
 42
50.0
 43
746.5698859999999
 44
-746.5698859999999
 50
0.0
 51
0.0
 71
     0
 72
   100
 73
     1
 74
     3
 75
     0
 76
     0
 77
     0
 78
     0
281
     0
 65
     1
110
0.0
120
0.0
130
0.0
111
1.0
121
0.0
131
0.0
112
0.0
122
1.0
132
0.0
 79
     0
146
0.0
  0
VPORT
  5
1A3
330
8
100
AcDbSymbolTableRecord
100
AcDbViewportTableRecord
  2
L3
 70
     0
 10
0.0
 20
0.5
 11
1.0
 21
1.0
 12
387.834203
 22
151.323965
 13
0.0
 23
0.0
 14
0.5
 24
0.5
 15
0.5
 25
0.5
 16
0.0
 26
0.0
 36
1.0
 17
0.0
 27
0.0
 37
0.0
 40
207.433333
 41
0.085602
 42
50.0
 43
736.352931
 44
-736.352931
 50
0.0
 51
0.0
 71
     0
 72
   100
 73
     1
 74
     3
 75
     0
 76
     0
 77
     0
 78
     0
281
     0
 65
     1
110
0.0
120
0.0
130
0.0
111
1.0
121
0.0
131
0.0
112
0.0
122
1.0
132
0.0
 79
     0
146
0.0
  0
VPORT
  5
1A4
330
8
100
AcDbSymbolTableRecord
100
AcDbViewportTableRecord
  2
L3
 70
     0
 10
0.0
 20
0.0
 11
1.0
 21
0.5
 12
0.0
 22
0.0
 13
0.0
 23
0.0
 14
0.5
 24
0.5
 15
0.5
 25
0.5
 16
0.0
 26
-1.0
 36
0.0
 17
0.0
 27
0.0
 37
0.0
 40
1478.660809
 41
0.012009
 42
50.0
 43
765.39502
 44
-765.39502
 50
0.0
 51
0.0
 71
     0
 72
   100
 73
     1
 74
     3
 75
     0
 76
     0
 77
     0
 78
     0
281
     0
 65
     1
110
0.0
120
0.0
130
0.0
111
1.0
121
0.0
131
0.0
112
0.0
122
1.0
132
0.0
 79
     0
146
0.0
  0
VPORT
  5
1A5
330
8
100
AcDbSymbolTableRecord
100
AcDbViewportTableRecord
  2
L4
 70
     0
 10
0.0
 20
0.5
 11
0.5
 21
1.0
 12
387.834203
 22
151.323965
 13
0.0
 23
0.0
 14
0.5
 24
0.5
 15
0.5
 25
0.5
 16
0.0
 26
0.0
 36
1.0
 17
0.0
 27
0.0
 37
0.0
 40
207.433333
 41
0.085602
 42
50.0
 43
736.352931
 44
-736.352931
 50
0.0
 51
0.0
 71
     0
 72
   100
 73
     1
 74
     3
 75
     0
 76
     0
 77
     0
 78
     0
281
     0
 65
     1
110
0.0
120
0.0
130
0.0
111
1.0
121
0.0
131
0.0
112
0.0
122
1.0
132
0.0
 79
     0
146
0.0
  0
VPORT
  5
1A6
330
8
100
AcDbSymbolTableRecord
100
AcDbViewportTableRecord
  2
L4
 70
     0
 10
0.0
 20
0.0
 11
0.5
 21
0.5
 12
0.0
 22
0.0
 13
0.0
 23
0.0
 14
0.5
 24
0.5
 15
0.5
 25
0.5
 16
0.0
 26
-1.0
 36
0.0
 17
0.0
 27
0.0
 37
0.0
 40
1478.660809
 41
0.012009
 42
50.0
 43
765.39502
 44
-765.39502
 50
0.0
 51
0.0
 71
     0
 72
   100
 73
     1
 74
     3
 75
     0
 76
     0
 77
     0
 78
     0
281
     0
 65
     1
110
0.0
120
0.0
130
0.0
111
1.0
121
0.0
131
0.0
112
0.0
122
1.0
132
0.0
 79
     0
146
0.0
  0
VPORT
  5
1A7
330
8
100
AcDbSymbolTableRecord
100
AcDbViewportTableRecord
  2
L4
 70
     0
 10
0.5
 20
0.0
 11
1.0
 21
0.5
 12
0.0
 22
0.0
 13
0.0
 23
0.0
 14
0.5
 24
0.5
 15
0.5
 25
0.5
 16
1.0
 26
0.0
 36
0.0
 17
0.0
 27
0.0
 37
0.0
 40
1478.660809
 41
0.012009
 42
50.0
 43
746.5698859999999
 44
-746.5698859999999
 50
0.0
 51
0.0
 71
     0
 72
   100
 73
     1
 74
     3
 75
     0
 76
     0
 77
     0
 78
     0
281
     0
 65
     1
110
0.0
120
0.0
130
0.0
111
1.0
121
0.0
131
0.0
112
0.0
122
1.0
132
0.0
 79
     0
146
0.0
  0
VPORT
  5
1A8
330
8
100
AcDbSymbolTableRecord
100
AcDbViewportTableRecord
  2
L4
 70
     0
 10
0.5
 20
0.5
 11
1.0
 21
1.0
 12
0.0
 22
0.0
 13
0.0
 23
0.0
 14
0.5
 24
0.5
 15
0.5
 25
0.5
 16
0.5773502691896259
 26
-0.5773502691896259
 36
0.5773502691896259
 17
0.0
 27
0.0
 37
0.0
 40
1453.705292
 41
0.012215
 42
50.0
 43
757.5245879999999
 44
-757.5245879999999
 50
0.0
 51
0.0
 71
     0
 72
   100
 73
     1
 74
     3
 75
     0
 76
     0
 77
     0
 78
     0
281
     0
 65
     1
110
0.0
120
0.0
130
0.0
111
1.0
121
0.0
131
0.0
112
0.0
122
1.0
132
0.0
 79
     0
146
0.0
  0
VPORT
  5
1A9
330
8
100
AcDbSymbolTableRecord
100
AcDbViewportTableRecord
  2
L6
 70
     0
 10
0.0
 20
0.5
 11
0.333333
 21
1.0
 12
0.0
 22
0.0
 13
0.0
 23
0.0
 14
0.5
 24
0.5
 15
0.5
 25
0.5
 16
0.7188730927569434
 26
-0.5850486126764433
 36
0.3754192287502549
 17
0.0
 27
0.0
 37
0.0
 40
1534.989881
 41
0.011568
 42
50.0
 43
794.5176169999999
 44
-794.5176169999999
 50
0.0
 51
0.0
 71
     0
 72
   100
 73
     1
 74
     3
 75
     0
 76
     0
 77
     0
 78
     0
281
     0
 65
     1
110
0.0
120
0.0
130
0.0
111
1.0
121
0.0
131
0.0
112
0.0
122
1.0
132
0.0
 79
     0
146
0.0
  0
VPORT
  5
1AA
330
8
100
AcDbSymbolTableRecord
100
AcDbViewportTableRecord
  2
L6
 70
     0
 10
0.0
 20
0.0
 11
0.333333
 21
0.5
 12
0.0
 22
0.0
 13
0.0
 23
0.0
 14
0.5
 24
0.5
 15
0.5
 25
0.5
 16
-1.0
 26
0.0
 36
0.0
 17
0.0
 27
0.0
 37
0.0
 40
1478.660809
 41
0.012009
 42
50.0
 43
746.5698859999999
 44
-746.5698859999999
 50
0.0
 51
0.0
 71
     0
 72
   100
 73
     1
 74
     3
 75
     0
 76
     0
 77
     0
 78
     0
281
     0
 65
     1
110
0.0
120
0.0
130
0.0
111
1.0
121
0.0
131
0.0
112
0.0
122
1.0
132
0.0
 79
     0
146
0.0
  0
VPORT
  5
1AB
330
8
100
AcDbSymbolTableRecord
100
AcDbViewportTableRecord
  2
L6
 70
     0
 10
0.333333
 20
0.5
 11
0.666667
 21
1.0
 12
387.834203
 22
151.323965
 13
0.0
 23
0.0
 14
0.5
 24
0.5
 15
0.5
 25
0.5
 16
0.0
 26
0.0
 36
1.0
 17
0.0
 27
0.0
 37
0.0
 40
207.433333
 41
0.085602
 42
50.0
 43
736.352931
 44
-736.352931
 50
0.0
 51
0.0
 71
     0
 72
   100
 73
     1
 74
     3
 75
     0
 76
     0
 77
     0
 78
     0
281
     0
 65
     1
110
0.0
120
0.0
130
0.0
111
1.0
121
0.0
131
0.0
112
0.0
122
1.0
132
0.0
 79
     0
146
0.0
  0
VPORT
  5
1AC
330
8
100
AcDbSymbolTableRecord
100
AcDbViewportTableRecord
  2
L6
 70
     0
 10
0.333333
 20
0.0
 11
0.666667
 21
0.5
 12
0.0
 22
0.0
 13
0.0
 23
0.0
 14
0.5
 24
0.5
 15
0.5
 25
0.5
 16
0.0
 26
-1.0
 36
0.0
 17
0.0
 27
0.0
 37
0.0
 40
1478.660809
 41
0.012009
 42
50.0
 43
765.39502
 44
-765.39502
 50
0.0
 51
0.0
 71
     0
 72
   100
 73
     1
 74
     3
 75
     0
 76
     0
 77
     0
 78
     0
281
     0
 65
     1
110
0.0
120
0.0
130
0.0
111
1.0
121
0.0
131
0.0
112
0.0
122
1.0
132
0.0
 79
     0
146
0.0
  0
VPORT
  5
1AD
330
8
100
AcDbSymbolTableRecord
100
AcDbViewportTableRecord
  2
L6
 70
     0
 10
0.666667
 20
0.5
 11
1.0
 21
1.0
 12
0.0
 22
0.0
 13
0.0
 23
0.0
 14
0.5
 24
0.5
 15
0.5
 25
0.5
 16
0.5773502691896259
 26
-0.5773502691896259
 36
0.5773502691896259
 17
0.0
 27
0.0
 37
0.0
 40
1453.705292
 41
0.012215
 42
50.0
 43
757.5245879999999
 44
-757.5245879999999
 50
0.0
 51
0.0
 71
     0
 72
   100
 73
     1
 74
     3
 75
     0
 76
     0
 77
     0
 78
     0
281
     0
 65
     1
110
0.0
120
0.0
130
0.0
111
1.0
121
0.0
131
0.0
112
0.0
122
1.0
132
0.0
 79
     0
146
0.0
  0
VPORT
  5
1AE
330
8
100
AcDbSymbolTableRecord
100
AcDbViewportTableRecord
  2
L6
 70
     0
 10
0.666667
 20
0.0
 11
1.0
 21
0.5
 12
0.0
 22
0.0
 13
0.0
 23
0.0
 14
0.5
 24
0.5
 15
0.5
 25
0.5
 16
1.0
 26
0.0
 36
0.0
 17
0.0
 27
0.0
 37
0.0
 40
1478.660809
 41
0.012009
 42
50.0
 43
746.5698859999999
 44
-746.5698859999999
 50
0.0
 51
0.0
 71
     0
 72
   100
 73
     1
 74
     3
 75
     0
 76
     0
 77
     0
 78
     0
281
     0
 65
     1
110
0.0
120
0.0
130
0.0
111
1.0
121
0.0
131
0.0
112
0.0
122
1.0
132
0.0
 79
     0
146
0.0
  0
ENDTAB
  0
TABLE
  2
LTYPE
  5
5
330
0
100
AcDbSymbolTable
 70
     8
  0
LTYPE
  5
14
330
5
100
AcDbSymbolTableRecord
100
AcDbLinetypeTableRecord
  2
ByBlock
 70
     0
  3

 72
    65
 73
     0
 40
0.0
  0
LTYPE
  5
15
330
5
100
AcDbSymbolTableRecord
100
AcDbLinetypeTableRecord
  2
ByLayer
 70
     0
  3

 72
    65
 73
     0
 40
0.0
  0
LTYPE
  5
16
330
5
100
AcDbSymbolTableRecord
100
AcDbLinetypeTableRecord
  2
Continuous
 70
     0
  3
Solid line
 72
    65
 73
     0
 40
0.0
  0
LTYPE
  5
6E
330
5
100
AcDbSymbolTableRecord
100
AcDbLinetypeTableRecord
  2
CENTER
 70
     0
  3
____ _ ____ _ ____ _ ____
 72
    65
 73
     4
 40
47.4
 49
22.0
 74
     4
 75
     0
340
0
 46
0.0
 50
0.0
 44
0.0
 45
0.0
 49
-8.5
 74
     4
 75
     0
340
0
 46
0.0
 50
0.0
 44
0.0
 45
0.0
 49
8.5
 74
     4
 75
     0
340
0
 46
0.0
 50
0.0
 44
0.0
 45
0.0
 49
-8.5
 74
     4
 75
     0
340
0
 46
0.0
 50
0.0
 44
0.0
 45
0.0
  0
LTYPE
  5
6F
330
5
100
AcDbSymbolTableRecord
100
AcDbLinetypeTableRecord
  2
DASHDOT
 70
     0
  3
_._._._._._._._._._._._._._._._.
 72
    65
 73
     4
 40
70.0
 49
31.0
 74
     4
 75
     0
340
0
 46
0.0
 50
0.0
 44
0.0
 45
0.0
 49
-13.0
 74
     4
 75
     0
340
0
 46
0.0
 50
0.0
 44
0.0
 45
0.0
 49
13.0
 74
     4
 75
     0
340
0
 46
0.0
 50
0.0
 44
0.0
 45
0.0
 49
-13.0
 74
     4
 75
     0
340
0
 46
0.0
 50
0.0
 44
0.0
 45
0.0
  0
LTYPE
  5
70
330
5
100
AcDbSymbolTableRecord
100
AcDbLinetypeTableRecord
  2
DASHED
 70
     0
  3
__ __ __ __ __ __ __ __ __
 72
    65
 73
     2
 40
25.72
 49
12.86
 74
     4
 75
     0
340
0
 46
0.0
 50
0.0
 44
0.0
 45
0.0
 49
-12.86
 74
     4
 75
     0
340
0
 46
0.0
 50
0.0
 44
0.0
 45
0.0
  0
LTYPE
  5
71
330
5
100
AcDbSymbolTableRecord
100
AcDbLinetypeTableRecord
  2
DOT
 70
     0
  3
.........................
 72
    65
 73
     2
 40
10.0
 49
0.0
 74
     4
 75
     0
340
0
 46
0.0
 50
0.0
 44
0.0
 45
0.0
 49
-10.0
 74
     4
 75
     0
340
0
 46
0.0
 50
0.0
 44
0.0
 45
0.0
  0
LTYPE
  5
72
330
5
100
AcDbSymbolTableRecord
100
AcDbLinetypeTableRecord
  2
PHANTOM
 70
     0
  3
____ _ _ ____ _ _ _____ _ _ ____
 72
    65
 73
     6
 40
50.5
 49
18.0
 74
     4
 75
     0
340
0
 46
0.0
 50
0.0
 44
0.0
 45
0.0
 49
-6.5
 74
     4
 75
     0
340
0
 46
0.0
 50
0.0
 44
0.0
 45
0.0
 49
6.5
 74
     4
 75
     0
340
0
 46
0.0
 50
0.0
 44
0.0
 45
0.0
 49
-6.5
 74
     4
 75
     0
340
0
 46
0.0
 50
0.0
 44
0.0
 45
0.0
 49
6.5
 74
     4
 75
     0
340
0
 46
0.0
 50
0.0
 44
0.0
 45
0.0
 49
-6.5
 74
     4
 75
     0
340
0
 46
0.0
 50
0.0
 44
0.0
 45
0.0
  0
LTYPE
  5
377
330
5
100
AcDbSymbolTableRecord
100
AcDbLinetypeTableRecord
  2
CENTER2
 70
     0
  3
Center (.5x) ___ _ ___ _ ___ _ ___ _ ___ _ ___
 72
    65
 73
     4
 40
1.125
 49
0.75
 74
     0
 49
-0.125
 74
     0
 49
0.125
 74
     0
 49
-0.125
 74
     0
  0
ENDTAB
  0
TABLE
  2
LAYER
  5
2
102
{ACAD_XDICTIONARY
360
3A4
102
}
330
0
100
AcDbSymbolTable
 70
    21
  0
LAYER
  5
10
102
{ACAD_XDICTIONARY
360
389
102
}
330
2
100
AcDbSymbolTableRecord
100
AcDbLayerTableRecord
  2
0
 70
     0
 62
     7
  6
Continuous
370
    -3
390
F
  0
LAYER
  5
10C
330
2
100
AcDbSymbolTableRecord
100
AcDbLayerTableRecord
  2
Defpoints
 70
     0
 62
     7
  6
Continuous
290
     0
370
    -3
390
F
  0
LAYER
  5
374
102
{ACAD_XDICTIONARY
360
38B
102
}
330
2
100
AcDbSymbolTableRecord
100
AcDbLayerTableRecord
  2
1
 70
     0
 62
     4
  6
Continuous
370
    -3
390
F
  0
LAYER
  5
375
102
{ACAD_XDICTIONARY
360
38D
102
}
330
2
100
AcDbSymbolTableRecord
100
AcDbLayerTableRecord
  2
2
 70
     0
 62
     7
  6
Continuous
370
    -3
390
F
  0
LAYER
  5
376
102
{ACAD_XDICTIONARY
360
38F
102
}
330
2
100
AcDbSymbolTableRecord
100
AcDbLayerTableRecord
  2
4
 70
     0
 62
     2
  6
CENTER2
370
    -3
390
F
  0
LAYER
  5
378
102
{ACAD_XDICTIONARY
360
391
102
}
330
2
100
AcDbSymbolTableRecord
100
AcDbLayerTableRecord
  2
SK1
 70
     0
 62
     4
  6
Continuous
370
    -3
390
F
  0
LAYER
  5
379
102
{ACAD_XDICTIONARY
360
393
102
}
330
2
100
AcDbSymbolTableRecord
100
AcDbLayerTableRecord
  2
SK2
 70
     0
 62
     7
  6
Continuous
370
    -3
390
F
  0
LAYER
  5
37B
102
{ACAD_XDICTIONARY
360
395
102
}
330
2
100
AcDbSymbolTableRecord
100
AcDbLayerTableRecord
  2
SK4
 70
     0
 62
     2
  6
CENTER2
370
    -3
390
F
  0
LAYER
  5
37C
102
{ACAD_XDICTIONARY
360
397
102
}
330
2
100
AcDbSymbolTableRecord
100
AcDbLayerTableRecord
  2
SK6
 70
     0
 62
     5
  6
Continuous
370
    -3
390
F
  0
LAYER
  5
37D
102
{ACAD_XDICTIONARY
360
399
102
}
330
2
100
AcDbSymbolTableRecord
100
AcDbLayerTableRecord
  2
CUT
 70
     0
 62
     1
  6
Continuous
370
    -3
390
F
  0
LAYER
  5
37E
102
{ACAD_XDICTIONARY
360
39B
102
}
330
2
100
AcDbSymbolTableRecord
100
AcDbLayerTableRecord
  2
NOCUT
 70
     0
 62
     7
  6
Continuous
370
    -3
390
F
  0
LAYER
  5
37F
102
{ACAD_XDICTIONARY
360
39D
102
}
330
2
100
AcDbSymbolTableRecord
100
AcDbLayerTableRecord
  2
80
 70
     0
 62
     6
  6
Continuous
370
    -3
390
F
  0
LAYER
  5
380
102
{ACAD_XDICTIONARY
360
39F
102
}
330
2
100
AcDbSymbolTableRecord
100
AcDbLayerTableRecord
  2
81
 70
     0
 62
     3
  6
Continuous
370
    -3
390
F
  0
ENDTAB
  0
TABLE
  2
STYLE
  5
3
330
0
100
AcDbSymbolTable
 70
     3
  0
STYLE
  5
11
330
3
100
AcDbSymbolTableRecord
100
AcDbTextStyleTableRecord
  2
Standard
 70
     0
 40
0.0
 41
1.0
 50
0.0
 71
     0
 42
0.2
  3
txt
  4

  0
STYLE
  5
FD
330
3
100
AcDbSymbolTableRecord
100
AcDbTextStyleTableRecord
  2
cesky
 70
     0
 40
0.0
 41
1.0
 50
0.0
 71
     0
 42
0.2
  3
simplex.shx
  4

  0
STYLE
  5
FE
330
3
100
AcDbSymbolTableRecord
100
AcDbTextStyleTableRecord
  2
DWGDirectTextStyle
 70
     0
 40
0.0
 41
1.0
 50
0.0
 71
     0
 42
0.2
  3
simplex
  4

  0
ENDTAB
  0
TABLE
  2
VIEW
  5
6
330
0
100
AcDbSymbolTable
 70
     1
  0
ENDTAB
  0
TABLE
  2
UCS
  5
7
330
0
100
AcDbSymbolTable
 70
     0
  0
ENDTAB
  0
TABLE
  2
APPID
  5
9
330
0
100
AcDbSymbolTable
 70
     8
  0
APPID
  5
12
330
9
100
AcDbSymbolTableRecord
100
AcDbRegAppTableRecord
  2
ACAD
 70
     0
  0
APPID
  5
108
330
9
100
AcDbSymbolTableRecord
100
AcDbRegAppTableRecord
  2
ACAD_DSTYLE_DIMBREAK
 70
     0
  0
APPID
  5
1AF
330
9
100
AcDbSymbolTableRecord
100
AcDbRegAppTableRecord
  2
ACAD_DSTYLE_DIM_LINETYPE
 70
     0
  0
APPID
  5
1B0
330
9
100
AcDbSymbolTableRecord
100
AcDbRegAppTableRecord
  2
ACAD_DSTYLE_DIM_EXT1_LINETYPE
 70
     0
  0
APPID
  5
1B1
330
9
100
AcDbSymbolTableRecord
100
AcDbRegAppTableRecord
  2
ACAD_DSTYLE_DIM_EXT2_LINETYPE
 70
     0
  0
APPID
  5
1F1
330
9
100
AcDbSymbolTableRecord
100
AcDbRegAppTableRecord
  2
ACAD_MLEADERVER
 70
     0
  0
APPID
  5
382
330
9
100
AcDbSymbolTableRecord
100
AcDbRegAppTableRecord
  2
ACAD_EXEMPT_FROM_CAD_STANDARDS
 70
     0
  0
APPID
  5
3AD
330
9
100
AcDbSymbolTableRecord
100
AcDbRegAppTableRecord
  2
ACAD_NAV_VCDISPLAY
 70
     0
  0
ENDTAB
  0
TABLE
  2
DIMSTYLE
  5
A
330
0
100
AcDbSymbolTable
 70
     2
100
AcDbDimStyleTable
 71
     1
340
27
  0
DIMSTYLE
105
27
330
A
100
AcDbSymbolTableRecord
100
AcDbDimStyleTableRecord
  2
Standard
 70
     0
340
11
1001
ACAD_DSTYLE_DIMBREAK
1070
   391
1040
6.349999999999999
  0
ENDTAB
  0
TABLE
  2
BLOCK_RECORD
  5
1
330
0
100
AcDbSymbolTable
 70
    14
  0
BLOCK_RECORD
  5
1F
102
{ACAD_XDICTIONARY
360
202
102
}
330
1
100
AcDbSymbolTableRecord
100
AcDbBlockTableRecord
  2
*Model_Space
340
22
  0
BLOCK_RECORD
  5
1B
330
1
100
AcDbSymbolTableRecord
100
AcDbBlockTableRecord
  2
*Paper_Space
340
1E
  0
BLOCK_RECORD
  5
23
330
1
100
AcDbSymbolTableRecord
100
AcDbBlockTableRecord
  2
*Paper_Space0
340
26
  0
BLOCK_RECORD
  5
10D
330
1
100
AcDbSymbolTableRecord
100
AcDbBlockTableRecord
  2
*D1
340
0
  0
BLOCK_RECORD
  5
11A
330
1
100
AcDbSymbolTableRecord
100
AcDbBlockTableRecord
  2
_U0
340
0
  0
BLOCK_RECORD
  5
126
330
1
100
AcDbSymbolTableRecord
100
AcDbBlockTableRecord
  2
*D3
340
0
  0
BLOCK_RECORD
  5
134
330
1
100
AcDbSymbolTableRecord
100
AcDbBlockTableRecord
  2
_U1
340
0
  0
BLOCK_RECORD
  5
141
330
1
100
AcDbSymbolTableRecord
100
AcDbBlockTableRecord
  2
*D5
340
0
  0
BLOCK_RECORD
  5
14D
330
1
100
AcDbSymbolTableRecord
100
AcDbBlockTableRecord
  2
_U2
340
0
  0
BLOCK_RECORD
  5
159
330
1
100
AcDbSymbolTableRecord
100
AcDbBlockTableRecord
  2
*D7
340
0
  0
BLOCK_RECORD
  5
165
330
1
100
AcDbSymbolTableRecord
100
AcDbBlockTableRecord
  2
_U3
340
0
  0
BLOCK_RECORD
  5
171
330
1
100
AcDbSymbolTableRecord
100
AcDbBlockTableRecord
  2
*D9
340
0
  0
BLOCK_RECORD
  5
17F
330
1
100
AcDbSymbolTableRecord
100
AcDbBlockTableRecord
  2
_U4
340
0
  0
BLOCK_RECORD
  5
18C
330
1
100
AcDbSymbolTableRecord
100
AcDbBlockTableRecord
  2
*D11
340
0
  0
BLOCK_RECORD
  5
197
330
1
100
AcDbSymbolTableRecord
100
AcDbBlockTableRecord
  2
_U5
340
0
  0
ENDTAB
  0
ENDSEC
  0
SECTION
  2
BLOCKS
  0
BLOCK
  5
20
330
1F
100
AcDbEntity
  8
0
100
AcDbBlockBegin
  2
*Model_Space
 70
     0
 10
0.0
 20
0.0
 30
0.0
  3
*Model_Space
  1

  0
ENDBLK
  5
21
330
1F
100
AcDbEntity
  8
0
100
AcDbBlockEnd
  0
BLOCK
  5
1C
330
1B
100
AcDbEntity
 67
     1
  8
0
100
AcDbBlockBegin
  2
*Paper_Space
 70
     0
 10
0.0
 20
0.0
 30
0.0
  3
*Paper_Space
  1

  0
ENDBLK
  5
1D
330
1B
100
AcDbEntity
 67
     1
  8
0
100
AcDbBlockEnd
  0
BLOCK
  5
24
330
23
100
AcDbEntity
 67
     1
  8
0
100
AcDbBlockBegin
  2
*Paper_Space0
 70
     0
 10
0.0
 20
0.0
 30
0.0
  3
*Paper_Space0
  1

  0
ENDBLK
  5
25
330
23
100
AcDbEntity
 67
     1
  8
0
100
AcDbBlockEnd
  0
BLOCK
  5
10E
330
10D
100
AcDbEntity
  8
0
100
AcDbBlockBegin
  2
*D1
 70
     1
 10
0.0
 20
0.0
 30
0.0
  3
*D1
  1

  0
LINE
  5
110
330
10D
100
AcDbEntity
  8
0
 62
   254
370
    -2
100
AcDbLine
 10
331.144248
 20
253.010213
 30
0.0
 11
331.144248
 21
254.409673
 31
0.0
  0
LINE
  5
111
330
10D
100
AcDbEntity
  8
0
 62
   254
370
    -2
100
AcDbLine
 10
327.141497
 20
243.731161
 30
0.0
 11
327.141497
 21
254.409673
 31
0.0
  0
LINE
  5
112
330
10D
100
AcDbEntity
  8
0
 62
   254
370
    -2
100
AcDbLine
 10
334.644248
 20
253.409673
 30
0.0
 11
338.144248
 21
253.409673
 31
0.0
  0
LINE
  5
113
330
10D
100
AcDbEntity
  8
0
 62
   254
370
    -2
100
AcDbLine
 10
323.641497
 20
253.409673
 30
0.0
 11
320.141497
 21
253.409673
 31
0.0
  0
SOLID
  5
114
330
10D
100
AcDbEntity
  8
0
 62
   254
100
AcDbTrace
 10
334.644248
 20
253.993007
 30
0.0
 11
334.644248
 21
252.82634
 31
0.0
 12
331.144248
 22
253.409673
 32
0.0
 13
331.144248
 23
253.409673
 33
0.0
  0
SOLID
  5
115
330
10D
100
AcDbEntity
  8
0
 62
   254
100
AcDbTrace
 10
323.641497
 20
252.82634
 30
0.0
 11
323.641497
 21
253.993007
 31
0.0
 12
327.141497
 22
253.409673
 32
0.0
 13
327.141497
 23
253.409673
 33
0.0
  0
MTEXT
  5
116
330
10D
100
AcDbEntity
  8
0
 62
   254
370
    13
100
AcDbMText
 10
329.142873
 20
258.659673
 30
0.0
 40
3.5
 41
0.0
 71
     5
 72
     1
  1
\A1;4
  7
cesky
 73
     1
 44
1.0
  0
POINT
  5
117
330
10D
100
AcDbEntity
  8
Defpoints
 62
     0
100
AcDbPoint
 10
331.144248
 20
253.010213
 30
0.0
  0
POINT
  5
118
330
10D
100
AcDbEntity
  8
Defpoints
 62
     0
100
AcDbPoint
 10
327.141497
 20
243.731161
 30
0.0
  0
POINT
  5
119
330
10D
100
AcDbEntity
  8
Defpoints
 62
     0
100
AcDbPoint
 10
327.141497
 20
253.409673
 30
0.0
  0
ENDBLK
  5
10F
330
10D
100
AcDbEntity
  8
0
100
AcDbBlockEnd
  0
BLOCK
  5
121
330
11A
100
AcDbEntity
  8
0
100
AcDbBlockBegin
  2
_U0
 70
     0
 10
0.0
 20
0.0
 30
0.0
  3
_U0
  1

  0
ENDBLK
  5
122
330
11A
100
AcDbEntity
  8
0
100
AcDbBlockEnd
  0
BLOCK
  5
127
330
126
100
AcDbEntity
  8
0
100
AcDbBlockBegin
  2
*D3
 70
     1
 10
0.0
 20
0.0
 30
0.0
  3
*D3
  1

  0
LINE
  5
129
330
126
100
AcDbEntity
  8
0
 62
    95
370
    -2
100
AcDbLine
 10
313.817453
 20
247.206161
 30
0.0
 11
303.396864
 21
247.206161
 31
0.0
  0
LINE
  5
12A
330
126
100
AcDbEntity
  8
0
 62
    95
370
    -2
100
AcDbLine
 10
313.817453
 20
240.256161
 30
0.0
 11
303.396864
 21
240.256161
 31
0.0
  0
LINE
  5
12B
330
126
100
AcDbEntity
  8
0
 62
    95
370
    -2
100
AcDbLine
 10
304.396864
 20
247.206161
 30
0.0
 11
304.396864
 21
263.5394950000001
 31
0.0
  0
LINE
  5
12C
330
126
100
AcDbEntity
  8
0
 62
    95
370
    -2
100
AcDbLine
 10
304.396864
 20
250.706161
 30
0.0
 11
304.396864
 21
254.206161
 31
0.0
  0
LINE
  5
12D
330
126
100
AcDbEntity
  8
0
 62
    95
370
    -2
100
AcDbLine
 10
304.396864
 20
236.756161
 30
0.0
 11
304.396864
 21
233.256161
 31
0.0
  0
SOLID
  5
12E
330
126
100
AcDbEntity
  8
0
 62
    95
100
AcDbTrace
 10
303.813531
 20
250.706161
 30
0.0
 11
304.980197
 21
250.706161
 31
0.0
 12
304.396864
 22
247.206161
 32
0.0
 13
304.396864
 23
247.206161
 33
0.0
  0
SOLID
  5
12F
330
126
100
AcDbEntity
  8
0
 62
    95
100
AcDbTrace
 10
304.980197
 20
236.756161
 30
0.0
 11
303.813531
 21
236.756161
 31
0.0
 12
304.396864
 22
240.256161
 32
0.0
 13
304.396864
 23
240.256161
 33
0.0
  0
MTEXT
  5
130
330
126
100
AcDbEntity
  8
0
 62
    95
370
    13
100
AcDbMText
 10
299.146864
 20
258.872828
 30
0.0
 40
3.5
 41
0.0
 71
     5
 72
     1
  1
\A1;7
  7
cesky
 11
0.0
 21
1.0
 31
0.0
 73
     1
 44
1.0
  0
POINT
  5
131
330
126
100
AcDbEntity
  8
Defpoints
 62
     0
100
AcDbPoint
 10
313.817453
 20
247.206161
 30
0.0
  0
POINT
  5
132
330
126
100
AcDbEntity
  8
Defpoints
 62
     0
100
AcDbPoint
 10
313.817453
 20
240.256161
 30
0.0
  0
POINT
  5
133
330
126
100
AcDbEntity
  8
Defpoints
 62
     0
100
AcDbPoint
 10
304.396864
 20
240.256161
 30
0.0
  0
ENDBLK
  5
128
330
126
100
AcDbEntity
  8
0
100
AcDbBlockEnd
  0
BLOCK
  5
13C
330
134
100
AcDbEntity
  8
0
100
AcDbBlockBegin
  2
_U1
 70
     0
 10
0.0
 20
0.0
 30
0.0
  3
_U1
  1

  0
ENDBLK
  5
13D
330
134
100
AcDbEntity
  8
0
100
AcDbBlockEnd
  0
BLOCK
  5
142
330
141
100
AcDbEntity
  8
0
100
AcDbBlockBegin
  2
*D5
 70
     1
 10
0.0
 20
0.0
 30
0.0
  3
*D5
  1

  0
LINE
  5
144
330
141
100
AcDbEntity
  8
0
 62
    95
370
    -2
100
AcDbLine
 10
237.144248
 20
243.731161
 30
0.0
 11
237.144248
 21
268.697242
 31
0.0
  0
LINE
  5
145
330
141
100
AcDbEntity
  8
0
 62
    95
370
    -2
100
AcDbLine
 10
331.144248
 20
249.731161
 30
0.0
 11
331.144248
 21
268.697242
 31
0.0
  0
LINE
  5
146
330
141
100
AcDbEntity
  8
0
 62
    95
370
    -2
100
AcDbLine
 10
240.644248
 20
267.697242
 30
0.0
 11
327.644248
 21
267.697242
 31
0.0
  0
SOLID
  5
147
330
141
100
AcDbEntity
  8
0
 62
    95
100
AcDbTrace
 10
240.644248
 20
268.280576
 30
0.0
 11
240.644248
 21
267.113909
 31
0.0
 12
237.144248
 22
267.697242
 32
0.0
 13
237.144248
 23
267.697242
 33
0.0
  0
SOLID
  5
148
330
141
100
AcDbEntity
  8
0
 62
    95
100
AcDbTrace
 10
327.644248
 20
267.113909
 30
0.0
 11
327.644248
 21
268.280576
 31
0.0
 12
331.144248
 22
267.697242
 32
0.0
 13
331.144248
 23
267.697242
 33
0.0
  0
MTEXT
  5
149
330
141
100
AcDbEntity
  8
0
 62
    95
370
    13
100
AcDbMText
 10
284.144248
 20
272.947242
 30
0.0
 40
3.5
 41
0.0
 71
     5
 72
     1
  1
\A1;94
  7
cesky
 73
     1
 44
1.0
  0
POINT
  5
14A
330
141
100
AcDbEntity
  8
Defpoints
 62
     0
100
AcDbPoint
 10
237.144248
 20
243.731161
 30
0.0
  0
POINT
  5
14B
330
141
100
AcDbEntity
  8
Defpoints
 62
     0
100
AcDbPoint
 10
331.144248
 20
249.731161
 30
0.0
  0
POINT
  5
14C
330
141
100
AcDbEntity
  8
Defpoints
 62
     0
100
AcDbPoint
 10
331.144248
 20
267.697242
 30
0.0
  0
ENDBLK
  5
143
330
141
100
AcDbEntity
  8
0
100
AcDbBlockEnd
  0
BLOCK
  5
154
330
14D
100
AcDbEntity
  8
0
100
AcDbBlockBegin
  2
_U2
 70
     0
 10
0.0
 20
0.0
 30
0.0
  3
_U2
  1

  0
ENDBLK
  5
155
330
14D
100
AcDbEntity
  8
0
100
AcDbBlockEnd
  0
BLOCK
  5
15A
330
159
100
AcDbEntity
  8
0
100
AcDbBlockBegin
  2
*D7
 70
     1
 10
0.0
 20
0.0
 30
0.0
  3
*D7
  1

  0
LINE
  5
15C
330
159
100
AcDbEntity
  8
0
 62
   254
370
    -2
100
AcDbLine
 10
331.144248
 20
249.731161
 30
0.0
 11
331.144248
 21
260.041821
 31
0.0
  0
LINE
  5
15D
330
159
100
AcDbEntity
  8
0
 62
   254
370
    -2
100
AcDbLine
 10
311.143484
 20
247.655983
 30
0.0
 11
311.143484
 21
260.041821
 31
0.0
  0
LINE
  5
15E
330
159
100
AcDbEntity
  8
0
 62
   254
370
    -2
100
AcDbLine
 10
327.644248
 20
259.041821
 30
0.0
 11
314.643484
 21
259.041821
 31
0.0
  0
SOLID
  5
15F
330
159
100
AcDbEntity
  8
0
 62
   254
100
AcDbTrace
 10
327.644248
 20
258.458487
 30
0.0
 11
327.644248
 21
259.625154
 31
0.0
 12
331.144248
 22
259.041821
 32
0.0
 13
331.144248
 23
259.041821
 33
0.0
  0
SOLID
  5
160
330
159
100
AcDbEntity
  8
0
 62
   254
100
AcDbTrace
 10
314.643484
 20
259.625154
 30
0.0
 11
314.643484
 21
258.458487
 31
0.0
 12
311.143484
 22
259.041821
 32
0.0
 13
311.143484
 23
259.041821
 33
0.0
  0
MTEXT
  5
161
330
159
100
AcDbEntity
  8
0
 62
   254
370
    13
100
AcDbMText
 10
321.143866
 20
264.291821
 30
0.0
 40
3.5
 41
0.0
 71
     5
 72
     1
  1
\A1;20
  7
cesky
 73
     1
 44
1.0
  0
POINT
  5
162
330
159
100
AcDbEntity
  8
Defpoints
 62
     0
100
AcDbPoint
 10
331.144248
 20
249.731161
 30
0.0
  0
POINT
  5
163
330
159
100
AcDbEntity
  8
Defpoints
 62
     0
100
AcDbPoint
 10
311.143484
 20
247.655983
 30
0.0
  0
POINT
  5
164
330
159
100
AcDbEntity
  8
Defpoints
 62
     0
100
AcDbPoint
 10
311.143484
 20
259.041821
 30
0.0
  0
ENDBLK
  5
15B
330
159
100
AcDbEntity
  8
0
100
AcDbBlockEnd
  0
BLOCK
  5
16C
330
165
100
AcDbEntity
  8
0
100
AcDbBlockBegin
  2
_U3
 70
     0
 10
0.0
 20
0.0
 30
0.0
  3
_U3
  1

  0
ENDBLK
  5
16D
330
165
100
AcDbEntity
  8
0
100
AcDbBlockEnd
  0
BLOCK
  5
172
330
171
100
AcDbEntity
  8
0
100
AcDbBlockBegin
  2
*D9
 70
     1
 10
0.0
 20
0.0
 30
0.0
  3
*D9
  1

  0
LINE
  5
174
330
171
100
AcDbEntity
  8
0
 62
    95
370
    -2
100
AcDbLine
 10
206.674681
 20
247.729911
 30
0.0
 11
193.052258
 21
247.729911
 31
0.0
  0
LINE
  5
175
330
171
100
AcDbEntity
  8
0
 62
    95
370
    -2
100
AcDbLine
 10
207.927004
 20
239.732411
 30
0.0
 11
193.052258
 21
239.732411
 31
0.0
  0
LINE
  5
176
330
171
100
AcDbEntity
  8
0
 62
    95
370
    -2
100
AcDbLine
 10
194.052258
 20
239.732411
 30
0.0
 11
194.052258
 21
223.399078
 31
0.0
  0
LINE
  5
177
330
171
100
AcDbEntity
  8
0
 62
    95
370
    -2
100
AcDbLine
 10
194.052258
 20
251.229911
 30
0.0
 11
194.052258
 21
254.729911
 31
0.0
  0
LINE
  5
178
330
171
100
AcDbEntity
  8
0
 62
    95
370
    -2
100
AcDbLine
 10
194.052258
 20
236.232411
 30
0.0
 11
194.052258
 21
232.732411
 31
0.0
  0
SOLID
  5
179
330
171
100
AcDbEntity
  8
0
 62
    95
100
AcDbTrace
 10
193.468925
 20
251.229911
 30
0.0
 11
194.635592
 21
251.229911
 31
0.0
 12
194.052258
 22
247.729911
 32
0.0
 13
194.052258
 23
247.729911
 33
0.0
  0
SOLID
  5
17A
330
171
100
AcDbEntity
  8
0
 62
    95
100
AcDbTrace
 10
194.635592
 20
236.232411
 30
0.0
 11
193.468925
 21
236.232411
 31
0.0
 12
194.052258
 22
239.732411
 32
0.0
 13
194.052258
 23
239.732411
 33
0.0
  0
MTEXT
  5
17B
330
171
100
AcDbEntity
  8
0
 62
    95
370
    13
100
AcDbMText
 10
188.802258
 20
228.065745
 30
0.0
 40
3.5
 41
0.0
 71
     5
 72
     1
  1
\A1;8
  7
cesky
 11
0.0
 21
1.0
 31
0.0
 73
     1
 44
1.0
  0
POINT
  5
17C
330
171
100
AcDbEntity
  8
Defpoints
 62
     0
100
AcDbPoint
 10
206.674681
 20
247.729911
 30
0.0
  0
POINT
  5
17D
330
171
100
AcDbEntity
  8
Defpoints
 62
     0
100
AcDbPoint
 10
207.927004
 20
239.732411
 30
0.0
  0
POINT
  5
17E
330
171
100
AcDbEntity
  8
Defpoints
 62
     0
100
AcDbPoint
 10
194.052258
 20
239.732411
 30
0.0
  0
ENDBLK
  5
173
330
171
100
AcDbEntity
  8
0
100
AcDbBlockEnd
  0
BLOCK
  5
187
330
17F
100
AcDbEntity
  8
0
100
AcDbBlockBegin
  2
_U4
 70
     0
 10
0.0
 20
0.0
 30
0.0
  3
_U4
  1

  0
ENDBLK
  5
188
330
17F
100
AcDbEntity
  8
0
100
AcDbBlockEnd
  0
BLOCK
  5
18D
330
18C
100
AcDbEntity
  8
0
100
AcDbBlockBegin
  2
*D11
 70
     1
 10
0.0
 20
0.0
 30
0.0
  3
*D11
  1

  0
LINE
  5
18F
330
18C
100
AcDbEntity
  8
0
 62
   254
370
    -2
100
AcDbLine
 10
312.014248
 20
243.731161
 30
0.0
 11
344.67439
 21
243.731161
 31
0.0
  0
LINE
  5
190
330
18C
100
AcDbEntity
  8
0
 62
   254
370
    -2
100
AcDbLine
 10
333.144248
 20
247.731161
 30
0.0
 11
344.67439
 21
247.731161
 31
0.0
  0
LINE
  5
191
330
18C
100
AcDbEntity
  8
0
 62
   254
370
    -2
100
AcDbLine
 10
343.67439
 20
251.231161
 30
0.0
 11
343.67439
 21
254.731161
 31
0.0
  0
SOLID
  5
192
330
18C
100
AcDbEntity
  8
0
 62
   254
100
AcDbTrace
 10
343.091056
 20
251.231161
 30
0.0
 11
344.257723
 21
251.231161
 31
0.0
 12
343.67439
 22
247.731161
 32
0.0
 13
343.67439
 23
247.731161
 33
0.0
  0
MTEXT
  5
193
330
18C
100
AcDbEntity
  8
0
 62
   254
370
    13
100
AcDbMText
 10
338.42439
 20
232.064495
 30
0.0
 40
3.5
 41
0.0
 71
     5
 72
     1
  1
\A1;8
  7
cesky
 11
0.0
 21
1.0
 31
0.0
 73
     1
 44
1.0
  0
POINT
  5
194
330
18C
100
AcDbEntity
  8
Defpoints
 62
     0
100
AcDbPoint
 10
312.014248
 20
243.731161
 30
0.0
  0
POINT
  5
195
330
18C
100
AcDbEntity
  8
Defpoints
 62
     0
100
AcDbPoint
 10
333.144248
 20
247.731161
 30
0.0
  0
POINT
  5
196
330
18C
100
AcDbEntity
  8
Defpoints
 62
     0
100
AcDbPoint
 10
343.67439
 20
247.731161
 30
0.0
  0
ENDBLK
  5
18E
330
18C
100
AcDbEntity
  8
0
100
AcDbBlockEnd
  0
BLOCK
  5
19D
330
197
100
AcDbEntity
  8
0
100
AcDbBlockBegin
  2
_U5
 70
     0
 10
0.0
 20
0.0
 30
0.0
  3
_U5
  1

  0
ENDBLK
  5
19E
330
197
100
AcDbEntity
  8
0
100
AcDbBlockEnd
  0
ENDSEC
  0
SECTION
  2
ENTITIES
  0
POINT
  5
73
102
{ACAD_REACTORS
330
381
102
}
330
1F
100
AcDbEntity
  8
80
100
AcDbPoint
 10
237.144248
 20
243.731161
 30
0.0
  0
POINT
  5
75
330
1F
100
AcDbEntity
  8
SK6
 60
     1
100
AcDbPoint
 10
201.144248
 20
243.731161
 30
0.0
  0
POINT
  5
77
330
1F
100
AcDbEntity
  8
SK6
 60
     1
100
AcDbPoint
 10
311.0680470000001
 20
243.731161
 30
0.0
  0
POINT
  5
78
330
1F
100
AcDbEntity
  8
SK6
 60
     1
100
AcDbPoint
 10
201.144248
 20
243.731161
 30
0.0
  0
POINT
  5
79
330
1F
100
AcDbEntity
  8
SK6
 60
     1
100
AcDbPoint
 10
312.014248
 20
243.731161
 30
0.0
  0
LINE
  5
7A
330
1F
100
AcDbEntity
  8
1
100
AcDbLine
 10
201.144248
 20
240.823362
 30
0.0
 11
201.144248
 21
246.638961
 31
0.0
  0
LINE
  5
7C
330
1F
100
AcDbEntity
  8
1
100
AcDbLine
 10
203.03383
 20
239.732411
 30
0.0
 11
203.03383
 21
247.729911
 31
0.0
  0
LINE
  5
7D
330
1F
100
AcDbEntity
  8
1
100
AcDbLine
 10
201.144248
 20
240.823362
 30
0.0
 11
203.03383
 21
239.732411
 31
0.0
  0
LINE
  5
7E
330
1F
100
AcDbEntity
  8
1
100
AcDbLine
 10
203.03383
 20
247.729911
 30
0.0
 11
201.144248
 21
246.638961
 31
0.0
  0
LINE
  5
7F
330
1F
100
AcDbEntity
  8
1
100
AcDbLine
 10
324.151497
 20
247.111501
 30
0.0
 11
324.151497
 21
247.206161
 31
0.0
  0
LINE
  5
80
330
1F
100
AcDbEntity
  8
1
100
AcDbLine
 10
324.151497
 20
247.111501
 30
0.0
 11
324.151497
 21
246.99053
 31
0.0
  0
LINE
  5
81
330
1F
100
AcDbEntity
  8
1
100
AcDbLine
 10
324.151497
 20
247.111501
 30
0.0
 11
324.092973
 21
247.138792
 31
0.0
  0
LINE
  5
82
330
1F
100
AcDbEntity
  8
1
100
AcDbLine
 10
324.151497
 20
240.471805
 30
0.0
 11
324.151497
 21
240.323327
 31
0.0
  0
LINE
  5
83
330
1F
100
AcDbEntity
  8
1
100
AcDbLine
 10
323.461602
 20
247.136571
 30
0.0
 11
323.461602
 21
246.988312
 31
0.0
  0
LINE
  5
84
330
1F
100
AcDbEntity
  8
1
100
AcDbLine
 10
323.461602
 20
240.47406
 30
0.0
 11
323.461602
 21
240.325752
 31
0.0
  0
LINE
  5
85
330
1F
100
AcDbEntity
  8
1
100
AcDbLine
 10
329.641497
 20
241.497469
 30
0.0
 11
329.641497
 21
244.551472
 31
0.0
  0
LINE
  5
86
330
1F
100
AcDbEntity
  8
1
100
AcDbLine
 10
329.641497
 20
244.551472
 30
0.0
 11
327.926214
 21
245.351322
 31
0.0
  0
LINE
  5
87
330
1F
100
AcDbEntity
  8
1
100
AcDbLine
 10
315.621658
 20
240.256161
 30
0.0
 11
315.621658
 21
243.731161
 31
0.0
  0
LINE
  5
88
330
1F
100
AcDbEntity
  8
1
100
AcDbLine
 10
315.621658
 20
243.731161
 30
0.0
 11
315.621658
 21
247.206161
 31
0.0
  0
LINE
  5
89
330
1F
100
AcDbEntity
  8
1
100
AcDbLine
 10
324.829707
 20
246.990548
 30
0.0
 11
324.410891
 21
246.990548
 31
0.0
  0
LINE
  5
8A
330
1F
100
AcDbEntity
  8
1
100
AcDbLine
 10
323.948498
 20
240.256161
 30
0.0
 11
324.151497
 21
240.256161
 31
0.0
  0
LINE
  5
8B
330
1F
100
AcDbEntity
  8
1
100
AcDbLine
 10
324.151497
 20
240.256161
 30
0.0
 11
324.151497
 21
240.323327
 31
0.0
  0
LINE
  5
8C
330
1F
100
AcDbEntity
  8
1
100
AcDbLine
 10
327.926214
 20
240.471775
 30
0.0
 11
324.151497
 21
240.471775
 31
0.0
  0
LINE
  5
8D
330
1F
100
AcDbEntity
  8
1
100
AcDbLine
 10
327.926214
 20
242.249504
 30
0.0
 11
327.926214
 21
240.471775
 31
0.0
  0
LINE
  5
8E
330
1F
100
AcDbEntity
  8
1
100
AcDbLine
 10
327.926214
 20
245.351322
 30
0.0
 11
327.926214
 21
245.212818
 31
0.0
  0
LINE
  5
8F
330
1F
100
AcDbEntity
  8
SK1
100
AcDbLine
 10
201.144248
 20
240.823362
 30
0.0
 11
201.144248
 21
246.638961
 31
0.0
  0
LINE
  5
92
330
1F
100
AcDbEntity
  8
SK1
100
AcDbLine
 10
201.144248
 20
246.638961
 30
0.0
 11
203.03383
 21
247.729911
 31
0.0
  0
LINE
  5
93
330
1F
100
AcDbEntity
  8
SK1
100
AcDbLine
 10
311.0680470000001
 20
239.732411
 30
0.0
 11
203.03383
 21
239.732411
 31
0.0
  0
LINE
  5
94
330
1F
100
AcDbEntity
  8
SK1
100
AcDbLine
 10
203.03383
 20
247.729911
 30
0.0
 11
311.0680470000001
 21
247.729911
 31
0.0
  0
LINE
  5
95
330
1F
100
AcDbEntity
  8
SK1
100
AcDbLine
 10
203.03383
 20
239.732411
 30
0.0
 11
201.144248
 21
240.823362
 31
0.0
  0
LINE
  5
97
330
1F
100
AcDbEntity
  8
1
100
AcDbLine
 10
331.129796
 20
243.979123
 30
0.0
 11
329.782307
 21
245.109801
 31
0.0
  0
LINE
  5
99
330
1F
100
AcDbEntity
  8
1
100
AcDbLine
 10
324.410883
 20
246.990548
 30
0.0
 11
327.926214
 21
245.351322
 31
0.0
  0
LINE
  5
9A
330
1F
100
AcDbEntity
  8
1
100
AcDbLine
 10
324.151497
 20
246.990548
 30
0.0
 11
324.410883
 21
246.990548
 31
0.0
  0
LINE
  5
9B
330
1F
100
AcDbEntity
  8
1
100
AcDbLine
 10
323.948498
 20
247.206161
 30
0.0
 11
324.092973
 21
247.138792
 31
0.0
  0
LINE
  5
9C
330
1F
100
AcDbEntity
  8
1
100
AcDbLine
 10
324.151497
 20
247.206161
 30
0.0
 11
323.948498
 21
247.206161
 31
0.0
  0
LINE
  5
9D
330
1F
100
AcDbEntity
  8
1
100
AcDbLine
 10
315.621658
 20
240.256161
 30
0.0
 11
323.948498
 21
240.256161
 31
0.0
  0
LINE
  5
9E
330
1F
100
AcDbEntity
  8
1
100
AcDbLine
 10
323.948498
 20
247.206161
 30
0.0
 11
315.621658
 21
247.206161
 31
0.0
  0
LINE
  5
9F
330
1F
100
AcDbEntity
  8
1
100
AcDbLine
 10
329.634959
 20
244.87851
 30
0.0
 11
329.782307
 21
245.109801
 31
0.0
  0
LINE
  5
A0
330
1F
100
AcDbEntity
  8
1
100
AcDbLine
 10
325.222352
 20
247.236143
 30
0.0
 11
329.782307
 21
245.109801
 31
0.0
  0
LINE
  5
A1
330
1F
100
AcDbEntity
  8
1
100
AcDbLine
 10
331.096412
 20
243.652206
 30
0.0
 11
329.634959
 21
244.87851
 31
0.0
  0
LINE
  5
A2
330
1F
100
AcDbEntity
  8
1
100
AcDbLine
 10
328.5110509999999
 20
245.188946
 30
0.0
 11
328.8070600000001
 21
244.940564
 31
0.0
  0
LINE
  5
A3
330
1F
100
AcDbEntity
  8
1
100
AcDbLine
 10
329.641486
 20
244.240399
 30
0.0
 11
330.698901
 21
243.353122
 31
0.0
  0
LINE
  5
A4
330
1F
100
AcDbEntity
  8
1
100
AcDbLine
 10
329.582701
 20
244.876894
 30
0.0
 11
328.5110509999999
 21
245.188946
 31
0.0
  0
LINE
  5
A5
330
1F
100
AcDbEntity
  8
1
100
AcDbLine
 10
324.990315
 20
247.018359
 30
0.0
 11
329.582701
 21
244.876894
 31
0.0
  0
LINE
  5
A6
330
1F
100
AcDbEntity
  8
1
100
AcDbLine
 10
328.5110509999999
 20
245.188946
 30
0.0
 11
325.197292
 21
246.734177
 31
0.0
  0
LINE
  5
A7
330
1F
100
AcDbEntity
  8
1
100
AcDbLine
 10
315.621693
 20
247.205564
 30
0.0
 11
315.620658
 21
247.206161
 31
0.0
  0
LINE
  5
A8
330
1F
100
AcDbEntity
  8
1
100
AcDbLine
 10
315.620658
 20
240.256161
 30
0.0
 11
315.621693
 21
240.256759
 31
0.0
  0
LINE
  5
A9
330
1F
100
AcDbEntity
  8
1
100
AcDbLine
 10
315.620658
 20
247.206161
 30
0.0
 11
315.620658
 21
243.731161
 31
0.0
  0
LINE
  5
AA
330
1F
100
AcDbEntity
  8
1
100
AcDbLine
 10
315.620658
 20
243.731161
 30
0.0
 11
315.620658
 21
240.256161
 31
0.0
  0
LINE
  5
AB
330
1F
100
AcDbEntity
  8
1
100
AcDbLine
 10
312.014248
 20
240.256161
 30
0.0
 11
315.620658
 21
240.256161
 31
0.0
  0
LINE
  5
AC
330
1F
100
AcDbEntity
  8
1
100
AcDbLine
 10
315.620658
 20
247.206161
 30
0.0
 11
312.014248
 21
247.206161
 31
0.0
  0
LINE
  5
AD
330
1F
100
AcDbEntity
  8
1
100
AcDbLine
 10
312.014248
 20
240.256161
 30
0.0
 11
312.014248
 21
243.731161
 31
0.0
  0
LINE
  5
AE
330
1F
100
AcDbEntity
  8
1
100
AcDbLine
 10
312.014248
 20
243.731161
 30
0.0
 11
312.014248
 21
247.206161
 31
0.0
  0
LINE
  5
AF
330
1F
100
AcDbEntity
  8
1
100
AcDbLine
 10
203.03383
 20
239.732411
 30
0.0
 11
311.0680470000001
 21
239.732411
 31
0.0
  0
LINE
  5
B0
330
1F
100
AcDbEntity
  8
1
100
AcDbLine
 10
311.0680470000001
 20
247.729911
 30
0.0
 11
203.03383
 21
247.729911
 31
0.0
  0
LINE
  5
B1
330
1F
100
AcDbEntity
  8
1
100
AcDbLine
 10
311.2262970000001
 20
247.590423
 30
0.0
 11
311.2262970000001
 21
243.731161
 31
0.0
  0
LINE
  5
B2
330
1F
100
AcDbEntity
  8
1
100
AcDbLine
 10
311.2262970000001
 20
243.731161
 30
0.0
 11
311.2262970000001
 21
239.871899
 31
0.0
  0
LINE
  5
B3
330
1F
100
AcDbEntity
  8
1
100
AcDbLine
 10
311.0680470000001
 20
239.732411
 30
0.0
 11
311.0680470000001
 21
247.729911
 31
0.0
  0
LINE
  5
B4
330
1F
100
AcDbEntity
  8
81
100
AcDbLine
 10
329.144248
 20
247.731161
 30
0.0
 11
333.144248
 21
247.731161
 31
0.0
  0
LINE
  5
B5
330
1F
100
AcDbEntity
  8
81
100
AcDbLine
 10
331.144248
 20
245.731161
 30
0.0
 11
331.144248
 21
249.731161
 31
0.0
  0
LINE
  5
B6
330
1F
100
AcDbEntity
  8
80
100
AcDbLine
 10
236.144675
 20
243.731161
 30
0.0
 11
238.143822
 21
243.731161
 31
0.0
  0
LINE
  5
B7
330
1F
100
AcDbEntity
  8
80
100
AcDbLine
 10
237.144248
 20
242.731588
 30
0.0
 11
237.144248
 21
244.730735
 31
0.0
  0
LINE
  5
BB
330
1F
100
AcDbEntity
  8
NOCUT
100
AcDbLine
 10
315.621658
 20
247.206161
 30
0.0
 11
327.926214
 21
247.206161
 31
0.0
  0
LINE
  5
BC
330
1F
100
AcDbEntity
  8
NOCUT
100
AcDbLine
 10
329.641497
 20
246.269154
 30
0.0
 11
329.641497
 21
243.731161
 31
0.0
  0
LINE
  5
BD
330
1F
100
AcDbEntity
  8
NOCUT
100
AcDbLine
 10
321.639535
 20
243.731161
 30
0.0
 11
329.641497
 21
243.731161
 31
0.0
  0
LINE
  5
BE
330
1F
100
AcDbEntity
  8
NOCUT
100
AcDbLine
 10
203.03383
 20
247.729911
 30
0.0
 11
311.0680470000001
 21
247.729911
 31
0.0
  0
LINE
  5
BF
330
1F
100
AcDbEntity
  8
NOCUT
100
AcDbLine
 10
312.014248
 20
247.206161
 30
0.0
 11
315.620658
 21
247.206161
 31
0.0
  0
LINE
  5
C1
330
1F
100
AcDbEntity
  8
NOCUT
100
AcDbLine
 10
201.144248
 20
243.731161
 30
0.0
 11
321.639535
 21
243.731161
 31
0.0
  0
LINE
  5
C2
330
1F
100
AcDbEntity
  8
NOCUT
100
AcDbLine
 10
201.144248
 20
243.731161
 30
0.0
 11
201.144248
 21
246.638961
 31
0.0
  0
LINE
  5
C3
330
1F
100
AcDbEntity
  8
NOCUT
100
AcDbLine
 10
201.144248
 20
246.638961
 30
0.0
 11
203.03383
 21
247.729911
 31
0.0
  0
LINE
  5
C4
102
{ACAD_REACTORS
330
19F
102
}
330
1F
100
AcDbEntity
  8
SK2
100
AcDbLine
 10
201.144248
 20
276.693814
 30
0.0
 11
331.144248
 21
276.693814
 31
0.0
  0
LINE
  5
C5
102
{ACAD_REACTORS
330
19F
102
}
330
1F
100
AcDbEntity
  8
SK2
100
AcDbLine
 10
331.144248
 20
249.731161
 30
0.0
 11
331.144248
 21
277.693814
 31
0.0
  0
LINE
  5
C6
102
{ACAD_REACTORS
330
19F
102
}
330
1F
100
AcDbEntity
  8
SK2
100
AcDbLine
 10
201.144248
 20
246.638961
 30
0.0
 11
201.144248
 21
277.693814
 31
0.0
  0
LINE
  5
C7
330
1F
100
AcDbEntity
  8
SK2
 60
     1
100
AcDbLine
 10
331.144248
 20
276.693814
 30
0.0
 11
327.644251
 21
276.076669
 31
0.0
  0
LINE
  5
C8
330
1F
100
AcDbEntity
  8
SK2
 60
     1
100
AcDbLine
 10
327.644251
 20
276.076669
 30
0.0
 11
327.644246
 21
277.310958
 31
0.0
  0
LINE
  5
C9
330
1F
100
AcDbEntity
  8
SK2
 60
     1
100
AcDbLine
 10
327.644246
 20
277.310958
 30
0.0
 11
331.144248
 21
276.693814
 31
0.0
  0
LINE
  5
CA
330
1F
100
AcDbEntity
  8
SK2
 60
     1
100
AcDbLine
 10
201.144248
 20
276.693814
 30
0.0
 11
204.644246
 21
277.310958
 31
0.0
  0
LINE
  5
CB
330
1F
100
AcDbEntity
  8
SK2
 60
     1
100
AcDbLine
 10
204.644246
 20
277.310958
 30
0.0
 11
204.644251
 21
276.076669
 31
0.0
  0
LINE
  5
CC
330
1F
100
AcDbEntity
  8
SK2
 60
     1
100
AcDbLine
 10
204.644251
 20
276.076669
 30
0.0
 11
201.144248
 21
276.693814
 31
0.0
  0
ARC
  5
D2
330
1F
100
AcDbEntity
  8
1
100
AcDbCircle
 10
311.804719
 20
248.406161
 30
0.0
 40
1.0
100
AcDbArc
 50
222.551295
 51
234.660403
  0
ARC
  5
D3
330
1F
100
AcDbEntity
  8
1
100
AcDbCircle
 10
311.804719
 20
239.056161
 30
0.0
 40
1.0
100
AcDbArc
 50
125.339597
 51
137.448705
  0
CIRCLE
  5
D4
330
1F
100
AcDbEntity
  8
1
100
AcDbCircle
 10
327.141497
 20
243.731161
 30
0.0
 40
1.25
  0
ARC
  5
D5
330
1F
100
AcDbEntity
  8
1
100
AcDbCircle
 10
327.141497
 20
243.731161
 30
0.0
 40
3.352518642752043
100
AcDbArc
 50
283.53669
 51
318.219948
  0
ARC
  5
D6
330
1F
100
AcDbEntity
  8
1
100
AcDbCircle
 10
327.141497
 20
243.731161
 30
0.0
 40
1.676630002619663
100
AcDbArc
 50
297.906656
 51
62.09334399999999
  0
CIRCLE
  5
D7
330
1F
100
AcDbEntity
  8
1
100
AcDbCircle
 10
327.141497
 20
243.731161
 30
0.0
 40
1.324999999999999
  0
ARC
  5
D8
330
1F
100
AcDbEntity
  8
1
100
AcDbCircle
 10
327.141497
 20
243.731161
 30
0.0
 40
3.996
100
AcDbArc
 50
3.557636
 51
118.702816
  0
ARC
  5
D9
330
1F
100
AcDbEntity
  8
1
100
AcDbCircle
 10
327.141497
 20
243.731161
 30
0.0
 40
3.996
100
AcDbArc
 50
234.6547859999999
 51
0.032089
  0
ARC
  5
DA
330
1F
100
AcDbEntity
  8
1
100
AcDbCircle
 10
327.141497
 20
243.731161
 30
0.0
 40
3.577434230593866
100
AcDbArc
 50
245.65752
 51
353.93404
  0
CIRCLE
  5
DB
330
1F
100
AcDbEntity
  8
1
100
AcDbCircle
 10
327.141497
 20
243.731161
 30
0.0
 40
1.252499999999999
  0
ARC
  5
DC
330
1F
100
AcDbEntity
  8
1
100
AcDbCircle
 10
327.141497
 20
243.731161
 30
0.0
 40
3.996
100
AcDbArc
 50
121.89971
 51
128.22751
  0
ARC
  5
DD
330
1F
100
AcDbEntity
  8
1
100
AcDbCircle
 10
327.141497
 20
243.731161
 30
0.0
 40
3.577434230593866
100
AcDbArc
 50
122.919726
 51
124.791487
  0
ARC
  5
DE
330
1F
100
AcDbEntity
  8
1
100
AcDbCircle
 10
312.014248
 20
248.206161
 30
0.0
 40
1.0
100
AcDbArc
 50
218.005567
 51
270.0
  0
ARC
  5
DF
330
1F
100
AcDbEntity
  8
1
100
AcDbCircle
 10
312.014248
 20
239.256161
 30
0.0
 40
1.0
100
AcDbArc
 50
90.0
 51
141.994433
  0
ARC
  5
E0
330
1F
100
AcDbEntity
  8
NOCUT
100
AcDbCircle
 10
327.141497
 20
243.731161
 30
0.0
 40
3.5625
100
AcDbArc
 50
45.432071
 51
77.275019
  0
ARC
  5
E1
330
1F
100
AcDbEntity
  8
NOCUT
100
AcDbCircle
 10
311.804719
 20
248.406161
 30
0.0
 40
1.0
100
AcDbArc
 50
222.551295
 51
234.660403
  0
ARC
  5
E2
330
1F
100
AcDbEntity
  8
NOCUT
100
AcDbCircle
 10
312.014248
 20
248.206161
 30
0.0
 40
1.0
100
AcDbArc
 50
218.005567
 51
270.0
  0
ELLIPSE
  5
E3
330
1F
100
AcDbEntity
  8
1
100
AcDbEllipse
 10
363.097262
 20
243.73057
 30
0.0
 11
-199.0646677114241
 21
0.0001168508662404
 31
0.0
210
0.0
220
0.0
230
1.0
 40
0.017454
 41
1.370347229690865
 42
1.373882460075396
  0
ELLIPSE
  5
E4
330
1F
100
AcDbEntity
  8
1
100
AcDbEllipse
 10
323.439522
 20
243.731161
 30
0.0
 11
0.0
 21
3.474999980782658
 31
0.0
210
0.0
220
0.0
230
1.0
 40
0.017455
 41
3.345046657025223
 42
3.496341541848011
  0
ELLIPSE
  5
E5
330
1F
100
AcDbEntity
  8
1
100
AcDbEllipse
 10
393.1997970000001
 20
243.731814
 30
0.0
 11
-199.1049702841963
 21
-0.0002274307460634
 31
0.0
210
0.0
220
0.0
230
1.0
 40
0.017456
 41
1.21299843835928
 42
1.216646082630473
  0
ELLIPSE
  5
E6
330
1F
100
AcDbEntity
  8
1
100
AcDbEllipse
 10
393.2039529999999
 20
243.730314
 30
0.0
 11
-199.1116557954313
 21
0.0002954596588446
 31
0.0
210
0.0
220
0.0
230
0.9999999999999998
 40
0.017457
 41
5.066549069827108
 42
5.070196604892566
  0
ELLIPSE
  5
E7
330
1F
100
AcDbEntity
  8
1
100
AcDbEllipse
 10
323.439522
 20
243.731161
 30
0.0
 11
0.0
 21
3.47499998047284
 31
0.0
210
0.0
220
0.0
230
1.0
 40
0.017455
 41
5.928436418906335
 42
6.079731303736704
  0
ELLIPSE
  5
E8
330
1F
100
AcDbEntity
  8
1
100
AcDbEllipse
 10
328.623196
 20
245.650303
 30
0.0
 11
-1.011137588347704
 21
0.7726875990277994
 31
0.0
210
0.0
220
0.0
230
1.0
 40
0.100127
 41
2.888352724919296
 42
3.150152112746864
  0
ELLIPSE
  5
E9
330
1F
100
AcDbEntity
  8
1
100
AcDbEllipse
 10
329.733349
 20
246.82001
 30
0.0
 11
-3.320602164631521
 21
-3.957339537974981
 31
0.0
210
0.0
220
0.0
230
1.0
 40
0.6251100000000001
 41
1.165866208795157
 42
1.265954180385254
  0
SPLINE
  5
EA
330
1F
100
AcDbEntity
  8
1
100
AcDbSpline
210
0.0
220
0.0
230
1.0
 70
     8
 71
     3
 72
    10
 73
     6
 74
     0
 42
0.000000001
 43
0.0000000001
 40
0.0
 40
0.0
 40
0.0
 40
0.0
 40
0.5
 40
0.5
 40
1.0
 40
1.0
 40
1.0
 40
1.0
 10
323.4616019874733
 20
240.3257518883922
 30
0.0
 10
323.458932851237
 20
240.3257613552366
 30
0.0
 10
323.4563508630353
 20
240.3259960884936
 30
0.0
 10
323.45274842353
 20
240.3267650146435
 30
0.0
 10
323.4517324308118
 20
240.3272958138192
 30
0.0
 10
323.451778034586
 20
240.3278348233492
 30
0.0
  0
SPLINE
  5
EB
330
1F
100
AcDbEntity
  8
1
100
AcDbSpline
210
0.0
220
0.0
230
1.0
 70
     8
 71
     3
 72
    10
 73
     6
 74
     0
 42
0.000000001
 43
0.0000000001
 40
0.0
 40
0.0
 40
0.0
 40
0.0
 40
0.5
 40
0.5
 40
1.0
 40
1.0
 40
1.0
 40
1.0
 10
323.460591499837
 20
240.4725365511772
 30
0.0
 10
323.4606361402203
 20
240.4734838790864
 30
0.0
 10
323.4616717410146
 20
240.4744120195659
 30
0.0
 10
323.465378703737
 20
240.4757916268996
 30
0.0
 10
323.4680317913333
 20
240.4762102270834
 30
0.0
 10
323.4707645008529
 20
240.4761923944024
 30
0.0
  0
SPLINE
  5
EC
330
1F
100
AcDbEntity
  8
1
100
AcDbSpline
210
0.0
220
0.0
230
1.0
 70
     8
 71
     3
 72
   104
 73
   100
 74
     0
 42
0.000000001
 43
0.0000000001
 40
0.0
 40
0.0
 40
0.0
 40
0.0
 40
0.0312499999999954
 40
0.0312499999999954
 40
0.0468749999999903
 40
0.0546874999999906
 40
0.0546874999999906
 40
0.0624999999999909
 40
0.0624999999999909
 40
0.0937499999999977
 40
0.0937499999999977
 40
0.1250000000000045
 40
0.1250000000000045
 40
0.1406250000000079
 40
0.1406250000000079
 40
0.1562500000000114
 40
0.1562500000000114
 40
0.1875000000000182
 40
0.218750000000025
 40
0.218750000000025
 40
0.226562500000024
 40
0.226562500000024
 40
0.234375000000023
 40
0.234375000000023
 40
0.2500000000000159
 40
0.2500000000000159
 40
0.2812500000000016
 40
0.2812500000000016
 40
0.3124999999999873
 40
0.3124999999999873
 40
0.3203124999999838
 40
0.3203124999999838
 40
0.3281249999999802
 40
0.3437499999999771
 40
0.3437499999999771
 40
0.3749999999999708
 40
0.3749999999999708
 40
0.3906249999999692
 40
0.3906249999999692
 40
0.3984374999999685
 40
0.3984374999999685
 40
0.4062499999999677
 40
0.4062499999999677
 40
0.4374999999999624
 40
0.4374999999999624
 40
0.468749999999957
 40
0.468749999999957
 40
0.4843749999999542
 40
0.4843749999999542
 40
0.4999999999999515
 40
0.4999999999999515
 40
0.531249999999946
 40
0.531249999999946
 40
0.5468749999999434
 40
0.5468749999999434
 40
0.5624999999999406
 40
0.5624999999999406
 40
0.5937499999999369
 40
0.5937499999999369
 40
0.6093749999999351
 40
0.6093749999999351
 40
0.6171874999999354
 40
0.6171874999999354
 40
0.6249999999999359
 40
0.6249999999999359
 40
0.6562499999999313
 40
0.6562499999999313
 40
0.6874999999999269
 40
0.6874999999999269
 40
0.6953124999999269
 40
0.6953124999999269
 40
0.7031249999999268
 40
0.7187499999999267
 40
0.7187499999999267
 40
0.7499999999999308
 40
0.7499999999999308
 40
0.7656249999999333
 40
0.7656249999999333
 40
0.7812499999999356
 40
0.7812499999999356
 40
0.8124999999999397
 40
0.8437499999999442
 40
0.8437499999999442
 40
0.8593749999999491
 40
0.8593749999999491
 40
0.8671874999999545
 40
0.8671874999999545
 40
0.8749999999999598
 40
0.8749999999999598
 40
0.9062499999999698
 40
0.9374999999999797
 40
0.9374999999999797
 40
0.9453124999999852
 40
0.9453124999999852
 40
0.9531249999999904
 40
0.9531249999999904
 40
0.9687499999999952
 40
0.9687499999999952
 40
1.0
 40
1.0
 40
1.0
 40
1.0
 10
327.9262142029172
 20
242.249504495782
 30
0.0
 10
327.8599311494137
 20
242.2200744040248
 30
0.0
 10
327.791972979525
 20
242.1944967446096
 30
0.0
 10
327.6874545553281
 20
242.161861714547
 30
0.0
 10
327.6345482733216
 20
242.1469817000108
 30
0.0
 10
327.5806419588268
 20
242.1342917155816
 30
0.0
 10
327.5444776966533
 20
242.1263252416781
 30
0.0
 10
327.5262483771937
 20
242.1225824614494
 30
0.0
 10
327.4350060425435
 20
242.105210781829
 30
0.0
 10
327.3618011635829
 20
242.0955897346649
 30
0.0
 10
327.2149787933049
 20
242.0845870884244
 30
0.0
 10
327.1413612638101
 20
242.083206450001
 30
0.0
 10
327.0306218936217
 20
242.0873743023114
 30
0.0
 10
326.9936564850694
 20
242.0898063169102
 30
0.0
 10
326.9196191586973
 20
242.096802481457
 30
0.0
 10
326.8824839781755
 20
242.1013841263095
 30
0.0
 10
326.7725154463827
 20
242.118146552525
 30
0.0
 10
326.6286876041617
 20
242.1485811739522
 30
0.0
 10
326.490188280068
 20
242.1947715644368
 30
0.0
 10
326.4052781184489
 20
242.2286869381237
 30
0.0
 10
326.3883789595348
 20
242.2357233463631
 30
0.0
 10
326.3547472065774
 20
242.2503101178957
 30
0.0
 10
326.3380034203607
 20
242.2578667362952
 30
0.0
 10
326.288342868121
 20
242.2811655499796
 30
0.0
 10
326.2558913383581
 20
242.2975794842141
 30
0.0
 10
326.1604438849316
 20
242.3494375827557
 30
0.0
 10
326.0993467932617
 20
242.3874859918492
 30
0.0
 10
325.9821123725942
 20
242.4706793824389
 30
0.0
 10
325.9259739269008
 20
242.5158217524959
 30
0.0
 10
325.8590070379193
 20
242.5770345762528
 30
0.0
 10
325.8457772616691
 20
242.58951706828
 30
0.0
 10
325.819827979095
 20
242.6147912560447
 30
0.0
 10
325.7815977890852
 20
242.6532312504208
 30
0.0
 10
325.7454288768428
 20
242.6932569636423
 30
0.0
 10
325.6758238602037
 20
242.7754484100891
 30
0.0
 10
325.6330502975485
 20
242.8330853477697
 30
0.0
 10
325.5745162195059
 20
242.9240889852391
 30
0.0
 10
325.5559459319736
 20
242.955184111511
 30
0.0
 10
325.5295589203675
 20
243.0030298276502
 30
0.0
 10
325.5210082447776
 20
243.0191791096672
 30
0.0
 10
325.5044097520843
 20
243.0518921882989
 30
0.0
 10
325.4963441625772
 20
243.0684952629393
 30
0.0
 10
325.4575671265223
 20
243.1520250727505
 30
0.0
 10
325.4315086899723
 20
243.2203697236866
 30
0.0
 10
325.3892431697823
 20
243.3601298021367
 30
0.0
 10
325.3730344993436
 20
243.4315445742916
 30
0.0
 10
325.3564754461867
 20
243.5411087632865
 30
0.0
 10
325.3522525744931
 20
243.5780384331393
 30
0.0
 10
325.3465239149679
 20
243.6527554545483
 30
0.0
 10
325.3450593850644
 20
243.6900468500728
 30
0.0
 10
325.344764759247
 20
243.8013725395681
 30
0.0
 10
325.3500031739599
 20
243.8750171611522
 30
0.0
 10
325.3658545584867
 20
243.9846447719021
 30
0.0
 10
325.372475285062
 20
244.0210469912873
 30
0.0
 10
325.3884198722567
 20
244.0935689019154
 30
0.0
 10
325.3977817810808
 20
244.1297810778014
 30
0.0
 10
325.4294343599111
 20
244.2362166769104
 30
0.0
 10
325.4553648998642
 20
244.304802057379
 30
0.0
 10
325.5010924098235
 20
244.4043831552243
 30
0.0
 10
325.5174782258742
 20
244.4370252254894
 30
0.0
 10
325.5437597196304
 20
244.4851760155649
 30
0.0
 10
325.5528042700152
 20
244.5010907808106
 30
0.0
 10
325.5714625250271
 20
244.5326505112184
 30
0.0
 10
325.5810819375509
 20
244.5483021279355
 30
0.0
 10
325.6302596362377
 20
244.6253609775654
 30
0.0
 10
325.6732901590161
 20
244.6836244353224
 30
0.0
 10
325.7663120596593
 20
244.793969892347
 30
0.0
 10
325.8163056555624
 20
244.8460490762912
 30
0.0
 10
325.883162581365
 20
244.9074135661474
 30
0.0
 10
325.896773834468
 20
244.9195161090112
 30
0.0
 10
325.9242940972328
 20
244.9432234468641
 30
0.0
 10
325.9660433490933
 20
244.9780613838302
 30
0.0
 10
326.0091799958358
 20
245.0107823794868
 30
0.0
 10
326.0972781137088
 20
245.0734990809047
 30
0.0
 10
326.1584352423075
 20
245.1116886519709
 30
0.0
 10
326.2538618612528
 20
245.163690553863
 30
0.0
 10
326.2862879163766
 20
245.1801410057811
 30
0.0
 10
326.3524081679482
 20
245.2112627954213
 30
0.0
 10
326.3862071960298
 20
245.2259715995939
 30
0.0
 10
326.4883423235092
 20
245.2669030236469
 30
0.0
 10
326.6269527391304
 20
245.3132643940309
 30
0.0
 10
326.7704128406765
 20
245.343760143189
 30
0.0
 10
326.8798972474873
 20
245.3605895744705
 30
0.0
 10
326.9167076726737
 20
245.3651893860496
 30
0.0
 10
326.9724127976468
 20
245.370533670529
 30
0.0
 10
326.9910842913619
 20
245.3720561764812
 30
0.0
 10
327.0283167394004
 20
245.3745579067417
 30
0.0
 10
327.0469084814994
 20
245.375540720236
 30
0.0
 10
327.1397462185083
 20
245.3791322606946
 30
0.0
 10
327.2875144365591
 20
245.3764455828927
 30
0.0
 10
327.4337775264898
 20
245.3572871585634
 30
0.0
 10
327.5247176475226
 20
245.3400455073258
 30
0.0
 10
327.5428818906123
 20
245.336332811817
 30
0.0
 10
327.5791624431704
 20
245.3283716120395
 30
0.0
 10
327.5972795322713
 20
245.3241216378377
 30
0.0
 10
327.6511781011549
 20
245.3106573203538
 30
0.0
 10
327.686636365838
 20
245.300702417219
 30
0.0
 10
327.7916362933737
 20
245.2679585366902
 30
0.0
 10
327.859808202728
 20
245.2423028054572
 30
0.0
 10
327.9262142029172
 20
245.2128181245999
 30
0.0
  0
SPLINE
  5
ED
330
1F
100
AcDbEntity
  8
1
100
AcDbSpline
210
0.0
220
0.0
230
1.0
 70
     8
 71
     3
 72
    14
 73
    10
 74
     0
 42
0.000000001
 43
0.0000000001
 40
0.0
 40
0.0
 40
0.0
 40
0.0
 40
0.5
 40
0.5
 40
0.625
 40
0.625
 40
0.75
 40
0.75
 40
1.0
 40
1.0
 40
1.0
 40
1.0
 10
331.1297961361112
 20
243.9791233644492
 30
0.0
 10
331.1324691189969
 20
243.9361302716516
 30
0.0
 10
331.1344038868593
 20
243.8937752715087
 30
0.0
 10
331.1359797774725
 20
243.8417545478912
 30
0.0
 10
331.1362535473201
 20
243.8313630357467
 30
0.0
 10
331.1367150588182
 20
243.810866520553
 30
0.0
 10
331.1369027544651
 20
243.8007781734628
 30
0.0
 10
331.1373474763849
 20
243.7710115066583
 30
0.0
 10
331.1374859499141
 20
243.7518266345053
 30
0.0
 10
331.137496270412
 20
243.7333993319266
 30
0.0
  0
SPLINE
  5
EE
330
1F
100
AcDbEntity
  8
1
100
AcDbSpline
210
0.0
220
0.0
230
1.0
 70
     8
 71
     3
 72
    10
 73
     6
 74
     0
 42
0.000000001
 43
0.0000000001
 40
0.0
 40
0.0
 40
0.0
 40
0.0
 40
0.5
 40
0.5
 40
1.0
 40
1.0
 40
1.0
 40
1.0
 10
323.4707645008529
 20
246.9861302259796
 30
0.0
 10
323.4680354639978
 20
246.986112417265
 30
0.0
 10
323.4653745501057
 20
246.9865335143232
 30
0.0
 10
323.4616859783382
 20
246.9879043298255
 30
0.0
 10
323.4606360962189
 20
246.9888396750498
 30
0.0
 10
323.4605914998363
 20
246.9897860692046
 30
0.0
  0
SPLINE
  5
EF
330
1F
100
AcDbEntity
  8
1
100
AcDbSpline
210
0.0
220
0.0
230
1.0
 70
     8
 71
     3
 72
    10
 73
     6
 74
     0
 42
0.000000001
 43
0.0000000001
 40
0.0
 40
0.0
 40
0.0
 40
0.0
 40
0.5
 40
0.5
 40
1.0
 40
1.0
 40
1.0
 40
1.0
 10
323.4517780345862
 20
247.1344877970327
 30
0.0
 10
323.4517324151291
 20
247.1350269919248
 30
0.0
 10
323.4527417675874
 20
247.1355556320255
 30
0.0
 10
323.4563476741294
 20
247.136326402751
 30
0.0
 10
323.4589318472789
 20
247.1365612615845
 30
0.0
 10
323.4616019874733
 20
247.1365707319897
 30
0.0
  0
SPLINE
  5
F0
330
1F
100
AcDbEntity
  8
1
100
AcDbSpline
210
0.0
220
0.0
230
1.0
 70
    12
 71
     2
 72
     6
 73
     3
 74
     0
 42
0.000000001
 43
0.0000000001
 40
0.0
 40
0.0
 40
0.0
 40
1.0
 40
1.0
 40
1.0
 10
323.4616019874733
 20
247.1365707319897
 30
0.0
 41
0.5000003153743843
 10
323.777184691713
 20
247.1376900350523
 30
0.0
 41
0.4999996846256157
 10
324.0929731977978
 20
247.1387915113897
 30
0.0
 41
0.5000003153743843
  0
SPLINE
  5
F1
330
1F
100
AcDbEntity
  8
1
100
AcDbSpline
210
0.0
220
0.0
230
1.0
 70
     8
 71
     3
 72
    14
 73
    10
 74
     0
 42
0.000000001
 43
0.0000000001
 40
0.0
 40
0.0
 40
0.0
 40
0.0
 40
0.25
 40
0.25
 40
0.5
 40
0.5
 40
0.75
 40
0.75
 40
1.0
 40
1.0
 40
1.0
 40
1.0
 10
325.0298744776848
 20
247.1236628588555
 30
0.0
 10
325.043768069705
 20
247.1323107606989
 30
0.0
 10
325.0584637306896
 20
247.1413391698743
 30
0.0
 10
325.0892798345467
 20
247.1599723774864
 30
0.0
 10
325.105098774852
 20
247.1693950560122
 30
0.0
 10
325.1375014284838
 20
247.1883814022544
 30
0.0
 10
325.1540927466139
 20
247.1979495450403
 30
0.0
 10
325.1880069704375
 20
247.2171723585225
 30
0.0
 10
325.2051079956987
 20
247.2267013980568
 30
0.0
 10
325.2223515083829
 20
247.2361430472112
 30
0.0
  0
SPLINE
  5
F2
330
1F
100
AcDbEntity
  8
1
100
AcDbSpline
210
0.0
220
0.0
230
1.0
 70
     8
 71
     3
 72
    12
 73
     8
 74
     0
 42
0.000000001
 43
0.0000000001
 40
0.0
 40
0.0
 40
0.0
 40
0.0
 40
0.4999999999999594
 40
0.4999999999999594
 40
0.7499999999999797
 40
0.7499999999999797
 40
1.0
 40
1.0
 40
1.0
 40
1.0
 10
331.137496270412
 20
243.733399331928
 30
0.0
 10
331.132406230197
 20
243.7139641019688
 30
0.0
 10
331.1263620765799
 20
243.6970854834528
 30
0.0
 10
331.1158224762705
 20
243.676158381281
 30
0.0
 10
331.1121229840328
 20
243.6700579195624
 30
0.0
 10
331.1044744368184
 20
243.6597484973519
 30
0.0
 10
331.1005105068769
 20
243.655509486641
 30
0.0
 10
331.096412053546
 20
243.6522056983439
 30
0.0
  0
SPLINE
  5
F3
330
1F
100
AcDbEntity
  8
1
100
AcDbSpline
210
0.0
220
0.0
230
1.0
 70
     8
 71
     3
 72
     8
 73
     4
 74
     0
 42
0.000000001
 43
0.0000000001
 40
0.0
 40
0.0
 40
0.0
 40
0.0
 40
1.0
 40
1.0
 40
1.0
 40
1.0
 10
324.9903148265066
 20
247.018358990214
 30
0.0
 10
325.0592929021067
 20
246.9236374041855
 30
0.0
 10
325.1282838484073
 20
246.82891064999
 30
0.0
 10
325.1972920259562
 20
246.7341769766709
 30
0.0
  0
SPLINE
  5
F4
330
1F
100
AcDbEntity
  8
1
100
AcDbSpline
210
0.0
220
0.0
230
1.0
 70
     8
 71
     3
 72
    14
 73
    10
 74
     0
 42
0.000000001
 43
0.0000000001
 40
0.0
 40
0.0
 40
0.0
 40
0.0
 40
0.2499999999999999
 40
0.2499999999999999
 40
0.4999999999999999
 40
0.4999999999999999
 40
0.75
 40
0.75
 40
1.0
 40
1.0
 40
1.0
 40
1.0
 10
324.9903148265066
 20
247.018358990214
 30
0.0
 10
324.9865112181752
 20
247.0235821543955
 30
0.0
 10
324.9843672782987
 20
247.0297813582675
 30
0.0
 10
324.9836108669207
 20
247.0442411190723
 30
0.0
 10
324.9850658311012
 20
247.0526094245091
 30
0.0
 10
324.9916819964307
 20
247.0707095401331
 30
0.0
 10
324.9968146170703
 20
247.080516193512
 30
0.0
 10
325.0108812523667
 20
247.1015627738356
 30
0.0
 10
325.019581162289
 20
247.1124562850124
 30
0.0
 10
325.029874477685
 20
247.1236628588556
 30
0.0
  0
LINE
  5
FA
330
1F
100
AcDbEntity
  8
SK4
100
AcDbLine
 10
199.144248
 20
243.731161
 30
0.0
 11
332.068047
 21
243.731161
 31
0.0
  0
LINE
  5
FB
330
1F
100
AcDbEntity
  8
4
100
AcDbLine
 10
199.144248
 20
243.731161
 30
0.0
 11
332.014248
 21
243.731161
 31
0.0
  0
LINE
  5
FF
330
1F
100
AcDbEntity
  8
SK2
 60
     1
100
AcDbLine
 10
331.144248
 20
276.693814
 30
0.0
 11
327.644251
 21
276.076669
 31
0.0
  0
LINE
  5
100
330
1F
100
AcDbEntity
  8
SK2
 60
     1
100
AcDbLine
 10
327.644251
 20
276.076669
 30
0.0
 11
327.644246
 21
277.310958
 31
0.0
  0
LINE
  5
101
330
1F
100
AcDbEntity
  8
SK2
 60
     1
100
AcDbLine
 10
327.644246
 20
277.310958
 30
0.0
 11
331.144248
 21
276.693814
 31
0.0
  0
LINE
  5
103
330
1F
100
AcDbEntity
  8
SK2
 60
     1
100
AcDbLine
 10
201.144248
 20
276.693814
 30
0.0
 11
204.644246
 21
277.310958
 31
0.0
  0
LINE
  5
104
330
1F
100
AcDbEntity
  8
SK2
 60
     1
100
AcDbLine
 10
204.644246
 20
277.310958
 30
0.0
 11
204.644251
 21
276.076669
 31
0.0
  0
LINE
  5
105
330
1F
100
AcDbEntity
  8
SK2
 60
     1
100
AcDbLine
 10
204.644251
 20
276.076669
 30
0.0
 11
201.144248
 21
276.693814
 31
0.0
  0
MTEXT
  5
107
330
1F
100
AcDbEntity
  8
SK6
100
AcDbMText
 10
242.877901
 20
199.705963
 30
0.0
 40
3.5
 41
0.0
 71
     7
 72
     5
  1
\W0.7013;PPH-08/02-QC08-130HSCW\P\P\P\P 
  7
cesky
 73
     1
 44
0.8433729999999998
  0
MTEXT
  5
204
330
1F
100
AcDbEntity
  8
2
100
AcDbMText
 10
328.590873
 20
253.28384
 30
0.0
 40
3.5
 41
0.0
 71
     7
 72
     5
  1
\W0.5687;4
  7
cesky
 73
     2
 44
0.8433729999999998
  0
LINE
  5
205
330
1F
100
AcDbEntity
  8
2
100
AcDbLine
 10
327.141497
 20
243.731161
 30
0.0
 11
327.141497
 21
254.409673
 31
0.0
  0
LINE
  5
206
330
1F
100
AcDbEntity
  8
2
100
AcDbLine
 10
331.144248
 20
249.731161
 30
0.0
 11
331.144248
 21
254.409673
 31
0.0
  0
LINE
  5
207
330
1F
100
AcDbEntity
  8
2
100
AcDbLine
 10
318.391497
 20
253.409673
 30
0.0
 11
339.894248
 21
253.409673
 31
0.0
  0
SOLID
  5
208
330
1F
100
AcDbEntity
  8
2
100
AcDbTrace
 10
327.141497
 20
253.409673
 30
0.0
 11
323.641499
 21
252.792529
 31
0.0
 12
323.641495
 22
254.026818
 32
0.0
 13
323.641495
 23
254.026818
 33
0.0
  0
SOLID
  5
209
330
1F
100
AcDbEntity
  8
2
100
AcDbTrace
 10
331.144248
 20
253.409673
 30
0.0
 11
334.644246
 21
254.026818
 31
0.0
 12
334.644251
 22
252.792529
 32
0.0
 13
334.644251
 23
252.792529
 33
0.0
  0
MTEXT
  5
20A
330
1F
100
AcDbEntity
  8
2
100
AcDbMText
 10
319.329366
 20
258.915987
 30
0.0
 40
3.5
 41
0.0
 71
     7
 72
     5
  1
\W0.7045;20
  7
cesky
 73
     2
 44
0.8433729999999998
  0
LINE
  5
20B
330
1F
100
AcDbEntity
  8
2
100
AcDbLine
 10
331.144248
 20
249.731161
 30
0.0
 11
331.144248
 21
260.041821
 31
0.0
  0
LINE
  5
20C
330
1F
100
AcDbEntity
  8
2
100
AcDbLine
 10
311.143484
 20
247.655983
 30
0.0
 11
311.143484
 21
260.041821
 31
0.0
  0
LINE
  5
20D
330
1F
100
AcDbEntity
  8
2
100
AcDbLine
 10
331.144248
 20
259.041821
 30
0.0
 11
311.143484
 21
259.041821
 31
0.0
  0
SOLID
  5
20E
330
1F
100
AcDbEntity
  8
2
100
AcDbTrace
 10
331.144248
 20
259.041821
 30
0.0
 11
327.644251
 21
258.424676
 31
0.0
 12
327.644246
 22
259.658965
 32
0.0
 13
327.644246
 23
259.658965
 33
0.0
  0
SOLID
  5
20F
330
1F
100
AcDbEntity
  8
2
100
AcDbTrace
 10
311.143484
 20
259.041821
 30
0.0
 11
314.643481
 21
259.658965
 31
0.0
 12
314.643486
 22
258.424676
 32
0.0
 13
314.643486
 23
258.424676
 33
0.0
  0
MTEXT
  5
210
330
1F
100
AcDbEntity
  8
2
100
AcDbMText
 10
343.486973
 20
244.129571
 30
0.0
 40
3.5
 41
0.0
 71
     7
 72
     5
  1
\W0.6094;8
  7
cesky
 11
0.0000000000000001
 21
1.0
 31
0.0
 73
     2
 44
0.8433729999999998
  0
MTEXT
  5
211
330
1F
100
AcDbEntity
  8
2
100
AcDbMText
 10
343.486973
 20
237.392071
 30
0.0
 40
3.5
 41
0.0
 71
     7
 72
     5
  1
\W3.0115;\H2.63;%%c\H3.50;
  7
cesky
 11
0.0000000000000001
 21
1.0
 31
0.0
 73
     2
 44
0.8433729999999998
  0
LINE
  5
212
330
1F
100
AcDbEntity
  8
2
100
AcDbLine
 10
333.144248
 20
247.731161
 30
0.0
 11
344.67439
 21
247.731161
 31
0.0
  0
LINE
  5
213
330
1F
100
AcDbEntity
  8
2
100
AcDbLine
 10
343.67439
 20
256.481161
 30
0.0
 11
343.67439
 21
247.731161
 31
0.0
  0
SOLID
  5
214
330
1F
100
AcDbEntity
  8
2
100
AcDbTrace
 10
343.67439
 20
247.731161
 30
0.0
 11
343.057245
 21
251.231159
 31
0.0
 12
344.291534
 22
251.231164
 32
0.0
 13
344.291534
 23
251.231164
 33
0.0
  0
TEXT
  5
215
330
1F
100
AcDbEntity
  8
SK2
100
AcDbText
 10
263.067248
 20
277.7346466666667
 30
0.0
 40
3.5
  1
130
 41
0.7809000000000001
  7
cesky
100
AcDbText
  0
LINE
  5
216
330
1F
100
AcDbEntity
  8
SK2
100
AcDbLine
 10
327.6442461176022
 20
277.283867816258
 30
0.0
 11
327.6672756167366
 21
277.3068973153925
 31
0.0
  0
LINE
  5
217
330
1F
100
AcDbEntity
  8
SK2
100
AcDbLine
 10
327.6442462198594
 20
277.2560291245399
 30
0.0
 11
327.6909414827201
 21
277.3027243874005
 31
0.0
  0
LINE
  5
218
330
1F
100
AcDbEntity
  8
SK2
100
AcDbLine
 10
327.6442463221166
 20
277.2281904328218
 30
0.0
 11
327.7146073487033
 21
277.2985514594085
 31
0.0
  0
LINE
  5
219
330
1F
100
AcDbEntity
  8
SK2
100
AcDbLine
 10
327.6442464243738
 20
277.2003517411038
 30
0.0
 11
327.7382732146868
 21
277.2943785314167
 31
0.0
  0
LINE
  5
21A
330
1F
100
AcDbEntity
  8
SK2
100
AcDbLine
 10
327.644246526631
 20
277.1725130493856
 30
0.0
 11
327.7619390806701
 21
277.2902056034247
 31
0.0
  0
LINE
  5
21B
330
1F
100
AcDbEntity
  8
SK2
100
AcDbLine
 10
327.6442466288882
 20
277.1446743576675
 30
0.0
 11
327.7856049466535
 21
277.2860326754328
 31
0.0
  0
LINE
  5
21C
330
1F
100
AcDbEntity
  8
SK2
100
AcDbLine
 10
327.6442467311455
 20
277.1168356659495
 30
0.0
 11
327.8092708126369
 21
277.2818597474409
 31
0.0
  0
LINE
  5
21D
330
1F
100
AcDbEntity
  8
SK2
100
AcDbLine
 10
327.6442468334027
 20
277.0889969742313
 30
0.0
 11
327.8329366786203
 21
277.2776868194489
 31
0.0
  0
LINE
  5
21E
330
1F
100
AcDbEntity
  8
SK2
100
AcDbLine
 10
327.64424693566
 20
277.0611582825132
 30
0.0
 11
327.8566025446037
 21
277.273513891457
 31
0.0
  0
LINE
  5
21F
330
1F
100
AcDbEntity
  8
SK2
100
AcDbLine
 10
327.6442470379172
 20
277.0333195907952
 30
0.0
 11
327.8802684105871
 21
277.269340963465
 31
0.0
  0
LINE
  5
220
330
1F
100
AcDbEntity
  8
SK2
100
AcDbLine
 10
327.6442471401744
 20
277.005480899077
 30
0.0
 11
327.9039342765705
 21
277.2651680354731
 31
0.0
  0
LINE
  5
221
330
1F
100
AcDbEntity
  8
SK2
100
AcDbLine
 10
327.6442472424316
 20
276.977642207359
 30
0.0
 11
327.9276001425539
 21
277.2609951074812
 31
0.0
  0
LINE
  5
222
330
1F
100
AcDbEntity
  8
SK2
100
AcDbLine
 10
327.6442473446889
 20
276.9498035156409
 30
0.0
 11
327.9512660085373
 21
277.2568221794893
 31
0.0
  0
LINE
  5
223
330
1F
100
AcDbEntity
  8
SK2
100
AcDbLine
 10
327.644247446946
 20
276.9219648239227
 30
0.0
 11
327.9749318745207
 21
277.2526492514974
 31
0.0
  0
LINE
  5
224
330
1F
100
AcDbEntity
  8
SK2
100
AcDbLine
 10
327.6442475492033
 20
276.8941261322046
 30
0.0
 11
327.998597740504
 21
277.2484763235054
 31
0.0
  0
LINE
  5
225
330
1F
100
AcDbEntity
  8
SK2
100
AcDbLine
 10
327.6442476514605
 20
276.8662874404867
 30
0.0
 11
328.0222636064875
 21
277.2443033955136
 31
0.0
  0
LINE
  5
226
330
1F
100
AcDbEntity
  8
SK2
100
AcDbLine
 10
327.6442477537178
 20
276.8384487487686
 30
0.0
 11
328.0459294724708
 21
277.2401304675216
 31
0.0
  0
LINE
  5
227
330
1F
100
AcDbEntity
  8
SK2
100
AcDbLine
 10
327.644247855975
 20
276.8106100570504
 30
0.0
 11
328.0695953384542
 21
277.2359575395296
 31
0.0
  0
LINE
  5
228
330
1F
100
AcDbEntity
  8
SK2
100
AcDbLine
 10
327.6442479582322
 20
276.7827713653324
 30
0.0
 11
328.0932612044376
 21
277.2317846115377
 31
0.0
  0
LINE
  5
229
330
1F
100
AcDbEntity
  8
SK2
100
AcDbLine
 10
327.6442480604895
 20
276.7549326736143
 30
0.0
 11
328.1169270704209
 21
277.2276116835458
 31
0.0
  0
LINE
  5
22A
330
1F
100
AcDbEntity
  8
SK2
100
AcDbLine
 10
327.6442481627467
 20
276.7270939818962
 30
0.0
 11
328.1405929364043
 21
277.2234387555538
 31
0.0
  0
LINE
  5
22B
330
1F
100
AcDbEntity
  8
SK2
100
AcDbLine
 10
327.6442482650038
 20
276.6992552901781
 30
0.0
 11
328.1642588023877
 21
277.219265827562
 31
0.0
  0
LINE
  5
22C
330
1F
100
AcDbEntity
  8
SK2
100
AcDbLine
 10
327.6442483672611
 20
276.67141659846
 30
0.0
 11
328.1879246683711
 21
277.21509289957
 31
0.0
  0
LINE
  5
22D
330
1F
100
AcDbEntity
  8
SK2
100
AcDbLine
 10
327.6442484695183
 20
276.6435779067419
 30
0.0
 11
328.2115905343545
 21
277.2109199715781
 31
0.0
  0
LINE
  5
22E
330
1F
100
AcDbEntity
  8
SK2
100
AcDbLine
 10
327.6442485717755
 20
276.6157392150238
 30
0.0
 11
328.2352564003379
 21
277.2067470435861
 31
0.0
  0
LINE
  5
22F
330
1F
100
AcDbEntity
  8
SK2
100
AcDbLine
 10
327.6442486740328
 20
276.5879005233058
 30
0.0
 11
328.2589222663212
 21
277.2025741155942
 31
0.0
  0
LINE
  5
230
330
1F
100
AcDbEntity
  8
SK2
100
AcDbLine
 10
327.64424877629
 20
276.5600618315876
 30
0.0
 11
328.2825881323046
 21
277.1984011876023
 31
0.0
  0
LINE
  5
231
330
1F
100
AcDbEntity
  8
SK2
100
AcDbLine
 10
327.6442488785472
 20
276.5322231398696
 30
0.0
 11
328.306253998288
 21
277.1942282596104
 31
0.0
  0
LINE
  5
232
330
1F
100
AcDbEntity
  8
SK2
100
AcDbLine
 10
327.6442489808044
 20
276.5043844481515
 30
0.0
 11
328.3299198642714
 21
277.1900553316184
 31
0.0
  0
LINE
  5
233
330
1F
100
AcDbEntity
  8
SK2
100
AcDbLine
 10
327.6442490830616
 20
276.4765457564334
 30
0.0
 11
328.3535857302548
 21
277.1858824036264
 31
0.0
  0
LINE
  5
234
330
1F
100
AcDbEntity
  8
SK2
100
AcDbLine
 10
327.6442491853189
 20
276.4487070647153
 30
0.0
 11
328.3772515962382
 21
277.1817094756345
 31
0.0
  0
LINE
  5
235
330
1F
100
AcDbEntity
  8
SK2
100
AcDbLine
 10
327.6442492875761
 20
276.4208683729972
 30
0.0
 11
328.4009174622216
 21
277.1775365476426
 31
0.0
  0
LINE
  5
236
330
1F
100
AcDbEntity
  8
SK2
100
AcDbLine
 10
327.6442493898333
 20
276.3930296812791
 30
0.0
 11
328.424583328205
 21
277.1733636196507
 31
0.0
  0
LINE
  5
237
330
1F
100
AcDbEntity
  8
SK2
100
AcDbLine
 10
327.6442494920906
 20
276.365190989561
 30
0.0
 11
328.4482491941883
 21
277.1691906916587
 31
0.0
  0
LINE
  5
238
330
1F
100
AcDbEntity
  8
SK2
100
AcDbLine
 10
327.6442495943479
 20
276.337352297843
 30
0.0
 11
328.4719150601717
 21
277.1650177636669
 31
0.0
  0
LINE
  5
239
330
1F
100
AcDbEntity
  8
SK2
100
AcDbLine
 10
327.6442496966051
 20
276.3095136061249
 30
0.0
 11
328.4955809261551
 21
277.160844835675
 31
0.0
  0
LINE
  5
23A
330
1F
100
AcDbEntity
  8
SK2
100
AcDbLine
 10
327.6442497988623
 20
276.2816749144068
 30
0.0
 11
328.5192467921385
 21
277.156671907683
 31
0.0
  0
LINE
  5
23B
330
1F
100
AcDbEntity
  8
SK2
100
AcDbLine
 10
327.6442499011195
 20
276.2538362226887
 30
0.0
 11
328.5429126581219
 21
277.1524989796911
 31
0.0
  0
LINE
  5
23C
330
1F
100
AcDbEntity
  8
SK2
100
AcDbLine
 10
327.6442500033767
 20
276.2259975309706
 30
0.0
 11
328.5665785241053
 21
277.1483260516991
 31
0.0
  0
LINE
  5
23D
330
1F
100
AcDbEntity
  8
SK2
100
AcDbLine
 10
327.6442501056339
 20
276.1981588392525
 30
0.0
 11
328.5902443900887
 21
277.1441531237072
 31
0.0
  0
LINE
  5
23E
330
1F
100
AcDbEntity
  8
SK2
100
AcDbLine
 10
327.6442502078912
 20
276.1703201475344
 30
0.0
 11
328.6139102560721
 21
277.1399801957153
 31
0.0
  0
LINE
  5
23F
330
1F
100
AcDbEntity
  8
SK2
100
AcDbLine
 10
327.6442503101483
 20
276.1424814558163
 30
0.0
 11
328.6375761220554
 21
277.1358072677234
 31
0.0
  0
LINE
  5
240
330
1F
100
AcDbEntity
  8
SK2
100
AcDbLine
 10
327.6442504124056
 20
276.1146427640983
 30
0.0
 11
328.6612419880388
 21
277.1316343397315
 31
0.0
  0
LINE
  5
241
330
1F
100
AcDbEntity
  8
SK2
100
AcDbLine
 10
327.6442505146628
 20
276.0868040723802
 30
0.0
 11
328.6849078540222
 21
277.1274614117395
 31
0.0
  0
LINE
  5
242
330
1F
100
AcDbEntity
  8
SK2
100
AcDbLine
 10
327.6657443653511
 20
276.0804591290931
 30
0.0
 11
328.7085737200056
 21
277.1232884837476
 31
0.0
  0
LINE
  5
243
330
1F
100
AcDbEntity
  8
SK2
100
AcDbLine
 10
327.6995427260879
 20
276.0864186958547
 30
0.0
 11
328.732239585989
 21
277.1191155557556
 31
0.0
  0
LINE
  5
244
330
1F
100
AcDbEntity
  8
SK2
100
AcDbLine
 10
327.7333410868247
 20
276.0923782626161
 30
0.0
 11
328.7559054519724
 21
277.1149426277637
 31
0.0
  0
LINE
  5
245
330
1F
100
AcDbEntity
  8
SK2
100
AcDbLine
 10
327.7671394475615
 20
276.0983378293776
 30
0.0
 11
328.7795713179558
 21
277.1107696997717
 31
0.0
  0
LINE
  5
246
330
1F
100
AcDbEntity
  8
SK2
100
AcDbLine
 10
327.8009378082984
 20
276.1042973961391
 30
0.0
 11
328.8032371839391
 21
277.1065967717798
 31
0.0
  0
LINE
  5
247
330
1F
100
AcDbEntity
  8
SK2
100
AcDbLine
 10
327.8347361690352
 20
276.1102569629006
 30
0.0
 11
328.8269030499225
 21
277.1024238437879
 31
0.0
  0
LINE
  5
248
330
1F
100
AcDbEntity
  8
SK2
100
AcDbLine
 10
327.868534529772
 20
276.1162165296621
 30
0.0
 11
328.8505689159058
 21
277.098250915796
 31
0.0
  0
LINE
  5
249
330
1F
100
AcDbEntity
  8
SK2
100
AcDbLine
 10
327.9023328905088
 20
276.1221760964236
 30
0.0
 11
328.8742347818893
 21
277.094077987804
 31
0.0
  0
LINE
  5
24A
330
1F
100
AcDbEntity
  8
SK2
100
AcDbLine
 10
327.9361312512456
 20
276.1281356631851
 30
0.0
 11
328.8979006478727
 21
277.0899050598121
 31
0.0
  0
LINE
  5
24B
330
1F
100
AcDbEntity
  8
SK2
100
AcDbLine
 10
327.9699296119825
 20
276.1340952299466
 30
0.0
 11
328.9215665138561
 21
277.0857321318203
 31
0.0
  0
LINE
  5
24C
330
1F
100
AcDbEntity
  8
SK2
100
AcDbLine
 10
328.0037279727193
 20
276.1400547967082
 30
0.0
 11
328.9452323798395
 21
277.0815592038283
 31
0.0
  0
LINE
  5
24D
330
1F
100
AcDbEntity
  8
SK2
100
AcDbLine
 10
328.0375263334561
 20
276.1460143634697
 30
0.0
 11
328.9688982458228
 21
277.0773862758364
 31
0.0
  0
LINE
  5
24E
330
1F
100
AcDbEntity
  8
SK2
100
AcDbLine
 10
328.071324694193
 20
276.1519739302312
 30
0.0
 11
328.9925641118062
 21
277.0732133478444
 31
0.0
  0
LINE
  5
24F
330
1F
100
AcDbEntity
  8
SK2
100
AcDbLine
 10
328.1051230549298
 20
276.1579334969927
 30
0.0
 11
329.0162299777896
 21
277.0690404198525
 31
0.0
  0
LINE
  5
250
330
1F
100
AcDbEntity
  8
SK2
100
AcDbLine
 10
328.1389214156666
 20
276.1638930637542
 30
0.0
 11
329.039895843773
 21
277.0648674918606
 31
0.0
  0
LINE
  5
251
330
1F
100
AcDbEntity
  8
SK2
100
AcDbLine
 10
328.1727197764034
 20
276.1698526305157
 30
0.0
 11
329.0635617097564
 21
277.0606945638686
 31
0.0
  0
LINE
  5
252
330
1F
100
AcDbEntity
  8
SK2
100
AcDbLine
 10
328.2065181371402
 20
276.1758121972771
 30
0.0
 11
329.0872275757398
 21
277.0565216358767
 31
0.0
  0
LINE
  5
253
330
1F
100
AcDbEntity
  8
SK2
100
AcDbLine
 10
328.240316497877
 20
276.1817717640386
 30
0.0
 11
329.1108934417231
 21
277.0523487078847
 31
0.0
  0
LINE
  5
254
330
1F
100
AcDbEntity
  8
SK2
100
AcDbLine
 10
328.2741148586138
 20
276.1877313308002
 30
0.0
 11
329.1345593077064
 21
277.0481757798929
 31
0.0
  0
LINE
  5
255
330
1F
100
AcDbEntity
  8
SK2
100
AcDbLine
 10
328.3079132193506
 20
276.1936908975616
 30
0.0
 11
329.1582251736898
 21
277.0440028519009
 31
0.0
  0
LINE
  5
256
330
1F
100
AcDbEntity
  8
SK2
100
AcDbLine
 10
328.3417115800874
 20
276.1996504643231
 30
0.0
 11
329.1818910396732
 21
277.039829923909
 31
0.0
  0
LINE
  5
257
330
1F
100
AcDbEntity
  8
SK2
100
AcDbLine
 10
328.3755099408243
 20
276.2056100310847
 30
0.0
 11
329.2055569056567
 21
277.0356569959171
 31
0.0
  0
LINE
  5
258
330
1F
100
AcDbEntity
  8
SK2
100
AcDbLine
 10
328.4093083015611
 20
276.2115695978462
 30
0.0
 11
329.22922277164
 21
277.0314840679251
 31
0.0
  0
LINE
  5
259
330
1F
100
AcDbEntity
  8
SK2
100
AcDbLine
 10
328.4431066622979
 20
276.2175291646077
 30
0.0
 11
329.2528886376235
 21
277.0273111399332
 31
0.0
  0
LINE
  5
25A
330
1F
100
AcDbEntity
  8
SK2
100
AcDbLine
 10
328.4769050230347
 20
276.2234887313692
 30
0.0
 11
329.2765545036068
 21
277.0231382119413
 31
0.0
  0
LINE
  5
25B
330
1F
100
AcDbEntity
  8
SK2
100
AcDbLine
 10
328.5107033837716
 20
276.2294482981307
 30
0.0
 11
329.3002203695902
 21
277.0189652839493
 31
0.0
  0
LINE
  5
25C
330
1F
100
AcDbEntity
  8
SK2
100
AcDbLine
 10
328.5445017445084
 20
276.2354078648922
 30
0.0
 11
329.3238862355736
 21
277.0147923559574
 31
0.0
  0
LINE
  5
25D
330
1F
100
AcDbEntity
  8
SK2
100
AcDbLine
 10
328.5783001052452
 20
276.2413674316537
 30
0.0
 11
329.347552101557
 21
277.0106194279655
 31
0.0
  0
LINE
  5
25E
330
1F
100
AcDbEntity
  8
SK2
100
AcDbLine
 10
328.6120984659819
 20
276.2473269984151
 30
0.0
 11
329.3712179675404
 21
277.0064464999736
 31
0.0
  0
LINE
  5
25F
330
1F
100
AcDbEntity
  8
SK2
100
AcDbLine
 10
328.6458968267189
 20
276.2532865651767
 30
0.0
 11
329.3948838335238
 21
277.0022735719816
 31
0.0
  0
LINE
  5
260
330
1F
100
AcDbEntity
  8
SK2
100
AcDbLine
 10
328.6796951874557
 20
276.2592461319382
 30
0.0
 11
329.4185496995072
 21
276.9981006439897
 31
0.0
  0
LINE
  5
261
330
1F
100
AcDbEntity
  8
SK2
100
AcDbLine
 10
328.7134935481924
 20
276.2652056986997
 30
0.0
 11
329.4422155654905
 21
276.9939277159978
 31
0.0
  0
LINE
  5
262
330
1F
100
AcDbEntity
  8
SK2
100
AcDbLine
 10
328.7472919089292
 20
276.2711652654612
 30
0.0
 11
329.4658814314739
 21
276.9897547880059
 31
0.0
  0
LINE
  5
263
330
1F
100
AcDbEntity
  8
SK2
100
AcDbLine
 10
328.7810902696661
 20
276.2771248322227
 30
0.0
 11
329.4895472974573
 21
276.9855818600139
 31
0.0
  0
LINE
  5
264
330
1F
100
AcDbEntity
  8
SK2
100
AcDbLine
 10
328.8148886304029
 20
276.2830843989842
 30
0.0
 11
329.5132131634407
 21
276.981408932022
 31
0.0
  0
LINE
  5
265
330
1F
100
AcDbEntity
  8
SK2
100
AcDbLine
 10
328.8486869911397
 20
276.2890439657457
 30
0.0
 11
329.5368790294241
 21
276.9772360040301
 31
0.0
  0
LINE
  5
266
330
1F
100
AcDbEntity
  8
SK2
100
AcDbLine
 10
328.8824853518765
 20
276.2950035325072
 30
0.0
 11
329.5605448954075
 21
276.9730630760381
 31
0.0
  0
LINE
  5
267
330
1F
100
AcDbEntity
  8
SK2
100
AcDbLine
 10
328.9162837126134
 20
276.3009630992688
 30
0.0
 11
329.5842107613909
 21
276.9688901480462
 31
0.0
  0
LINE
  5
268
330
1F
100
AcDbEntity
  8
SK2
100
AcDbLine
 10
328.9500820733501
 20
276.3069226660302
 30
0.0
 11
329.6078766273742
 21
276.9647172200542
 31
0.0
  0
LINE
  5
269
330
1F
100
AcDbEntity
  8
SK2
100
AcDbLine
 10
328.9838804340869
 20
276.3128822327917
 30
0.0
 11
329.6315424933576
 21
276.9605442920624
 31
0.0
  0
LINE
  5
26A
330
1F
100
AcDbEntity
  8
SK2
100
AcDbLine
 10
329.0176787948238
 20
276.3188417995532
 30
0.0
 11
329.655208359341
 21
276.9563713640704
 31
0.0
  0
LINE
  5
26B
330
1F
100
AcDbEntity
  8
SK2
100
AcDbLine
 10
329.0514771555606
 20
276.3248013663146
 30
0.0
 11
329.6788742253244
 21
276.9521984360785
 31
0.0
  0
LINE
  5
26C
330
1F
100
AcDbEntity
  8
SK2
100
AcDbLine
 10
329.0852755162974
 20
276.3307609330762
 30
0.0
 11
329.7025400913077
 21
276.9480255080865
 31
0.0
  0
LINE
  5
26D
330
1F
100
AcDbEntity
  8
SK2
100
AcDbLine
 10
329.1190738770342
 20
276.3367204998377
 30
0.0
 11
329.7262059572911
 21
276.9438525800946
 31
0.0
  0
LINE
  5
26E
330
1F
100
AcDbEntity
  8
SK2
100
AcDbLine
 10
329.152872237771
 20
276.3426800665992
 30
0.0
 11
329.7498718232746
 21
276.9396796521027
 31
0.0
  0
LINE
  5
26F
330
1F
100
AcDbEntity
  8
SK2
100
AcDbLine
 10
329.1866705985078
 20
276.3486396333607
 30
0.0
 11
329.7735376892579
 21
276.9355067241107
 31
0.0
  0
LINE
  5
270
330
1F
100
AcDbEntity
  8
SK2
100
AcDbLine
 10
329.2204689592447
 20
276.3545992001222
 30
0.0
 11
329.7972035552413
 21
276.9313337961187
 31
0.0
  0
LINE
  5
271
330
1F
100
AcDbEntity
  8
SK2
100
AcDbLine
 10
329.2542673199815
 20
276.3605587668837
 30
0.0
 11
329.8208694212247
 21
276.9271608681269
 31
0.0
  0
LINE
  5
272
330
1F
100
AcDbEntity
  8
SK2
100
AcDbLine
 10
329.2880656807183
 20
276.3665183336452
 30
0.0
 11
329.844535287208
 21
276.9229879401349
 31
0.0
  0
LINE
  5
273
330
1F
100
AcDbEntity
  8
SK2
100
AcDbLine
 10
329.3218640414552
 20
276.3724779004067
 30
0.0
 11
329.8682011531914
 21
276.918815012143
 31
0.0
  0
LINE
  5
274
330
1F
100
AcDbEntity
  8
SK2
100
AcDbLine
 10
329.355662402192
 20
276.3784374671682
 30
0.0
 11
329.8918670191748
 21
276.9146420841511
 31
0.0
  0
LINE
  5
275
330
1F
100
AcDbEntity
  8
SK2
100
AcDbLine
 10
329.3894607629288
 20
276.3843970339298
 30
0.0
 11
329.9155328851583
 21
276.9104691561592
 31
0.0
  0
LINE
  5
276
330
1F
100
AcDbEntity
  8
SK2
100
AcDbLine
 10
329.4232591236656
 20
276.3903566006912
 30
0.0
 11
329.9391987511417
 21
276.9062962281672
 31
0.0
  0
LINE
  5
277
330
1F
100
AcDbEntity
  8
SK2
100
AcDbLine
 10
329.4570574844024
 20
276.3963161674527
 30
0.0
 11
329.962864617125
 21
276.9021233001754
 31
0.0
  0
LINE
  5
278
330
1F
100
AcDbEntity
  8
SK2
100
AcDbLine
 10
329.4908558451393
 20
276.4022757342142
 30
0.0
 11
329.9865304831084
 21
276.8979503721835
 31
0.0
  0
LINE
  5
279
330
1F
100
AcDbEntity
  8
SK2
100
AcDbLine
 10
329.524654205876
 20
276.4082353009758
 30
0.0
 11
330.0101963490917
 21
276.8937774441915
 31
0.0
  0
LINE
  5
27A
330
1F
100
AcDbEntity
  8
SK2
100
AcDbLine
 10
329.5584525666128
 20
276.4141948677372
 30
0.0
 11
330.0338622150751
 21
276.8896045161995
 31
0.0
  0
LINE
  5
27B
330
1F
100
AcDbEntity
  8
SK2
100
AcDbLine
 10
329.5922509273497
 20
276.4201544344988
 30
0.0
 11
330.0575280810585
 21
276.8854315882076
 31
0.0
  0
LINE
  5
27C
330
1F
100
AcDbEntity
  8
SK2
100
AcDbLine
 10
329.6260492880865
 20
276.4261140012602
 30
0.0
 11
330.081193947042
 21
276.8812586602158
 31
0.0
  0
LINE
  5
27D
330
1F
100
AcDbEntity
  8
SK2
100
AcDbLine
 10
329.6598476488232
 20
276.4320735680217
 30
0.0
 11
330.1048598130253
 21
276.8770857322238
 31
0.0
  0
LINE
  5
27E
330
1F
100
AcDbEntity
  8
SK2
100
AcDbLine
 10
329.6936460095601
 20
276.4380331347832
 30
0.0
 11
330.1285256790087
 21
276.8729128042318
 31
0.0
  0
LINE
  5
27F
330
1F
100
AcDbEntity
  8
SK2
100
AcDbLine
 10
329.7274443702969
 20
276.4439927015447
 30
0.0
 11
330.152191544992
 21
276.8687398762399
 31
0.0
  0
LINE
  5
280
330
1F
100
AcDbEntity
  8
SK2
100
AcDbLine
 10
329.7612427310337
 20
276.4499522683062
 30
0.0
 11
330.1758574109755
 21
276.864566948248
 31
0.0
  0
LINE
  5
281
330
1F
100
AcDbEntity
  8
SK2
100
AcDbLine
 10
329.7950410917705
 20
276.4559118350677
 30
0.0
 11
330.1995232769588
 21
276.860394020256
 31
0.0
  0
LINE
  5
282
330
1F
100
AcDbEntity
  8
SK2
100
AcDbLine
 10
329.8288394525074
 20
276.4618714018292
 30
0.0
 11
330.2231891429423
 21
276.8562210922641
 31
0.0
  0
LINE
  5
283
330
1F
100
AcDbEntity
  8
SK2
100
AcDbLine
 10
329.8626378132441
 20
276.4678309685907
 30
0.0
 11
330.2468550089256
 21
276.8520481642722
 31
0.0
  0
LINE
  5
284
330
1F
100
AcDbEntity
  8
SK2
100
AcDbLine
 10
329.896436173981
 20
276.4737905353523
 30
0.0
 11
330.270520874909
 21
276.8478752362802
 31
0.0
  0
LINE
  5
285
330
1F
100
AcDbEntity
  8
SK2
100
AcDbLine
 10
329.9302345347178
 20
276.4797501021138
 30
0.0
 11
330.2941867408924
 21
276.8437023082882
 31
0.0
  0
LINE
  5
286
330
1F
100
AcDbEntity
  8
SK2
100
AcDbLine
 10
329.9640328954547
 20
276.4857096688753
 30
0.0
 11
330.3178526068758
 21
276.8395293802964
 31
0.0
  0
LINE
  5
287
330
1F
100
AcDbEntity
  8
SK2
100
AcDbLine
 10
329.9978312561914
 20
276.4916692356368
 30
0.0
 11
330.3415184728592
 21
276.8353564523045
 31
0.0
  0
LINE
  5
288
330
1F
100
AcDbEntity
  8
SK2
100
AcDbLine
 10
330.0316296169283
 20
276.4976288023983
 30
0.0
 11
330.3651843388426
 21
276.8311835243125
 31
0.0
  0
LINE
  5
289
330
1F
100
AcDbEntity
  8
SK2
100
AcDbLine
 10
330.0654279776651
 20
276.5035883691598
 30
0.0
 11
330.388850204826
 21
276.8270105963206
 31
0.0
  0
LINE
  5
28A
330
1F
100
AcDbEntity
  8
SK2
100
AcDbLine
 10
330.0992263384019
 20
276.5095479359213
 30
0.0
 11
330.4125160708093
 21
276.8228376683287
 31
0.0
  0
LINE
  5
28B
330
1F
100
AcDbEntity
  8
SK2
100
AcDbLine
 10
330.1330246991387
 20
276.5155075026827
 30
0.0
 11
330.4361819367928
 21
276.8186647403368
 31
0.0
  0
LINE
  5
28C
330
1F
100
AcDbEntity
  8
SK2
100
AcDbLine
 10
330.1668230598755
 20
276.5214670694443
 30
0.0
 11
330.4598478027762
 21
276.8144918123448
 31
0.0
  0
LINE
  5
28D
330
1F
100
AcDbEntity
  8
SK2
100
AcDbLine
 10
330.2006214206124
 20
276.5274266362058
 30
0.0
 11
330.4835136687594
 21
276.8103188843529
 31
0.0
  0
LINE
  5
28E
330
1F
100
AcDbEntity
  8
SK2
100
AcDbLine
 10
330.2344197813491
 20
276.5333862029673
 30
0.0
 11
330.5071795347428
 21
276.8061459563609
 31
0.0
  0
LINE
  5
28F
330
1F
100
AcDbEntity
  8
SK2
100
AcDbLine
 10
330.268218142086
 20
276.5393457697288
 30
0.0
 11
330.5308454007262
 21
276.8019730283691
 31
0.0
  0
LINE
  5
290
330
1F
100
AcDbEntity
  8
SK2
100
AcDbLine
 10
330.3020165028228
 20
276.5453053364903
 30
0.0
 11
330.5545112667096
 21
276.7978001003771
 31
0.0
  0
LINE
  5
291
330
1F
100
AcDbEntity
  8
SK2
100
AcDbLine
 10
330.3358148635596
 20
276.5512649032518
 30
0.0
 11
330.578177132693
 21
276.7936271723851
 31
0.0
  0
LINE
  5
292
330
1F
100
AcDbEntity
  8
SK2
100
AcDbLine
 10
330.3696132242964
 20
276.5572244700132
 30
0.0
 11
330.6018429986764
 21
276.7894542443932
 31
0.0
  0
LINE
  5
293
330
1F
100
AcDbEntity
  8
SK2
100
AcDbLine
 10
330.4034115850333
 20
276.5631840367748
 30
0.0
 11
330.6255088646598
 21
276.7852813164013
 31
0.0
  0
LINE
  5
294
330
1F
100
AcDbEntity
  8
SK2
100
AcDbLine
 10
330.43720994577
 20
276.5691436035362
 30
0.0
 11
330.6491747306432
 21
276.7811083884094
 31
0.0
  0
LINE
  5
295
330
1F
100
AcDbEntity
  8
SK2
100
AcDbLine
 10
330.4710083065069
 20
276.5751031702978
 30
0.0
 11
330.6728405966266
 21
276.7769354604175
 31
0.0
  0
LINE
  5
296
330
1F
100
AcDbEntity
  8
SK2
100
AcDbLine
 10
330.5048066672437
 20
276.5810627370592
 30
0.0
 11
330.6965064626099
 21
276.7727625324255
 31
0.0
  0
LINE
  5
297
330
1F
100
AcDbEntity
  8
SK2
100
AcDbLine
 10
330.5386050279805
 20
276.5870223038207
 30
0.0
 11
330.7201723285934
 21
276.7685896044336
 31
0.0
  0
LINE
  5
298
330
1F
100
AcDbEntity
  8
SK2
100
AcDbLine
 10
330.5724033887174
 20
276.5929818705822
 30
0.0
 11
330.7438381945767
 21
276.7644166764416
 31
0.0
  0
LINE
  5
299
330
1F
100
AcDbEntity
  8
SK2
100
AcDbLine
 10
330.6062017494542
 20
276.5989414373438
 30
0.0
 11
330.7675040605602
 21
276.7602437484498
 31
0.0
  0
LINE
  5
29A
330
1F
100
AcDbEntity
  8
SK2
100
AcDbLine
 10
330.640000110191
 20
276.6049010041053
 30
0.0
 11
330.7911699265435
 21
276.7560708204578
 31
0.0
  0
LINE
  5
29B
330
1F
100
AcDbEntity
  8
SK2
100
AcDbLine
 10
330.6737984709278
 20
276.6108605708668
 30
0.0
 11
330.8148357925269
 21
276.7518978924659
 31
0.0
  0
LINE
  5
29C
330
1F
100
AcDbEntity
  8
SK2
100
AcDbLine
 10
330.7075968316646
 20
276.6168201376283
 30
0.0
 11
330.8385016585102
 21
276.7477249644739
 31
0.0
  0
LINE
  5
29D
330
1F
100
AcDbEntity
  8
SK2
100
AcDbLine
 10
330.7413951924014
 20
276.6227797043898
 30
0.0
 11
330.8621675244936
 21
276.7435520364821
 31
0.0
  0
LINE
  5
29E
330
1F
100
AcDbEntity
  8
SK2
100
AcDbLine
 10
330.7751935531382
 20
276.6287392711513
 30
0.0
 11
330.885833390477
 21
276.7393791084901
 31
0.0
  0
LINE
  5
29F
330
1F
100
AcDbEntity
  8
SK2
100
AcDbLine
 10
330.8089919138751
 20
276.6346988379128
 30
0.0
 11
330.9094992564604
 21
276.7352061804981
 31
0.0
  0
LINE
  5
2A0
330
1F
100
AcDbEntity
  8
SK2
100
AcDbLine
 10
330.8427902746119
 20
276.6406584046744
 30
0.0
 11
330.9331651224438
 21
276.7310332525062
 31
0.0
  0
LINE
  5
2A1
330
1F
100
AcDbEntity
  8
SK2
100
AcDbLine
 10
330.8765886353486
 20
276.6466179714358
 30
0.0
 11
330.9568309884272
 21
276.7268603245143
 31
0.0
  0
LINE
  5
2A2
330
1F
100
AcDbEntity
  8
SK2
100
AcDbLine
 10
330.9103869960854
 20
276.6525775381973
 30
0.0
 11
330.9804968544105
 21
276.7226873965224
 31
0.0
  0
LINE
  5
2A3
330
1F
100
AcDbEntity
  8
SK2
100
AcDbLine
 10
330.9441853568223
 20
276.6585371049588
 30
0.0
 11
331.0041627203939
 21
276.7185144685304
 31
0.0
  0
LINE
  5
2A4
330
1F
100
AcDbEntity
  8
SK2
100
AcDbLine
 10
330.9779837175591
 20
276.6644966717203
 30
0.0
 11
331.0278285863773
 21
276.7143415405385
 31
0.0
  0
LINE
  5
2A5
330
1F
100
AcDbEntity
  8
SK2
100
AcDbLine
 10
331.0117820782959
 20
276.6704562384818
 30
0.0
 11
331.0514944523607
 21
276.7101686125466
 31
0.0
  0
LINE
  5
2A6
330
1F
100
AcDbEntity
  8
SK2
100
AcDbLine
 10
331.0455804390327
 20
276.6764158052433
 30
0.0
 11
331.0751603183441
 21
276.7059956845546
 31
0.0
  0
LINE
  5
2A7
330
1F
100
AcDbEntity
  8
SK2
100
AcDbLine
 10
331.0793787997696
 20
276.6823753720048
 30
0.0
 11
331.0988261843275
 21
276.7018227565627
 31
0.0
  0
LINE
  5
2A8
330
1F
100
AcDbEntity
  8
SK2
100
AcDbLine
 10
331.1131771605064
 20
276.6883349387663
 30
0.0
 11
331.1224920503109
 21
276.6976498285708
 31
0.0
  0
LINE
  5
2A9
330
1F
100
AcDbEntity
  8
SK2
100
AcDbLine
 10
201.1637303528727
 20
276.6903784079002
 30
0.0
 11
201.1720715625594
 21
276.6987196175869
 31
0.0
  0
LINE
  5
2AA
330
1F
100
AcDbEntity
  8
SK2
100
AcDbLine
 10
201.1873962188561
 20
276.6862054799083
 30
0.0
 11
201.2058699232962
 21
276.7046791843484
 31
0.0
  0
LINE
  5
2AB
330
1F
100
AcDbEntity
  8
SK2
100
AcDbLine
 10
201.2110620848395
 20
276.6820325519163
 30
0.0
 11
201.239668284033
 21
276.7106387511099
 31
0.0
  0
LINE
  5
2AC
330
1F
100
AcDbEntity
  8
SK2
100
AcDbLine
 10
201.2347279508228
 20
276.6778596239244
 30
0.0
 11
201.2734666447698
 21
276.7165983178714
 31
0.0
  0
LINE
  5
2AD
330
1F
100
AcDbEntity
  8
SK2
100
AcDbLine
 10
201.2583938168063
 20
276.6736866959325
 30
0.0
 11
201.3072650055066
 21
276.7225578846329
 31
0.0
  0
LINE
  5
2AE
330
1F
100
AcDbEntity
  8
SK2
100
AcDbLine
 10
201.2820596827896
 20
276.6695137679406
 30
0.0
 11
201.3410633662434
 21
276.7285174513944
 31
0.0
  0
LINE
  5
2AF
330
1F
100
AcDbEntity
  8
SK2
100
AcDbLine
 10
201.305725548773
 20
276.6653408399486
 30
0.0
 11
201.3748617269803
 21
276.7344770181559
 31
0.0
  0
LINE
  5
2B0
330
1F
100
AcDbEntity
  8
SK2
100
AcDbLine
 10
201.3293914147564
 20
276.6611679119567
 30
0.0
 11
201.4086600877171
 21
276.7404365849174
 31
0.0
  0
LINE
  5
2B1
330
1F
100
AcDbEntity
  8
SK2
100
AcDbLine
 10
201.3530572807398
 20
276.6569949839647
 30
0.0
 11
201.4424584484539
 21
276.7463961516789
 31
0.0
  0
LINE
  5
2B2
330
1F
100
AcDbEntity
  8
SK2
100
AcDbLine
 10
201.3767231467232
 20
276.6528220559728
 30
0.0
 11
201.4762568091907
 21
276.7523557184404
 31
0.0
  0
LINE
  5
2B3
330
1F
100
AcDbEntity
  8
SK2
100
AcDbLine
 10
201.4003890127065
 20
276.6486491279809
 30
0.0
 11
201.5100551699275
 21
276.7583152852019
 31
0.0
  0
LINE
  5
2B4
330
1F
100
AcDbEntity
  8
SK2
100
AcDbLine
 10
201.4240548786899
 20
276.644476199989
 30
0.0
 11
201.5438535306643
 21
276.7642748519634
 31
0.0
  0
LINE
  5
2B5
330
1F
100
AcDbEntity
  8
SK2
100
AcDbLine
 10
201.4477207446732
 20
276.640303271997
 30
0.0
 11
201.5776518914011
 21
276.7702344187248
 31
0.0
  0
LINE
  5
2B6
330
1F
100
AcDbEntity
  8
SK2
100
AcDbLine
 10
201.4713866106567
 20
276.6361303440051
 30
0.0
 11
201.611450252138
 21
276.7761939854864
 31
0.0
  0
LINE
  5
2B7
330
1F
100
AcDbEntity
  8
SK2
100
AcDbLine
 10
201.4950524766401
 20
276.6319574160132
 30
0.0
 11
201.6452486128748
 21
276.7821535522478
 31
0.0
  0
LINE
  5
2B8
330
1F
100
AcDbEntity
  8
SK2
100
AcDbLine
 10
201.5187183426235
 20
276.6277844880212
 30
0.0
 11
201.6790469736116
 21
276.7881131190094
 31
0.0
  0
LINE
  5
2B9
330
1F
100
AcDbEntity
  8
SK2
100
AcDbLine
 10
201.5423842086069
 20
276.6236115600293
 30
0.0
 11
201.7128453343484
 21
276.7940726857708
 31
0.0
  0
LINE
  5
2BA
330
1F
100
AcDbEntity
  8
SK2
100
AcDbLine
 10
201.5660500745902
 20
276.6194386320374
 30
0.0
 11
201.7466436950852
 21
276.8000322525324
 31
0.0
  0
LINE
  5
2BB
330
1F
100
AcDbEntity
  8
SK2
100
AcDbLine
 10
201.5897159405736
 20
276.6152657040455
 30
0.0
 11
201.7804420558221
 21
276.8059918192939
 31
0.0
  0
LINE
  5
2BC
330
1F
100
AcDbEntity
  8
SK2
100
AcDbLine
 10
201.613381806557
 20
276.6110927760535
 30
0.0
 11
201.8142404165589
 21
276.8119513860554
 31
0.0
  0
LINE
  5
2BD
330
1F
100
AcDbEntity
  8
SK2
100
AcDbLine
 10
201.6370476725404
 20
276.6069198480616
 30
0.0
 11
201.8480387772957
 21
276.8179109528169
 31
0.0
  0
LINE
  5
2BE
330
1F
100
AcDbEntity
  8
SK2
100
AcDbLine
 10
201.6607135385238
 20
276.6027469200697
 30
0.0
 11
201.8818371380325
 21
276.8238705195784
 31
0.0
  0
LINE
  5
2BF
330
1F
100
AcDbEntity
  8
SK2
100
AcDbLine
 10
201.6843794045072
 20
276.5985739920778
 30
0.0
 11
201.9156354987692
 21
276.8298300863398
 31
0.0
  0
LINE
  5
2C0
330
1F
100
AcDbEntity
  8
SK2
100
AcDbLine
 10
201.7080452704905
 20
276.5944010640859
 30
0.0
 11
201.9494338595061
 21
276.8357896531014
 31
0.0
  0
LINE
  5
2C1
330
1F
100
AcDbEntity
  8
SK2
100
AcDbLine
 10
201.7317111364739
 20
276.5902281360939
 30
0.0
 11
201.9832322202429
 21
276.8417492198628
 31
0.0
  0
LINE
  5
2C2
330
1F
100
AcDbEntity
  8
SK2
100
AcDbLine
 10
201.7553770024573
 20
276.5860552081019
 30
0.0
 11
202.0170305809797
 21
276.8477087866244
 31
0.0
  0
LINE
  5
2C3
330
1F
100
AcDbEntity
  8
SK2
100
AcDbLine
 10
201.7790428684407
 20
276.58188228011
 30
0.0
 11
202.0508289417165
 21
276.8536683533858
 31
0.0
  0
LINE
  5
2C4
330
1F
100
AcDbEntity
  8
SK2
100
AcDbLine
 10
201.8027087344241
 20
276.5777093521181
 30
0.0
 11
202.0846273024534
 21
276.8596279201474
 31
0.0
  0
LINE
  5
2C5
330
1F
100
AcDbEntity
  8
SK2
100
AcDbLine
 10
201.8263746004074
 20
276.5735364241261
 30
0.0
 11
202.1184256631902
 21
276.8655874869089
 31
0.0
  0
LINE
  5
2C6
330
1F
100
AcDbEntity
  8
SK2
100
AcDbLine
 10
201.8500404663909
 20
276.5693634961343
 30
0.0
 11
202.152224023927
 21
276.8715470536704
 31
0.0
  0
LINE
  5
2C7
330
1F
100
AcDbEntity
  8
SK2
100
AcDbLine
 10
201.8737063323742
 20
276.5651905681423
 30
0.0
 11
202.1860223846638
 21
276.8775066204319
 31
0.0
  0
LINE
  5
2C8
330
1F
100
AcDbEntity
  8
SK2
100
AcDbLine
 10
201.8973721983576
 20
276.5610176401504
 30
0.0
 11
202.2198207454006
 21
276.8834661871934
 31
0.0
  0
LINE
  5
2C9
330
1F
100
AcDbEntity
  8
SK2
100
AcDbLine
 10
201.921038064341
 20
276.5568447121584
 30
0.0
 11
202.2536191061374
 21
276.8894257539549
 31
0.0
  0
LINE
  5
2CA
330
1F
100
AcDbEntity
  8
SK2
100
AcDbLine
 10
201.9447039303244
 20
276.5526717841666
 30
0.0
 11
202.2874174668742
 21
276.8953853207164
 31
0.0
  0
LINE
  5
2CB
330
1F
100
AcDbEntity
  8
SK2
100
AcDbLine
 10
201.9683697963078
 20
276.5484988561746
 30
0.0
 11
202.321215827611
 21
276.9013448874778
 31
0.0
  0
LINE
  5
2CC
330
1F
100
AcDbEntity
  8
SK2
100
AcDbLine
 10
201.9920356622911
 20
276.5443259281827
 30
0.0
 11
202.3550141883478
 21
276.9073044542393
 31
0.0
  0
LINE
  5
2CD
330
1F
100
AcDbEntity
  8
SK2
100
AcDbLine
 10
202.0157015282745
 20
276.5401530001907
 30
0.0
 11
202.3888125490846
 21
276.9132640210008
 31
0.0
  0
LINE
  5
2CE
330
1F
100
AcDbEntity
  8
SK2
100
AcDbLine
 10
202.0393673942579
 20
276.5359800721987
 30
0.0
 11
202.4226109098215
 21
276.9192235877623
 31
0.0
  0
LINE
  5
2CF
330
1F
100
AcDbEntity
  8
SK2
100
AcDbLine
 10
202.0630332602413
 20
276.5318071442069
 30
0.0
 11
202.4564092705583
 21
276.9251831545239
 31
0.0
  0
LINE
  5
2D0
330
1F
100
AcDbEntity
  8
SK2
100
AcDbLine
 10
202.0866991262247
 20
276.5276342162149
 30
0.0
 11
202.4902076312951
 21
276.9311427212854
 31
0.0
  0
LINE
  5
2D1
330
1F
100
AcDbEntity
  8
SK2
100
AcDbLine
 10
202.110364992208
 20
276.523461288223
 30
0.0
 11
202.5240059920319
 21
276.9371022880469
 31
0.0
  0
LINE
  5
2D2
330
1F
100
AcDbEntity
  8
SK2
100
AcDbLine
 10
202.1340308581914
 20
276.519288360231
 30
0.0
 11
202.5578043527687
 21
276.9430618548084
 31
0.0
  0
LINE
  5
2D3
330
1F
100
AcDbEntity
  8
SK2
100
AcDbLine
 10
202.1576967241748
 20
276.5151154322392
 30
0.0
 11
202.5916027135056
 21
276.9490214215699
 31
0.0
  0
LINE
  5
2D4
330
1F
100
AcDbEntity
  8
SK2
100
AcDbLine
 10
202.1813625901582
 20
276.5109425042472
 30
0.0
 11
202.6254010742424
 21
276.9549809883314
 31
0.0
  0
LINE
  5
2D5
330
1F
100
AcDbEntity
  8
SK2
100
AcDbLine
 10
202.2050284561416
 20
276.5067695762553
 30
0.0
 11
202.6591994349792
 21
276.9609405550929
 31
0.0
  0
LINE
  5
2D6
330
1F
100
AcDbEntity
  8
SK2
100
AcDbLine
 10
202.2286943221249
 20
276.5025966482633
 30
0.0
 11
202.692997795716
 21
276.9669001218543
 31
0.0
  0
LINE
  5
2D7
330
1F
100
AcDbEntity
  8
SK2
100
AcDbLine
 10
202.2523601881084
 20
276.4984237202714
 30
0.0
 11
202.7267961564528
 21
276.9728596886158
 31
0.0
  0
LINE
  5
2D8
330
1F
100
AcDbEntity
  8
SK2
100
AcDbLine
 10
202.2760260540918
 20
276.4942507922794
 30
0.0
 11
202.7605945171897
 21
276.9788192553774
 31
0.0
  0
LINE
  5
2D9
330
1F
100
AcDbEntity
  8
SK2
100
AcDbLine
 10
202.2996919200751
 20
276.4900778642875
 30
0.0
 11
202.7943928779265
 21
276.9847788221389
 31
0.0
  0
LINE
  5
2DA
330
1F
100
AcDbEntity
  8
SK2
100
AcDbLine
 10
202.3233577860585
 20
276.4859049362956
 30
0.0
 11
202.8281912386632
 21
276.9907383889004
 31
0.0
  0
LINE
  5
2DB
330
1F
100
AcDbEntity
  8
SK2
100
AcDbLine
 10
202.3470236520419
 20
276.4817320083037
 30
0.0
 11
202.8619895994001
 21
276.9966979556619
 31
0.0
  0
LINE
  5
2DC
330
1F
100
AcDbEntity
  8
SK2
100
AcDbLine
 10
202.3706895180253
 20
276.4775590803118
 30
0.0
 11
202.8957879601369
 21
277.0026575224234
 31
0.0
  0
LINE
  5
2DD
330
1F
100
AcDbEntity
  8
SK2
100
AcDbLine
 10
202.3943553840086
 20
276.4733861523198
 30
0.0
 11
202.9295863208737
 21
277.0086170891849
 31
0.0
  0
LINE
  5
2DE
330
1F
100
AcDbEntity
  8
SK2
100
AcDbLine
 10
202.4180212499921
 20
276.4692132243279
 30
0.0
 11
202.9633846816105
 21
277.0145766559464
 31
0.0
  0
LINE
  5
2DF
330
1F
100
AcDbEntity
  8
SK2
100
AcDbLine
 10
202.4416871159754
 20
276.465040296336
 30
0.0
 11
202.9971830423473
 21
277.0205362227079
 31
0.0
  0
LINE
  5
2E0
330
1F
100
AcDbEntity
  8
SK2
100
AcDbLine
 10
202.4653529819588
 20
276.460867368344
 30
0.0
 11
203.0309814030841
 21
277.0264957894693
 31
0.0
  0
LINE
  5
2E1
330
1F
100
AcDbEntity
  8
SK2
100
AcDbLine
 10
202.4890188479421
 20
276.4566944403521
 30
0.0
 11
203.064779763821
 21
277.0324553562308
 31
0.0
  0
LINE
  5
2E2
330
1F
100
AcDbEntity
  8
SK2
100
AcDbLine
 10
202.5126847139256
 20
276.4525215123602
 30
0.0
 11
203.0985781245578
 21
277.0384149229924
 31
0.0
  0
LINE
  5
2E3
330
1F
100
AcDbEntity
  8
SK2
100
AcDbLine
 10
202.536350579909
 20
276.4483485843683
 30
0.0
 11
203.1323764852945
 21
277.0443744897538
 31
0.0
  0
LINE
  5
2E4
330
1F
100
AcDbEntity
  8
SK2
100
AcDbLine
 10
202.5600164458924
 20
276.4441756563763
 30
0.0
 11
203.1661748460314
 21
277.0503340565154
 31
0.0
  0
LINE
  5
2E5
330
1F
100
AcDbEntity
  8
SK2
100
AcDbLine
 10
202.5836823118758
 20
276.4400027283844
 30
0.0
 11
203.1999732067681
 21
277.0562936232769
 31
0.0
  0
LINE
  5
2E6
330
1F
100
AcDbEntity
  8
SK2
100
AcDbLine
 10
202.6073481778591
 20
276.4358298003925
 30
0.0
 11
203.233771567505
 21
277.0622531900384
 31
0.0
  0
LINE
  5
2E7
330
1F
100
AcDbEntity
  8
SK2
100
AcDbLine
 10
202.6310140438425
 20
276.4316568724005
 30
0.0
 11
203.2675699282418
 21
277.0682127567998
 31
0.0
  0
LINE
  5
2E8
330
1F
100
AcDbEntity
  8
SK2
100
AcDbLine
 10
202.6546799098258
 20
276.4274839444086
 30
0.0
 11
203.3013682889786
 21
277.0741723235614
 31
0.0
  0
LINE
  5
2E9
330
1F
100
AcDbEntity
  8
SK2
100
AcDbLine
 10
202.6783457758093
 20
276.4233110164167
 30
0.0
 11
203.3351666497154
 21
277.0801318903228
 31
0.0
  0
LINE
  5
2EA
330
1F
100
AcDbEntity
  8
SK2
100
AcDbLine
 10
202.7020116417926
 20
276.4191380884247
 30
0.0
 11
203.3689650104523
 21
277.0860914570844
 31
0.0
  0
LINE
  5
2EB
330
1F
100
AcDbEntity
  8
SK2
100
AcDbLine
 10
202.7256775077761
 20
276.4149651604328
 30
0.0
 11
203.4027633711891
 21
277.0920510238458
 31
0.0
  0
LINE
  5
2EC
330
1F
100
AcDbEntity
  8
SK2
100
AcDbLine
 10
202.7493433737594
 20
276.4107922324408
 30
0.0
 11
203.4365617319259
 21
277.0980105906074
 31
0.0
  0
LINE
  5
2ED
330
1F
100
AcDbEntity
  8
SK2
100
AcDbLine
 10
202.7730092397428
 20
276.4066193044489
 30
0.0
 11
203.4703600926627
 21
277.1039701573688
 31
0.0
  0
LINE
  5
2EE
330
1F
100
AcDbEntity
  8
SK2
100
AcDbLine
 10
202.7966751057262
 20
276.402446376457
 30
0.0
 11
203.5041584533995
 21
277.1099297241304
 31
0.0
  0
LINE
  5
2EF
330
1F
100
AcDbEntity
  8
SK2
100
AcDbLine
 10
202.8203409717096
 20
276.3982734484651
 30
0.0
 11
203.5379568141363
 21
277.1158892908918
 31
0.0
  0
LINE
  5
2F0
330
1F
100
AcDbEntity
  8
SK2
100
AcDbLine
 10
202.844006837693
 20
276.3941005204732
 30
0.0
 11
203.5717551748732
 21
277.1218488576534
 31
0.0
  0
LINE
  5
2F1
330
1F
100
AcDbEntity
  8
SK2
100
AcDbLine
 10
202.8676727036763
 20
276.3899275924812
 30
0.0
 11
203.60555353561
 21
277.1278084244148
 31
0.0
  0
LINE
  5
2F2
330
1F
100
AcDbEntity
  8
SK2
100
AcDbLine
 10
202.8913385696597
 20
276.3857546644893
 30
0.0
 11
203.6393518963468
 21
277.1337679911763
 31
0.0
  0
LINE
  5
2F3
330
1F
100
AcDbEntity
  8
SK2
100
AcDbLine
 10
202.9150044356431
 20
276.3815817364974
 30
0.0
 11
203.6731502570836
 21
277.1397275579378
 31
0.0
  0
LINE
  5
2F4
330
1F
100
AcDbEntity
  8
SK2
100
AcDbLine
 10
202.9386703016265
 20
276.3774088085054
 30
0.0
 11
203.7069486178204
 21
277.1456871246993
 31
0.0
  0
LINE
  5
2F5
330
1F
100
AcDbEntity
  8
SK2
100
AcDbLine
 10
202.96233616761
 20
276.3732358805135
 30
0.0
 11
203.7407469785573
 21
277.1516466914608
 31
0.0
  0
LINE
  5
2F6
330
1F
100
AcDbEntity
  8
SK2
100
AcDbLine
 10
202.9860020335933
 20
276.3690629525216
 30
0.0
 11
203.7745453392941
 21
277.1576062582223
 31
0.0
  0
LINE
  5
2F7
330
1F
100
AcDbEntity
  8
SK2
100
AcDbLine
 10
203.0096678995767
 20
276.3648900245296
 30
0.0
 11
203.8083437000309
 21
277.1635658249838
 31
0.0
  0
LINE
  5
2F8
330
1F
100
AcDbEntity
  8
SK2
100
AcDbLine
 10
203.03333376556
 20
276.3607170965377
 30
0.0
 11
203.8421420607677
 21
277.1695253917453
 31
0.0
  0
LINE
  5
2F9
330
1F
100
AcDbEntity
  8
SK2
100
AcDbLine
 10
203.0569996315434
 20
276.3565441685458
 30
0.0
 11
203.8759404215045
 21
277.1754849585069
 31
0.0
  0
LINE
  5
2FA
330
1F
100
AcDbEntity
  8
SK2
100
AcDbLine
 10
203.0806654975268
 20
276.3523712405539
 30
0.0
 11
203.9097387822413
 21
277.1814445252684
 31
0.0
  0
LINE
  5
2FB
330
1F
100
AcDbEntity
  8
SK2
100
AcDbLine
 10
203.1043313635102
 20
276.348198312562
 30
0.0
 11
203.9435371429781
 21
277.1874040920299
 31
0.0
  0
LINE
  5
2FC
330
1F
100
AcDbEntity
  8
SK2
100
AcDbLine
 10
203.1279972294936
 20
276.34402538457
 30
0.0
 11
203.9773355037149
 21
277.1933636587913
 31
0.0
  0
LINE
  5
2FD
330
1F
100
AcDbEntity
  8
SK2
100
AcDbLine
 10
203.151663095477
 20
276.3398524565781
 30
0.0
 11
204.0111338644517
 21
277.1993232255528
 31
0.0
  0
LINE
  5
2FE
330
1F
100
AcDbEntity
  8
SK2
100
AcDbLine
 10
203.1753289614603
 20
276.3356795285861
 30
0.0
 11
204.0449322251885
 21
277.2052827923143
 31
0.0
  0
LINE
  5
2FF
330
1F
100
AcDbEntity
  8
SK2
100
AcDbLine
 10
203.1989948274437
 20
276.3315066005942
 30
0.0
 11
204.0787305859254
 21
277.2112423590758
 31
0.0
  0
LINE
  5
300
330
1F
100
AcDbEntity
  8
SK2
100
AcDbLine
 10
203.2226606934271
 20
276.3273336726023
 30
0.0
 11
204.1125289466622
 21
277.2172019258373
 31
0.0
  0
LINE
  5
301
330
1F
100
AcDbEntity
  8
SK2
100
AcDbLine
 10
203.2463265594105
 20
276.3231607446104
 30
0.0
 11
204.146327307399
 21
277.2231614925988
 31
0.0
  0
LINE
  5
302
330
1F
100
AcDbEntity
  8
SK2
100
AcDbLine
 10
203.2699924253939
 20
276.3189878166184
 30
0.0
 11
204.1801256681358
 21
277.2291210593603
 31
0.0
  0
LINE
  5
303
330
1F
100
AcDbEntity
  8
SK2
100
AcDbLine
 10
203.2936582913773
 20
276.3148148886265
 30
0.0
 11
204.2139240288726
 21
277.2350806261219
 31
0.0
  0
LINE
  5
304
330
1F
100
AcDbEntity
  8
SK2
100
AcDbLine
 10
203.3173241573607
 20
276.3106419606346
 30
0.0
 11
204.2477223896094
 21
277.2410401928833
 31
0.0
  0
LINE
  5
305
330
1F
100
AcDbEntity
  8
SK2
100
AcDbLine
 10
203.340990023344
 20
276.3064690326426
 30
0.0
 11
204.2815207503463
 21
277.2469997596449
 31
0.0
  0
LINE
  5
306
330
1F
100
AcDbEntity
  8
SK2
100
AcDbLine
 10
203.3646558893274
 20
276.3022961046508
 30
0.0
 11
204.3153191110831
 21
277.2529593264064
 31
0.0
  0
LINE
  5
307
330
1F
100
AcDbEntity
  8
SK2
100
AcDbLine
 10
203.3883217553108
 20
276.2981231766588
 30
0.0
 11
204.3491174718198
 21
277.2589188931678
 31
0.0
  0
LINE
  5
308
330
1F
100
AcDbEntity
  8
SK2
100
AcDbLine
 10
203.4119876212942
 20
276.2939502486669
 30
0.0
 11
204.3829158325567
 21
277.2648784599293
 31
0.0
  0
LINE
  5
309
330
1F
100
AcDbEntity
  8
SK2
100
AcDbLine
 10
203.4356534872776
 20
276.2897773206749
 30
0.0
 11
204.4167141932935
 21
277.2708380266908
 31
0.0
  0
LINE
  5
30A
330
1F
100
AcDbEntity
  8
SK2
100
AcDbLine
 10
203.459319353261
 20
276.285604392683
 30
0.0
 11
204.4505125540303
 21
277.2767975934523
 31
0.0
  0
LINE
  5
30B
330
1F
100
AcDbEntity
  8
SK2
100
AcDbLine
 10
203.4829852192444
 20
276.2814314646911
 30
0.0
 11
204.4843109147671
 21
277.2827571602138
 31
0.0
  0
LINE
  5
30C
330
1F
100
AcDbEntity
  8
SK2
100
AcDbLine
 10
203.5066510852277
 20
276.2772585366992
 30
0.0
 11
204.518109275504
 21
277.2887167269753
 31
0.0
  0
LINE
  5
30D
330
1F
100
AcDbEntity
  8
SK2
100
AcDbLine
 10
203.5303169512111
 20
276.2730856087072
 30
0.0
 11
204.5519076362408
 21
277.2946762937369
 31
0.0
  0
LINE
  5
30E
330
1F
100
AcDbEntity
  8
SK2
100
AcDbLine
 10
203.5539828171945
 20
276.2689126807152
 30
0.0
 11
204.5857059969776
 21
277.3006358604984
 31
0.0
  0
LINE
  5
30F
330
1F
100
AcDbEntity
  8
SK2
100
AcDbLine
 10
203.5776486831779
 20
276.2647397527234
 30
0.0
 11
204.6195043577144
 21
277.3065954272599
 31
0.0
  0
LINE
  5
310
330
1F
100
AcDbEntity
  8
SK2
100
AcDbLine
 10
203.6013145491613
 20
276.2605668247314
 30
0.0
 11
204.6442460454954
 21
277.3034983210655
 31
0.0
  0
LINE
  5
311
330
1F
100
AcDbEntity
  8
SK2
100
AcDbLine
 10
203.6249804151446
 20
276.2563938967395
 30
0.0
 11
204.6442461477526
 21
277.2756596293474
 31
0.0
  0
LINE
  5
312
330
1F
100
AcDbEntity
  8
SK2
100
AcDbLine
 10
203.648646281128
 20
276.2522209687475
 30
0.0
 11
204.6442462500098
 21
277.2478209376293
 31
0.0
  0
LINE
  5
313
330
1F
100
AcDbEntity
  8
SK2
100
AcDbLine
 10
203.6723121471115
 20
276.2480480407556
 30
0.0
 11
204.644246352267
 21
277.2199822459112
 31
0.0
  0
LINE
  5
314
330
1F
100
AcDbEntity
  8
SK2
100
AcDbLine
 10
203.6959780130948
 20
276.2438751127637
 30
0.0
 11
204.6442464545243
 21
277.1921435541931
 31
0.0
  0
LINE
  5
315
330
1F
100
AcDbEntity
  8
SK2
100
AcDbLine
 10
203.7196438790782
 20
276.2397021847718
 30
0.0
 11
204.6442465567815
 21
277.1643048624751
 31
0.0
  0
LINE
  5
316
330
1F
100
AcDbEntity
  8
SK2
100
AcDbLine
 10
203.7433097450616
 20
276.2355292567798
 30
0.0
 11
204.6442466590387
 21
277.136466170757
 31
0.0
  0
LINE
  5
317
330
1F
100
AcDbEntity
  8
SK2
100
AcDbLine
 10
203.7669756110449
 20
276.2313563287879
 30
0.0
 11
204.6442467612959
 21
277.1086274790389
 31
0.0
  0
LINE
  5
318
330
1F
100
AcDbEntity
  8
SK2
100
AcDbLine
 10
203.7906414770283
 20
276.227183400796
 30
0.0
 11
204.6442468635532
 21
277.0807887873208
 31
0.0
  0
LINE
  5
319
330
1F
100
AcDbEntity
  8
SK2
100
AcDbLine
 10
203.8143073430117
 20
276.223010472804
 30
0.0
 11
204.6442469658104
 21
277.0529500956027
 31
0.0
  0
LINE
  5
31A
330
1F
100
AcDbEntity
  8
SK2
100
AcDbLine
 10
203.8379732089951
 20
276.2188375448121
 30
0.0
 11
204.6442470680676
 21
277.0251114038846
 31
0.0
  0
LINE
  5
31B
330
1F
100
AcDbEntity
  8
SK2
100
AcDbLine
 10
203.8616390749785
 20
276.2146646168201
 30
0.0
 11
204.6442471703248
 21
276.9972727121665
 31
0.0
  0
LINE
  5
31C
330
1F
100
AcDbEntity
  8
SK2
100
AcDbLine
 10
203.8853049409619
 20
276.2104916888282
 30
0.0
 11
204.644247272582
 21
276.9694340204484
 31
0.0
  0
LINE
  5
31D
330
1F
100
AcDbEntity
  8
SK2
100
AcDbLine
 10
203.9089708069452
 20
276.2063187608363
 30
0.0
 11
204.6442473748393
 21
276.9415953287303
 31
0.0
  0
LINE
  5
31E
330
1F
100
AcDbEntity
  8
SK2
100
AcDbLine
 10
203.9326366729286
 20
276.2021458328444
 30
0.0
 11
204.6442474770964
 21
276.9137566370122
 31
0.0
  0
LINE
  5
31F
330
1F
100
AcDbEntity
  8
SK2
100
AcDbLine
 10
203.956302538912
 20
276.1979729048524
 30
0.0
 11
204.6442475793537
 21
276.8859179452941
 31
0.0
  0
LINE
  5
320
330
1F
100
AcDbEntity
  8
SK2
100
AcDbLine
 10
203.9799684048954
 20
276.1937999768605
 30
0.0
 11
204.644247681611
 21
276.8580792535761
 31
0.0
  0
LINE
  5
321
330
1F
100
AcDbEntity
  8
SK2
100
AcDbLine
 10
204.0036342708788
 20
276.1896270488685
 30
0.0
 11
204.6442477838682
 21
276.830240561858
 31
0.0
  0
LINE
  5
322
330
1F
100
AcDbEntity
  8
SK2
100
AcDbLine
 10
204.0273001368622
 20
276.1854541208767
 30
0.0
 11
204.6442478861254
 21
276.8024018701399
 31
0.0
  0
LINE
  5
323
330
1F
100
AcDbEntity
  8
SK2
100
AcDbLine
 10
204.0509660028456
 20
276.1812811928848
 30
0.0
 11
204.6442479883826
 21
276.7745631784218
 31
0.0
  0
LINE
  5
324
330
1F
100
AcDbEntity
  8
SK2
100
AcDbLine
 10
204.0746318688289
 20
276.1771082648928
 30
0.0
 11
204.6442480906399
 21
276.7467244867037
 31
0.0
  0
LINE
  5
325
330
1F
100
AcDbEntity
  8
SK2
100
AcDbLine
 10
204.0982977348123
 20
276.1729353369008
 30
0.0
 11
204.644248192897
 21
276.7188857949856
 31
0.0
  0
LINE
  5
326
330
1F
100
AcDbEntity
  8
SK2
100
AcDbLine
 10
204.1219636007957
 20
276.1687624089089
 30
0.0
 11
204.6442482951543
 21
276.6910471032675
 31
0.0
  0
LINE
  5
327
330
1F
100
AcDbEntity
  8
SK2
100
AcDbLine
 10
204.1456294667791
 20
276.164589480917
 30
0.0
 11
204.6442483974115
 21
276.6632084115494
 31
0.0
  0
LINE
  5
328
330
1F
100
AcDbEntity
  8
SK2
100
AcDbLine
 10
204.1692953327625
 20
276.1604165529251
 30
0.0
 11
204.6442484996687
 21
276.6353697198313
 31
0.0
  0
LINE
  5
329
330
1F
100
AcDbEntity
  8
SK2
100
AcDbLine
 10
204.1929611987459
 20
276.1562436249331
 30
0.0
 11
204.644248601926
 21
276.6075310281133
 31
0.0
  0
LINE
  5
32A
330
1F
100
AcDbEntity
  8
SK2
100
AcDbLine
 10
204.2166270647292
 20
276.1520706969412
 30
0.0
 11
204.6442487041832
 21
276.5796923363952
 31
0.0
  0
LINE
  5
32B
330
1F
100
AcDbEntity
  8
SK2
100
AcDbLine
 10
204.2402929307126
 20
276.1478977689493
 30
0.0
 11
204.6442488064404
 21
276.5518536446771
 31
0.0
  0
LINE
  5
32C
330
1F
100
AcDbEntity
  8
SK2
100
AcDbLine
 10
204.2639587966961
 20
276.1437248409574
 30
0.0
 11
204.6442489086976
 21
276.5240149529589
 31
0.0
  0
LINE
  5
32D
330
1F
100
AcDbEntity
  8
SK2
100
AcDbLine
 10
204.2876246626794
 20
276.1395519129654
 30
0.0
 11
204.6442490109548
 21
276.4961762612409
 31
0.0
  0
LINE
  5
32E
330
1F
100
AcDbEntity
  8
SK2
100
AcDbLine
 10
204.3112905286628
 20
276.1353789849735
 30
0.0
 11
204.6442491132121
 21
276.4683375695228
 31
0.0
  0
LINE
  5
32F
330
1F
100
AcDbEntity
  8
SK2
100
AcDbLine
 10
204.3349563946462
 20
276.1312060569816
 30
0.0
 11
204.6442492154693
 21
276.4404988778046
 31
0.0
  0
LINE
  5
330
330
1F
100
AcDbEntity
  8
SK2
100
AcDbLine
 10
204.3586222606296
 20
276.1270331289896
 30
0.0
 11
204.6442493177265
 21
276.4126601860866
 31
0.0
  0
LINE
  5
331
330
1F
100
AcDbEntity
  8
SK2
100
AcDbLine
 10
204.382288126613
 20
276.1228602009977
 30
0.0
 11
204.6442494199837
 21
276.3848214943684
 31
0.0
  0
LINE
  5
332
330
1F
100
AcDbEntity
  8
SK2
100
AcDbLine
 10
204.4059539925963
 20
276.1186872730058
 30
0.0
 11
204.644249522241
 21
276.3569828026505
 31
0.0
  0
LINE
  5
333
330
1F
100
AcDbEntity
  8
SK2
100
AcDbLine
 10
204.4296198585797
 20
276.1145143450138
 30
0.0
 11
204.6442496244982
 21
276.3291441109323
 31
0.0
  0
LINE
  5
334
330
1F
100
AcDbEntity
  8
SK2
100
AcDbLine
 10
204.4532857245631
 20
276.1103414170219
 30
0.0
 11
204.6442497267554
 21
276.3013054192143
 31
0.0
  0
LINE
  5
335
330
1F
100
AcDbEntity
  8
SK2
100
AcDbLine
 10
204.4769515905465
 20
276.10616848903
 30
0.0
 11
204.6442498290126
 21
276.2734667274961
 31
0.0
  0
LINE
  5
336
330
1F
100
AcDbEntity
  8
SK2
100
AcDbLine
 10
204.5006174565299
 20
276.1019955610381
 30
0.0
 11
204.6442499312699
 21
276.2456280357781
 31
0.0
  0
LINE
  5
337
330
1F
100
AcDbEntity
  8
SK2
100
AcDbLine
 10
204.5242833225133
 20
276.0978226330462
 30
0.0
 11
204.6442500335271
 21
276.21778934406
 31
0.0
  0
LINE
  5
338
330
1F
100
AcDbEntity
  8
SK2
100
AcDbLine
 10
204.5479491884966
 20
276.0936497050542
 30
0.0
 11
204.6442501357843
 21
276.1899506523418
 31
0.0
  0
LINE
  5
339
330
1F
100
AcDbEntity
  8
SK2
100
AcDbLine
 10
204.5716150544801
 20
276.0894767770623
 30
0.0
 11
204.6442502380415
 21
276.1621119606238
 31
0.0
  0
LINE
  5
33A
330
1F
100
AcDbEntity
  8
SK2
100
AcDbLine
 10
204.5952809204634
 20
276.0853038490703
 30
0.0
 11
204.6442503402987
 21
276.1342732689056
 31
0.0
  0
LINE
  5
33B
330
1F
100
AcDbEntity
  8
SK2
100
AcDbLine
 10
204.6189467864468
 20
276.0811309210784
 30
0.0
 11
204.644250442556
 21
276.1064345771876
 31
0.0
  0
LINE
  5
33C
330
1F
100
AcDbEntity
  8
SK2
100
AcDbLine
 10
204.6426126524302
 20
276.0769579930865
 30
0.0
 11
204.6442505448132
 21
276.0785958854695
 31
0.0
  0
MTEXT
  5
33D
330
1F
100
AcDbEntity
  8
SK2
100
AcDbMText
 10
304.209447
 20
260.601161
 30
0.0
 40
3.5
 41
0.0
 71
     7
 72
     5
  1
\W0.6094;7
  7
cesky
 11
0.0000000000000001
 21
1.0
 31
0.0
 73
     2
 44
0.8433729999999998
  0
MTEXT
  5
33E
330
1F
100
AcDbEntity
  8
SK2
100
AcDbMText
 10
304.209447
 20
253.863661
 30
0.0
 40
3.5
 41
0.0
 71
     7
 72
     5
  1
\W3.0115;\H2.63;%%c\H3.50;
  7
cesky
 11
0.0000000000000001
 21
1.0
 31
0.0
 73
     2
 44
0.8433729999999998
  0
LINE
  5
33F
330
1F
100
AcDbEntity
  8
SK2
100
AcDbLine
 10
312.014248
 20
247.206161
 30
0.0
 11
303.396864
 21
247.206161
 31
0.0
  0
LINE
  5
340
330
1F
100
AcDbEntity
  8
SK2
100
AcDbLine
 10
312.014248
 20
240.256161
 30
0.0
 11
303.396864
 21
240.256161
 31
0.0
  0
LINE
  5
341
330
1F
100
AcDbEntity
  8
SK2
100
AcDbLine
 10
304.396864
 20
231.506161
 30
0.0
 11
304.396864
 21
261.918661
 31
0.0
  0
SOLID
  5
342
330
1F
100
AcDbEntity
  8
SK2
100
AcDbTrace
 10
304.396864
 20
247.206161
 30
0.0
 11
303.77972
 21
250.706159
 31
0.0
 12
305.014009
 22
250.706164
 32
0.0
 13
305.014009
 23
250.706164
 33
0.0
  0
SOLID
  5
343
330
1F
100
AcDbEntity
  8
SK2
100
AcDbTrace
 10
304.396864
 20
240.256161
 30
0.0
 11
305.014009
 21
236.756164
 31
0.0
 12
303.77972
 22
236.756159
 32
0.0
 13
303.77972
 23
236.756159
 33
0.0
  0
MTEXT
  5
344
330
1F
100
AcDbEntity
  8
SK2
100
AcDbMText
 10
282.329748
 20
267.571409
 30
0.0
 40
3.5
 41
0.0
 71
     7
 72
     5
  1
\W0.6844;94
  7
cesky
 73
     2
 44
0.8433729999999998
  0
LINE
  5
345
330
1F
100
AcDbEntity
  8
SK2
100
AcDbLine
 10
237.144248
 20
244.730735
 30
0.0
 11
237.144248
 21
268.697242
 31
0.0
  0
LINE
  5
346
330
1F
100
AcDbEntity
  8
SK2
100
AcDbLine
 10
331.144248
 20
249.731161
 30
0.0
 11
331.144248
 21
268.697242
 31
0.0
  0
LINE
  5
347
330
1F
100
AcDbEntity
  8
SK2
100
AcDbLine
 10
237.144248
 20
267.697242
 30
0.0
 11
331.144248
 21
267.697242
 31
0.0
  0
SOLID
  5
348
330
1F
100
AcDbEntity
  8
SK2
100
AcDbTrace
 10
237.144248
 20
267.697242
 30
0.0
 11
240.644246
 21
268.314387
 31
0.0
 12
240.644251
 22
267.080098
 32
0.0
 13
240.644251
 23
267.080098
 33
0.0
  0
SOLID
  5
349
330
1F
100
AcDbEntity
  8
SK2
100
AcDbTrace
 10
331.144248
 20
267.697242
 30
0.0
 11
327.644251
 21
267.080098
 31
0.0
 12
327.644246
 22
268.314387
 32
0.0
 13
327.644246
 23
268.314387
 33
0.0
  0
MTEXT
  5
34A
330
1F
100
AcDbEntity
  8
SK2
100
AcDbMText
 10
193.8648419999999
 20
231.914911
 30
0.0
 40
3.5
 41
0.0
 71
     7
 72
     5
  1
\W0.6094;8
  7
cesky
 11
0.0000000000000001
 21
1.0
 31
0.0
 73
     2
 44
0.8433729999999998
  0
MTEXT
  5
34B
330
1F
100
AcDbEntity
  8
SK2
100
AcDbMText
 10
193.8648419999999
 20
225.177411
 30
0.0
 40
3.5
 41
0.0
 71
     7
 72
     5
  1
\W3.0115;\H2.63;%%c\H3.50;
  7
cesky
 11
0.0000000000000001
 21
1.0
 31
0.0
 73
     2
 44
0.8433729999999998
  0
LINE
  5
34C
330
1F
100
AcDbEntity
  8
SK2
100
AcDbLine
 10
203.03383
 20
247.729911
 30
0.0
 11
193.052258
 21
247.729911
 31
0.0
  0
LINE
  5
34D
330
1F
100
AcDbEntity
  8
SK2
100
AcDbLine
 10
203.03383
 20
239.732411
 30
0.0
 11
193.052258
 21
239.732411
 31
0.0
  0
LINE
  5
34E
330
1F
100
AcDbEntity
  8
SK2
100
AcDbLine
 10
194.052258
 20
225.019911
 30
0.0
 11
194.052258
 21
256.479911
 31
0.0
  0
SOLID
  5
34F
330
1F
100
AcDbEntity
  8
SK2
100
AcDbTrace
 10
194.052258
 20
247.729911
 30
0.0
 11
193.435114
 21
251.229909
 31
0.0
 12
194.669403
 22
251.229914
 32
0.0
 13
194.669403
 23
251.229914
 33
0.0
  0
SOLID
  5
350
330
1F
100
AcDbEntity
  8
SK2
100
AcDbTrace
 10
194.052258
 20
239.732411
 30
0.0
 11
194.669403
 21
236.232414
 31
0.0
 12
193.435114
 22
236.232409
 32
0.0
 13
193.435114
 23
236.232409
 33
0.0
  0
LINE
  5
356
330
1F
100
AcDbEntity
  8
CUT
100
AcDbLine
 10
331.137496
 20
243.731161
 30
0.0
 11
324.146497
 21
243.731161
 31
0.0
  0
LINE
  5
357
330
1F
100
AcDbEntity
  8
CUT
100
AcDbLine
 10
331.137496
 20
243.779963
 30
0.0
 11
331.137496
 21
243.731161
 31
0.0
  0
LINE
  5
358
330
1F
100
AcDbEntity
  8
CUT
100
AcDbLine
 10
324.146497
 20
243.731161
 30
0.0
 11
324.146497
 21
246.3769819999999
 31
0.0
  0
ARC
  5
359
330
1F
100
AcDbEntity
  8
CUT
100
AcDbCircle
 10
328.2891315267676
 20
241.8011117359423
 30
0.0
 40
6.241477030797658
100
AcDbArc
 50
120.7124207455334
 51
121.4794843273517
  0
ARC
  5
35A
330
1F
100
AcDbEntity
  8
CUT
100
AcDbCircle
 10
327.2099063741709
 20
243.6124897497055
 30
0.0
 40
4.132969033127404
100
AcDbArc
 50
118.7443579695014
 51
120.6745620777506
  0
LINE
  5
36B
330
1F
100
AcDbEntity
  8
CUT
100
AcDbLine
 10
324.1464968971313
 20
246.376982083127
 30
0.0
 11
324.1464968971313
 21
246.376982083127
 31
0.0
  0
ARC
  5
36C
330
1F
100
AcDbEntity
  8
CUT
100
AcDbCircle
 10
327.1416215221639
 20
243.7310139388558
 30
0.0
 40
3.996488326015027
100
AcDbArc
 50
121.8974570100844
 51
138.5418145724658
  0
ARC
  5
36D
330
1F
100
AcDbEntity
  8
CUT
100
AcDbCircle
 10
327.1648115157335
 20
243.7331793503616
 30
0.0
 40
3.972628729555784
100
AcDbArc
 50
2.078241574567377
 51
3.554935659393946
  0
ARC
  5
36E
330
1F
100
AcDbEntity
  8
CUT
100
AcDbCircle
 10
329.4556154039832
 20
243.7947389724401
 30
0.0
 40
1.681237419424407
100
AcDbArc
 50
0.8502213473872233
 51
2.81284769681554
  0
ARC
  5
36F
330
1F
100
AcDbEntity
  8
CUT
100
AcDbCircle
 10
331.7332935680056
 20
243.8122563564955
 30
0.0
 40
0.5966721067011004
100
AcDbArc
 50
179.2865255350696
 51
183.1025039062952
  0
LINE
  5
372
330
1F
100
AcDbEntity
  8
CUT
100
AcDbLine
 10
325.2223515083829
 20
247.2361700176475
 30
0.0
 11
325.2223515083829
 21
247.2361700176475
 31
0.0
  0
ARC
  5
373
330
1F
100
AcDbEntity
  8
CUT
100
AcDbCircle
 10
327.1412691208539
 20
243.7307481343038
 30
0.0
 40
3.996276690079961
100
AcDbArc
 50
3.568796654099375
 51
118.6969212878598
  0
ENDSEC
  0
SECTION
  2
OBJECTS
  0
DICTIONARY
  5
C
330
0
100
AcDbDictionary
281
     1
  3
ACAD_CIP_PREVIOUS_PRODUCT_INFO
350
201
  3
ACAD_COLOR
350
1FB
  3
ACAD_DETAILVIEWSTYLE
350
1F7
  3
ACAD_GROUP
350
D
  3
ACAD_IMAGE_DICT
350
CD
  3
ACAD_IMAGE_VARS
350
200
  3
ACAD_LAYOUT
350
1A
  3
ACAD_MATERIAL
350
43
  3
ACAD_MLEADERSTYLE
350
6B
  3
ACAD_MLINESTYLE
350
17
  3
ACAD_PLOTSETTINGS
350
19
  3
ACAD_PLOTSTYLENAME
350
E
  3
ACAD_SCALELIST
350
47
  3
ACAD_SECTIONVIEWSTYLE
350
1F8
  3
ACAD_TABLESTYLE
350
69
  3
ACAD_VISUALSTYLE
350
2A
  3
ACDB_RECOMPOSE_DATA
350
3AF
  3
AcDbVariableDictionary
350
1B4
  3
AcDsDecomposeData
350
3B5
  0
DICTIONARY
  5
3A4
330
2
100
AcDbDictionary
280
     1
281
     1
  3
ACAD_LAYERSTATES
360
3A5
  0
DICTIONARY
  5
389
330
10
100
AcDbDictionary
280
     1
281
     1
  3
ADSK_XREC_LAYER_RECONCILED
360
38A
  0
DICTIONARY
  5
38B
330
374
100
AcDbDictionary
280
     1
281
     1
  3
ADSK_XREC_LAYER_RECONCILED
360
38C
  0
DICTIONARY
  5
38D
330
375
100
AcDbDictionary
280
     1
281
     1
  3
ADSK_XREC_LAYER_RECONCILED
360
38E
  0
DICTIONARY
  5
38F
330
376
100
AcDbDictionary
280
     1
281
     1
  3
ADSK_XREC_LAYER_RECONCILED
360
390
  0
DICTIONARY
  5
391
330
378
100
AcDbDictionary
280
     1
281
     1
  3
ADSK_XREC_LAYER_RECONCILED
360
392
  0
DICTIONARY
  5
393
330
379
100
AcDbDictionary
280
     1
281
     1
  3
ADSK_XREC_LAYER_RECONCILED
360
394
  0
DICTIONARY
  5
395
330
37B
100
AcDbDictionary
280
     1
281
     1
  3
ADSK_XREC_LAYER_RECONCILED
360
396
  0
DICTIONARY
  5
397
330
37C
100
AcDbDictionary
280
     1
281
     1
  3
ADSK_XREC_LAYER_RECONCILED
360
398
  0
DICTIONARY
  5
399
330
37D
100
AcDbDictionary
280
     1
281
     1
  3
ADSK_XREC_LAYER_RECONCILED
360
39A
  0
DICTIONARY
  5
39B
330
37E
100
AcDbDictionary
280
     1
281
     1
  3
ADSK_XREC_LAYER_RECONCILED
360
39C
  0
DICTIONARY
  5
39D
330
37F
100
AcDbDictionary
280
     1
281
     1
  3
ADSK_XREC_LAYER_RECONCILED
360
39E
  0
DICTIONARY
  5
39F
330
380
100
AcDbDictionary
280
     1
281
     1
  3
ADSK_XREC_LAYER_RECONCILED
360
3A0
  0
DICTIONARY
  5
202
330
1F
100
AcDbDictionary
280
     1
281
     1
  3
ACAD_SORTENTS
360
203
  0
XRECORD
  5
201
102
{ACAD_REACTORS
330
C
102
}
330
C
100
AcDbXrecord
280
     1
300
ACD
300
2019
300

  0
DICTIONARY
  5
1FB
102
{ACAD_REACTORS
330
C
102
}
330
C
100
AcDbDictionary
281
     1
  0
DICTIONARY
  5
1F7
102
{ACAD_REACTORS
330
C
102
}
330
C
100
AcDbDictionary
281
     1
  3
Metric50
350
1FD
  0
DICTIONARY
  5
D
102
{ACAD_REACTORS
330
C
102
}
330
C
100
AcDbDictionary
281
     1
  3
ANNOTATION
350
19F
  3
NULOVY_BOD
350
381
  0
DICTIONARY
  5
CD
102
{ACAD_REACTORS
330
C
102
}
330
C
100
AcDbDictionary
281
     1
  3
PPH0802QC08130HSCW_112226091ndi000_00_2D_DormerPramet_jpg
350
CE
  0
RASTERVARIABLES
  5
200
102
{ACAD_REACTORS
330
C
102
}
330
C
100
AcDbRasterVariables
 90
        0
 70
     1
 71
     1
 72
     1
  0
DICTIONARY
  5
1A
102
{ACAD_REACTORS
330
C
102
}
330
C
100
AcDbDictionary
281
     1
  3
Layout1
350
1E
  3
Layout2
350
26
  3
Model
350
22
  0
DICTIONARY
  5
43
102
{ACAD_REACTORS
330
C
102
}
330
C
100
AcDbDictionary
281
     1
  3
ByBlock
350
45
  3
ByLayer
350
44
  3
Global
350
46
  0
DICTIONARY
  5
6B
102
{ACAD_REACTORS
330
C
102
}
330
C
100
AcDbDictionary
281
     1
  3
Standard
350
6C
  0
DICTIONARY
  5
17
102
{ACAD_REACTORS
330
C
102
}
330
C
100
AcDbDictionary
281
     1
  3
Standard
350
18
  0
DICTIONARY
  5
19
102
{ACAD_REACTORS
330
C
102
}
330
C
100
AcDbDictionary
281
     1
  0
ACDBDICTIONARYWDFLT
  5
E
102
{ACAD_REACTORS
330
C
102
}
330
C
100
AcDbDictionary
281
     1
  3
Normal
350
F
100
AcDbDictionaryWithDefault
340
F
  0
DICTIONARY
  5
47
102
{ACAD_REACTORS
330
C
102
}
330
C
100
AcDbDictionary
281
     1
  3
A0
350
48
  3
A1
350
49
  3
A2
350
4A
  3
A3
350
4B
  3
A4
350
4C
  3
A5
350
4D
  3
A6
350
4E
  3
A7
350
4F
  3
A8
350
50
  3
A9
350
51
  3
B0
350
52
  3
B1
350
53
  3
B2
350
54
  3
B3
350
55
  3
B4
350
56
  3
B5
350
57
  3
B6
350
58
  3
B7
350
59
  3
B8
350
5A
  3
B9
350
5B
  3
C0
350
5C
  3
C1
350
5D
  3
C2
350
5E
  3
C3
350
5F
  3
C4
350
60
  3
C5
350
61
  3
C6
350
62
  3
C7
350
63
  3
C8
350
64
  3
C9
350
65
  3
D0
350
66
  3
D1
350
67
  3
D2
350
68
  0
DICTIONARY
  5
1F8
102
{ACAD_REACTORS
330
C
102
}
330
C
100
AcDbDictionary
281
     1
  3
Metric50
350
1FC
  0
DICTIONARY
  5
69
102
{ACAD_REACTORS
330
C
102
}
330
C
100
AcDbDictionary
281
     1
  3
Standard
350
6A
  0
DICTIONARY
  5
2A
102
{ACAD_REACTORS
330
C
102
}
330
C
100
AcDbDictionary
281
     1
  3
2dWireframe
350
2F
  3
Basic
350
32
  3
Brighten
350
36
  3
ColorChange
350
3A
  3
Conceptual
350
34
  3
Dim
350
35
  3
EdgeColorOff
350
3D
  3
Facepattern
350
39
  3
Flat
350
2B
  3
FlatWithEdges
350
2C
  3
Gouraud
350
2D
  3
GouraudWithEdges
350
2E
  3
Hidden
350
31
  3
JitterOff
350
3B
  3
Linepattern
350
38
  3
OverhangOff
350
3C
  3
Realistic
350
33
  3
Shaded
350
42
  3
Shaded with edges
350
41
  3
Shades of Gray
350
3E
  3
Sketchy
350
3F
  3
Thicken
350
37
  3
Wireframe
350
30
  3
X-Ray
350
40
  0
XRECORD
  5
3AF
102
{ACAD_REACTORS
330
C
102
}
330
C
100
AcDbXrecord
280
     1
 90
        1
330
6A
  0
DICTIONARY
  5
1B4
102
{ACAD_REACTORS
330
C
102
}
330
C
100
AcDbDictionary
281
     1
  3
CANNOSCALE
350
1B5
  3
CMLEADERSTYLE
350
1F6
  3
CTABLESTYLE
350
1F5
  3
CVIEWDETAILSTYLE
350
3AA
  3
CVIEWSECTIONSTYLE
350
3AB
  3
MSLTSCALE
350
1B6
  3
XCLIPFRAME
350
3AC
  0
DICTIONARY
  5
3B5
102
{ACAD_REACTORS
330
C
102
}
330
C
100
AcDbDictionary
281
     1
  3
AcDsRecords
350
3B7
  3
AcDsSchemas
350
3B6
1001
ACAD
1070
     2
  0
DICTIONARY
  5
3A5
102
{ACAD_REACTORS
330
3A4
102
}
330
3A4
100
AcDbDictionary
281
     1
  0
XRECORD
  5
38A
102
{ACAD_REACTORS
330
389
102
}
330
389
100
AcDbXrecord
280
     1
290
     1
  0
XRECORD
  5
38C
102
{ACAD_REACTORS
330
38B
102
}
330
38B
100
AcDbXrecord
280
     1
290
     1
  0
XRECORD
  5
38E
102
{ACAD_REACTORS
330
38D
102
}
330
38D
100
AcDbXrecord
280
     1
290
     1
  0
XRECORD
  5
390
102
{ACAD_REACTORS
330
38F
102
}
330
38F
100
AcDbXrecord
280
     1
290
     1
  0
XRECORD
  5
392
102
{ACAD_REACTORS
330
391
102
}
330
391
100
AcDbXrecord
280
     1
290
     1
  0
XRECORD
  5
394
102
{ACAD_REACTORS
330
393
102
}
330
393
100
AcDbXrecord
280
     1
290
     1
  0
XRECORD
  5
396
102
{ACAD_REACTORS
330
395
102
}
330
395
100
AcDbXrecord
280
     1
290
     1
  0
XRECORD
  5
398
102
{ACAD_REACTORS
330
397
102
}
330
397
100
AcDbXrecord
280
     1
290
     1
  0
XRECORD
  5
39A
102
{ACAD_REACTORS
330
399
102
}
330
399
100
AcDbXrecord
280
     1
290
     1
  0
XRECORD
  5
39C
102
{ACAD_REACTORS
330
39B
102
}
330
39B
100
AcDbXrecord
280
     1
290
     1
  0
XRECORD
  5
39E
102
{ACAD_REACTORS
330
39D
102
}
330
39D
100
AcDbXrecord
280
     1
290
     1
  0
XRECORD
  5
3A0
102
{ACAD_REACTORS
330
39F
102
}
330
39F
100
AcDbXrecord
280
     1
290
     1
  0
SORTENTSTABLE
  5
203
102
{ACAD_REACTORS
330
202
102
}
330
202
100
AcDbSortentsTable
330
1F
331
FF
  5
100
331
100
  5
101
331
101
  5
103
331
103
  5
294
331
104
  5
295
331
105
  5
296
331
107
  5
32B
331
204
  5
32C
331
205
  5
32D
331
206
  5
32E
331
207
  5
32F
331
208
  5
330
331
209
  5
331
331
20A
  5
33F
331
20B
  5
340
331
20C
  5
341
331
20D
  5
342
331
20E
  5
343
331
20F
  5
344
331
210
  5
34C
331
211
  5
34D
331
212
  5
34E
331
213
  5
34F
331
214
  5
350
331
215
  5
FF
331
216
  5
104
331
217
  5
105
331
218
  5
107
331
219
  5
123
331
21A
  5
13E
331
21B
  5
16E
331
21C
  5
204
331
21D
  5
205
331
21E
  5
206
331
21F
  5
209
331
220
  5
20A
331
221
  5
20B
331
222
  5
20C
331
223
  5
20D
331
224
  5
20E
331
225
  5
210
331
226
  5
211
331
227
  5
212
331
228
  5
213
331
229
  5
214
331
22A
  5
215
331
22B
  5
216
331
22C
  5
217
331
22D
  5
218
331
22E
  5
219
331
22F
  5
21A
331
230
  5
21B
331
231
  5
21C
331
232
  5
21D
331
233
  5
21E
331
234
  5
21F
331
235
  5
220
331
236
  5
221
331
237
  5
222
331
238
  5
223
331
239
  5
224
331
23A
  5
225
331
23B
  5
226
331
23C
  5
227
331
23D
  5
228
331
23E
  5
229
331
23F
  5
22A
331
240
  5
22B
331
241
  5
22C
331
242
  5
22D
331
243
  5
22E
331
244
  5
22F
331
245
  5
230
331
246
  5
231
331
247
  5
232
331
248
  5
233
331
249
  5
234
331
24A
  5
235
331
24B
  5
236
331
24C
  5
237
331
24D
  5
238
331
24E
  5
239
331
24F
  5
23A
331
250
  5
23B
331
251
  5
23C
331
252
  5
23D
331
253
  5
23E
331
254
  5
23F
331
255
  5
240
331
256
  5
241
331
257
  5
242
331
258
  5
243
331
259
  5
244
331
25A
  5
245
331
25B
  5
246
331
25C
  5
247
331
25D
  5
248
331
25E
  5
249
331
25F
  5
24A
331
260
  5
24B
331
261
  5
24C
331
262
  5
24D
331
263
  5
24E
331
264
  5
24F
331
265
  5
250
331
266
  5
251
331
267
  5
252
331
268
  5
253
331
269
  5
254
331
26A
  5
255
331
26B
  5
256
331
26C
  5
257
331
26D
  5
258
331
26E
  5
259
331
26F
  5
25A
331
270
  5
25B
331
271
  5
25C
331
272
  5
25D
331
273
  5
25E
331
274
  5
25F
331
275
  5
260
331
276
  5
261
331
277
  5
262
331
278
  5
263
331
279
  5
264
331
27A
  5
265
331
27B
  5
266
331
27C
  5
267
331
27D
  5
268
331
27E
  5
269
331
27F
  5
26A
331
280
  5
26B
331
281
  5
26C
331
282
  5
26D
331
283
  5
26E
331
284
  5
26F
331
285
  5
270
331
286
  5
271
331
287
  5
272
331
288
  5
273
331
289
  5
274
331
28A
  5
275
331
28B
  5
276
331
28C
  5
277
331
28D
  5
278
331
28E
  5
279
331
28F
  5
27A
331
290
  5
27B
331
291
  5
27C
331
292
  5
27D
331
293
  5
27E
331
294
  5
27F
331
295
  5
280
331
296
  5
281
331
297
  5
282
331
298
  5
283
331
299
  5
284
331
29A
  5
285
331
29B
  5
286
331
29C
  5
287
331
29D
  5
288
331
29E
  5
289
331
29F
  5
28A
331
2A0
  5
28B
331
2A1
  5
28C
331
2A2
  5
28D
331
2A3
  5
28E
331
2A4
  5
28F
331
2A5
  5
290
331
2A6
  5
291
331
2A7
  5
292
331
2A8
  5
293
331
2A9
  5
297
331
2AA
  5
298
331
2AB
  5
299
331
2AC
  5
29A
331
2AD
  5
29B
331
2AE
  5
29C
331
2AF
  5
29D
331
2B0
  5
29E
331
2B1
  5
29F
331
2B2
  5
2A0
331
2B3
  5
2A1
331
2B4
  5
2A2
331
2B5
  5
2A3
331
2B6
  5
2A4
331
2B7
  5
2A5
331
2B8
  5
2A6
331
2B9
  5
2A7
331
2BA
  5
2A8
331
2BB
  5
2A9
331
2BC
  5
2AA
331
2BD
  5
2AB
331
2BE
  5
2AC
331
2BF
  5
2AD
331
2C0
  5
2AE
331
2C1
  5
2AF
331
2C2
  5
2B0
331
2C3
  5
2B1
331
2C4
  5
2B2
331
2C5
  5
2B3
331
2C6
  5
2B4
331
2C7
  5
2B5
331
2C8
  5
2B6
331
2C9
  5
2B7
331
2CA
  5
2B8
331
2CB
  5
2B9
331
2CC
  5
2BA
331
2CD
  5
2BB
331
2CE
  5
2BC
331
2CF
  5
2BD
331
2D0
  5
2BE
331
2D1
  5
2BF
331
2D2
  5
2C0
331
2D3
  5
2C1
331
2D4
  5
2C2
331
2D5
  5
2C3
331
2D6
  5
2C4
331
2D7
  5
2C5
331
2D8
  5
2C6
331
2D9
  5
2C7
331
2DA
  5
2C8
331
2DB
  5
2C9
331
2DC
  5
2CA
331
2DD
  5
2CB
331
2DE
  5
2CC
331
2DF
  5
2CD
331
2E0
  5
2CE
331
2E1
  5
2CF
331
2E2
  5
2D0
331
2E3
  5
2D1
331
2E4
  5
2D2
331
2E5
  5
2D3
331
2E6
  5
2D4
331
2E7
  5
2D5
331
2E8
  5
2D6
331
2E9
  5
2D7
331
2EA
  5
2D8
331
2EB
  5
2D9
331
2EC
  5
2DA
331
2ED
  5
2DB
331
2EE
  5
2DC
331
2EF
  5
2DD
331
2F0
  5
2DE
331
2F1
  5
2DF
331
2F2
  5
2E0
331
2F3
  5
2E1
331
2F4
  5
2E2
331
2F5
  5
2E3
331
2F6
  5
2E4
331
2F7
  5
2E5
331
2F8
  5
2E6
331
2F9
  5
2E7
331
2FA
  5
2E8
331
2FB
  5
2E9
331
2FC
  5
2EA
331
2FD
  5
2EB
331
2FE
  5
2EC
331
2FF
  5
2ED
331
300
  5
2EE
331
301
  5
2EF
331
302
  5
2F0
331
303
  5
2F1
331
304
  5
2F2
331
305
  5
2F3
331
306
  5
2F4
331
307
  5
2F5
331
308
  5
2F6
331
309
  5
2F7
331
30A
  5
2F8
331
30B
  5
2F9
331
30C
  5
2FA
331
30D
  5
2FB
331
30E
  5
2FC
331
30F
  5
2FD
331
310
  5
2FE
331
311
  5
2FF
331
312
  5
300
331
313
  5
301
331
314
  5
302
331
315
  5
303
331
316
  5
304
331
317
  5
305
331
318
  5
306
331
319
  5
307
331
31A
  5
308
331
31B
  5
309
331
31C
  5
30A
331
31D
  5
30B
331
31E
  5
30C
331
31F
  5
30D
331
320
  5
30E
331
321
  5
30F
331
322
  5
310
331
323
  5
311
331
324
  5
312
331
325
  5
313
331
326
  5
314
331
327
  5
315
331
328
  5
316
331
329
  5
317
331
32A
  5
318
331
32B
  5
319
331
32C
  5
31A
331
32D
  5
31B
331
32E
  5
31C
331
32F
  5
31D
331
330
  5
31E
331
331
  5
31F
331
332
  5
320
331
333
  5
321
331
334
  5
322
331
335
  5
323
331
336
  5
324
331
337
  5
325
331
338
  5
326
331
339
  5
327
331
33A
  5
328
331
33B
  5
329
331
33C
  5
32A
331
33D
  5
332
331
33E
  5
333
331
33F
  5
334
331
340
  5
335
331
341
  5
336
331
342
  5
337
331
343
  5
338
331
344
  5
339
331
345
  5
33A
331
346
  5
33B
331
347
  5
33C
331
348
  5
33D
331
349
  5
33E
331
34A
  5
345
331
34B
  5
346
331
34C
  5
347
331
34D
  5
348
331
34E
  5
349
331
34F
  5
34A
331
350
  5
34B
331
356
  5
371
331
357
  5
372
331
358
  5
373
331
359
  5
356
331
35A
  5
357
331
36B
  5
368
331
36C
  5
369
331
36D
  5
36A
331
36E
  5
36B
331
36F
  5
36C
331
372
  5
36F
331
373
  5
370
  0
ACDBDETAILVIEWSTYLE
  5
1FD
102
{ACAD_XDICTIONARY
360
3EB
102
}
102
{ACAD_REACTORS
330
1F7
102
}
330
1F7
100
AcDbModelDocViewStyle
 70
     0
  3
Metric50
290
     0
100
AcDbDetailViewStyle
 70
     0
 71
     0
 90
        3
 71
     1
340
11
 62
   256
 40
5.0
340
0
 62
   256
 40
5.0
300

 40
0.0
280
     1
 71
     2
340
16
 90
       25
 62
   256
 71
     3
340
11
 62
   256
 40
5.0
 90
        0
 40
15.0
 90
        1
300
%<\AcVar ViewDetailId>% (%<\AcVar ViewScale \f "%sn">%)
 71
     4
340
16
 90
       25
 62
   256
340
16
 90
       25
 62
   256
280
     0
  0
GROUP
  5
19F
102
{ACAD_REACTORS
330
D
102
}
330
D
100
AcDbGroup
300

 70
     0
 71
     1
340
C4
340
C5
340
C6
  0
GROUP
  5
381
102
{ACAD_REACTORS
330
D
102
}
330
D
100
AcDbGroup
300

 70
     0
 71
     1
340
73
  0
IMAGEDEF
  5
CE
102
{ACAD_REACTORS
330
CD
330
D1
102
}
330
CD
100
AcDbRasterImageDef
 90
        0
  1
C:\Users\pp0701\Desktop\zakaznik data\PPH0802QC08130HSCW_112226091ndi000_00_2D_DormerPramet.jpg
 10
2089.0
 20
531.0
 11
0.0004786979415989
 21
0.0004786979415989
280
     1
281
     0
  0
LAYOUT
  5
1E
102
{ACAD_REACTORS
330
1A
102
}
330
1A
100
AcDbPlotSettings
  1

  2
none_device
  4

  6

 40
0.0
 41
0.0
 42
0.0
 43
0.0
 44
0.0
 45
0.0
 46
0.0
 47
0.0
 48
0.0
 49
0.0
140
0.0
141
0.0
142
1.0
143
1.0
 70
   688
 72
     0
 73
     0
 74
     5
  7

 75
    16
147
1.0
 76
     0
 77
     2
 78
   300
148
0.0
149
0.0
100
AcDbLayout
  1
Layout1
 70
     1
 71
     1
 10
-0.5
 20
-0.5
 11
5.0
 21
5.0
 12
0.0
 22
0.0
 32
0.0
 14
-0.5
 24
-0.5
 34
-0.5
 15
5.0
 25
5.0
 35
5.0
146
0.0
 13
0.0
 23
0.0
 33
0.0
 16
1.0
 26
0.0
 36
0.0
 17
0.0
 27
1.0
 37
0.0
 76
     0
330
1B
  0
LAYOUT
  5
26
102
{ACAD_REACTORS
330
1A
102
}
330
1A
100
AcDbPlotSettings
  1

  2
none_device
  4

  6

 40
0.0
 41
0.0
 42
0.0
 43
0.0
 44
0.0
 45
0.0
 46
0.0
 47
0.0
 48
0.0
 49
0.0
140
0.0
141
0.0
142
1.0
143
1.0
 70
   688
 72
     0
 73
     0
 74
     5
  7

 75
    16
147
1.0
 76
     0
 77
     2
 78
   300
148
0.0
149
0.0
100
AcDbLayout
  1
Layout2
 70
     1
 71
     2
 10
0.0
 20
0.0
 11
0.0
 21
0.0
 12
0.0
 22
0.0
 32
0.0
 14
0.0
 24
0.0
 34
0.0
 15
0.0
 25
0.0
 35
0.0
146
0.0
 13
0.0
 23
0.0
 33
0.0
 16
1.0
 26
0.0
 36
0.0
 17
0.0
 27
1.0
 37
0.0
 76
     0
330
23
  0
LAYOUT
  5
22
102
{ACAD_REACTORS
330
1A
102
}
330
1A
100
AcDbPlotSettings
  1

  2
none_device
  4
Letter_(8.50_x_11.00_Inches)
  6

 40
6.349999999999999
 41
6.349999999999999
 42
6.350005
 43
6.350005
 44
215.9
 45
279.4
 46
0.0
 47
0.0
 48
0.0
 49
0.0
140
0.0
141
0.0
142
1.0
143
1.0
 70
  1712
 72
     0
 73
     0
 74
     0
  7

 75
     0
147
1.0
 76
     0
 77
     2
 78
   300
148
0.0
149
0.0
100
AcDbLayout
  1
Model
 70
     1
 71
     0
 10
-0.5
 20
-0.5
 11
5.0
 21
5.0
 12
0.0
 22
0.0
 32
0.0
 14
-0.5
 24
-0.5
 34
-0.5
 15
5.0
 25
5.0
 35
5.0
146
0.0
 13
0.0
 23
0.0
 33
0.0
 16
1.0
 26
0.0
 36
0.0
 17
0.0
 27
1.0
 37
0.0
 76
     0
330
1F
331
29
  0
MATERIAL
  5
45
102
{ACAD_XDICTIONARY
360
1EA
102
}
102
{ACAD_REACTORS
330
43
102
}
330
43
100
AcDbMaterial
  1
ByBlock
  0
MATERIAL
  5
44
102
{ACAD_XDICTIONARY
360
1E8
102
}
102
{ACAD_REACTORS
330
43
102
}
330
43
100
AcDbMaterial
  1
ByLayer
  0
MATERIAL
  5
46
102
{ACAD_XDICTIONARY
360
1EC
102
}
102
{ACAD_REACTORS
330
43
102
}
330
43
100
AcDbMaterial
  1
Global
  0
MLEADERSTYLE
  5
6C
102
{ACAD_REACTORS
330
6B
102
}
330
6B
100
AcDbMLeaderStyle
170
     2
171
     1
172
     0
 90
        2
 40
0.0
 41
0.0
173
     1
 91
-1056964608
340
14
 92
       -2
290
     1
 42
0.09
291
     1
 43
0.36
  3
Standard
 44
0.18
300

342
11
174
     1
178
     6
175
     1
176
     0
 93
-1056964608
 45
0.18
292
     0
297
     0
 46
0.18
 94
-1056964608
 47
1.0
 49
1.0
140
1.0
293
     1
141
0.0
294
     1
177
     0
142
1.0
295
     0
296
     0
143
0.125
1001
ACAD_MLEADERVER
1070
     2
  0
MLINESTYLE
  5
18
102
{ACAD_REACTORS
330
17
102
}
330
17
100
AcDbMlineStyle
  2
STANDARD
 70
     0
  3

 62
   256
 51
90.0
 52
90.0
 71
     2
 49
0.5
 62
   256
  6
BYLAYER
 49
-0.5
 62
   256
  6
BYLAYER
  0
ACDBPLACEHOLDER
  5
F
102
{ACAD_REACTORS
330
E
102
}
330
E
  0
SCALE
  5
48
102
{ACAD_REACTORS
330
47
102
}
330
47
100
AcDbScale
 70
     0
300
1:1
140
1.0
141
1.0
290
     1
  0
SCALE
  5
49
102
{ACAD_REACTORS
330
47
102
}
330
47
100
AcDbScale
 70
     0
300
1:2
140
1.0
141
2.0
290
     0
  0
SCALE
  5
4A
102
{ACAD_REACTORS
330
47
102
}
330
47
100
AcDbScale
 70
     0
300
1:4
140
1.0
141
4.0
290
     0
  0
SCALE
  5
4B
102
{ACAD_REACTORS
330
47
102
}
330
47
100
AcDbScale
 70
     0
300
1:5
140
1.0
141
5.0
290
     0
  0
SCALE
  5
4C
102
{ACAD_REACTORS
330
47
102
}
330
47
100
AcDbScale
 70
     0
300
1:8
140
1.0
141
8.0
290
     0
  0
SCALE
  5
4D
102
{ACAD_REACTORS
330
47
102
}
330
47
100
AcDbScale
 70
     0
300
1:10
140
1.0
141
10.0
290
     0
  0
SCALE
  5
4E
102
{ACAD_REACTORS
330
47
102
}
330
47
100
AcDbScale
 70
     0
300
1:16
140
1.0
141
16.0
290
     0
  0
SCALE
  5
4F
102
{ACAD_REACTORS
330
47
102
}
330
47
100
AcDbScale
 70
     0
300
1:20
140
1.0
141
20.0
290
     0
  0
SCALE
  5
50
102
{ACAD_REACTORS
330
47
102
}
330
47
100
AcDbScale
 70
     0
300
1:30
140
1.0
141
30.0
290
     0
  0
SCALE
  5
51
102
{ACAD_REACTORS
330
47
102
}
330
47
100
AcDbScale
 70
     0
300
1:40
140
1.0
141
40.0
290
     0
  0
SCALE
  5
52
102
{ACAD_REACTORS
330
47
102
}
330
47
100
AcDbScale
 70
     0
300
1:50
140
1.0
141
50.0
290
     0
  0
SCALE
  5
53
102
{ACAD_REACTORS
330
47
102
}
330
47
100
AcDbScale
 70
     0
300
1:100
140
1.0
141
100.0
290
     0
  0
SCALE
  5
54
102
{ACAD_REACTORS
330
47
102
}
330
47
100
AcDbScale
 70
     0
300
2:1
140
2.0
141
1.0
290
     0
  0
SCALE
  5
55
102
{ACAD_REACTORS
330
47
102
}
330
47
100
AcDbScale
 70
     0
300
4:1
140
4.0
141
1.0
290
     0
  0
SCALE
  5
56
102
{ACAD_REACTORS
330
47
102
}
330
47
100
AcDbScale
 70
     0
300
8:1
140
8.0
141
1.0
290
     0
  0
SCALE
  5
57
102
{ACAD_REACTORS
330
47
102
}
330
47
100
AcDbScale
 70
     0
300
10:1
140
10.0
141
1.0
290
     0
  0
SCALE
  5
58
102
{ACAD_REACTORS
330
47
102
}
330
47
100
AcDbScale
 70
     0
300
100:1
140
100.0
141
1.0
290
     0
  0
SCALE
  5
59
102
{ACAD_REACTORS
330
47
102
}
330
47
100
AcDbScale
 70
     0
300
1/128" = 1'-0"
140
0.007812
141
12.0
290
     0
  0
SCALE
  5
5A
102
{ACAD_REACTORS
330
47
102
}
330
47
100
AcDbScale
 70
     0
300
1/64" = 1'-0"
140
0.015625
141
12.0
290
     0
  0
SCALE
  5
5B
102
{ACAD_REACTORS
330
47
102
}
330
47
100
AcDbScale
 70
     0
300
1/32" = 1'-0"
140
0.03125
141
12.0
290
     0
  0
SCALE
  5
5C
102
{ACAD_REACTORS
330
47
102
}
330
47
100
AcDbScale
 70
     0
300
1/16" = 1'-0"
140
0.0625
141
12.0
290
     0
  0
SCALE
  5
5D
102
{ACAD_REACTORS
330
47
102
}
330
47
100
AcDbScale
 70
     0
300
3/32" = 1'-0"
140
0.09375
141
12.0
290
     0
  0
SCALE
  5
5E
102
{ACAD_REACTORS
330
47
102
}
330
47
100
AcDbScale
 70
     0
300
1/8" = 1'-0"
140
0.125
141
12.0
290
     0
  0
SCALE
  5
5F
102
{ACAD_REACTORS
330
47
102
}
330
47
100
AcDbScale
 70
     0
300
3/16" = 1'-0"
140
0.1875
141
12.0
290
     0
  0
SCALE
  5
60
102
{ACAD_REACTORS
330
47
102
}
330
47
100
AcDbScale
 70
     0
300
1/4" = 1'-0"
140
0.25
141
12.0
290
     0
  0
SCALE
  5
61
102
{ACAD_REACTORS
330
47
102
}
330
47
100
AcDbScale
 70
     0
300
3/8" = 1'-0"
140
0.375
141
12.0
290
     0
  0
SCALE
  5
62
102
{ACAD_REACTORS
330
47
102
}
330
47
100
AcDbScale
 70
     0
300
1/2" = 1'-0"
140
0.5
141
12.0
290
     0
  0
SCALE
  5
63
102
{ACAD_REACTORS
330
47
102
}
330
47
100
AcDbScale
 70
     0
300
3/4" = 1'-0"
140
0.75
141
12.0
290
     0
  0
SCALE
  5
64
102
{ACAD_REACTORS
330
47
102
}
330
47
100
AcDbScale
 70
     0
300
1" = 1'-0"
140
1.0
141
12.0
290
     0
  0
SCALE
  5
65
102
{ACAD_REACTORS
330
47
102
}
330
47
100
AcDbScale
 70
     0
300
1-1/2" = 1'-0"
140
1.5
141
12.0
290
     0
  0
SCALE
  5
66
102
{ACAD_REACTORS
330
47
102
}
330
47
100
AcDbScale
 70
     0
300
3" = 1'-0"
140
3.0
141
12.0
290
     0
  0
SCALE
  5
67
102
{ACAD_REACTORS
330
47
102
}
330
47
100
AcDbScale
 70
     0
300
6" = 1'-0"
140
6.0
141
12.0
290
     0
  0
SCALE
  5
68
102
{ACAD_REACTORS
330
47
102
}
330
47
100
AcDbScale
 70
     0
300
1'-0" = 1'-0"
140
12.0
141
12.0
290
     0
  0
ACDBSECTIONVIEWSTYLE
  5
1FC
102
{ACAD_XDICTIONARY
360
3E9
102
}
102
{ACAD_REACTORS
330
1F8
102
}
330
1F8
100
AcDbModelDocViewStyle
 70
     0
  3
Metric50
290
     0
100
AcDbSectionViewStyle
 70
     0
 71
     0
 90
      102
 71
     1
340
11
 62
   256
 40
5.0
340
0
340
0
 62
   256
 40
5.0
300
I, O, Q, S, X, Z
 40
10.0
 90
        0
 40
2.5
 90
        0
 71
     2
340
16
 90
       25
 62
   256
340
16
 90
       50
 62
   256
 40
5.0
 40
2.5
 40
5.0
 71
     3
340
11
 62
   256
 40
5.0
 90
        0
 40
15.0
 90
        1
300
%<\AcVar ViewSectionStartId>%-%<\AcVar ViewSectionEndId>% (%<\AcVar ViewScale \f "%sn">%)
 71
     4
 62
   256
 62
   257
300
ANSI31
 40
1.0
 90
        0
290
     0
290
     0
 90
        6
 40
0.0
 40
1.570796326794896
 40
0.2617993877991494
 40
1.308996938995747
 40
-0.2617993877991494
 40
1.832595714594046
  0
TABLESTYLE
  5
6A
102
{ACAD_XDICTIONARY
360
1EE
102
}
102
{ACAD_REACTORS
330
69
102
}
330
69
100
AcDbTableStyle
  3
Standard
 70
     0
 71
     0
 40
0.06
 41
0.06
280
     0
281
     0
  7
Standard
140
0.18
170
     2
 62
     0
 63
     7
283
     0
274
    -2
284
     1
 64
     0
275
    -2
285
     1
 65
     0
276
    -2
286
     1
 66
     0
277
    -2
287
     1
 67
     0
278
    -2
288
     1
 68
     0
279
    -2
289
     1
 69
     0
  7
Standard
140
0.25
170
     5
 62
     0
 63
     7
283
     0
274
    -2
284
     1
 64
     0
275
    -2
285
     1
 65
     0
276
    -2
286
     1
 66
     0
277
    -2
287
     1
 67
     0
278
    -2
288
     1
 68
     0
279
    -2
289
     1
 69
     0
  7
Standard
140
0.18
170
     5
 62
     0
 63
     7
283
     0
274
    -2
284
     1
 64
     0
275
    -2
285
     1
 65
     0
276
    -2
286
     1
 66
     0
277
    -2
287
     1
 67
     0
278
    -2
288
     1
 68
     0
279
    -2
289
     1
 69
     0
  0
VISUALSTYLE
  5
2F
102
{ACAD_XDICTIONARY
360
3C0
102
}
102
{ACAD_REACTORS
330
2A
102
}
330
2A
100
AcDbVisualStyle
  2

 70
     4
 71
     0
 72
     2
 73
     0
 90
        0
 40
-0.6
 41
-30.0
 62
     5
 63
     7
421
 16777215
 74
     1
 91
        4
 64
     7
 65
   257
 75
     1
175
     1
 42
1.0
 92
        0
 66
   257
 43
1.0
 76
     1
 77
     6
 78
     2
 67
     7
 79
     5
170
     0
171
     0
290
     0
174
     0
 93
        1
 44
0.0
173
     0
291
     0
 45
0.0
1001
ACAD
1000
AcDbSavedByObjectVersion
1070
     0
  0
VISUALSTYLE
  5
32
102
{ACAD_XDICTIONARY
360
3C6
102
}
102
{ACAD_REACTORS
330
2A
102
}
330
2A
100
AcDbVisualStyle
  2

 70
     7
 71
     1
 72
     0
 73
     1
 90
        0
 40
-0.6
 41
-30.0
 62
     5
 63
     7
421
 16777215
 74
     0
 91
        4
 64
     7
 65
   257
 75
     1
175
     1
 42
1.0
 92
        8
 66
     7
 43
1.0
 76
     1
 77
     6
 78
     2
 67
     7
 79
     5
170
     0
171
     0
290
     0
174
     0
 93
        1
 44
0.0
173
     0
291
     1
 45
0.0
1001
ACAD
1000
AcDbSavedByObjectVersion
1070
     0
  0
VISUALSTYLE
  5
36
102
{ACAD_XDICTIONARY
360
3CE
102
}
102
{ACAD_REACTORS
330
2A
102
}
330
2A
100
AcDbVisualStyle
  2

 70
    12
 71
     2
 72
     2
 73
     0
 90
        0
 40
-0.6
 41
-30.0
 62
     5
 63
     7
421
 16777215
 74
     1
 91
        4
 64
     7
 65
   257
 75
     1
175
     1
 42
1.0
 92
        8
 66
     7
 43
1.0
 76
     1
 77
     6
 78
     2
 67
     7
 79
     5
170
     0
171
     0
290
     0
174
     0
 93
        1
 44
50.0
173
     0
291
     1
 45
0.0
1001
ACAD
1000
AcDbSavedByObjectVersion
1070
     0
  0
VISUALSTYLE
  5
3A
102
{ACAD_XDICTIONARY
360
3D6
102
}
102
{ACAD_REACTORS
330
2A
102
}
330
2A
100
AcDbVisualStyle
  2

 70
    16
 71
     2
 72
     2
 73
     3
 90
        0
 40
-0.6
 41
-30.0
 62
     5
 63
     8
421
  8421504
 74
     1
 91
        4
 64
     7
 65
   257
 75
     1
175
     1
 42
1.0
 92
        8
 66
     8
424
  8421504
 43
1.0
 76
     1
 77
     6
 78
     2
 67
     7
 79
     5
170
     0
171
     0
290
     0
174
     0
 93
        1
 44
0.0
173
     0
291
     1
 45
0.0
1001
ACAD
1000
AcDbSavedByObjectVersion
1070
     0
  0
VISUALSTYLE
  5
34
102
{ACAD_XDICTIONARY
360
3CA
102
}
102
{ACAD_REACTORS
330
2A
102
}
330
2A
100
AcDbVisualStyle
  2

 70
     9
 71
     3
 72
     2
 73
     0
 90
        0
 40
-0.6
 41
-30.0
 62
     5
 63
     7
421
 16777215
 74
     2
 91
        2
 64
     7
 65
   257
 75
     1
175
     1
 42
179.0
 92
        8
 66
     7
 43
1.0
 76
     1
 77
     6
 78
     2
 67
     7
 79
     3
170
     0
171
     0
290
     0
174
     0
 93
        1
 44
0.0
173
     0
291
     0
 45
0.0
1001
ACAD
1000
AcDbSavedByObjectVersion
1070
     0
  0
VISUALSTYLE
  5
35
102
{ACAD_XDICTIONARY
360
3CC
102
}
102
{ACAD_REACTORS
330
2A
102
}
330
2A
100
AcDbVisualStyle
  2

 70
    11
 71
     2
 72
     2
 73
     0
 90
        0
 40
-0.6
 41
-30.0
 62
     5
 63
     7
421
 16777215
 74
     1
 91
        4
 64
     7
 65
   257
 75
     1
175
     1
 42
1.0
 92
        8
 66
     7
 43
1.0
 76
     1
 77
     6
 78
     2
 67
     7
 79
     5
170
     0
171
     0
290
     0
174
     0
 93
        1
 44
-50.0
173
     0
291
     1
 45
0.0
1001
ACAD
1000
AcDbSavedByObjectVersion
1070
     0
  0
VISUALSTYLE
  5
3D
102
{ACAD_XDICTIONARY
360
3DC
102
}
102
{ACAD_REACTORS
330
2A
102
}
330
2A
100
AcDbVisualStyle
  2

 70
    22
 71
     2
 72
     2
 73
     0
 90
        0
 40
-0.6
 41
-30.0
 62
     5
 63
     7
421
 16777215
 74
     1
 91
        4
 64
     7
 65
   257
 75
     1
175
     1
 42
1.0
 92
        8
 66
     7
 43
1.0
 76
     1
 77
     6
 78
     2
 67
     7
 79
     5
170
     0
171
     0
290
     0
174
     0
 93
        1
 44
0.0
173
     0
291
     1
 45
0.0
1001
ACAD
1000
AcDbSavedByObjectVersion
1070
     0
  0
VISUALSTYLE
  5
39
102
{ACAD_XDICTIONARY
360
3D4
102
}
102
{ACAD_REACTORS
330
2A
102
}
330
2A
100
AcDbVisualStyle
  2

 70
    15
 71
     2
 72
     2
 73
     0
 90
        0
 40
-0.6
 41
-30.0
 62
     5
 63
     7
421
 16777215
 74
     1
 91
        4
 64
     7
 65
   257
 75
     1
175
     1
 42
1.0
 92
        8
 66
     7
 43
1.0
 76
     1
 77
     6
 78
     2
 67
     7
 79
     5
170
     0
171
     0
290
     0
174
     0
 93
        1
 44
0.0
173
     0
291
     1
 45
0.0
1001
ACAD
1000
AcDbSavedByObjectVersion
1070
     0
  0
VISUALSTYLE
  5
2B
102
{ACAD_XDICTIONARY
360
3B8
102
}
102
{ACAD_REACTORS
330
2A
102
}
330
2A
100
AcDbVisualStyle
  2

 70
     0
 71
     2
 72
     1
 73
     1
 90
        2
 40
-0.6
 41
30.0
 62
     5
 63
     7
421
 16777215
 74
     0
 91
        0
 64
     7
 65
   257
 75
     1
175
     1
 42
1.0
 92
        8
 66
     7
 43
1.0
 76
     1
 77
     6
 78
     2
 67
     7
 79
     5
170
     0
171
     0
290
     0
174
     0
 93
       13
 44
0.0
173
     0
291
     1
 45
0.0
1001
ACAD
1000
AcDbSavedByObjectVersion
1070
     0
  0
VISUALSTYLE
  5
2C
102
{ACAD_XDICTIONARY
360
3BA
102
}
102
{ACAD_REACTORS
330
2A
102
}
330
2A
100
AcDbVisualStyle
  2

 70
     1
 71
     2
 72
     1
 73
     1
 90
        2
 40
-0.6
 41
30.0
 62
     5
 63
     7
421
 16777215
 74
     1
 91
        0
 64
     7
 65
   257
 75
     1
175
     1
 42
1.0
 92
        0
 66
   257
 43
1.0
 76
     1
 77
     6
 78
     2
 67
     7
 79
     5
170
     0
171
     0
290
     0
174
     0
 93
       13
 44
0.0
173
     0
291
     1
 45
0.0
1001
ACAD
1000
AcDbSavedByObjectVersion
1070
     0
  0
VISUALSTYLE
  5
2D
102
{ACAD_XDICTIONARY
360
3BC
102
}
102
{ACAD_REACTORS
330
2A
102
}
330
2A
100
AcDbVisualStyle
  2

 70
     2
 71
     2
 72
     2
 73
     1
 90
        2
 40
-0.6
 41
30.0
 62
     5
 63
     7
421
 16777215
 74
     0
 91
        0
 64
     7
 65
   257
 75
     1
175
     1
 42
1.0
 92
        0
 66
     7
 43
1.0
 76
     1
 77
     6
 78
     2
 67
     7
 79
     5
170
     0
171
     0
290
     0
174
     0
 93
       13
 44
0.0
173
     0
291
     1
 45
0.0
1001
ACAD
1000
AcDbSavedByObjectVersion
1070
     0
  0
VISUALSTYLE
  5
2E
102
{ACAD_XDICTIONARY
360
3BE
102
}
102
{ACAD_REACTORS
330
2A
102
}
330
2A
100
AcDbVisualStyle
  2

 70
     3
 71
     2
 72
     2
 73
     1
 90
        2
 40
-0.6
 41
30.0
 62
     5
 63
     7
421
 16777215
 74
     1
 91
        0
 64
     7
 65
   257
 75
     1
175
     1
 42
1.0
 92
        0
 66
   257
 43
1.0
 76
     1
 77
     6
 78
     2
 67
     7
 79
     5
170
     0
171
     0
290
     0
174
     0
 93
       13
 44
0.0
173
     0
291
     1
 45
0.0
1001
ACAD
1000
AcDbSavedByObjectVersion
1070
     0
  0
VISUALSTYLE
  5
31
102
{ACAD_XDICTIONARY
360
3C4
102
}
102
{ACAD_REACTORS
330
2A
102
}
330
2A
100
AcDbVisualStyle
  2

 70
     6
 71
     1
 72
     2
 73
     2
 90
        0
 40
-0.6
 41
-30.0
 62
     5
 63
     7
421
 16777215
 74
     2
 91
        2
 64
     7
 65
   257
 75
     2
175
     1
 42
40.0
 92
        0
 66
   257
 43
1.0
 76
     1
 77
     6
 78
     2
 67
     7
 79
     3
170
     0
171
     0
290
     0
174
     0
 93
        1
 44
0.0
173
     0
291
     0
 45
0.0
1001
ACAD
1000
AcDbSavedByObjectVersion
1070
     0
  0
VISUALSTYLE
  5
3B
102
{ACAD_XDICTIONARY
360
3D8
102
}
102
{ACAD_REACTORS
330
2A
102
}
330
2A
100
AcDbVisualStyle
  2

 70
    20
 71
     2
 72
     2
 73
     0
 90
        0
 40
-0.6
 41
-30.0
 62
     5
 63
     7
421
 16777215
 74
     1
 91
        4
 64
     7
 65
   257
 75
     1
175
     1
 42
1.0
 92
       10
 66
     7
 43
1.0
 76
     1
 77
     6
 78
     2
 67
     7
 79
     5
170
     0
171
     0
290
     0
174
     0
 93
        1
 44
0.0
173
     0
291
     1
 45
0.0
1001
ACAD
1000
AcDbSavedByObjectVersion
1070
     0
  0
VISUALSTYLE
  5
38
102
{ACAD_XDICTIONARY
360
3D2
102
}
102
{ACAD_REACTORS
330
2A
102
}
330
2A
100
AcDbVisualStyle
  2

 70
    14
 71
     2
 72
     2
 73
     0
 90
        0
 40
-0.6
 41
-30.0
 62
     5
 63
     7
421
 16777215
 74
     1
 91
        4
 64
     7
 65
   257
 75
     7
175
     7
 42
1.0
 92
        8
 66
     7
 43
1.0
 76
     1
 77
     6
 78
     2
 67
     7
 79
     5
170
     0
171
     0
290
     0
174
     0
 93
        1
 44
0.0
173
     0
291
     1
 45
0.0
1001
ACAD
1000
AcDbSavedByObjectVersion
1070
     0
  0
VISUALSTYLE
  5
3C
102
{ACAD_XDICTIONARY
360
3DA
102
}
102
{ACAD_REACTORS
330
2A
102
}
330
2A
100
AcDbVisualStyle
  2

 70
    21
 71
     2
 72
     2
 73
     0
 90
        0
 40
-0.6
 41
-30.0
 62
     5
 63
     7
421
 16777215
 74
     1
 91
        4
 64
     7
 65
   257
 75
     1
175
     1
 42
1.0
 92
        9
 66
     7
 43
1.0
 76
     1
 77
     6
 78
     2
 67
     7
 79
     5
170
     0
171
     0
290
     0
174
     0
 93
        1
 44
0.0
173
     0
291
     1
 45
0.0
1001
ACAD
1000
AcDbSavedByObjectVersion
1070
     0
  0
VISUALSTYLE
  5
33
102
{ACAD_XDICTIONARY
360
3C8
102
}
102
{ACAD_REACTORS
330
2A
102
}
330
2A
100
AcDbVisualStyle
  2

 70
     8
 71
     2
 72
     3
 73
     0
 90
        2
 40
-0.6
 41
30.0
 62
     5
 63
     7
421
 16777215
 74
     0
 91
        0
 64
     7
 65
   257
 75
     1
175
     1
 42
1.0
 92
        8
 66
   257
 43
1.0
 76
     1
 77
     6
 78
     2
 67
     7
 79
     3
170
     0
171
     0
290
     0
174
     0
 93
       13
 44
0.0
173
     0
291
     0
 45
0.0
1001
ACAD
1000
AcDbSavedByObjectVersion
1070
     0
  0
VISUALSTYLE
  5
42
102
{ACAD_XDICTIONARY
360
3E6
102
}
102
{ACAD_REACTORS
330
2A
102
}
330
2A
100
AcDbVisualStyle
  2

 70
    27
 71
     2
 72
     2
 73
     1
 90
        2
 40
-0.6
 41
30.0
 62
     5
 63
     7
421
 16777215
 74
     0
 91
        4
 64
     7
 65
   257
 75
     1
175
     1
 42
1.0
 92
        8
 66
   257
 43
1.0
 76
     1
 77
     6
 78
     2
 67
     8
425
  7895160
 79
     3
170
     0
171
     0
290
     0
174
     0
 93
        5
 44
0.0
173
     0
291
     0
 45
0.0
1001
ACAD
1000
AcDbSavedByObjectVersion
1070
     0
  0
VISUALSTYLE
  5
41
102
{ACAD_XDICTIONARY
360
3E4
102
}
102
{ACAD_REACTORS
330
2A
102
}
330
2A
100
AcDbVisualStyle
  2

 70
    26
 71
     2
 72
     2
 73
     1
 90
        2
 40
-0.6
 41
30.0
 62
     5
 63
     7
421
 16777215
 74
     1
 91
       10
 64
     7
 65
   257
 75
     2
175
     1
 42
1.0
 92
        8
 66
   257
 43
1.0
 76
     1
 77
     6
 78
     2
 67
     7
 79
     3
170
     0
171
     0
290
     0
174
     0
 93
        5
 44
0.0
173
     0
291
     0
 45
0.0
1001
ACAD
1000
AcDbSavedByObjectVersion
1070
     0
  0
VISUALSTYLE
  5
3E
102
{ACAD_XDICTIONARY
360
3DE
102
}
102
{ACAD_REACTORS
330
2A
102
}
330
2A
100
AcDbVisualStyle
  2

 70
    23
 71
     2
 72
     2
 73
     3
 90
        0
 40
-0.6
 41
-30.0
 62
     5
 63
     7
421
 16777215
 74
     2
 91
        2
 64
     7
 65
     7
 75
     1
175
     1
 42
40.0
 92
        8
 66
     7
 43
1.0
 76
     1
 77
     6
 78
     2
 67
     7
 79
     3
170
     0
171
     0
290
     0
174
     0
 93
        1
 44
0.0
173
     0
291
     0
 45
0.0
1001
ACAD
1000
AcDbSavedByObjectVersion
1070
     0
  0
VISUALSTYLE
  5
3F
102
{ACAD_XDICTIONARY
360
3E0
102
}
102
{ACAD_REACTORS
330
2A
102
}
330
2A
100
AcDbVisualStyle
  2

 70
    24
 71
     1
 72
     2
 73
     2
 90
        0
 40
-0.6
 41
-30.0
 62
     5
 63
     7
421
 16777215
 74
     2
 91
        2
 64
     7
 65
     7
 75
     1
175
     1
 42
40.0
 92
       11
 66
     7
 43
1.0
 76
     1
 77
     6
 78
     2
 67
     7
 79
     6
170
     0
171
     0
290
     0
174
     0
 93
        1
 44
0.0
173
     0
291
     0
 45
0.0
1001
ACAD
1000
AcDbSavedByObjectVersion
1070
     0
  0
VISUALSTYLE
  5
37
102
{ACAD_XDICTIONARY
360
3D0
102
}
102
{ACAD_REACTORS
330
2A
102
}
330
2A
100
AcDbVisualStyle
  2

 70
    13
 71
     2
 72
     2
 73
     0
 90
        0
 40
-0.6
 41
-30.0
 62
     5
 63
     7
421
 16777215
 74
     1
 91
        4
 64
     7
 65
   257
 75
     1
175
     1
 42
1.0
 92
       12
 66
     7
 43
1.0
 76
     1
 77
     6
 78
     2
 67
     7
 79
     5
170
     0
171
     0
290
     0
174
     0
 93
        1
 44
0.0
173
     0
291
     1
 45
0.0
1001
ACAD
1000
AcDbSavedByObjectVersion
1070
     0
  0
VISUALSTYLE
  5
30
102
{ACAD_XDICTIONARY
360
3C2
102
}
102
{ACAD_REACTORS
330
2A
102
}
330
2A
100
AcDbVisualStyle
  2

 70
     5
 71
     0
 72
     2
 73
     0
 90
        0
 40
-0.6
 41
-30.0
 62
     5
 63
     7
421
 16777215
 74
     1
 91
        4
 64
     7
 65
   257
 75
     1
175
     1
 42
1.0
 92
        0
 66
   257
 43
1.0
 76
     1
 77
     6
 78
     2
 67
     7
 79
     3
170
     0
171
     0
290
     0
174
     0
 93
        1
 44
0.0
173
     0
291
     0
 45
0.0
1001
ACAD
1000
AcDbSavedByObjectVersion
1070
     0
  0
VISUALSTYLE
  5
40
102
{ACAD_XDICTIONARY
360
3E2
102
}
102
{ACAD_REACTORS
330
2A
102
}
330
2A
100
AcDbVisualStyle
  2

 70
    25
 71
     2
 72
     2
 73
     1
 90
        1
 40
0.5
 41
-30.0
 62
     5
 63
     7
421
 16777215
 74
     1
 91
        0
 64
     7
 65
   257
 75
     1
175
     1
 42
1.0
 92
        8
 66
     7
 43
1.0
 76
     1
 77
     6
 78
     2
 67
     7
 79
     3
170
     0
171
     0
290
     0
174
     0
 93
       13
 44
0.0
173
     0
291
     0
 45
0.0
1001
ACAD
1000
AcDbSavedByObjectVersion
1070
     0
  0
DICTIONARYVAR
  5
1B5
102
{ACAD_REACTORS
330
1B4
102
}
330
1B4
100
DictionaryVariables
280
     0
  1
1:1
  0
DICTIONARYVAR
  5
1F6
102
{ACAD_REACTORS
330
1B4
102
}
330
1B4
100
DictionaryVariables
280
     0
  1
STANDARD
  0
DICTIONARYVAR
  5
1F5
102
{ACAD_REACTORS
330
1B4
102
}
330
1B4
100
DictionaryVariables
280
     0
  1
STANDARD
  0
DICTIONARYVAR
  5
3AA
102
{ACAD_REACTORS
330
1B4
102
}
330
1B4
100
DictionaryVariables
280
     0
  1
Metric50
  0
DICTIONARYVAR
  5
3AB
102
{ACAD_REACTORS
330
1B4
102
}
330
1B4
100
DictionaryVariables
280
     0
  1
Metric50
  0
DICTIONARYVAR
  5
1B6
102
{ACAD_REACTORS
330
1B4
102
}
330
1B4
100
DictionaryVariables
280
     0
  1
1
  0
DICTIONARYVAR
  5
3AC
102
{ACAD_REACTORS
330
1B4
102
}
330
1B4
100
DictionaryVariables
280
     0
  1
2
  0
DICTIONARY
  5
3B7
102
{ACAD_REACTORS
330
3B5
102
}
330
3B5
100
AcDbDictionary
281
     1
  0
DICTIONARY
  5
3B6
102
{ACAD_REACTORS
330
3B5
102
}
330
3B5
100
AcDbDictionary
281
     1
  3
2091025362560
350
3B0
  3
2091025362576
350
3B1
  3
2091025362592
350
3B2
  3
2091025362608
350
3B3
  3
2091025362624
350
3B4
  0
DICTIONARY
  5
3EB
330
1FD
100
AcDbDictionary
280
     1
281
     1
  3
ACAD_XREC_ROUNDTRIP
360
3EC
  0
DICTIONARY
  5
1EA
330
45
100
AcDbDictionary
280
     1
281
     1
  3
ACAD_XREC_ROUNDTRIP
360
1EB
  0
DICTIONARY
  5
1E8
330
44
100
AcDbDictionary
280
     1
281
     1
  3
ACAD_XREC_ROUNDTRIP
360
1E9
  0
DICTIONARY
  5
1EC
330
46
100
AcDbDictionary
280
     1
281
     1
  3
ACAD_XREC_ROUNDTRIP
360
1ED
  0
DICTIONARY
  5
3E9
330
1FC
100
AcDbDictionary
280
     1
281
     1
  3
ACAD_XREC_ROUNDTRIP
360
3EA
  0
DICTIONARY
  5
1EE
330
6A
100
AcDbDictionary
280
     1
281
     1
  3
ACAD_ROUNDTRIP_2008_TABLESTYLE_CELLSTYLEMAP
360
3AE
  3
ACAD_XREC_ROUNDTRIP
360
3E8
  0
DICTIONARY
  5
3C0
330
2F
100
AcDbDictionary
280
     1
281
     1
  3
ACAD_XREC_ROUNDTRIP
360
3C1
  0
DICTIONARY
  5
3C6
330
32
100
AcDbDictionary
280
     1
281
     1
  3
ACAD_XREC_ROUNDTRIP
360
3C7
  0
DICTIONARY
  5
3CE
330
36
100
AcDbDictionary
280
     1
281
     1
  3
ACAD_XREC_ROUNDTRIP
360
3CF
  0
DICTIONARY
  5
3D6
330
3A
100
AcDbDictionary
280
     1
281
     1
  3
ACAD_XREC_ROUNDTRIP
360
3D7
  0
DICTIONARY
  5
3CA
330
34
100
AcDbDictionary
280
     1
281
     1
  3
ACAD_XREC_ROUNDTRIP
360
3CB
  0
DICTIONARY
  5
3CC
330
35
100
AcDbDictionary
280
     1
281
     1
  3
ACAD_XREC_ROUNDTRIP
360
3CD
  0
DICTIONARY
  5
3DC
330
3D
100
AcDbDictionary
280
     1
281
     1
  3
ACAD_XREC_ROUNDTRIP
360
3DD
  0
DICTIONARY
  5
3D4
330
39
100
AcDbDictionary
280
     1
281
     1
  3
ACAD_XREC_ROUNDTRIP
360
3D5
  0
DICTIONARY
  5
3B8
330
2B
100
AcDbDictionary
280
     1
281
     1
  3
ACAD_XREC_ROUNDTRIP
360
3B9
  0
DICTIONARY
  5
3BA
330
2C
100
AcDbDictionary
280
     1
281
     1
  3
ACAD_XREC_ROUNDTRIP
360
3BB
  0
DICTIONARY
  5
3BC
330
2D
100
AcDbDictionary
280
     1
281
     1
  3
ACAD_XREC_ROUNDTRIP
360
3BD
  0
DICTIONARY
  5
3BE
330
2E
100
AcDbDictionary
280
     1
281
     1
  3
ACAD_XREC_ROUNDTRIP
360
3BF
  0
DICTIONARY
  5
3C4
330
31
100
AcDbDictionary
280
     1
281
     1
  3
ACAD_XREC_ROUNDTRIP
360
3C5
  0
DICTIONARY
  5
3D8
330
3B
100
AcDbDictionary
280
     1
281
     1
  3
ACAD_XREC_ROUNDTRIP
360
3D9
  0
DICTIONARY
  5
3D2
330
38
100
AcDbDictionary
280
     1
281
     1
  3
ACAD_XREC_ROUNDTRIP
360
3D3
  0
DICTIONARY
  5
3DA
330
3C
100
AcDbDictionary
280
     1
281
     1
  3
ACAD_XREC_ROUNDTRIP
360
3DB
  0
DICTIONARY
  5
3C8
330
33
100
AcDbDictionary
280
     1
281
     1
  3
ACAD_XREC_ROUNDTRIP
360
3C9
  0
DICTIONARY
  5
3E6
330
42
100
AcDbDictionary
280
     1
281
     1
  3
ACAD_XREC_ROUNDTRIP
360
3E7
  0
DICTIONARY
  5
3E4
330
41
100
AcDbDictionary
280
     1
281
     1
  3
ACAD_XREC_ROUNDTRIP
360
3E5
  0
DICTIONARY
  5
3DE
330
3E
100
AcDbDictionary
280
     1
281
     1
  3
ACAD_XREC_ROUNDTRIP
360
3DF
  0
DICTIONARY
  5
3E0
330
3F
100
AcDbDictionary
280
     1
281
     1
  3
ACAD_XREC_ROUNDTRIP
360
3E1
  0
DICTIONARY
  5
3D0
330
37
100
AcDbDictionary
280
     1
281
     1
  3
ACAD_XREC_ROUNDTRIP
360
3D1
  0
DICTIONARY
  5
3C2
330
30
100
AcDbDictionary
280
     1
281
     1
  3
ACAD_XREC_ROUNDTRIP
360
3C3
  0
DICTIONARY
  5
3E2
330
40
100
AcDbDictionary
280
     1
281
     1
  3
ACAD_XREC_ROUNDTRIP
360
3E3
  0
XRECORD
  5
3B0
102
{ACAD_REACTORS
330
3B6
102
}
330
3B6
100
AcDbXrecord
280
     1
  1
AcDb_Thumbnail_Schema
102
{ATTRRECORD
341
3B1
  2
AcDbDs::TreatedAsObjectData
280
     1
291
     1
102
ATTRRECORD}
102
{ATTRRECORD
341
3B2
  2
AcDbDs::Legacy
280
     1
291
     1
102
ATTRRECORD}
  2
AcDbDs::ID
280
    10
 91
        8
102
{ATTRRECORD
341
3B3
  2
AcDs:Indexable
280
     1
291
     1
102
ATTRRECORD}
102
{ATTRRECORD
341
3B4
  2
AcDbDs::HandleAttribute
280
     7
282
     1
102
ATTRRECORD}
  2
Thumbnail_Data
280
    15
 91
        0
  0
XRECORD
  5
3B1
102
{ACAD_REACTORS
330
3B6
102
}
330
3B6
100
AcDbXrecord
280
     1
  1
AcDbDs::TreatedAsObjectDataSchema
  2
AcDbDs::TreatedAsObjectData
280
     1
 91
        0
  0
XRECORD
  5
3B2
102
{ACAD_REACTORS
330
3B6
102
}
330
3B6
100
AcDbXrecord
280
     1
  1
AcDbDs::LegacySchema
  2
AcDbDs::Legacy
280
     1
 91
        0
  0
XRECORD
  5
3B3
102
{ACAD_REACTORS
330
3B6
102
}
330
3B6
100
AcDbXrecord
280
     1
  1
AcDbDs::IndexedPropertySchema
  2
AcDs:Indexable
280
     1
 91
        0
  0
XRECORD
  5
3B4
102
{ACAD_REACTORS
330
3B6
102
}
330
3B6
100
AcDbXrecord
280
     1
  1
AcDbDs::HandleAttributeSchema
  2
AcDbDs::HandleAttribute
280
     7
 91
        1
284
     1
  0
XRECORD
  5
3EC
102
{ACAD_REACTORS
330
3EB
102
}
330
3EB
100
AcDbXrecord
280
     1
102
DISPLAYNAME
  1
Metric50
102
FLAGS
 90
        0
  0
XRECORD
  5
1EB
102
{ACAD_REACTORS
330
1EA
102
}
330
1EA
100
AcDbXrecord
280
     1
102
MATERIAL
148
0.0
149
0.0
149
0.0
 93
        0
 94
      127
282
     0
 72
     1
 77
     1
171
     1
175
     1
179
     1
273
     0
  0
XRECORD
  5
1E9
102
{ACAD_REACTORS
330
1E8
102
}
330
1E8
100
AcDbXrecord
280
     1
102
MATERIAL
148
0.0
149
0.0
149
0.0
 93
        0
 94
      127
282
     0
 72
     1
 77
     1
171
     1
175
     1
179
     1
273
     0
  0
XRECORD
  5
1ED
102
{ACAD_REACTORS
330
1EC
102
}
330
1EC
100
AcDbXrecord
280
     1
102
MATERIAL
148
0.0
149
0.0
149
0.0
 93
        0
 94
      127
282
     0
 72
     1
 77
     1
171
     1
175
     1
179
     1
273
     0
  0
XRECORD
  5
3EA
102
{ACAD_REACTORS
330
3E9
102
}
330
3E9
100
AcDbXrecord
280
     1
102
DISPLAYNAME
  1
Metric50
102
FLAGS
 90
        0
  0
CELLSTYLEMAP
  5
3AE
102
{ACAD_REACTORS
330
1EE
102
}
330
1EE
100
AcDbCellStyleMap
 90
        3
300
CELLSTYLE
  1
TABLEFORMAT_BEGIN
 90
        5
170
     1
 91
        0
 92
    32768
 62
   257
 93
        1
300
CONTENTFORMAT
  1
CONTENTFORMAT_BEGIN
 90
        0
 91
        0
 92
        4
 93
        0
300

 40
0.0
140
1.0
 94
        5
 62
     0
340
11
144
0.25
309
CONTENTFORMAT_END
171
     1
301
MARGIN
  1
CELLMARGIN_BEGIN
 40
0.06
 40
0.06
 40
0.06
 40
0.06
 40
0.18
 40
0.18
309
CELLMARGIN_END
 94
        6
 95
        1
302
GRIDFORMAT
  1
GRIDFORMAT_BEGIN
 90
        0
 91
        1
 62
     0
 92
       -2
340
14
 93
        0
 40
0.045
309
GRIDFORMAT_END
 95
        2
302
GRIDFORMAT
  1
GRIDFORMAT_BEGIN
 90
        0
 91
        1
 62
     0
 92
       -2
340
14
 93
        0
 40
0.045
309
GRIDFORMAT_END
 95
        4
302
GRIDFORMAT
  1
GRIDFORMAT_BEGIN
 90
        0
 91
        1
 62
     0
 92
       -2
340
14
 93
        0
 40
0.045
309
GRIDFORMAT_END
 95
        8
302
GRIDFORMAT
  1
GRIDFORMAT_BEGIN
 90
        0
 91
        1
 62
     0
 92
       -2
340
14
 93
        0
 40
0.045
309
GRIDFORMAT_END
 95
       16
302
GRIDFORMAT
  1
GRIDFORMAT_BEGIN
 90
        0
 91
        1
 62
     0
 92
       -2
340
14
 93
        0
 40
0.045
309
GRIDFORMAT_END
 95
       32
302
GRIDFORMAT
  1
GRIDFORMAT_BEGIN
 90
        0
 91
        1
 62
     0
 92
       -2
340
14
 93
        0
 40
0.045
309
GRIDFORMAT_END
309
TABLEFORMAT_END
  1
CELLSTYLE_BEGIN
 90
        1
 91
        1
300
_TITLE
309
CELLSTYLE_END
300
CELLSTYLE
  1
TABLEFORMAT_BEGIN
 90
        5
170
     1
 91
        0
 92
        0
 62
   257
 93
        1
300
CONTENTFORMAT
  1
CONTENTFORMAT_BEGIN
 90
        0
 91
        0
 92
        4
 93
        0
300

 40
0.0
140
1.0
 94
        5
 62
     0
340
11
144
0.18
309
CONTENTFORMAT_END
171
     1
301
MARGIN
  1
CELLMARGIN_BEGIN
 40
0.06
 40
0.06
 40
0.06
 40
0.06
 40
0.18
 40
0.18
309
CELLMARGIN_END
 94
        6
 95
        1
302
GRIDFORMAT
  1
GRIDFORMAT_BEGIN
 90
        0
 91
        1
 62
     0
 92
       -2
340
14
 93
        0
 40
0.045
309
GRIDFORMAT_END
 95
        2
302
GRIDFORMAT
  1
GRIDFORMAT_BEGIN
 90
        0
 91
        1
 62
     0
 92
       -2
340
14
 93
        0
 40
0.045
309
GRIDFORMAT_END
 95
        4
302
GRIDFORMAT
  1
GRIDFORMAT_BEGIN
 90
        0
 91
        1
 62
     0
 92
       -2
340
14
 93
        0
 40
0.045
309
GRIDFORMAT_END
 95
        8
302
GRIDFORMAT
  1
GRIDFORMAT_BEGIN
 90
        0
 91
        1
 62
     0
 92
       -2
340
14
 93
        0
 40
0.045
309
GRIDFORMAT_END
 95
       16
302
GRIDFORMAT
  1
GRIDFORMAT_BEGIN
 90
        0
 91
        1
 62
     0
 92
       -2
340
14
 93
        0
 40
0.045
309
GRIDFORMAT_END
 95
       32
302
GRIDFORMAT
  1
GRIDFORMAT_BEGIN
 90
        0
 91
        1
 62
     0
 92
       -2
340
14
 93
        0
 40
0.045
309
GRIDFORMAT_END
309
TABLEFORMAT_END
  1
CELLSTYLE_BEGIN
 90
        2
 91
        1
300
_HEADER
309
CELLSTYLE_END
300
CELLSTYLE
  1
TABLEFORMAT_BEGIN
 90
        5
170
     1
 91
        0
 92
        0
 62
   257
 93
        1
300
CONTENTFORMAT
  1
CONTENTFORMAT_BEGIN
 90
        0
 91
        0
 92
        4
 93
        0
300

 40
0.0
140
1.0
 94
        2
 62
     0
340
11
144
0.18
309
CONTENTFORMAT_END
171
     1
301
MARGIN
  1
CELLMARGIN_BEGIN
 40
0.06
 40
0.06
 40
0.06
 40
0.06
 40
0.18
 40
0.18
309
CELLMARGIN_END
 94
        6
 95
        1
302
GRIDFORMAT
  1
GRIDFORMAT_BEGIN
 90
        0
 91
        1
 62
     0
 92
       -2
340
14
 93
        0
 40
0.045
309
GRIDFORMAT_END
 95
        2
302
GRIDFORMAT
  1
GRIDFORMAT_BEGIN
 90
        0
 91
        1
 62
     0
 92
       -2
340
14
 93
        0
 40
0.045
309
GRIDFORMAT_END
 95
        4
302
GRIDFORMAT
  1
GRIDFORMAT_BEGIN
 90
        0
 91
        1
 62
     0
 92
       -2
340
14
 93
        0
 40
0.045
309
GRIDFORMAT_END
 95
        8
302
GRIDFORMAT
  1
GRIDFORMAT_BEGIN
 90
        0
 91
        1
 62
     0
 92
       -2
340
14
 93
        0
 40
0.045
309
GRIDFORMAT_END
 95
       16
302
GRIDFORMAT
  1
GRIDFORMAT_BEGIN
 90
        0
 91
        1
 62
     0
 92
       -2
340
14
 93
        0
 40
0.045
309
GRIDFORMAT_END
 95
       32
302
GRIDFORMAT
  1
GRIDFORMAT_BEGIN
 90
        0
 91
        1
 62
     0
 92
       -2
340
14
 93
        0
 40
0.045
309
GRIDFORMAT_END
309
TABLEFORMAT_END
  1
CELLSTYLE_BEGIN
 90
        3
 91
        2
300
_DATA
309
CELLSTYLE_END
  0
XRECORD
  5
3E8
102
{ACAD_REACTORS
330
1EE
102
}
330
1EE
100
AcDbXrecord
280
     1
102
ACAD_ROUNDTRIP_PRE2007_TABLESTYLE
 90
        4
 91
        0
  1

 92
        4
 93
        0
  2

 94
        4
 95
        0
  3

  0
XRECORD
  5
3C1
102
{ACAD_REACTORS
330
3C0
102
}
330
3C0
100
AcDbXrecord
280
     1
102
RTVSPost2010Prop28
280
     1
102
RTVSPost2010PropOp28
 70
     1
102
RTVSPost2010Prop29
280
     1
102
RTVSPost2010PropOp29
 70
     1
102
RTVSPost2010Prop30
280
     0
102
RTVSPost2010PropOp30
 70
     1
102
RTVSPost2010Prop31
280
     0
102
RTVSPost2010PropOp31
 70
     1
102
RTVSPost2010Prop32
280
     0
102
RTVSPost2010PropOp32
 70
     1
102
RTVSPost2010Prop33
280
     0
102
RTVSPost2010PropOp33
 70
     1
102
RTVSPost2010Prop34
280
     0
102
RTVSPost2010PropOp34
 70
     1
102
RTVSPost2010Prop35
280
     0
102
RTVSPost2010PropOp35
 70
     1
102
RTVSPost2010Prop36
280
     0
102
RTVSPost2010PropOp36
 70
     1
102
RTVSPost2010Prop37
 90
       50
102
RTVSPost2010PropOp37
 70
     1
102
RTVSPost2010Prop38
140
0.0
102
RTVSPost2010PropOp38
 70
     1
102
RTVSPost2010Prop39
140
1.0
102
RTVSPost2010PropOp39
 70
     1
102
RTVSPost2010Prop40
 90
        0
102
RTVSPost2010PropOp40
 70
     1
102
RTVSPost2010Prop41ColorIndex
 90
       18
102
RTVSPost2010Prop41ColorRGB
 90
        0
102
RTVSPost2010PropOp41
 70
     1
102
RTVSPost2010Prop42
 90
       50
102
RTVSPost2010PropOp42
 70
     1
102
RTVSPost2010Prop43
 90
        3
102
RTVSPost2010PropOp43
 70
     1
102
RTVSPost2010Prop44ColorIndex
 90
        5
102
RTVSPost2010Prop44ColorRGB
 90
      255
102
RTVSPost2010PropOp44
 70
     1
102
RTVSPost2010Prop45
280
     0
102
RTVSPost2010PropOp45
 70
     1
102
RTVSPost2010Prop46
 90
       50
102
RTVSPost2010PropOp46
 70
     1
102
RTVSPost2010Prop47
 90
       50
102
RTVSPost2010PropOp47
 70
     1
102
RTVSPost2010Prop48
 90
       50
102
RTVSPost2010PropOp48
 70
     1
102
RTVSPost2010Prop49
280
     0
102
RTVSPost2010PropOp49
 70
     1
102
RTVSPost2010Prop50
 90
       50
102
RTVSPost2010PropOp50
 70
     1
102
RTVSPost2010Prop51ColorIndex
 90
      256
102
RTVSPost2010Prop51ColorRGB
 90
-16777216
102
RTVSPost2010PropOp51
 70
     0
102
RTVSPost2010Prop52
140
1.0
102
RTVSPost2010PropOp52
 70
     0
102
RTVSPost2010Prop53
 90
        2
102
RTVSPost2010PropOp53
 70
     1
102
RTVSPost2010Prop54
  1
strokes_ogs.tif
102
RTVSPost2010PropOp54
 70
     1
102
RTVSPost2010Prop55
280
     0
102
RTVSPost2010PropOp55
 70
     1
102
RTVSPost2010Prop56
140
1.0
102
RTVSPost2010PropOp56
 70
     1
102
RTVSPost2010Prop57
140
1.0
102
RTVSPost2010PropOp57
 70
     1
102
RTVSPropertyOp0
 70
     1
102
RTVSPropertyOp1
 70
     1
102
RTVSPropertyOp2
 70
     1
102
RTVSPropertyOp3
 70
     1
102
RTVSPropertyOp4
 70
     1
102
RTVSPropertyOp5
 70
     1
102
RTVSPropertyOp6
 70
     1
102
RTVSPropertyOp7
 70
     1
102
RTVSPropertyOp8
 70
     1
102
RTVSPropertyOp9
 70
     1
102
RTVSPropertyOp10
 70
     1
102
RTVSPropertyOp11
 70
     1
102
RTVSPropertyOp12
 70
     1
102
RTVSPropertyOp13
 70
     1
102
RTVSPropertyOp14
 70
     1
102
RTVSPropertyOp15
 70
     1
102
RTVSPropertyOp16
 70
     1
102
RTVSPropertyOp17
 70
     1
102
RTVSPropertyOp18
 70
     1
102
RTVSPropertyOp19
 70
     1
102
RTVSPropertyOp20
 70
     1
102
RTVSPropertyOp21
 70
     1
102
RTVSPropertyOp22
 70
     1
102
RTVSPropertyOp23
 70
     1
102
RTVSPropertyOp24
 70
     1
102
RTVSPropertyOp25
 70
     1
102
RTVSPropertyOp26
 70
     1
102
RTVSPropertyOp27
 70
     1
102
RTVSPropertyOp28
 70
     1
102
RTVSPropertyOp29
 70
     1
102
RTVSPropertyOp30
 70
     1
102
RTVSPropertyOp31
 70
     1
102
RTVSPropertyOp32
 70
     1
102
RTVSPropertyOp33
 70
     1
102
RTVSPropertyOp34
 70
     1
102
RTVSPropertyOp35
 70
     1
102
RTVSPropertyOp36
 70
     1
102
RTVSPropertyOp37
 70
     1
102
RTVSPropertyOp38
 70
     1
102
RTVSPropertyOp39
 70
     1
102
RTVSPropertyOp40
 70
     1
102
RTVSPropertyOp41
 70
     1
102
RTVSPropertyOp42
 70
     1
102
RTVSPropertyOp43
 70
     1
102
RTVSPropertyOp44
 70
     1
102
RTVSPropertyOp45
 70
     1
102
RTVSPropertyOp46
 70
     1
102
RTVSPropertyOp47
 70
     1
102
RTVSPropertyOp48
 70
     1
102
RTVSPropertyOp49
 70
     1
102
RTVSPropertyOp50
 70
     1
102
RTVSPropertyOp51
 70
     0
102
RTVSPropertyOp52
 70
     0
102
RTVSPropertyOp53
 70
     1
102
RTVSPropertyOp54
 70
     1
102
RTVSPropertyOp55
 70
     1
102
RTVSPropertyOp56
 70
     1
102
RTVSPropertyOp57
 70
     1
102
RTVSPropertyOp58
 70
     1
102
RTVSPropertyOp59
 70
     1
102
RTVSPropertyOp60
 70
     1
102
RTVSPropertyOp61
 70
     1
102
RTVSPropertyOp62
 70
     1
  0
XRECORD
  5
3C7
102
{ACAD_REACTORS
330
3C6
102
}
330
3C6
100
AcDbXrecord
280
     1
102
RTVSPost2010Prop28
280
     0
102
RTVSPost2010PropOp28
 70
     1
102
RTVSPost2010Prop29
280
     1
102
RTVSPost2010PropOp29
 70
     1
102
RTVSPost2010Prop30
280
     1
102
RTVSPost2010PropOp30
 70
     1
102
RTVSPost2010Prop31
280
     0
102
RTVSPost2010PropOp31
 70
     1
102
RTVSPost2010Prop32
280
     0
102
RTVSPost2010PropOp32
 70
     1
102
RTVSPost2010Prop33
280
     0
102
RTVSPost2010PropOp33
 70
     1
102
RTVSPost2010Prop34
280
     0
102
RTVSPost2010PropOp34
 70
     1
102
RTVSPost2010Prop35
280
     0
102
RTVSPost2010PropOp35
 70
     1
102
RTVSPost2010Prop36
280
     0
102
RTVSPost2010PropOp36
 70
     1
102
RTVSPost2010Prop37
 90
       50
102
RTVSPost2010PropOp37
 70
     1
102
RTVSPost2010Prop38
140
0.0
102
RTVSPost2010PropOp38
 70
     1
102
RTVSPost2010Prop39
140
1.0
102
RTVSPost2010PropOp39
 70
     1
102
RTVSPost2010Prop40
 90
        0
102
RTVSPost2010PropOp40
 70
     1
102
RTVSPost2010Prop41ColorIndex
 90
       18
102
RTVSPost2010Prop41ColorRGB
 90
        0
102
RTVSPost2010PropOp41
 70
     1
102
RTVSPost2010Prop42
 90
       50
102
RTVSPost2010PropOp42
 70
     1
102
RTVSPost2010Prop43
 90
        3
102
RTVSPost2010PropOp43
 70
     1
102
RTVSPost2010Prop44ColorIndex
 90
        5
102
RTVSPost2010Prop44ColorRGB
 90
      255
102
RTVSPost2010PropOp44
 70
     1
102
RTVSPost2010Prop45
280
     0
102
RTVSPost2010PropOp45
 70
     1
102
RTVSPost2010Prop46
 90
       50
102
RTVSPost2010PropOp46
 70
     1
102
RTVSPost2010Prop47
 90
       50
102
RTVSPost2010PropOp47
 70
     1
102
RTVSPost2010Prop48
 90
       50
102
RTVSPost2010PropOp48
 70
     1
102
RTVSPost2010Prop49
280
     0
102
RTVSPost2010PropOp49
 70
     1
102
RTVSPost2010Prop50
 90
       50
102
RTVSPost2010PropOp50
 70
     1
102
RTVSPost2010Prop51ColorIndex
 90
      256
102
RTVSPost2010Prop51ColorRGB
 90
-16777216
102
RTVSPost2010PropOp51
 70
     0
102
RTVSPost2010Prop52
140
1.0
102
RTVSPost2010PropOp52
 70
     0
102
RTVSPost2010Prop53
 90
        2
102
RTVSPost2010PropOp53
 70
     1
102
RTVSPost2010Prop54
  1
strokes_ogs.tif
102
RTVSPost2010PropOp54
 70
     1
102
RTVSPost2010Prop55
280
     0
102
RTVSPost2010PropOp55
 70
     1
102
RTVSPost2010Prop56
140
1.0
102
RTVSPost2010PropOp56
 70
     1
102
RTVSPost2010Prop57
140
1.0
102
RTVSPost2010PropOp57
 70
     1
102
RTVSPropertyOp0
 70
     1
102
RTVSPropertyOp1
 70
     1
102
RTVSPropertyOp2
 70
     1
102
RTVSPropertyOp3
 70
     1
102
RTVSPropertyOp4
 70
     1
102
RTVSPropertyOp5
 70
     1
102
RTVSPropertyOp6
 70
     1
102
RTVSPropertyOp7
 70
     1
102
RTVSPropertyOp8
 70
     1
102
RTVSPropertyOp9
 70
     1
102
RTVSPropertyOp10
 70
     1
102
RTVSPropertyOp11
 70
     1
102
RTVSPropertyOp12
 70
     1
102
RTVSPropertyOp13
 70
     1
102
RTVSPropertyOp14
 70
     1
102
RTVSPropertyOp15
 70
     1
102
RTVSPropertyOp16
 70
     1
102
RTVSPropertyOp17
 70
     1
102
RTVSPropertyOp18
 70
     1
102
RTVSPropertyOp19
 70
     1
102
RTVSPropertyOp20
 70
     1
102
RTVSPropertyOp21
 70
     1
102
RTVSPropertyOp22
 70
     1
102
RTVSPropertyOp23
 70
     1
102
RTVSPropertyOp24
 70
     1
102
RTVSPropertyOp25
 70
     1
102
RTVSPropertyOp26
 70
     1
102
RTVSPropertyOp27
 70
     1
102
RTVSPropertyOp28
 70
     1
102
RTVSPropertyOp29
 70
     1
102
RTVSPropertyOp30
 70
     1
102
RTVSPropertyOp31
 70
     1
102
RTVSPropertyOp32
 70
     1
102
RTVSPropertyOp33
 70
     1
102
RTVSPropertyOp34
 70
     1
102
RTVSPropertyOp35
 70
     1
102
RTVSPropertyOp36
 70
     1
102
RTVSPropertyOp37
 70
     1
102
RTVSPropertyOp38
 70
     1
102
RTVSPropertyOp39
 70
     1
102
RTVSPropertyOp40
 70
     1
102
RTVSPropertyOp41
 70
     1
102
RTVSPropertyOp42
 70
     1
102
RTVSPropertyOp43
 70
     1
102
RTVSPropertyOp44
 70
     1
102
RTVSPropertyOp45
 70
     1
102
RTVSPropertyOp46
 70
     1
102
RTVSPropertyOp47
 70
     1
102
RTVSPropertyOp48
 70
     1
102
RTVSPropertyOp49
 70
     1
102
RTVSPropertyOp50
 70
     1
102
RTVSPropertyOp51
 70
     0
102
RTVSPropertyOp52
 70
     0
102
RTVSPropertyOp53
 70
     1
102
RTVSPropertyOp54
 70
     1
102
RTVSPropertyOp55
 70
     1
102
RTVSPropertyOp56
 70
     1
102
RTVSPropertyOp57
 70
     1
102
RTVSPropertyOp58
 70
     1
102
RTVSPropertyOp59
 70
     1
102
RTVSPropertyOp60
 70
     1
102
RTVSPropertyOp61
 70
     1
102
RTVSPropertyOp62
 70
     1
  0
XRECORD
  5
3CF
102
{ACAD_REACTORS
330
3CE
102
}
330
3CE
100
AcDbXrecord
280
     1
102
RTVSPost2010Prop28
280
     0
102
RTVSPost2010PropOp28
 70
     1
102
RTVSPost2010Prop29
280
     1
102
RTVSPost2010PropOp29
 70
     1
102
RTVSPost2010Prop30
280
     1
102
RTVSPost2010PropOp30
 70
     1
102
RTVSPost2010Prop31
280
     0
102
RTVSPost2010PropOp31
 70
     1
102
RTVSPost2010Prop32
280
     0
102
RTVSPost2010PropOp32
 70
     1
102
RTVSPost2010Prop33
280
     0
102
RTVSPost2010PropOp33
 70
     1
102
RTVSPost2010Prop34
280
     0
102
RTVSPost2010PropOp34
 70
     1
102
RTVSPost2010Prop35
280
     0
102
RTVSPost2010PropOp35
 70
     1
102
RTVSPost2010Prop36
280
     0
102
RTVSPost2010PropOp36
 70
     1
102
RTVSPost2010Prop37
 90
       50
102
RTVSPost2010PropOp37
 70
     1
102
RTVSPost2010Prop38
140
0.0
102
RTVSPost2010PropOp38
 70
     1
102
RTVSPost2010Prop39
140
1.0
102
RTVSPost2010PropOp39
 70
     1
102
RTVSPost2010Prop40
 90
        0
102
RTVSPost2010PropOp40
 70
     1
102
RTVSPost2010Prop41ColorIndex
 90
       18
102
RTVSPost2010Prop41ColorRGB
 90
        0
102
RTVSPost2010PropOp41
 70
     1
102
RTVSPost2010Prop42
 90
       50
102
RTVSPost2010PropOp42
 70
     1
102
RTVSPost2010Prop43
 90
        3
102
RTVSPost2010PropOp43
 70
     1
102
RTVSPost2010Prop44ColorIndex
 90
        5
102
RTVSPost2010Prop44ColorRGB
 90
      255
102
RTVSPost2010PropOp44
 70
     1
102
RTVSPost2010Prop45
280
     0
102
RTVSPost2010PropOp45
 70
     1
102
RTVSPost2010Prop46
 90
       50
102
RTVSPost2010PropOp46
 70
     1
102
RTVSPost2010Prop47
 90
       50
102
RTVSPost2010PropOp47
 70
     1
102
RTVSPost2010Prop48
 90
       50
102
RTVSPost2010PropOp48
 70
     1
102
RTVSPost2010Prop49
280
     0
102
RTVSPost2010PropOp49
 70
     1
102
RTVSPost2010Prop50
 90
       50
102
RTVSPost2010PropOp50
 70
     1
102
RTVSPost2010Prop51ColorIndex
 90
      256
102
RTVSPost2010Prop51ColorRGB
 90
-16777216
102
RTVSPost2010PropOp51
 70
     0
102
RTVSPost2010Prop52
140
1.0
102
RTVSPost2010PropOp52
 70
     0
102
RTVSPost2010Prop53
 90
        2
102
RTVSPost2010PropOp53
 70
     1
102
RTVSPost2010Prop54
  1
strokes_ogs.tif
102
RTVSPost2010PropOp54
 70
     1
102
RTVSPost2010Prop55
280
     0
102
RTVSPost2010PropOp55
 70
     1
102
RTVSPost2010Prop56
140
1.0
102
RTVSPost2010PropOp56
 70
     1
102
RTVSPost2010Prop57
140
1.0
102
RTVSPost2010PropOp57
 70
     1
102
RTVSPropertyOp0
 70
     1
102
RTVSPropertyOp1
 70
     1
102
RTVSPropertyOp2
 70
     1
102
RTVSPropertyOp3
 70
     1
102
RTVSPropertyOp4
 70
     1
102
RTVSPropertyOp5
 70
     1
102
RTVSPropertyOp6
 70
     1
102
RTVSPropertyOp7
 70
     1
102
RTVSPropertyOp8
 70
     1
102
RTVSPropertyOp9
 70
     1
102
RTVSPropertyOp10
 70
     1
102
RTVSPropertyOp11
 70
     1
102
RTVSPropertyOp12
 70
     1
102
RTVSPropertyOp13
 70
     1
102
RTVSPropertyOp14
 70
     1
102
RTVSPropertyOp15
 70
     1
102
RTVSPropertyOp16
 70
     1
102
RTVSPropertyOp17
 70
     1
102
RTVSPropertyOp18
 70
     1
102
RTVSPropertyOp19
 70
     1
102
RTVSPropertyOp20
 70
     1
102
RTVSPropertyOp21
 70
     1
102
RTVSPropertyOp22
 70
     1
102
RTVSPropertyOp23
 70
     1
102
RTVSPropertyOp24
 70
     1
102
RTVSPropertyOp25
 70
     1
102
RTVSPropertyOp26
 70
     1
102
RTVSPropertyOp27
 70
     1
102
RTVSPropertyOp28
 70
     1
102
RTVSPropertyOp29
 70
     1
102
RTVSPropertyOp30
 70
     1
102
RTVSPropertyOp31
 70
     1
102
RTVSPropertyOp32
 70
     1
102
RTVSPropertyOp33
 70
     1
102
RTVSPropertyOp34
 70
     1
102
RTVSPropertyOp35
 70
     1
102
RTVSPropertyOp36
 70
     1
102
RTVSPropertyOp37
 70
     1
102
RTVSPropertyOp38
 70
     1
102
RTVSPropertyOp39
 70
     1
102
RTVSPropertyOp40
 70
     1
102
RTVSPropertyOp41
 70
     1
102
RTVSPropertyOp42
 70
     1
102
RTVSPropertyOp43
 70
     1
102
RTVSPropertyOp44
 70
     1
102
RTVSPropertyOp45
 70
     1
102
RTVSPropertyOp46
 70
     1
102
RTVSPropertyOp47
 70
     1
102
RTVSPropertyOp48
 70
     1
102
RTVSPropertyOp49
 70
     1
102
RTVSPropertyOp50
 70
     1
102
RTVSPropertyOp51
 70
     0
102
RTVSPropertyOp52
 70
     0
102
RTVSPropertyOp53
 70
     1
102
RTVSPropertyOp54
 70
     1
102
RTVSPropertyOp55
 70
     1
102
RTVSPropertyOp56
 70
     1
102
RTVSPropertyOp57
 70
     1
102
RTVSPropertyOp58
 70
     1
102
RTVSPropertyOp59
 70
     1
102
RTVSPropertyOp60
 70
     1
102
RTVSPropertyOp61
 70
     1
102
RTVSPropertyOp62
 70
     1
  0
XRECORD
  5
3D7
102
{ACAD_REACTORS
330
3D6
102
}
330
3D6
100
AcDbXrecord
280
     1
102
RTVSPost2010Prop28
280
     0
102
RTVSPost2010PropOp28
 70
     1
102
RTVSPost2010Prop29
280
     1
102
RTVSPost2010PropOp29
 70
     1
102
RTVSPost2010Prop30
280
     1
102
RTVSPost2010PropOp30
 70
     1
102
RTVSPost2010Prop31
280
     0
102
RTVSPost2010PropOp31
 70
     1
102
RTVSPost2010Prop32
280
     0
102
RTVSPost2010PropOp32
 70
     1
102
RTVSPost2010Prop33
280
     0
102
RTVSPost2010PropOp33
 70
     1
102
RTVSPost2010Prop34
280
     0
102
RTVSPost2010PropOp34
 70
     1
102
RTVSPost2010Prop35
280
     0
102
RTVSPost2010PropOp35
 70
     1
102
RTVSPost2010Prop36
280
     0
102
RTVSPost2010PropOp36
 70
     1
102
RTVSPost2010Prop37
 90
       50
102
RTVSPost2010PropOp37
 70
     1
102
RTVSPost2010Prop38
140
0.0
102
RTVSPost2010PropOp38
 70
     1
102
RTVSPost2010Prop39
140
1.0
102
RTVSPost2010PropOp39
 70
     1
102
RTVSPost2010Prop40
 90
        0
102
RTVSPost2010PropOp40
 70
     1
102
RTVSPost2010Prop41ColorIndex
 90
       18
102
RTVSPost2010Prop41ColorRGB
 90
        0
102
RTVSPost2010PropOp41
 70
     1
102
RTVSPost2010Prop42
 90
       50
102
RTVSPost2010PropOp42
 70
     1
102
RTVSPost2010Prop43
 90
        3
102
RTVSPost2010PropOp43
 70
     1
102
RTVSPost2010Prop44ColorIndex
 90
        5
102
RTVSPost2010Prop44ColorRGB
 90
      255
102
RTVSPost2010PropOp44
 70
     1
102
RTVSPost2010Prop45
280
     0
102
RTVSPost2010PropOp45
 70
     1
102
RTVSPost2010Prop46
 90
       50
102
RTVSPost2010PropOp46
 70
     1
102
RTVSPost2010Prop47
 90
       50
102
RTVSPost2010PropOp47
 70
     1
102
RTVSPost2010Prop48
 90
       50
102
RTVSPost2010PropOp48
 70
     1
102
RTVSPost2010Prop49
280
     0
102
RTVSPost2010PropOp49
 70
     1
102
RTVSPost2010Prop50
 90
       50
102
RTVSPost2010PropOp50
 70
     1
102
RTVSPost2010Prop51ColorIndex
 90
      256
102
RTVSPost2010Prop51ColorRGB
 90
-16777216
102
RTVSPost2010PropOp51
 70
     0
102
RTVSPost2010Prop52
140
1.0
102
RTVSPost2010PropOp52
 70
     0
102
RTVSPost2010Prop53
 90
        2
102
RTVSPost2010PropOp53
 70
     1
102
RTVSPost2010Prop54
  1
strokes_ogs.tif
102
RTVSPost2010PropOp54
 70
     1
102
RTVSPost2010Prop55
280
     0
102
RTVSPost2010PropOp55
 70
     1
102
RTVSPost2010Prop56
140
1.0
102
RTVSPost2010PropOp56
 70
     1
102
RTVSPost2010Prop57
140
1.0
102
RTVSPost2010PropOp57
 70
     1
102
RTVSPropertyOp0
 70
     1
102
RTVSPropertyOp1
 70
     1
102
RTVSPropertyOp2
 70
     1
102
RTVSPropertyOp3
 70
     1
102
RTVSPropertyOp4
 70
     1
102
RTVSPropertyOp5
 70
     1
102
RTVSPropertyOp6
 70
     1
102
RTVSPropertyOp7
 70
     1
102
RTVSPropertyOp8
 70
     1
102
RTVSPropertyOp9
 70
     1
102
RTVSPropertyOp10
 70
     1
102
RTVSPropertyOp11
 70
     1
102
RTVSPropertyOp12
 70
     1
102
RTVSPropertyOp13
 70
     1
102
RTVSPropertyOp14
 70
     1
102
RTVSPropertyOp15
 70
     1
102
RTVSPropertyOp16
 70
     1
102
RTVSPropertyOp17
 70
     1
102
RTVSPropertyOp18
 70
     1
102
RTVSPropertyOp19
 70
     1
102
RTVSPropertyOp20
 70
     1
102
RTVSPropertyOp21
 70
     1
102
RTVSPropertyOp22
 70
     1
102
RTVSPropertyOp23
 70
     1
102
RTVSPropertyOp24
 70
     1
102
RTVSPropertyOp25
 70
     1
102
RTVSPropertyOp26
 70
     1
102
RTVSPropertyOp27
 70
     1
102
RTVSPropertyOp28
 70
     1
102
RTVSPropertyOp29
 70
     1
102
RTVSPropertyOp30
 70
     1
102
RTVSPropertyOp31
 70
     1
102
RTVSPropertyOp32
 70
     1
102
RTVSPropertyOp33
 70
     1
102
RTVSPropertyOp34
 70
     1
102
RTVSPropertyOp35
 70
     1
102
RTVSPropertyOp36
 70
     1
102
RTVSPropertyOp37
 70
     1
102
RTVSPropertyOp38
 70
     1
102
RTVSPropertyOp39
 70
     1
102
RTVSPropertyOp40
 70
     1
102
RTVSPropertyOp41
 70
     1
102
RTVSPropertyOp42
 70
     1
102
RTVSPropertyOp43
 70
     1
102
RTVSPropertyOp44
 70
     1
102
RTVSPropertyOp45
 70
     1
102
RTVSPropertyOp46
 70
     1
102
RTVSPropertyOp47
 70
     1
102
RTVSPropertyOp48
 70
     1
102
RTVSPropertyOp49
 70
     1
102
RTVSPropertyOp50
 70
     1
102
RTVSPropertyOp51
 70
     0
102
RTVSPropertyOp52
 70
     0
102
RTVSPropertyOp53
 70
     1
102
RTVSPropertyOp54
 70
     1
102
RTVSPropertyOp55
 70
     1
102
RTVSPropertyOp56
 70
     1
102
RTVSPropertyOp57
 70
     1
102
RTVSPropertyOp58
 70
     1
102
RTVSPropertyOp59
 70
     1
102
RTVSPropertyOp60
 70
     1
102
RTVSPropertyOp61
 70
     1
102
RTVSPropertyOp62
 70
     1
  0
XRECORD
  5
3CB
102
{ACAD_REACTORS
330
3CA
102
}
330
3CA
100
AcDbXrecord
280
     1
102
RTVSPost2010Prop28
280
     0
102
RTVSPost2010PropOp28
 70
     1
102
RTVSPost2010Prop29
280
     1
102
RTVSPost2010PropOp29
 70
     1
102
RTVSPost2010Prop30
280
     1
102
RTVSPost2010PropOp30
 70
     1
102
RTVSPost2010Prop31
280
     0
102
RTVSPost2010PropOp31
 70
     1
102
RTVSPost2010Prop32
280
     0
102
RTVSPost2010PropOp32
 70
     1
102
RTVSPost2010Prop33
280
     0
102
RTVSPost2010PropOp33
 70
     1
102
RTVSPost2010Prop34
280
     0
102
RTVSPost2010PropOp34
 70
     1
102
RTVSPost2010Prop35
280
     0
102
RTVSPost2010PropOp35
 70
     1
102
RTVSPost2010Prop36
280
     0
102
RTVSPost2010PropOp36
 70
     1
102
RTVSPost2010Prop37
 90
       50
102
RTVSPost2010PropOp37
 70
     1
102
RTVSPost2010Prop38
140
0.0
102
RTVSPost2010PropOp38
 70
     1
102
RTVSPost2010Prop39
140
1.0
102
RTVSPost2010PropOp39
 70
     1
102
RTVSPost2010Prop40
 90
        0
102
RTVSPost2010PropOp40
 70
     1
102
RTVSPost2010Prop41ColorIndex
 90
       18
102
RTVSPost2010Prop41ColorRGB
 90
        0
102
RTVSPost2010PropOp41
 70
     1
102
RTVSPost2010Prop42
 90
       50
102
RTVSPost2010PropOp42
 70
     1
102
RTVSPost2010Prop43
 90
        3
102
RTVSPost2010PropOp43
 70
     1
102
RTVSPost2010Prop44ColorIndex
 90
        5
102
RTVSPost2010Prop44ColorRGB
 90
      255
102
RTVSPost2010PropOp44
 70
     1
102
RTVSPost2010Prop45
280
     0
102
RTVSPost2010PropOp45
 70
     1
102
RTVSPost2010Prop46
 90
       50
102
RTVSPost2010PropOp46
 70
     1
102
RTVSPost2010Prop47
 90
       50
102
RTVSPost2010PropOp47
 70
     1
102
RTVSPost2010Prop48
 90
       50
102
RTVSPost2010PropOp48
 70
     1
102
RTVSPost2010Prop49
280
     0
102
RTVSPost2010PropOp49
 70
     1
102
RTVSPost2010Prop50
 90
       50
102
RTVSPost2010PropOp50
 70
     1
102
RTVSPost2010Prop51ColorIndex
 90
      256
102
RTVSPost2010Prop51ColorRGB
 90
-16777216
102
RTVSPost2010PropOp51
 70
     0
102
RTVSPost2010Prop52
140
1.0
102
RTVSPost2010PropOp52
 70
     0
102
RTVSPost2010Prop53
 90
        2
102
RTVSPost2010PropOp53
 70
     1
102
RTVSPost2010Prop54
  1
strokes_ogs.tif
102
RTVSPost2010PropOp54
 70
     1
102
RTVSPost2010Prop55
280
     0
102
RTVSPost2010PropOp55
 70
     1
102
RTVSPost2010Prop56
140
1.0
102
RTVSPost2010PropOp56
 70
     1
102
RTVSPost2010Prop57
140
1.0
102
RTVSPost2010PropOp57
 70
     1
102
RTVSPropertyOp0
 70
     1
102
RTVSPropertyOp1
 70
     1
102
RTVSPropertyOp2
 70
     1
102
RTVSPropertyOp3
 70
     1
102
RTVSPropertyOp4
 70
     1
102
RTVSPropertyOp5
 70
     1
102
RTVSPropertyOp6
 70
     1
102
RTVSPropertyOp7
 70
     1
102
RTVSPropertyOp8
 70
     1
102
RTVSPropertyOp9
 70
     1
102
RTVSPropertyOp10
 70
     1
102
RTVSPropertyOp11
 70
     1
102
RTVSPropertyOp12
 70
     1
102
RTVSPropertyOp13
 70
     1
102
RTVSPropertyOp14
 70
     1
102
RTVSPropertyOp15
 70
     1
102
RTVSPropertyOp16
 70
     1
102
RTVSPropertyOp17
 70
     1
102
RTVSPropertyOp18
 70
     1
102
RTVSPropertyOp19
 70
     1
102
RTVSPropertyOp20
 70
     1
102
RTVSPropertyOp21
 70
     1
102
RTVSPropertyOp22
 70
     1
102
RTVSPropertyOp23
 70
     1
102
RTVSPropertyOp24
 70
     1
102
RTVSPropertyOp25
 70
     1
102
RTVSPropertyOp26
 70
     1
102
RTVSPropertyOp27
 70
     1
102
RTVSPropertyOp28
 70
     1
102
RTVSPropertyOp29
 70
     1
102
RTVSPropertyOp30
 70
     1
102
RTVSPropertyOp31
 70
     1
102
RTVSPropertyOp32
 70
     1
102
RTVSPropertyOp33
 70
     1
102
RTVSPropertyOp34
 70
     1
102
RTVSPropertyOp35
 70
     1
102
RTVSPropertyOp36
 70
     1
102
RTVSPropertyOp37
 70
     1
102
RTVSPropertyOp38
 70
     1
102
RTVSPropertyOp39
 70
     1
102
RTVSPropertyOp40
 70
     1
102
RTVSPropertyOp41
 70
     1
102
RTVSPropertyOp42
 70
     1
102
RTVSPropertyOp43
 70
     1
102
RTVSPropertyOp44
 70
     1
102
RTVSPropertyOp45
 70
     1
102
RTVSPropertyOp46
 70
     1
102
RTVSPropertyOp47
 70
     1
102
RTVSPropertyOp48
 70
     1
102
RTVSPropertyOp49
 70
     1
102
RTVSPropertyOp50
 70
     1
102
RTVSPropertyOp51
 70
     0
102
RTVSPropertyOp52
 70
     0
102
RTVSPropertyOp53
 70
     1
102
RTVSPropertyOp54
 70
     1
102
RTVSPropertyOp55
 70
     1
102
RTVSPropertyOp56
 70
     1
102
RTVSPropertyOp57
 70
     1
102
RTVSPropertyOp58
 70
     1
102
RTVSPropertyOp59
 70
     1
102
RTVSPropertyOp60
 70
     1
102
RTVSPropertyOp61
 70
     1
102
RTVSPropertyOp62
 70
     1
  0
XRECORD
  5
3CD
102
{ACAD_REACTORS
330
3CC
102
}
330
3CC
100
AcDbXrecord
280
     1
102
RTVSPost2010Prop28
280
     0
102
RTVSPost2010PropOp28
 70
     1
102
RTVSPost2010Prop29
280
     1
102
RTVSPost2010PropOp29
 70
     1
102
RTVSPost2010Prop30
280
     1
102
RTVSPost2010PropOp30
 70
     1
102
RTVSPost2010Prop31
280
     0
102
RTVSPost2010PropOp31
 70
     1
102
RTVSPost2010Prop32
280
     0
102
RTVSPost2010PropOp32
 70
     1
102
RTVSPost2010Prop33
280
     0
102
RTVSPost2010PropOp33
 70
     1
102
RTVSPost2010Prop34
280
     0
102
RTVSPost2010PropOp34
 70
     1
102
RTVSPost2010Prop35
280
     0
102
RTVSPost2010PropOp35
 70
     1
102
RTVSPost2010Prop36
280
     0
102
RTVSPost2010PropOp36
 70
     1
102
RTVSPost2010Prop37
 90
       50
102
RTVSPost2010PropOp37
 70
     1
102
RTVSPost2010Prop38
140
0.0
102
RTVSPost2010PropOp38
 70
     1
102
RTVSPost2010Prop39
140
1.0
102
RTVSPost2010PropOp39
 70
     1
102
RTVSPost2010Prop40
 90
        0
102
RTVSPost2010PropOp40
 70
     1
102
RTVSPost2010Prop41ColorIndex
 90
       18
102
RTVSPost2010Prop41ColorRGB
 90
        0
102
RTVSPost2010PropOp41
 70
     1
102
RTVSPost2010Prop42
 90
       50
102
RTVSPost2010PropOp42
 70
     1
102
RTVSPost2010Prop43
 90
        3
102
RTVSPost2010PropOp43
 70
     1
102
RTVSPost2010Prop44ColorIndex
 90
        5
102
RTVSPost2010Prop44ColorRGB
 90
      255
102
RTVSPost2010PropOp44
 70
     1
102
RTVSPost2010Prop45
280
     0
102
RTVSPost2010PropOp45
 70
     1
102
RTVSPost2010Prop46
 90
       50
102
RTVSPost2010PropOp46
 70
     1
102
RTVSPost2010Prop47
 90
       50
102
RTVSPost2010PropOp47
 70
     1
102
RTVSPost2010Prop48
 90
       50
102
RTVSPost2010PropOp48
 70
     1
102
RTVSPost2010Prop49
280
     0
102
RTVSPost2010PropOp49
 70
     1
102
RTVSPost2010Prop50
 90
       50
102
RTVSPost2010PropOp50
 70
     1
102
RTVSPost2010Prop51ColorIndex
 90
      256
102
RTVSPost2010Prop51ColorRGB
 90
-16777216
102
RTVSPost2010PropOp51
 70
     0
102
RTVSPost2010Prop52
140
1.0
102
RTVSPost2010PropOp52
 70
     0
102
RTVSPost2010Prop53
 90
        2
102
RTVSPost2010PropOp53
 70
     1
102
RTVSPost2010Prop54
  1
strokes_ogs.tif
102
RTVSPost2010PropOp54
 70
     1
102
RTVSPost2010Prop55
280
     0
102
RTVSPost2010PropOp55
 70
     1
102
RTVSPost2010Prop56
140
1.0
102
RTVSPost2010PropOp56
 70
     1
102
RTVSPost2010Prop57
140
1.0
102
RTVSPost2010PropOp57
 70
     1
102
RTVSPropertyOp0
 70
     1
102
RTVSPropertyOp1
 70
     1
102
RTVSPropertyOp2
 70
     1
102
RTVSPropertyOp3
 70
     1
102
RTVSPropertyOp4
 70
     1
102
RTVSPropertyOp5
 70
     1
102
RTVSPropertyOp6
 70
     1
102
RTVSPropertyOp7
 70
     1
102
RTVSPropertyOp8
 70
     1
102
RTVSPropertyOp9
 70
     1
102
RTVSPropertyOp10
 70
     1
102
RTVSPropertyOp11
 70
     1
102
RTVSPropertyOp12
 70
     1
102
RTVSPropertyOp13
 70
     1
102
RTVSPropertyOp14
 70
     1
102
RTVSPropertyOp15
 70
     1
102
RTVSPropertyOp16
 70
     1
102
RTVSPropertyOp17
 70
     1
102
RTVSPropertyOp18
 70
     1
102
RTVSPropertyOp19
 70
     1
102
RTVSPropertyOp20
 70
     1
102
RTVSPropertyOp21
 70
     1
102
RTVSPropertyOp22
 70
     1
102
RTVSPropertyOp23
 70
     1
102
RTVSPropertyOp24
 70
     1
102
RTVSPropertyOp25
 70
     1
102
RTVSPropertyOp26
 70
     1
102
RTVSPropertyOp27
 70
     1
102
RTVSPropertyOp28
 70
     1
102
RTVSPropertyOp29
 70
     1
102
RTVSPropertyOp30
 70
     1
102
RTVSPropertyOp31
 70
     1
102
RTVSPropertyOp32
 70
     1
102
RTVSPropertyOp33
 70
     1
102
RTVSPropertyOp34
 70
     1
102
RTVSPropertyOp35
 70
     1
102
RTVSPropertyOp36
 70
     1
102
RTVSPropertyOp37
 70
     1
102
RTVSPropertyOp38
 70
     1
102
RTVSPropertyOp39
 70
     1
102
RTVSPropertyOp40
 70
     1
102
RTVSPropertyOp41
 70
     1
102
RTVSPropertyOp42
 70
     1
102
RTVSPropertyOp43
 70
     1
102
RTVSPropertyOp44
 70
     1
102
RTVSPropertyOp45
 70
     1
102
RTVSPropertyOp46
 70
     1
102
RTVSPropertyOp47
 70
     1
102
RTVSPropertyOp48
 70
     1
102
RTVSPropertyOp49
 70
     1
102
RTVSPropertyOp50
 70
     1
102
RTVSPropertyOp51
 70
     0
102
RTVSPropertyOp52
 70
     0
102
RTVSPropertyOp53
 70
     1
102
RTVSPropertyOp54
 70
     1
102
RTVSPropertyOp55
 70
     1
102
RTVSPropertyOp56
 70
     1
102
RTVSPropertyOp57
 70
     1
102
RTVSPropertyOp58
 70
     1
102
RTVSPropertyOp59
 70
     1
102
RTVSPropertyOp60
 70
     1
102
RTVSPropertyOp61
 70
     1
102
RTVSPropertyOp62
 70
     1
  0
XRECORD
  5
3DD
102
{ACAD_REACTORS
330
3DC
102
}
330
3DC
100
AcDbXrecord
280
     1
102
RTVSPost2010Prop28
280
     0
102
RTVSPost2010PropOp28
 70
     0
102
RTVSPost2010Prop29
280
     1
102
RTVSPost2010PropOp29
 70
     0
102
RTVSPost2010Prop30
280
     1
102
RTVSPost2010PropOp30
 70
     0
102
RTVSPost2010Prop31
280
     0
102
RTVSPost2010PropOp31
 70
     0
102
RTVSPost2010Prop32
280
     0
102
RTVSPost2010PropOp32
 70
     0
102
RTVSPost2010Prop33
280
     0
102
RTVSPost2010PropOp33
 70
     0
102
RTVSPost2010Prop34
280
     0
102
RTVSPost2010PropOp34
 70
     0
102
RTVSPost2010Prop35
280
     0
102
RTVSPost2010PropOp35
 70
     0
102
RTVSPost2010Prop36
280
     0
102
RTVSPost2010PropOp36
 70
     0
102
RTVSPost2010Prop37
 90
       50
102
RTVSPost2010PropOp37
 70
     0
102
RTVSPost2010Prop38
140
0.0
102
RTVSPost2010PropOp38
 70
     0
102
RTVSPost2010Prop39
140
1.0
102
RTVSPost2010PropOp39
 70
     0
102
RTVSPost2010Prop40
 90
        0
102
RTVSPost2010PropOp40
 70
     0
102
RTVSPost2010Prop41ColorIndex
 90
       18
102
RTVSPost2010Prop41ColorRGB
 90
        0
102
RTVSPost2010PropOp41
 70
     0
102
RTVSPost2010Prop42
 90
       50
102
RTVSPost2010PropOp42
 70
     0
102
RTVSPost2010Prop43
 90
        3
102
RTVSPost2010PropOp43
 70
     0
102
RTVSPost2010Prop44ColorIndex
 90
        5
102
RTVSPost2010Prop44ColorRGB
 90
      255
102
RTVSPost2010PropOp44
 70
     0
102
RTVSPost2010Prop45
280
     0
102
RTVSPost2010PropOp45
 70
     0
102
RTVSPost2010Prop46
 90
       50
102
RTVSPost2010PropOp46
 70
     0
102
RTVSPost2010Prop47
 90
       50
102
RTVSPost2010PropOp47
 70
     0
102
RTVSPost2010Prop48
 90
       50
102
RTVSPost2010PropOp48
 70
     0
102
RTVSPost2010Prop49
280
     0
102
RTVSPost2010PropOp49
 70
     0
102
RTVSPost2010Prop50
 90
       50
102
RTVSPost2010PropOp50
 70
     0
102
RTVSPost2010Prop51ColorIndex
 90
      256
102
RTVSPost2010Prop51ColorRGB
 90
-16777216
102
RTVSPost2010PropOp51
 70
     0
102
RTVSPost2010Prop52
140
1.0
102
RTVSPost2010PropOp52
 70
     0
102
RTVSPost2010Prop53
 90
        2
102
RTVSPost2010PropOp53
 70
     0
102
RTVSPost2010Prop54
  1
strokes_ogs.tif
102
RTVSPost2010PropOp54
 70
     0
102
RTVSPost2010Prop55
280
     0
102
RTVSPost2010PropOp55
 70
     0
102
RTVSPost2010Prop56
140
1.0
102
RTVSPost2010PropOp56
 70
     0
102
RTVSPost2010Prop57
140
1.0
102
RTVSPost2010PropOp57
 70
     0
102
RTVSPropertyOp0
 70
     0
102
RTVSPropertyOp1
 70
     0
102
RTVSPropertyOp2
 70
     0
102
RTVSPropertyOp3
 70
     0
102
RTVSPropertyOp4
 70
     0
102
RTVSPropertyOp5
 70
     0
102
RTVSPropertyOp6
 70
     0
102
RTVSPropertyOp7
 70
     0
102
RTVSPropertyOp8
 70
     0
102
RTVSPropertyOp9
 70
     0
102
RTVSPropertyOp10
 70
     0
102
RTVSPropertyOp11
 70
     0
102
RTVSPropertyOp12
 70
     0
102
RTVSPropertyOp13
 70
     0
102
RTVSPropertyOp14
 70
     2
102
RTVSPropertyOp15
 70
     0
102
RTVSPropertyOp16
 70
     0
102
RTVSPropertyOp17
 70
     0
102
RTVSPropertyOp18
 70
     0
102
RTVSPropertyOp19
 70
     0
102
RTVSPropertyOp20
 70
     0
102
RTVSPropertyOp21
 70
     0
102
RTVSPropertyOp22
 70
     0
102
RTVSPropertyOp23
 70
     0
102
RTVSPropertyOp24
 70
     0
102
RTVSPropertyOp25
 70
     0
102
RTVSPropertyOp26
 70
     0
102
RTVSPropertyOp27
 70
     0
102
RTVSPropertyOp28
 70
     0
102
RTVSPropertyOp29
 70
     0
102
RTVSPropertyOp30
 70
     0
102
RTVSPropertyOp31
 70
     0
102
RTVSPropertyOp32
 70
     0
102
RTVSPropertyOp33
 70
     0
102
RTVSPropertyOp34
 70
     0
102
RTVSPropertyOp35
 70
     0
102
RTVSPropertyOp36
 70
     0
102
RTVSPropertyOp37
 70
     0
102
RTVSPropertyOp38
 70
     0
102
RTVSPropertyOp39
 70
     0
102
RTVSPropertyOp40
 70
     0
102
RTVSPropertyOp41
 70
     0
102
RTVSPropertyOp42
 70
     0
102
RTVSPropertyOp43
 70
     0
102
RTVSPropertyOp44
 70
     0
102
RTVSPropertyOp45
 70
     0
102
RTVSPropertyOp46
 70
     0
102
RTVSPropertyOp47
 70
     0
102
RTVSPropertyOp48
 70
     0
102
RTVSPropertyOp49
 70
     0
102
RTVSPropertyOp50
 70
     0
102
RTVSPropertyOp51
 70
     0
102
RTVSPropertyOp52
 70
     0
102
RTVSPropertyOp53
 70
     0
102
RTVSPropertyOp54
 70
     0
102
RTVSPropertyOp55
 70
     0
102
RTVSPropertyOp56
 70
     0
102
RTVSPropertyOp57
 70
     0
102
RTVSPropertyOp58
 70
     1
102
RTVSPropertyOp59
 70
     1
102
RTVSPropertyOp60
 70
     1
102
RTVSPropertyOp61
 70
     1
102
RTVSPropertyOp62
 70
     1
  0
XRECORD
  5
3D5
102
{ACAD_REACTORS
330
3D4
102
}
330
3D4
100
AcDbXrecord
280
     1
102
RTVSPost2010Prop28
280
     0
102
RTVSPost2010PropOp28
 70
     1
102
RTVSPost2010Prop29
280
     1
102
RTVSPost2010PropOp29
 70
     1
102
RTVSPost2010Prop30
280
     1
102
RTVSPost2010PropOp30
 70
     1
102
RTVSPost2010Prop31
280
     0
102
RTVSPost2010PropOp31
 70
     1
102
RTVSPost2010Prop32
280
     0
102
RTVSPost2010PropOp32
 70
     1
102
RTVSPost2010Prop33
280
     0
102
RTVSPost2010PropOp33
 70
     1
102
RTVSPost2010Prop34
280
     0
102
RTVSPost2010PropOp34
 70
     1
102
RTVSPost2010Prop35
280
     0
102
RTVSPost2010PropOp35
 70
     1
102
RTVSPost2010Prop36
280
     0
102
RTVSPost2010PropOp36
 70
     1
102
RTVSPost2010Prop37
 90
       50
102
RTVSPost2010PropOp37
 70
     1
102
RTVSPost2010Prop38
140
0.0
102
RTVSPost2010PropOp38
 70
     1
102
RTVSPost2010Prop39
140
1.0
102
RTVSPost2010PropOp39
 70
     1
102
RTVSPost2010Prop40
 90
        0
102
RTVSPost2010PropOp40
 70
     1
102
RTVSPost2010Prop41ColorIndex
 90
       18
102
RTVSPost2010Prop41ColorRGB
 90
        0
102
RTVSPost2010PropOp41
 70
     1
102
RTVSPost2010Prop42
 90
       50
102
RTVSPost2010PropOp42
 70
     1
102
RTVSPost2010Prop43
 90
        3
102
RTVSPost2010PropOp43
 70
     1
102
RTVSPost2010Prop44ColorIndex
 90
        5
102
RTVSPost2010Prop44ColorRGB
 90
      255
102
RTVSPost2010PropOp44
 70
     1
102
RTVSPost2010Prop45
280
     0
102
RTVSPost2010PropOp45
 70
     1
102
RTVSPost2010Prop46
 90
       50
102
RTVSPost2010PropOp46
 70
     1
102
RTVSPost2010Prop47
 90
       50
102
RTVSPost2010PropOp47
 70
     1
102
RTVSPost2010Prop48
 90
       50
102
RTVSPost2010PropOp48
 70
     1
102
RTVSPost2010Prop49
280
     0
102
RTVSPost2010PropOp49
 70
     1
102
RTVSPost2010Prop50
 90
       50
102
RTVSPost2010PropOp50
 70
     1
102
RTVSPost2010Prop51ColorIndex
 90
      256
102
RTVSPost2010Prop51ColorRGB
 90
-16777216
102
RTVSPost2010PropOp51
 70
     0
102
RTVSPost2010Prop52
140
1.0
102
RTVSPost2010PropOp52
 70
     0
102
RTVSPost2010Prop53
 90
        2
102
RTVSPost2010PropOp53
 70
     1
102
RTVSPost2010Prop54
  1
strokes_ogs.tif
102
RTVSPost2010PropOp54
 70
     1
102
RTVSPost2010Prop55
280
     0
102
RTVSPost2010PropOp55
 70
     1
102
RTVSPost2010Prop56
140
1.0
102
RTVSPost2010PropOp56
 70
     1
102
RTVSPost2010Prop57
140
1.0
102
RTVSPost2010PropOp57
 70
     1
102
RTVSPropertyOp0
 70
     1
102
RTVSPropertyOp1
 70
     1
102
RTVSPropertyOp2
 70
     1
102
RTVSPropertyOp3
 70
     1
102
RTVSPropertyOp4
 70
     1
102
RTVSPropertyOp5
 70
     1
102
RTVSPropertyOp6
 70
     1
102
RTVSPropertyOp7
 70
     1
102
RTVSPropertyOp8
 70
     1
102
RTVSPropertyOp9
 70
     1
102
RTVSPropertyOp10
 70
     1
102
RTVSPropertyOp11
 70
     1
102
RTVSPropertyOp12
 70
     1
102
RTVSPropertyOp13
 70
     1
102
RTVSPropertyOp14
 70
     1
102
RTVSPropertyOp15
 70
     1
102
RTVSPropertyOp16
 70
     1
102
RTVSPropertyOp17
 70
     1
102
RTVSPropertyOp18
 70
     1
102
RTVSPropertyOp19
 70
     1
102
RTVSPropertyOp20
 70
     1
102
RTVSPropertyOp21
 70
     1
102
RTVSPropertyOp22
 70
     1
102
RTVSPropertyOp23
 70
     1
102
RTVSPropertyOp24
 70
     1
102
RTVSPropertyOp25
 70
     1
102
RTVSPropertyOp26
 70
     1
102
RTVSPropertyOp27
 70
     1
102
RTVSPropertyOp28
 70
     1
102
RTVSPropertyOp29
 70
     1
102
RTVSPropertyOp30
 70
     1
102
RTVSPropertyOp31
 70
     1
102
RTVSPropertyOp32
 70
     1
102
RTVSPropertyOp33
 70
     1
102
RTVSPropertyOp34
 70
     1
102
RTVSPropertyOp35
 70
     1
102
RTVSPropertyOp36
 70
     1
102
RTVSPropertyOp37
 70
     1
102
RTVSPropertyOp38
 70
     1
102
RTVSPropertyOp39
 70
     1
102
RTVSPropertyOp40
 70
     1
102
RTVSPropertyOp41
 70
     1
102
RTVSPropertyOp42
 70
     1
102
RTVSPropertyOp43
 70
     1
102
RTVSPropertyOp44
 70
     1
102
RTVSPropertyOp45
 70
     1
102
RTVSPropertyOp46
 70
     1
102
RTVSPropertyOp47
 70
     1
102
RTVSPropertyOp48
 70
     1
102
RTVSPropertyOp49
 70
     1
102
RTVSPropertyOp50
 70
     1
102
RTVSPropertyOp51
 70
     0
102
RTVSPropertyOp52
 70
     0
102
RTVSPropertyOp53
 70
     1
102
RTVSPropertyOp54
 70
     1
102
RTVSPropertyOp55
 70
     1
102
RTVSPropertyOp56
 70
     1
102
RTVSPropertyOp57
 70
     1
102
RTVSPropertyOp58
 70
     1
102
RTVSPropertyOp59
 70
     1
102
RTVSPropertyOp60
 70
     1
102
RTVSPropertyOp61
 70
     1
102
RTVSPropertyOp62
 70
     1
  0
XRECORD
  5
3B9
102
{ACAD_REACTORS
330
3B8
102
}
330
3B8
100
AcDbXrecord
280
     1
102
RTVSPost2010Prop28
280
     0
102
RTVSPost2010PropOp28
 70
     1
102
RTVSPost2010Prop29
280
     1
102
RTVSPost2010PropOp29
 70
     1
102
RTVSPost2010Prop30
280
     1
102
RTVSPost2010PropOp30
 70
     1
102
RTVSPost2010Prop31
280
     0
102
RTVSPost2010PropOp31
 70
     1
102
RTVSPost2010Prop32
280
     0
102
RTVSPost2010PropOp32
 70
     1
102
RTVSPost2010Prop33
280
     0
102
RTVSPost2010PropOp33
 70
     1
102
RTVSPost2010Prop34
280
     0
102
RTVSPost2010PropOp34
 70
     1
102
RTVSPost2010Prop35
280
     0
102
RTVSPost2010PropOp35
 70
     1
102
RTVSPost2010Prop36
280
     0
102
RTVSPost2010PropOp36
 70
     1
102
RTVSPost2010Prop37
 90
       50
102
RTVSPost2010PropOp37
 70
     1
102
RTVSPost2010Prop38
140
0.0
102
RTVSPost2010PropOp38
 70
     1
102
RTVSPost2010Prop39
140
1.0
102
RTVSPost2010PropOp39
 70
     1
102
RTVSPost2010Prop40
 90
        0
102
RTVSPost2010PropOp40
 70
     1
102
RTVSPost2010Prop41ColorIndex
 90
       18
102
RTVSPost2010Prop41ColorRGB
 90
        0
102
RTVSPost2010PropOp41
 70
     1
102
RTVSPost2010Prop42
 90
       50
102
RTVSPost2010PropOp42
 70
     1
102
RTVSPost2010Prop43
 90
        3
102
RTVSPost2010PropOp43
 70
     1
102
RTVSPost2010Prop44ColorIndex
 90
        5
102
RTVSPost2010Prop44ColorRGB
 90
      255
102
RTVSPost2010PropOp44
 70
     1
102
RTVSPost2010Prop45
280
     0
102
RTVSPost2010PropOp45
 70
     1
102
RTVSPost2010Prop46
 90
       50
102
RTVSPost2010PropOp46
 70
     1
102
RTVSPost2010Prop47
 90
       50
102
RTVSPost2010PropOp47
 70
     1
102
RTVSPost2010Prop48
 90
       50
102
RTVSPost2010PropOp48
 70
     1
102
RTVSPost2010Prop49
280
     0
102
RTVSPost2010PropOp49
 70
     1
102
RTVSPost2010Prop50
 90
       50
102
RTVSPost2010PropOp50
 70
     1
102
RTVSPost2010Prop51ColorIndex
 90
      256
102
RTVSPost2010Prop51ColorRGB
 90
-16777216
102
RTVSPost2010PropOp51
 70
     0
102
RTVSPost2010Prop52
140
1.0
102
RTVSPost2010PropOp52
 70
     0
102
RTVSPost2010Prop53
 90
        2
102
RTVSPost2010PropOp53
 70
     1
102
RTVSPost2010Prop54
  1
strokes_ogs.tif
102
RTVSPost2010PropOp54
 70
     1
102
RTVSPost2010Prop55
280
     0
102
RTVSPost2010PropOp55
 70
     1
102
RTVSPost2010Prop56
140
1.0
102
RTVSPost2010PropOp56
 70
     1
102
RTVSPost2010Prop57
140
1.0
102
RTVSPost2010PropOp57
 70
     1
102
RTVSPropertyOp0
 70
     1
102
RTVSPropertyOp1
 70
     1
102
RTVSPropertyOp2
 70
     1
102
RTVSPropertyOp3
 70
     1
102
RTVSPropertyOp4
 70
     1
102
RTVSPropertyOp5
 70
     1
102
RTVSPropertyOp6
 70
     1
102
RTVSPropertyOp7
 70
     1
102
RTVSPropertyOp8
 70
     1
102
RTVSPropertyOp9
 70
     1
102
RTVSPropertyOp10
 70
     1
102
RTVSPropertyOp11
 70
     1
102
RTVSPropertyOp12
 70
     1
102
RTVSPropertyOp13
 70
     1
102
RTVSPropertyOp14
 70
     1
102
RTVSPropertyOp15
 70
     1
102
RTVSPropertyOp16
 70
     1
102
RTVSPropertyOp17
 70
     1
102
RTVSPropertyOp18
 70
     1
102
RTVSPropertyOp19
 70
     1
102
RTVSPropertyOp20
 70
     1
102
RTVSPropertyOp21
 70
     1
102
RTVSPropertyOp22
 70
     1
102
RTVSPropertyOp23
 70
     1
102
RTVSPropertyOp24
 70
     1
102
RTVSPropertyOp25
 70
     1
102
RTVSPropertyOp26
 70
     1
102
RTVSPropertyOp27
 70
     1
102
RTVSPropertyOp28
 70
     1
102
RTVSPropertyOp29
 70
     1
102
RTVSPropertyOp30
 70
     1
102
RTVSPropertyOp31
 70
     1
102
RTVSPropertyOp32
 70
     1
102
RTVSPropertyOp33
 70
     1
102
RTVSPropertyOp34
 70
     1
102
RTVSPropertyOp35
 70
     1
102
RTVSPropertyOp36
 70
     1
102
RTVSPropertyOp37
 70
     1
102
RTVSPropertyOp38
 70
     1
102
RTVSPropertyOp39
 70
     1
102
RTVSPropertyOp40
 70
     1
102
RTVSPropertyOp41
 70
     1
102
RTVSPropertyOp42
 70
     1
102
RTVSPropertyOp43
 70
     1
102
RTVSPropertyOp44
 70
     1
102
RTVSPropertyOp45
 70
     1
102
RTVSPropertyOp46
 70
     1
102
RTVSPropertyOp47
 70
     1
102
RTVSPropertyOp48
 70
     1
102
RTVSPropertyOp49
 70
     1
102
RTVSPropertyOp50
 70
     1
102
RTVSPropertyOp51
 70
     0
102
RTVSPropertyOp52
 70
     0
102
RTVSPropertyOp53
 70
     1
102
RTVSPropertyOp54
 70
     1
102
RTVSPropertyOp55
 70
     1
102
RTVSPropertyOp56
 70
     1
102
RTVSPropertyOp57
 70
     1
102
RTVSPropertyOp58
 70
     1
102
RTVSPropertyOp59
 70
     1
102
RTVSPropertyOp60
 70
     1
102
RTVSPropertyOp61
 70
     1
102
RTVSPropertyOp62
 70
     1
  0
XRECORD
  5
3BB
102
{ACAD_REACTORS
330
3BA
102
}
330
3BA
100
AcDbXrecord
280
     1
102
RTVSPost2010Prop28
280
     0
102
RTVSPost2010PropOp28
 70
     1
102
RTVSPost2010Prop29
280
     1
102
RTVSPost2010PropOp29
 70
     1
102
RTVSPost2010Prop30
280
     1
102
RTVSPost2010PropOp30
 70
     1
102
RTVSPost2010Prop31
280
     0
102
RTVSPost2010PropOp31
 70
     1
102
RTVSPost2010Prop32
280
     0
102
RTVSPost2010PropOp32
 70
     1
102
RTVSPost2010Prop33
280
     0
102
RTVSPost2010PropOp33
 70
     1
102
RTVSPost2010Prop34
280
     0
102
RTVSPost2010PropOp34
 70
     1
102
RTVSPost2010Prop35
280
     0
102
RTVSPost2010PropOp35
 70
     1
102
RTVSPost2010Prop36
280
     0
102
RTVSPost2010PropOp36
 70
     1
102
RTVSPost2010Prop37
 90
       50
102
RTVSPost2010PropOp37
 70
     1
102
RTVSPost2010Prop38
140
0.0
102
RTVSPost2010PropOp38
 70
     1
102
RTVSPost2010Prop39
140
1.0
102
RTVSPost2010PropOp39
 70
     1
102
RTVSPost2010Prop40
 90
        0
102
RTVSPost2010PropOp40
 70
     1
102
RTVSPost2010Prop41ColorIndex
 90
       18
102
RTVSPost2010Prop41ColorRGB
 90
        0
102
RTVSPost2010PropOp41
 70
     1
102
RTVSPost2010Prop42
 90
       50
102
RTVSPost2010PropOp42
 70
     1
102
RTVSPost2010Prop43
 90
        3
102
RTVSPost2010PropOp43
 70
     1
102
RTVSPost2010Prop44ColorIndex
 90
        5
102
RTVSPost2010Prop44ColorRGB
 90
      255
102
RTVSPost2010PropOp44
 70
     1
102
RTVSPost2010Prop45
280
     0
102
RTVSPost2010PropOp45
 70
     1
102
RTVSPost2010Prop46
 90
       50
102
RTVSPost2010PropOp46
 70
     1
102
RTVSPost2010Prop47
 90
       50
102
RTVSPost2010PropOp47
 70
     1
102
RTVSPost2010Prop48
 90
       50
102
RTVSPost2010PropOp48
 70
     1
102
RTVSPost2010Prop49
280
     0
102
RTVSPost2010PropOp49
 70
     1
102
RTVSPost2010Prop50
 90
       50
102
RTVSPost2010PropOp50
 70
     1
102
RTVSPost2010Prop51ColorIndex
 90
      256
102
RTVSPost2010Prop51ColorRGB
 90
-16777216
102
RTVSPost2010PropOp51
 70
     0
102
RTVSPost2010Prop52
140
1.0
102
RTVSPost2010PropOp52
 70
     0
102
RTVSPost2010Prop53
 90
        2
102
RTVSPost2010PropOp53
 70
     1
102
RTVSPost2010Prop54
  1
strokes_ogs.tif
102
RTVSPost2010PropOp54
 70
     1
102
RTVSPost2010Prop55
280
     0
102
RTVSPost2010PropOp55
 70
     1
102
RTVSPost2010Prop56
140
1.0
102
RTVSPost2010PropOp56
 70
     1
102
RTVSPost2010Prop57
140
1.0
102
RTVSPost2010PropOp57
 70
     1
102
RTVSPropertyOp0
 70
     1
102
RTVSPropertyOp1
 70
     1
102
RTVSPropertyOp2
 70
     1
102
RTVSPropertyOp3
 70
     1
102
RTVSPropertyOp4
 70
     1
102
RTVSPropertyOp5
 70
     1
102
RTVSPropertyOp6
 70
     1
102
RTVSPropertyOp7
 70
     1
102
RTVSPropertyOp8
 70
     1
102
RTVSPropertyOp9
 70
     1
102
RTVSPropertyOp10
 70
     1
102
RTVSPropertyOp11
 70
     1
102
RTVSPropertyOp12
 70
     1
102
RTVSPropertyOp13
 70
     1
102
RTVSPropertyOp14
 70
     1
102
RTVSPropertyOp15
 70
     1
102
RTVSPropertyOp16
 70
     1
102
RTVSPropertyOp17
 70
     1
102
RTVSPropertyOp18
 70
     1
102
RTVSPropertyOp19
 70
     1
102
RTVSPropertyOp20
 70
     1
102
RTVSPropertyOp21
 70
     1
102
RTVSPropertyOp22
 70
     1
102
RTVSPropertyOp23
 70
     1
102
RTVSPropertyOp24
 70
     1
102
RTVSPropertyOp25
 70
     1
102
RTVSPropertyOp26
 70
     1
102
RTVSPropertyOp27
 70
     1
102
RTVSPropertyOp28
 70
     1
102
RTVSPropertyOp29
 70
     1
102
RTVSPropertyOp30
 70
     1
102
RTVSPropertyOp31
 70
     1
102
RTVSPropertyOp32
 70
     1
102
RTVSPropertyOp33
 70
     1
102
RTVSPropertyOp34
 70
     1
102
RTVSPropertyOp35
 70
     1
102
RTVSPropertyOp36
 70
     1
102
RTVSPropertyOp37
 70
     1
102
RTVSPropertyOp38
 70
     1
102
RTVSPropertyOp39
 70
     1
102
RTVSPropertyOp40
 70
     1
102
RTVSPropertyOp41
 70
     1
102
RTVSPropertyOp42
 70
     1
102
RTVSPropertyOp43
 70
     1
102
RTVSPropertyOp44
 70
     1
102
RTVSPropertyOp45
 70
     1
102
RTVSPropertyOp46
 70
     1
102
RTVSPropertyOp47
 70
     1
102
RTVSPropertyOp48
 70
     1
102
RTVSPropertyOp49
 70
     1
102
RTVSPropertyOp50
 70
     1
102
RTVSPropertyOp51
 70
     0
102
RTVSPropertyOp52
 70
     0
102
RTVSPropertyOp53
 70
     1
102
RTVSPropertyOp54
 70
     1
102
RTVSPropertyOp55
 70
     1
102
RTVSPropertyOp56
 70
     1
102
RTVSPropertyOp57
 70
     1
102
RTVSPropertyOp58
 70
     1
102
RTVSPropertyOp59
 70
     1
102
RTVSPropertyOp60
 70
     1
102
RTVSPropertyOp61
 70
     1
102
RTVSPropertyOp62
 70
     1
  0
XRECORD
  5
3BD
102
{ACAD_REACTORS
330
3BC
102
}
330
3BC
100
AcDbXrecord
280
     1
102
RTVSPost2010Prop28
280
     0
102
RTVSPost2010PropOp28
 70
     1
102
RTVSPost2010Prop29
280
     1
102
RTVSPost2010PropOp29
 70
     1
102
RTVSPost2010Prop30
280
     1
102
RTVSPost2010PropOp30
 70
     1
102
RTVSPost2010Prop31
280
     0
102
RTVSPost2010PropOp31
 70
     1
102
RTVSPost2010Prop32
280
     0
102
RTVSPost2010PropOp32
 70
     1
102
RTVSPost2010Prop33
280
     0
102
RTVSPost2010PropOp33
 70
     1
102
RTVSPost2010Prop34
280
     0
102
RTVSPost2010PropOp34
 70
     1
102
RTVSPost2010Prop35
280
     0
102
RTVSPost2010PropOp35
 70
     1
102
RTVSPost2010Prop36
280
     0
102
RTVSPost2010PropOp36
 70
     1
102
RTVSPost2010Prop37
 90
       50
102
RTVSPost2010PropOp37
 70
     1
102
RTVSPost2010Prop38
140
0.0
102
RTVSPost2010PropOp38
 70
     1
102
RTVSPost2010Prop39
140
1.0
102
RTVSPost2010PropOp39
 70
     1
102
RTVSPost2010Prop40
 90
        0
102
RTVSPost2010PropOp40
 70
     1
102
RTVSPost2010Prop41ColorIndex
 90
       18
102
RTVSPost2010Prop41ColorRGB
 90
        0
102
RTVSPost2010PropOp41
 70
     1
102
RTVSPost2010Prop42
 90
       50
102
RTVSPost2010PropOp42
 70
     1
102
RTVSPost2010Prop43
 90
        3
102
RTVSPost2010PropOp43
 70
     1
102
RTVSPost2010Prop44ColorIndex
 90
        5
102
RTVSPost2010Prop44ColorRGB
 90
      255
102
RTVSPost2010PropOp44
 70
     1
102
RTVSPost2010Prop45
280
     0
102
RTVSPost2010PropOp45
 70
     1
102
RTVSPost2010Prop46
 90
       50
102
RTVSPost2010PropOp46
 70
     1
102
RTVSPost2010Prop47
 90
       50
102
RTVSPost2010PropOp47
 70
     1
102
RTVSPost2010Prop48
 90
       50
102
RTVSPost2010PropOp48
 70
     1
102
RTVSPost2010Prop49
280
     0
102
RTVSPost2010PropOp49
 70
     1
102
RTVSPost2010Prop50
 90
       50
102
RTVSPost2010PropOp50
 70
     1
102
RTVSPost2010Prop51ColorIndex
 90
      256
102
RTVSPost2010Prop51ColorRGB
 90
-16777216
102
RTVSPost2010PropOp51
 70
     0
102
RTVSPost2010Prop52
140
1.0
102
RTVSPost2010PropOp52
 70
     0
102
RTVSPost2010Prop53
 90
        2
102
RTVSPost2010PropOp53
 70
     1
102
RTVSPost2010Prop54
  1
strokes_ogs.tif
102
RTVSPost2010PropOp54
 70
     1
102
RTVSPost2010Prop55
280
     0
102
RTVSPost2010PropOp55
 70
     1
102
RTVSPost2010Prop56
140
1.0
102
RTVSPost2010PropOp56
 70
     1
102
RTVSPost2010Prop57
140
1.0
102
RTVSPost2010PropOp57
 70
     1
102
RTVSPropertyOp0
 70
     1
102
RTVSPropertyOp1
 70
     1
102
RTVSPropertyOp2
 70
     1
102
RTVSPropertyOp3
 70
     1
102
RTVSPropertyOp4
 70
     1
102
RTVSPropertyOp5
 70
     1
102
RTVSPropertyOp6
 70
     1
102
RTVSPropertyOp7
 70
     1
102
RTVSPropertyOp8
 70
     1
102
RTVSPropertyOp9
 70
     1
102
RTVSPropertyOp10
 70
     1
102
RTVSPropertyOp11
 70
     1
102
RTVSPropertyOp12
 70
     1
102
RTVSPropertyOp13
 70
     1
102
RTVSPropertyOp14
 70
     1
102
RTVSPropertyOp15
 70
     1
102
RTVSPropertyOp16
 70
     1
102
RTVSPropertyOp17
 70
     1
102
RTVSPropertyOp18
 70
     1
102
RTVSPropertyOp19
 70
     1
102
RTVSPropertyOp20
 70
     1
102
RTVSPropertyOp21
 70
     1
102
RTVSPropertyOp22
 70
     1
102
RTVSPropertyOp23
 70
     1
102
RTVSPropertyOp24
 70
     1
102
RTVSPropertyOp25
 70
     1
102
RTVSPropertyOp26
 70
     1
102
RTVSPropertyOp27
 70
     1
102
RTVSPropertyOp28
 70
     1
102
RTVSPropertyOp29
 70
     1
102
RTVSPropertyOp30
 70
     1
102
RTVSPropertyOp31
 70
     1
102
RTVSPropertyOp32
 70
     1
102
RTVSPropertyOp33
 70
     1
102
RTVSPropertyOp34
 70
     1
102
RTVSPropertyOp35
 70
     1
102
RTVSPropertyOp36
 70
     1
102
RTVSPropertyOp37
 70
     1
102
RTVSPropertyOp38
 70
     1
102
RTVSPropertyOp39
 70
     1
102
RTVSPropertyOp40
 70
     1
102
RTVSPropertyOp41
 70
     1
102
RTVSPropertyOp42
 70
     1
102
RTVSPropertyOp43
 70
     1
102
RTVSPropertyOp44
 70
     1
102
RTVSPropertyOp45
 70
     1
102
RTVSPropertyOp46
 70
     1
102
RTVSPropertyOp47
 70
     1
102
RTVSPropertyOp48
 70
     1
102
RTVSPropertyOp49
 70
     1
102
RTVSPropertyOp50
 70
     1
102
RTVSPropertyOp51
 70
     0
102
RTVSPropertyOp52
 70
     0
102
RTVSPropertyOp53
 70
     1
102
RTVSPropertyOp54
 70
     1
102
RTVSPropertyOp55
 70
     1
102
RTVSPropertyOp56
 70
     1
102
RTVSPropertyOp57
 70
     1
102
RTVSPropertyOp58
 70
     1
102
RTVSPropertyOp59
 70
     1
102
RTVSPropertyOp60
 70
     1
102
RTVSPropertyOp61
 70
     1
102
RTVSPropertyOp62
 70
     1
  0
XRECORD
  5
3BF
102
{ACAD_REACTORS
330
3BE
102
}
330
3BE
100
AcDbXrecord
280
     1
102
RTVSPost2010Prop28
280
     0
102
RTVSPost2010PropOp28
 70
     1
102
RTVSPost2010Prop29
280
     1
102
RTVSPost2010PropOp29
 70
     1
102
RTVSPost2010Prop30
280
     1
102
RTVSPost2010PropOp30
 70
     1
102
RTVSPost2010Prop31
280
     0
102
RTVSPost2010PropOp31
 70
     1
102
RTVSPost2010Prop32
280
     0
102
RTVSPost2010PropOp32
 70
     1
102
RTVSPost2010Prop33
280
     0
102
RTVSPost2010PropOp33
 70
     1
102
RTVSPost2010Prop34
280
     0
102
RTVSPost2010PropOp34
 70
     1
102
RTVSPost2010Prop35
280
     0
102
RTVSPost2010PropOp35
 70
     1
102
RTVSPost2010Prop36
280
     0
102
RTVSPost2010PropOp36
 70
     1
102
RTVSPost2010Prop37
 90
       50
102
RTVSPost2010PropOp37
 70
     1
102
RTVSPost2010Prop38
140
0.0
102
RTVSPost2010PropOp38
 70
     1
102
RTVSPost2010Prop39
140
1.0
102
RTVSPost2010PropOp39
 70
     1
102
RTVSPost2010Prop40
 90
        0
102
RTVSPost2010PropOp40
 70
     1
102
RTVSPost2010Prop41ColorIndex
 90
       18
102
RTVSPost2010Prop41ColorRGB
 90
        0
102
RTVSPost2010PropOp41
 70
     1
102
RTVSPost2010Prop42
 90
       50
102
RTVSPost2010PropOp42
 70
     1
102
RTVSPost2010Prop43
 90
        3
102
RTVSPost2010PropOp43
 70
     1
102
RTVSPost2010Prop44ColorIndex
 90
        5
102
RTVSPost2010Prop44ColorRGB
 90
      255
102
RTVSPost2010PropOp44
 70
     1
102
RTVSPost2010Prop45
280
     0
102
RTVSPost2010PropOp45
 70
     1
102
RTVSPost2010Prop46
 90
       50
102
RTVSPost2010PropOp46
 70
     1
102
RTVSPost2010Prop47
 90
       50
102
RTVSPost2010PropOp47
 70
     1
102
RTVSPost2010Prop48
 90
       50
102
RTVSPost2010PropOp48
 70
     1
102
RTVSPost2010Prop49
280
     0
102
RTVSPost2010PropOp49
 70
     1
102
RTVSPost2010Prop50
 90
       50
102
RTVSPost2010PropOp50
 70
     1
102
RTVSPost2010Prop51ColorIndex
 90
      256
102
RTVSPost2010Prop51ColorRGB
 90
-16777216
102
RTVSPost2010PropOp51
 70
     0
102
RTVSPost2010Prop52
140
1.0
102
RTVSPost2010PropOp52
 70
     0
102
RTVSPost2010Prop53
 90
        2
102
RTVSPost2010PropOp53
 70
     1
102
RTVSPost2010Prop54
  1
strokes_ogs.tif
102
RTVSPost2010PropOp54
 70
     1
102
RTVSPost2010Prop55
280
     0
102
RTVSPost2010PropOp55
 70
     1
102
RTVSPost2010Prop56
140
1.0
102
RTVSPost2010PropOp56
 70
     1
102
RTVSPost2010Prop57
140
1.0
102
RTVSPost2010PropOp57
 70
     1
102
RTVSPropertyOp0
 70
     1
102
RTVSPropertyOp1
 70
     1
102
RTVSPropertyOp2
 70
     1
102
RTVSPropertyOp3
 70
     1
102
RTVSPropertyOp4
 70
     1
102
RTVSPropertyOp5
 70
     1
102
RTVSPropertyOp6
 70
     1
102
RTVSPropertyOp7
 70
     1
102
RTVSPropertyOp8
 70
     1
102
RTVSPropertyOp9
 70
     1
102
RTVSPropertyOp10
 70
     1
102
RTVSPropertyOp11
 70
     1
102
RTVSPropertyOp12
 70
     1
102
RTVSPropertyOp13
 70
     1
102
RTVSPropertyOp14
 70
     1
102
RTVSPropertyOp15
 70
     1
102
RTVSPropertyOp16
 70
     1
102
RTVSPropertyOp17
 70
     1
102
RTVSPropertyOp18
 70
     1
102
RTVSPropertyOp19
 70
     1
102
RTVSPropertyOp20
 70
     1
102
RTVSPropertyOp21
 70
     1
102
RTVSPropertyOp22
 70
     1
102
RTVSPropertyOp23
 70
     1
102
RTVSPropertyOp24
 70
     1
102
RTVSPropertyOp25
 70
     1
102
RTVSPropertyOp26
 70
     1
102
RTVSPropertyOp27
 70
     1
102
RTVSPropertyOp28
 70
     1
102
RTVSPropertyOp29
 70
     1
102
RTVSPropertyOp30
 70
     1
102
RTVSPropertyOp31
 70
     1
102
RTVSPropertyOp32
 70
     1
102
RTVSPropertyOp33
 70
     1
102
RTVSPropertyOp34
 70
     1
102
RTVSPropertyOp35
 70
     1
102
RTVSPropertyOp36
 70
     1
102
RTVSPropertyOp37
 70
     1
102
RTVSPropertyOp38
 70
     1
102
RTVSPropertyOp39
 70
     1
102
RTVSPropertyOp40
 70
     1
102
RTVSPropertyOp41
 70
     1
102
RTVSPropertyOp42
 70
     1
102
RTVSPropertyOp43
 70
     1
102
RTVSPropertyOp44
 70
     1
102
RTVSPropertyOp45
 70
     1
102
RTVSPropertyOp46
 70
     1
102
RTVSPropertyOp47
 70
     1
102
RTVSPropertyOp48
 70
     1
102
RTVSPropertyOp49
 70
     1
102
RTVSPropertyOp50
 70
     1
102
RTVSPropertyOp51
 70
     0
102
RTVSPropertyOp52
 70
     0
102
RTVSPropertyOp53
 70
     1
102
RTVSPropertyOp54
 70
     1
102
RTVSPropertyOp55
 70
     1
102
RTVSPropertyOp56
 70
     1
102
RTVSPropertyOp57
 70
     1
102
RTVSPropertyOp58
 70
     1
102
RTVSPropertyOp59
 70
     1
102
RTVSPropertyOp60
 70
     1
102
RTVSPropertyOp61
 70
     1
102
RTVSPropertyOp62
 70
     1
  0
XRECORD
  5
3C5
102
{ACAD_REACTORS
330
3C4
102
}
330
3C4
100
AcDbXrecord
280
     1
102
RTVSPost2010Prop28
280
     0
102
RTVSPost2010PropOp28
 70
     1
102
RTVSPost2010Prop29
280
     1
102
RTVSPost2010PropOp29
 70
     1
102
RTVSPost2010Prop30
280
     1
102
RTVSPost2010PropOp30
 70
     1
102
RTVSPost2010Prop31
280
     0
102
RTVSPost2010PropOp31
 70
     1
102
RTVSPost2010Prop32
280
     0
102
RTVSPost2010PropOp32
 70
     1
102
RTVSPost2010Prop33
280
     0
102
RTVSPost2010PropOp33
 70
     1
102
RTVSPost2010Prop34
280
     0
102
RTVSPost2010PropOp34
 70
     1
102
RTVSPost2010Prop35
280
     0
102
RTVSPost2010PropOp35
 70
     1
102
RTVSPost2010Prop36
280
     0
102
RTVSPost2010PropOp36
 70
     1
102
RTVSPost2010Prop37
 90
       50
102
RTVSPost2010PropOp37
 70
     1
102
RTVSPost2010Prop38
140
0.0
102
RTVSPost2010PropOp38
 70
     1
102
RTVSPost2010Prop39
140
1.0
102
RTVSPost2010PropOp39
 70
     1
102
RTVSPost2010Prop40
 90
        0
102
RTVSPost2010PropOp40
 70
     1
102
RTVSPost2010Prop41ColorIndex
 90
       18
102
RTVSPost2010Prop41ColorRGB
 90
        0
102
RTVSPost2010PropOp41
 70
     1
102
RTVSPost2010Prop42
 90
       50
102
RTVSPost2010PropOp42
 70
     1
102
RTVSPost2010Prop43
 90
        3
102
RTVSPost2010PropOp43
 70
     1
102
RTVSPost2010Prop44ColorIndex
 90
        5
102
RTVSPost2010Prop44ColorRGB
 90
      255
102
RTVSPost2010PropOp44
 70
     1
102
RTVSPost2010Prop45
280
     0
102
RTVSPost2010PropOp45
 70
     1
102
RTVSPost2010Prop46
 90
       50
102
RTVSPost2010PropOp46
 70
     1
102
RTVSPost2010Prop47
 90
       50
102
RTVSPost2010PropOp47
 70
     1
102
RTVSPost2010Prop48
 90
       50
102
RTVSPost2010PropOp48
 70
     1
102
RTVSPost2010Prop49
280
     0
102
RTVSPost2010PropOp49
 70
     1
102
RTVSPost2010Prop50
 90
       50
102
RTVSPost2010PropOp50
 70
     1
102
RTVSPost2010Prop51ColorIndex
 90
      256
102
RTVSPost2010Prop51ColorRGB
 90
-16777216
102
RTVSPost2010PropOp51
 70
     0
102
RTVSPost2010Prop52
140
1.0
102
RTVSPost2010PropOp52
 70
     0
102
RTVSPost2010Prop53
 90
        2
102
RTVSPost2010PropOp53
 70
     1
102
RTVSPost2010Prop54
  1
strokes_ogs.tif
102
RTVSPost2010PropOp54
 70
     1
102
RTVSPost2010Prop55
280
     0
102
RTVSPost2010PropOp55
 70
     1
102
RTVSPost2010Prop56
140
1.0
102
RTVSPost2010PropOp56
 70
     1
102
RTVSPost2010Prop57
140
1.0
102
RTVSPost2010PropOp57
 70
     1
102
RTVSPropertyOp0
 70
     1
102
RTVSPropertyOp1
 70
     1
102
RTVSPropertyOp2
 70
     1
102
RTVSPropertyOp3
 70
     1
102
RTVSPropertyOp4
 70
     1
102
RTVSPropertyOp5
 70
     1
102
RTVSPropertyOp6
 70
     1
102
RTVSPropertyOp7
 70
     1
102
RTVSPropertyOp8
 70
     1
102
RTVSPropertyOp9
 70
     1
102
RTVSPropertyOp10
 70
     1
102
RTVSPropertyOp11
 70
     1
102
RTVSPropertyOp12
 70
     1
102
RTVSPropertyOp13
 70
     1
102
RTVSPropertyOp14
 70
     1
102
RTVSPropertyOp15
 70
     1
102
RTVSPropertyOp16
 70
     1
102
RTVSPropertyOp17
 70
     1
102
RTVSPropertyOp18
 70
     1
102
RTVSPropertyOp19
 70
     1
102
RTVSPropertyOp20
 70
     1
102
RTVSPropertyOp21
 70
     1
102
RTVSPropertyOp22
 70
     1
102
RTVSPropertyOp23
 70
     1
102
RTVSPropertyOp24
 70
     1
102
RTVSPropertyOp25
 70
     1
102
RTVSPropertyOp26
 70
     1
102
RTVSPropertyOp27
 70
     1
102
RTVSPropertyOp28
 70
     1
102
RTVSPropertyOp29
 70
     1
102
RTVSPropertyOp30
 70
     1
102
RTVSPropertyOp31
 70
     1
102
RTVSPropertyOp32
 70
     1
102
RTVSPropertyOp33
 70
     1
102
RTVSPropertyOp34
 70
     1
102
RTVSPropertyOp35
 70
     1
102
RTVSPropertyOp36
 70
     1
102
RTVSPropertyOp37
 70
     1
102
RTVSPropertyOp38
 70
     1
102
RTVSPropertyOp39
 70
     1
102
RTVSPropertyOp40
 70
     1
102
RTVSPropertyOp41
 70
     1
102
RTVSPropertyOp42
 70
     1
102
RTVSPropertyOp43
 70
     1
102
RTVSPropertyOp44
 70
     1
102
RTVSPropertyOp45
 70
     1
102
RTVSPropertyOp46
 70
     1
102
RTVSPropertyOp47
 70
     1
102
RTVSPropertyOp48
 70
     1
102
RTVSPropertyOp49
 70
     1
102
RTVSPropertyOp50
 70
     1
102
RTVSPropertyOp51
 70
     0
102
RTVSPropertyOp52
 70
     0
102
RTVSPropertyOp53
 70
     1
102
RTVSPropertyOp54
 70
     1
102
RTVSPropertyOp55
 70
     1
102
RTVSPropertyOp56
 70
     1
102
RTVSPropertyOp57
 70
     1
102
RTVSPropertyOp58
 70
     1
102
RTVSPropertyOp59
 70
     1
102
RTVSPropertyOp60
 70
     1
102
RTVSPropertyOp61
 70
     1
102
RTVSPropertyOp62
 70
     1
  0
XRECORD
  5
3D9
102
{ACAD_REACTORS
330
3D8
102
}
330
3D8
100
AcDbXrecord
280
     1
102
RTVSPost2010Prop28
280
     0
102
RTVSPost2010PropOp28
 70
     0
102
RTVSPost2010Prop29
280
     1
102
RTVSPost2010PropOp29
 70
     0
102
RTVSPost2010Prop30
280
     1
102
RTVSPost2010PropOp30
 70
     0
102
RTVSPost2010Prop31
280
     0
102
RTVSPost2010PropOp31
 70
     0
102
RTVSPost2010Prop32
280
     0
102
RTVSPost2010PropOp32
 70
     0
102
RTVSPost2010Prop33
280
     0
102
RTVSPost2010PropOp33
 70
     0
102
RTVSPost2010Prop34
280
     0
102
RTVSPost2010PropOp34
 70
     0
102
RTVSPost2010Prop35
280
     0
102
RTVSPost2010PropOp35
 70
     0
102
RTVSPost2010Prop36
280
     0
102
RTVSPost2010PropOp36
 70
     0
102
RTVSPost2010Prop37
 90
       50
102
RTVSPost2010PropOp37
 70
     0
102
RTVSPost2010Prop38
140
0.0
102
RTVSPost2010PropOp38
 70
     0
102
RTVSPost2010Prop39
140
1.0
102
RTVSPost2010PropOp39
 70
     0
102
RTVSPost2010Prop40
 90
        0
102
RTVSPost2010PropOp40
 70
     0
102
RTVSPost2010Prop41ColorIndex
 90
       18
102
RTVSPost2010Prop41ColorRGB
 90
        0
102
RTVSPost2010PropOp41
 70
     0
102
RTVSPost2010Prop42
 90
       50
102
RTVSPost2010PropOp42
 70
     0
102
RTVSPost2010Prop43
 90
        3
102
RTVSPost2010PropOp43
 70
     0
102
RTVSPost2010Prop44ColorIndex
 90
        5
102
RTVSPost2010Prop44ColorRGB
 90
      255
102
RTVSPost2010PropOp44
 70
     0
102
RTVSPost2010Prop45
280
     0
102
RTVSPost2010PropOp45
 70
     0
102
RTVSPost2010Prop46
 90
       50
102
RTVSPost2010PropOp46
 70
     0
102
RTVSPost2010Prop47
 90
       50
102
RTVSPost2010PropOp47
 70
     0
102
RTVSPost2010Prop48
 90
       50
102
RTVSPost2010PropOp48
 70
     0
102
RTVSPost2010Prop49
280
     0
102
RTVSPost2010PropOp49
 70
     0
102
RTVSPost2010Prop50
 90
       50
102
RTVSPost2010PropOp50
 70
     0
102
RTVSPost2010Prop51ColorIndex
 90
      256
102
RTVSPost2010Prop51ColorRGB
 90
-16777216
102
RTVSPost2010PropOp51
 70
     0
102
RTVSPost2010Prop52
140
1.0
102
RTVSPost2010PropOp52
 70
     0
102
RTVSPost2010Prop53
 90
        2
102
RTVSPost2010PropOp53
 70
     0
102
RTVSPost2010Prop54
  1
strokes_ogs.tif
102
RTVSPost2010PropOp54
 70
     0
102
RTVSPost2010Prop55
280
     0
102
RTVSPost2010PropOp55
 70
     0
102
RTVSPost2010Prop56
140
1.0
102
RTVSPost2010PropOp56
 70
     0
102
RTVSPost2010Prop57
140
1.0
102
RTVSPost2010PropOp57
 70
     0
102
RTVSPropertyOp0
 70
     0
102
RTVSPropertyOp1
 70
     0
102
RTVSPropertyOp2
 70
     0
102
RTVSPropertyOp3
 70
     0
102
RTVSPropertyOp4
 70
     0
102
RTVSPropertyOp5
 70
     0
102
RTVSPropertyOp6
 70
     0
102
RTVSPropertyOp7
 70
     0
102
RTVSPropertyOp8
 70
     0
102
RTVSPropertyOp9
 70
     0
102
RTVSPropertyOp10
 70
     0
102
RTVSPropertyOp11
 70
     0
102
RTVSPropertyOp12
 70
     0
102
RTVSPropertyOp13
 70
     0
102
RTVSPropertyOp14
 70
     2
102
RTVSPropertyOp15
 70
     0
102
RTVSPropertyOp16
 70
     0
102
RTVSPropertyOp17
 70
     0
102
RTVSPropertyOp18
 70
     0
102
RTVSPropertyOp19
 70
     0
102
RTVSPropertyOp20
 70
     0
102
RTVSPropertyOp21
 70
     0
102
RTVSPropertyOp22
 70
     0
102
RTVSPropertyOp23
 70
     0
102
RTVSPropertyOp24
 70
     0
102
RTVSPropertyOp25
 70
     0
102
RTVSPropertyOp26
 70
     0
102
RTVSPropertyOp27
 70
     0
102
RTVSPropertyOp28
 70
     0
102
RTVSPropertyOp29
 70
     0
102
RTVSPropertyOp30
 70
     0
102
RTVSPropertyOp31
 70
     0
102
RTVSPropertyOp32
 70
     0
102
RTVSPropertyOp33
 70
     0
102
RTVSPropertyOp34
 70
     0
102
RTVSPropertyOp35
 70
     0
102
RTVSPropertyOp36
 70
     0
102
RTVSPropertyOp37
 70
     0
102
RTVSPropertyOp38
 70
     0
102
RTVSPropertyOp39
 70
     0
102
RTVSPropertyOp40
 70
     0
102
RTVSPropertyOp41
 70
     0
102
RTVSPropertyOp42
 70
     0
102
RTVSPropertyOp43
 70
     0
102
RTVSPropertyOp44
 70
     0
102
RTVSPropertyOp45
 70
     0
102
RTVSPropertyOp46
 70
     0
102
RTVSPropertyOp47
 70
     0
102
RTVSPropertyOp48
 70
     0
102
RTVSPropertyOp49
 70
     0
102
RTVSPropertyOp50
 70
     0
102
RTVSPropertyOp51
 70
     0
102
RTVSPropertyOp52
 70
     0
102
RTVSPropertyOp53
 70
     0
102
RTVSPropertyOp54
 70
     0
102
RTVSPropertyOp55
 70
     0
102
RTVSPropertyOp56
 70
     0
102
RTVSPropertyOp57
 70
     0
102
RTVSPropertyOp58
 70
     1
102
RTVSPropertyOp59
 70
     1
102
RTVSPropertyOp60
 70
     1
102
RTVSPropertyOp61
 70
     1
102
RTVSPropertyOp62
 70
     1
  0
XRECORD
  5
3D3
102
{ACAD_REACTORS
330
3D2
102
}
330
3D2
100
AcDbXrecord
280
     1
102
RTVSPost2010Prop28
280
     0
102
RTVSPost2010PropOp28
 70
     1
102
RTVSPost2010Prop29
280
     1
102
RTVSPost2010PropOp29
 70
     1
102
RTVSPost2010Prop30
280
     1
102
RTVSPost2010PropOp30
 70
     1
102
RTVSPost2010Prop31
280
     0
102
RTVSPost2010PropOp31
 70
     1
102
RTVSPost2010Prop32
280
     0
102
RTVSPost2010PropOp32
 70
     1
102
RTVSPost2010Prop33
280
     0
102
RTVSPost2010PropOp33
 70
     1
102
RTVSPost2010Prop34
280
     0
102
RTVSPost2010PropOp34
 70
     1
102
RTVSPost2010Prop35
280
     0
102
RTVSPost2010PropOp35
 70
     1
102
RTVSPost2010Prop36
280
     0
102
RTVSPost2010PropOp36
 70
     1
102
RTVSPost2010Prop37
 90
       50
102
RTVSPost2010PropOp37
 70
     1
102
RTVSPost2010Prop38
140
0.0
102
RTVSPost2010PropOp38
 70
     1
102
RTVSPost2010Prop39
140
1.0
102
RTVSPost2010PropOp39
 70
     1
102
RTVSPost2010Prop40
 90
        0
102
RTVSPost2010PropOp40
 70
     1
102
RTVSPost2010Prop41ColorIndex
 90
       18
102
RTVSPost2010Prop41ColorRGB
 90
        0
102
RTVSPost2010PropOp41
 70
     1
102
RTVSPost2010Prop42
 90
       50
102
RTVSPost2010PropOp42
 70
     1
102
RTVSPost2010Prop43
 90
        3
102
RTVSPost2010PropOp43
 70
     1
102
RTVSPost2010Prop44ColorIndex
 90
        5
102
RTVSPost2010Prop44ColorRGB
 90
      255
102
RTVSPost2010PropOp44
 70
     1
102
RTVSPost2010Prop45
280
     0
102
RTVSPost2010PropOp45
 70
     1
102
RTVSPost2010Prop46
 90
       50
102
RTVSPost2010PropOp46
 70
     1
102
RTVSPost2010Prop47
 90
       50
102
RTVSPost2010PropOp47
 70
     1
102
RTVSPost2010Prop48
 90
       50
102
RTVSPost2010PropOp48
 70
     1
102
RTVSPost2010Prop49
280
     0
102
RTVSPost2010PropOp49
 70
     1
102
RTVSPost2010Prop50
 90
       50
102
RTVSPost2010PropOp50
 70
     1
102
RTVSPost2010Prop51ColorIndex
 90
      256
102
RTVSPost2010Prop51ColorRGB
 90
-16777216
102
RTVSPost2010PropOp51
 70
     0
102
RTVSPost2010Prop52
140
1.0
102
RTVSPost2010PropOp52
 70
     0
102
RTVSPost2010Prop53
 90
        2
102
RTVSPost2010PropOp53
 70
     1
102
RTVSPost2010Prop54
  1
strokes_ogs.tif
102
RTVSPost2010PropOp54
 70
     1
102
RTVSPost2010Prop55
280
     0
102
RTVSPost2010PropOp55
 70
     1
102
RTVSPost2010Prop56
140
1.0
102
RTVSPost2010PropOp56
 70
     1
102
RTVSPost2010Prop57
140
1.0
102
RTVSPost2010PropOp57
 70
     1
102
RTVSPropertyOp0
 70
     1
102
RTVSPropertyOp1
 70
     1
102
RTVSPropertyOp2
 70
     1
102
RTVSPropertyOp3
 70
     1
102
RTVSPropertyOp4
 70
     1
102
RTVSPropertyOp5
 70
     1
102
RTVSPropertyOp6
 70
     1
102
RTVSPropertyOp7
 70
     1
102
RTVSPropertyOp8
 70
     1
102
RTVSPropertyOp9
 70
     1
102
RTVSPropertyOp10
 70
     1
102
RTVSPropertyOp11
 70
     1
102
RTVSPropertyOp12
 70
     1
102
RTVSPropertyOp13
 70
     1
102
RTVSPropertyOp14
 70
     1
102
RTVSPropertyOp15
 70
     1
102
RTVSPropertyOp16
 70
     1
102
RTVSPropertyOp17
 70
     1
102
RTVSPropertyOp18
 70
     1
102
RTVSPropertyOp19
 70
     1
102
RTVSPropertyOp20
 70
     1
102
RTVSPropertyOp21
 70
     1
102
RTVSPropertyOp22
 70
     1
102
RTVSPropertyOp23
 70
     1
102
RTVSPropertyOp24
 70
     1
102
RTVSPropertyOp25
 70
     1
102
RTVSPropertyOp26
 70
     1
102
RTVSPropertyOp27
 70
     1
102
RTVSPropertyOp28
 70
     1
102
RTVSPropertyOp29
 70
     1
102
RTVSPropertyOp30
 70
     1
102
RTVSPropertyOp31
 70
     1
102
RTVSPropertyOp32
 70
     1
102
RTVSPropertyOp33
 70
     1
102
RTVSPropertyOp34
 70
     1
102
RTVSPropertyOp35
 70
     1
102
RTVSPropertyOp36
 70
     1
102
RTVSPropertyOp37
 70
     1
102
RTVSPropertyOp38
 70
     1
102
RTVSPropertyOp39
 70
     1
102
RTVSPropertyOp40
 70
     1
102
RTVSPropertyOp41
 70
     1
102
RTVSPropertyOp42
 70
     1
102
RTVSPropertyOp43
 70
     1
102
RTVSPropertyOp44
 70
     1
102
RTVSPropertyOp45
 70
     1
102
RTVSPropertyOp46
 70
     1
102
RTVSPropertyOp47
 70
     1
102
RTVSPropertyOp48
 70
     1
102
RTVSPropertyOp49
 70
     1
102
RTVSPropertyOp50
 70
     1
102
RTVSPropertyOp51
 70
     0
102
RTVSPropertyOp52
 70
     0
102
RTVSPropertyOp53
 70
     1
102
RTVSPropertyOp54
 70
     1
102
RTVSPropertyOp55
 70
     1
102
RTVSPropertyOp56
 70
     1
102
RTVSPropertyOp57
 70
     1
102
RTVSPropertyOp58
 70
     1
102
RTVSPropertyOp59
 70
     1
102
RTVSPropertyOp60
 70
     1
102
RTVSPropertyOp61
 70
     1
102
RTVSPropertyOp62
 70
     1
  0
XRECORD
  5
3DB
102
{ACAD_REACTORS
330
3DA
102
}
330
3DA
100
AcDbXrecord
280
     1
102
RTVSPost2010Prop28
280
     0
102
RTVSPost2010PropOp28
 70
     0
102
RTVSPost2010Prop29
280
     1
102
RTVSPost2010PropOp29
 70
     0
102
RTVSPost2010Prop30
280
     1
102
RTVSPost2010PropOp30
 70
     0
102
RTVSPost2010Prop31
280
     0
102
RTVSPost2010PropOp31
 70
     0
102
RTVSPost2010Prop32
280
     0
102
RTVSPost2010PropOp32
 70
     0
102
RTVSPost2010Prop33
280
     0
102
RTVSPost2010PropOp33
 70
     0
102
RTVSPost2010Prop34
280
     0
102
RTVSPost2010PropOp34
 70
     0
102
RTVSPost2010Prop35
280
     0
102
RTVSPost2010PropOp35
 70
     0
102
RTVSPost2010Prop36
280
     0
102
RTVSPost2010PropOp36
 70
     0
102
RTVSPost2010Prop37
 90
       50
102
RTVSPost2010PropOp37
 70
     0
102
RTVSPost2010Prop38
140
0.0
102
RTVSPost2010PropOp38
 70
     0
102
RTVSPost2010Prop39
140
1.0
102
RTVSPost2010PropOp39
 70
     0
102
RTVSPost2010Prop40
 90
        0
102
RTVSPost2010PropOp40
 70
     0
102
RTVSPost2010Prop41ColorIndex
 90
       18
102
RTVSPost2010Prop41ColorRGB
 90
        0
102
RTVSPost2010PropOp41
 70
     0
102
RTVSPost2010Prop42
 90
       50
102
RTVSPost2010PropOp42
 70
     0
102
RTVSPost2010Prop43
 90
        3
102
RTVSPost2010PropOp43
 70
     0
102
RTVSPost2010Prop44ColorIndex
 90
        5
102
RTVSPost2010Prop44ColorRGB
 90
      255
102
RTVSPost2010PropOp44
 70
     0
102
RTVSPost2010Prop45
280
     0
102
RTVSPost2010PropOp45
 70
     0
102
RTVSPost2010Prop46
 90
       50
102
RTVSPost2010PropOp46
 70
     0
102
RTVSPost2010Prop47
 90
       50
102
RTVSPost2010PropOp47
 70
     0
102
RTVSPost2010Prop48
 90
       50
102
RTVSPost2010PropOp48
 70
     0
102
RTVSPost2010Prop49
280
     0
102
RTVSPost2010PropOp49
 70
     0
102
RTVSPost2010Prop50
 90
       50
102
RTVSPost2010PropOp50
 70
     0
102
RTVSPost2010Prop51ColorIndex
 90
      256
102
RTVSPost2010Prop51ColorRGB
 90
-16777216
102
RTVSPost2010PropOp51
 70
     0
102
RTVSPost2010Prop52
140
1.0
102
RTVSPost2010PropOp52
 70
     0
102
RTVSPost2010Prop53
 90
        2
102
RTVSPost2010PropOp53
 70
     0
102
RTVSPost2010Prop54
  1
strokes_ogs.tif
102
RTVSPost2010PropOp54
 70
     0
102
RTVSPost2010Prop55
280
     0
102
RTVSPost2010PropOp55
 70
     0
102
RTVSPost2010Prop56
140
1.0
102
RTVSPost2010PropOp56
 70
     0
102
RTVSPost2010Prop57
140
1.0
102
RTVSPost2010PropOp57
 70
     0
102
RTVSPropertyOp0
 70
     0
102
RTVSPropertyOp1
 70
     0
102
RTVSPropertyOp2
 70
     0
102
RTVSPropertyOp3
 70
     0
102
RTVSPropertyOp4
 70
     0
102
RTVSPropertyOp5
 70
     0
102
RTVSPropertyOp6
 70
     0
102
RTVSPropertyOp7
 70
     0
102
RTVSPropertyOp8
 70
     0
102
RTVSPropertyOp9
 70
     0
102
RTVSPropertyOp10
 70
     0
102
RTVSPropertyOp11
 70
     0
102
RTVSPropertyOp12
 70
     0
102
RTVSPropertyOp13
 70
     0
102
RTVSPropertyOp14
 70
     2
102
RTVSPropertyOp15
 70
     0
102
RTVSPropertyOp16
 70
     0
102
RTVSPropertyOp17
 70
     0
102
RTVSPropertyOp18
 70
     0
102
RTVSPropertyOp19
 70
     0
102
RTVSPropertyOp20
 70
     0
102
RTVSPropertyOp21
 70
     0
102
RTVSPropertyOp22
 70
     0
102
RTVSPropertyOp23
 70
     0
102
RTVSPropertyOp24
 70
     0
102
RTVSPropertyOp25
 70
     0
102
RTVSPropertyOp26
 70
     0
102
RTVSPropertyOp27
 70
     0
102
RTVSPropertyOp28
 70
     0
102
RTVSPropertyOp29
 70
     0
102
RTVSPropertyOp30
 70
     0
102
RTVSPropertyOp31
 70
     0
102
RTVSPropertyOp32
 70
     0
102
RTVSPropertyOp33
 70
     0
102
RTVSPropertyOp34
 70
     0
102
RTVSPropertyOp35
 70
     0
102
RTVSPropertyOp36
 70
     0
102
RTVSPropertyOp37
 70
     0
102
RTVSPropertyOp38
 70
     0
102
RTVSPropertyOp39
 70
     0
102
RTVSPropertyOp40
 70
     0
102
RTVSPropertyOp41
 70
     0
102
RTVSPropertyOp42
 70
     0
102
RTVSPropertyOp43
 70
     0
102
RTVSPropertyOp44
 70
     0
102
RTVSPropertyOp45
 70
     0
102
RTVSPropertyOp46
 70
     0
102
RTVSPropertyOp47
 70
     0
102
RTVSPropertyOp48
 70
     0
102
RTVSPropertyOp49
 70
     0
102
RTVSPropertyOp50
 70
     0
102
RTVSPropertyOp51
 70
     0
102
RTVSPropertyOp52
 70
     0
102
RTVSPropertyOp53
 70
     0
102
RTVSPropertyOp54
 70
     0
102
RTVSPropertyOp55
 70
     0
102
RTVSPropertyOp56
 70
     0
102
RTVSPropertyOp57
 70
     0
102
RTVSPropertyOp58
 70
     1
102
RTVSPropertyOp59
 70
     1
102
RTVSPropertyOp60
 70
     1
102
RTVSPropertyOp61
 70
     1
102
RTVSPropertyOp62
 70
     1
  0
XRECORD
  5
3C9
102
{ACAD_REACTORS
330
3C8
102
}
330
3C8
100
AcDbXrecord
280
     1
102
RTVSPost2010Prop28
280
     0
102
RTVSPost2010PropOp28
 70
     1
102
RTVSPost2010Prop29
280
     1
102
RTVSPost2010PropOp29
 70
     1
102
RTVSPost2010Prop30
280
     1
102
RTVSPost2010PropOp30
 70
     1
102
RTVSPost2010Prop31
280
     0
102
RTVSPost2010PropOp31
 70
     1
102
RTVSPost2010Prop32
280
     0
102
RTVSPost2010PropOp32
 70
     1
102
RTVSPost2010Prop33
280
     0
102
RTVSPost2010PropOp33
 70
     1
102
RTVSPost2010Prop34
280
     0
102
RTVSPost2010PropOp34
 70
     1
102
RTVSPost2010Prop35
280
     0
102
RTVSPost2010PropOp35
 70
     1
102
RTVSPost2010Prop36
280
     0
102
RTVSPost2010PropOp36
 70
     1
102
RTVSPost2010Prop37
 90
       50
102
RTVSPost2010PropOp37
 70
     1
102
RTVSPost2010Prop38
140
0.0
102
RTVSPost2010PropOp38
 70
     1
102
RTVSPost2010Prop39
140
1.0
102
RTVSPost2010PropOp39
 70
     1
102
RTVSPost2010Prop40
 90
        0
102
RTVSPost2010PropOp40
 70
     1
102
RTVSPost2010Prop41ColorIndex
 90
       18
102
RTVSPost2010Prop41ColorRGB
 90
        0
102
RTVSPost2010PropOp41
 70
     1
102
RTVSPost2010Prop42
 90
       50
102
RTVSPost2010PropOp42
 70
     1
102
RTVSPost2010Prop43
 90
        3
102
RTVSPost2010PropOp43
 70
     1
102
RTVSPost2010Prop44ColorIndex
 90
        5
102
RTVSPost2010Prop44ColorRGB
 90
      255
102
RTVSPost2010PropOp44
 70
     1
102
RTVSPost2010Prop45
280
     0
102
RTVSPost2010PropOp45
 70
     1
102
RTVSPost2010Prop46
 90
       50
102
RTVSPost2010PropOp46
 70
     1
102
RTVSPost2010Prop47
 90
       50
102
RTVSPost2010PropOp47
 70
     1
102
RTVSPost2010Prop48
 90
       50
102
RTVSPost2010PropOp48
 70
     1
102
RTVSPost2010Prop49
280
     0
102
RTVSPost2010PropOp49
 70
     1
102
RTVSPost2010Prop50
 90
       50
102
RTVSPost2010PropOp50
 70
     1
102
RTVSPost2010Prop51ColorIndex
 90
      256
102
RTVSPost2010Prop51ColorRGB
 90
-16777216
102
RTVSPost2010PropOp51
 70
     0
102
RTVSPost2010Prop52
140
1.0
102
RTVSPost2010PropOp52
 70
     0
102
RTVSPost2010Prop53
 90
        2
102
RTVSPost2010PropOp53
 70
     1
102
RTVSPost2010Prop54
  1
strokes_ogs.tif
102
RTVSPost2010PropOp54
 70
     1
102
RTVSPost2010Prop55
280
     0
102
RTVSPost2010PropOp55
 70
     1
102
RTVSPost2010Prop56
140
1.0
102
RTVSPost2010PropOp56
 70
     1
102
RTVSPost2010Prop57
140
1.0
102
RTVSPost2010PropOp57
 70
     1
102
RTVSPropertyOp0
 70
     1
102
RTVSPropertyOp1
 70
     1
102
RTVSPropertyOp2
 70
     1
102
RTVSPropertyOp3
 70
     1
102
RTVSPropertyOp4
 70
     1
102
RTVSPropertyOp5
 70
     1
102
RTVSPropertyOp6
 70
     1
102
RTVSPropertyOp7
 70
     1
102
RTVSPropertyOp8
 70
     1
102
RTVSPropertyOp9
 70
     1
102
RTVSPropertyOp10
 70
     1
102
RTVSPropertyOp11
 70
     1
102
RTVSPropertyOp12
 70
     1
102
RTVSPropertyOp13
 70
     1
102
RTVSPropertyOp14
 70
     1
102
RTVSPropertyOp15
 70
     1
102
RTVSPropertyOp16
 70
     1
102
RTVSPropertyOp17
 70
     1
102
RTVSPropertyOp18
 70
     1
102
RTVSPropertyOp19
 70
     1
102
RTVSPropertyOp20
 70
     1
102
RTVSPropertyOp21
 70
     1
102
RTVSPropertyOp22
 70
     1
102
RTVSPropertyOp23
 70
     1
102
RTVSPropertyOp24
 70
     1
102
RTVSPropertyOp25
 70
     1
102
RTVSPropertyOp26
 70
     1
102
RTVSPropertyOp27
 70
     1
102
RTVSPropertyOp28
 70
     1
102
RTVSPropertyOp29
 70
     1
102
RTVSPropertyOp30
 70
     1
102
RTVSPropertyOp31
 70
     1
102
RTVSPropertyOp32
 70
     1
102
RTVSPropertyOp33
 70
     1
102
RTVSPropertyOp34
 70
     1
102
RTVSPropertyOp35
 70
     1
102
RTVSPropertyOp36
 70
     1
102
RTVSPropertyOp37
 70
     1
102
RTVSPropertyOp38
 70
     1
102
RTVSPropertyOp39
 70
     1
102
RTVSPropertyOp40
 70
     1
102
RTVSPropertyOp41
 70
     1
102
RTVSPropertyOp42
 70
     1
102
RTVSPropertyOp43
 70
     1
102
RTVSPropertyOp44
 70
     1
102
RTVSPropertyOp45
 70
     1
102
RTVSPropertyOp46
 70
     1
102
RTVSPropertyOp47
 70
     1
102
RTVSPropertyOp48
 70
     1
102
RTVSPropertyOp49
 70
     1
102
RTVSPropertyOp50
 70
     1
102
RTVSPropertyOp51
 70
     0
102
RTVSPropertyOp52
 70
     0
102
RTVSPropertyOp53
 70
     1
102
RTVSPropertyOp54
 70
     1
102
RTVSPropertyOp55
 70
     1
102
RTVSPropertyOp56
 70
     1
102
RTVSPropertyOp57
 70
     1
102
RTVSPropertyOp58
 70
     1
102
RTVSPropertyOp59
 70
     1
102
RTVSPropertyOp60
 70
     1
102
RTVSPropertyOp61
 70
     1
102
RTVSPropertyOp62
 70
     1
  0
XRECORD
  5
3E7
102
{ACAD_REACTORS
330
3E6
102
}
330
3E6
100
AcDbXrecord
280
     1
102
RTVSPost2010Prop28
280
     0
102
RTVSPost2010PropOp28
 70
     1
102
RTVSPost2010Prop29
280
     1
102
RTVSPost2010PropOp29
 70
     1
102
RTVSPost2010Prop30
280
     1
102
RTVSPost2010PropOp30
 70
     1
102
RTVSPost2010Prop31
280
     0
102
RTVSPost2010PropOp31
 70
     1
102
RTVSPost2010Prop32
280
     0
102
RTVSPost2010PropOp32
 70
     1
102
RTVSPost2010Prop33
280
     0
102
RTVSPost2010PropOp33
 70
     1
102
RTVSPost2010Prop34
280
     0
102
RTVSPost2010PropOp34
 70
     1
102
RTVSPost2010Prop35
280
     0
102
RTVSPost2010PropOp35
 70
     1
102
RTVSPost2010Prop36
280
     0
102
RTVSPost2010PropOp36
 70
     1
102
RTVSPost2010Prop37
 90
       50
102
RTVSPost2010PropOp37
 70
     1
102
RTVSPost2010Prop38
140
0.0
102
RTVSPost2010PropOp38
 70
     1
102
RTVSPost2010Prop39
140
1.0
102
RTVSPost2010PropOp39
 70
     1
102
RTVSPost2010Prop40
 90
        0
102
RTVSPost2010PropOp40
 70
     1
102
RTVSPost2010Prop41ColorIndex
 90
       18
102
RTVSPost2010Prop41ColorRGB
 90
        0
102
RTVSPost2010PropOp41
 70
     1
102
RTVSPost2010Prop42
 90
       50
102
RTVSPost2010PropOp42
 70
     1
102
RTVSPost2010Prop43
 90
        3
102
RTVSPost2010PropOp43
 70
     1
102
RTVSPost2010Prop44ColorIndex
 90
        5
102
RTVSPost2010Prop44ColorRGB
 90
      255
102
RTVSPost2010PropOp44
 70
     1
102
RTVSPost2010Prop45
280
     0
102
RTVSPost2010PropOp45
 70
     1
102
RTVSPost2010Prop46
 90
       50
102
RTVSPost2010PropOp46
 70
     1
102
RTVSPost2010Prop47
 90
       50
102
RTVSPost2010PropOp47
 70
     1
102
RTVSPost2010Prop48
 90
       50
102
RTVSPost2010PropOp48
 70
     1
102
RTVSPost2010Prop49
280
     0
102
RTVSPost2010PropOp49
 70
     1
102
RTVSPost2010Prop50
 90
       50
102
RTVSPost2010PropOp50
 70
     1
102
RTVSPost2010Prop51ColorIndex
 90
      256
102
RTVSPost2010Prop51ColorRGB
 90
-16777216
102
RTVSPost2010PropOp51
 70
     0
102
RTVSPost2010Prop52
140
1.0
102
RTVSPost2010PropOp52
 70
     0
102
RTVSPost2010Prop53
 90
        2
102
RTVSPost2010PropOp53
 70
     1
102
RTVSPost2010Prop54
  1
strokes_ogs.tif
102
RTVSPost2010PropOp54
 70
     1
102
RTVSPost2010Prop55
280
     0
102
RTVSPost2010PropOp55
 70
     1
102
RTVSPost2010Prop56
140
1.0
102
RTVSPost2010PropOp56
 70
     1
102
RTVSPost2010Prop57
140
1.0
102
RTVSPost2010PropOp57
 70
     1
102
RTVSPropertyOp0
 70
     1
102
RTVSPropertyOp1
 70
     1
102
RTVSPropertyOp2
 70
     1
102
RTVSPropertyOp3
 70
     1
102
RTVSPropertyOp4
 70
     1
102
RTVSPropertyOp5
 70
     1
102
RTVSPropertyOp6
 70
     1
102
RTVSPropertyOp7
 70
     1
102
RTVSPropertyOp8
 70
     1
102
RTVSPropertyOp9
 70
     1
102
RTVSPropertyOp10
 70
     1
102
RTVSPropertyOp11
 70
     1
102
RTVSPropertyOp12
 70
     1
102
RTVSPropertyOp13
 70
     1
102
RTVSPropertyOp14
 70
     1
102
RTVSPropertyOp15
 70
     1
102
RTVSPropertyOp16
 70
     1
102
RTVSPropertyOp17
 70
     1
102
RTVSPropertyOp18
 70
     1
102
RTVSPropertyOp19
 70
     1
102
RTVSPropertyOp20
 70
     1
102
RTVSPropertyOp21
 70
     1
102
RTVSPropertyOp22
 70
     1
102
RTVSPropertyOp23
 70
     1
102
RTVSPropertyOp24
 70
     1
102
RTVSPropertyOp25
 70
     1
102
RTVSPropertyOp26
 70
     1
102
RTVSPropertyOp27
 70
     1
102
RTVSPropertyOp28
 70
     1
102
RTVSPropertyOp29
 70
     1
102
RTVSPropertyOp30
 70
     1
102
RTVSPropertyOp31
 70
     1
102
RTVSPropertyOp32
 70
     1
102
RTVSPropertyOp33
 70
     1
102
RTVSPropertyOp34
 70
     1
102
RTVSPropertyOp35
 70
     1
102
RTVSPropertyOp36
 70
     1
102
RTVSPropertyOp37
 70
     1
102
RTVSPropertyOp38
 70
     1
102
RTVSPropertyOp39
 70
     1
102
RTVSPropertyOp40
 70
     1
102
RTVSPropertyOp41
 70
     1
102
RTVSPropertyOp42
 70
     1
102
RTVSPropertyOp43
 70
     1
102
RTVSPropertyOp44
 70
     1
102
RTVSPropertyOp45
 70
     1
102
RTVSPropertyOp46
 70
     1
102
RTVSPropertyOp47
 70
     1
102
RTVSPropertyOp48
 70
     1
102
RTVSPropertyOp49
 70
     1
102
RTVSPropertyOp50
 70
     1
102
RTVSPropertyOp51
 70
     0
102
RTVSPropertyOp52
 70
     0
102
RTVSPropertyOp53
 70
     1
102
RTVSPropertyOp54
 70
     1
102
RTVSPropertyOp55
 70
     1
102
RTVSPropertyOp56
 70
     1
102
RTVSPropertyOp57
 70
     1
102
RTVSPropertyOp58
 70
     1
102
RTVSPropertyOp59
 70
     1
102
RTVSPropertyOp60
 70
     1
102
RTVSPropertyOp61
 70
     1
102
RTVSPropertyOp62
 70
     1
  0
XRECORD
  5
3E5
102
{ACAD_REACTORS
330
3E4
102
}
330
3E4
100
AcDbXrecord
280
     1
102
RTVSPost2010Prop28
280
     0
102
RTVSPost2010PropOp28
 70
     1
102
RTVSPost2010Prop29
280
     1
102
RTVSPost2010PropOp29
 70
     1
102
RTVSPost2010Prop30
280
     1
102
RTVSPost2010PropOp30
 70
     1
102
RTVSPost2010Prop31
280
     0
102
RTVSPost2010PropOp31
 70
     1
102
RTVSPost2010Prop32
280
     0
102
RTVSPost2010PropOp32
 70
     1
102
RTVSPost2010Prop33
280
     0
102
RTVSPost2010PropOp33
 70
     1
102
RTVSPost2010Prop34
280
     0
102
RTVSPost2010PropOp34
 70
     1
102
RTVSPost2010Prop35
280
     0
102
RTVSPost2010PropOp35
 70
     1
102
RTVSPost2010Prop36
280
     0
102
RTVSPost2010PropOp36
 70
     1
102
RTVSPost2010Prop37
 90
       50
102
RTVSPost2010PropOp37
 70
     1
102
RTVSPost2010Prop38
140
0.0
102
RTVSPost2010PropOp38
 70
     1
102
RTVSPost2010Prop39
140
1.0
102
RTVSPost2010PropOp39
 70
     1
102
RTVSPost2010Prop40
 90
        0
102
RTVSPost2010PropOp40
 70
     1
102
RTVSPost2010Prop41ColorIndex
 90
       18
102
RTVSPost2010Prop41ColorRGB
 90
        0
102
RTVSPost2010PropOp41
 70
     1
102
RTVSPost2010Prop42
 90
       50
102
RTVSPost2010PropOp42
 70
     1
102
RTVSPost2010Prop43
 90
        3
102
RTVSPost2010PropOp43
 70
     1
102
RTVSPost2010Prop44ColorIndex
 90
        5
102
RTVSPost2010Prop44ColorRGB
 90
      255
102
RTVSPost2010PropOp44
 70
     1
102
RTVSPost2010Prop45
280
     0
102
RTVSPost2010PropOp45
 70
     1
102
RTVSPost2010Prop46
 90
       50
102
RTVSPost2010PropOp46
 70
     1
102
RTVSPost2010Prop47
 90
       50
102
RTVSPost2010PropOp47
 70
     1
102
RTVSPost2010Prop48
 90
       50
102
RTVSPost2010PropOp48
 70
     1
102
RTVSPost2010Prop49
280
     0
102
RTVSPost2010PropOp49
 70
     1
102
RTVSPost2010Prop50
 90
       50
102
RTVSPost2010PropOp50
 70
     1
102
RTVSPost2010Prop51ColorIndex
 90
      256
102
RTVSPost2010Prop51ColorRGB
 90
-16777216
102
RTVSPost2010PropOp51
 70
     0
102
RTVSPost2010Prop52
140
1.0
102
RTVSPost2010PropOp52
 70
     0
102
RTVSPost2010Prop53
 90
        2
102
RTVSPost2010PropOp53
 70
     1
102
RTVSPost2010Prop54
  1
strokes_ogs.tif
102
RTVSPost2010PropOp54
 70
     1
102
RTVSPost2010Prop55
280
     0
102
RTVSPost2010PropOp55
 70
     1
102
RTVSPost2010Prop56
140
1.0
102
RTVSPost2010PropOp56
 70
     1
102
RTVSPost2010Prop57
140
1.0
102
RTVSPost2010PropOp57
 70
     1
102
RTVSPropertyOp0
 70
     1
102
RTVSPropertyOp1
 70
     1
102
RTVSPropertyOp2
 70
     1
102
RTVSPropertyOp3
 70
     1
102
RTVSPropertyOp4
 70
     1
102
RTVSPropertyOp5
 70
     1
102
RTVSPropertyOp6
 70
     1
102
RTVSPropertyOp7
 70
     1
102
RTVSPropertyOp8
 70
     1
102
RTVSPropertyOp9
 70
     1
102
RTVSPropertyOp10
 70
     1
102
RTVSPropertyOp11
 70
     1
102
RTVSPropertyOp12
 70
     1
102
RTVSPropertyOp13
 70
     1
102
RTVSPropertyOp14
 70
     1
102
RTVSPropertyOp15
 70
     1
102
RTVSPropertyOp16
 70
     1
102
RTVSPropertyOp17
 70
     1
102
RTVSPropertyOp18
 70
     1
102
RTVSPropertyOp19
 70
     1
102
RTVSPropertyOp20
 70
     1
102
RTVSPropertyOp21
 70
     1
102
RTVSPropertyOp22
 70
     1
102
RTVSPropertyOp23
 70
     1
102
RTVSPropertyOp24
 70
     1
102
RTVSPropertyOp25
 70
     1
102
RTVSPropertyOp26
 70
     1
102
RTVSPropertyOp27
 70
     1
102
RTVSPropertyOp28
 70
     1
102
RTVSPropertyOp29
 70
     1
102
RTVSPropertyOp30
 70
     1
102
RTVSPropertyOp31
 70
     1
102
RTVSPropertyOp32
 70
     1
102
RTVSPropertyOp33
 70
     1
102
RTVSPropertyOp34
 70
     1
102
RTVSPropertyOp35
 70
     1
102
RTVSPropertyOp36
 70
     1
102
RTVSPropertyOp37
 70
     1
102
RTVSPropertyOp38
 70
     1
102
RTVSPropertyOp39
 70
     1
102
RTVSPropertyOp40
 70
     1
102
RTVSPropertyOp41
 70
     1
102
RTVSPropertyOp42
 70
     1
102
RTVSPropertyOp43
 70
     1
102
RTVSPropertyOp44
 70
     1
102
RTVSPropertyOp45
 70
     1
102
RTVSPropertyOp46
 70
     1
102
RTVSPropertyOp47
 70
     1
102
RTVSPropertyOp48
 70
     1
102
RTVSPropertyOp49
 70
     1
102
RTVSPropertyOp50
 70
     1
102
RTVSPropertyOp51
 70
     0
102
RTVSPropertyOp52
 70
     0
102
RTVSPropertyOp53
 70
     1
102
RTVSPropertyOp54
 70
     1
102
RTVSPropertyOp55
 70
     1
102
RTVSPropertyOp56
 70
     1
102
RTVSPropertyOp57
 70
     1
102
RTVSPropertyOp58
 70
     1
102
RTVSPropertyOp59
 70
     1
102
RTVSPropertyOp60
 70
     1
102
RTVSPropertyOp61
 70
     1
102
RTVSPropertyOp62
 70
     1
  0
XRECORD
  5
3DF
102
{ACAD_REACTORS
330
3DE
102
}
330
3DE
100
AcDbXrecord
280
     1
102
RTVSPost2010Prop28
280
     0
102
RTVSPost2010PropOp28
 70
     1
102
RTVSPost2010Prop29
280
     1
102
RTVSPost2010PropOp29
 70
     1
102
RTVSPost2010Prop30
280
     1
102
RTVSPost2010PropOp30
 70
     1
102
RTVSPost2010Prop31
280
     0
102
RTVSPost2010PropOp31
 70
     1
102
RTVSPost2010Prop32
280
     0
102
RTVSPost2010PropOp32
 70
     1
102
RTVSPost2010Prop33
280
     0
102
RTVSPost2010PropOp33
 70
     1
102
RTVSPost2010Prop34
280
     0
102
RTVSPost2010PropOp34
 70
     1
102
RTVSPost2010Prop35
280
     0
102
RTVSPost2010PropOp35
 70
     1
102
RTVSPost2010Prop36
280
     0
102
RTVSPost2010PropOp36
 70
     1
102
RTVSPost2010Prop37
 90
       50
102
RTVSPost2010PropOp37
 70
     1
102
RTVSPost2010Prop38
140
0.0
102
RTVSPost2010PropOp38
 70
     1
102
RTVSPost2010Prop39
140
1.0
102
RTVSPost2010PropOp39
 70
     1
102
RTVSPost2010Prop40
 90
        0
102
RTVSPost2010PropOp40
 70
     1
102
RTVSPost2010Prop41ColorIndex
 90
       18
102
RTVSPost2010Prop41ColorRGB
 90
        0
102
RTVSPost2010PropOp41
 70
     1
102
RTVSPost2010Prop42
 90
       50
102
RTVSPost2010PropOp42
 70
     1
102
RTVSPost2010Prop43
 90
        3
102
RTVSPost2010PropOp43
 70
     1
102
RTVSPost2010Prop44ColorIndex
 90
        5
102
RTVSPost2010Prop44ColorRGB
 90
      255
102
RTVSPost2010PropOp44
 70
     1
102
RTVSPost2010Prop45
280
     0
102
RTVSPost2010PropOp45
 70
     1
102
RTVSPost2010Prop46
 90
       50
102
RTVSPost2010PropOp46
 70
     1
102
RTVSPost2010Prop47
 90
       50
102
RTVSPost2010PropOp47
 70
     1
102
RTVSPost2010Prop48
 90
       50
102
RTVSPost2010PropOp48
 70
     1
102
RTVSPost2010Prop49
280
     0
102
RTVSPost2010PropOp49
 70
     1
102
RTVSPost2010Prop50
 90
       50
102
RTVSPost2010PropOp50
 70
     1
102
RTVSPost2010Prop51ColorIndex
 90
      256
102
RTVSPost2010Prop51ColorRGB
 90
-16777216
102
RTVSPost2010PropOp51
 70
     0
102
RTVSPost2010Prop52
140
1.0
102
RTVSPost2010PropOp52
 70
     0
102
RTVSPost2010Prop53
 90
        2
102
RTVSPost2010PropOp53
 70
     1
102
RTVSPost2010Prop54
  1
strokes_ogs.tif
102
RTVSPost2010PropOp54
 70
     1
102
RTVSPost2010Prop55
280
     0
102
RTVSPost2010PropOp55
 70
     1
102
RTVSPost2010Prop56
140
1.0
102
RTVSPost2010PropOp56
 70
     1
102
RTVSPost2010Prop57
140
1.0
102
RTVSPost2010PropOp57
 70
     1
102
RTVSPropertyOp0
 70
     1
102
RTVSPropertyOp1
 70
     1
102
RTVSPropertyOp2
 70
     1
102
RTVSPropertyOp3
 70
     1
102
RTVSPropertyOp4
 70
     1
102
RTVSPropertyOp5
 70
     1
102
RTVSPropertyOp6
 70
     1
102
RTVSPropertyOp7
 70
     1
102
RTVSPropertyOp8
 70
     1
102
RTVSPropertyOp9
 70
     1
102
RTVSPropertyOp10
 70
     1
102
RTVSPropertyOp11
 70
     1
102
RTVSPropertyOp12
 70
     1
102
RTVSPropertyOp13
 70
     1
102
RTVSPropertyOp14
 70
     1
102
RTVSPropertyOp15
 70
     1
102
RTVSPropertyOp16
 70
     1
102
RTVSPropertyOp17
 70
     1
102
RTVSPropertyOp18
 70
     1
102
RTVSPropertyOp19
 70
     1
102
RTVSPropertyOp20
 70
     1
102
RTVSPropertyOp21
 70
     1
102
RTVSPropertyOp22
 70
     1
102
RTVSPropertyOp23
 70
     1
102
RTVSPropertyOp24
 70
     1
102
RTVSPropertyOp25
 70
     1
102
RTVSPropertyOp26
 70
     1
102
RTVSPropertyOp27
 70
     1
102
RTVSPropertyOp28
 70
     1
102
RTVSPropertyOp29
 70
     1
102
RTVSPropertyOp30
 70
     1
102
RTVSPropertyOp31
 70
     1
102
RTVSPropertyOp32
 70
     1
102
RTVSPropertyOp33
 70
     1
102
RTVSPropertyOp34
 70
     1
102
RTVSPropertyOp35
 70
     1
102
RTVSPropertyOp36
 70
     1
102
RTVSPropertyOp37
 70
     1
102
RTVSPropertyOp38
 70
     1
102
RTVSPropertyOp39
 70
     1
102
RTVSPropertyOp40
 70
     1
102
RTVSPropertyOp41
 70
     1
102
RTVSPropertyOp42
 70
     1
102
RTVSPropertyOp43
 70
     1
102
RTVSPropertyOp44
 70
     1
102
RTVSPropertyOp45
 70
     1
102
RTVSPropertyOp46
 70
     1
102
RTVSPropertyOp47
 70
     1
102
RTVSPropertyOp48
 70
     1
102
RTVSPropertyOp49
 70
     1
102
RTVSPropertyOp50
 70
     1
102
RTVSPropertyOp51
 70
     0
102
RTVSPropertyOp52
 70
     0
102
RTVSPropertyOp53
 70
     1
102
RTVSPropertyOp54
 70
     1
102
RTVSPropertyOp55
 70
     1
102
RTVSPropertyOp56
 70
     1
102
RTVSPropertyOp57
 70
     1
102
RTVSPropertyOp58
 70
     1
102
RTVSPropertyOp59
 70
     1
102
RTVSPropertyOp60
 70
     1
102
RTVSPropertyOp61
 70
     1
102
RTVSPropertyOp62
 70
     1
  0
XRECORD
  5
3E1
102
{ACAD_REACTORS
330
3E0
102
}
330
3E0
100
AcDbXrecord
280
     1
102
RTVSPost2010Prop28
280
     0
102
RTVSPost2010PropOp28
 70
     1
102
RTVSPost2010Prop29
280
     1
102
RTVSPost2010PropOp29
 70
     1
102
RTVSPost2010Prop30
280
     1
102
RTVSPost2010PropOp30
 70
     1
102
RTVSPost2010Prop31
280
     0
102
RTVSPost2010PropOp31
 70
     1
102
RTVSPost2010Prop32
280
     0
102
RTVSPost2010PropOp32
 70
     1
102
RTVSPost2010Prop33
280
     0
102
RTVSPost2010PropOp33
 70
     1
102
RTVSPost2010Prop34
280
     0
102
RTVSPost2010PropOp34
 70
     1
102
RTVSPost2010Prop35
280
     0
102
RTVSPost2010PropOp35
 70
     1
102
RTVSPost2010Prop36
280
     0
102
RTVSPost2010PropOp36
 70
     1
102
RTVSPost2010Prop37
 90
       50
102
RTVSPost2010PropOp37
 70
     1
102
RTVSPost2010Prop38
140
0.0
102
RTVSPost2010PropOp38
 70
     1
102
RTVSPost2010Prop39
140
1.0
102
RTVSPost2010PropOp39
 70
     1
102
RTVSPost2010Prop40
 90
        0
102
RTVSPost2010PropOp40
 70
     1
102
RTVSPost2010Prop41ColorIndex
 90
       18
102
RTVSPost2010Prop41ColorRGB
 90
        0
102
RTVSPost2010PropOp41
 70
     1
102
RTVSPost2010Prop42
 90
       50
102
RTVSPost2010PropOp42
 70
     1
102
RTVSPost2010Prop43
 90
        3
102
RTVSPost2010PropOp43
 70
     1
102
RTVSPost2010Prop44ColorIndex
 90
        5
102
RTVSPost2010Prop44ColorRGB
 90
      255
102
RTVSPost2010PropOp44
 70
     1
102
RTVSPost2010Prop45
280
     0
102
RTVSPost2010PropOp45
 70
     1
102
RTVSPost2010Prop46
 90
       50
102
RTVSPost2010PropOp46
 70
     1
102
RTVSPost2010Prop47
 90
       50
102
RTVSPost2010PropOp47
 70
     1
102
RTVSPost2010Prop48
 90
       50
102
RTVSPost2010PropOp48
 70
     1
102
RTVSPost2010Prop49
280
     0
102
RTVSPost2010PropOp49
 70
     1
102
RTVSPost2010Prop50
 90
       50
102
RTVSPost2010PropOp50
 70
     1
102
RTVSPost2010Prop51ColorIndex
 90
      256
102
RTVSPost2010Prop51ColorRGB
 90
-16777216
102
RTVSPost2010PropOp51
 70
     0
102
RTVSPost2010Prop52
140
1.0
102
RTVSPost2010PropOp52
 70
     0
102
RTVSPost2010Prop53
 90
        2
102
RTVSPost2010PropOp53
 70
     1
102
RTVSPost2010Prop54
  1
strokes_ogs.tif
102
RTVSPost2010PropOp54
 70
     1
102
RTVSPost2010Prop55
280
     0
102
RTVSPost2010PropOp55
 70
     1
102
RTVSPost2010Prop56
140
1.0
102
RTVSPost2010PropOp56
 70
     1
102
RTVSPost2010Prop57
140
1.0
102
RTVSPost2010PropOp57
 70
     1
102
RTVSPropertyOp0
 70
     1
102
RTVSPropertyOp1
 70
     1
102
RTVSPropertyOp2
 70
     1
102
RTVSPropertyOp3
 70
     1
102
RTVSPropertyOp4
 70
     1
102
RTVSPropertyOp5
 70
     1
102
RTVSPropertyOp6
 70
     1
102
RTVSPropertyOp7
 70
     1
102
RTVSPropertyOp8
 70
     1
102
RTVSPropertyOp9
 70
     1
102
RTVSPropertyOp10
 70
     1
102
RTVSPropertyOp11
 70
     1
102
RTVSPropertyOp12
 70
     1
102
RTVSPropertyOp13
 70
     1
102
RTVSPropertyOp14
 70
     1
102
RTVSPropertyOp15
 70
     1
102
RTVSPropertyOp16
 70
     1
102
RTVSPropertyOp17
 70
     1
102
RTVSPropertyOp18
 70
     1
102
RTVSPropertyOp19
 70
     1
102
RTVSPropertyOp20
 70
     1
102
RTVSPropertyOp21
 70
     1
102
RTVSPropertyOp22
 70
     1
102
RTVSPropertyOp23
 70
     1
102
RTVSPropertyOp24
 70
     1
102
RTVSPropertyOp25
 70
     1
102
RTVSPropertyOp26
 70
     1
102
RTVSPropertyOp27
 70
     1
102
RTVSPropertyOp28
 70
     1
102
RTVSPropertyOp29
 70
     1
102
RTVSPropertyOp30
 70
     1
102
RTVSPropertyOp31
 70
     1
102
RTVSPropertyOp32
 70
     1
102
RTVSPropertyOp33
 70
     1
102
RTVSPropertyOp34
 70
     1
102
RTVSPropertyOp35
 70
     1
102
RTVSPropertyOp36
 70
     1
102
RTVSPropertyOp37
 70
     1
102
RTVSPropertyOp38
 70
     1
102
RTVSPropertyOp39
 70
     1
102
RTVSPropertyOp40
 70
     1
102
RTVSPropertyOp41
 70
     1
102
RTVSPropertyOp42
 70
     1
102
RTVSPropertyOp43
 70
     1
102
RTVSPropertyOp44
 70
     1
102
RTVSPropertyOp45
 70
     1
102
RTVSPropertyOp46
 70
     1
102
RTVSPropertyOp47
 70
     1
102
RTVSPropertyOp48
 70
     1
102
RTVSPropertyOp49
 70
     1
102
RTVSPropertyOp50
 70
     1
102
RTVSPropertyOp51
 70
     0
102
RTVSPropertyOp52
 70
     0
102
RTVSPropertyOp53
 70
     1
102
RTVSPropertyOp54
 70
     1
102
RTVSPropertyOp55
 70
     1
102
RTVSPropertyOp56
 70
     1
102
RTVSPropertyOp57
 70
     1
102
RTVSPropertyOp58
 70
     1
102
RTVSPropertyOp59
 70
     1
102
RTVSPropertyOp60
 70
     1
102
RTVSPropertyOp61
 70
     1
102
RTVSPropertyOp62
 70
     1
  0
XRECORD
  5
3D1
102
{ACAD_REACTORS
330
3D0
102
}
330
3D0
100
AcDbXrecord
280
     1
102
RTVSPost2010Prop28
280
     0
102
RTVSPost2010PropOp28
 70
     1
102
RTVSPost2010Prop29
280
     1
102
RTVSPost2010PropOp29
 70
     1
102
RTVSPost2010Prop30
280
     1
102
RTVSPost2010PropOp30
 70
     1
102
RTVSPost2010Prop31
280
     0
102
RTVSPost2010PropOp31
 70
     1
102
RTVSPost2010Prop32
280
     0
102
RTVSPost2010PropOp32
 70
     1
102
RTVSPost2010Prop33
280
     0
102
RTVSPost2010PropOp33
 70
     1
102
RTVSPost2010Prop34
280
     0
102
RTVSPost2010PropOp34
 70
     1
102
RTVSPost2010Prop35
280
     0
102
RTVSPost2010PropOp35
 70
     1
102
RTVSPost2010Prop36
280
     0
102
RTVSPost2010PropOp36
 70
     1
102
RTVSPost2010Prop37
 90
       50
102
RTVSPost2010PropOp37
 70
     1
102
RTVSPost2010Prop38
140
0.0
102
RTVSPost2010PropOp38
 70
     1
102
RTVSPost2010Prop39
140
1.0
102
RTVSPost2010PropOp39
 70
     1
102
RTVSPost2010Prop40
 90
        0
102
RTVSPost2010PropOp40
 70
     1
102
RTVSPost2010Prop41ColorIndex
 90
       18
102
RTVSPost2010Prop41ColorRGB
 90
        0
102
RTVSPost2010PropOp41
 70
     1
102
RTVSPost2010Prop42
 90
       50
102
RTVSPost2010PropOp42
 70
     1
102
RTVSPost2010Prop43
 90
        3
102
RTVSPost2010PropOp43
 70
     1
102
RTVSPost2010Prop44ColorIndex
 90
        5
102
RTVSPost2010Prop44ColorRGB
 90
      255
102
RTVSPost2010PropOp44
 70
     1
102
RTVSPost2010Prop45
280
     0
102
RTVSPost2010PropOp45
 70
     1
102
RTVSPost2010Prop46
 90
       50
102
RTVSPost2010PropOp46
 70
     1
102
RTVSPost2010Prop47
 90
       50
102
RTVSPost2010PropOp47
 70
     1
102
RTVSPost2010Prop48
 90
       50
102
RTVSPost2010PropOp48
 70
     1
102
RTVSPost2010Prop49
280
     0
102
RTVSPost2010PropOp49
 70
     1
102
RTVSPost2010Prop50
 90
       50
102
RTVSPost2010PropOp50
 70
     1
102
RTVSPost2010Prop51ColorIndex
 90
      256
102
RTVSPost2010Prop51ColorRGB
 90
-16777216
102
RTVSPost2010PropOp51
 70
     0
102
RTVSPost2010Prop52
140
1.0
102
RTVSPost2010PropOp52
 70
     0
102
RTVSPost2010Prop53
 90
        2
102
RTVSPost2010PropOp53
 70
     1
102
RTVSPost2010Prop54
  1
strokes_ogs.tif
102
RTVSPost2010PropOp54
 70
     1
102
RTVSPost2010Prop55
280
     0
102
RTVSPost2010PropOp55
 70
     1
102
RTVSPost2010Prop56
140
1.0
102
RTVSPost2010PropOp56
 70
     1
102
RTVSPost2010Prop57
140
1.0
102
RTVSPost2010PropOp57
 70
     1
102
RTVSPropertyOp0
 70
     1
102
RTVSPropertyOp1
 70
     1
102
RTVSPropertyOp2
 70
     1
102
RTVSPropertyOp3
 70
     1
102
RTVSPropertyOp4
 70
     1
102
RTVSPropertyOp5
 70
     1
102
RTVSPropertyOp6
 70
     1
102
RTVSPropertyOp7
 70
     1
102
RTVSPropertyOp8
 70
     1
102
RTVSPropertyOp9
 70
     1
102
RTVSPropertyOp10
 70
     1
102
RTVSPropertyOp11
 70
     1
102
RTVSPropertyOp12
 70
     1
102
RTVSPropertyOp13
 70
     1
102
RTVSPropertyOp14
 70
     1
102
RTVSPropertyOp15
 70
     1
102
RTVSPropertyOp16
 70
     1
102
RTVSPropertyOp17
 70
     1
102
RTVSPropertyOp18
 70
     1
102
RTVSPropertyOp19
 70
     1
102
RTVSPropertyOp20
 70
     1
102
RTVSPropertyOp21
 70
     1
102
RTVSPropertyOp22
 70
     1
102
RTVSPropertyOp23
 70
     1
102
RTVSPropertyOp24
 70
     1
102
RTVSPropertyOp25
 70
     1
102
RTVSPropertyOp26
 70
     1
102
RTVSPropertyOp27
 70
     1
102
RTVSPropertyOp28
 70
     1
102
RTVSPropertyOp29
 70
     1
102
RTVSPropertyOp30
 70
     1
102
RTVSPropertyOp31
 70
     1
102
RTVSPropertyOp32
 70
     1
102
RTVSPropertyOp33
 70
     1
102
RTVSPropertyOp34
 70
     1
102
RTVSPropertyOp35
 70
     1
102
RTVSPropertyOp36
 70
     1
102
RTVSPropertyOp37
 70
     1
102
RTVSPropertyOp38
 70
     1
102
RTVSPropertyOp39
 70
     1
102
RTVSPropertyOp40
 70
     1
102
RTVSPropertyOp41
 70
     1
102
RTVSPropertyOp42
 70
     1
102
RTVSPropertyOp43
 70
     1
102
RTVSPropertyOp44
 70
     1
102
RTVSPropertyOp45
 70
     1
102
RTVSPropertyOp46
 70
     1
102
RTVSPropertyOp47
 70
     1
102
RTVSPropertyOp48
 70
     1
102
RTVSPropertyOp49
 70
     1
102
RTVSPropertyOp50
 70
     1
102
RTVSPropertyOp51
 70
     0
102
RTVSPropertyOp52
 70
     0
102
RTVSPropertyOp53
 70
     1
102
RTVSPropertyOp54
 70
     1
102
RTVSPropertyOp55
 70
     1
102
RTVSPropertyOp56
 70
     1
102
RTVSPropertyOp57
 70
     1
102
RTVSPropertyOp58
 70
     1
102
RTVSPropertyOp59
 70
     1
102
RTVSPropertyOp60
 70
     1
102
RTVSPropertyOp61
 70
     1
102
RTVSPropertyOp62
 70
     1
  0
XRECORD
  5
3C3
102
{ACAD_REACTORS
330
3C2
102
}
330
3C2
100
AcDbXrecord
280
     1
102
RTVSPost2010Prop28
280
     0
102
RTVSPost2010PropOp28
 70
     1
102
RTVSPost2010Prop29
280
     1
102
RTVSPost2010PropOp29
 70
     1
102
RTVSPost2010Prop30
280
     1
102
RTVSPost2010PropOp30
 70
     1
102
RTVSPost2010Prop31
280
     0
102
RTVSPost2010PropOp31
 70
     1
102
RTVSPost2010Prop32
280
     0
102
RTVSPost2010PropOp32
 70
     1
102
RTVSPost2010Prop33
280
     0
102
RTVSPost2010PropOp33
 70
     1
102
RTVSPost2010Prop34
280
     0
102
RTVSPost2010PropOp34
 70
     1
102
RTVSPost2010Prop35
280
     0
102
RTVSPost2010PropOp35
 70
     1
102
RTVSPost2010Prop36
280
     0
102
RTVSPost2010PropOp36
 70
     1
102
RTVSPost2010Prop37
 90
       50
102
RTVSPost2010PropOp37
 70
     1
102
RTVSPost2010Prop38
140
0.0
102
RTVSPost2010PropOp38
 70
     1
102
RTVSPost2010Prop39
140
1.0
102
RTVSPost2010PropOp39
 70
     1
102
RTVSPost2010Prop40
 90
        0
102
RTVSPost2010PropOp40
 70
     1
102
RTVSPost2010Prop41ColorIndex
 90
       18
102
RTVSPost2010Prop41ColorRGB
 90
        0
102
RTVSPost2010PropOp41
 70
     1
102
RTVSPost2010Prop42
 90
       50
102
RTVSPost2010PropOp42
 70
     1
102
RTVSPost2010Prop43
 90
        3
102
RTVSPost2010PropOp43
 70
     1
102
RTVSPost2010Prop44ColorIndex
 90
        5
102
RTVSPost2010Prop44ColorRGB
 90
      255
102
RTVSPost2010PropOp44
 70
     1
102
RTVSPost2010Prop45
280
     0
102
RTVSPost2010PropOp45
 70
     1
102
RTVSPost2010Prop46
 90
       50
102
RTVSPost2010PropOp46
 70
     1
102
RTVSPost2010Prop47
 90
       50
102
RTVSPost2010PropOp47
 70
     1
102
RTVSPost2010Prop48
 90
       50
102
RTVSPost2010PropOp48
 70
     1
102
RTVSPost2010Prop49
280
     0
102
RTVSPost2010PropOp49
 70
     1
102
RTVSPost2010Prop50
 90
       50
102
RTVSPost2010PropOp50
 70
     1
102
RTVSPost2010Prop51ColorIndex
 90
      256
102
RTVSPost2010Prop51ColorRGB
 90
-16777216
102
RTVSPost2010PropOp51
 70
     0
102
RTVSPost2010Prop52
140
1.0
102
RTVSPost2010PropOp52
 70
     0
102
RTVSPost2010Prop53
 90
        2
102
RTVSPost2010PropOp53
 70
     1
102
RTVSPost2010Prop54
  1
strokes_ogs.tif
102
RTVSPost2010PropOp54
 70
     1
102
RTVSPost2010Prop55
280
     0
102
RTVSPost2010PropOp55
 70
     1
102
RTVSPost2010Prop56
140
1.0
102
RTVSPost2010PropOp56
 70
     1
102
RTVSPost2010Prop57
140
1.0
102
RTVSPost2010PropOp57
 70
     1
102
RTVSPropertyOp0
 70
     1
102
RTVSPropertyOp1
 70
     1
102
RTVSPropertyOp2
 70
     1
102
RTVSPropertyOp3
 70
     1
102
RTVSPropertyOp4
 70
     1
102
RTVSPropertyOp5
 70
     1
102
RTVSPropertyOp6
 70
     1
102
RTVSPropertyOp7
 70
     1
102
RTVSPropertyOp8
 70
     1
102
RTVSPropertyOp9
 70
     1
102
RTVSPropertyOp10
 70
     1
102
RTVSPropertyOp11
 70
     1
102
RTVSPropertyOp12
 70
     1
102
RTVSPropertyOp13
 70
     1
102
RTVSPropertyOp14
 70
     1
102
RTVSPropertyOp15
 70
     1
102
RTVSPropertyOp16
 70
     1
102
RTVSPropertyOp17
 70
     1
102
RTVSPropertyOp18
 70
     1
102
RTVSPropertyOp19
 70
     1
102
RTVSPropertyOp20
 70
     1
102
RTVSPropertyOp21
 70
     1
102
RTVSPropertyOp22
 70
     1
102
RTVSPropertyOp23
 70
     1
102
RTVSPropertyOp24
 70
     1
102
RTVSPropertyOp25
 70
     1
102
RTVSPropertyOp26
 70
     1
102
RTVSPropertyOp27
 70
     1
102
RTVSPropertyOp28
 70
     1
102
RTVSPropertyOp29
 70
     1
102
RTVSPropertyOp30
 70
     1
102
RTVSPropertyOp31
 70
     1
102
RTVSPropertyOp32
 70
     1
102
RTVSPropertyOp33
 70
     1
102
RTVSPropertyOp34
 70
     1
102
RTVSPropertyOp35
 70
     1
102
RTVSPropertyOp36
 70
     1
102
RTVSPropertyOp37
 70
     1
102
RTVSPropertyOp38
 70
     1
102
RTVSPropertyOp39
 70
     1
102
RTVSPropertyOp40
 70
     1
102
RTVSPropertyOp41
 70
     1
102
RTVSPropertyOp42
 70
     1
102
RTVSPropertyOp43
 70
     1
102
RTVSPropertyOp44
 70
     1
102
RTVSPropertyOp45
 70
     1
102
RTVSPropertyOp46
 70
     1
102
RTVSPropertyOp47
 70
     1
102
RTVSPropertyOp48
 70
     1
102
RTVSPropertyOp49
 70
     1
102
RTVSPropertyOp50
 70
     1
102
RTVSPropertyOp51
 70
     0
102
RTVSPropertyOp52
 70
     0
102
RTVSPropertyOp53
 70
     1
102
RTVSPropertyOp54
 70
     1
102
RTVSPropertyOp55
 70
     1
102
RTVSPropertyOp56
 70
     1
102
RTVSPropertyOp57
 70
     1
102
RTVSPropertyOp58
 70
     1
102
RTVSPropertyOp59
 70
     1
102
RTVSPropertyOp60
 70
     1
102
RTVSPropertyOp61
 70
     1
102
RTVSPropertyOp62
 70
     1
  0
XRECORD
  5
3E3
102
{ACAD_REACTORS
330
3E2
102
}
330
3E2
100
AcDbXrecord
280
     1
102
RTVSPost2010Prop28
280
     0
102
RTVSPost2010PropOp28
 70
     1
102
RTVSPost2010Prop29
280
     1
102
RTVSPost2010PropOp29
 70
     1
102
RTVSPost2010Prop30
280
     1
102
RTVSPost2010PropOp30
 70
     1
102
RTVSPost2010Prop31
280
     0
102
RTVSPost2010PropOp31
 70
     1
102
RTVSPost2010Prop32
280
     0
102
RTVSPost2010PropOp32
 70
     1
102
RTVSPost2010Prop33
280
     0
102
RTVSPost2010PropOp33
 70
     1
102
RTVSPost2010Prop34
280
     0
102
RTVSPost2010PropOp34
 70
     1
102
RTVSPost2010Prop35
280
     0
102
RTVSPost2010PropOp35
 70
     1
102
RTVSPost2010Prop36
280
     0
102
RTVSPost2010PropOp36
 70
     1
102
RTVSPost2010Prop37
 90
       50
102
RTVSPost2010PropOp37
 70
     1
102
RTVSPost2010Prop38
140
0.0
102
RTVSPost2010PropOp38
 70
     1
102
RTVSPost2010Prop39
140
1.0
102
RTVSPost2010PropOp39
 70
     1
102
RTVSPost2010Prop40
 90
        0
102
RTVSPost2010PropOp40
 70
     1
102
RTVSPost2010Prop41ColorIndex
 90
       18
102
RTVSPost2010Prop41ColorRGB
 90
        0
102
RTVSPost2010PropOp41
 70
     1
102
RTVSPost2010Prop42
 90
       50
102
RTVSPost2010PropOp42
 70
     1
102
RTVSPost2010Prop43
 90
        3
102
RTVSPost2010PropOp43
 70
     1
102
RTVSPost2010Prop44ColorIndex
 90
        5
102
RTVSPost2010Prop44ColorRGB
 90
      255
102
RTVSPost2010PropOp44
 70
     1
102
RTVSPost2010Prop45
280
     0
102
RTVSPost2010PropOp45
 70
     1
102
RTVSPost2010Prop46
 90
       50
102
RTVSPost2010PropOp46
 70
     1
102
RTVSPost2010Prop47
 90
       50
102
RTVSPost2010PropOp47
 70
     1
102
RTVSPost2010Prop48
 90
       50
102
RTVSPost2010PropOp48
 70
     1
102
RTVSPost2010Prop49
280
     0
102
RTVSPost2010PropOp49
 70
     1
102
RTVSPost2010Prop50
 90
       50
102
RTVSPost2010PropOp50
 70
     1
102
RTVSPost2010Prop51ColorIndex
 90
      256
102
RTVSPost2010Prop51ColorRGB
 90
-16777216
102
RTVSPost2010PropOp51
 70
     0
102
RTVSPost2010Prop52
140
1.0
102
RTVSPost2010PropOp52
 70
     0
102
RTVSPost2010Prop53
 90
        2
102
RTVSPost2010PropOp53
 70
     1
102
RTVSPost2010Prop54
  1
strokes_ogs.tif
102
RTVSPost2010PropOp54
 70
     1
102
RTVSPost2010Prop55
280
     0
102
RTVSPost2010PropOp55
 70
     1
102
RTVSPost2010Prop56
140
1.0
102
RTVSPost2010PropOp56
 70
     1
102
RTVSPost2010Prop57
140
1.0
102
RTVSPost2010PropOp57
 70
     1
102
RTVSPropertyOp0
 70
     1
102
RTVSPropertyOp1
 70
     1
102
RTVSPropertyOp2
 70
     1
102
RTVSPropertyOp3
 70
     1
102
RTVSPropertyOp4
 70
     1
102
RTVSPropertyOp5
 70
     1
102
RTVSPropertyOp6
 70
     1
102
RTVSPropertyOp7
 70
     1
102
RTVSPropertyOp8
 70
     1
102
RTVSPropertyOp9
 70
     1
102
RTVSPropertyOp10
 70
     1
102
RTVSPropertyOp11
 70
     1
102
RTVSPropertyOp12
 70
     1
102
RTVSPropertyOp13
 70
     1
102
RTVSPropertyOp14
 70
     1
102
RTVSPropertyOp15
 70
     1
102
RTVSPropertyOp16
 70
     1
102
RTVSPropertyOp17
 70
     1
102
RTVSPropertyOp18
 70
     1
102
RTVSPropertyOp19
 70
     1
102
RTVSPropertyOp20
 70
     1
102
RTVSPropertyOp21
 70
     1
102
RTVSPropertyOp22
 70
     1
102
RTVSPropertyOp23
 70
     1
102
RTVSPropertyOp24
 70
     1
102
RTVSPropertyOp25
 70
     1
102
RTVSPropertyOp26
 70
     1
102
RTVSPropertyOp27
 70
     1
102
RTVSPropertyOp28
 70
     1
102
RTVSPropertyOp29
 70
     1
102
RTVSPropertyOp30
 70
     1
102
RTVSPropertyOp31
 70
     1
102
RTVSPropertyOp32
 70
     1
102
RTVSPropertyOp33
 70
     1
102
RTVSPropertyOp34
 70
     1
102
RTVSPropertyOp35
 70
     1
102
RTVSPropertyOp36
 70
     1
102
RTVSPropertyOp37
 70
     1
102
RTVSPropertyOp38
 70
     1
102
RTVSPropertyOp39
 70
     1
102
RTVSPropertyOp40
 70
     1
102
RTVSPropertyOp41
 70
     1
102
RTVSPropertyOp42
 70
     1
102
RTVSPropertyOp43
 70
     1
102
RTVSPropertyOp44
 70
     1
102
RTVSPropertyOp45
 70
     1
102
RTVSPropertyOp46
 70
     1
102
RTVSPropertyOp47
 70
     1
102
RTVSPropertyOp48
 70
     1
102
RTVSPropertyOp49
 70
     1
102
RTVSPropertyOp50
 70
     1
102
RTVSPropertyOp51
 70
     0
102
RTVSPropertyOp52
 70
     0
102
RTVSPropertyOp53
 70
     1
102
RTVSPropertyOp54
 70
     1
102
RTVSPropertyOp55
 70
     1
102
RTVSPropertyOp56
 70
     1
102
RTVSPropertyOp57
 70
     1
102
RTVSPropertyOp58
 70
     1
102
RTVSPropertyOp59
 70
     1
102
RTVSPropertyOp60
 70
     1
102
RTVSPropertyOp61
 70
     1
102
RTVSPropertyOp62
 70
     1
  0
ENDSEC
  0
EOF
