  0
SECTION
  2
HEADER
  9
$ACADVER
  1
AC1009
  9
$INSBASE
 10
0.0
 20
0.0
 30
0.0
  9
$EXTMIN
 10
-236.847871627086505
 20
-62.97778243485606
 30
0.0
  9
$EXTMAX
 10
-66.9363206352197722
 20
-0.2111264096661687
 30
0.0
  9
$LIMMIN
 10
0.0
 20
0.0
  9
$LIMMAX
 10
420.0
 20
297.0
  9
$ORTHOMODE
 70
     1
  9
$REGENMODE
 70
     1
  9
$FILLMODE
 70
     1
  9
$QTEXTMODE
 70
     0
  9
$MIRRTEXT
 70
     0
  9
$DRAGMODE
 70
     2
  9
$LTSCALE
 40
10.0
  9
$OSMODE
 70
  4095
  9
$ATTMODE
 70
     1
  9
$TEXTSIZE
 40
2.5
  9
$TRACEWID
 40
1.0
  9
$TEXTSTYLE
  7
STANDARD
  9
$CLAYER
  8
0
  9
$CELTYPE
  6
BYLAYER
  9
$CECOLOR
 62
   256
  9
$DIMSCALE
 40
1.0
  9
$DIMASZ
 40
2.5
  9
$DIMEXO
 40
1.0
  9
$DIMDLI
 40
1.0
  9
$DIMRND
 40
0.0
  9
$DIMDLE
 40
0.0
  9
$DIMEXE
 40
1.0
  9
$DIMTP
 40
0.0
  9
$DIMTM
 40
0.0
  9
$DIMTXT
 40
2.5
  9
$DIMCEN
 40
2.5
  9
$DIMTSZ
 40
0.0
  9
$DIMTOL
 70
     0
  9
$DIMLIM
 70
     0
  9
$DIMTIH
 70
     0
  9
$DIMTOH
 70
     0
  9
$DIMSE1
 70
     0
  9
$DIMSE2
 70
     0
  9
$DIMTAD
 70
     1
  9
$DIMZIN
 70
    10
  9
$DIMBLK
  1

  9
$DIMASO
 70
     0
  9
$DIMSHO
 70
     1
  9
$DIMPOST
  1

  9
$DIMAPOST
  1

  9
$DIMALT
 70
     0
  9
$DIMALTD
 70
     3
  9
$DIMALTF
 40
0.03937007874016
  9
$DIMLFAC
 40
1.0
  9
$DIMTOFL
 70
     1
  9
$DIMTVP
 40
0.0
  9
$DIMTIX
 70
     0
  9
$DIMSOXD
 70
     0
  9
$DIMSAH
 70
     0
  9
$DIMBLK1
  1

  9
$DIMBLK2
  1

  9
$DIMSTYLE
  2
ISO-25
  9
$DIMCLRD
 70
     0
  9
$DIMCLRE
 70
     0
  9
$DIMCLRT
 70
     0
  9
$DIMTFAC
 40
1.0
  9
$DIMGAP
 40
0.625
  9
$LUNITS
 70
     2
  9
$LUPREC
 70
     4
  9
$SKETCHINC
 40
1.0
  9
$FILLETRAD
 40
0.0
  9
$AUNITS
 70
     0
  9
$AUPREC
 70
     0
  9
$MENU
  1
.
  9
$ELEVATION
 40
0.0
  9
$PELEVATION
 40
0.0
  9
$THICKNESS
 40
0.0
  9
$LIMCHECK
 70
     0
  9
$BLIPMODE
 70
     0
  9
$CHAMFERA
 40
0.5
  9
$CHAMFERB
 40
0.5
  9
$SKPOLY
 70
     0
  9
$TDCREATE
 40
2457332.5054629631340504
  9
$TDUPDATE
 40
2460007.3797106482088566
  9
$TDINDWG
 40
1.274162419
  9
$TDUSRTIMER
 40
1.274155162
  9
$USRTIMER
 70
     1
  9
$ANGBASE
 50
0.0
  9
$ANGDIR
 70
     0
  9
$PDMODE
 70
     0
  9
$PDSIZE
 40
0.0
  9
$PLINEWID
 40
0.0
  9
$COORDS
 70
     1
  9
$SPLFRAME
 70
     0
  9
$SPLINETYPE
 70
     6
  9
$SPLINESEGS
 70
     8
  9
$ATTDIA
 70
     1
  9
$ATTREQ
 70
     1
  9
$HANDLING
 70
     1
  9
$HANDSEED
  5
8D0C
  9
$SURFTAB1
 70
     6
  9
$SURFTAB2
 70
     6
  9
$SURFTYPE
 70
     6
  9
$SURFU
 70
     6
  9
$SURFV
 70
     6
  9
$UCSNAME
  2

  9
$UCSORG
 10
0.0
 20
0.0
 30
0.0
  9
$UCSXDIR
 10
1.0
 20
0.0
 30
0.0
  9
$UCSYDIR
 10
0.0
 20
1.0
 30
0.0
  9
$PUCSNAME
  2

  9
$PUCSORG
 10
0.0
 20
0.0
 30
0.0
  9
$PUCSXDIR
 10
1.0
 20
0.0
 30
0.0
  9
$PUCSYDIR
 10
0.0
 20
1.0
 30
0.0
  9
$USERI1
 70
     0
  9
$USERI2
 70
     0
  9
$USERI3
 70
     0
  9
$USERI4
 70
     0
  9
$USERI5
 70
     0
  9
$USERR1
 40
0.0
  9
$USERR2
 40
0.0
  9
$USERR3
 40
0.0
  9
$USERR4
 40
0.0
  9
$USERR5
 40
0.0
  9
$WORLDVIEW
 70
     1
  9
$SHADEDGE
 70
     3
  9
$SHADEDIF
 70
    70
  9
$TILEMODE
 70
     1
  9
$MAXACTVP
 70
    64
  9
$PLIMCHECK
 70
     0
  9
$PEXTMIN
 10
25.6999999999999886
 20
19.5
 30
0.0
  9
$PEXTMAX
 10
231.3000000000000114
 20
175.5
 30
0.0
  9
$PLIMMIN
 10
-20.0
 20
-7.5
  9
$PLIMMAX
 10
277.0
 20
202.5
  9
$UNITMODE
 70
     0
  9
$VISRETAIN
 70
     1
  9
$PLINEGEN
 70
     0
  9
$PSLTSCALE
 70
     1
  0
ENDSEC
  0
SECTION
  2
TABLES
  0
TABLE
  2
VPORT
 70
     1
  0
VPORT
  2
*ACTIVE
 70
     0
 10
0.0
 20
0.0
 11
1.0
 21
1.0
 12
-163.4519229039813126
 22
-27.8189147659261913
 13
0.0
 23
0.0
 14
10.0
 24
10.0
 15
10.0
 25
10.0
 16
0.0
 26
0.0
 36
1.0
 17
0.0
 27
0.0
 37
0.0
 40
98.201756246176501
 41
2.2927120669056151
 42
50.0
 43
0.0
 44
0.0
 50
0.0
 51
0.0
 71
     0
 72
 20000
 73
     1
 74
     2
 75
     0
 76
     0
 77
     0
 78
     0
  0
ENDTAB
  0
TABLE
  2
LTYPE
 70
     2
  0
LTYPE
  2
CONTINUOUS
 70
     0
  3
Solid line
 72
    65
 73
     0
 40
0.0
  0
ENDTAB
  0
TABLE
  2
LAYER
 70
    10
  0
LAYER
  2
0
 70
     0
 62
     7
  6
CONTINUOUS
  0
LAYER
  2
DEFPOINTS
 70
     0
 62
     7
  6
CONTINUOUS
  0
LAYER
  2
COS
 70
     0
 62
     4
  6
CONTINUOUS
  0
LAYER
  2
CAP
 70
     0
 62
     4
  6
CONTINUOUS
  0
LAYER
  2
COTES
 70
     0
 62
     2
  6
CONTINUOUS
  0
LAYER
  2
REFER\U+00C8NCIA
 70
     0
 62
     5
  6
CONTINUOUS
  0
LAYER
  2
MAQUINA
 70
     1
 62
     7
  6
CONTINUOUS
  0
LAYER
  2
RESERVA
 70
     0
 62
     7
  6
CONTINUOUS
  0
LAYER
  2
CAIXETI
 70
     0
 62
     7
  6
CONTINUOUS
  0
LAYER
  2
ARISTAS_VISIBLES_ISO_
 70
     0
 62
     7
  6
CONTINUOUS
  0
ENDTAB
  0
TABLE
  2
STYLE
 70
     3
  0
STYLE
  2
STANDARD
 70
     0
 40
0.0
 41
1.0
 50
0.0
 71
     0
 42
2.5
  3
SIMPLEX.SHX
  4

  0
STYLE
  2
STYLE1
 70
     0
 40
0.0
 41
1.0
 50
0.0
 71
     0
 42
6.0
  3
txt
  4

  0
STYLE
  2
SIMPLEX
 70
     0
 40
0.0
 41
1.0
 50
0.0
 71
     0
 42
3.0
  3
SIMPLEX.SHX
  4

  0
ENDTAB
  0
TABLE
  2
VIEW
 70
     0
  0
ENDTAB
  0
TABLE
  2
UCS
 70
     0
  0
ENDTAB
  0
TABLE
  2
APPID
 70
    10
  0
APPID
  2
ACAD
 70
     0
  0
APPID
  2
ACAD_PSEXT
 70
     0
  0
APPID
  2
ACADANNOPO
 70
     0
  0
APPID
  2
ACADANNOTATIVE
 70
     0
  0
APPID
  2
ACAD_DSTYLE_DIMJAG
 70
     0
  0
APPID
  2
ACAD_DSTYLE_DIMTALN
 70
     0
  0
APPID
  2
ACAD_MLEADERVER
 70
     0
  0
APPID
  2
ACAECLAYERSTANDARD
 70
     0
  0
APPID
  2
ACAD_EXEMPT_FROM_CAD_STANDARDS
 70
     0
  0
APPID
  2
ACAD_NAV_VCDISPLAY
 70
     0
  0
ENDTAB
  0
TABLE
  2
DIMSTYLE
 70
     3
  0
DIMSTYLE
  2
ISO-25
 70
     0
  3

  4

  5

  6

  7

 40
1.0
 41
2.5
 42
0.625
 43
3.75
 44
1.25
 45
0.0
 46
0.0
 47
0.0
 48
0.0
140
2.5
141
2.5
142
0.0
143
0.03937007874016
144
1.0
145
0.0
146
1.0
147
0.625
 71
     0
 72
     0
 73
     0
 74
     0
 75
     0
 76
     0
 77
     1
 78
     8
170
     0
171
     3
172
     1
173
     0
174
     0
175
     0
176
     0
177
     0
178
     0
  0
DIMSTYLE
  2
STANDARD
 70
     0
  3

  4

  5

  6

  7

 40
1.0
 41
0.18
 42
0.0625
 43
0.38
 44
0.18
 45
0.0
 46
0.0
 47
0.0
 48
0.0
140
0.18
141
0.09
142
0.0
143
25.3999999999999986
144
1.0
145
0.0
146
1.0
147
0.09
 71
     0
 72
     0
 73
     1
 74
     1
 75
     0
 76
     0
 77
     0
 78
     0
170
     0
171
     2
172
     0
173
     0
174
     0
175
     0
176
     0
177
     0
178
     0
  0
ENDTAB
  0
ENDSEC
  0
SECTION
  2
BLOCKS
  0
BLOCK
  8
0
  2
$MODEL_SPACE
 70
     0
 10
0.0
 20
0.0
 30
0.0
  3
$MODEL_SPACE
  1

  0
ENDBLK
  5
21
  8
0
  0
BLOCK
 67
     1
  8
0
  2
$PAPER_SPACE
 70
     0
 10
0.0
 20
0.0
 30
0.0
  3
$PAPER_SPACE
  1

  0
ENDBLK
  5
D9
 67
     1
  8
0
  0
BLOCK
  8
0
  2
*U2
 70
     1
 10
0.0
 20
0.0
 30
0.0
  3
*U2
  1

  0
TEXT
  5
87CE
  8
COTES
 10
-69.5988868151766837
 20
-14.7788732441347506
 30
0.0
 40
2.5
  1
25
 50
90.0000000000000284
  0
ENDBLK
  5
87D0
  8
0
  0
BLOCK
  8
0
  2
*U3
 70
     1
 10
0.0
 20
0.0
 30
0.0
  3
*U3
  1

  0
TEXT
  5
87D2
  8
COTES
 10
-153.8075056389918132
 20
-39.6359873927509128
 30
0.0
 40
2.5
  1
125
  0
ENDBLK
  5
87D4
  8
0
  0
BLOCK
  8
0
  2
*U4
 70
     1
 10
0.0
 20
0.0
 30
0.0
  3
*U4
  1

  0
TEXT
  5
87D6
  8
COTES
 10
-234.347871627086505
 20
-12.2349359334757093
 30
0.0
 40
2.5
  1
20
 50
90.0000000000000284
  0
ENDBLK
  5
87D8
  8
0
  0
BLOCK
  8
0
  2
*U5
 70
     1
 10
0.0
 20
0.0
 30
0.0
  3
*U5
  1

  0
TEXT
  5
87DA
  8
COTES
 10
-97.8817721352923655
 20
-29.9339933607606703
 30
0.0
 40
2.5
  1
98°
 50
309.4502250989226013
  0
ENDBLK
  5
87DC
  8
0
  0
ENDSEC
  0
SECTION
  2
ENTITIES
  0
TEXT
  5
8505
  8
REFER\U+00C8NCIA
 10
-175.6267798749769895
 20
-62.9777824348560529
 30
0.0
 40
5.0
  1
PDXNL2020K15
  7
SIMPLEX
 72
     1
 11
-148.0077322559293975
 21
-62.9777824348560529
 31
0.0
  0
LINE
  5
8714
  8
COS
 10
-119.0235523414501984
 20
-20.2611264096661685
 30
0.0
 11
-120.8321530160452966
 21
-20.2611264096661685
 31
0.0
  0
LINE
  5
8715
  8
COS
 10
-120.8321530160452966
 20
-20.2611264096661685
 30
0.0
 11
-121.8655134751625013
 21
-20.2611264096661685
 31
0.0
  0
POLYLINE
  5
8716
  8
COS
 10
-119.0235523414502694
 20
-20.2611264096653692
 30
0.0
 66
     1
 70
     8
  0
VERTEX
  8
COS
  5
87F8
 10
-119.024
 20
-20.2611
 30
0.00000
  70
    32
  0
VERTEX
  8
COS
  5
87F9
 10
-119.022
 20
-20.2611
 30
0.00000
  70
    32
  0
VERTEX
  8
COS
  5
87FA
 10
-119.020
 20
-20.2611
 30
0.00000
  70
    32
  0
VERTEX
  8
COS
  5
87FB
 10
-119.018
 20
-20.2611
 30
0.00000
  70
    32
  0
VERTEX
  8
COS
  5
87FC
 10
-119.017
 20
-20.2611
 30
0.00000
  70
    32
  0
VERTEX
  8
COS
  5
87FD
 10
-119.015
 20
-20.2611
 30
0.00000
  70
    32
  0
VERTEX
  8
COS
  5
87FE
 10
-119.013
 20
-20.2612
 30
0.00000
  70
    32
  0
VERTEX
  8
COS
  5
87FF
 10
-119.012
 20
-20.2612
 30
0.00000
  70
    32
  0
VERTEX
  8
COS
  5
8800
 10
-119.010
 20
-20.2612
 30
0.00000
  70
    32
  0
VERTEX
  8
COS
  5
8801
 10
-119.008
 20
-20.2612
 30
0.00000
  70
    32
  0
VERTEX
  8
COS
  5
8802
 10
-119.007
 20
-20.2612
 30
0.00000
  70
    32
  0
VERTEX
  8
COS
  5
8803
 10
-119.005
 20
-20.2612
 30
0.00000
  70
    32
  0
VERTEX
  8
COS
  5
8804
 10
-119.003
 20
-20.2613
 30
0.00000
  70
    32
  0
VERTEX
  8
COS
  5
8805
 10
-119.002
 20
-20.2613
 30
0.00000
  70
    32
  0
VERTEX
  8
COS
  5
8806
 10
-119.000
 20
-20.2613
 30
0.00000
  70
    32
  0
VERTEX
  8
COS
  5
8807
 10
-118.998
 20
-20.2613
 30
0.00000
  70
    32
  0
VERTEX
  8
COS
  5
8808
 10
-118.997
 20
-20.2614
 30
0.00000
  70
    32
  0
VERTEX
  8
COS
  5
8809
 10
-118.995
 20
-20.2614
 30
0.00000
  70
    32
  0
VERTEX
  8
COS
  5
880A
 10
-118.993
 20
-20.2614
 30
0.00000
  70
    32
  0
VERTEX
  8
COS
  5
880B
 10
-118.991
 20
-20.2615
 30
0.00000
  70
    32
  0
VERTEX
  8
COS
  5
880C
 10
-118.990
 20
-20.2615
 30
0.00000
  70
    32
  0
VERTEX
  8
COS
  5
880D
 10
-118.988
 20
-20.2615
 30
0.00000
  70
    32
  0
VERTEX
  8
COS
  5
880E
 10
-118.986
 20
-20.2616
 30
0.00000
  70
    32
  0
VERTEX
  8
COS
  5
880F
 10
-118.985
 20
-20.2616
 30
0.00000
  70
    32
  0
VERTEX
  8
COS
  5
8810
 10
-118.983
 20
-20.2617
 30
0.00000
  70
    32
  0
VERTEX
  8
COS
  5
8811
 10
-118.981
 20
-20.2617
 30
0.00000
  70
    32
  0
VERTEX
  8
COS
  5
8812
 10
-118.980
 20
-20.2618
 30
0.00000
  70
    32
  0
VERTEX
  8
COS
  5
8813
 10
-118.978
 20
-20.2618
 30
0.00000
  70
    32
  0
VERTEX
  8
COS
  5
8814
 10
-118.976
 20
-20.2619
 30
0.00000
  70
    32
  0
VERTEX
  8
COS
  5
8815
 10
-118.975
 20
-20.2619
 30
0.00000
  70
    32
  0
VERTEX
  8
COS
  5
8816
 10
-118.973
 20
-20.2620
 30
0.00000
  70
    32
  0
VERTEX
  8
COS
  5
8817
 10
-118.971
 20
-20.2620
 30
0.00000
  70
    32
  0
VERTEX
  8
COS
  5
8818
 10
-118.969
 20
-20.2621
 30
0.00000
  70
    32
  0
VERTEX
  8
COS
  5
8819
 10
-118.968
 20
-20.2621
 30
0.00000
  70
    32
  0
VERTEX
  8
COS
  5
881A
 10
-118.966
 20
-20.2622
 30
0.00000
  70
    32
  0
VERTEX
  8
COS
  5
881B
 10
-118.964
 20
-20.2623
 30
0.00000
  70
    32
  0
VERTEX
  8
COS
  5
881C
 10
-118.963
 20
-20.2623
 30
0.00000
  70
    32
  0
VERTEX
  8
COS
  5
881D
 10
-118.961
 20
-20.2624
 30
0.00000
  70
    32
  0
VERTEX
  8
COS
  5
881E
 10
-118.959
 20
-20.2625
 30
0.00000
  70
    32
  0
VERTEX
  8
COS
  5
881F
 10
-118.958
 20
-20.2625
 30
0.00000
  70
    32
  0
VERTEX
  8
COS
  5
8820
 10
-118.956
 20
-20.2626
 30
0.00000
  70
    32
  0
VERTEX
  8
COS
  5
8821
 10
-118.954
 20
-20.2627
 30
0.00000
  70
    32
  0
VERTEX
  8
COS
  5
8822
 10
-118.953
 20
-20.2628
 30
0.00000
  70
    32
  0
VERTEX
  8
COS
  5
8823
 10
-118.951
 20
-20.2628
 30
0.00000
  70
    32
  0
VERTEX
  8
COS
  5
8824
 10
-118.949
 20
-20.2629
 30
0.00000
  70
    32
  0
VERTEX
  8
COS
  5
8825
 10
-118.948
 20
-20.2630
 30
0.00000
  70
    32
  0
VERTEX
  8
COS
  5
8826
 10
-118.946
 20
-20.2631
 30
0.00000
  70
    32
  0
VERTEX
  8
COS
  5
8827
 10
-118.944
 20
-20.2632
 30
0.00000
  70
    32
  0
VERTEX
  8
COS
  5
8828
 10
-118.942
 20
-20.2633
 30
0.00000
  70
    32
  0
VERTEX
  8
COS
  5
8829
 10
-118.941
 20
-20.2634
 30
0.00000
  70
    32
  0
VERTEX
  8
COS
  5
882A
 10
-118.939
 20
-20.2634
 30
0.00000
  70
    32
  0
VERTEX
  8
COS
  5
882B
 10
-118.937
 20
-20.2635
 30
0.00000
  70
    32
  0
VERTEX
  8
COS
  5
882C
 10
-118.936
 20
-20.2636
 30
0.00000
  70
    32
  0
VERTEX
  8
COS
  5
882D
 10
-118.934
 20
-20.2637
 30
0.00000
  70
    32
  0
VERTEX
  8
COS
  5
882E
 10
-118.932
 20
-20.2638
 30
0.00000
  70
    32
  0
VERTEX
  8
COS
  5
882F
 10
-118.931
 20
-20.2639
 30
0.00000
  70
    32
  0
VERTEX
  8
COS
  5
8830
 10
-118.929
 20
-20.2640
 30
0.00000
  70
    32
  0
VERTEX
  8
COS
  5
8831
 10
-118.927
 20
-20.2641
 30
0.00000
  70
    32
  0
VERTEX
  8
COS
  5
8832
 10
-118.926
 20
-20.2642
 30
0.00000
  70
    32
  0
VERTEX
  8
COS
  5
8833
 10
-118.924
 20
-20.2644
 30
0.00000
  70
    32
  0
VERTEX
  8
COS
  5
8834
 10
-118.922
 20
-20.2645
 30
0.00000
  70
    32
  0
VERTEX
  8
COS
  5
8835
 10
-118.920
 20
-20.2646
 30
0.00000
  70
    32
  0
VERTEX
  8
COS
  5
8836
 10
-118.919
 20
-20.2647
 30
0.00000
  70
    32
  0
VERTEX
  8
COS
  5
8837
 10
-118.917
 20
-20.2648
 30
0.00000
  70
    32
  0
VERTEX
  8
COS
  5
8838
 10
-118.915
 20
-20.2649
 30
0.00000
  70
    32
  0
VERTEX
  8
COS
  5
8839
 10
-118.914
 20
-20.2650
 30
0.00000
  70
    32
  0
VERTEX
  8
COS
  5
883A
 10
-118.912
 20
-20.2652
 30
0.00000
  70
    32
  0
VERTEX
  8
COS
  5
883B
 10
-118.910
 20
-20.2653
 30
0.00000
  70
    32
  0
VERTEX
  8
COS
  5
883C
 10
-118.909
 20
-20.2654
 30
0.00000
  70
    32
  0
VERTEX
  8
COS
  5
883D
 10
-118.907
 20
-20.2655
 30
0.00000
  70
    32
  0
VERTEX
  8
COS
  5
883E
 10
-118.905
 20
-20.2657
 30
0.00000
  70
    32
  0
VERTEX
  8
COS
  5
883F
 10
-118.904
 20
-20.2658
 30
0.00000
  70
    32
  0
VERTEX
  8
COS
  5
8840
 10
-118.902
 20
-20.2659
 30
0.00000
  70
    32
  0
VERTEX
  8
COS
  5
8841
 10
-118.900
 20
-20.2661
 30
0.00000
  70
    32
  0
VERTEX
  8
COS
  5
8842
 10
-118.899
 20
-20.2662
 30
0.00000
  70
    32
  0
VERTEX
  8
COS
  5
8843
 10
-118.897
 20
-20.2663
 30
0.00000
  70
    32
  0
VERTEX
  8
COS
  5
8844
 10
-118.895
 20
-20.2665
 30
0.00000
  70
    32
  0
VERTEX
  8
COS
  5
8845
 10
-118.893
 20
-20.2666
 30
0.00000
  70
    32
  0
VERTEX
  8
COS
  5
8846
 10
-118.892
 20
-20.2668
 30
0.00000
  70
    32
  0
VERTEX
  8
COS
  5
8847
 10
-118.890
 20
-20.2669
 30
0.00000
  70
    32
  0
VERTEX
  8
COS
  5
8848
 10
-118.888
 20
-20.2671
 30
0.00000
  70
    32
  0
VERTEX
  8
COS
  5
8849
 10
-118.887
 20
-20.2672
 30
0.00000
  70
    32
  0
VERTEX
  8
COS
  5
884A
 10
-118.885
 20
-20.2674
 30
0.00000
  70
    32
  0
VERTEX
  8
COS
  5
884B
 10
-118.883
 20
-20.2675
 30
0.00000
  70
    32
  0
VERTEX
  8
COS
  5
884C
 10
-118.882
 20
-20.2677
 30
0.00000
  70
    32
  0
VERTEX
  8
COS
  5
884D
 10
-118.880
 20
-20.2678
 30
0.00000
  70
    32
  0
VERTEX
  8
COS
  5
884E
 10
-118.878
 20
-20.2680
 30
0.00000
  70
    32
  0
VERTEX
  8
COS
  5
884F
 10
-118.877
 20
-20.2681
 30
0.00000
  70
    32
  0
VERTEX
  8
COS
  5
8850
 10
-118.875
 20
-20.2683
 30
0.00000
  70
    32
  0
VERTEX
  8
COS
  5
8851
 10
-118.873
 20
-20.2685
 30
0.00000
  70
    32
  0
VERTEX
  8
COS
  5
8852
 10
-118.872
 20
-20.2686
 30
0.00000
  70
    32
  0
VERTEX
  8
COS
  5
8853
 10
-118.870
 20
-20.2688
 30
0.00000
  70
    32
  0
VERTEX
  8
COS
  5
8854
 10
-118.868
 20
-20.2690
 30
0.00000
  70
    32
  0
VERTEX
  8
COS
  5
8855
 10
-118.866
 20
-20.2691
 30
0.00000
  70
    32
  0
VERTEX
  8
COS
  5
8856
 10
-118.865
 20
-20.2693
 30
0.00000
  70
    32
  0
VERTEX
  8
COS
  5
8857
 10
-118.863
 20
-20.2695
 30
0.00000
  70
    32
  0
VERTEX
  8
COS
  5
8858
 10
-118.861
 20
-20.2697
 30
0.00000
  70
    32
  0
VERTEX
  8
COS
  5
8859
 10
-118.860
 20
-20.2698
 30
0.00000
  70
    32
  0
VERTEX
  8
COS
  5
885A
 10
-118.858
 20
-20.2700
 30
0.00000
  70
    32
  0
VERTEX
  8
COS
  5
885B
 10
-118.856
 20
-20.2702
 30
0.00000
  70
    32
  0
VERTEX
  8
COS
  5
885C
 10
-118.855
 20
-20.2704
 30
0.00000
  70
    32
  0
VERTEX
  8
COS
  5
885D
 10
-118.853
 20
-20.2706
 30
0.00000
  70
    32
  0
VERTEX
  8
COS
  5
885E
 10
-118.851
 20
-20.2708
 30
0.00000
  70
    32
  0
VERTEX
  8
COS
  5
885F
 10
-118.850
 20
-20.2709
 30
0.00000
  70
    32
  0
VERTEX
  8
COS
  5
8860
 10
-118.848
 20
-20.2711
 30
0.00000
  70
    32
  0
VERTEX
  8
COS
  5
8861
 10
-118.846
 20
-20.2713
 30
0.00000
  70
    32
  0
VERTEX
  8
COS
  5
8862
 10
-118.845
 20
-20.2715
 30
0.00000
  70
    32
  0
VERTEX
  8
COS
  5
8863
 10
-118.843
 20
-20.2717
 30
0.00000
  70
    32
  0
VERTEX
  8
COS
  5
8864
 10
-118.841
 20
-20.2719
 30
0.00000
  70
    32
  0
VERTEX
  8
COS
  5
8865
 10
-118.839
 20
-20.2721
 30
0.00000
  70
    32
  0
VERTEX
  8
COS
  5
8866
 10
-118.838
 20
-20.2723
 30
0.00000
  70
    32
  0
VERTEX
  8
COS
  5
8867
 10
-118.836
 20
-20.2725
 30
0.00000
  70
    32
  0
VERTEX
  8
COS
  5
8868
 10
-118.834
 20
-20.2727
 30
0.00000
  70
    32
  0
VERTEX
  8
COS
  5
8869
 10
-118.833
 20
-20.2729
 30
0.00000
  70
    32
  0
VERTEX
  8
COS
  5
886A
 10
-118.831
 20
-20.2732
 30
0.00000
  70
    32
  0
VERTEX
  8
COS
  5
886B
 10
-118.829
 20
-20.2734
 30
0.00000
  70
    32
  0
VERTEX
  8
COS
  5
886C
 10
-118.828
 20
-20.2736
 30
0.00000
  70
    32
  0
VERTEX
  8
COS
  5
886D
 10
-118.826
 20
-20.2738
 30
0.00000
  70
    32
  0
VERTEX
  8
COS
  5
886E
 10
-118.824
 20
-20.2740
 30
0.00000
  70
    32
  0
VERTEX
  8
COS
  5
886F
 10
-118.823
 20
-20.2742
 30
0.00000
  70
    32
  0
VERTEX
  8
COS
  5
8870
 10
-118.821
 20
-20.2745
 30
0.00000
  70
    32
  0
VERTEX
  8
COS
  5
8871
 10
-118.819
 20
-20.2747
 30
0.00000
  70
    32
  0
VERTEX
  8
COS
  5
8872
 10
-118.818
 20
-20.2749
 30
0.00000
  70
    32
  0
VERTEX
  8
COS
  5
8873
 10
-118.816
 20
-20.2751
 30
0.00000
  70
    32
  0
VERTEX
  8
COS
  5
8874
 10
-118.814
 20
-20.2754
 30
0.00000
  70
    32
  0
VERTEX
  8
COS
  5
8875
 10
-118.813
 20
-20.2756
 30
0.00000
  70
    32
  0
VERTEX
  8
COS
  5
8876
 10
-118.811
 20
-20.2758
 30
0.00000
  70
    32
  0
VERTEX
  8
COS
  5
8877
 10
-118.809
 20
-20.2760
 30
0.00000
  70
    32
  0
VERTEX
  8
COS
  5
8878
 10
-118.808
 20
-20.2763
 30
0.00000
  70
    32
  0
SEQEND
  8
COS
  5
8879
  0
LINE
  5
8717
  8
COS
 10
-121.878910934784102
 20
-20.2111264096661714
 30
0.0
 11
-121.8655134751625013
 21
-20.2611264096661685
 31
0.0
  0
LINE
  5
8718
  8
COS
 10
-121.878910934784102
 20
-20.2111264096661714
 30
0.0
 11
-121.878910934784102
 21
-0.2111264096661785
 31
0.0
  0
LINE
  5
8719
  8
COS
 10
-121.878910934784102
 20
-0.2111264096661785
 30
0.0
 11
-120.2799345857704054
 21
-0.2111264096661785
 31
0.0
  0
LINE
  5
871A
  8
COS
 10
-120.2799345857704054
 20
-0.2111264096661785
 30
0.0
 11
-120.8321530160452966
 21
-20.2611264096661685
 31
0.0
  0
LINE
  5
871B
  8
COS
 10
-101.2492191224079932
 20
-0.2111264096661785
 30
0.0
 11
-120.2799345857704054
 21
-0.2111264096661785
 31
0.0
  0
POLYLINE
  5
871D
  8
COS
 10
-108.7721430028710756
 20
-12.3237961025781111
 30
0.0
 66
     1
 70
     8
  0
VERTEX
  8
COS
  5
887A
 10
-108.772
 20
-12.3238
 30
0.00000
  70
    32
  0
VERTEX
  8
COS
  5
887B
 10
-108.832
 20
-12.3038
 30
0.00000
  70
    32
  0
VERTEX
  8
COS
  5
887C
 10
-108.892
 20
-12.2819
 30
0.00000
  70
    32
  0
VERTEX
  8
COS
  5
887D
 10
-108.951
 20
-12.2581
 30
0.00000
  70
    32
  0
VERTEX
  8
COS
  5
887E
 10
-109.009
 20
-12.2324
 30
0.00000
  70
    32
  0
VERTEX
  8
COS
  5
887F
 10
-109.066
 20
-12.2048
 30
0.00000
  70
    32
  0
VERTEX
  8
COS
  5
8880
 10
-109.122
 20
-12.1755
 30
0.00000
  70
    32
  0
VERTEX
  8
COS
  5
8881
 10
-109.178
 20
-12.1443
 30
0.00000
  70
    32
  0
VERTEX
  8
COS
  5
8882
 10
-109.232
 20
-12.1113
 30
0.00000
  70
    32
  0
VERTEX
  8
COS
  5
8883
 10
-109.285
 20
-12.0767
 30
0.00000
  70
    32
  0
VERTEX
  8
COS
  5
8884
 10
-109.337
 20
-12.0403
 30
0.00000
  70
    32
  0
VERTEX
  8
COS
  5
8885
 10
-109.388
 20
-12.0023
 30
0.00000
  70
    32
  0
VERTEX
  8
COS
  5
8886
 10
-109.437
 20
-11.9626
 30
0.00000
  70
    32
  0
VERTEX
  8
COS
  5
8887
 10
-109.485
 20
-11.9214
 30
0.00000
  70
    32
  0
VERTEX
  8
COS
  5
8888
 10
-109.532
 20
-11.8787
 30
0.00000
  70
    32
  0
VERTEX
  8
COS
  5
8889
 10
-109.577
 20
-11.8344
 30
0.00000
  70
    32
  0
VERTEX
  8
COS
  5
888A
 10
-109.621
 20
-11.7887
 30
0.00000
  70
    32
  0
VERTEX
  8
COS
  5
888B
 10
-109.664
 20
-11.7416
 30
0.00000
  70
    32
  0
VERTEX
  8
COS
  5
888C
 10
-109.704
 20
-11.6932
 30
0.00000
  70
    32
  0
VERTEX
  8
COS
  5
888D
 10
-109.744
 20
-11.6434
 30
0.00000
  70
    32
  0
VERTEX
  8
COS
  5
888E
 10
-109.781
 20
-11.5924
 30
0.00000
  70
    32
  0
VERTEX
  8
COS
  5
888F
 10
-109.817
 20
-11.5402
 30
0.00000
  70
    32
  0
VERTEX
  8
COS
  5
8890
 10
-109.852
 20
-11.4869
 30
0.00000
  70
    32
  0
VERTEX
  8
COS
  5
8891
 10
-109.884
 20
-11.4324
 30
0.00000
  70
    32
  0
VERTEX
  8
COS
  5
8892
 10
-109.915
 20
-11.3770
 30
0.00000
  70
    32
  0
VERTEX
  8
COS
  5
8893
 10
-109.944
 20
-11.3205
 30
0.00000
  70
    32
  0
VERTEX
  8
COS
  5
8894
 10
-109.971
 20
-11.2632
 30
0.00000
  70
    32
  0
VERTEX
  8
COS
  5
8895
 10
-109.996
 20
-11.2050
 30
0.00000
  70
    32
  0
VERTEX
  8
COS
  5
8896
 10
-110.020
 20
-11.1459
 30
0.00000
  70
    32
  0
VERTEX
  8
COS
  5
8897
 10
-110.041
 20
-11.0862
 30
0.00000
  70
    32
  0
VERTEX
  8
COS
  5
8898
 10
-110.061
 20
-11.0257
 30
0.00000
  70
    32
  0
VERTEX
  8
COS
  5
8899
 10
-110.078
 20
-10.9647
 30
0.00000
  70
    32
  0
VERTEX
  8
COS
  5
889A
 10
-110.094
 20
-10.9031
 30
0.00000
  70
    32
  0
VERTEX
  8
COS
  5
889B
 10
-110.108
 20
-10.8410
 30
0.00000
  70
    32
  0
VERTEX
  8
COS
  5
889C
 10
-110.119
 20
-10.7784
 30
0.00000
  70
    32
  0
VERTEX
  8
COS
  5
889D
 10
-110.129
 20
-10.7156
 30
0.00000
  70
    32
  0
VERTEX
  8
COS
  5
889E
 10
-110.137
 20
-10.6524
 30
0.00000
  70
    32
  0
VERTEX
  8
COS
  5
889F
 10
-110.142
 20
-10.5889
 30
0.00000
  70
    32
  0
VERTEX
  8
COS
  5
88A0
 10
-110.146
 20
-10.5254
 30
0.00000
  70
    32
  0
VERTEX
  8
COS
  5
88A1
 10
-110.147
 20
-10.4617
 30
0.00000
  70
    32
  0
VERTEX
  8
COS
  5
88A2
 10
-110.147
 20
-10.3979
 30
0.00000
  70
    32
  0
VERTEX
  8
COS
  5
88A3
 10
-110.144
 20
-10.3342
 30
0.00000
  70
    32
  0
VERTEX
  8
COS
  5
88A4
 10
-110.139
 20
-10.2706
 30
0.00000
  70
    32
  0
VERTEX
  8
COS
  5
88A5
 10
-110.133
 20
-10.2072
 30
0.00000
  70
    32
  0
VERTEX
  8
COS
  5
88A6
 10
-110.124
 20
-10.1440
 30
0.00000
  70
    32
  0
VERTEX
  8
COS
  5
88A7
 10
-110.113
 20
-10.0810
 30
0.00000
  70
    32
  0
VERTEX
  8
COS
  5
88A8
 10
-110.100
 20
-10.0184
 30
0.00000
  70
    32
  0
VERTEX
  8
COS
  5
88A9
 10
-110.086
 20
-9.95627
 30
0.00000
  70
    32
  0
VERTEX
  8
COS
  5
88AA
 10
-110.069
 20
-9.89459
 30
0.00000
  70
    32
  0
VERTEX
  8
COS
  5
88AB
 10
-110.050
 20
-9.83345
 30
0.00000
  70
    32
  0
VERTEX
  8
COS
  5
88AC
 10
-110.030
 20
-9.77292
 30
0.00000
  70
    32
  0
VERTEX
  8
COS
  5
88AD
 10
-110.007
 20
-9.71306
 30
0.00000
  70
    32
  0
VERTEX
  8
COS
  5
88AE
 10
-109.983
 20
-9.65393
 30
0.00000
  70
    32
  0
VERTEX
  8
COS
  5
88AF
 10
-109.957
 20
-9.59559
 30
0.00000
  70
    32
  0
VERTEX
  8
COS
  5
88B0
 10
-109.928
 20
-9.53810
 30
0.00000
  70
    32
  0
VERTEX
  8
COS
  5
88B1
 10
-109.898
 20
-9.48153
 30
0.00000
  70
    32
  0
VERTEX
  8
COS
  5
88B2
 10
-109.867
 20
-9.42592
 30
0.00000
  70
    32
  0
VERTEX
  8
COS
  5
88B3
 10
-109.833
 20
-9.37134
 30
0.00000
  70
    32
  0
VERTEX
  8
COS
  5
88B4
 10
-109.798
 20
-9.31784
 30
0.00000
  70
    32
  0
VERTEX
  8
COS
  5
88B5
 10
-109.761
 20
-9.26548
 30
0.00000
  70
    32
  0
VERTEX
  8
COS
  5
88B6
 10
-109.723
 20
-9.21431
 30
0.00000
  70
    32
  0
VERTEX
  8
COS
  5
88B7
 10
-109.682
 20
-9.16438
 30
0.00000
  70
    32
  0
VERTEX
  8
COS
  5
88B8
 10
-109.641
 20
-9.11575
 30
0.00000
  70
    32
  0
VERTEX
  8
COS
  5
88B9
 10
-109.597
 20
-9.06846
 30
0.00000
  70
    32
  0
VERTEX
  8
COS
  5
88BA
 10
-109.553
 20
-9.02256
 30
0.00000
  70
    32
  0
VERTEX
  8
COS
  5
88BB
 10
-109.507
 20
-8.97811
 30
0.00000
  70
    32
  0
VERTEX
  8
COS
  5
88BC
 10
-109.459
 20
-8.93514
 30
0.00000
  70
    32
  0
VERTEX
  8
COS
  5
88BD
 10
-109.410
 20
-8.89369
 30
0.00000
  70
    32
  0
VERTEX
  8
COS
  5
88BE
 10
-109.360
 20
-8.85383
 30
0.00000
  70
    32
  0
VERTEX
  8
COS
  5
88BF
 10
-109.309
 20
-8.81557
 30
0.00000
  70
    32
  0
VERTEX
  8
COS
  5
88C0
 10
-109.256
 20
-8.77897
 30
0.00000
  70
    32
  0
VERTEX
  8
COS
  5
88C1
 10
-109.202
 20
-8.74405
 30
0.00000
  70
    32
  0
VERTEX
  8
COS
  5
88C2
 10
-109.148
 20
-8.71087
 30
0.00000
  70
    32
  0
VERTEX
  8
COS
  5
88C3
 10
-109.092
 20
-8.67944
 30
0.00000
  70
    32
  0
VERTEX
  8
COS
  5
88C4
 10
-109.035
 20
-8.64981
 30
0.00000
  70
    32
  0
VERTEX
  8
COS
  5
88C5
 10
-108.977
 20
-8.62199
 30
0.00000
  70
    32
  0
VERTEX
  8
COS
  5
88C6
 10
-108.919
 20
-8.59603
 30
0.00000
  70
    32
  0
VERTEX
  8
COS
  5
88C7
 10
-108.860
 20
-8.57195
 30
0.00000
  70
    32
  0
VERTEX
  8
COS
  5
88C8
 10
-108.800
 20
-8.54977
 30
0.00000
  70
    32
  0
VERTEX
  8
COS
  5
88C9
 10
-108.739
 20
-8.52951
 30
0.00000
  70
    32
  0
VERTEX
  8
COS
  5
88CA
 10
-108.678
 20
-8.51121
 30
0.00000
  70
    32
  0
VERTEX
  8
COS
  5
88CB
 10
-108.616
 20
-8.49486
 30
0.00000
  70
    32
  0
VERTEX
  8
COS
  5
88CC
 10
-108.554
 20
-8.48050
 30
0.00000
  70
    32
  0
VERTEX
  8
COS
  5
88CD
 10
-108.491
 20
-8.46813
 30
0.00000
  70
    32
  0
VERTEX
  8
COS
  5
88CE
 10
-108.428
 20
-8.45778
 30
0.00000
  70
    32
  0
VERTEX
  8
COS
  5
88CF
 10
-108.365
 20
-8.44944
 30
0.00000
  70
    32
  0
VERTEX
  8
COS
  5
88D0
 10
-108.301
 20
-8.44313
 30
0.00000
  70
    32
  0
VERTEX
  8
COS
  5
88D1
 10
-108.238
 20
-8.43886
 30
0.00000
  70
    32
  0
VERTEX
  8
COS
  5
88D2
 10
-108.174
 20
-8.43662
 30
0.00000
  70
    32
  0
VERTEX
  8
COS
  5
88D3
 10
-108.110
 20
-8.43643
 30
0.00000
  70
    32
  0
VERTEX
  8
COS
  5
88D4
 10
-108.047
 20
-8.43828
 30
0.00000
  70
    32
  0
VERTEX
  8
COS
  5
88D5
 10
-107.983
 20
-8.44217
 30
0.00000
  70
    32
  0
VERTEX
  8
COS
  5
88D6
 10
-107.920
 20
-8.44809
 30
0.00000
  70
    32
  0
VERTEX
  8
COS
  5
88D7
 10
-107.856
 20
-8.45604
 30
0.00000
  70
    32
  0
VERTEX
  8
COS
  5
88D8
 10
-107.794
 20
-8.46602
 30
0.00000
  70
    32
  0
VERTEX
  8
COS
  5
88D9
 10
-107.731
 20
-8.47801
 30
0.00000
  70
    32
  0
VERTEX
  8
COS
  5
88DA
 10
-107.669
 20
-8.49199
 30
0.00000
  70
    32
  0
VERTEX
  8
COS
  5
88DB
 10
-107.608
 20
-8.50796
 30
0.00000
  70
    32
  0
VERTEX
  8
COS
  5
88DC
 10
-107.547
 20
-8.52590
 30
0.00000
  70
    32
  0
VERTEX
  8
COS
  5
88DD
 10
-107.486
 20
-8.54579
 30
0.00000
  70
    32
  0
VERTEX
  8
COS
  5
88DE
 10
-107.427
 20
-8.56761
 30
0.00000
  70
    32
  0
VERTEX
  8
COS
  5
88DF
 10
-107.368
 20
-8.59133
 30
0.00000
  70
    32
  0
VERTEX
  8
COS
  5
88E0
 10
-107.310
 20
-8.61694
 30
0.00000
  70
    32
  0
VERTEX
  8
COS
  5
88E1
 10
-107.253
 20
-8.64441
 30
0.00000
  70
    32
  0
VERTEX
  8
COS
  5
88E2
 10
-107.196
 20
-8.67370
 30
0.00000
  70
    32
  0
VERTEX
  8
COS
  5
88E3
 10
-107.141
 20
-8.70479
 30
0.00000
  70
    32
  0
VERTEX
  8
COS
  5
88E4
 10
-107.087
 20
-8.73765
 30
0.00000
  70
    32
  0
VERTEX
  8
COS
  5
88E5
 10
-107.034
 20
-8.77224
 30
0.00000
  70
    32
  0
VERTEX
  8
COS
  5
88E6
 10
-106.982
 20
-8.80852
 30
0.00000
  70
    32
  0
VERTEX
  8
COS
  5
88E7
 10
-106.931
 20
-8.84647
 30
0.00000
  70
    32
  0
VERTEX
  8
COS
  5
88E8
 10
-106.881
 20
-8.88603
 30
0.00000
  70
    32
  0
VERTEX
  8
COS
  5
88E9
 10
-106.833
 20
-8.92718
 30
0.00000
  70
    32
  0
VERTEX
  8
COS
  5
88EA
 10
-106.786
 20
-8.96987
 30
0.00000
  70
    32
  0
VERTEX
  8
COS
  5
88EB
 10
-106.741
 20
-9.01404
 30
0.00000
  70
    32
  0
VERTEX
  8
COS
  5
88EC
 10
-106.697
 20
-9.05967
 30
0.00000
  70
    32
  0
VERTEX
  8
COS
  5
88ED
 10
-106.654
 20
-9.10670
 30
0.00000
  70
    32
  0
VERTEX
  8
COS
  5
88EE
 10
-106.613
 20
-9.15508
 30
0.00000
  70
    32
  0
VERTEX
  8
COS
  5
88EF
 10
-106.574
 20
-9.20477
 30
0.00000
  70
    32
  0
VERTEX
  8
COS
  5
88F0
 10
-106.536
 20
-9.25571
 30
0.00000
  70
    32
  0
VERTEX
  8
COS
  5
88F1
 10
-106.500
 20
-9.30785
 30
0.00000
  70
    32
  0
VERTEX
  8
COS
  5
88F2
 10
-106.466
 20
-9.36114
 30
0.00000
  70
    32
  0
VERTEX
  8
COS
  5
88F3
 10
-106.433
 20
-9.41552
 30
0.00000
  70
    32
  0
VERTEX
  8
COS
  5
88F4
 10
-106.402
 20
-9.47094
 30
0.00000
  70
    32
  0
VERTEX
  8
COS
  5
88F5
 10
-106.373
 20
-9.52733
 30
0.00000
  70
    32
  0
VERTEX
  8
COS
  5
88F6
 10
-106.346
 20
-9.58465
 30
0.00000
  70
    32
  0
VERTEX
  8
COS
  5
88F7
 10
-106.321
 20
-9.64283
 30
0.00000
  70
    32
  0
VERTEX
  8
COS
  5
88F8
 10
-106.297
 20
-9.70182
 30
0.00000
  70
    32
  0
VERTEX
  8
COS
  5
88F9
 10
-106.276
 20
-9.76155
 30
0.00000
  70
    32
  0
VERTEX
  8
COS
  5
88FA
 10
-106.256
 20
-9.82196
 30
0.00000
  70
    32
  0
SEQEND
  8
COS
  5
88FB
  0
LINE
  5
8721
  8
COS
 10
-101.2492191224079932
 20
-0.2111264096661785
 30
0.0
 11
-95.7183839495811668
 21
-11.3052122252035208
 31
0.0
  0
LINE
  5
8722
  8
COS
 10
-103.7509425119689013
 20
-22.3956256549699013
 30
0.0
 11
-118.807564212835004
 21
-20.2762831330186195
 31
0.0
  0
LINE
  5
8723
  8
COS
 10
-103.7635524965853051
 20
-22.3578923651382304
 30
0.0
 11
-103.7702220570584046
 21
-22.3569535700091713
 31
0.0
  0
LINE
  5
8725
  8
COS
 10
-95.7183839495811668
 20
-11.3052122252035208
 30
0.0
 11
-106.2560111373466043
 21
-9.8219551026435266
 31
0.0
  0
LINE
  5
8726
  8
COS
 10
-108.772143002871104
 20
-12.3237961025781004
 30
0.0
 11
-103.7509425119689013
 21
-22.3956256549699013
 31
0.0
  0
LINE
  5
8730
  8
COS
 10
-213.378910934784102
 20
-0.2111264096661785
 30
0.0
 11
-121.878910934784102
 21
-0.2111264096661785
 31
0.0
  0
LINE
  5
8731
  8
COS
 10
-213.378910934784102
 20
-20.2111264096661714
 30
0.0
 11
-213.378910934784102
 21
-0.2111264096661785
 31
0.0
  0
LINE
  5
8732
  8
COS
 10
-213.378910934784102
 20
-20.2111264096661714
 30
0.0
 11
-121.878910934784102
 21
-20.2111264096661714
 31
0.0
  0
POLYLINE
  5
8733
  8
COS
 10
-110.7939250630485049
 20
-11.7208037534060328
 30
0.0
 66
     1
 70
     8
  0
VERTEX
  8
COS
  5
88FC
 10
-110.794
 20
-11.7208
 30
0.00000
  70
    32
  0
VERTEX
  8
COS
  5
88FD
 10
-110.655
 20
-11.8671
 30
0.00000
  70
    32
  0
VERTEX
  8
COS
  5
88FE
 10
-110.524
 20
-12.0202
 30
0.00000
  70
    32
  0
VERTEX
  8
COS
  5
88FF
 10
-110.401
 20
-12.1795
 30
0.00000
  70
    32
  0
VERTEX
  8
COS
  5
8900
 10
-110.286
 20
-12.3448
 30
0.00000
  70
    32
  0
VERTEX
  8
COS
  5
8901
 10
-110.179
 20
-12.5157
 30
0.00000
  70
    32
  0
VERTEX
  8
COS
  5
8902
 10
-110.080
 20
-12.6917
 30
0.00000
  70
    32
  0
VERTEX
  8
COS
  5
8903
 10
-109.991
 20
-12.8724
 30
0.00000
  70
    32
  0
VERTEX
  8
COS
  5
8904
 10
-109.910
 20
-13.0573
 30
0.00000
  70
    32
  0
VERTEX
  8
COS
  5
8905
 10
-109.839
 20
-13.2461
 30
0.00000
  70
    32
  0
VERTEX
  8
COS
  5
8906
 10
-109.777
 20
-13.4383
 30
0.00000
  70
    32
  0
VERTEX
  8
COS
  5
8907
 10
-109.725
 20
-13.6334
 30
0.00000
  70
    32
  0
VERTEX
  8
COS
  5
8908
 10
-109.682
 20
-13.8309
 30
0.00000
  70
    32
  0
VERTEX
  8
COS
  5
8909
 10
-109.649
 20
-14.0304
 30
0.00000
  70
    32
  0
VERTEX
  8
COS
  5
890A
 10
-109.626
 20
-14.2314
 30
0.00000
  70
    32
  0
VERTEX
  8
COS
  5
890B
 10
-109.612
 20
-14.4334
 30
0.00000
  70
    32
  0
VERTEX
  8
COS
  5
890C
 10
-109.609
 20
-14.6359
 30
0.00000
  70
    32
  0
VERTEX
  8
COS
  5
890D
 10
-109.616
 20
-14.8384
 30
0.00000
  70
    32
  0
VERTEX
  8
COS
  5
890E
 10
-109.632
 20
-15.0405
 30
0.00000
  70
    32
  0
VERTEX
  8
COS
  5
890F
 10
-109.659
 20
-15.2416
 30
0.00000
  70
    32
  0
VERTEX
  8
COS
  5
8910
 10
-109.695
 20
-15.4413
 30
0.00000
  70
    32
  0
VERTEX
  8
COS
  5
8911
 10
-109.741
 20
-15.6391
 30
0.00000
  70
    32
  0
VERTEX
  8
COS
  5
8912
 10
-109.797
 20
-15.8345
 30
0.00000
  70
    32
  0
VERTEX
  8
COS
  5
8913
 10
-109.862
 20
-16.0270
 30
0.00000
  70
    32
  0
VERTEX
  8
COS
  5
8914
 10
-109.936
 20
-16.2162
 30
0.00000
  70
    32
  0
VERTEX
  8
COS
  5
8915
 10
-110.020
 20
-16.4016
 30
0.00000
  70
    32
  0
VERTEX
  8
COS
  5
8916
 10
-110.112
 20
-16.5828
 30
0.00000
  70
    32
  0
VERTEX
  8
COS
  5
8917
 10
-110.214
 20
-16.7593
 30
0.00000
  70
    32
  0
VERTEX
  8
COS
  5
8918
 10
-110.324
 20
-16.9308
 30
0.00000
  70
    32
  0
VERTEX
  8
COS
  5
8919
 10
-110.442
 20
-17.0967
 30
0.00000
  70
    32
  0
VERTEX
  8
COS
  5
891A
 10
-110.568
 20
-17.2568
 30
0.00000
  70
    32
  0
VERTEX
  8
COS
  5
891B
 10
-110.701
 20
-17.4105
 30
0.00000
  70
    32
  0
VERTEX
  8
COS
  5
891C
 10
-110.842
 20
-17.5576
 30
0.00000
  70
    32
  0
VERTEX
  8
COS
  5
891D
 10
-110.990
 20
-17.6977
 30
0.00000
  70
    32
  0
VERTEX
  8
COS
  5
891E
 10
-111.144
 20
-17.8304
 30
0.00000
  70
    32
  0
VERTEX
  8
COS
  5
891F
 10
-111.305
 20
-17.9555
 30
0.00000
  70
    32
  0
VERTEX
  8
COS
  5
8920
 10
-111.472
 20
-18.0726
 30
0.00000
  70
    32
  0
VERTEX
  8
COS
  5
8921
 10
-111.644
 20
-18.1815
 30
0.00000
  70
    32
  0
VERTEX
  8
COS
  5
8922
 10
-111.821
 20
-18.2818
 30
0.00000
  70
    32
  0
VERTEX
  8
COS
  5
8923
 10
-112.003
 20
-18.3734
 30
0.00000
  70
    32
  0
VERTEX
  8
COS
  5
8924
 10
-112.188
 20
-18.4560
 30
0.00000
  70
    32
  0
VERTEX
  8
COS
  5
8925
 10
-112.378
 20
-18.5294
 30
0.00000
  70
    32
  0
VERTEX
  8
COS
  5
8926
 10
-112.571
 20
-18.5935
 30
0.00000
  70
    32
  0
VERTEX
  8
COS
  5
8927
 10
-112.767
 20
-18.6480
 30
0.00000
  70
    32
  0
VERTEX
  8
COS
  5
8928
 10
-112.965
 20
-18.6930
 30
0.00000
  70
    32
  0
VERTEX
  8
COS
  5
8929
 10
-113.164
 20
-18.7281
 30
0.00000
  70
    32
  0
VERTEX
  8
COS
  5
892A
 10
-113.366
 20
-18.7535
 30
0.00000
  70
    32
  0
VERTEX
  8
COS
  5
892B
 10
-113.568
 20
-18.7689
 30
0.00000
  70
    32
  0
VERTEX
  8
COS
  5
892C
 10
-113.770
 20
-18.7745
 30
0.00000
  70
    32
  0
VERTEX
  8
COS
  5
892D
 10
-113.973
 20
-18.7701
 30
0.00000
  70
    32
  0
VERTEX
  8
COS
  5
892E
 10
-114.175
 20
-18.7557
 30
0.00000
  70
    32
  0
VERTEX
  8
COS
  5
892F
 10
-114.376
 20
-18.7315
 30
0.00000
  70
    32
  0
VERTEX
  8
COS
  5
8930
 10
-114.575
 20
-18.6974
 30
0.00000
  70
    32
  0
VERTEX
  8
COS
  5
8931
 10
-114.772
 20
-18.6535
 30
0.00000
  70
    32
  0
VERTEX
  8
COS
  5
8932
 10
-114.967
 20
-18.6000
 30
0.00000
  70
    32
  0
VERTEX
  8
COS
  5
8933
 10
-115.159
 20
-18.5370
 30
0.00000
  70
    32
  0
VERTEX
  8
COS
  5
8934
 10
-115.347
 20
-18.4646
 30
0.00000
  70
    32
  0
VERTEX
  8
COS
  5
8935
 10
-115.532
 20
-18.3831
 30
0.00000
  70
    32
  0
VERTEX
  8
COS
  5
8936
 10
-115.712
 20
-18.2925
 30
0.00000
  70
    32
  0
VERTEX
  8
COS
  5
8937
 10
-115.888
 20
-18.1931
 30
0.00000
  70
    32
  0
VERTEX
  8
COS
  5
8938
 10
-116.058
 20
-18.0852
 30
0.00000
  70
    32
  0
VERTEX
  8
COS
  5
8939
 10
-116.222
 20
-17.9690
 30
0.00000
  70
    32
  0
VERTEX
  8
COS
  5
893A
 10
-116.381
 20
-17.8448
 30
0.00000
  70
    32
  0
VERTEX
  8
COS
  5
893B
 10
-116.533
 20
-17.7129
 30
0.00000
  70
    32
  0
VERTEX
  8
COS
  5
893C
 10
-116.679
 20
-17.5736
 30
0.00000
  70
    32
  0
VERTEX
  8
COS
  5
893D
 10
-116.817
 20
-17.4273
 30
0.00000
  70
    32
  0
VERTEX
  8
COS
  5
893E
 10
-116.949
 20
-17.2743
 30
0.00000
  70
    32
  0
VERTEX
  8
COS
  5
893F
 10
-117.072
 20
-17.1149
 30
0.00000
  70
    32
  0
VERTEX
  8
COS
  5
8940
 10
-117.187
 20
-16.9496
 30
0.00000
  70
    32
  0
VERTEX
  8
COS
  5
8941
 10
-117.294
 20
-16.7788
 30
0.00000
  70
    32
  0
VERTEX
  8
COS
  5
8942
 10
-117.393
 20
-16.6028
 30
0.00000
  70
    32
  0
VERTEX
  8
COS
  5
8943
 10
-117.482
 20
-16.4221
 30
0.00000
  70
    32
  0
VERTEX
  8
COS
  5
8944
 10
-117.563
 20
-16.2371
 30
0.00000
  70
    32
  0
VERTEX
  8
COS
  5
8945
 10
-117.634
 20
-16.0483
 30
0.00000
  70
    32
  0
VERTEX
  8
COS
  5
8946
 10
-117.696
 20
-15.8562
 30
0.00000
  70
    32
  0
VERTEX
  8
COS
  5
8947
 10
-117.748
 20
-15.6611
 30
0.00000
  70
    32
  0
VERTEX
  8
COS
  5
8948
 10
-117.791
 20
-15.4635
 30
0.00000
  70
    32
  0
VERTEX
  8
COS
  5
8949
 10
-117.824
 20
-15.2640
 30
0.00000
  70
    32
  0
VERTEX
  8
COS
  5
894A
 10
-117.847
 20
-15.0630
 30
0.00000
  70
    32
  0
VERTEX
  8
COS
  5
894B
 10
-117.861
 20
-14.8611
 30
0.00000
  70
    32
  0
VERTEX
  8
COS
  5
894C
 10
-117.864
 20
-14.6586
 30
0.00000
  70
    32
  0
VERTEX
  8
COS
  5
894D
 10
-117.857
 20
-14.4560
 30
0.00000
  70
    32
  0
VERTEX
  8
COS
  5
894E
 10
-117.841
 20
-14.2540
 30
0.00000
  70
    32
  0
VERTEX
  8
COS
  5
894F
 10
-117.814
 20
-14.0528
 30
0.00000
  70
    32
  0
VERTEX
  8
COS
  5
8950
 10
-117.778
 20
-13.8532
 30
0.00000
  70
    32
  0
VERTEX
  8
COS
  5
8951
 10
-117.732
 20
-13.6554
 30
0.00000
  70
    32
  0
VERTEX
  8
COS
  5
8952
 10
-117.676
 20
-13.4600
 30
0.00000
  70
    32
  0
VERTEX
  8
COS
  5
8953
 10
-117.611
 20
-13.2675
 30
0.00000
  70
    32
  0
VERTEX
  8
COS
  5
8954
 10
-117.537
 20
-13.0783
 30
0.00000
  70
    32
  0
VERTEX
  8
COS
  5
8955
 10
-117.453
 20
-12.8928
 30
0.00000
  70
    32
  0
VERTEX
  8
COS
  5
8956
 10
-117.360
 20
-12.7117
 30
0.00000
  70
    32
  0
VERTEX
  8
COS
  5
8957
 10
-117.259
 20
-12.5351
 30
0.00000
  70
    32
  0
VERTEX
  8
COS
  5
8958
 10
-117.149
 20
-12.3637
 30
0.00000
  70
    32
  0
VERTEX
  8
COS
  5
8959
 10
-117.031
 20
-12.1977
 30
0.00000
  70
    32
  0
VERTEX
  8
COS
  5
895A
 10
-116.905
 20
-12.0377
 30
0.00000
  70
    32
  0
VERTEX
  8
COS
  5
895B
 10
-116.772
 20
-11.8839
 30
0.00000
  70
    32
  0
VERTEX
  8
COS
  5
895C
 10
-116.631
 20
-11.7368
 30
0.00000
  70
    32
  0
VERTEX
  8
COS
  5
895D
 10
-116.483
 20
-11.5967
 30
0.00000
  70
    32
  0
VERTEX
  8
COS
  5
895E
 10
-116.329
 20
-11.4640
 30
0.00000
  70
    32
  0
VERTEX
  8
COS
  5
895F
 10
-116.168
 20
-11.3389
 30
0.00000
  70
    32
  0
VERTEX
  8
COS
  5
8960
 10
-116.001
 20
-11.2218
 30
0.00000
  70
    32
  0
VERTEX
  8
COS
  5
8961
 10
-115.829
 20
-11.1130
 30
0.00000
  70
    32
  0
VERTEX
  8
COS
  5
8962
 10
-115.652
 20
-11.0127
 30
0.00000
  70
    32
  0
VERTEX
  8
COS
  5
8963
 10
-115.470
 20
-10.9211
 30
0.00000
  70
    32
  0
VERTEX
  8
COS
  5
8964
 10
-115.285
 20
-10.8385
 30
0.00000
  70
    32
  0
VERTEX
  8
COS
  5
8965
 10
-115.095
 20
-10.7651
 30
0.00000
  70
    32
  0
VERTEX
  8
COS
  5
8966
 10
-114.902
 20
-10.7010
 30
0.00000
  70
    32
  0
VERTEX
  8
COS
  5
8967
 10
-114.706
 20
-10.6464
 30
0.00000
  70
    32
  0
VERTEX
  8
COS
  5
8968
 10
-114.508
 20
-10.6015
 30
0.00000
  70
    32
  0
VERTEX
  8
COS
  5
8969
 10
-114.308
 20
-10.5663
 30
0.00000
  70
    32
  0
VERTEX
  8
COS
  5
896A
 10
-114.107
 20
-10.5410
 30
0.00000
  70
    32
  0
VERTEX
  8
COS
  5
896B
 10
-113.905
 20
-10.5255
 30
0.00000
  70
    32
  0
VERTEX
  8
COS
  5
896C
 10
-113.702
 20
-10.5200
 30
0.00000
  70
    32
  0
VERTEX
  8
COS
  5
896D
 10
-113.500
 20
-10.5244
 30
0.00000
  70
    32
  0
VERTEX
  8
COS
  5
896E
 10
-113.298
 20
-10.5387
 30
0.00000
  70
    32
  0
VERTEX
  8
COS
  5
896F
 10
-113.097
 20
-10.5630
 30
0.00000
  70
    32
  0
VERTEX
  8
COS
  5
8970
 10
-112.898
 20
-10.5971
 30
0.00000
  70
    32
  0
VERTEX
  8
COS
  5
8971
 10
-112.701
 20
-10.6409
 30
0.00000
  70
    32
  0
VERTEX
  8
COS
  5
8972
 10
-112.506
 20
-10.6944
 30
0.00000
  70
    32
  0
VERTEX
  8
COS
  5
8973
 10
-112.314
 20
-10.7574
 30
0.00000
  70
    32
  0
VERTEX
  8
COS
  5
8974
 10
-112.126
 20
-10.8298
 30
0.00000
  70
    32
  0
VERTEX
  8
COS
  5
8975
 10
-111.941
 20
-10.9114
 30
0.00000
  70
    32
  0
VERTEX
  8
COS
  5
8976
 10
-111.761
 20
-11.0020
 30
0.00000
  70
    32
  0
VERTEX
  8
COS
  5
8977
 10
-111.585
 20
-11.1013
 30
0.00000
  70
    32
  0
VERTEX
  8
COS
  5
8978
 10
-111.415
 20
-11.2092
 30
0.00000
  70
    32
  0
VERTEX
  8
COS
  5
8979
 10
-111.250
 20
-11.3254
 30
0.00000
  70
    32
  0
VERTEX
  8
COS
  5
897A
 10
-111.092
 20
-11.4496
 30
0.00000
  70
    32
  0
VERTEX
  8
COS
  5
897B
 10
-110.939
 20
-11.5815
 30
0.00000
  70
    32
  0
VERTEX
  8
COS
  5
897C
 10
-110.794
 20
-11.7208
 30
0.00000
  70
    32
  0
SEQEND
  8
COS
  5
897D
  0
POLYLINE
  5
8741
  8
COS
 10
-96.607188614473273
 20
-15.4541013982321473
 30
0.0
 66
     1
 70
     8
  0
VERTEX
  8
COS
  5
897E
 10
-96.6072
 20
-15.4541
 30
0.00000
  70
    32
  0
VERTEX
  8
COS
  5
897F
 10
-96.5071
 20
-15.5599
 30
0.00000
  70
    32
  0
VERTEX
  8
COS
  5
8980
 10
-96.4123
 20
-15.6705
 30
0.00000
  70
    32
  0
VERTEX
  8
COS
  5
8981
 10
-96.3232
 20
-15.7857
 30
0.00000
  70
    32
  0
VERTEX
  8
COS
  5
8982
 10
-96.2399
 20
-15.9052
 30
0.00000
  70
    32
  0
VERTEX
  8
COS
  5
8983
 10
-96.1625
 20
-16.0287
 30
0.00000
  70
    32
  0
VERTEX
  8
COS
  5
8984
 10
-96.0914
 20
-16.1559
 30
0.00000
  70
    32
  0
VERTEX
  8
COS
  5
8985
 10
-96.0266
 20
-16.2865
 30
0.00000
  70
    32
  0
VERTEX
  8
COS
  5
8986
 10
-95.9684
 20
-16.4203
 30
0.00000
  70
    32
  0
VERTEX
  8
COS
  5
8987
 10
-95.9168
 20
-16.5567
 30
0.00000
  70
    32
  0
VERTEX
  8
COS
  5
8988
 10
-95.8720
 20
-16.6957
 30
0.00000
  70
    32
  0
VERTEX
  8
COS
  5
8989
 10
-95.8341
 20
-16.8367
 30
0.00000
  70
    32
  0
VERTEX
  8
COS
  5
898A
 10
-95.8032
 20
-16.9795
 30
0.00000
  70
    32
  0
VERTEX
  8
COS
  5
898B
 10
-95.7794
 20
-17.1237
 30
0.00000
  70
    32
  0
VERTEX
  8
COS
  5
898C
 10
-95.7626
 20
-17.2690
 30
0.00000
  70
    32
  0
VERTEX
  8
COS
  5
898D
 10
-95.7531
 20
-17.4150
 30
0.00000
  70
    32
  0
VERTEX
  8
COS
  5
898E
 10
-95.7507
 20
-17.5614
 30
0.00000
  70
    32
  0
VERTEX
  8
COS
  5
898F
 10
-95.7555
 20
-17.7078
 30
0.00000
  70
    32
  0
VERTEX
  8
COS
  5
8990
 10
-95.7675
 20
-17.8539
 30
0.00000
  70
    32
  0
VERTEX
  8
COS
  5
8991
 10
-95.7866
 20
-17.9993
 30
0.00000
  70
    32
  0
VERTEX
  8
COS
  5
8992
 10
-95.8128
 20
-18.1436
 30
0.00000
  70
    32
  0
VERTEX
  8
COS
  5
8993
 10
-95.8461
 20
-18.2866
 30
0.00000
  70
    32
  0
VERTEX
  8
COS
  5
8994
 10
-95.8863
 20
-18.4278
 30
0.00000
  70
    32
  0
VERTEX
  8
COS
  5
8995
 10
-95.9334
 20
-18.5670
 30
0.00000
  70
    32
  0
VERTEX
  8
COS
  5
8996
 10
-95.9872
 20
-18.7038
 30
0.00000
  70
    32
  0
VERTEX
  8
COS
  5
8997
 10
-96.0477
 20
-18.8378
 30
0.00000
  70
    32
  0
VERTEX
  8
COS
  5
8998
 10
-96.1146
 20
-18.9688
 30
0.00000
  70
    32
  0
VERTEX
  8
COS
  5
8999
 10
-96.1878
 20
-19.0964
 30
0.00000
  70
    32
  0
VERTEX
  8
COS
  5
899A
 10
-96.2672
 20
-19.2203
 30
0.00000
  70
    32
  0
VERTEX
  8
COS
  5
899B
 10
-96.3525
 20
-19.3403
 30
0.00000
  70
    32
  0
VERTEX
  8
COS
  5
899C
 10
-96.4435
 20
-19.4560
 30
0.00000
  70
    32
  0
VERTEX
  8
COS
  5
899D
 10
-96.5401
 20
-19.5671
 30
0.00000
  70
    32
  0
VERTEX
  8
COS
  5
899E
 10
-96.6420
 20
-19.6735
 30
0.00000
  70
    32
  0
VERTEX
  8
COS
  5
899F
 10
-96.7488
 20
-19.7748
 30
0.00000
  70
    32
  0
VERTEX
  8
COS
  5
89A0
 10
-96.8605
 20
-19.8707
 30
0.00000
  70
    32
  0
VERTEX
  8
COS
  5
89A1
 10
-96.9767
 20
-19.9611
 30
0.00000
  70
    32
  0
VERTEX
  8
COS
  5
89A2
 10
-97.0971
 20
-20.0458
 30
0.00000
  70
    32
  0
VERTEX
  8
COS
  5
89A3
 10
-97.2215
 20
-20.1245
 30
0.00000
  70
    32
  0
VERTEX
  8
COS
  5
89A4
 10
-97.3495
 20
-20.1970
 30
0.00000
  70
    32
  0
VERTEX
  8
COS
  5
89A5
 10
-97.4809
 20
-20.2632
 30
0.00000
  70
    32
  0
VERTEX
  8
COS
  5
89A6
 10
-97.6152
 20
-20.3229
 30
0.00000
  70
    32
  0
VERTEX
  8
COS
  5
89A7
 10
-97.7523
 20
-20.3760
 30
0.00000
  70
    32
  0
VERTEX
  8
COS
  5
89A8
 10
-97.8917
 20
-20.4223
 30
0.00000
  70
    32
  0
VERTEX
  8
COS
  5
89A9
 10
-98.0332
 20
-20.4617
 30
0.00000
  70
    32
  0
VERTEX
  8
COS
  5
89AA
 10
-98.1764
 20
-20.4942
 30
0.00000
  70
    32
  0
VERTEX
  8
COS
  5
89AB
 10
-98.3209
 20
-20.5196
 30
0.00000
  70
    32
  0
VERTEX
  8
COS
  5
89AC
 10
-98.4663
 20
-20.5380
 30
0.00000
  70
    32
  0
VERTEX
  8
COS
  5
89AD
 10
-98.6125
 20
-20.5491
 30
0.00000
  70
    32
  0
VERTEX
  8
COS
  5
89AE
 10
-98.7589
 20
-20.5531
 30
0.00000
  70
    32
  0
VERTEX
  8
COS
  5
89AF
 10
-98.9053
 20
-20.5500
 30
0.00000
  70
    32
  0
VERTEX
  8
COS
  5
89B0
 10
-99.0512
 20
-20.5396
 30
0.00000
  70
    32
  0
VERTEX
  8
COS
  5
89B1
 10
-99.1964
 20
-20.5221
 30
0.00000
  70
    32
  0
VERTEX
  8
COS
  5
89B2
 10
-99.3405
 20
-20.4974
 30
0.00000
  70
    32
  0
VERTEX
  8
COS
  5
89B3
 10
-99.4831
 20
-20.4657
 30
0.00000
  70
    32
  0
VERTEX
  8
COS
  5
89B4
 10
-99.6240
 20
-20.4270
 30
0.00000
  70
    32
  0
VERTEX
  8
COS
  5
89B5
 10
-99.7626
 20
-20.3815
 30
0.00000
  70
    32
  0
VERTEX
  8
COS
  5
89B6
 10
-99.8988
 20
-20.3292
 30
0.00000
  70
    32
  0
VERTEX
  8
COS
  5
89B7
 10
-100.032
 20
-20.2702
 30
0.00000
  70
    32
  0
VERTEX
  8
COS
  5
89B8
 10
-100.162
 20
-20.2047
 30
0.00000
  70
    32
  0
VERTEX
  8
COS
  5
89B9
 10
-100.289
 20
-20.1329
 30
0.00000
  70
    32
  0
VERTEX
  8
COS
  5
89BA
 10
-100.412
 20
-20.0549
 30
0.00000
  70
    32
  0
VERTEX
  8
COS
  5
89BB
 10
-100.531
 20
-19.9709
 30
0.00000
  70
    32
  0
VERTEX
  8
COS
  5
89BC
 10
-100.646
 20
-19.8811
 30
0.00000
  70
    32
  0
VERTEX
  8
COS
  5
89BD
 10
-100.756
 20
-19.7858
 30
0.00000
  70
    32
  0
VERTEX
  8
COS
  5
89BE
 10
-100.861
 20
-19.6851
 30
0.00000
  70
    32
  0
VERTEX
  8
COS
  5
89BF
 10
-100.962
 20
-19.5793
 30
0.00000
  70
    32
  0
VERTEX
  8
COS
  5
89C0
 10
-101.056
 20
-19.4687
 30
0.00000
  70
    32
  0
VERTEX
  8
COS
  5
89C1
 10
-101.145
 20
-19.3535
 30
0.00000
  70
    32
  0
VERTEX
  8
COS
  5
89C2
 10
-101.229
 20
-19.2340
 30
0.00000
  70
    32
  0
VERTEX
  8
COS
  5
89C3
 10
-101.306
 20
-19.1105
 30
0.00000
  70
    32
  0
VERTEX
  8
COS
  5
89C4
 10
-101.377
 20
-18.9833
 30
0.00000
  70
    32
  0
VERTEX
  8
COS
  5
89C5
 10
-101.442
 20
-18.8526
 30
0.00000
  70
    32
  0
VERTEX
  8
COS
  5
89C6
 10
-101.500
 20
-18.7189
 30
0.00000
  70
    32
  0
VERTEX
  8
COS
  5
89C7
 10
-101.552
 20
-18.5824
 30
0.00000
  70
    32
  0
VERTEX
  8
COS
  5
89C8
 10
-101.597
 20
-18.4435
 30
0.00000
  70
    32
  0
VERTEX
  8
COS
  5
89C9
 10
-101.635
 20
-18.3025
 30
0.00000
  70
    32
  0
VERTEX
  8
COS
  5
89CA
 10
-101.665
 20
-18.1597
 30
0.00000
  70
    32
  0
VERTEX
  8
COS
  5
89CB
 10
-101.689
 20
-18.0155
 30
0.00000
  70
    32
  0
VERTEX
  8
COS
  5
89CC
 10
-101.706
 20
-17.8702
 30
0.00000
  70
    32
  0
VERTEX
  8
COS
  5
89CD
 10
-101.716
 20
-17.7242
 30
0.00000
  70
    32
  0
VERTEX
  8
COS
  5
89CE
 10
-101.718
 20
-17.5778
 30
0.00000
  70
    32
  0
VERTEX
  8
COS
  5
89CF
 10
-101.713
 20
-17.4314
 30
0.00000
  70
    32
  0
VERTEX
  8
COS
  5
89D0
 10
-101.701
 20
-17.2853
 30
0.00000
  70
    32
  0
VERTEX
  8
COS
  5
89D1
 10
-101.682
 20
-17.1399
 30
0.00000
  70
    32
  0
VERTEX
  8
COS
  5
89D2
 10
-101.656
 20
-16.9956
 30
0.00000
  70
    32
  0
VERTEX
  8
COS
  5
89D3
 10
-101.623
 20
-16.8526
 30
0.00000
  70
    32
  0
VERTEX
  8
COS
  5
89D4
 10
-101.582
 20
-16.7113
 30
0.00000
  70
    32
  0
VERTEX
  8
COS
  5
89D5
 10
-101.535
 20
-16.5722
 30
0.00000
  70
    32
  0
VERTEX
  8
COS
  5
89D6
 10
-101.481
 20
-16.4354
 30
0.00000
  70
    32
  0
VERTEX
  8
COS
  5
89D7
 10
-101.421
 20
-16.3014
 30
0.00000
  70
    32
  0
VERTEX
  8
COS
  5
89D8
 10
-101.354
 20
-16.1704
 30
0.00000
  70
    32
  0
VERTEX
  8
COS
  5
89D9
 10
-101.281
 20
-16.0428
 30
0.00000
  70
    32
  0
VERTEX
  8
COS
  5
89DA
 10
-101.201
 20
-15.9188
 30
0.00000
  70
    32
  0
VERTEX
  8
COS
  5
89DB
 10
-101.116
 20
-15.7989
 30
0.00000
  70
    32
  0
VERTEX
  8
COS
  5
89DC
 10
-101.025
 20
-15.6832
 30
0.00000
  70
    32
  0
VERTEX
  8
COS
  5
89DD
 10
-100.929
 20
-15.5720
 30
0.00000
  70
    32
  0
VERTEX
  8
COS
  5
89DE
 10
-100.827
 20
-15.4657
 30
0.00000
  70
    32
  0
VERTEX
  8
COS
  5
89DF
 10
-100.720
 20
-15.3644
 30
0.00000
  70
    32
  0
VERTEX
  8
COS
  5
89E0
 10
-100.608
 20
-15.2685
 30
0.00000
  70
    32
  0
VERTEX
  8
COS
  5
89E1
 10
-100.492
 20
-15.1781
 30
0.00000
  70
    32
  0
VERTEX
  8
COS
  5
89E2
 10
-100.372
 20
-15.0934
 30
0.00000
  70
    32
  0
VERTEX
  8
COS
  5
89E3
 10
-100.247
 20
-15.0147
 30
0.00000
  70
    32
  0
VERTEX
  8
COS
  5
89E4
 10
-100.119
 20
-14.9422
 30
0.00000
  70
    32
  0
VERTEX
  8
COS
  5
89E5
 10
-99.9878
 20
-14.8760
 30
0.00000
  70
    32
  0
VERTEX
  8
COS
  5
89E6
 10
-99.8534
 20
-14.8163
 30
0.00000
  70
    32
  0
VERTEX
  8
COS
  5
89E7
 10
-99.7163
 20
-14.7632
 30
0.00000
  70
    32
  0
VERTEX
  8
COS
  5
89E8
 10
-99.5769
 20
-14.7169
 30
0.00000
  70
    32
  0
VERTEX
  8
COS
  5
89E9
 10
-99.4354
 20
-14.6774
 30
0.00000
  70
    32
  0
VERTEX
  8
COS
  5
89EA
 10
-99.2923
 20
-14.6450
 30
0.00000
  70
    32
  0
VERTEX
  8
COS
  5
89EB
 10
-99.1478
 20
-14.6195
 30
0.00000
  70
    32
  0
VERTEX
  8
COS
  5
89EC
 10
-99.0023
 20
-14.6012
 30
0.00000
  70
    32
  0
VERTEX
  8
COS
  5
89ED
 10
-98.8562
 20
-14.5900
 30
0.00000
  70
    32
  0
VERTEX
  8
COS
  5
89EE
 10
-98.7097
 20
-14.5860
 30
0.00000
  70
    32
  0
VERTEX
  8
COS
  5
89EF
 10
-98.5634
 20
-14.5892
 30
0.00000
  70
    32
  0
VERTEX
  8
COS
  5
89F0
 10
-98.4174
 20
-14.5996
 30
0.00000
  70
    32
  0
VERTEX
  8
COS
  5
89F1
 10
-98.2722
 20
-14.6171
 30
0.00000
  70
    32
  0
VERTEX
  8
COS
  5
89F2
 10
-98.1281
 20
-14.6418
 30
0.00000
  70
    32
  0
VERTEX
  8
COS
  5
89F3
 10
-97.9855
 20
-14.6735
 30
0.00000
  70
    32
  0
VERTEX
  8
COS
  5
89F4
 10
-97.8447
 20
-14.7121
 30
0.00000
  70
    32
  0
VERTEX
  8
COS
  5
89F5
 10
-97.7060
 20
-14.7577
 30
0.00000
  70
    32
  0
VERTEX
  8
COS
  5
89F6
 10
-97.5698
 20
-14.8100
 30
0.00000
  70
    32
  0
VERTEX
  8
COS
  5
89F7
 10
-97.4364
 20
-14.8690
 30
0.00000
  70
    32
  0
VERTEX
  8
COS
  5
89F8
 10
-97.3062
 20
-14.9345
 30
0.00000
  70
    32
  0
VERTEX
  8
COS
  5
89F9
 10
-97.1793
 20
-15.0063
 30
0.00000
  70
    32
  0
VERTEX
  8
COS
  5
89FA
 10
-97.0563
 20
-15.0843
 30
0.00000
  70
    32
  0
VERTEX
  8
COS
  5
89FB
 10
-96.9372
 20
-15.1683
 30
0.00000
  70
    32
  0
VERTEX
  8
COS
  5
89FC
 10
-96.8225
 20
-15.2581
 30
0.00000
  70
    32
  0
VERTEX
  8
COS
  5
89FD
 10
-96.7124
 20
-15.3534
 30
0.00000
  70
    32
  0
VERTEX
  8
COS
  5
89FE
 10
-96.6072
 20
-15.4541
 30
0.00000
  70
    32
  0
SEQEND
  8
COS
  5
89FF
  0
POLYLINE
  5
8743
  8
COS
 10
-102.5229051685425361
 20
-23.4234533375024085
 30
0.0
 66
     1
 70
     8
  0
VERTEX
  8
COS
  5
8A00
 10
-102.523
 20
-23.4235
 30
0.00000
  70
    32
  0
VERTEX
  8
COS
  5
8A01
 10
-102.529
 20
-23.4226
 30
0.00000
  70
    32
  0
VERTEX
  8
COS
  5
8A02
 10
-102.535
 20
-23.4217
 30
0.00000
  70
    32
  0
VERTEX
  8
COS
  5
8A03
 10
-102.541
 20
-23.4208
 30
0.00000
  70
    32
  0
VERTEX
  8
COS
  5
8A04
 10
-102.546
 20
-23.4198
 30
0.00000
  70
    32
  0
VERTEX
  8
COS
  5
8A05
 10
-102.552
 20
-23.4187
 30
0.00000
  70
    32
  0
VERTEX
  8
COS
  5
8A06
 10
-102.558
 20
-23.4177
 30
0.00000
  70
    32
  0
VERTEX
  8
COS
  5
8A07
 10
-102.564
 20
-23.4166
 30
0.00000
  70
    32
  0
VERTEX
  8
COS
  5
8A08
 10
-102.570
 20
-23.4154
 30
0.00000
  70
    32
  0
VERTEX
  8
COS
  5
8A09
 10
-102.576
 20
-23.4142
 30
0.00000
  70
    32
  0
VERTEX
  8
COS
  5
8A0A
 10
-102.582
 20
-23.4129
 30
0.00000
  70
    32
  0
VERTEX
  8
COS
  5
8A0B
 10
-102.587
 20
-23.4116
 30
0.00000
  70
    32
  0
VERTEX
  8
COS
  5
8A0C
 10
-102.593
 20
-23.4103
 30
0.00000
  70
    32
  0
VERTEX
  8
COS
  5
8A0D
 10
-102.599
 20
-23.4089
 30
0.00000
  70
    32
  0
VERTEX
  8
COS
  5
8A0E
 10
-102.605
 20
-23.4075
 30
0.00000
  70
    32
  0
VERTEX
  8
COS
  5
8A0F
 10
-102.610
 20
-23.4060
 30
0.00000
  70
    32
  0
VERTEX
  8
COS
  5
8A10
 10
-102.616
 20
-23.4045
 30
0.00000
  70
    32
  0
VERTEX
  8
COS
  5
8A11
 10
-102.622
 20
-23.4030
 30
0.00000
  70
    32
  0
VERTEX
  8
COS
  5
8A12
 10
-102.628
 20
-23.4014
 30
0.00000
  70
    32
  0
VERTEX
  8
COS
  5
8A13
 10
-102.633
 20
-23.3997
 30
0.00000
  70
    32
  0
VERTEX
  8
COS
  5
8A14
 10
-102.639
 20
-23.3981
 30
0.00000
  70
    32
  0
VERTEX
  8
COS
  5
8A15
 10
-102.645
 20
-23.3963
 30
0.00000
  70
    32
  0
VERTEX
  8
COS
  5
8A16
 10
-102.650
 20
-23.3946
 30
0.00000
  70
    32
  0
VERTEX
  8
COS
  5
8A17
 10
-102.656
 20
-23.3928
 30
0.00000
  70
    32
  0
VERTEX
  8
COS
  5
8A18
 10
-102.662
 20
-23.3909
 30
0.00000
  70
    32
  0
VERTEX
  8
COS
  5
8A19
 10
-102.667
 20
-23.3890
 30
0.00000
  70
    32
  0
VERTEX
  8
COS
  5
8A1A
 10
-102.673
 20
-23.3871
 30
0.00000
  70
    32
  0
VERTEX
  8
COS
  5
8A1B
 10
-102.679
 20
-23.3851
 30
0.00000
  70
    32
  0
VERTEX
  8
COS
  5
8A1C
 10
-102.684
 20
-23.3831
 30
0.00000
  70
    32
  0
VERTEX
  8
COS
  5
8A1D
 10
-102.690
 20
-23.3810
 30
0.00000
  70
    32
  0
VERTEX
  8
COS
  5
8A1E
 10
-102.695
 20
-23.3789
 30
0.00000
  70
    32
  0
VERTEX
  8
COS
  5
8A1F
 10
-102.701
 20
-23.3767
 30
0.00000
  70
    32
  0
VERTEX
  8
COS
  5
8A20
 10
-102.706
 20
-23.3746
 30
0.00000
  70
    32
  0
VERTEX
  8
COS
  5
8A21
 10
-102.712
 20
-23.3723
 30
0.00000
  70
    32
  0
VERTEX
  8
COS
  5
8A22
 10
-102.717
 20
-23.3701
 30
0.00000
  70
    32
  0
VERTEX
  8
COS
  5
8A23
 10
-102.723
 20
-23.3677
 30
0.00000
  70
    32
  0
VERTEX
  8
COS
  5
8A24
 10
-102.728
 20
-23.3654
 30
0.00000
  70
    32
  0
VERTEX
  8
COS
  5
8A25
 10
-102.734
 20
-23.3630
 30
0.00000
  70
    32
  0
VERTEX
  8
COS
  5
8A26
 10
-102.739
 20
-23.3605
 30
0.00000
  70
    32
  0
VERTEX
  8
COS
  5
8A27
 10
-102.745
 20
-23.3581
 30
0.00000
  70
    32
  0
VERTEX
  8
COS
  5
8A28
 10
-102.750
 20
-23.3555
 30
0.00000
  70
    32
  0
VERTEX
  8
COS
  5
8A29
 10
-102.755
 20
-23.3530
 30
0.00000
  70
    32
  0
VERTEX
  8
COS
  5
8A2A
 10
-102.761
 20
-23.3504
 30
0.00000
  70
    32
  0
VERTEX
  8
COS
  5
8A2B
 10
-102.766
 20
-23.3477
 30
0.00000
  70
    32
  0
VERTEX
  8
COS
  5
8A2C
 10
-102.771
 20
-23.3451
 30
0.00000
  70
    32
  0
VERTEX
  8
COS
  5
8A2D
 10
-102.777
 20
-23.3423
 30
0.00000
  70
    32
  0
VERTEX
  8
COS
  5
8A2E
 10
-102.782
 20
-23.3396
 30
0.00000
  70
    32
  0
VERTEX
  8
COS
  5
8A2F
 10
-102.787
 20
-23.3368
 30
0.00000
  70
    32
  0
VERTEX
  8
COS
  5
8A30
 10
-102.792
 20
-23.3340
 30
0.00000
  70
    32
  0
VERTEX
  8
COS
  5
8A31
 10
-102.798
 20
-23.3311
 30
0.00000
  70
    32
  0
VERTEX
  8
COS
  5
8A32
 10
-102.803
 20
-23.3282
 30
0.00000
  70
    32
  0
VERTEX
  8
COS
  5
8A33
 10
-102.808
 20
-23.3252
 30
0.00000
  70
    32
  0
VERTEX
  8
COS
  5
8A34
 10
-102.813
 20
-23.3222
 30
0.00000
  70
    32
  0
VERTEX
  8
COS
  5
8A35
 10
-102.818
 20
-23.3192
 30
0.00000
  70
    32
  0
VERTEX
  8
COS
  5
8A36
 10
-102.823
 20
-23.3161
 30
0.00000
  70
    32
  0
VERTEX
  8
COS
  5
8A37
 10
-102.828
 20
-23.3130
 30
0.00000
  70
    32
  0
VERTEX
  8
COS
  5
8A38
 10
-102.833
 20
-23.3098
 30
0.00000
  70
    32
  0
VERTEX
  8
COS
  5
8A39
 10
-102.838
 20
-23.3067
 30
0.00000
  70
    32
  0
VERTEX
  8
COS
  5
8A3A
 10
-102.843
 20
-23.3034
 30
0.00000
  70
    32
  0
VERTEX
  8
COS
  5
8A3B
 10
-102.848
 20
-23.3002
 30
0.00000
  70
    32
  0
VERTEX
  8
COS
  5
8A3C
 10
-102.853
 20
-23.2969
 30
0.00000
  70
    32
  0
VERTEX
  8
COS
  5
8A3D
 10
-102.858
 20
-23.2935
 30
0.00000
  70
    32
  0
VERTEX
  8
COS
  5
8A3E
 10
-102.863
 20
-23.2902
 30
0.00000
  70
    32
  0
VERTEX
  8
COS
  5
8A3F
 10
-102.868
 20
-23.2867
 30
0.00000
  70
    32
  0
VERTEX
  8
COS
  5
8A40
 10
-102.873
 20
-23.2833
 30
0.00000
  70
    32
  0
VERTEX
  8
COS
  5
8A41
 10
-102.877
 20
-23.2798
 30
0.00000
  70
    32
  0
VERTEX
  8
COS
  5
8A42
 10
-102.882
 20
-23.2763
 30
0.00000
  70
    32
  0
VERTEX
  8
COS
  5
8A43
 10
-102.887
 20
-23.2727
 30
0.00000
  70
    32
  0
VERTEX
  8
COS
  5
8A44
 10
-102.892
 20
-23.2692
 30
0.00000
  70
    32
  0
VERTEX
  8
COS
  5
8A45
 10
-102.896
 20
-23.2655
 30
0.00000
  70
    32
  0
VERTEX
  8
COS
  5
8A46
 10
-102.901
 20
-23.2619
 30
0.00000
  70
    32
  0
VERTEX
  8
COS
  5
8A47
 10
-102.906
 20
-23.2582
 30
0.00000
  70
    32
  0
VERTEX
  8
COS
  5
8A48
 10
-102.910
 20
-23.2544
 30
0.00000
  70
    32
  0
VERTEX
  8
COS
  5
8A49
 10
-102.915
 20
-23.2507
 30
0.00000
  70
    32
  0
VERTEX
  8
COS
  5
8A4A
 10
-102.919
 20
-23.2469
 30
0.00000
  70
    32
  0
VERTEX
  8
COS
  5
8A4B
 10
-102.924
 20
-23.2430
 30
0.00000
  70
    32
  0
VERTEX
  8
COS
  5
8A4C
 10
-102.929
 20
-23.2392
 30
0.00000
  70
    32
  0
VERTEX
  8
COS
  5
8A4D
 10
-102.933
 20
-23.2353
 30
0.00000
  70
    32
  0
VERTEX
  8
COS
  5
8A4E
 10
-102.937
 20
-23.2313
 30
0.00000
  70
    32
  0
VERTEX
  8
COS
  5
8A4F
 10
-102.942
 20
-23.2273
 30
0.00000
  70
    32
  0
VERTEX
  8
COS
  5
8A50
 10
-102.946
 20
-23.2233
 30
0.00000
  70
    32
  0
VERTEX
  8
COS
  5
8A51
 10
-102.951
 20
-23.2193
 30
0.00000
  70
    32
  0
VERTEX
  8
COS
  5
8A52
 10
-102.955
 20
-23.2152
 30
0.00000
  70
    32
  0
VERTEX
  8
COS
  5
8A53
 10
-102.959
 20
-23.2111
 30
0.00000
  70
    32
  0
VERTEX
  8
COS
  5
8A54
 10
-102.963
 20
-23.2070
 30
0.00000
  70
    32
  0
VERTEX
  8
COS
  5
8A55
 10
-102.968
 20
-23.2028
 30
0.00000
  70
    32
  0
VERTEX
  8
COS
  5
8A56
 10
-102.972
 20
-23.1986
 30
0.00000
  70
    32
  0
VERTEX
  8
COS
  5
8A57
 10
-102.976
 20
-23.1944
 30
0.00000
  70
    32
  0
VERTEX
  8
COS
  5
8A58
 10
-102.980
 20
-23.1901
 30
0.00000
  70
    32
  0
VERTEX
  8
COS
  5
8A59
 10
-102.984
 20
-23.1858
 30
0.00000
  70
    32
  0
VERTEX
  8
COS
  5
8A5A
 10
-102.988
 20
-23.1815
 30
0.00000
  70
    32
  0
VERTEX
  8
COS
  5
8A5B
 10
-102.992
 20
-23.1772
 30
0.00000
  70
    32
  0
VERTEX
  8
COS
  5
8A5C
 10
-102.996
 20
-23.1728
 30
0.00000
  70
    32
  0
VERTEX
  8
COS
  5
8A5D
 10
-103.000
 20
-23.1684
 30
0.00000
  70
    32
  0
VERTEX
  8
COS
  5
8A5E
 10
-103.004
 20
-23.1639
 30
0.00000
  70
    32
  0
VERTEX
  8
COS
  5
8A5F
 10
-103.008
 20
-23.1594
 30
0.00000
  70
    32
  0
VERTEX
  8
COS
  5
8A60
 10
-103.012
 20
-23.1549
 30
0.00000
  70
    32
  0
VERTEX
  8
COS
  5
8A61
 10
-103.016
 20
-23.1504
 30
0.00000
  70
    32
  0
VERTEX
  8
COS
  5
8A62
 10
-103.020
 20
-23.1458
 30
0.00000
  70
    32
  0
VERTEX
  8
COS
  5
8A63
 10
-103.023
 20
-23.1412
 30
0.00000
  70
    32
  0
VERTEX
  8
COS
  5
8A64
 10
-103.027
 20
-23.1366
 30
0.00000
  70
    32
  0
VERTEX
  8
COS
  5
8A65
 10
-103.031
 20
-23.1320
 30
0.00000
  70
    32
  0
VERTEX
  8
COS
  5
8A66
 10
-103.034
 20
-23.1273
 30
0.00000
  70
    32
  0
VERTEX
  8
COS
  5
8A67
 10
-103.038
 20
-23.1226
 30
0.00000
  70
    32
  0
VERTEX
  8
COS
  5
8A68
 10
-103.042
 20
-23.1179
 30
0.00000
  70
    32
  0
VERTEX
  8
COS
  5
8A69
 10
-103.045
 20
-23.1131
 30
0.00000
  70
    32
  0
VERTEX
  8
COS
  5
8A6A
 10
-103.049
 20
-23.1083
 30
0.00000
  70
    32
  0
VERTEX
  8
COS
  5
8A6B
 10
-103.052
 20
-23.1035
 30
0.00000
  70
    32
  0
VERTEX
  8
COS
  5
8A6C
 10
-103.056
 20
-23.0987
 30
0.00000
  70
    32
  0
VERTEX
  8
COS
  5
8A6D
 10
-103.059
 20
-23.0938
 30
0.00000
  70
    32
  0
VERTEX
  8
COS
  5
8A6E
 10
-103.062
 20
-23.0889
 30
0.00000
  70
    32
  0
VERTEX
  8
COS
  5
8A6F
 10
-103.066
 20
-23.0840
 30
0.00000
  70
    32
  0
VERTEX
  8
COS
  5
8A70
 10
-103.069
 20
-23.0790
 30
0.00000
  70
    32
  0
VERTEX
  8
COS
  5
8A71
 10
-103.072
 20
-23.0741
 30
0.00000
  70
    32
  0
VERTEX
  8
COS
  5
8A72
 10
-103.075
 20
-23.0691
 30
0.00000
  70
    32
  0
VERTEX
  8
COS
  5
8A73
 10
-103.079
 20
-23.0641
 30
0.00000
  70
    32
  0
VERTEX
  8
COS
  5
8A74
 10
-103.082
 20
-23.0590
 30
0.00000
  70
    32
  0
VERTEX
  8
COS
  5
8A75
 10
-103.085
 20
-23.0540
 30
0.00000
  70
    32
  0
VERTEX
  8
COS
  5
8A76
 10
-103.088
 20
-23.0489
 30
0.00000
  70
    32
  0
VERTEX
  8
COS
  5
8A77
 10
-103.091
 20
-23.0438
 30
0.00000
  70
    32
  0
VERTEX
  8
COS
  5
8A78
 10
-103.094
 20
-23.0386
 30
0.00000
  70
    32
  0
VERTEX
  8
COS
  5
8A79
 10
-103.097
 20
-23.0335
 30
0.00000
  70
    32
  0
VERTEX
  8
COS
  5
8A7A
 10
-103.100
 20
-23.0283
 30
0.00000
  70
    32
  0
VERTEX
  8
COS
  5
8A7B
 10
-103.103
 20
-23.0231
 30
0.00000
  70
    32
  0
VERTEX
  8
COS
  5
8A7C
 10
-103.105
 20
-23.0179
 30
0.00000
  70
    32
  0
VERTEX
  8
COS
  5
8A7D
 10
-103.108
 20
-23.0126
 30
0.00000
  70
    32
  0
VERTEX
  8
COS
  5
8A7E
 10
-103.111
 20
-23.0074
 30
0.00000
  70
    32
  0
VERTEX
  8
COS
  5
8A7F
 10
-103.114
 20
-23.0021
 30
0.00000
  70
    32
  0
VERTEX
  8
COS
  5
8A80
 10
-103.116
 20
-22.9968
 30
0.00000
  70
    32
  0
SEQEND
  8
COS
  5
8A81
  0
POLYLINE
  5
8744
  8
COS
 10
-109.1026123775526884
 20
-10.9892511769870911
 30
0.0
 66
     1
 70
     8
  0
VERTEX
  8
COS
  5
8A82
 10
-109.103
 20
-10.9893
 30
0.00000
  70
    32
  0
VERTEX
  8
COS
  5
8A83
 10
-109.109
 20
-10.9771
 30
0.00000
  70
    32
  0
VERTEX
  8
COS
  5
8A84
 10
-109.114
 20
-10.9649
 30
0.00000
  70
    32
  0
VERTEX
  8
COS
  5
8A85
 10
-109.120
 20
-10.9525
 30
0.00000
  70
    32
  0
VERTEX
  8
COS
  5
8A86
 10
-109.125
 20
-10.9401
 30
0.00000
  70
    32
  0
VERTEX
  8
COS
  5
8A87
 10
-109.130
 20
-10.9276
 30
0.00000
  70
    32
  0
VERTEX
  8
COS
  5
8A88
 10
-109.135
 20
-10.9150
 30
0.00000
  70
    32
  0
VERTEX
  8
COS
  5
8A89
 10
-109.140
 20
-10.9023
 30
0.00000
  70
    32
  0
VERTEX
  8
COS
  5
8A8A
 10
-109.144
 20
-10.8895
 30
0.00000
  70
    32
  0
VERTEX
  8
COS
  5
8A8B
 10
-109.148
 20
-10.8767
 30
0.00000
  70
    32
  0
VERTEX
  8
COS
  5
8A8C
 10
-109.152
 20
-10.8638
 30
0.00000
  70
    32
  0
VERTEX
  8
COS
  5
8A8D
 10
-109.156
 20
-10.8508
 30
0.00000
  70
    32
  0
VERTEX
  8
COS
  5
8A8E
 10
-109.160
 20
-10.8377
 30
0.00000
  70
    32
  0
VERTEX
  8
COS
  5
8A8F
 10
-109.163
 20
-10.8246
 30
0.00000
  70
    32
  0
VERTEX
  8
COS
  5
8A90
 10
-109.166
 20
-10.8115
 30
0.00000
  70
    32
  0
VERTEX
  8
COS
  5
8A91
 10
-109.169
 20
-10.7982
 30
0.00000
  70
    32
  0
VERTEX
  8
COS
  5
8A92
 10
-109.171
 20
-10.7850
 30
0.00000
  70
    32
  0
VERTEX
  8
COS
  5
8A93
 10
-109.174
 20
-10.7717
 30
0.00000
  70
    32
  0
VERTEX
  8
COS
  5
8A94
 10
-109.176
 20
-10.7583
 30
0.00000
  70
    32
  0
VERTEX
  8
COS
  5
8A95
 10
-109.178
 20
-10.7449
 30
0.00000
  70
    32
  0
VERTEX
  8
COS
  5
8A96
 10
-109.180
 20
-10.7315
 30
0.00000
  70
    32
  0
VERTEX
  8
COS
  5
8A97
 10
-109.181
 20
-10.7180
 30
0.00000
  70
    32
  0
VERTEX
  8
COS
  5
8A98
 10
-109.183
 20
-10.7045
 30
0.00000
  70
    32
  0
VERTEX
  8
COS
  5
8A99
 10
-109.184
 20
-10.6910
 30
0.00000
  70
    32
  0
VERTEX
  8
COS
  5
8A9A
 10
-109.184
 20
-10.6775
 30
0.00000
  70
    32
  0
VERTEX
  8
COS
  5
8A9B
 10
-109.185
 20
-10.6639
 30
0.00000
  70
    32
  0
VERTEX
  8
COS
  5
8A9C
 10
-109.185
 20
-10.6504
 30
0.00000
  70
    32
  0
VERTEX
  8
COS
  5
8A9D
 10
-109.185
 20
-10.6368
 30
0.00000
  70
    32
  0
VERTEX
  8
COS
  5
8A9E
 10
-109.185
 20
-10.6233
 30
0.00000
  70
    32
  0
VERTEX
  8
COS
  5
8A9F
 10
-109.185
 20
-10.6097
 30
0.00000
  70
    32
  0
VERTEX
  8
COS
  5
8AA0
 10
-109.184
 20
-10.5962
 30
0.00000
  70
    32
  0
VERTEX
  8
COS
  5
8AA1
 10
-109.184
 20
-10.5826
 30
0.00000
  70
    32
  0
VERTEX
  8
COS
  5
8AA2
 10
-109.183
 20
-10.5691
 30
0.00000
  70
    32
  0
VERTEX
  8
COS
  5
8AA3
 10
-109.181
 20
-10.5556
 30
0.00000
  70
    32
  0
VERTEX
  8
COS
  5
8AA4
 10
-109.180
 20
-10.5421
 30
0.00000
  70
    32
  0
VERTEX
  8
COS
  5
8AA5
 10
-109.178
 20
-10.5286
 30
0.00000
  70
    32
  0
VERTEX
  8
COS
  5
8AA6
 10
-109.176
 20
-10.5152
 30
0.00000
  70
    32
  0
VERTEX
  8
COS
  5
8AA7
 10
-109.174
 20
-10.5018
 30
0.00000
  70
    32
  0
VERTEX
  8
COS
  5
8AA8
 10
-109.171
 20
-10.4884
 30
0.00000
  70
    32
  0
VERTEX
  8
COS
  5
8AA9
 10
-109.169
 20
-10.4751
 30
0.00000
  70
    32
  0
VERTEX
  8
COS
  5
8AAA
 10
-109.166
 20
-10.4618
 30
0.00000
  70
    32
  0
VERTEX
  8
COS
  5
8AAB
 10
-109.163
 20
-10.4485
 30
0.00000
  70
    32
  0
VERTEX
  8
COS
  5
8AAC
 10
-109.160
 20
-10.4354
 30
0.00000
  70
    32
  0
VERTEX
  8
COS
  5
8AAD
 10
-109.156
 20
-10.4222
 30
0.00000
  70
    32
  0
VERTEX
  8
COS
  5
8AAE
 10
-109.152
 20
-10.4092
 30
0.00000
  70
    32
  0
VERTEX
  8
COS
  5
8AAF
 10
-109.148
 20
-10.3962
 30
0.00000
  70
    32
  0
VERTEX
  8
COS
  5
8AB0
 10
-109.144
 20
-10.3832
 30
0.00000
  70
    32
  0
VERTEX
  8
COS
  5
8AB1
 10
-109.140
 20
-10.3704
 30
0.00000
  70
    32
  0
VERTEX
  8
COS
  5
8AB2
 10
-109.135
 20
-10.3576
 30
0.00000
  70
    32
  0
VERTEX
  8
COS
  5
8AB3
 10
-109.130
 20
-10.3448
 30
0.00000
  70
    32
  0
VERTEX
  8
COS
  5
8AB4
 10
-109.125
 20
-10.3322
 30
0.00000
  70
    32
  0
VERTEX
  8
COS
  5
8AB5
 10
-109.120
 20
-10.3197
 30
0.00000
  70
    32
  0
VERTEX
  8
COS
  5
8AB6
 10
-109.114
 20
-10.3072
 30
0.00000
  70
    32
  0
VERTEX
  8
COS
  5
8AB7
 10
-109.109
 20
-10.2949
 30
0.00000
  70
    32
  0
VERTEX
  8
COS
  5
8AB8
 10
-109.103
 20
-10.2826
 30
0.00000
  70
    32
  0
VERTEX
  8
COS
  5
8AB9
 10
-109.097
 20
-10.2704
 30
0.00000
  70
    32
  0
VERTEX
  8
COS
  5
8ABA
 10
-109.090
 20
-10.2584
 30
0.00000
  70
    32
  0
VERTEX
  8
COS
  5
8ABB
 10
-109.084
 20
-10.2464
 30
0.00000
  70
    32
  0
VERTEX
  8
COS
  5
8ABC
 10
-109.077
 20
-10.2346
 30
0.00000
  70
    32
  0
VERTEX
  8
COS
  5
8ABD
 10
-109.070
 20
-10.2228
 30
0.00000
  70
    32
  0
VERTEX
  8
COS
  5
8ABE
 10
-109.063
 20
-10.2112
 30
0.00000
  70
    32
  0
VERTEX
  8
COS
  5
8ABF
 10
-109.056
 20
-10.1997
 30
0.00000
  70
    32
  0
VERTEX
  8
COS
  5
8AC0
 10
-109.048
 20
-10.1884
 30
0.00000
  70
    32
  0
VERTEX
  8
COS
  5
8AC1
 10
-109.040
 20
-10.1771
 30
0.00000
  70
    32
  0
VERTEX
  8
COS
  5
8AC2
 10
-109.032
 20
-10.1660
 30
0.00000
  70
    32
  0
VERTEX
  8
COS
  5
8AC3
 10
-109.024
 20
-10.1551
 30
0.00000
  70
    32
  0
VERTEX
  8
COS
  5
8AC4
 10
-109.016
 20
-10.1442
 30
0.00000
  70
    32
  0
VERTEX
  8
COS
  5
8AC5
 10
-109.008
 20
-10.1335
 30
0.00000
  70
    32
  0
VERTEX
  8
COS
  5
8AC6
 10
-108.999
 20
-10.1230
 30
0.00000
  70
    32
  0
VERTEX
  8
COS
  5
8AC7
 10
-108.990
 20
-10.1126
 30
0.00000
  70
    32
  0
VERTEX
  8
COS
  5
8AC8
 10
-108.981
 20
-10.1023
 30
0.00000
  70
    32
  0
VERTEX
  8
COS
  5
8AC9
 10
-108.972
 20
-10.0922
 30
0.00000
  70
    32
  0
VERTEX
  8
COS
  5
8ACA
 10
-108.963
 20
-10.0823
 30
0.00000
  70
    32
  0
VERTEX
  8
COS
  5
8ACB
 10
-108.953
 20
-10.0725
 30
0.00000
  70
    32
  0
VERTEX
  8
COS
  5
8ACC
 10
-108.944
 20
-10.0629
 30
0.00000
  70
    32
  0
VERTEX
  8
COS
  5
8ACD
 10
-108.934
 20
-10.0534
 30
0.00000
  70
    32
  0
VERTEX
  8
COS
  5
8ACE
 10
-108.924
 20
-10.0441
 30
0.00000
  70
    32
  0
VERTEX
  8
COS
  5
8ACF
 10
-108.914
 20
-10.0350
 30
0.00000
  70
    32
  0
VERTEX
  8
COS
  5
8AD0
 10
-108.903
 20
-10.0260
 30
0.00000
  70
    32
  0
VERTEX
  8
COS
  5
8AD1
 10
-108.893
 20
-10.0172
 30
0.00000
  70
    32
  0
VERTEX
  8
COS
  5
8AD2
 10
-108.882
 20
-10.0086
 30
0.00000
  70
    32
  0
VERTEX
  8
COS
  5
8AD3
 10
-108.872
 20
-10.0002
 30
0.00000
  70
    32
  0
VERTEX
  8
COS
  5
8AD4
 10
-108.861
 20
-9.99199
 30
0.00000
  70
    32
  0
VERTEX
  8
COS
  5
8AD5
 10
-108.850
 20
-9.98393
 30
0.00000
  70
    32
  0
VERTEX
  8
COS
  5
8AD6
 10
-108.839
 20
-9.97607
 30
0.00000
  70
    32
  0
VERTEX
  8
COS
  5
8AD7
 10
-108.827
 20
-9.96839
 30
0.00000
  70
    32
  0
VERTEX
  8
COS
  5
8AD8
 10
-108.816
 20
-9.96091
 30
0.00000
  70
    32
  0
VERTEX
  8
COS
  5
8AD9
 10
-108.804
 20
-9.95361
 30
0.00000
  70
    32
  0
VERTEX
  8
COS
  5
8ADA
 10
-108.793
 20
-9.94652
 30
0.00000
  70
    32
  0
VERTEX
  8
COS
  5
8ADB
 10
-108.781
 20
-9.93962
 30
0.00000
  70
    32
  0
VERTEX
  8
COS
  5
8ADC
 10
-108.769
 20
-9.93292
 30
0.00000
  70
    32
  0
VERTEX
  8
COS
  5
8ADD
 10
-108.757
 20
-9.92643
 30
0.00000
  70
    32
  0
VERTEX
  8
COS
  5
8ADE
 10
-108.745
 20
-9.92014
 30
0.00000
  70
    32
  0
VERTEX
  8
COS
  5
8ADF
 10
-108.733
 20
-9.91405
 30
0.00000
  70
    32
  0
VERTEX
  8
COS
  5
8AE0
 10
-108.721
 20
-9.90817
 30
0.00000
  70
    32
  0
VERTEX
  8
COS
  5
8AE1
 10
-108.708
 20
-9.90250
 30
0.00000
  70
    32
  0
VERTEX
  8
COS
  5
8AE2
 10
-108.696
 20
-9.89704
 30
0.00000
  70
    32
  0
VERTEX
  8
COS
  5
8AE3
 10
-108.683
 20
-9.89180
 30
0.00000
  70
    32
  0
VERTEX
  8
COS
  5
8AE4
 10
-108.671
 20
-9.88676
 30
0.00000
  70
    32
  0
VERTEX
  8
COS
  5
8AE5
 10
-108.658
 20
-9.88195
 30
0.00000
  70
    32
  0
VERTEX
  8
COS
  5
8AE6
 10
-108.645
 20
-9.87734
 30
0.00000
  70
    32
  0
VERTEX
  8
COS
  5
8AE7
 10
-108.632
 20
-9.87296
 30
0.00000
  70
    32
  0
VERTEX
  8
COS
  5
8AE8
 10
-108.619
 20
-9.86880
 30
0.00000
  70
    32
  0
VERTEX
  8
COS
  5
8AE9
 10
-108.606
 20
-9.86486
 30
0.00000
  70
    32
  0
VERTEX
  8
COS
  5
8AEA
 10
-108.593
 20
-9.86114
 30
0.00000
  70
    32
  0
VERTEX
  8
COS
  5
8AEB
 10
-108.580
 20
-9.85764
 30
0.00000
  70
    32
  0
VERTEX
  8
COS
  5
8AEC
 10
-108.567
 20
-9.85436
 30
0.00000
  70
    32
  0
VERTEX
  8
COS
  5
8AED
 10
-108.554
 20
-9.85131
 30
0.00000
  70
    32
  0
VERTEX
  8
COS
  5
8AEE
 10
-108.540
 20
-9.84849
 30
0.00000
  70
    32
  0
VERTEX
  8
COS
  5
8AEF
 10
-108.527
 20
-9.84589
 30
0.00000
  70
    32
  0
VERTEX
  8
COS
  5
8AF0
 10
-108.514
 20
-9.84352
 30
0.00000
  70
    32
  0
VERTEX
  8
COS
  5
8AF1
 10
-108.500
 20
-9.84138
 30
0.00000
  70
    32
  0
VERTEX
  8
COS
  5
8AF2
 10
-108.487
 20
-9.83947
 30
0.00000
  70
    32
  0
VERTEX
  8
COS
  5
8AF3
 10
-108.473
 20
-9.83778
 30
0.00000
  70
    32
  0
VERTEX
  8
COS
  5
8AF4
 10
-108.460
 20
-9.83633
 30
0.00000
  70
    32
  0
VERTEX
  8
COS
  5
8AF5
 10
-108.446
 20
-9.83510
 30
0.00000
  70
    32
  0
VERTEX
  8
COS
  5
8AF6
 10
-108.433
 20
-9.83411
 30
0.00000
  70
    32
  0
VERTEX
  8
COS
  5
8AF7
 10
-108.419
 20
-9.83334
 30
0.00000
  70
    32
  0
VERTEX
  8
COS
  5
8AF8
 10
-108.406
 20
-9.83281
 30
0.00000
  70
    32
  0
VERTEX
  8
COS
  5
8AF9
 10
-108.392
 20
-9.83251
 30
0.00000
  70
    32
  0
VERTEX
  8
COS
  5
8AFA
 10
-108.378
 20
-9.83244
 30
0.00000
  70
    32
  0
VERTEX
  8
COS
  5
8AFB
 10
-108.365
 20
-9.83260
 30
0.00000
  70
    32
  0
VERTEX
  8
COS
  5
8AFC
 10
-108.351
 20
-9.83299
 30
0.00000
  70
    32
  0
VERTEX
  8
COS
  5
8AFD
 10
-108.338
 20
-9.83361
 30
0.00000
  70
    32
  0
VERTEX
  8
COS
  5
8AFE
 10
-108.324
 20
-9.83446
 30
0.00000
  70
    32
  0
VERTEX
  8
COS
  5
8AFF
 10
-108.311
 20
-9.83554
 30
0.00000
  70
    32
  0
VERTEX
  8
COS
  5
8B00
 10
-108.297
 20
-9.83686
 30
0.00000
  70
    32
  0
VERTEX
  8
COS
  5
8B01
 10
-108.284
 20
-9.83840
 30
0.00000
  70
    32
  0
VERTEX
  8
COS
  5
8B02
 10
-108.270
 20
-9.84017
 30
0.00000
  70
    32
  0
SEQEND
  8
COS
  5
8B03
  0
POLYLINE
  5
8745
  8
COS
 10
-94.9457494333518355
 20
-11.7157214553267082
 30
0.0
 66
     1
 70
     8
  0
VERTEX
  8
COS
  5
8B04
 10
-94.9457
 20
-11.7157
 30
0.00000
  70
    32
  0
VERTEX
  8
COS
  5
8B05
 10
-94.9399
 20
-11.7166
 30
0.00000
  70
    32
  0
VERTEX
  8
COS
  5
8B06
 10
-94.9340
 20
-11.7175
 30
0.00000
  70
    32
  0
VERTEX
  8
COS
  5
8B07
 10
-94.9281
 20
-11.7184
 30
0.00000
  70
    32
  0
VERTEX
  8
COS
  5
8B08
 10
-94.9222
 20
-11.7194
 30
0.00000
  70
    32
  0
VERTEX
  8
COS
  5
8B09
 10
-94.9163
 20
-11.7204
 30
0.00000
  70
    32
  0
VERTEX
  8
COS
  5
8B0A
 10
-94.9105
 20
-11.7215
 30
0.00000
  70
    32
  0
VERTEX
  8
COS
  5
8B0B
 10
-94.9046
 20
-11.7226
 30
0.00000
  70
    32
  0
VERTEX
  8
COS
  5
8B0C
 10
-94.8988
 20
-11.7238
 30
0.00000
  70
    32
  0
VERTEX
  8
COS
  5
8B0D
 10
-94.8930
 20
-11.7250
 30
0.00000
  70
    32
  0
VERTEX
  8
COS
  5
8B0E
 10
-94.8871
 20
-11.7262
 30
0.00000
  70
    32
  0
VERTEX
  8
COS
  5
8B0F
 10
-94.8813
 20
-11.7275
 30
0.00000
  70
    32
  0
VERTEX
  8
COS
  5
8B10
 10
-94.8755
 20
-11.7289
 30
0.00000
  70
    32
  0
VERTEX
  8
COS
  5
8B11
 10
-94.8697
 20
-11.7302
 30
0.00000
  70
    32
  0
VERTEX
  8
COS
  5
8B12
 10
-94.8640
 20
-11.7317
 30
0.00000
  70
    32
  0
VERTEX
  8
COS
  5
8B13
 10
-94.8582
 20
-11.7331
 30
0.00000
  70
    32
  0
VERTEX
  8
COS
  5
8B14
 10
-94.8524
 20
-11.7346
 30
0.00000
  70
    32
  0
VERTEX
  8
COS
  5
8B15
 10
-94.8467
 20
-11.7362
 30
0.00000
  70
    32
  0
VERTEX
  8
COS
  5
8B16
 10
-94.8410
 20
-11.7378
 30
0.00000
  70
    32
  0
VERTEX
  8
COS
  5
8B17
 10
-94.8352
 20
-11.7394
 30
0.00000
  70
    32
  0
VERTEX
  8
COS
  5
8B18
 10
-94.8295
 20
-11.7411
 30
0.00000
  70
    32
  0
VERTEX
  8
COS
  5
8B19
 10
-94.8238
 20
-11.7428
 30
0.00000
  70
    32
  0
VERTEX
  8
COS
  5
8B1A
 10
-94.8182
 20
-11.7446
 30
0.00000
  70
    32
  0
VERTEX
  8
COS
  5
8B1B
 10
-94.8125
 20
-11.7464
 30
0.00000
  70
    32
  0
VERTEX
  8
COS
  5
8B1C
 10
-94.8069
 20
-11.7483
 30
0.00000
  70
    32
  0
VERTEX
  8
COS
  5
8B1D
 10
-94.8012
 20
-11.7502
 30
0.00000
  70
    32
  0
VERTEX
  8
COS
  5
8B1E
 10
-94.7956
 20
-11.7521
 30
0.00000
  70
    32
  0
VERTEX
  8
COS
  5
8B1F
 10
-94.7900
 20
-11.7541
 30
0.00000
  70
    32
  0
VERTEX
  8
COS
  5
8B20
 10
-94.7844
 20
-11.7561
 30
0.00000
  70
    32
  0
VERTEX
  8
COS
  5
8B21
 10
-94.7788
 20
-11.7582
 30
0.00000
  70
    32
  0
VERTEX
  8
COS
  5
8B22
 10
-94.7733
 20
-11.7603
 30
0.00000
  70
    32
  0
VERTEX
  8
COS
  5
8B23
 10
-94.7677
 20
-11.7624
 30
0.00000
  70
    32
  0
VERTEX
  8
COS
  5
8B24
 10
-94.7622
 20
-11.7646
 30
0.00000
  70
    32
  0
VERTEX
  8
COS
  5
8B25
 10
-94.7567
 20
-11.7669
 30
0.00000
  70
    32
  0
VERTEX
  8
COS
  5
8B26
 10
-94.7512
 20
-11.7691
 30
0.00000
  70
    32
  0
VERTEX
  8
COS
  5
8B27
 10
-94.7457
 20
-11.7714
 30
0.00000
  70
    32
  0
VERTEX
  8
COS
  5
8B28
 10
-94.7403
 20
-11.7738
 30
0.00000
  70
    32
  0
VERTEX
  8
COS
  5
8B29
 10
-94.7348
 20
-11.7762
 30
0.00000
  70
    32
  0
VERTEX
  8
COS
  5
8B2A
 10
-94.7294
 20
-11.7786
 30
0.00000
  70
    32
  0
VERTEX
  8
COS
  5
8B2B
 10
-94.7240
 20
-11.7811
 30
0.00000
  70
    32
  0
VERTEX
  8
COS
  5
8B2C
 10
-94.7186
 20
-11.7836
 30
0.00000
  70
    32
  0
VERTEX
  8
COS
  5
8B2D
 10
-94.7133
 20
-11.7862
 30
0.00000
  70
    32
  0
VERTEX
  8
COS
  5
8B2E
 10
-94.7079
 20
-11.7888
 30
0.00000
  70
    32
  0
VERTEX
  8
COS
  5
8B2F
 10
-94.7026
 20
-11.7914
 30
0.00000
  70
    32
  0
VERTEX
  8
COS
  5
8B30
 10
-94.6973
 20
-11.7941
 30
0.00000
  70
    32
  0
VERTEX
  8
COS
  5
8B31
 10
-94.6920
 20
-11.7968
 30
0.00000
  70
    32
  0
VERTEX
  8
COS
  5
8B32
 10
-94.6868
 20
-11.7996
 30
0.00000
  70
    32
  0
VERTEX
  8
COS
  5
8B33
 10
-94.6815
 20
-11.8024
 30
0.00000
  70
    32
  0
VERTEX
  8
COS
  5
8B34
 10
-94.6763
 20
-11.8052
 30
0.00000
  70
    32
  0
VERTEX
  8
COS
  5
8B35
 10
-94.6711
 20
-11.8081
 30
0.00000
  70
    32
  0
VERTEX
  8
COS
  5
8B36
 10
-94.6659
 20
-11.8110
 30
0.00000
  70
    32
  0
VERTEX
  8
COS
  5
8B37
 10
-94.6608
 20
-11.8140
 30
0.00000
  70
    32
  0
VERTEX
  8
COS
  5
8B38
 10
-94.6557
 20
-11.8170
 30
0.00000
  70
    32
  0
VERTEX
  8
COS
  5
8B39
 10
-94.6506
 20
-11.8200
 30
0.00000
  70
    32
  0
VERTEX
  8
COS
  5
8B3A
 10
-94.6455
 20
-11.8231
 30
0.00000
  70
    32
  0
VERTEX
  8
COS
  5
8B3B
 10
-94.6404
 20
-11.8262
 30
0.00000
  70
    32
  0
VERTEX
  8
COS
  5
8B3C
 10
-94.6354
 20
-11.8293
 30
0.00000
  70
    32
  0
VERTEX
  8
COS
  5
8B3D
 10
-94.6304
 20
-11.8325
 30
0.00000
  70
    32
  0
VERTEX
  8
COS
  5
8B3E
 10
-94.6254
 20
-11.8357
 30
0.00000
  70
    32
  0
VERTEX
  8
COS
  5
8B3F
 10
-94.6204
 20
-11.8390
 30
0.00000
  70
    32
  0
VERTEX
  8
COS
  5
8B40
 10
-94.6155
 20
-11.8423
 30
0.00000
  70
    32
  0
VERTEX
  8
COS
  5
8B41
 10
-94.6106
 20
-11.8456
 30
0.00000
  70
    32
  0
VERTEX
  8
COS
  5
8B42
 10
-94.6057
 20
-11.8490
 30
0.00000
  70
    32
  0
VERTEX
  8
COS
  5
8B43
 10
-94.6008
 20
-11.8524
 30
0.00000
  70
    32
  0
VERTEX
  8
COS
  5
8B44
 10
-94.5960
 20
-11.8559
 30
0.00000
  70
    32
  0
VERTEX
  8
COS
  5
8B45
 10
-94.5912
 20
-11.8594
 30
0.00000
  70
    32
  0
VERTEX
  8
COS
  5
8B46
 10
-94.5864
 20
-11.8629
 30
0.00000
  70
    32
  0
VERTEX
  8
COS
  5
8B47
 10
-94.5817
 20
-11.8664
 30
0.00000
  70
    32
  0
VERTEX
  8
COS
  5
8B48
 10
-94.5769
 20
-11.8700
 30
0.00000
  70
    32
  0
VERTEX
  8
COS
  5
8B49
 10
-94.5722
 20
-11.8736
 30
0.00000
  70
    32
  0
VERTEX
  8
COS
  5
8B4A
 10
-94.5676
 20
-11.8773
 30
0.00000
  70
    32
  0
VERTEX
  8
COS
  5
8B4B
 10
-94.5629
 20
-11.8810
 30
0.00000
  70
    32
  0
VERTEX
  8
COS
  5
8B4C
 10
-94.5583
 20
-11.8847
 30
0.00000
  70
    32
  0
VERTEX
  8
COS
  5
8B4D
 10
-94.5537
 20
-11.8885
 30
0.00000
  70
    32
  0
VERTEX
  8
COS
  5
8B4E
 10
-94.5492
 20
-11.8923
 30
0.00000
  70
    32
  0
VERTEX
  8
COS
  5
8B4F
 10
-94.5446
 20
-11.8961
 30
0.00000
  70
    32
  0
VERTEX
  8
COS
  5
8B50
 10
-94.5401
 20
-11.9000
 30
0.00000
  70
    32
  0
VERTEX
  8
COS
  5
8B51
 10
-94.5357
 20
-11.9039
 30
0.00000
  70
    32
  0
VERTEX
  8
COS
  5
8B52
 10
-94.5312
 20
-11.9079
 30
0.00000
  70
    32
  0
VERTEX
  8
COS
  5
8B53
 10
-94.5268
 20
-11.9118
 30
0.00000
  70
    32
  0
VERTEX
  8
COS
  5
8B54
 10
-94.5224
 20
-11.9158
 30
0.00000
  70
    32
  0
VERTEX
  8
COS
  5
8B55
 10
-94.5181
 20
-11.9199
 30
0.00000
  70
    32
  0
VERTEX
  8
COS
  5
8B56
 10
-94.5138
 20
-11.9239
 30
0.00000
  70
    32
  0
VERTEX
  8
COS
  5
8B57
 10
-94.5095
 20
-11.9280
 30
0.00000
  70
    32
  0
VERTEX
  8
COS
  5
8B58
 10
-94.5052
 20
-11.9322
 30
0.00000
  70
    32
  0
VERTEX
  8
COS
  5
8B59
 10
-94.5010
 20
-11.9363
 30
0.00000
  70
    32
  0
VERTEX
  8
COS
  5
8B5A
 10
-94.4968
 20
-11.9405
 30
0.00000
  70
    32
  0
VERTEX
  8
COS
  5
8B5B
 10
-94.4927
 20
-11.9448
 30
0.00000
  70
    32
  0
VERTEX
  8
COS
  5
8B5C
 10
-94.4885
 20
-11.9490
 30
0.00000
  70
    32
  0
VERTEX
  8
COS
  5
8B5D
 10
-94.4844
 20
-11.9533
 30
0.00000
  70
    32
  0
VERTEX
  8
COS
  5
8B5E
 10
-94.4804
 20
-11.9577
 30
0.00000
  70
    32
  0
VERTEX
  8
COS
  5
8B5F
 10
-94.4763
 20
-11.9620
 30
0.00000
  70
    32
  0
VERTEX
  8
COS
  5
8B60
 10
-94.4723
 20
-11.9664
 30
0.00000
  70
    32
  0
VERTEX
  8
COS
  5
8B61
 10
-94.4684
 20
-11.9708
 30
0.00000
  70
    32
  0
VERTEX
  8
COS
  5
8B62
 10
-94.4645
 20
-11.9753
 30
0.00000
  70
    32
  0
VERTEX
  8
COS
  5
8B63
 10
-94.4606
 20
-11.9797
 30
0.00000
  70
    32
  0
VERTEX
  8
COS
  5
8B64
 10
-94.4567
 20
-11.9842
 30
0.00000
  70
    32
  0
VERTEX
  8
COS
  5
8B65
 10
-94.4529
 20
-11.9888
 30
0.00000
  70
    32
  0
VERTEX
  8
COS
  5
8B66
 10
-94.4491
 20
-11.9933
 30
0.00000
  70
    32
  0
VERTEX
  8
COS
  5
8B67
 10
-94.4453
 20
-11.9979
 30
0.00000
  70
    32
  0
VERTEX
  8
COS
  5
8B68
 10
-94.4416
 20
-12.0026
 30
0.00000
  70
    32
  0
VERTEX
  8
COS
  5
8B69
 10
-94.4379
 20
-12.0072
 30
0.00000
  70
    32
  0
VERTEX
  8
COS
  5
8B6A
 10
-94.4342
 20
-12.0119
 30
0.00000
  70
    32
  0
VERTEX
  8
COS
  5
8B6B
 10
-94.4306
 20
-12.0166
 30
0.00000
  70
    32
  0
VERTEX
  8
COS
  5
8B6C
 10
-94.4270
 20
-12.0213
 30
0.00000
  70
    32
  0
VERTEX
  8
COS
  5
8B6D
 10
-94.4235
 20
-12.0261
 30
0.00000
  70
    32
  0
VERTEX
  8
COS
  5
8B6E
 10
-94.4200
 20
-12.0309
 30
0.00000
  70
    32
  0
VERTEX
  8
COS
  5
8B6F
 10
-94.4165
 20
-12.0357
 30
0.00000
  70
    32
  0
VERTEX
  8
COS
  5
8B70
 10
-94.4131
 20
-12.0405
 30
0.00000
  70
    32
  0
VERTEX
  8
COS
  5
8B71
 10
-94.4097
 20
-12.0454
 30
0.00000
  70
    32
  0
VERTEX
  8
COS
  5
8B72
 10
-94.4063
 20
-12.0503
 30
0.00000
  70
    32
  0
VERTEX
  8
COS
  5
8B73
 10
-94.4030
 20
-12.0552
 30
0.00000
  70
    32
  0
VERTEX
  8
COS
  5
8B74
 10
-94.3997
 20
-12.0601
 30
0.00000
  70
    32
  0
VERTEX
  8
COS
  5
8B75
 10
-94.3964
 20
-12.0651
 30
0.00000
  70
    32
  0
VERTEX
  8
COS
  5
8B76
 10
-94.3932
 20
-12.0701
 30
0.00000
  70
    32
  0
VERTEX
  8
COS
  5
8B77
 10
-94.3901
 20
-12.0751
 30
0.00000
  70
    32
  0
VERTEX
  8
COS
  5
8B78
 10
-94.3869
 20
-12.0801
 30
0.00000
  70
    32
  0
VERTEX
  8
COS
  5
8B79
 10
-94.3838
 20
-12.0852
 30
0.00000
  70
    32
  0
VERTEX
  8
COS
  5
8B7A
 10
-94.3807
 20
-12.0903
 30
0.00000
  70
    32
  0
VERTEX
  8
COS
  5
8B7B
 10
-94.3777
 20
-12.0954
 30
0.00000
  70
    32
  0
VERTEX
  8
COS
  5
8B7C
 10
-94.3747
 20
-12.1005
 30
0.00000
  70
    32
  0
VERTEX
  8
COS
  5
8B7D
 10
-94.3718
 20
-12.1057
 30
0.00000
  70
    32
  0
VERTEX
  8
COS
  5
8B7E
 10
-94.3689
 20
-12.1109
 30
0.00000
  70
    32
  0
VERTEX
  8
COS
  5
8B7F
 10
-94.3660
 20
-12.1161
 30
0.00000
  70
    32
  0
VERTEX
  8
COS
  5
8B80
 10
-94.3632
 20
-12.1213
 30
0.00000
  70
    32
  0
VERTEX
  8
COS
  5
8B81
 10
-94.3604
 20
-12.1265
 30
0.00000
  70
    32
  0
VERTEX
  8
COS
  5
8B82
 10
-94.3576
 20
-12.1318
 30
0.00000
  70
    32
  0
VERTEX
  8
COS
  5
8B83
 10
-94.3549
 20
-12.1371
 30
0.00000
  70
    32
  0
VERTEX
  8
COS
  5
8B84
 10
-94.3523
 20
-12.1424
 30
0.00000
  70
    32
  0
SEQEND
  8
COS
  5
8B85
  0
POLYLINE
  5
8746
  8
COS
 10
-88.3660422243417827
 20
-24.1499236158420381
 30
0.0
 66
     1
 70
     8
  0
VERTEX
  8
COS
  5
8B86
 10
-88.3660
 20
-24.1499
 30
0.00000
  70
    32
  0
VERTEX
  8
COS
  5
8B87
 10
-88.3601
 20
-24.1621
 30
0.00000
  70
    32
  0
VERTEX
  8
COS
  5
8B88
 10
-88.3544
 20
-24.1743
 30
0.00000
  70
    32
  0
VERTEX
  8
COS
  5
8B89
 10
-88.3489
 20
-24.1866
 30
0.00000
  70
    32
  0
VERTEX
  8
COS
  5
8B8A
 10
-88.3436
 20
-24.1991
 30
0.00000
  70
    32
  0
VERTEX
  8
COS
  5
8B8B
 10
-88.3385
 20
-24.2116
 30
0.00000
  70
    32
  0
VERTEX
  8
COS
  5
8B8C
 10
-88.3337
 20
-24.2242
 30
0.00000
  70
    32
  0
VERTEX
  8
COS
  5
8B8D
 10
-88.3290
 20
-24.2369
 30
0.00000
  70
    32
  0
VERTEX
  8
COS
  5
8B8E
 10
-88.3246
 20
-24.2496
 30
0.00000
  70
    32
  0
VERTEX
  8
COS
  5
8B8F
 10
-88.3204
 20
-24.2625
 30
0.00000
  70
    32
  0
VERTEX
  8
COS
  5
8B90
 10
-88.3164
 20
-24.2754
 30
0.00000
  70
    32
  0
VERTEX
  8
COS
  5
8B91
 10
-88.3127
 20
-24.2884
 30
0.00000
  70
    32
  0
VERTEX
  8
COS
  5
8B92
 10
-88.3091
 20
-24.3014
 30
0.00000
  70
    32
  0
VERTEX
  8
COS
  5
8B93
 10
-88.3058
 20
-24.3145
 30
0.00000
  70
    32
  0
VERTEX
  8
COS
  5
8B94
 10
-88.3027
 20
-24.3277
 30
0.00000
  70
    32
  0
VERTEX
  8
COS
  5
8B95
 10
-88.2998
 20
-24.3409
 30
0.00000
  70
    32
  0
VERTEX
  8
COS
  5
8B96
 10
-88.2972
 20
-24.3542
 30
0.00000
  70
    32
  0
VERTEX
  8
COS
  5
8B97
 10
-88.2948
 20
-24.3675
 30
0.00000
  70
    32
  0
VERTEX
  8
COS
  5
8B98
 10
-88.2926
 20
-24.3809
 30
0.00000
  70
    32
  0
VERTEX
  8
COS
  5
8B99
 10
-88.2906
 20
-24.3943
 30
0.00000
  70
    32
  0
VERTEX
  8
COS
  5
8B9A
 10
-88.2889
 20
-24.4077
 30
0.00000
  70
    32
  0
VERTEX
  8
COS
  5
8B9B
 10
-88.2874
 20
-24.4212
 30
0.00000
  70
    32
  0
VERTEX
  8
COS
  5
8B9C
 10
-88.2861
 20
-24.4347
 30
0.00000
  70
    32
  0
VERTEX
  8
COS
  5
8B9D
 10
-88.2851
 20
-24.4482
 30
0.00000
  70
    32
  0
VERTEX
  8
COS
  5
8B9E
 10
-88.2843
 20
-24.4617
 30
0.00000
  70
    32
  0
VERTEX
  8
COS
  5
8B9F
 10
-88.2837
 20
-24.4752
 30
0.00000
  70
    32
  0
VERTEX
  8
COS
  5
8BA0
 10
-88.2834
 20
-24.4888
 30
0.00000
  70
    32
  0
VERTEX
  8
COS
  5
8BA1
 10
-88.2832
 20
-24.5023
 30
0.00000
  70
    32
  0
VERTEX
  8
COS
  5
8BA2
 10
-88.2834
 20
-24.5159
 30
0.00000
  70
    32
  0
VERTEX
  8
COS
  5
8BA3
 10
-88.2837
 20
-24.5295
 30
0.00000
  70
    32
  0
VERTEX
  8
COS
  5
8BA4
 10
-88.2843
 20
-24.5430
 30
0.00000
  70
    32
  0
VERTEX
  8
COS
  5
8BA5
 10
-88.2851
 20
-24.5566
 30
0.00000
  70
    32
  0
VERTEX
  8
COS
  5
8BA6
 10
-88.2861
 20
-24.5701
 30
0.00000
  70
    32
  0
VERTEX
  8
COS
  5
8BA7
 10
-88.2874
 20
-24.5836
 30
0.00000
  70
    32
  0
VERTEX
  8
COS
  5
8BA8
 10
-88.2889
 20
-24.5971
 30
0.00000
  70
    32
  0
VERTEX
  8
COS
  5
8BA9
 10
-88.2906
 20
-24.6106
 30
0.00000
  70
    32
  0
VERTEX
  8
COS
  5
8BAA
 10
-88.2926
 20
-24.6240
 30
0.00000
  70
    32
  0
VERTEX
  8
COS
  5
8BAB
 10
-88.2948
 20
-24.6374
 30
0.00000
  70
    32
  0
VERTEX
  8
COS
  5
8BAC
 10
-88.2972
 20
-24.6508
 30
0.00000
  70
    32
  0
VERTEX
  8
COS
  5
8BAD
 10
-88.2998
 20
-24.6641
 30
0.00000
  70
    32
  0
VERTEX
  8
COS
  5
8BAE
 10
-88.3027
 20
-24.6774
 30
0.00000
  70
    32
  0
VERTEX
  8
COS
  5
8BAF
 10
-88.3058
 20
-24.6906
 30
0.00000
  70
    32
  0
VERTEX
  8
COS
  5
8BB0
 10
-88.3091
 20
-24.7038
 30
0.00000
  70
    32
  0
VERTEX
  8
COS
  5
8BB1
 10
-88.3126
 20
-24.7169
 30
0.00000
  70
    32
  0
VERTEX
  8
COS
  5
8BB2
 10
-88.3164
 20
-24.7300
 30
0.00000
  70
    32
  0
VERTEX
  8
COS
  5
8BB3
 10
-88.3204
 20
-24.7430
 30
0.00000
  70
    32
  0
VERTEX
  8
COS
  5
8BB4
 10
-88.3246
 20
-24.7560
 30
0.00000
  70
    32
  0
VERTEX
  8
COS
  5
8BB5
 10
-88.3290
 20
-24.7688
 30
0.00000
  70
    32
  0
VERTEX
  8
COS
  5
8BB6
 10
-88.3337
 20
-24.7816
 30
0.00000
  70
    32
  0
VERTEX
  8
COS
  5
8BB7
 10
-88.3385
 20
-24.7943
 30
0.00000
  70
    32
  0
VERTEX
  8
COS
  5
8BB8
 10
-88.3436
 20
-24.8070
 30
0.00000
  70
    32
  0
VERTEX
  8
COS
  5
8BB9
 10
-88.3489
 20
-24.8195
 30
0.00000
  70
    32
  0
VERTEX
  8
COS
  5
8BBA
 10
-88.3544
 20
-24.8320
 30
0.00000
  70
    32
  0
VERTEX
  8
COS
  5
8BBB
 10
-88.3601
 20
-24.8443
 30
0.00000
  70
    32
  0
VERTEX
  8
COS
  5
8BBC
 10
-88.3660
 20
-24.8566
 30
0.00000
  70
    32
  0
VERTEX
  8
COS
  5
8BBD
 10
-88.3721
 20
-24.8687
 30
0.00000
  70
    32
  0
VERTEX
  8
COS
  5
8BBE
 10
-88.3785
 20
-24.8808
 30
0.00000
  70
    32
  0
VERTEX
  8
COS
  5
8BBF
 10
-88.3850
 20
-24.8928
 30
0.00000
  70
    32
  0
VERTEX
  8
COS
  5
8BC0
 10
-88.3917
 20
-24.9046
 30
0.00000
  70
    32
  0
VERTEX
  8
COS
  5
8BC1
 10
-88.3987
 20
-24.9163
 30
0.00000
  70
    32
  0
VERTEX
  8
COS
  5
8BC2
 10
-88.4058
 20
-24.9279
 30
0.00000
  70
    32
  0
VERTEX
  8
COS
  5
8BC3
 10
-88.4131
 20
-24.9394
 30
0.00000
  70
    32
  0
VERTEX
  8
COS
  5
8BC4
 10
-88.4206
 20
-24.9508
 30
0.00000
  70
    32
  0
VERTEX
  8
COS
  5
8BC5
 10
-88.4284
 20
-24.9620
 30
0.00000
  70
    32
  0
VERTEX
  8
COS
  5
8BC6
 10
-88.4363
 20
-24.9731
 30
0.00000
  70
    32
  0
VERTEX
  8
COS
  5
8BC7
 10
-88.4444
 20
-24.9841
 30
0.00000
  70
    32
  0
VERTEX
  8
COS
  5
8BC8
 10
-88.4526
 20
-24.9950
 30
0.00000
  70
    32
  0
VERTEX
  8
COS
  5
8BC9
 10
-88.4611
 20
-25.0056
 30
0.00000
  70
    32
  0
VERTEX
  8
COS
  5
8BCA
 10
-88.4697
 20
-25.0162
 30
0.00000
  70
    32
  0
VERTEX
  8
COS
  5
8BCB
 10
-88.4785
 20
-25.0266
 30
0.00000
  70
    32
  0
VERTEX
  8
COS
  5
8BCC
 10
-88.4875
 20
-25.0369
 30
0.00000
  70
    32
  0
VERTEX
  8
COS
  5
8BCD
 10
-88.4967
 20
-25.0470
 30
0.00000
  70
    32
  0
VERTEX
  8
COS
  5
8BCE
 10
-88.5060
 20
-25.0569
 30
0.00000
  70
    32
  0
VERTEX
  8
COS
  5
8BCF
 10
-88.5155
 20
-25.0667
 30
0.00000
  70
    32
  0
VERTEX
  8
COS
  5
8BD0
 10
-88.5251
 20
-25.0763
 30
0.00000
  70
    32
  0
VERTEX
  8
COS
  5
8BD1
 10
-88.5350
 20
-25.0858
 30
0.00000
  70
    32
  0
VERTEX
  8
COS
  5
8BD2
 10
-88.5449
 20
-25.0951
 30
0.00000
  70
    32
  0
VERTEX
  8
COS
  5
8BD3
 10
-88.5551
 20
-25.1042
 30
0.00000
  70
    32
  0
VERTEX
  8
COS
  5
8BD4
 10
-88.5654
 20
-25.1131
 30
0.00000
  70
    32
  0
VERTEX
  8
COS
  5
8BD5
 10
-88.5758
 20
-25.1219
 30
0.00000
  70
    32
  0
VERTEX
  8
COS
  5
8BD6
 10
-88.5864
 20
-25.1305
 30
0.00000
  70
    32
  0
VERTEX
  8
COS
  5
8BD7
 10
-88.5971
 20
-25.1389
 30
0.00000
  70
    32
  0
VERTEX
  8
COS
  5
8BD8
 10
-88.6080
 20
-25.1472
 30
0.00000
  70
    32
  0
VERTEX
  8
COS
  5
8BD9
 10
-88.6189
 20
-25.1552
 30
0.00000
  70
    32
  0
VERTEX
  8
COS
  5
8BDA
 10
-88.6301
 20
-25.1631
 30
0.00000
  70
    32
  0
VERTEX
  8
COS
  5
8BDB
 10
-88.6413
 20
-25.1708
 30
0.00000
  70
    32
  0
VERTEX
  8
COS
  5
8BDC
 10
-88.6527
 20
-25.1783
 30
0.00000
  70
    32
  0
VERTEX
  8
COS
  5
8BDD
 10
-88.6642
 20
-25.1856
 30
0.00000
  70
    32
  0
VERTEX
  8
COS
  5
8BDE
 10
-88.6759
 20
-25.1927
 30
0.00000
  70
    32
  0
VERTEX
  8
COS
  5
8BDF
 10
-88.6876
 20
-25.1996
 30
0.00000
  70
    32
  0
VERTEX
  8
COS
  5
8BE0
 10
-88.6995
 20
-25.2063
 30
0.00000
  70
    32
  0
VERTEX
  8
COS
  5
8BE1
 10
-88.7115
 20
-25.2127
 30
0.00000
  70
    32
  0
VERTEX
  8
COS
  5
8BE2
 10
-88.7236
 20
-25.2190
 30
0.00000
  70
    32
  0
VERTEX
  8
COS
  5
8BE3
 10
-88.7357
 20
-25.2251
 30
0.00000
  70
    32
  0
VERTEX
  8
COS
  5
8BE4
 10
-88.7480
 20
-25.2310
 30
0.00000
  70
    32
  0
VERTEX
  8
COS
  5
8BE5
 10
-88.7604
 20
-25.2367
 30
0.00000
  70
    32
  0
VERTEX
  8
COS
  5
8BE6
 10
-88.7729
 20
-25.2421
 30
0.00000
  70
    32
  0
VERTEX
  8
COS
  5
8BE7
 10
-88.7854
 20
-25.2474
 30
0.00000
  70
    32
  0
VERTEX
  8
COS
  5
8BE8
 10
-88.7981
 20
-25.2524
 30
0.00000
  70
    32
  0
VERTEX
  8
COS
  5
8BE9
 10
-88.8108
 20
-25.2572
 30
0.00000
  70
    32
  0
VERTEX
  8
COS
  5
8BEA
 10
-88.8236
 20
-25.2618
 30
0.00000
  70
    32
  0
VERTEX
  8
COS
  5
8BEB
 10
-88.8365
 20
-25.2662
 30
0.00000
  70
    32
  0
VERTEX
  8
COS
  5
8BEC
 10
-88.8495
 20
-25.2704
 30
0.00000
  70
    32
  0
VERTEX
  8
COS
  5
8BED
 10
-88.8625
 20
-25.2743
 30
0.00000
  70
    32
  0
VERTEX
  8
COS
  5
8BEE
 10
-88.8756
 20
-25.2780
 30
0.00000
  70
    32
  0
VERTEX
  8
COS
  5
8BEF
 10
-88.8887
 20
-25.2815
 30
0.00000
  70
    32
  0
VERTEX
  8
COS
  5
8BF0
 10
-88.9019
 20
-25.2848
 30
0.00000
  70
    32
  0
VERTEX
  8
COS
  5
8BF1
 10
-88.9151
 20
-25.2879
 30
0.00000
  70
    32
  0
VERTEX
  8
COS
  5
8BF2
 10
-88.9284
 20
-25.2907
 30
0.00000
  70
    32
  0
VERTEX
  8
COS
  5
8BF3
 10
-88.9418
 20
-25.2933
 30
0.00000
  70
    32
  0
VERTEX
  8
COS
  5
8BF4
 10
-88.9551
 20
-25.2957
 30
0.00000
  70
    32
  0
VERTEX
  8
COS
  5
8BF5
 10
-88.9686
 20
-25.2978
 30
0.00000
  70
    32
  0
VERTEX
  8
COS
  5
8BF6
 10
-88.9820
 20
-25.2997
 30
0.00000
  70
    32
  0
VERTEX
  8
COS
  5
8BF7
 10
-88.9955
 20
-25.3014
 30
0.00000
  70
    32
  0
VERTEX
  8
COS
  5
8BF8
 10
-89.0090
 20
-25.3028
 30
0.00000
  70
    32
  0
VERTEX
  8
COS
  5
8BF9
 10
-89.0225
 20
-25.3041
 30
0.00000
  70
    32
  0
VERTEX
  8
COS
  5
8BFA
 10
-89.0360
 20
-25.3051
 30
0.00000
  70
    32
  0
VERTEX
  8
COS
  5
8BFB
 10
-89.0496
 20
-25.3058
 30
0.00000
  70
    32
  0
VERTEX
  8
COS
  5
8BFC
 10
-89.0631
 20
-25.3064
 30
0.00000
  70
    32
  0
VERTEX
  8
COS
  5
8BFD
 10
-89.0767
 20
-25.3067
 30
0.00000
  70
    32
  0
VERTEX
  8
COS
  5
8BFE
 10
-89.0903
 20
-25.3067
 30
0.00000
  70
    32
  0
VERTEX
  8
COS
  5
8BFF
 10
-89.1038
 20
-25.3066
 30
0.00000
  70
    32
  0
VERTEX
  8
COS
  5
8C00
 10
-89.1174
 20
-25.3062
 30
0.00000
  70
    32
  0
VERTEX
  8
COS
  5
8C01
 10
-89.1309
 20
-25.3056
 30
0.00000
  70
    32
  0
VERTEX
  8
COS
  5
8C02
 10
-89.1444
 20
-25.3047
 30
0.00000
  70
    32
  0
VERTEX
  8
COS
  5
8C03
 10
-89.1579
 20
-25.3036
 30
0.00000
  70
    32
  0
VERTEX
  8
COS
  5
8C04
 10
-89.1714
 20
-25.3023
 30
0.00000
  70
    32
  0
VERTEX
  8
COS
  5
8C05
 10
-89.1849
 20
-25.3008
 30
0.00000
  70
    32
  0
VERTEX
  8
COS
  5
8C06
 10
-89.1983
 20
-25.2990
 30
0.00000
  70
    32
  0
SEQEND
  8
COS
  5
8C07
  0
POLYLINE
  5
8747
  8
COS
 10
-103.6308773197402076
 20
-22.5359525739501834
 30
0.0
 66
     1
 70
     8
  0
VERTEX
  8
COS
  5
8C08
 10
-103.631
 20
-22.5360
 30
0.00000
  70
    32
  0
VERTEX
  8
COS
  5
8C09
 10
-103.632
 20
-22.5347
 30
0.00000
  70
    32
  0
VERTEX
  8
COS
  5
8C0A
 10
-103.633
 20
-22.5335
 30
0.00000
  70
    32
  0
VERTEX
  8
COS
  5
8C0B
 10
-103.635
 20
-22.5322
 30
0.00000
  70
    32
  0
VERTEX
  8
COS
  5
8C0C
 10
-103.636
 20
-22.5310
 30
0.00000
  70
    32
  0
VERTEX
  8
COS
  5
8C0D
 10
-103.637
 20
-22.5297
 30
0.00000
  70
    32
  0
VERTEX
  8
COS
  5
8C0E
 10
-103.638
 20
-22.5285
 30
0.00000
  70
    32
  0
VERTEX
  8
COS
  5
8C0F
 10
-103.639
 20
-22.5272
 30
0.00000
  70
    32
  0
VERTEX
  8
COS
  5
8C10
 10
-103.641
 20
-22.5260
 30
0.00000
  70
    32
  0
VERTEX
  8
COS
  5
8C11
 10
-103.642
 20
-22.5247
 30
0.00000
  70
    32
  0
VERTEX
  8
COS
  5
8C12
 10
-103.643
 20
-22.5235
 30
0.00000
  70
    32
  0
VERTEX
  8
COS
  5
8C13
 10
-103.644
 20
-22.5222
 30
0.00000
  70
    32
  0
VERTEX
  8
COS
  5
8C14
 10
-103.645
 20
-22.5210
 30
0.00000
  70
    32
  0
VERTEX
  8
COS
  5
8C15
 10
-103.647
 20
-22.5197
 30
0.00000
  70
    32
  0
VERTEX
  8
COS
  5
8C16
 10
-103.648
 20
-22.5184
 30
0.00000
  70
    32
  0
VERTEX
  8
COS
  5
8C17
 10
-103.649
 20
-22.5171
 30
0.00000
  70
    32
  0
VERTEX
  8
COS
  5
8C18
 10
-103.650
 20
-22.5159
 30
0.00000
  70
    32
  0
VERTEX
  8
COS
  5
8C19
 10
-103.651
 20
-22.5146
 30
0.00000
  70
    32
  0
VERTEX
  8
COS
  5
8C1A
 10
-103.653
 20
-22.5133
 30
0.00000
  70
    32
  0
VERTEX
  8
COS
  5
8C1B
 10
-103.654
 20
-22.5120
 30
0.00000
  70
    32
  0
VERTEX
  8
COS
  5
8C1C
 10
-103.655
 20
-22.5107
 30
0.00000
  70
    32
  0
VERTEX
  8
COS
  5
8C1D
 10
-103.656
 20
-22.5094
 30
0.00000
  70
    32
  0
VERTEX
  8
COS
  5
8C1E
 10
-103.657
 20
-22.5082
 30
0.00000
  70
    32
  0
VERTEX
  8
COS
  5
8C1F
 10
-103.658
 20
-22.5069
 30
0.00000
  70
    32
  0
VERTEX
  8
COS
  5
8C20
 10
-103.660
 20
-22.5056
 30
0.00000
  70
    32
  0
VERTEX
  8
COS
  5
8C21
 10
-103.661
 20
-22.5043
 30
0.00000
  70
    32
  0
VERTEX
  8
COS
  5
8C22
 10
-103.662
 20
-22.5030
 30
0.00000
  70
    32
  0
VERTEX
  8
COS
  5
8C23
 10
-103.663
 20
-22.5017
 30
0.00000
  70
    32
  0
VERTEX
  8
COS
  5
8C24
 10
-103.664
 20
-22.5004
 30
0.00000
  70
    32
  0
VERTEX
  8
COS
  5
8C25
 10
-103.665
 20
-22.4990
 30
0.00000
  70
    32
  0
VERTEX
  8
COS
  5
8C26
 10
-103.666
 20
-22.4977
 30
0.00000
  70
    32
  0
VERTEX
  8
COS
  5
8C27
 10
-103.668
 20
-22.4964
 30
0.00000
  70
    32
  0
VERTEX
  8
COS
  5
8C28
 10
-103.669
 20
-22.4951
 30
0.00000
  70
    32
  0
VERTEX
  8
COS
  5
8C29
 10
-103.670
 20
-22.4938
 30
0.00000
  70
    32
  0
VERTEX
  8
COS
  5
8C2A
 10
-103.671
 20
-22.4925
 30
0.00000
  70
    32
  0
VERTEX
  8
COS
  5
8C2B
 10
-103.672
 20
-22.4911
 30
0.00000
  70
    32
  0
VERTEX
  8
COS
  5
8C2C
 10
-103.673
 20
-22.4898
 30
0.00000
  70
    32
  0
VERTEX
  8
COS
  5
8C2D
 10
-103.674
 20
-22.4885
 30
0.00000
  70
    32
  0
VERTEX
  8
COS
  5
8C2E
 10
-103.675
 20
-22.4872
 30
0.00000
  70
    32
  0
VERTEX
  8
COS
  5
8C2F
 10
-103.677
 20
-22.4858
 30
0.00000
  70
    32
  0
VERTEX
  8
COS
  5
8C30
 10
-103.678
 20
-22.4845
 30
0.00000
  70
    32
  0
VERTEX
  8
COS
  5
8C31
 10
-103.679
 20
-22.4831
 30
0.00000
  70
    32
  0
VERTEX
  8
COS
  5
8C32
 10
-103.680
 20
-22.4818
 30
0.00000
  70
    32
  0
VERTEX
  8
COS
  5
8C33
 10
-103.681
 20
-22.4805
 30
0.00000
  70
    32
  0
VERTEX
  8
COS
  5
8C34
 10
-103.682
 20
-22.4791
 30
0.00000
  70
    32
  0
VERTEX
  8
COS
  5
8C35
 10
-103.683
 20
-22.4778
 30
0.00000
  70
    32
  0
VERTEX
  8
COS
  5
8C36
 10
-103.684
 20
-22.4764
 30
0.00000
  70
    32
  0
VERTEX
  8
COS
  5
8C37
 10
-103.685
 20
-22.4751
 30
0.00000
  70
    32
  0
VERTEX
  8
COS
  5
8C38
 10
-103.687
 20
-22.4737
 30
0.00000
  70
    32
  0
VERTEX
  8
COS
  5
8C39
 10
-103.688
 20
-22.4723
 30
0.00000
  70
    32
  0
VERTEX
  8
COS
  5
8C3A
 10
-103.689
 20
-22.4710
 30
0.00000
  70
    32
  0
VERTEX
  8
COS
  5
8C3B
 10
-103.690
 20
-22.4696
 30
0.00000
  70
    32
  0
VERTEX
  8
COS
  5
8C3C
 10
-103.691
 20
-22.4682
 30
0.00000
  70
    32
  0
VERTEX
  8
COS
  5
8C3D
 10
-103.692
 20
-22.4669
 30
0.00000
  70
    32
  0
VERTEX
  8
COS
  5
8C3E
 10
-103.693
 20
-22.4655
 30
0.00000
  70
    32
  0
VERTEX
  8
COS
  5
8C3F
 10
-103.694
 20
-22.4641
 30
0.00000
  70
    32
  0
VERTEX
  8
COS
  5
8C40
 10
-103.695
 20
-22.4628
 30
0.00000
  70
    32
  0
VERTEX
  8
COS
  5
8C41
 10
-103.696
 20
-22.4614
 30
0.00000
  70
    32
  0
VERTEX
  8
COS
  5
8C42
 10
-103.697
 20
-22.4600
 30
0.00000
  70
    32
  0
VERTEX
  8
COS
  5
8C43
 10
-103.698
 20
-22.4586
 30
0.00000
  70
    32
  0
VERTEX
  8
COS
  5
8C44
 10
-103.699
 20
-22.4572
 30
0.00000
  70
    32
  0
VERTEX
  8
COS
  5
8C45
 10
-103.700
 20
-22.4558
 30
0.00000
  70
    32
  0
VERTEX
  8
COS
  5
8C46
 10
-103.701
 20
-22.4545
 30
0.00000
  70
    32
  0
VERTEX
  8
COS
  5
8C47
 10
-103.703
 20
-22.4531
 30
0.00000
  70
    32
  0
VERTEX
  8
COS
  5
8C48
 10
-103.704
 20
-22.4517
 30
0.00000
  70
    32
  0
VERTEX
  8
COS
  5
8C49
 10
-103.705
 20
-22.4503
 30
0.00000
  70
    32
  0
VERTEX
  8
COS
  5
8C4A
 10
-103.706
 20
-22.4489
 30
0.00000
  70
    32
  0
VERTEX
  8
COS
  5
8C4B
 10
-103.707
 20
-22.4475
 30
0.00000
  70
    32
  0
VERTEX
  8
COS
  5
8C4C
 10
-103.708
 20
-22.4461
 30
0.00000
  70
    32
  0
VERTEX
  8
COS
  5
8C4D
 10
-103.709
 20
-22.4447
 30
0.00000
  70
    32
  0
VERTEX
  8
COS
  5
8C4E
 10
-103.710
 20
-22.4433
 30
0.00000
  70
    32
  0
VERTEX
  8
COS
  5
8C4F
 10
-103.711
 20
-22.4418
 30
0.00000
  70
    32
  0
VERTEX
  8
COS
  5
8C50
 10
-103.712
 20
-22.4404
 30
0.00000
  70
    32
  0
VERTEX
  8
COS
  5
8C51
 10
-103.713
 20
-22.4390
 30
0.00000
  70
    32
  0
VERTEX
  8
COS
  5
8C52
 10
-103.714
 20
-22.4376
 30
0.00000
  70
    32
  0
VERTEX
  8
COS
  5
8C53
 10
-103.715
 20
-22.4362
 30
0.00000
  70
    32
  0
VERTEX
  8
COS
  5
8C54
 10
-103.716
 20
-22.4348
 30
0.00000
  70
    32
  0
VERTEX
  8
COS
  5
8C55
 10
-103.717
 20
-22.4333
 30
0.00000
  70
    32
  0
VERTEX
  8
COS
  5
8C56
 10
-103.718
 20
-22.4319
 30
0.00000
  70
    32
  0
VERTEX
  8
COS
  5
8C57
 10
-103.719
 20
-22.4305
 30
0.00000
  70
    32
  0
VERTEX
  8
COS
  5
8C58
 10
-103.720
 20
-22.4290
 30
0.00000
  70
    32
  0
VERTEX
  8
COS
  5
8C59
 10
-103.721
 20
-22.4276
 30
0.00000
  70
    32
  0
VERTEX
  8
COS
  5
8C5A
 10
-103.722
 20
-22.4262
 30
0.00000
  70
    32
  0
VERTEX
  8
COS
  5
8C5B
 10
-103.723
 20
-22.4247
 30
0.00000
  70
    32
  0
VERTEX
  8
COS
  5
8C5C
 10
-103.724
 20
-22.4233
 30
0.00000
  70
    32
  0
VERTEX
  8
COS
  5
8C5D
 10
-103.725
 20
-22.4219
 30
0.00000
  70
    32
  0
VERTEX
  8
COS
  5
8C5E
 10
-103.726
 20
-22.4204
 30
0.00000
  70
    32
  0
VERTEX
  8
COS
  5
8C5F
 10
-103.727
 20
-22.4190
 30
0.00000
  70
    32
  0
VERTEX
  8
COS
  5
8C60
 10
-103.728
 20
-22.4175
 30
0.00000
  70
    32
  0
VERTEX
  8
COS
  5
8C61
 10
-103.729
 20
-22.4161
 30
0.00000
  70
    32
  0
VERTEX
  8
COS
  5
8C62
 10
-103.730
 20
-22.4146
 30
0.00000
  70
    32
  0
VERTEX
  8
COS
  5
8C63
 10
-103.730
 20
-22.4132
 30
0.00000
  70
    32
  0
VERTEX
  8
COS
  5
8C64
 10
-103.731
 20
-22.4117
 30
0.00000
  70
    32
  0
VERTEX
  8
COS
  5
8C65
 10
-103.732
 20
-22.4102
 30
0.00000
  70
    32
  0
VERTEX
  8
COS
  5
8C66
 10
-103.733
 20
-22.4088
 30
0.00000
  70
    32
  0
VERTEX
  8
COS
  5
8C67
 10
-103.734
 20
-22.4073
 30
0.00000
  70
    32
  0
VERTEX
  8
COS
  5
8C68
 10
-103.735
 20
-22.4059
 30
0.00000
  70
    32
  0
VERTEX
  8
COS
  5
8C69
 10
-103.736
 20
-22.4044
 30
0.00000
  70
    32
  0
VERTEX
  8
COS
  5
8C6A
 10
-103.737
 20
-22.4029
 30
0.00000
  70
    32
  0
VERTEX
  8
COS
  5
8C6B
 10
-103.738
 20
-22.4014
 30
0.00000
  70
    32
  0
VERTEX
  8
COS
  5
8C6C
 10
-103.739
 20
-22.4000
 30
0.00000
  70
    32
  0
VERTEX
  8
COS
  5
8C6D
 10
-103.740
 20
-22.3985
 30
0.00000
  70
    32
  0
VERTEX
  8
COS
  5
8C6E
 10
-103.741
 20
-22.3970
 30
0.00000
  70
    32
  0
VERTEX
  8
COS
  5
8C6F
 10
-103.742
 20
-22.3955
 30
0.00000
  70
    32
  0
VERTEX
  8
COS
  5
8C70
 10
-103.743
 20
-22.3941
 30
0.00000
  70
    32
  0
VERTEX
  8
COS
  5
8C71
 10
-103.744
 20
-22.3926
 30
0.00000
  70
    32
  0
VERTEX
  8
COS
  5
8C72
 10
-103.744
 20
-22.3911
 30
0.00000
  70
    32
  0
VERTEX
  8
COS
  5
8C73
 10
-103.745
 20
-22.3896
 30
0.00000
  70
    32
  0
VERTEX
  8
COS
  5
8C74
 10
-103.746
 20
-22.3881
 30
0.00000
  70
    32
  0
VERTEX
  8
COS
  5
8C75
 10
-103.747
 20
-22.3866
 30
0.00000
  70
    32
  0
VERTEX
  8
COS
  5
8C76
 10
-103.748
 20
-22.3851
 30
0.00000
  70
    32
  0
VERTEX
  8
COS
  5
8C77
 10
-103.749
 20
-22.3836
 30
0.00000
  70
    32
  0
VERTEX
  8
COS
  5
8C78
 10
-103.750
 20
-22.3821
 30
0.00000
  70
    32
  0
VERTEX
  8
COS
  5
8C79
 10
-103.751
 20
-22.3806
 30
0.00000
  70
    32
  0
VERTEX
  8
COS
  5
8C7A
 10
-103.752
 20
-22.3791
 30
0.00000
  70
    32
  0
VERTEX
  8
COS
  5
8C7B
 10
-103.752
 20
-22.3776
 30
0.00000
  70
    32
  0
VERTEX
  8
COS
  5
8C7C
 10
-103.753
 20
-22.3761
 30
0.00000
  70
    32
  0
VERTEX
  8
COS
  5
8C7D
 10
-103.754
 20
-22.3746
 30
0.00000
  70
    32
  0
VERTEX
  8
COS
  5
8C7E
 10
-103.755
 20
-22.3731
 30
0.00000
  70
    32
  0
VERTEX
  8
COS
  5
8C7F
 10
-103.756
 20
-22.3716
 30
0.00000
  70
    32
  0
VERTEX
  8
COS
  5
8C80
 10
-103.757
 20
-22.3701
 30
0.00000
  70
    32
  0
VERTEX
  8
COS
  5
8C81
 10
-103.758
 20
-22.3686
 30
0.00000
  70
    32
  0
VERTEX
  8
COS
  5
8C82
 10
-103.758
 20
-22.3670
 30
0.00000
  70
    32
  0
VERTEX
  8
COS
  5
8C83
 10
-103.759
 20
-22.3655
 30
0.00000
  70
    32
  0
VERTEX
  8
COS
  5
8C84
 10
-103.760
 20
-22.3640
 30
0.00000
  70
    32
  0
VERTEX
  8
COS
  5
8C85
 10
-103.761
 20
-22.3625
 30
0.00000
  70
    32
  0
VERTEX
  8
COS
  5
8C86
 10
-103.762
 20
-22.3609
 30
0.00000
  70
    32
  0
VERTEX
  8
COS
  5
8C87
 10
-103.763
 20
-22.3594
 30
0.00000
  70
    32
  0
VERTEX
  8
COS
  5
8C88
 10
-103.764
 20
-22.3579
 30
0.00000
  70
    32
  0
SEQEND
  8
COS
  5
8C89
  0
POLYLINE
  5
8748
  8
COS
 10
-95.605869051698221
 20
-11.051965713577113
 30
0.0
 66
     1
 70
     8
  0
VERTEX
  8
COS
  5
8C8A
 10
-95.6059
 20
-11.0520
 30
0.00000
  70
    32
  0
VERTEX
  8
COS
  5
8C8B
 10
-95.6019
 20
-11.0525
 30
0.00000
  70
    32
  0
VERTEX
  8
COS
  5
8C8C
 10
-95.5980
 20
-11.0531
 30
0.00000
  70
    32
  0
VERTEX
  8
COS
  5
8C8D
 10
-95.5940
 20
-11.0537
 30
0.00000
  70
    32
  0
VERTEX
  8
COS
  5
8C8E
 10
-95.5901
 20
-11.0543
 30
0.00000
  70
    32
  0
VERTEX
  8
COS
  5
8C8F
 10
-95.5861
 20
-11.0550
 30
0.00000
  70
    32
  0
VERTEX
  8
COS
  5
8C90
 10
-95.5822
 20
-11.0557
 30
0.00000
  70
    32
  0
VERTEX
  8
COS
  5
8C91
 10
-95.5783
 20
-11.0563
 30
0.00000
  70
    32
  0
VERTEX
  8
COS
  5
8C92
 10
-95.5744
 20
-11.0571
 30
0.00000
  70
    32
  0
VERTEX
  8
COS
  5
8C93
 10
-95.5704
 20
-11.0578
 30
0.00000
  70
    32
  0
VERTEX
  8
COS
  5
8C94
 10
-95.5665
 20
-11.0585
 30
0.00000
  70
    32
  0
VERTEX
  8
COS
  5
8C95
 10
-95.5626
 20
-11.0593
 30
0.00000
  70
    32
  0
VERTEX
  8
COS
  5
8C96
 10
-95.5587
 20
-11.0601
 30
0.00000
  70
    32
  0
VERTEX
  8
COS
  5
8C97
 10
-95.5548
 20
-11.0609
 30
0.00000
  70
    32
  0
VERTEX
  8
COS
  5
8C98
 10
-95.5509
 20
-11.0617
 30
0.00000
  70
    32
  0
VERTEX
  8
COS
  5
8C99
 10
-95.5470
 20
-11.0625
 30
0.00000
  70
    32
  0
VERTEX
  8
COS
  5
8C9A
 10
-95.5431
 20
-11.0634
 30
0.00000
  70
    32
  0
VERTEX
  8
COS
  5
8C9B
 10
-95.5392
 20
-11.0643
 30
0.00000
  70
    32
  0
VERTEX
  8
COS
  5
8C9C
 10
-95.5353
 20
-11.0652
 30
0.00000
  70
    32
  0
VERTEX
  8
COS
  5
8C9D
 10
-95.5314
 20
-11.0661
 30
0.00000
  70
    32
  0
VERTEX
  8
COS
  5
8C9E
 10
-95.5276
 20
-11.0670
 30
0.00000
  70
    32
  0
VERTEX
  8
COS
  5
8C9F
 10
-95.5237
 20
-11.0680
 30
0.00000
  70
    32
  0
VERTEX
  8
COS
  5
8CA0
 10
-95.5198
 20
-11.0690
 30
0.00000
  70
    32
  0
VERTEX
  8
COS
  5
8CA1
 10
-95.5160
 20
-11.0700
 30
0.00000
  70
    32
  0
VERTEX
  8
COS
  5
8CA2
 10
-95.5121
 20
-11.0710
 30
0.00000
  70
    32
  0
VERTEX
  8
COS
  5
8CA3
 10
-95.5083
 20
-11.0720
 30
0.00000
  70
    32
  0
VERTEX
  8
COS
  5
8CA4
 10
-95.5044
 20
-11.0731
 30
0.00000
  70
    32
  0
VERTEX
  8
COS
  5
8CA5
 10
-95.5006
 20
-11.0742
 30
0.00000
  70
    32
  0
VERTEX
  8
COS
  5
8CA6
 10
-95.4968
 20
-11.0753
 30
0.00000
  70
    32
  0
VERTEX
  8
COS
  5
8CA7
 10
-95.4929
 20
-11.0764
 30
0.00000
  70
    32
  0
VERTEX
  8
COS
  5
8CA8
 10
-95.4891
 20
-11.0775
 30
0.00000
  70
    32
  0
VERTEX
  8
COS
  5
8CA9
 10
-95.4853
 20
-11.0787
 30
0.00000
  70
    32
  0
VERTEX
  8
COS
  5
8CAA
 10
-95.4815
 20
-11.0798
 30
0.00000
  70
    32
  0
VERTEX
  8
COS
  5
8CAB
 10
-95.4777
 20
-11.0810
 30
0.00000
  70
    32
  0
VERTEX
  8
COS
  5
8CAC
 10
-95.4739
 20
-11.0823
 30
0.00000
  70
    32
  0
VERTEX
  8
COS
  5
8CAD
 10
-95.4701
 20
-11.0835
 30
0.00000
  70
    32
  0
VERTEX
  8
COS
  5
8CAE
 10
-95.4663
 20
-11.0847
 30
0.00000
  70
    32
  0
VERTEX
  8
COS
  5
8CAF
 10
-95.4625
 20
-11.0860
 30
0.00000
  70
    32
  0
VERTEX
  8
COS
  5
8CB0
 10
-95.4588
 20
-11.0873
 30
0.00000
  70
    32
  0
VERTEX
  8
COS
  5
8CB1
 10
-95.4550
 20
-11.0886
 30
0.00000
  70
    32
  0
VERTEX
  8
COS
  5
8CB2
 10
-95.4513
 20
-11.0899
 30
0.00000
  70
    32
  0
VERTEX
  8
COS
  5
8CB3
 10
-95.4475
 20
-11.0913
 30
0.00000
  70
    32
  0
VERTEX
  8
COS
  5
8CB4
 10
-95.4438
 20
-11.0926
 30
0.00000
  70
    32
  0
VERTEX
  8
COS
  5
8CB5
 10
-95.4400
 20
-11.0940
 30
0.00000
  70
    32
  0
VERTEX
  8
COS
  5
8CB6
 10
-95.4363
 20
-11.0954
 30
0.00000
  70
    32
  0
VERTEX
  8
COS
  5
8CB7
 10
-95.4326
 20
-11.0968
 30
0.00000
  70
    32
  0
VERTEX
  8
COS
  5
8CB8
 10
-95.4289
 20
-11.0983
 30
0.00000
  70
    32
  0
VERTEX
  8
COS
  5
8CB9
 10
-95.4252
 20
-11.0997
 30
0.00000
  70
    32
  0
VERTEX
  8
COS
  5
8CBA
 10
-95.4215
 20
-11.1012
 30
0.00000
  70
    32
  0
VERTEX
  8
COS
  5
8CBB
 10
-95.4178
 20
-11.1027
 30
0.00000
  70
    32
  0
VERTEX
  8
COS
  5
8CBC
 10
-95.4141
 20
-11.1042
 30
0.00000
  70
    32
  0
VERTEX
  8
COS
  5
8CBD
 10
-95.4104
 20
-11.1057
 30
0.00000
  70
    32
  0
VERTEX
  8
COS
  5
8CBE
 10
-95.4068
 20
-11.1073
 30
0.00000
  70
    32
  0
VERTEX
  8
COS
  5
8CBF
 10
-95.4031
 20
-11.1089
 30
0.00000
  70
    32
  0
VERTEX
  8
COS
  5
8CC0
 10
-95.3994
 20
-11.1104
 30
0.00000
  70
    32
  0
VERTEX
  8
COS
  5
8CC1
 10
-95.3958
 20
-11.1121
 30
0.00000
  70
    32
  0
VERTEX
  8
COS
  5
8CC2
 10
-95.3922
 20
-11.1137
 30
0.00000
  70
    32
  0
VERTEX
  8
COS
  5
8CC3
 10
-95.3885
 20
-11.1153
 30
0.00000
  70
    32
  0
VERTEX
  8
COS
  5
8CC4
 10
-95.3849
 20
-11.1170
 30
0.00000
  70
    32
  0
VERTEX
  8
COS
  5
8CC5
 10
-95.3813
 20
-11.1187
 30
0.00000
  70
    32
  0
VERTEX
  8
COS
  5
8CC6
 10
-95.3777
 20
-11.1204
 30
0.00000
  70
    32
  0
VERTEX
  8
COS
  5
8CC7
 10
-95.3741
 20
-11.1221
 30
0.00000
  70
    32
  0
VERTEX
  8
COS
  5
8CC8
 10
-95.3705
 20
-11.1238
 30
0.00000
  70
    32
  0
VERTEX
  8
COS
  5
8CC9
 10
-95.3670
 20
-11.1256
 30
0.00000
  70
    32
  0
VERTEX
  8
COS
  5
8CCA
 10
-95.3634
 20
-11.1273
 30
0.00000
  70
    32
  0
VERTEX
  8
COS
  5
8CCB
 10
-95.3598
 20
-11.1291
 30
0.00000
  70
    32
  0
VERTEX
  8
COS
  5
8CCC
 10
-95.3563
 20
-11.1309
 30
0.00000
  70
    32
  0
VERTEX
  8
COS
  5
8CCD
 10
-95.3528
 20
-11.1327
 30
0.00000
  70
    32
  0
VERTEX
  8
COS
  5
8CCE
 10
-95.3492
 20
-11.1346
 30
0.00000
  70
    32
  0
VERTEX
  8
COS
  5
8CCF
 10
-95.3457
 20
-11.1364
 30
0.00000
  70
    32
  0
VERTEX
  8
COS
  5
8CD0
 10
-95.3422
 20
-11.1383
 30
0.00000
  70
    32
  0
VERTEX
  8
COS
  5
8CD1
 10
-95.3387
 20
-11.1402
 30
0.00000
  70
    32
  0
VERTEX
  8
COS
  5
8CD2
 10
-95.3352
 20
-11.1421
 30
0.00000
  70
    32
  0
VERTEX
  8
COS
  5
8CD3
 10
-95.3317
 20
-11.1441
 30
0.00000
  70
    32
  0
VERTEX
  8
COS
  5
8CD4
 10
-95.3283
 20
-11.1460
 30
0.00000
  70
    32
  0
VERTEX
  8
COS
  5
8CD5
 10
-95.3248
 20
-11.1480
 30
0.00000
  70
    32
  0
VERTEX
  8
COS
  5
8CD6
 10
-95.3214
 20
-11.1500
 30
0.00000
  70
    32
  0
VERTEX
  8
COS
  5
8CD7
 10
-95.3179
 20
-11.1520
 30
0.00000
  70
    32
  0
VERTEX
  8
COS
  5
8CD8
 10
-95.3145
 20
-11.1540
 30
0.00000
  70
    32
  0
VERTEX
  8
COS
  5
8CD9
 10
-95.3111
 20
-11.1560
 30
0.00000
  70
    32
  0
VERTEX
  8
COS
  5
8CDA
 10
-95.3077
 20
-11.1581
 30
0.00000
  70
    32
  0
VERTEX
  8
COS
  5
8CDB
 10
-95.3043
 20
-11.1601
 30
0.00000
  70
    32
  0
VERTEX
  8
COS
  5
8CDC
 10
-95.3009
 20
-11.1622
 30
0.00000
  70
    32
  0
VERTEX
  8
COS
  5
8CDD
 10
-95.2975
 20
-11.1643
 30
0.00000
  70
    32
  0
VERTEX
  8
COS
  5
8CDE
 10
-95.2941
 20
-11.1664
 30
0.00000
  70
    32
  0
VERTEX
  8
COS
  5
8CDF
 10
-95.2908
 20
-11.1686
 30
0.00000
  70
    32
  0
VERTEX
  8
COS
  5
8CE0
 10
-95.2875
 20
-11.1707
 30
0.00000
  70
    32
  0
VERTEX
  8
COS
  5
8CE1
 10
-95.2841
 20
-11.1729
 30
0.00000
  70
    32
  0
VERTEX
  8
COS
  5
8CE2
 10
-95.2808
 20
-11.1751
 30
0.00000
  70
    32
  0
VERTEX
  8
COS
  5
8CE3
 10
-95.2775
 20
-11.1773
 30
0.00000
  70
    32
  0
VERTEX
  8
COS
  5
8CE4
 10
-95.2742
 20
-11.1795
 30
0.00000
  70
    32
  0
VERTEX
  8
COS
  5
8CE5
 10
-95.2709
 20
-11.1817
 30
0.00000
  70
    32
  0
VERTEX
  8
COS
  5
8CE6
 10
-95.2676
 20
-11.1840
 30
0.00000
  70
    32
  0
VERTEX
  8
COS
  5
8CE7
 10
-95.2644
 20
-11.1863
 30
0.00000
  70
    32
  0
VERTEX
  8
COS
  5
8CE8
 10
-95.2611
 20
-11.1886
 30
0.00000
  70
    32
  0
VERTEX
  8
COS
  5
8CE9
 10
-95.2579
 20
-11.1909
 30
0.00000
  70
    32
  0
VERTEX
  8
COS
  5
8CEA
 10
-95.2546
 20
-11.1932
 30
0.00000
  70
    32
  0
VERTEX
  8
COS
  5
8CEB
 10
-95.2514
 20
-11.1955
 30
0.00000
  70
    32
  0
VERTEX
  8
COS
  5
8CEC
 10
-95.2482
 20
-11.1979
 30
0.00000
  70
    32
  0
VERTEX
  8
COS
  5
8CED
 10
-95.2450
 20
-11.2002
 30
0.00000
  70
    32
  0
VERTEX
  8
COS
  5
8CEE
 10
-95.2418
 20
-11.2026
 30
0.00000
  70
    32
  0
VERTEX
  8
COS
  5
8CEF
 10
-95.2387
 20
-11.2050
 30
0.00000
  70
    32
  0
VERTEX
  8
COS
  5
8CF0
 10
-95.2355
 20
-11.2074
 30
0.00000
  70
    32
  0
VERTEX
  8
COS
  5
8CF1
 10
-95.2324
 20
-11.2099
 30
0.00000
  70
    32
  0
VERTEX
  8
COS
  5
8CF2
 10
-95.2292
 20
-11.2123
 30
0.00000
  70
    32
  0
VERTEX
  8
COS
  5
8CF3
 10
-95.2261
 20
-11.2148
 30
0.00000
  70
    32
  0
VERTEX
  8
COS
  5
8CF4
 10
-95.2230
 20
-11.2173
 30
0.00000
  70
    32
  0
VERTEX
  8
COS
  5
8CF5
 10
-95.2199
 20
-11.2198
 30
0.00000
  70
    32
  0
VERTEX
  8
COS
  5
8CF6
 10
-95.2168
 20
-11.2223
 30
0.00000
  70
    32
  0
VERTEX
  8
COS
  5
8CF7
 10
-95.2138
 20
-11.2248
 30
0.00000
  70
    32
  0
VERTEX
  8
COS
  5
8CF8
 10
-95.2107
 20
-11.2274
 30
0.00000
  70
    32
  0
VERTEX
  8
COS
  5
8CF9
 10
-95.2077
 20
-11.2299
 30
0.00000
  70
    32
  0
VERTEX
  8
COS
  5
8CFA
 10
-95.2046
 20
-11.2325
 30
0.00000
  70
    32
  0
VERTEX
  8
COS
  5
8CFB
 10
-95.2016
 20
-11.2351
 30
0.00000
  70
    32
  0
VERTEX
  8
COS
  5
8CFC
 10
-95.1986
 20
-11.2377
 30
0.00000
  70
    32
  0
VERTEX
  8
COS
  5
8CFD
 10
-95.1956
 20
-11.2403
 30
0.00000
  70
    32
  0
VERTEX
  8
COS
  5
8CFE
 10
-95.1927
 20
-11.2429
 30
0.00000
  70
    32
  0
VERTEX
  8
COS
  5
8CFF
 10
-95.1897
 20
-11.2456
 30
0.00000
  70
    32
  0
VERTEX
  8
COS
  5
8D00
 10
-95.1868
 20
-11.2482
 30
0.00000
  70
    32
  0
VERTEX
  8
COS
  5
8D01
 10
-95.1838
 20
-11.2509
 30
0.00000
  70
    32
  0
VERTEX
  8
COS
  5
8D02
 10
-95.1809
 20
-11.2536
 30
0.00000
  70
    32
  0
VERTEX
  8
COS
  5
8D03
 10
-95.1780
 20
-11.2563
 30
0.00000
  70
    32
  0
VERTEX
  8
COS
  5
8D04
 10
-95.1751
 20
-11.2591
 30
0.00000
  70
    32
  0
VERTEX
  8
COS
  5
8D05
 10
-95.1722
 20
-11.2618
 30
0.00000
  70
    32
  0
VERTEX
  8
COS
  5
8D06
 10
-95.1693
 20
-11.2646
 30
0.00000
  70
    32
  0
VERTEX
  8
COS
  5
8D07
 10
-95.1665
 20
-11.2673
 30
0.00000
  70
    32
  0
VERTEX
  8
COS
  5
8D08
 10
-95.1637
 20
-11.2701
 30
0.00000
  70
    32
  0
VERTEX
  8
COS
  5
8D09
 10
-95.1608
 20
-11.2729
 30
0.00000
  70
    32
  0
VERTEX
  8
COS
  5
8D0A
 10
-95.1580
 20
-11.2757
 30
0.00000
  70
    32
  0
SEQEND
  8
COS
  5
8D0B
  0
LINE
  5
874A
  8
COS
 10
-102.9707577013937936
 20
-23.1997083156998016
 30
0.0
 11
-103.6308773197401933
 21
-22.5359525739502011
 31
0.0
  0
LINE
  5
874B
  8
COS
 10
-94.497896900500578
 20
-11.9394664771293098
 30
0.0
 11
-95.1580165188469778
 21
-11.2757107353797306
 31
0.0
  0
LINE
  5
874C
  8
COS
 10
-109.1026123775527026
 20
-10.9892511769870893
 30
0.0
 11
-103.1163894287765999
 21
-22.9967815100085105
 31
0.0
  0
LINE
  5
874D
  8
COS
 10
-94.9457494333518355
 20
-11.7157214553267099
 30
0.0
 11
-108.2703592169018947
 21
-9.8401737618449356
 31
0.0
  0
LINE
  5
874E
  8
COS
 10
-88.3660422243417543
 20
-24.1499236158420594
 30
0.0
 11
-94.3522651731177859
 21
-12.1423932828206294
 31
0.0
  0
LINE
  5
874F
  8
COS
 10
-102.5229051685425929
 20
-23.4234533375024085
 30
0.0
 11
-89.1982953849924769
 21
-25.2990010309842184
 31
0.0
  0
LINE
  5
8751
  8
COS
 10
-95.8626569184504689
 20
-11.0158207232903393
 30
0.0
 11
-95.605869051698221
 21
-11.0519657135771201
 31
0.0
  0
LINE
  5
875F
  8
COTES
 10
-100.2492191224079932
 20
-0.2111264096661782
 30
0.0
 11
-66.9363206352197722
 21
-0.2111264096661687
 31
0.0
  0
LINE
  5
8760
  8
COTES
 10
-88.1982953849924911
 20
-25.2990010309842184
 30
0.0
 11
-66.9363206352197722
 21
-25.2990010309842113
 31
0.0
  0
LINE
  5
8761
  8
COTES
 10
-67.9363206352197722
 20
-2.7111264096661678
 30
0.0
 11
-67.9363206352197722
 21
-22.7990010309842113
 31
0.0
  0
SOLID
  5
8762
  8
COTES
 10
-67.519653968553115
 20
-2.7111264096661678
 30
0.0
 11
-68.3529873018864293
 21
-2.7111264096661678
 31
0.0
 12
-67.9363206352197722
 22
-0.211126409666169
 32
0.0
 13
-67.9363206352197722
 23
-0.211126409666169
 33
0.0
  0
SOLID
  5
8763
  8
COTES
 10
-67.519653968553115
 20
-22.7990010309842113
 30
0.0
 11
-68.3529873018864293
 21
-22.7990010309842113
 31
0.0
 12
-67.9363206352197722
 22
-25.2990010309842113
 32
0.0
 13
-67.9363206352197722
 23
-25.2990010309842113
 33
0.0
  0
INSERT
  5
8764
  8
0
  2
*U2
 10
0.0
 20
0.0
 30
0.0
  0
LINE
  5
8765
  8
COTES
 10
-213.378910934784102
 20
-21.2111264096661607
 30
0.0
 11
-213.378910934784102
 21
-41.2609873927508914
 31
0.0
  0
LINE
  5
8766
  8
COTES
 10
-88.283719390818419
 20
-25.5298477503084307
 30
0.0
 11
-88.283719390818419
 21
-41.2609873927508914
 31
0.0
  0
LINE
  5
8767
  8
COTES
 10
-210.878910934784102
 20
-40.2609873927509128
 30
0.0
 11
-90.783719390818419
 21
-40.2609873927509128
 31
0.0
  0
SOLID
  5
8768
  8
COTES
 10
-210.878910934784102
 20
-39.8443207260842414
 30
0.0
 11
-210.878910934784102
 21
-40.67765405941757
 31
0.0
 12
-213.378910934784102
 22
-40.2609873927509128
 32
0.0
 13
-213.378910934784102
 23
-40.2609873927509128
 33
0.0
  0
SOLID
  5
8769
  8
COTES
 10
-90.783719390818419
 20
-39.8443207260842414
 30
0.0
 11
-90.783719390818419
 21
-40.67765405941757
 31
0.0
 12
-88.283719390818419
 22
-40.2609873927509128
 32
0.0
 13
-88.283719390818419
 23
-40.2609873927509128
 33
0.0
  0
INSERT
  5
876A
  8
0
  2
*U3
 10
0.0
 20
0.0
 30
0.0
  0
LINE
  5
876B
  8
COTES
 10
-214.378910934784102
 20
-0.2111264096661787
 30
0.0
 11
-233.6853054471295934
 21
-0.2111264096661842
 31
0.0
  0
LINE
  5
876C
  8
COTES
 10
-214.378910934784102
 20
-20.2111264096661714
 30
0.0
 11
-233.6853054471295934
 21
-20.2111264096661714
 31
0.0
  0
LINE
  5
876D
  8
COTES
 10
-232.6853054471295934
 20
-2.7111264096661838
 30
0.0
 11
-232.6853054471295934
 21
-17.7111264096661714
 31
0.0
  0
SOLID
  5
876E
  8
COTES
 10
-232.2686387804629078
 20
-2.711126409666182
 30
0.0
 11
-233.1019721137963074
 21
-2.7111264096661838
 31
0.0
 12
-232.6853054471295934
 22
-0.211126409666184
 32
0.0
 13
-232.6853054471295934
 23
-0.211126409666184
 33
0.0
  0
SOLID
  5
876F
  8
COTES
 10
-232.2686387804629078
 20
-17.7111264096661714
 30
0.0
 11
-233.1019721137963074
 21
-17.7111264096661714
 31
0.0
 12
-232.6853054471295934
 22
-20.2111264096661714
 32
0.0
 13
-232.6853054471295934
 23
-20.2111264096661714
 33
0.0
  0
INSERT
  5
8770
  8
0
  2
*U4
 10
0.0
 20
0.0
 30
0.0
  0
ARC
  5
8771
  8
COTES
 10
-88.283719390818419
 20
-25.4277350745510411
 30
0.0
 40
10.8997053386896603
 50
185.1583563473666061
 51
256.8294327971241273
  0
SOLID
  5
8772
  8
COTES
 10
-90.8150091931800034
 20
-36.4546530209935966
 30
0.0
 11
-90.7194408604316891
 21
-35.6268178089977994
 31
0.0
 12
-88.283719390818419
 22
-36.3274404132407085
 32
0.0
 13
-88.283719390818419
 23
-36.3274404132407085
 33
0.0
  0
SOLID
  5
8773
  8
COTES
 10
-98.7227435642488445
 20
-26.4180895606618016
 30
0.0
 11
-99.5558184784211733
 21
-26.3973378903379299
 31
0.0
 12
-99.0770260103634399
 22
-23.9084889829828988
 32
0.0
 13
-99.0770260103634399
 23
-23.9084889829828988
 33
0.0
  0
INSERT
  5
8774
  8
0
  2
*U5
 10
0.0
 20
0.0
 30
0.0
  0
VIEWPORT
  5
2F8F
 67
     1
  8
0
 10
128.5
 20
97.5
 30
0.0
 40
355.6624869109946872
 41
222.1800000000000068
 68
     1
 69
     1
1001
ACAD
1000
MVIEW
1002
{
1070
    16
1010
0.0
1020
0.0
1030
0.0
1010
0.0
1020
0.0
1030
1.0
1040
0.0
1040
222.1800000000000068
1040
128.5
1040
97.5
1040
50.0
1040
0.0
1040
0.0
1070
     0
1070
  1000
1070
     1
1070
     1
1070
     0
1070
     0
1070
     0
1070
     0
1040
0.0
1040
0.0
1040
0.0
1040
10.0
1040
10.0
1040
10.0
1040
10.0
1070
     0
1002
{
1002
}
1002
}
  0
VIEWPORT
  5
2F93
 67
     1
  8
COTES
 10
128.5
 20
97.5
 30
0.0
 40
205.5999999999999943
 41
156.0
 68
     2
 69
     2
1001
ACAD
1000
MVIEW
1002
{
1070
    16
1010
0.0
1020
0.0
1030
0.0
1010
0.0
1020
0.0
1030
1.0
1040
0.0
1040
233.4971795724864876
1040
21739.342280751629005
1040
-1809.738570137672923
1040
50.0
1040
0.0
1040
0.0
1070
     0
1070
  1000
1070
     1
1070
     3
1070
     0
1070
     0
1070
     0
1070
     0
1040
0.0
1040
0.0
1040
0.0
1040
10.0
1040
10.0
1040
10.0
1040
10.0
1070
     0
1002
{
1002
}
1002
}
  0
ENDSEC
  0
EOF
