  0
SECTION
  2
HEADER
  9
$ACADVER
  1
AC1009
  9
$INSBASE
 10
0.0
 20
0.0
 30
0.0
  9
$EXTMIN
 10
-225.600127377770491
 20
-62.97778243485606
 30
0.0
  9
$EXTMAX
 10
-67.9057017549695132
 20
-6.5677947014213593
 30
0.0
  9
$LIMMIN
 10
0.0
 20
0.0
  9
$LIMMAX
 10
420.0
 20
297.0
  9
$ORTHOMODE
 70
     1
  9
$REGENMODE
 70
     1
  9
$FILLMODE
 70
     1
  9
$QTEXTMODE
 70
     0
  9
$MIRRTEXT
 70
     0
  9
$DRAGMODE
 70
     2
  9
$LTSCALE
 40
10.0
  9
$OSMODE
 70
  4095
  9
$ATTMODE
 70
     1
  9
$TEXTSIZE
 40
2.5
  9
$TRACEWID
 40
1.0
  9
$TEXTSTYLE
  7
STANDARD
  9
$CLAYER
  8
0
  9
$CELTYPE
  6
BYLAYER
  9
$CECOLOR
 62
   256
  9
$DIMSCALE
 40
1.0
  9
$DIMASZ
 40
2.5
  9
$DIMEXO
 40
1.0
  9
$DIMDLI
 40
1.0
  9
$DIMRND
 40
0.0
  9
$DIMDLE
 40
0.0
  9
$DIMEXE
 40
1.0
  9
$DIMTP
 40
0.0
  9
$DIMTM
 40
0.0
  9
$DIMTXT
 40
2.5
  9
$DIMCEN
 40
2.5
  9
$DIMTSZ
 40
0.0
  9
$DIMTOL
 70
     0
  9
$DIMLIM
 70
     0
  9
$DIMTIH
 70
     0
  9
$DIMTOH
 70
     0
  9
$DIMSE1
 70
     0
  9
$DIMSE2
 70
     0
  9
$DIMTAD
 70
     1
  9
$DIMZIN
 70
    10
  9
$DIMBLK
  1

  9
$DIMASO
 70
     0
  9
$DIMSHO
 70
     1
  9
$DIMPOST
  1

  9
$DIMAPOST
  1

  9
$DIMALT
 70
     0
  9
$DIMALTD
 70
     3
  9
$DIMALTF
 40
0.03937007874016
  9
$DIMLFAC
 40
1.0
  9
$DIMTOFL
 70
     1
  9
$DIMTVP
 40
0.0
  9
$DIMTIX
 70
     0
  9
$DIMSOXD
 70
     0
  9
$DIMSAH
 70
     0
  9
$DIMBLK1
  1

  9
$DIMBLK2
  1

  9
$DIMSTYLE
  2
ISO-25
  9
$DIMCLRD
 70
     0
  9
$DIMCLRE
 70
     0
  9
$DIMCLRT
 70
     0
  9
$DIMTFAC
 40
1.0
  9
$DIMGAP
 40
0.625
  9
$LUNITS
 70
     2
  9
$LUPREC
 70
     4
  9
$SKETCHINC
 40
1.0
  9
$FILLETRAD
 40
0.0
  9
$AUNITS
 70
     0
  9
$AUPREC
 70
     0
  9
$MENU
  1
.
  9
$ELEVATION
 40
0.0
  9
$PELEVATION
 40
0.0
  9
$THICKNESS
 40
0.0
  9
$LIMCHECK
 70
     0
  9
$BLIPMODE
 70
     0
  9
$CHAMFERA
 40
0.5
  9
$CHAMFERB
 40
0.5
  9
$SKPOLY
 70
     0
  9
$TDCREATE
 40
2457332.5054629631340504
  9
$TDUPDATE
 40
2460007.3772337972186506
  9
$TDINDWG
 40
1.2615353356000001
  9
$TDUSRTIMER
 40
1.2615280787000001
  9
$USRTIMER
 70
     1
  9
$ANGBASE
 50
0.0
  9
$ANGDIR
 70
     0
  9
$PDMODE
 70
     0
  9
$PDSIZE
 40
0.0
  9
$PLINEWID
 40
0.0
  9
$COORDS
 70
     1
  9
$SPLFRAME
 70
     0
  9
$SPLINETYPE
 70
     6
  9
$SPLINESEGS
 70
     8
  9
$ATTDIA
 70
     1
  9
$ATTREQ
 70
     1
  9
$HANDLING
 70
     1
  9
$HANDSEED
  5
8B2D
  9
$SURFTAB1
 70
     6
  9
$SURFTAB2
 70
     6
  9
$SURFTYPE
 70
     6
  9
$SURFU
 70
     6
  9
$SURFV
 70
     6
  9
$UCSNAME
  2

  9
$UCSORG
 10
0.0
 20
0.0
 30
0.0
  9
$UCSXDIR
 10
1.0
 20
0.0
 30
0.0
  9
$UCSYDIR
 10
0.0
 20
1.0
 30
0.0
  9
$PUCSNAME
  2

  9
$PUCSORG
 10
0.0
 20
0.0
 30
0.0
  9
$PUCSXDIR
 10
1.0
 20
0.0
 30
0.0
  9
$PUCSYDIR
 10
0.0
 20
1.0
 30
0.0
  9
$USERI1
 70
     0
  9
$USERI2
 70
     0
  9
$USERI3
 70
     0
  9
$USERI4
 70
     0
  9
$USERI5
 70
     0
  9
$USERR1
 40
0.0
  9
$USERR2
 40
0.0
  9
$USERR3
 40
0.0
  9
$USERR4
 40
0.0
  9
$USERR5
 40
0.0
  9
$WORLDVIEW
 70
     1
  9
$SHADEDGE
 70
     3
  9
$SHADEDIF
 70
    70
  9
$TILEMODE
 70
     1
  9
$MAXACTVP
 70
    64
  9
$PLIMCHECK
 70
     0
  9
$PEXTMIN
 10
25.6999999999999886
 20
19.5
 30
0.0
  9
$PEXTMAX
 10
231.3000000000000114
 20
175.5
 30
0.0
  9
$PLIMMIN
 10
-20.0
 20
-7.5
  9
$PLIMMAX
 10
277.0
 20
202.5
  9
$UNITMODE
 70
     0
  9
$VISRETAIN
 70
     1
  9
$PLINEGEN
 70
     0
  9
$PSLTSCALE
 70
     1
  0
ENDSEC
  0
SECTION
  2
TABLES
  0
TABLE
  2
VPORT
 70
     1
  0
VPORT
  2
*ACTIVE
 70
     0
 10
0.0
 20
0.0
 11
1.0
 21
1.0
 12
-134.5752407132665098
 22
-17.1288989177383506
 13
0.0
 23
0.0
 14
10.0
 24
10.0
 15
10.0
 25
10.0
 16
0.0
 26
0.0
 36
1.0
 17
0.0
 27
0.0
 37
0.0
 40
81.975635200546435
 41
2.2927120669056151
 42
50.0
 43
0.0
 44
0.0
 50
0.0
 51
0.0
 71
     0
 72
 20000
 73
     1
 74
     2
 75
     0
 76
     0
 77
     0
 78
     0
  0
ENDTAB
  0
TABLE
  2
LTYPE
 70
     2
  0
LTYPE
  2
CONTINUOUS
 70
     0
  3
Solid line
 72
    65
 73
     0
 40
0.0
  0
ENDTAB
  0
TABLE
  2
LAYER
 70
    10
  0
LAYER
  2
0
 70
     0
 62
     7
  6
CONTINUOUS
  0
LAYER
  2
DEFPOINTS
 70
     0
 62
     7
  6
CONTINUOUS
  0
LAYER
  2
COS
 70
     0
 62
     4
  6
CONTINUOUS
  0
LAYER
  2
CAP
 70
     0
 62
     4
  6
CONTINUOUS
  0
LAYER
  2
COTES
 70
     0
 62
     2
  6
CONTINUOUS
  0
LAYER
  2
REFER\U+00C8NCIA
 70
     0
 62
     5
  6
CONTINUOUS
  0
LAYER
  2
MAQUINA
 70
     1
 62
     7
  6
CONTINUOUS
  0
LAYER
  2
RESERVA
 70
     0
 62
     7
  6
CONTINUOUS
  0
LAYER
  2
CAIXETI
 70
     0
 62
     7
  6
CONTINUOUS
  0
LAYER
  2
ARISTAS_VISIBLES_ISO_
 70
     0
 62
     7
  6
CONTINUOUS
  0
ENDTAB
  0
TABLE
  2
STYLE
 70
     3
  0
STYLE
  2
STANDARD
 70
     0
 40
0.0
 41
1.0
 50
0.0
 71
     0
 42
2.5
  3
SIMPLEX.SHX
  4

  0
STYLE
  2
STYLE1
 70
     0
 40
0.0
 41
1.0
 50
0.0
 71
     0
 42
6.0
  3
txt
  4

  0
STYLE
  2
SIMPLEX
 70
     0
 40
0.0
 41
1.0
 50
0.0
 71
     0
 42
3.0
  3
SIMPLEX.SHX
  4

  0
ENDTAB
  0
TABLE
  2
VIEW
 70
     0
  0
ENDTAB
  0
TABLE
  2
UCS
 70
     0
  0
ENDTAB
  0
TABLE
  2
APPID
 70
    10
  0
APPID
  2
ACAD
 70
     0
  0
APPID
  2
ACAD_PSEXT
 70
     0
  0
APPID
  2
ACADANNOPO
 70
     0
  0
APPID
  2
ACADANNOTATIVE
 70
     0
  0
APPID
  2
ACAD_DSTYLE_DIMJAG
 70
     0
  0
APPID
  2
ACAD_DSTYLE_DIMTALN
 70
     0
  0
APPID
  2
ACAD_MLEADERVER
 70
     0
  0
APPID
  2
ACAECLAYERSTANDARD
 70
     0
  0
APPID
  2
ACAD_EXEMPT_FROM_CAD_STANDARDS
 70
     0
  0
APPID
  2
ACAD_NAV_VCDISPLAY
 70
     0
  0
ENDTAB
  0
TABLE
  2
DIMSTYLE
 70
     3
  0
DIMSTYLE
  2
ISO-25
 70
     0
  3

  4

  5

  6

  7

 40
1.0
 41
2.5
 42
0.625
 43
3.75
 44
1.25
 45
0.0
 46
0.0
 47
0.0
 48
0.0
140
2.5
141
2.5
142
0.0
143
0.03937007874016
144
1.0
145
0.0
146
1.0
147
0.625
 71
     0
 72
     0
 73
     0
 74
     0
 75
     0
 76
     0
 77
     1
 78
     8
170
     0
171
     3
172
     1
173
     0
174
     0
175
     0
176
     0
177
     0
178
     0
  0
DIMSTYLE
  2
STANDARD
 70
     0
  3

  4

  5

  6

  7

 40
1.0
 41
0.18
 42
0.0625
 43
0.38
 44
0.18
 45
0.0
 46
0.0
 47
0.0
 48
0.0
140
0.18
141
0.09
142
0.0
143
25.3999999999999986
144
1.0
145
0.0
146
1.0
147
0.09
 71
     0
 72
     0
 73
     1
 74
     1
 75
     0
 76
     0
 77
     0
 78
     0
170
     0
171
     2
172
     0
173
     0
174
     0
175
     0
176
     0
177
     0
178
     0
  0
ENDTAB
  0
ENDSEC
  0
SECTION
  2
BLOCKS
  0
BLOCK
  8
0
  2
$MODEL_SPACE
 70
     0
 10
0.0
 20
0.0
 30
0.0
  3
$MODEL_SPACE
  1

  0
ENDBLK
  5
21
  8
0
  0
BLOCK
 67
     1
  8
0
  2
$PAPER_SPACE
 70
     0
 10
0.0
 20
0.0
 30
0.0
  3
$PAPER_SPACE
  1

  0
ENDBLK
  5
D9
 67
     1
  8
0
  0
BLOCK
  8
0
  2
*U2
 70
     1
 10
0.0
 20
0.0
 30
0.0
  3
*U2
  1

  0
TEXT
  5
8671
  8
COTES
 10
-70.1775335698404206
 20
-13.4089651573292592
 30
0.0
 40
2.5
  1
10
 50
90.0000000000000284
  0
ENDBLK
  5
8673
  8
0
  0
BLOCK
  8
0
  2
*U3
 70
     1
 10
0.0
 20
0.0
 30
0.0
  3
*U3
  1

  0
TEXT
  5
8675
  8
COTES
 10
-147.2181815709770945
 20
-41.1068821545991767
 30
0.0
 40
2.5
  1
125
  0
ENDBLK
  5
8677
  8
0
  0
BLOCK
  8
0
  2
*U4
 70
     1
 10
0.0
 20
0.0
 30
0.0
  3
*U4
  1

  0
TEXT
  5
8679
  8
COTES
 10
-223.100127377770491
 20
-18.5916042252309204
 30
0.0
 40
2.5
  1
20
 50
90.0000000000000284
  0
ENDBLK
  5
867B
  8
0
  0
BLOCK
  8
0
  2
*U5
 70
     1
 10
0.0
 20
0.0
 30
0.0
  3
*U5
  1

  0
TEXT
  5
867D
  8
COTES
 10
-93.0835188605829984
 20
-30.7226318508344285
 30
0.0
 40
2.5
  1
63°
 50
328.4910628956251912
  0
ENDBLK
  5
867F
  8
0
  0
ENDSEC
  0
SECTION
  2
ENTITIES
  0
TEXT
  5
8505
  8
REFER\U+00C8NCIA
 10
-174.7934465416437035
 20
-62.9777824348560529
 30
0.0
 40
5.0
  1
PDNNL2020K11
  7
SIMPLEX
 72
     1
 11
-148.0077322559293975
 21
-62.9777824348560529
 31
0.0
  0
LINE
  5
85B3
  8
COS
 10
-92.275187612630603
 20
-22.2089281848990403
 30
0.0
 11
-100.8365464456337008
 21
-26.5677947014213913
 31
0.0
  0
LINE
  5
85B4
  8
COS
 10
-100.0856951274298012
 20
-6.567794701421378
 30
0.0
 11
-92.0796178221035575
 21
-10.9042022410742998
 31
0.0
  0
LINE
  5
85B5
  8
COS
 10
-92.2631575454211941
 20
-21.5135415788101412
 30
0.0
 11
-92.275187612630603
 21
-22.2089281848990403
 31
0.0
  0
LINE
  5
85B6
  8
COS
 10
-92.3186061233384549
 20
-21.4835084399615504
 30
0.0
 11
-92.3149299763928894
 21
-21.4113465291930396
 31
0.0
  0
LINE
  5
85B7
  8
COS
 10
-92.0796178221035575
 20
-10.9042022410742998
 30
0.0
 11
-92.0916478893129948
 21
-11.5995888471631403
 31
0.0
  0
LINE
  5
85B8
  8
COS
 10
-92.0916478893129948
 20
-11.5995888471631403
 30
0.0
 11
-101.477893790550695
 21
-16.3784322262110891
 31
0.0
  0
POLYLINE
  5
85B9
  8
COS
 10
-99.6221009145575778
 20
-20.1222024957033696
 30
0.0
 66
     1
 70
     8
  0
VERTEX
  8
COS
  5
869B
 10
-99.6221
 20
-20.1222
 30
0.00000
  70
    32
  0
VERTEX
  8
COS
  5
869C
 10
-99.6681
 20
-20.1449
 30
0.00000
  70
    32
  0
VERTEX
  8
COS
  5
869D
 10
-99.7145
 20
-20.1664
 30
0.00000
  70
    32
  0
VERTEX
  8
COS
  5
869E
 10
-99.7615
 20
-20.1868
 30
0.00000
  70
    32
  0
VERTEX
  8
COS
  5
869F
 10
-99.8090
 20
-20.2061
 30
0.00000
  70
    32
  0
VERTEX
  8
COS
  5
86A0
 10
-99.8569
 20
-20.2241
 30
0.00000
  70
    32
  0
VERTEX
  8
COS
  5
86A1
 10
-99.9052
 20
-20.2410
 30
0.00000
  70
    32
  0
VERTEX
  8
COS
  5
86A2
 10
-99.9539
 20
-20.2566
 30
0.00000
  70
    32
  0
VERTEX
  8
COS
  5
86A3
 10
-100.003
 20
-20.2711
 30
0.00000
  70
    32
  0
VERTEX
  8
COS
  5
86A4
 10
-100.052
 20
-20.2843
 30
0.00000
  70
    32
  0
VERTEX
  8
COS
  5
86A5
 10
-100.102
 20
-20.2963
 30
0.00000
  70
    32
  0
VERTEX
  8
COS
  5
86A6
 10
-100.152
 20
-20.3071
 30
0.00000
  70
    32
  0
VERTEX
  8
COS
  5
86A7
 10
-100.202
 20
-20.3167
 30
0.00000
  70
    32
  0
VERTEX
  8
COS
  5
86A8
 10
-100.253
 20
-20.3249
 30
0.00000
  70
    32
  0
VERTEX
  8
COS
  5
86A9
 10
-100.303
 20
-20.3320
 30
0.00000
  70
    32
  0
VERTEX
  8
COS
  5
86AA
 10
-100.354
 20
-20.3378
 30
0.00000
  70
    32
  0
VERTEX
  8
COS
  5
86AB
 10
-100.405
 20
-20.3423
 30
0.00000
  70
    32
  0
VERTEX
  8
COS
  5
86AC
 10
-100.456
 20
-20.3456
 30
0.00000
  70
    32
  0
VERTEX
  8
COS
  5
86AD
 10
-100.507
 20
-20.3476
 30
0.00000
  70
    32
  0
VERTEX
  8
COS
  5
86AE
 10
-100.558
 20
-20.3484
 30
0.00000
  70
    32
  0
VERTEX
  8
COS
  5
86AF
 10
-100.609
 20
-20.3478
 30
0.00000
  70
    32
  0
VERTEX
  8
COS
  5
86B0
 10
-100.660
 20
-20.3461
 30
0.00000
  70
    32
  0
VERTEX
  8
COS
  5
86B1
 10
-100.711
 20
-20.3430
 30
0.00000
  70
    32
  0
VERTEX
  8
COS
  5
86B2
 10
-100.762
 20
-20.3387
 30
0.00000
  70
    32
  0
VERTEX
  8
COS
  5
86B3
 10
-100.812
 20
-20.3332
 30
0.00000
  70
    32
  0
VERTEX
  8
COS
  5
86B4
 10
-100.863
 20
-20.3263
 30
0.00000
  70
    32
  0
VERTEX
  8
COS
  5
86B5
 10
-100.913
 20
-20.3183
 30
0.00000
  70
    32
  0
VERTEX
  8
COS
  5
86B6
 10
-100.963
 20
-20.3090
 30
0.00000
  70
    32
  0
VERTEX
  8
COS
  5
86B7
 10
-101.013
 20
-20.2984
 30
0.00000
  70
    32
  0
VERTEX
  8
COS
  5
86B8
 10
-101.063
 20
-20.2866
 30
0.00000
  70
    32
  0
VERTEX
  8
COS
  5
86B9
 10
-101.112
 20
-20.2736
 30
0.00000
  70
    32
  0
VERTEX
  8
COS
  5
86BA
 10
-101.161
 20
-20.2594
 30
0.00000
  70
    32
  0
VERTEX
  8
COS
  5
86BB
 10
-101.210
 20
-20.2439
 30
0.00000
  70
    32
  0
VERTEX
  8
COS
  5
86BC
 10
-101.258
 20
-20.2273
 30
0.00000
  70
    32
  0
VERTEX
  8
COS
  5
86BD
 10
-101.306
 20
-20.2095
 30
0.00000
  70
    32
  0
VERTEX
  8
COS
  5
86BE
 10
-101.353
 20
-20.1905
 30
0.00000
  70
    32
  0
VERTEX
  8
COS
  5
86BF
 10
-101.400
 20
-20.1703
 30
0.00000
  70
    32
  0
VERTEX
  8
COS
  5
86C0
 10
-101.446
 20
-20.1489
 30
0.00000
  70
    32
  0
VERTEX
  8
COS
  5
86C1
 10
-101.492
 20
-20.1265
 30
0.00000
  70
    32
  0
VERTEX
  8
COS
  5
86C2
 10
-101.537
 20
-20.1029
 30
0.00000
  70
    32
  0
VERTEX
  8
COS
  5
86C3
 10
-101.582
 20
-20.0781
 30
0.00000
  70
    32
  0
VERTEX
  8
COS
  5
86C4
 10
-101.626
 20
-20.0523
 30
0.00000
  70
    32
  0
VERTEX
  8
COS
  5
86C5
 10
-101.669
 20
-20.0254
 30
0.00000
  70
    32
  0
VERTEX
  8
COS
  5
86C6
 10
-101.712
 20
-19.9974
 30
0.00000
  70
    32
  0
VERTEX
  8
COS
  5
86C7
 10
-101.754
 20
-19.9684
 30
0.00000
  70
    32
  0
VERTEX
  8
COS
  5
86C8
 10
-101.795
 20
-19.9383
 30
0.00000
  70
    32
  0
VERTEX
  8
COS
  5
86C9
 10
-101.836
 20
-19.9072
 30
0.00000
  70
    32
  0
VERTEX
  8
COS
  5
86CA
 10
-101.875
 20
-19.8751
 30
0.00000
  70
    32
  0
VERTEX
  8
COS
  5
86CB
 10
-101.914
 20
-19.8421
 30
0.00000
  70
    32
  0
VERTEX
  8
COS
  5
86CC
 10
-101.952
 20
-19.8080
 30
0.00000
  70
    32
  0
VERTEX
  8
COS
  5
86CD
 10
-101.990
 20
-19.7731
 30
0.00000
  70
    32
  0
VERTEX
  8
COS
  5
86CE
 10
-102.026
 20
-19.7372
 30
0.00000
  70
    32
  0
VERTEX
  8
COS
  5
86CF
 10
-102.062
 20
-19.7004
 30
0.00000
  70
    32
  0
VERTEX
  8
COS
  5
86D0
 10
-102.096
 20
-19.6628
 30
0.00000
  70
    32
  0
VERTEX
  8
COS
  5
86D1
 10
-102.130
 20
-19.6243
 30
0.00000
  70
    32
  0
VERTEX
  8
COS
  5
86D2
 10
-102.163
 20
-19.5850
 30
0.00000
  70
    32
  0
VERTEX
  8
COS
  5
86D3
 10
-102.194
 20
-19.5448
 30
0.00000
  70
    32
  0
VERTEX
  8
COS
  5
86D4
 10
-102.225
 20
-19.5039
 30
0.00000
  70
    32
  0
VERTEX
  8
COS
  5
86D5
 10
-102.255
 20
-19.4623
 30
0.00000
  70
    32
  0
VERTEX
  8
COS
  5
86D6
 10
-102.283
 20
-19.4199
 30
0.00000
  70
    32
  0
VERTEX
  8
COS
  5
86D7
 10
-102.311
 20
-19.3768
 30
0.00000
  70
    32
  0
VERTEX
  8
COS
  5
86D8
 10
-102.338
 20
-19.3330
 30
0.00000
  70
    32
  0
VERTEX
  8
COS
  5
86D9
 10
-102.363
 20
-19.2886
 30
0.00000
  70
    32
  0
VERTEX
  8
COS
  5
86DA
 10
-102.388
 20
-19.2435
 30
0.00000
  70
    32
  0
VERTEX
  8
COS
  5
86DB
 10
-102.411
 20
-19.1978
 30
0.00000
  70
    32
  0
VERTEX
  8
COS
  5
86DC
 10
-102.433
 20
-19.1516
 30
0.00000
  70
    32
  0
VERTEX
  8
COS
  5
86DD
 10
-102.454
 20
-19.1049
 30
0.00000
  70
    32
  0
VERTEX
  8
COS
  5
86DE
 10
-102.474
 20
-19.0576
 30
0.00000
  70
    32
  0
VERTEX
  8
COS
  5
86DF
 10
-102.493
 20
-19.0098
 30
0.00000
  70
    32
  0
VERTEX
  8
COS
  5
86E0
 10
-102.511
 20
-18.9616
 30
0.00000
  70
    32
  0
VERTEX
  8
COS
  5
86E1
 10
-102.527
 20
-18.9129
 30
0.00000
  70
    32
  0
VERTEX
  8
COS
  5
86E2
 10
-102.542
 20
-18.8639
 30
0.00000
  70
    32
  0
VERTEX
  8
COS
  5
86E3
 10
-102.556
 20
-18.8145
 30
0.00000
  70
    32
  0
VERTEX
  8
COS
  5
86E4
 10
-102.569
 20
-18.7647
 30
0.00000
  70
    32
  0
VERTEX
  8
COS
  5
86E5
 10
-102.581
 20
-18.7146
 30
0.00000
  70
    32
  0
VERTEX
  8
COS
  5
86E6
 10
-102.591
 20
-18.6643
 30
0.00000
  70
    32
  0
VERTEX
  8
COS
  5
86E7
 10
-102.600
 20
-18.6137
 30
0.00000
  70
    32
  0
VERTEX
  8
COS
  5
86E8
 10
-102.608
 20
-18.5629
 30
0.00000
  70
    32
  0
VERTEX
  8
COS
  5
86E9
 10
-102.615
 20
-18.5118
 30
0.00000
  70
    32
  0
VERTEX
  8
COS
  5
86EA
 10
-102.620
 20
-18.4607
 30
0.00000
  70
    32
  0
VERTEX
  8
COS
  5
86EB
 10
-102.624
 20
-18.4094
 30
0.00000
  70
    32
  0
VERTEX
  8
COS
  5
86EC
 10
-102.627
 20
-18.3580
 30
0.00000
  70
    32
  0
VERTEX
  8
COS
  5
86ED
 10
-102.629
 20
-18.3065
 30
0.00000
  70
    32
  0
VERTEX
  8
COS
  5
86EE
 10
-102.630
 20
-18.2551
 30
0.00000
  70
    32
  0
VERTEX
  8
COS
  5
86EF
 10
-102.629
 20
-18.2036
 30
0.00000
  70
    32
  0
VERTEX
  8
COS
  5
86F0
 10
-102.627
 20
-18.1521
 30
0.00000
  70
    32
  0
VERTEX
  8
COS
  5
86F1
 10
-102.623
 20
-18.1007
 30
0.00000
  70
    32
  0
VERTEX
  8
COS
  5
86F2
 10
-102.619
 20
-18.0494
 30
0.00000
  70
    32
  0
VERTEX
  8
COS
  5
86F3
 10
-102.613
 20
-17.9982
 30
0.00000
  70
    32
  0
VERTEX
  8
COS
  5
86F4
 10
-102.606
 20
-17.9472
 30
0.00000
  70
    32
  0
VERTEX
  8
COS
  5
86F5
 10
-102.598
 20
-17.8963
 30
0.00000
  70
    32
  0
VERTEX
  8
COS
  5
86F6
 10
-102.588
 20
-17.8457
 30
0.00000
  70
    32
  0
VERTEX
  8
COS
  5
86F7
 10
-102.577
 20
-17.7953
 30
0.00000
  70
    32
  0
VERTEX
  8
COS
  5
86F8
 10
-102.565
 20
-17.7451
 30
0.00000
  70
    32
  0
VERTEX
  8
COS
  5
86F9
 10
-102.552
 20
-17.6953
 30
0.00000
  70
    32
  0
VERTEX
  8
COS
  5
86FA
 10
-102.538
 20
-17.6458
 30
0.00000
  70
    32
  0
VERTEX
  8
COS
  5
86FB
 10
-102.522
 20
-17.5967
 30
0.00000
  70
    32
  0
VERTEX
  8
COS
  5
86FC
 10
-102.505
 20
-17.5480
 30
0.00000
  70
    32
  0
VERTEX
  8
COS
  5
86FD
 10
-102.487
 20
-17.4997
 30
0.00000
  70
    32
  0
VERTEX
  8
COS
  5
86FE
 10
-102.468
 20
-17.4518
 30
0.00000
  70
    32
  0
VERTEX
  8
COS
  5
86FF
 10
-102.448
 20
-17.4044
 30
0.00000
  70
    32
  0
VERTEX
  8
COS
  5
8700
 10
-102.426
 20
-17.3576
 30
0.00000
  70
    32
  0
VERTEX
  8
COS
  5
8701
 10
-102.404
 20
-17.3112
 30
0.00000
  70
    32
  0
VERTEX
  8
COS
  5
8702
 10
-102.380
 20
-17.2655
 30
0.00000
  70
    32
  0
VERTEX
  8
COS
  5
8703
 10
-102.355
 20
-17.2203
 30
0.00000
  70
    32
  0
VERTEX
  8
COS
  5
8704
 10
-102.330
 20
-17.1758
 30
0.00000
  70
    32
  0
VERTEX
  8
COS
  5
8705
 10
-102.303
 20
-17.1319
 30
0.00000
  70
    32
  0
VERTEX
  8
COS
  5
8706
 10
-102.275
 20
-17.0887
 30
0.00000
  70
    32
  0
VERTEX
  8
COS
  5
8707
 10
-102.246
 20
-17.0461
 30
0.00000
  70
    32
  0
VERTEX
  8
COS
  5
8708
 10
-102.216
 20
-17.0043
 30
0.00000
  70
    32
  0
VERTEX
  8
COS
  5
8709
 10
-102.185
 20
-16.9633
 30
0.00000
  70
    32
  0
VERTEX
  8
COS
  5
870A
 10
-102.152
 20
-16.9230
 30
0.00000
  70
    32
  0
VERTEX
  8
COS
  5
870B
 10
-102.119
 20
-16.8835
 30
0.00000
  70
    32
  0
VERTEX
  8
COS
  5
870C
 10
-102.086
 20
-16.8449
 30
0.00000
  70
    32
  0
VERTEX
  8
COS
  5
870D
 10
-102.051
 20
-16.8071
 30
0.00000
  70
    32
  0
VERTEX
  8
COS
  5
870E
 10
-102.015
 20
-16.7701
 30
0.00000
  70
    32
  0
VERTEX
  8
COS
  5
870F
 10
-101.978
 20
-16.7341
 30
0.00000
  70
    32
  0
VERTEX
  8
COS
  5
8710
 10
-101.941
 20
-16.6990
 30
0.00000
  70
    32
  0
VERTEX
  8
COS
  5
8711
 10
-101.902
 20
-16.6648
 30
0.00000
  70
    32
  0
VERTEX
  8
COS
  5
8712
 10
-101.863
 20
-16.6315
 30
0.00000
  70
    32
  0
VERTEX
  8
COS
  5
8713
 10
-101.823
 20
-16.5993
 30
0.00000
  70
    32
  0
VERTEX
  8
COS
  5
8714
 10
-101.782
 20
-16.5680
 30
0.00000
  70
    32
  0
VERTEX
  8
COS
  5
8715
 10
-101.741
 20
-16.5377
 30
0.00000
  70
    32
  0
VERTEX
  8
COS
  5
8716
 10
-101.699
 20
-16.5085
 30
0.00000
  70
    32
  0
VERTEX
  8
COS
  5
8717
 10
-101.656
 20
-16.4803
 30
0.00000
  70
    32
  0
VERTEX
  8
COS
  5
8718
 10
-101.612
 20
-16.4532
 30
0.00000
  70
    32
  0
VERTEX
  8
COS
  5
8719
 10
-101.568
 20
-16.4272
 30
0.00000
  70
    32
  0
VERTEX
  8
COS
  5
871A
 10
-101.523
 20
-16.4022
 30
0.00000
  70
    32
  0
VERTEX
  8
COS
  5
871B
 10
-101.478
 20
-16.3784
 30
0.00000
  70
    32
  0
SEQEND
  8
COS
  5
871C
  0
LINE
  5
85BA
  8
COS
 10
-99.6221009145579188
 20
-20.1222024957033589
 30
0.0
 11
-97.1529115193085886
 21
-18.8650577844672398
 31
0.0
  0
LINE
  5
85BB
  8
COS
 10
-97.1529115193085886
 20
-18.8650577844672398
 30
0.0
 11
-92.2631575454211941
 21
-21.5135415788101412
 31
0.0
  0
LINE
  5
85CB
  8
COS
 10
-109.2880212282963015
 20
-26.5677947014213913
 30
0.0
 11
-206.7880212282965999
 21
-26.5677947014213913
 31
0.0
  0
LINE
  5
85CC
  8
COS
 10
-108.3951515196952045
 20
-26.5677947014213913
 30
0.0
 11
-109.2880212282963015
 21
-26.5677947014213913
 31
0.0
  0
LINE
  5
85CD
  8
COS
 10
-109.2880212282963015
 20
-26.5677947014213913
 30
0.0
 11
-109.2880212282963015
 21
-6.567794701421378
 31
0.0
  0
LINE
  5
85CE
  8
COS
 10
-108.1696723705454986
 20
-6.567794701421378
 30
0.0
 11
-109.2880212282963015
 21
-6.567794701421378
 31
0.0
  0
LINE
  5
85CF
  8
COS
 10
-206.7880212282965999
 20
-26.5677947014213913
 30
0.0
 11
-206.7880212282965999
 21
-6.567794701421378
 31
0.0
  0
LINE
  5
85D0
  8
COS
 10
-109.2880212282963015
 20
-6.567794701421378
 30
0.0
 11
-206.7880212282965999
 21
-6.567794701421378
 31
0.0
  0
LINE
  5
85D1
  8
COS
 10
-108.3951515196952045
 20
-26.5677947014213913
 30
0.0
 11
-100.8365464456337008
 21
-26.5677947014213913
 31
0.0
  0
LINE
  5
85D2
  8
COS
 10
-108.1696723705454986
 20
-6.567794701421378
 30
0.0
 11
-108.3951515196952045
 21
-26.5677947014213913
 31
0.0
  0
LINE
  5
85D3
  8
COS
 10
-100.0856951274298012
 20
-6.567794701421378
 30
0.0
 11
-108.1696723705454986
 21
-6.567794701421378
 31
0.0
  0
POLYLINE
  5
85D4
  8
COS
 10
-100.1446669550176978
 20
-14.4693846614307944
 30
0.0
 66
     1
 70
     8
  0
VERTEX
  8
COS
  5
871D
 10
-100.145
 20
-14.4694
 30
0.00000
  70
    32
  0
VERTEX
  8
COS
  5
871E
 10
-100.283
 20
-14.4228
 30
0.00000
  70
    32
  0
VERTEX
  8
COS
  5
871F
 10
-100.418
 20
-14.3694
 30
0.00000
  70
    32
  0
VERTEX
  8
COS
  5
8720
 10
-100.551
 20
-14.3093
 30
0.00000
  70
    32
  0
VERTEX
  8
COS
  5
8721
 10
-100.681
 20
-14.2427
 30
0.00000
  70
    32
  0
VERTEX
  8
COS
  5
8722
 10
-100.807
 20
-14.1698
 30
0.00000
  70
    32
  0
VERTEX
  8
COS
  5
8723
 10
-100.929
 20
-14.0906
 30
0.00000
  70
    32
  0
VERTEX
  8
COS
  5
8724
 10
-101.048
 20
-14.0055
 30
0.00000
  70
    32
  0
VERTEX
  8
COS
  5
8725
 10
-101.162
 20
-13.9146
 30
0.00000
  70
    32
  0
VERTEX
  8
COS
  5
8726
 10
-101.271
 20
-13.8181
 30
0.00000
  70
    32
  0
VERTEX
  8
COS
  5
8727
 10
-101.376
 20
-13.7163
 30
0.00000
  70
    32
  0
VERTEX
  8
COS
  5
8728
 10
-101.475
 20
-13.6095
 30
0.00000
  70
    32
  0
VERTEX
  8
COS
  5
8729
 10
-101.570
 20
-13.4977
 30
0.00000
  70
    32
  0
VERTEX
  8
COS
  5
872A
 10
-101.658
 20
-13.3815
 30
0.00000
  70
    32
  0
VERTEX
  8
COS
  5
872B
 10
-101.741
 20
-13.2609
 30
0.00000
  70
    32
  0
VERTEX
  8
COS
  5
872C
 10
-101.818
 20
-13.1363
 30
0.00000
  70
    32
  0
VERTEX
  8
COS
  5
872D
 10
-101.889
 20
-13.0081
 30
0.00000
  70
    32
  0
VERTEX
  8
COS
  5
872E
 10
-101.953
 20
-12.8765
 30
0.00000
  70
    32
  0
VERTEX
  8
COS
  5
872F
 10
-102.011
 20
-12.7418
 30
0.00000
  70
    32
  0
VERTEX
  8
COS
  5
8730
 10
-102.062
 20
-12.6044
 30
0.00000
  70
    32
  0
VERTEX
  8
COS
  5
8731
 10
-102.106
 20
-12.4645
 30
0.00000
  70
    32
  0
VERTEX
  8
COS
  5
8732
 10
-102.144
 20
-12.3226
 30
0.00000
  70
    32
  0
VERTEX
  8
COS
  5
8733
 10
-102.174
 20
-12.1790
 30
0.00000
  70
    32
  0
VERTEX
  8
COS
  5
8734
 10
-102.198
 20
-12.0339
 30
0.00000
  70
    32
  0
VERTEX
  8
COS
  5
8735
 10
-102.215
 20
-11.8879
 30
0.00000
  70
    32
  0
VERTEX
  8
COS
  5
8736
 10
-102.224
 20
-11.7411
 30
0.00000
  70
    32
  0
VERTEX
  8
COS
  5
8737
 10
-102.226
 20
-11.5940
 30
0.00000
  70
    32
  0
VERTEX
  8
COS
  5
8738
 10
-102.221
 20
-11.4470
 30
0.00000
  70
    32
  0
VERTEX
  8
COS
  5
8739
 10
-102.209
 20
-11.3003
 30
0.00000
  70
    32
  0
VERTEX
  8
COS
  5
873A
 10
-102.190
 20
-11.1544
 30
0.00000
  70
    32
  0
VERTEX
  8
COS
  5
873B
 10
-102.164
 20
-11.0095
 30
0.00000
  70
    32
  0
VERTEX
  8
COS
  5
873C
 10
-102.130
 20
-10.8661
 30
0.00000
  70
    32
  0
VERTEX
  8
COS
  5
873D
 10
-102.090
 20
-10.7244
 30
0.00000
  70
    32
  0
VERTEX
  8
COS
  5
873E
 10
-102.043
 20
-10.5849
 30
0.00000
  70
    32
  0
VERTEX
  8
COS
  5
873F
 10
-101.989
 20
-10.4478
 30
0.00000
  70
    32
  0
VERTEX
  8
COS
  5
8740
 10
-101.929
 20
-10.3136
 30
0.00000
  70
    32
  0
VERTEX
  8
COS
  5
8741
 10
-101.862
 20
-10.1824
 30
0.00000
  70
    32
  0
VERTEX
  8
COS
  5
8742
 10
-101.789
 20
-10.0546
 30
0.00000
  70
    32
  0
VERTEX
  8
COS
  5
8743
 10
-101.710
 20
-9.93061
 30
0.00000
  70
    32
  0
VERTEX
  8
COS
  5
8744
 10
-101.625
 20
-9.81062
 30
0.00000
  70
    32
  0
VERTEX
  8
COS
  5
8745
 10
-101.534
 20
-9.69496
 30
0.00000
  70
    32
  0
VERTEX
  8
COS
  5
8746
 10
-101.438
 20
-9.58389
 30
0.00000
  70
    32
  0
VERTEX
  8
COS
  5
8747
 10
-101.336
 20
-9.47769
 30
0.00000
  70
    32
  0
VERTEX
  8
COS
  5
8748
 10
-101.230
 20
-9.37662
 30
0.00000
  70
    32
  0
VERTEX
  8
COS
  5
8749
 10
-101.118
 20
-9.28091
 30
0.00000
  70
    32
  0
VERTEX
  8
COS
  5
874A
 10
-101.002
 20
-9.19079
 30
0.00000
  70
    32
  0
VERTEX
  8
COS
  5
874B
 10
-100.882
 20
-9.10650
 30
0.00000
  70
    32
  0
VERTEX
  8
COS
  5
874C
 10
-100.759
 20
-9.02821
 30
0.00000
  70
    32
  0
VERTEX
  8
COS
  5
874D
 10
-100.631
 20
-8.95614
 30
0.00000
  70
    32
  0
VERTEX
  8
COS
  5
874E
 10
-100.500
 20
-8.89044
 30
0.00000
  70
    32
  0
VERTEX
  8
COS
  5
874F
 10
-100.366
 20
-8.83128
 30
0.00000
  70
    32
  0
VERTEX
  8
COS
  5
8750
 10
-100.230
 20
-8.77881
 30
0.00000
  70
    32
  0
VERTEX
  8
COS
  5
8751
 10
-100.091
 20
-8.73313
 30
0.00000
  70
    32
  0
VERTEX
  8
COS
  5
8752
 10
-99.9499
 20
-8.69438
 30
0.00000
  70
    32
  0
VERTEX
  8
COS
  5
8753
 10
-99.8074
 20
-8.66263
 30
0.00000
  70
    32
  0
VERTEX
  8
COS
  5
8754
 10
-99.6635
 20
-8.63798
 30
0.00000
  70
    32
  0
VERTEX
  8
COS
  5
8755
 10
-99.5186
 20
-8.62046
 30
0.00000
  70
    32
  0
VERTEX
  8
COS
  5
8756
 10
-99.3731
 20
-8.61014
 30
0.00000
  70
    32
  0
VERTEX
  8
COS
  5
8757
 10
-99.2273
 20
-8.60703
 30
0.00000
  70
    32
  0
VERTEX
  8
COS
  5
8758
 10
-99.0815
 20
-8.61114
 30
0.00000
  70
    32
  0
VERTEX
  8
COS
  5
8759
 10
-98.9362
 20
-8.62246
 30
0.00000
  70
    32
  0
VERTEX
  8
COS
  5
875A
 10
-98.7917
 20
-8.64096
 30
0.00000
  70
    32
  0
VERTEX
  8
COS
  5
875B
 10
-98.6483
 20
-8.66660
 30
0.00000
  70
    32
  0
VERTEX
  8
COS
  5
875C
 10
-98.5063
 20
-8.69932
 30
0.00000
  70
    32
  0
VERTEX
  8
COS
  5
875D
 10
-98.3662
 20
-8.73904
 30
0.00000
  70
    32
  0
VERTEX
  8
COS
  5
875E
 10
-98.2281
 20
-8.78566
 30
0.00000
  70
    32
  0
VERTEX
  8
COS
  5
875F
 10
-98.0926
 20
-8.83907
 30
0.00000
  70
    32
  0
VERTEX
  8
COS
  5
8760
 10
-97.9599
 20
-8.89914
 30
0.00000
  70
    32
  0
VERTEX
  8
COS
  5
8761
 10
-97.8302
 20
-8.96572
 30
0.00000
  70
    32
  0
VERTEX
  8
COS
  5
8762
 10
-97.7041
 20
-9.03867
 30
0.00000
  70
    32
  0
VERTEX
  8
COS
  5
8763
 10
-97.5816
 20
-9.11779
 30
0.00000
  70
    32
  0
VERTEX
  8
COS
  5
8764
 10
-97.4632
 20
-9.20291
 30
0.00000
  70
    32
  0
VERTEX
  8
COS
  5
8765
 10
-97.3491
 20
-9.29381
 30
0.00000
  70
    32
  0
VERTEX
  8
COS
  5
8766
 10
-97.2396
 20
-9.39027
 30
0.00000
  70
    32
  0
VERTEX
  8
COS
  5
8767
 10
-97.1349
 20
-9.49207
 30
0.00000
  70
    32
  0
VERTEX
  8
COS
  5
8768
 10
-97.0354
 20
-9.59896
 30
0.00000
  70
    32
  0
VERTEX
  8
COS
  5
8769
 10
-96.9412
 20
-9.71068
 30
0.00000
  70
    32
  0
VERTEX
  8
COS
  5
876A
 10
-96.8526
 20
-9.82696
 30
0.00000
  70
    32
  0
VERTEX
  8
COS
  5
876B
 10
-96.7698
 20
-9.94752
 30
0.00000
  70
    32
  0
VERTEX
  8
COS
  5
876C
 10
-96.6929
 20
-10.0721
 30
0.00000
  70
    32
  0
VERTEX
  8
COS
  5
876D
 10
-96.6223
 20
-10.2003
 30
0.00000
  70
    32
  0
VERTEX
  8
COS
  5
876E
 10
-96.5579
 20
-10.3319
 30
0.00000
  70
    32
  0
VERTEX
  8
COS
  5
876F
 10
-96.5001
 20
-10.4666
 30
0.00000
  70
    32
  0
VERTEX
  8
COS
  5
8770
 10
-96.4489
 20
-10.6041
 30
0.00000
  70
    32
  0
VERTEX
  8
COS
  5
8771
 10
-96.4045
 20
-10.7439
 30
0.00000
  70
    32
  0
VERTEX
  8
COS
  5
8772
 10
-96.3669
 20
-10.8858
 30
0.00000
  70
    32
  0
VERTEX
  8
COS
  5
8773
 10
-96.3363
 20
-11.0295
 30
0.00000
  70
    32
  0
VERTEX
  8
COS
  5
8774
 10
-96.3128
 20
-11.1745
 30
0.00000
  70
    32
  0
VERTEX
  8
COS
  5
8775
 10
-96.2963
 20
-11.3206
 30
0.00000
  70
    32
  0
VERTEX
  8
COS
  5
8776
 10
-96.2869
 20
-11.4673
 30
0.00000
  70
    32
  0
VERTEX
  8
COS
  5
8777
 10
-96.2847
 20
-11.6144
 30
0.00000
  70
    32
  0
VERTEX
  8
COS
  5
8778
 10
-96.2897
 20
-11.7614
 30
0.00000
  70
    32
  0
VERTEX
  8
COS
  5
8779
 10
-96.3018
 20
-11.9081
 30
0.00000
  70
    32
  0
VERTEX
  8
COS
  5
877A
 10
-96.3210
 20
-12.0540
 30
0.00000
  70
    32
  0
VERTEX
  8
COS
  5
877B
 10
-96.3473
 20
-12.1989
 30
0.00000
  70
    32
  0
VERTEX
  8
COS
  5
877C
 10
-96.3806
 20
-12.3423
 30
0.00000
  70
    32
  0
VERTEX
  8
COS
  5
877D
 10
-96.4208
 20
-12.4840
 30
0.00000
  70
    32
  0
VERTEX
  8
COS
  5
877E
 10
-96.4679
 20
-12.6235
 30
0.00000
  70
    32
  0
VERTEX
  8
COS
  5
877F
 10
-96.5216
 20
-12.7606
 30
0.00000
  70
    32
  0
VERTEX
  8
COS
  5
8780
 10
-96.5820
 20
-12.8949
 30
0.00000
  70
    32
  0
VERTEX
  8
COS
  5
8781
 10
-96.6488
 20
-13.0260
 30
0.00000
  70
    32
  0
VERTEX
  8
COS
  5
8782
 10
-96.7218
 20
-13.1538
 30
0.00000
  70
    32
  0
VERTEX
  8
COS
  5
8783
 10
-96.8010
 20
-13.2778
 30
0.00000
  70
    32
  0
VERTEX
  8
COS
  5
8784
 10
-96.8861
 20
-13.3978
 30
0.00000
  70
    32
  0
VERTEX
  8
COS
  5
8785
 10
-96.9769
 20
-13.5135
 30
0.00000
  70
    32
  0
VERTEX
  8
COS
  5
8786
 10
-97.0732
 20
-13.6245
 30
0.00000
  70
    32
  0
VERTEX
  8
COS
  5
8787
 10
-97.1747
 20
-13.7307
 30
0.00000
  70
    32
  0
VERTEX
  8
COS
  5
8788
 10
-97.2813
 20
-13.8318
 30
0.00000
  70
    32
  0
VERTEX
  8
COS
  5
8789
 10
-97.3926
 20
-13.9275
 30
0.00000
  70
    32
  0
VERTEX
  8
COS
  5
878A
 10
-97.5084
 20
-14.0176
 30
0.00000
  70
    32
  0
VERTEX
  8
COS
  5
878B
 10
-97.6284
 20
-14.1019
 30
0.00000
  70
    32
  0
VERTEX
  8
COS
  5
878C
 10
-97.7523
 20
-14.1802
 30
0.00000
  70
    32
  0
VERTEX
  8
COS
  5
878D
 10
-97.8799
 20
-14.2523
 30
0.00000
  70
    32
  0
VERTEX
  8
COS
  5
878E
 10
-98.0107
 20
-14.3180
 30
0.00000
  70
    32
  0
VERTEX
  8
COS
  5
878F
 10
-98.1446
 20
-14.3771
 30
0.00000
  70
    32
  0
VERTEX
  8
COS
  5
8790
 10
-98.2811
 20
-14.4296
 30
0.00000
  70
    32
  0
VERTEX
  8
COS
  5
8791
 10
-98.4200
 20
-14.4753
 30
0.00000
  70
    32
  0
VERTEX
  8
COS
  5
8792
 10
-98.5609
 20
-14.5140
 30
0.00000
  70
    32
  0
VERTEX
  8
COS
  5
8793
 10
-98.7034
 20
-14.5458
 30
0.00000
  70
    32
  0
VERTEX
  8
COS
  5
8794
 10
-98.8473
 20
-14.5704
 30
0.00000
  70
    32
  0
VERTEX
  8
COS
  5
8795
 10
-98.9922
 20
-14.5880
 30
0.00000
  70
    32
  0
VERTEX
  8
COS
  5
8796
 10
-99.1377
 20
-14.5983
 30
0.00000
  70
    32
  0
VERTEX
  8
COS
  5
8797
 10
-99.2835
 20
-14.6014
 30
0.00000
  70
    32
  0
VERTEX
  8
COS
  5
8798
 10
-99.4293
 20
-14.5973
 30
0.00000
  70
    32
  0
VERTEX
  8
COS
  5
8799
 10
-99.5746
 20
-14.5860
 30
0.00000
  70
    32
  0
VERTEX
  8
COS
  5
879A
 10
-99.7191
 20
-14.5675
 30
0.00000
  70
    32
  0
VERTEX
  8
COS
  5
879B
 10
-99.8625
 20
-14.5418
 30
0.00000
  70
    32
  0
VERTEX
  8
COS
  5
879C
 10
-100.005
 20
-14.5091
 30
0.00000
  70
    32
  0
VERTEX
  8
COS
  5
879D
 10
-100.145
 20
-14.4694
 30
0.00000
  70
    32
  0
SEQEND
  8
COS
  5
879E
  0
POLYLINE
  5
85DD
  8
COS
 10
-90.4161638738093103
 20
-14.7557082421897121
 30
0.0
 66
     1
 70
     8
  0
VERTEX
  8
COS
  5
879F
 10
-90.4162
 20
-14.7557
 30
0.00000
  70
    32
  0
VERTEX
  8
COS
  5
87A0
 10
-90.3288
 20
-14.7852
 30
0.00000
  70
    32
  0
VERTEX
  8
COS
  5
87A1
 10
-90.2429
 20
-14.8191
 30
0.00000
  70
    32
  0
VERTEX
  8
COS
  5
87A2
 10
-90.1588
 20
-14.8571
 30
0.00000
  70
    32
  0
VERTEX
  8
COS
  5
87A3
 10
-90.0768
 20
-14.8993
 30
0.00000
  70
    32
  0
VERTEX
  8
COS
  5
87A4
 10
-89.9968
 20
-14.9455
 30
0.00000
  70
    32
  0
VERTEX
  8
COS
  5
87A5
 10
-89.9193
 20
-14.9956
 30
0.00000
  70
    32
  0
VERTEX
  8
COS
  5
87A6
 10
-89.8443
 20
-15.0495
 30
0.00000
  70
    32
  0
VERTEX
  8
COS
  5
87A7
 10
-89.7720
 20
-15.1071
 30
0.00000
  70
    32
  0
VERTEX
  8
COS
  5
87A8
 10
-89.7027
 20
-15.1682
 30
0.00000
  70
    32
  0
VERTEX
  8
COS
  5
87A9
 10
-89.6364
 20
-15.2326
 30
0.00000
  70
    32
  0
VERTEX
  8
COS
  5
87AA
 10
-89.5734
 20
-15.3003
 30
0.00000
  70
    32
  0
VERTEX
  8
COS
  5
87AB
 10
-89.5137
 20
-15.3711
 30
0.00000
  70
    32
  0
VERTEX
  8
COS
  5
87AC
 10
-89.4576
 20
-15.4447
 30
0.00000
  70
    32
  0
VERTEX
  8
COS
  5
87AD
 10
-89.4051
 20
-15.5211
 30
0.00000
  70
    32
  0
VERTEX
  8
COS
  5
87AE
 10
-89.3564
 20
-15.6000
 30
0.00000
  70
    32
  0
VERTEX
  8
COS
  5
87AF
 10
-89.3117
 20
-15.6812
 30
0.00000
  70
    32
  0
VERTEX
  8
COS
  5
87B0
 10
-89.2710
 20
-15.7645
 30
0.00000
  70
    32
  0
VERTEX
  8
COS
  5
87B1
 10
-89.2343
 20
-15.8499
 30
0.00000
  70
    32
  0
VERTEX
  8
COS
  5
87B2
 10
-89.2019
 20
-15.9369
 30
0.00000
  70
    32
  0
VERTEX
  8
COS
  5
87B3
 10
-89.1738
 20
-16.0255
 30
0.00000
  70
    32
  0
VERTEX
  8
COS
  5
87B4
 10
-89.1500
 20
-16.1153
 30
0.00000
  70
    32
  0
VERTEX
  8
COS
  5
87B5
 10
-89.1306
 20
-16.2063
 30
0.00000
  70
    32
  0
VERTEX
  8
COS
  5
87B6
 10
-89.1157
 20
-16.2982
 30
0.00000
  70
    32
  0
VERTEX
  8
COS
  5
87B7
 10
-89.1052
 20
-16.3907
 30
0.00000
  70
    32
  0
VERTEX
  8
COS
  5
87B8
 10
-89.0993
 20
-16.4836
 30
0.00000
  70
    32
  0
VERTEX
  8
COS
  5
87B9
 10
-89.0979
 20
-16.5768
 30
0.00000
  70
    32
  0
VERTEX
  8
COS
  5
87BA
 10
-89.1011
 20
-16.6699
 30
0.00000
  70
    32
  0
VERTEX
  8
COS
  5
87BB
 10
-89.1087
 20
-16.7628
 30
0.00000
  70
    32
  0
VERTEX
  8
COS
  5
87BC
 10
-89.1209
 20
-16.8552
 30
0.00000
  70
    32
  0
VERTEX
  8
COS
  5
87BD
 10
-89.1376
 20
-16.9470
 30
0.00000
  70
    32
  0
VERTEX
  8
COS
  5
87BE
 10
-89.1586
 20
-17.0378
 30
0.00000
  70
    32
  0
VERTEX
  8
COS
  5
87BF
 10
-89.1841
 20
-17.1275
 30
0.00000
  70
    32
  0
VERTEX
  8
COS
  5
87C0
 10
-89.2139
 20
-17.2159
 30
0.00000
  70
    32
  0
VERTEX
  8
COS
  5
87C1
 10
-89.2480
 20
-17.3027
 30
0.00000
  70
    32
  0
VERTEX
  8
COS
  5
87C2
 10
-89.2862
 20
-17.3877
 30
0.00000
  70
    32
  0
VERTEX
  8
COS
  5
87C3
 10
-89.3285
 20
-17.4708
 30
0.00000
  70
    32
  0
VERTEX
  8
COS
  5
87C4
 10
-89.3748
 20
-17.5517
 30
0.00000
  70
    32
  0
VERTEX
  8
COS
  5
87C5
 10
-89.4249
 20
-17.6303
 30
0.00000
  70
    32
  0
VERTEX
  8
COS
  5
87C6
 10
-89.4788
 20
-17.7063
 30
0.00000
  70
    32
  0
VERTEX
  8
COS
  5
87C7
 10
-89.5363
 20
-17.7795
 30
0.00000
  70
    32
  0
VERTEX
  8
COS
  5
87C8
 10
-89.5973
 20
-17.8499
 30
0.00000
  70
    32
  0
VERTEX
  8
COS
  5
87C9
 10
-89.6616
 20
-17.9171
 30
0.00000
  70
    32
  0
VERTEX
  8
COS
  5
87CA
 10
-89.7291
 20
-17.9811
 30
0.00000
  70
    32
  0
VERTEX
  8
COS
  5
87CB
 10
-89.7996
 20
-18.0417
 30
0.00000
  70
    32
  0
VERTEX
  8
COS
  5
87CC
 10
-89.8729
 20
-18.0988
 30
0.00000
  70
    32
  0
VERTEX
  8
COS
  5
87CD
 10
-89.9489
 20
-18.1522
 30
0.00000
  70
    32
  0
VERTEX
  8
COS
  5
87CE
 10
-90.0274
 20
-18.2018
 30
0.00000
  70
    32
  0
VERTEX
  8
COS
  5
87CF
 10
-90.1082
 20
-18.2474
 30
0.00000
  70
    32
  0
VERTEX
  8
COS
  5
87D0
 10
-90.1911
 20
-18.2890
 30
0.00000
  70
    32
  0
VERTEX
  8
COS
  5
87D1
 10
-90.2758
 20
-18.3265
 30
0.00000
  70
    32
  0
VERTEX
  8
COS
  5
87D2
 10
-90.3623
 20
-18.3597
 30
0.00000
  70
    32
  0
VERTEX
  8
COS
  5
87D3
 10
-90.4503
 20
-18.3887
 30
0.00000
  70
    32
  0
VERTEX
  8
COS
  5
87D4
 10
-90.5395
 20
-18.4132
 30
0.00000
  70
    32
  0
VERTEX
  8
COS
  5
87D5
 10
-90.6298
 20
-18.4333
 30
0.00000
  70
    32
  0
VERTEX
  8
COS
  5
87D6
 10
-90.7209
 20
-18.4489
 30
0.00000
  70
    32
  0
VERTEX
  8
COS
  5
87D7
 10
-90.8127
 20
-18.4600
 30
0.00000
  70
    32
  0
VERTEX
  8
COS
  5
87D8
 10
-90.9048
 20
-18.4666
 30
0.00000
  70
    32
  0
VERTEX
  8
COS
  5
87D9
 10
-90.9972
 20
-18.4685
 30
0.00000
  70
    32
  0
VERTEX
  8
COS
  5
87DA
 10
-91.0895
 20
-18.4659
 30
0.00000
  70
    32
  0
VERTEX
  8
COS
  5
87DB
 10
-91.1815
 20
-18.4588
 30
0.00000
  70
    32
  0
VERTEX
  8
COS
  5
87DC
 10
-91.2730
 20
-18.4470
 30
0.00000
  70
    32
  0
VERTEX
  8
COS
  5
87DD
 10
-91.3639
 20
-18.4308
 30
0.00000
  70
    32
  0
VERTEX
  8
COS
  5
87DE
 10
-91.4538
 20
-18.4101
 30
0.00000
  70
    32
  0
VERTEX
  8
COS
  5
87DF
 10
-91.5426
 20
-18.3849
 30
0.00000
  70
    32
  0
VERTEX
  8
COS
  5
87E0
 10
-91.6300
 20
-18.3554
 30
0.00000
  70
    32
  0
VERTEX
  8
COS
  5
87E1
 10
-91.7158
 20
-18.3216
 30
0.00000
  70
    32
  0
VERTEX
  8
COS
  5
87E2
 10
-91.7999
 20
-18.2835
 30
0.00000
  70
    32
  0
VERTEX
  8
COS
  5
87E3
 10
-91.8820
 20
-18.2414
 30
0.00000
  70
    32
  0
VERTEX
  8
COS
  5
87E4
 10
-91.9619
 20
-18.1952
 30
0.00000
  70
    32
  0
VERTEX
  8
COS
  5
87E5
 10
-92.0394
 20
-18.1450
 30
0.00000
  70
    32
  0
VERTEX
  8
COS
  5
87E6
 10
-92.1144
 20
-18.0911
 30
0.00000
  70
    32
  0
VERTEX
  8
COS
  5
87E7
 10
-92.1867
 20
-18.0336
 30
0.00000
  70
    32
  0
VERTEX
  8
COS
  5
87E8
 10
-92.2560
 20
-17.9725
 30
0.00000
  70
    32
  0
VERTEX
  8
COS
  5
87E9
 10
-92.3223
 20
-17.9080
 30
0.00000
  70
    32
  0
VERTEX
  8
COS
  5
87EA
 10
-92.3854
 20
-17.8403
 30
0.00000
  70
    32
  0
VERTEX
  8
COS
  5
87EB
 10
-92.4450
 20
-17.7696
 30
0.00000
  70
    32
  0
VERTEX
  8
COS
  5
87EC
 10
-92.5011
 20
-17.6959
 30
0.00000
  70
    32
  0
VERTEX
  8
COS
  5
87ED
 10
-92.5536
 20
-17.6196
 30
0.00000
  70
    32
  0
VERTEX
  8
COS
  5
87EE
 10
-92.6023
 20
-17.5407
 30
0.00000
  70
    32
  0
VERTEX
  8
COS
  5
87EF
 10
-92.6470
 20
-17.4595
 30
0.00000
  70
    32
  0
VERTEX
  8
COS
  5
87F0
 10
-92.6878
 20
-17.3761
 30
0.00000
  70
    32
  0
VERTEX
  8
COS
  5
87F1
 10
-92.7244
 20
-17.2908
 30
0.00000
  70
    32
  0
VERTEX
  8
COS
  5
87F2
 10
-92.7568
 20
-17.2037
 30
0.00000
  70
    32
  0
VERTEX
  8
COS
  5
87F3
 10
-92.7849
 20
-17.1152
 30
0.00000
  70
    32
  0
VERTEX
  8
COS
  5
87F4
 10
-92.8087
 20
-17.0253
 30
0.00000
  70
    32
  0
VERTEX
  8
COS
  5
87F5
 10
-92.8281
 20
-16.9343
 30
0.00000
  70
    32
  0
VERTEX
  8
COS
  5
87F6
 10
-92.8430
 20
-16.8425
 30
0.00000
  70
    32
  0
VERTEX
  8
COS
  5
87F7
 10
-92.8535
 20
-16.7500
 30
0.00000
  70
    32
  0
VERTEX
  8
COS
  5
87F8
 10
-92.8594
 20
-16.6570
 30
0.00000
  70
    32
  0
VERTEX
  8
COS
  5
87F9
 10
-92.8608
 20
-16.5639
 30
0.00000
  70
    32
  0
VERTEX
  8
COS
  5
87FA
 10
-92.8576
 20
-16.4707
 30
0.00000
  70
    32
  0
VERTEX
  8
COS
  5
87FB
 10
-92.8500
 20
-16.3779
 30
0.00000
  70
    32
  0
VERTEX
  8
COS
  5
87FC
 10
-92.8378
 20
-16.2854
 30
0.00000
  70
    32
  0
VERTEX
  8
COS
  5
87FD
 10
-92.8212
 20
-16.1937
 30
0.00000
  70
    32
  0
VERTEX
  8
COS
  5
87FE
 10
-92.8001
 20
-16.1028
 30
0.00000
  70
    32
  0
VERTEX
  8
COS
  5
87FF
 10
-92.7746
 20
-16.0131
 30
0.00000
  70
    32
  0
VERTEX
  8
COS
  5
8800
 10
-92.7448
 20
-15.9248
 30
0.00000
  70
    32
  0
VERTEX
  8
COS
  5
8801
 10
-92.7108
 20
-15.8380
 30
0.00000
  70
    32
  0
VERTEX
  8
COS
  5
8802
 10
-92.6725
 20
-15.7529
 30
0.00000
  70
    32
  0
VERTEX
  8
COS
  5
8803
 10
-92.6302
 20
-15.6698
 30
0.00000
  70
    32
  0
VERTEX
  8
COS
  5
8804
 10
-92.5840
 20
-15.5889
 30
0.00000
  70
    32
  0
VERTEX
  8
COS
  5
8805
 10
-92.5338
 20
-15.5104
 30
0.00000
  70
    32
  0
VERTEX
  8
COS
  5
8806
 10
-92.4799
 20
-15.4344
 30
0.00000
  70
    32
  0
VERTEX
  8
COS
  5
8807
 10
-92.4224
 20
-15.3611
 30
0.00000
  70
    32
  0
VERTEX
  8
COS
  5
8808
 10
-92.3614
 20
-15.2908
 30
0.00000
  70
    32
  0
VERTEX
  8
COS
  5
8809
 10
-92.2971
 20
-15.2235
 30
0.00000
  70
    32
  0
VERTEX
  8
COS
  5
880A
 10
-92.2296
 20
-15.1595
 30
0.00000
  70
    32
  0
VERTEX
  8
COS
  5
880B
 10
-92.1592
 20
-15.0989
 30
0.00000
  70
    32
  0
VERTEX
  8
COS
  5
880C
 10
-92.0858
 20
-15.0418
 30
0.00000
  70
    32
  0
VERTEX
  8
COS
  5
880D
 10
-92.0098
 20
-14.9884
 30
0.00000
  70
    32
  0
VERTEX
  8
COS
  5
880E
 10
-91.9313
 20
-14.9389
 30
0.00000
  70
    32
  0
VERTEX
  8
COS
  5
880F
 10
-91.8505
 20
-14.8932
 30
0.00000
  70
    32
  0
VERTEX
  8
COS
  5
8810
 10
-91.7677
 20
-14.8516
 30
0.00000
  70
    32
  0
VERTEX
  8
COS
  5
8811
 10
-91.6829
 20
-14.8141
 30
0.00000
  70
    32
  0
VERTEX
  8
COS
  5
8812
 10
-91.5964
 20
-14.7809
 30
0.00000
  70
    32
  0
VERTEX
  8
COS
  5
8813
 10
-91.5085
 20
-14.7520
 30
0.00000
  70
    32
  0
VERTEX
  8
COS
  5
8814
 10
-91.4192
 20
-14.7274
 30
0.00000
  70
    32
  0
VERTEX
  8
COS
  5
8815
 10
-91.3289
 20
-14.7073
 30
0.00000
  70
    32
  0
VERTEX
  8
COS
  5
8816
 10
-91.2378
 20
-14.6917
 30
0.00000
  70
    32
  0
VERTEX
  8
COS
  5
8817
 10
-91.1460
 20
-14.6806
 30
0.00000
  70
    32
  0
VERTEX
  8
COS
  5
8818
 10
-91.0539
 20
-14.6741
 30
0.00000
  70
    32
  0
VERTEX
  8
COS
  5
8819
 10
-90.9615
 20
-14.6721
 30
0.00000
  70
    32
  0
VERTEX
  8
COS
  5
881A
 10
-90.8692
 20
-14.6747
 30
0.00000
  70
    32
  0
VERTEX
  8
COS
  5
881B
 10
-90.7772
 20
-14.6819
 30
0.00000
  70
    32
  0
VERTEX
  8
COS
  5
881C
 10
-90.6857
 20
-14.6936
 30
0.00000
  70
    32
  0
VERTEX
  8
COS
  5
881D
 10
-90.5948
 20
-14.7098
 30
0.00000
  70
    32
  0
VERTEX
  8
COS
  5
881E
 10
-90.5049
 20
-14.7306
 30
0.00000
  70
    32
  0
VERTEX
  8
COS
  5
881F
 10
-90.4162
 20
-14.7557
 30
0.00000
  70
    32
  0
SEQEND
  8
COS
  5
8820
  0
POLYLINE
  5
85DE
  8
COS
 10
-82.1100091610915825
 20
-15.9630928333138549
 30
0.0
 66
     1
 70
     8
  0
VERTEX
  8
COS
  5
8821
 10
-82.1100
 20
-15.9631
 30
0.00000
  70
    32
  0
VERTEX
  8
COS
  5
8822
 10
-82.0982
 20
-15.9696
 30
0.00000
  70
    32
  0
VERTEX
  8
COS
  5
8823
 10
-82.0865
 20
-15.9764
 30
0.00000
  70
    32
  0
VERTEX
  8
COS
  5
8824
 10
-82.0749
 20
-15.9833
 30
0.00000
  70
    32
  0
VERTEX
  8
COS
  5
8825
 10
-82.0635
 20
-15.9904
 30
0.00000
  70
    32
  0
VERTEX
  8
COS
  5
8826
 10
-82.0521
 20
-15.9977
 30
0.00000
  70
    32
  0
VERTEX
  8
COS
  5
8827
 10
-82.0409
 20
-16.0053
 30
0.00000
  70
    32
  0
VERTEX
  8
COS
  5
8828
 10
-82.0298
 20
-16.0130
 30
0.00000
  70
    32
  0
VERTEX
  8
COS
  5
8829
 10
-82.0189
 20
-16.0209
 30
0.00000
  70
    32
  0
VERTEX
  8
COS
  5
882A
 10
-82.0081
 20
-16.0290
 30
0.00000
  70
    32
  0
VERTEX
  8
COS
  5
882B
 10
-81.9974
 20
-16.0373
 30
0.00000
  70
    32
  0
VERTEX
  8
COS
  5
882C
 10
-81.9869
 20
-16.0457
 30
0.00000
  70
    32
  0
VERTEX
  8
COS
  5
882D
 10
-81.9765
 20
-16.0544
 30
0.00000
  70
    32
  0
VERTEX
  8
COS
  5
882E
 10
-81.9662
 20
-16.0632
 30
0.00000
  70
    32
  0
VERTEX
  8
COS
  5
882F
 10
-81.9562
 20
-16.0722
 30
0.00000
  70
    32
  0
VERTEX
  8
COS
  5
8830
 10
-81.9462
 20
-16.0814
 30
0.00000
  70
    32
  0
VERTEX
  8
COS
  5
8831
 10
-81.9365
 20
-16.0907
 30
0.00000
  70
    32
  0
VERTEX
  8
COS
  5
8832
 10
-81.9268
 20
-16.1002
 30
0.00000
  70
    32
  0
VERTEX
  8
COS
  5
8833
 10
-81.9174
 20
-16.1099
 30
0.00000
  70
    32
  0
VERTEX
  8
COS
  5
8834
 10
-81.9081
 20
-16.1197
 30
0.00000
  70
    32
  0
VERTEX
  8
COS
  5
8835
 10
-81.8990
 20
-16.1297
 30
0.00000
  70
    32
  0
VERTEX
  8
COS
  5
8836
 10
-81.8901
 20
-16.1399
 30
0.00000
  70
    32
  0
VERTEX
  8
COS
  5
8837
 10
-81.8813
 20
-16.1502
 30
0.00000
  70
    32
  0
VERTEX
  8
COS
  5
8838
 10
-81.8727
 20
-16.1606
 30
0.00000
  70
    32
  0
VERTEX
  8
COS
  5
8839
 10
-81.8643
 20
-16.1712
 30
0.00000
  70
    32
  0
VERTEX
  8
COS
  5
883A
 10
-81.8560
 20
-16.1820
 30
0.00000
  70
    32
  0
VERTEX
  8
COS
  5
883B
 10
-81.8480
 20
-16.1929
 30
0.00000
  70
    32
  0
VERTEX
  8
COS
  5
883C
 10
-81.8401
 20
-16.2039
 30
0.00000
  70
    32
  0
VERTEX
  8
COS
  5
883D
 10
-81.8325
 20
-16.2150
 30
0.00000
  70
    32
  0
VERTEX
  8
COS
  5
883E
 10
-81.8250
 20
-16.2263
 30
0.00000
  70
    32
  0
VERTEX
  8
COS
  5
883F
 10
-81.8177
 20
-16.2378
 30
0.00000
  70
    32
  0
VERTEX
  8
COS
  5
8840
 10
-81.8106
 20
-16.2493
 30
0.00000
  70
    32
  0
VERTEX
  8
COS
  5
8841
 10
-81.8037
 20
-16.2610
 30
0.00000
  70
    32
  0
VERTEX
  8
COS
  5
8842
 10
-81.7970
 20
-16.2727
 30
0.00000
  70
    32
  0
VERTEX
  8
COS
  5
8843
 10
-81.7905
 20
-16.2846
 30
0.00000
  70
    32
  0
VERTEX
  8
COS
  5
8844
 10
-81.7842
 20
-16.2967
 30
0.00000
  70
    32
  0
VERTEX
  8
COS
  5
8845
 10
-81.7781
 20
-16.3088
 30
0.00000
  70
    32
  0
VERTEX
  8
COS
  5
8846
 10
-81.7722
 20
-16.3210
 30
0.00000
  70
    32
  0
VERTEX
  8
COS
  5
8847
 10
-81.7665
 20
-16.3333
 30
0.00000
  70
    32
  0
VERTEX
  8
COS
  5
8848
 10
-81.7610
 20
-16.3457
 30
0.00000
  70
    32
  0
VERTEX
  8
COS
  5
8849
 10
-81.7558
 20
-16.3583
 30
0.00000
  70
    32
  0
VERTEX
  8
COS
  5
884A
 10
-81.7507
 20
-16.3709
 30
0.00000
  70
    32
  0
VERTEX
  8
COS
  5
884B
 10
-81.7459
 20
-16.3836
 30
0.00000
  70
    32
  0
VERTEX
  8
COS
  5
884C
 10
-81.7413
 20
-16.3963
 30
0.00000
  70
    32
  0
VERTEX
  8
COS
  5
884D
 10
-81.7369
 20
-16.4092
 30
0.00000
  70
    32
  0
VERTEX
  8
COS
  5
884E
 10
-81.7327
 20
-16.4221
 30
0.00000
  70
    32
  0
VERTEX
  8
COS
  5
884F
 10
-81.7287
 20
-16.4351
 30
0.00000
  70
    32
  0
VERTEX
  8
COS
  5
8850
 10
-81.7250
 20
-16.4482
 30
0.00000
  70
    32
  0
VERTEX
  8
COS
  5
8851
 10
-81.7215
 20
-16.4613
 30
0.00000
  70
    32
  0
VERTEX
  8
COS
  5
8852
 10
-81.7182
 20
-16.4745
 30
0.00000
  70
    32
  0
VERTEX
  8
COS
  5
8853
 10
-81.7151
 20
-16.4877
 30
0.00000
  70
    32
  0
VERTEX
  8
COS
  5
8854
 10
-81.7123
 20
-16.5010
 30
0.00000
  70
    32
  0
VERTEX
  8
COS
  5
8855
 10
-81.7096
 20
-16.5144
 30
0.00000
  70
    32
  0
VERTEX
  8
COS
  5
8856
 10
-81.7072
 20
-16.5278
 30
0.00000
  70
    32
  0
VERTEX
  8
COS
  5
8857
 10
-81.7051
 20
-16.5412
 30
0.00000
  70
    32
  0
VERTEX
  8
COS
  5
8858
 10
-81.7031
 20
-16.5547
 30
0.00000
  70
    32
  0
VERTEX
  8
COS
  5
8859
 10
-81.7014
 20
-16.5682
 30
0.00000
  70
    32
  0
VERTEX
  8
COS
  5
885A
 10
-81.6999
 20
-16.5817
 30
0.00000
  70
    32
  0
VERTEX
  8
COS
  5
885B
 10
-81.6987
 20
-16.5953
 30
0.00000
  70
    32
  0
VERTEX
  8
COS
  5
885C
 10
-81.6976
 20
-16.6088
 30
0.00000
  70
    32
  0
VERTEX
  8
COS
  5
885D
 10
-81.6968
 20
-16.6224
 30
0.00000
  70
    32
  0
VERTEX
  8
COS
  5
885E
 10
-81.6963
 20
-16.6360
 30
0.00000
  70
    32
  0
VERTEX
  8
COS
  5
885F
 10
-81.6959
 20
-16.6496
 30
0.00000
  70
    32
  0
VERTEX
  8
COS
  5
8860
 10
-81.6958
 20
-16.6633
 30
0.00000
  70
    32
  0
VERTEX
  8
COS
  5
8861
 10
-81.6959
 20
-16.6769
 30
0.00000
  70
    32
  0
VERTEX
  8
COS
  5
8862
 10
-81.6963
 20
-16.6905
 30
0.00000
  70
    32
  0
VERTEX
  8
COS
  5
8863
 10
-81.6969
 20
-16.7041
 30
0.00000
  70
    32
  0
VERTEX
  8
COS
  5
8864
 10
-81.6977
 20
-16.7177
 30
0.00000
  70
    32
  0
VERTEX
  8
COS
  5
8865
 10
-81.6987
 20
-16.7313
 30
0.00000
  70
    32
  0
VERTEX
  8
COS
  5
8866
 10
-81.7000
 20
-16.7449
 30
0.00000
  70
    32
  0
VERTEX
  8
COS
  5
8867
 10
-81.7015
 20
-16.7584
 30
0.00000
  70
    32
  0
VERTEX
  8
COS
  5
8868
 10
-81.7032
 20
-16.7719
 30
0.00000
  70
    32
  0
VERTEX
  8
COS
  5
8869
 10
-81.7052
 20
-16.7854
 30
0.00000
  70
    32
  0
VERTEX
  8
COS
  5
886A
 10
-81.7073
 20
-16.7989
 30
0.00000
  70
    32
  0
VERTEX
  8
COS
  5
886B
 10
-81.7098
 20
-16.8123
 30
0.00000
  70
    32
  0
VERTEX
  8
COS
  5
886C
 10
-81.7124
 20
-16.8257
 30
0.00000
  70
    32
  0
VERTEX
  8
COS
  5
886D
 10
-81.7152
 20
-16.8390
 30
0.00000
  70
    32
  0
VERTEX
  8
COS
  5
886E
 10
-81.7183
 20
-16.8523
 30
0.00000
  70
    32
  0
VERTEX
  8
COS
  5
886F
 10
-81.7216
 20
-16.8655
 30
0.00000
  70
    32
  0
VERTEX
  8
COS
  5
8870
 10
-81.7252
 20
-16.8787
 30
0.00000
  70
    32
  0
VERTEX
  8
COS
  5
8871
 10
-81.7289
 20
-16.8918
 30
0.00000
  70
    32
  0
VERTEX
  8
COS
  5
8872
 10
-81.7329
 20
-16.9049
 30
0.00000
  70
    32
  0
VERTEX
  8
COS
  5
8873
 10
-81.7371
 20
-16.9178
 30
0.00000
  70
    32
  0
VERTEX
  8
COS
  5
8874
 10
-81.7415
 20
-16.9307
 30
0.00000
  70
    32
  0
VERTEX
  8
COS
  5
8875
 10
-81.7461
 20
-16.9436
 30
0.00000
  70
    32
  0
VERTEX
  8
COS
  5
8876
 10
-81.7510
 20
-16.9563
 30
0.00000
  70
    32
  0
VERTEX
  8
COS
  5
8877
 10
-81.7560
 20
-16.9690
 30
0.00000
  70
    32
  0
VERTEX
  8
COS
  5
8878
 10
-81.7613
 20
-16.9815
 30
0.00000
  70
    32
  0
VERTEX
  8
COS
  5
8879
 10
-81.7668
 20
-16.9940
 30
0.00000
  70
    32
  0
VERTEX
  8
COS
  5
887A
 10
-81.7725
 20
-17.0064
 30
0.00000
  70
    32
  0
VERTEX
  8
COS
  5
887B
 10
-81.7784
 20
-17.0187
 30
0.00000
  70
    32
  0
VERTEX
  8
COS
  5
887C
 10
-81.7845
 20
-17.0309
 30
0.00000
  70
    32
  0
VERTEX
  8
COS
  5
887D
 10
-81.7908
 20
-17.0430
 30
0.00000
  70
    32
  0
VERTEX
  8
COS
  5
887E
 10
-81.7973
 20
-17.0549
 30
0.00000
  70
    32
  0
VERTEX
  8
COS
  5
887F
 10
-81.8040
 20
-17.0668
 30
0.00000
  70
    32
  0
VERTEX
  8
COS
  5
8880
 10
-81.8109
 20
-17.0785
 30
0.00000
  70
    32
  0
VERTEX
  8
COS
  5
8881
 10
-81.8180
 20
-17.0902
 30
0.00000
  70
    32
  0
VERTEX
  8
COS
  5
8882
 10
-81.8253
 20
-17.1017
 30
0.00000
  70
    32
  0
VERTEX
  8
COS
  5
8883
 10
-81.8328
 20
-17.1131
 30
0.00000
  70
    32
  0
VERTEX
  8
COS
  5
8884
 10
-81.8405
 20
-17.1243
 30
0.00000
  70
    32
  0
VERTEX
  8
COS
  5
8885
 10
-81.8484
 20
-17.1354
 30
0.00000
  70
    32
  0
VERTEX
  8
COS
  5
8886
 10
-81.8564
 20
-17.1464
 30
0.00000
  70
    32
  0
VERTEX
  8
COS
  5
8887
 10
-81.8647
 20
-17.1572
 30
0.00000
  70
    32
  0
VERTEX
  8
COS
  5
8888
 10
-81.8731
 20
-17.1679
 30
0.00000
  70
    32
  0
VERTEX
  8
COS
  5
8889
 10
-81.8817
 20
-17.1785
 30
0.00000
  70
    32
  0
VERTEX
  8
COS
  5
888A
 10
-81.8905
 20
-17.1889
 30
0.00000
  70
    32
  0
VERTEX
  8
COS
  5
888B
 10
-81.8994
 20
-17.1991
 30
0.00000
  70
    32
  0
VERTEX
  8
COS
  5
888C
 10
-81.9086
 20
-17.2092
 30
0.00000
  70
    32
  0
VERTEX
  8
COS
  5
888D
 10
-81.9178
 20
-17.2192
 30
0.00000
  70
    32
  0
VERTEX
  8
COS
  5
888E
 10
-81.9273
 20
-17.2290
 30
0.00000
  70
    32
  0
VERTEX
  8
COS
  5
888F
 10
-81.9369
 20
-17.2386
 30
0.00000
  70
    32
  0
VERTEX
  8
COS
  5
8890
 10
-81.9467
 20
-17.2480
 30
0.00000
  70
    32
  0
VERTEX
  8
COS
  5
8891
 10
-81.9566
 20
-17.2573
 30
0.00000
  70
    32
  0
VERTEX
  8
COS
  5
8892
 10
-81.9667
 20
-17.2664
 30
0.00000
  70
    32
  0
VERTEX
  8
COS
  5
8893
 10
-81.9770
 20
-17.2754
 30
0.00000
  70
    32
  0
VERTEX
  8
COS
  5
8894
 10
-81.9874
 20
-17.2841
 30
0.00000
  70
    32
  0
VERTEX
  8
COS
  5
8895
 10
-81.9979
 20
-17.2927
 30
0.00000
  70
    32
  0
VERTEX
  8
COS
  5
8896
 10
-82.0086
 20
-17.3011
 30
0.00000
  70
    32
  0
VERTEX
  8
COS
  5
8897
 10
-82.0194
 20
-17.3093
 30
0.00000
  70
    32
  0
VERTEX
  8
COS
  5
8898
 10
-82.0304
 20
-17.3174
 30
0.00000
  70
    32
  0
VERTEX
  8
COS
  5
8899
 10
-82.0414
 20
-17.3252
 30
0.00000
  70
    32
  0
VERTEX
  8
COS
  5
889A
 10
-82.0527
 20
-17.3329
 30
0.00000
  70
    32
  0
VERTEX
  8
COS
  5
889B
 10
-82.0640
 20
-17.3403
 30
0.00000
  70
    32
  0
VERTEX
  8
COS
  5
889C
 10
-82.0755
 20
-17.3476
 30
0.00000
  70
    32
  0
VERTEX
  8
COS
  5
889D
 10
-82.0871
 20
-17.3546
 30
0.00000
  70
    32
  0
VERTEX
  8
COS
  5
889E
 10
-82.0988
 20
-17.3615
 30
0.00000
  70
    32
  0
VERTEX
  8
COS
  5
889F
 10
-82.1106
 20
-17.3682
 30
0.00000
  70
    32
  0
VERTEX
  8
COS
  5
88A0
 10
-82.1225
 20
-17.3746
 30
0.00000
  70
    32
  0
VERTEX
  8
COS
  5
88A1
 10
-82.1345
 20
-17.3809
 30
0.00000
  70
    32
  0
SEQEND
  8
COS
  5
88A2
  0
LINE
  5
85DF
  8
COS
 10
-90.7030333185945636
 20
-21.7433943088829515
 30
0.0
 11
-82.1345368709639558
 21
-17.3808938003722808
 31
0.0
  0
POLYLINE
  5
85E0
  8
COS
 10
-91.9561172052351736
 20
-21.5887338329138778
 30
0.0
 66
     1
 70
     8
  0
VERTEX
  8
COS
  5
88A3
 10
-91.9561
 20
-21.5887
 30
0.00000
  70
    32
  0
VERTEX
  8
COS
  5
88A4
 10
-91.9573
 20
-21.5884
 30
0.00000
  70
    32
  0
VERTEX
  8
COS
  5
88A5
 10
-91.9584
 20
-21.5880
 30
0.00000
  70
    32
  0
VERTEX
  8
COS
  5
88A6
 10
-91.9595
 20
-21.5877
 30
0.00000
  70
    32
  0
VERTEX
  8
COS
  5
88A7
 10
-91.9607
 20
-21.5873
 30
0.00000
  70
    32
  0
VERTEX
  8
COS
  5
88A8
 10
-91.9618
 20
-21.5869
 30
0.00000
  70
    32
  0
VERTEX
  8
COS
  5
88A9
 10
-91.9630
 20
-21.5866
 30
0.00000
  70
    32
  0
VERTEX
  8
COS
  5
88AA
 10
-91.9641
 20
-21.5862
 30
0.00000
  70
    32
  0
VERTEX
  8
COS
  5
88AB
 10
-91.9652
 20
-21.5858
 30
0.00000
  70
    32
  0
VERTEX
  8
COS
  5
88AC
 10
-91.9664
 20
-21.5855
 30
0.00000
  70
    32
  0
VERTEX
  8
COS
  5
88AD
 10
-91.9675
 20
-21.5851
 30
0.00000
  70
    32
  0
VERTEX
  8
COS
  5
88AE
 10
-91.9686
 20
-21.5847
 30
0.00000
  70
    32
  0
VERTEX
  8
COS
  5
88AF
 10
-91.9698
 20
-21.5844
 30
0.00000
  70
    32
  0
VERTEX
  8
COS
  5
88B0
 10
-91.9709
 20
-21.5840
 30
0.00000
  70
    32
  0
VERTEX
  8
COS
  5
88B1
 10
-91.9721
 20
-21.5836
 30
0.00000
  70
    32
  0
VERTEX
  8
COS
  5
88B2
 10
-91.9732
 20
-21.5832
 30
0.00000
  70
    32
  0
VERTEX
  8
COS
  5
88B3
 10
-91.9743
 20
-21.5828
 30
0.00000
  70
    32
  0
VERTEX
  8
COS
  5
88B4
 10
-91.9755
 20
-21.5825
 30
0.00000
  70
    32
  0
VERTEX
  8
COS
  5
88B5
 10
-91.9766
 20
-21.5821
 30
0.00000
  70
    32
  0
VERTEX
  8
COS
  5
88B6
 10
-91.9777
 20
-21.5817
 30
0.00000
  70
    32
  0
VERTEX
  8
COS
  5
88B7
 10
-91.9789
 20
-21.5813
 30
0.00000
  70
    32
  0
VERTEX
  8
COS
  5
88B8
 10
-91.9800
 20
-21.5809
 30
0.00000
  70
    32
  0
VERTEX
  8
COS
  5
88B9
 10
-91.9811
 20
-21.5805
 30
0.00000
  70
    32
  0
VERTEX
  8
COS
  5
88BA
 10
-91.9822
 20
-21.5801
 30
0.00000
  70
    32
  0
VERTEX
  8
COS
  5
88BB
 10
-91.9834
 20
-21.5797
 30
0.00000
  70
    32
  0
VERTEX
  8
COS
  5
88BC
 10
-91.9845
 20
-21.5793
 30
0.00000
  70
    32
  0
VERTEX
  8
COS
  5
88BD
 10
-91.9856
 20
-21.5789
 30
0.00000
  70
    32
  0
VERTEX
  8
COS
  5
88BE
 10
-91.9868
 20
-21.5785
 30
0.00000
  70
    32
  0
VERTEX
  8
COS
  5
88BF
 10
-91.9879
 20
-21.5781
 30
0.00000
  70
    32
  0
VERTEX
  8
COS
  5
88C0
 10
-91.9890
 20
-21.5777
 30
0.00000
  70
    32
  0
VERTEX
  8
COS
  5
88C1
 10
-91.9901
 20
-21.5773
 30
0.00000
  70
    32
  0
VERTEX
  8
COS
  5
88C2
 10
-91.9913
 20
-21.5769
 30
0.00000
  70
    32
  0
VERTEX
  8
COS
  5
88C3
 10
-91.9924
 20
-21.5765
 30
0.00000
  70
    32
  0
VERTEX
  8
COS
  5
88C4
 10
-91.9935
 20
-21.5761
 30
0.00000
  70
    32
  0
VERTEX
  8
COS
  5
88C5
 10
-91.9946
 20
-21.5757
 30
0.00000
  70
    32
  0
VERTEX
  8
COS
  5
88C6
 10
-91.9957
 20
-21.5753
 30
0.00000
  70
    32
  0
VERTEX
  8
COS
  5
88C7
 10
-91.9969
 20
-21.5748
 30
0.00000
  70
    32
  0
VERTEX
  8
COS
  5
88C8
 10
-91.9980
 20
-21.5744
 30
0.00000
  70
    32
  0
VERTEX
  8
COS
  5
88C9
 10
-91.9991
 20
-21.5740
 30
0.00000
  70
    32
  0
VERTEX
  8
COS
  5
88CA
 10
-92.0002
 20
-21.5736
 30
0.00000
  70
    32
  0
VERTEX
  8
COS
  5
88CB
 10
-92.0013
 20
-21.5732
 30
0.00000
  70
    32
  0
VERTEX
  8
COS
  5
88CC
 10
-92.0025
 20
-21.5727
 30
0.00000
  70
    32
  0
VERTEX
  8
COS
  5
88CD
 10
-92.0036
 20
-21.5723
 30
0.00000
  70
    32
  0
VERTEX
  8
COS
  5
88CE
 10
-92.0047
 20
-21.5719
 30
0.00000
  70
    32
  0
VERTEX
  8
COS
  5
88CF
 10
-92.0058
 20
-21.5715
 30
0.00000
  70
    32
  0
VERTEX
  8
COS
  5
88D0
 10
-92.0069
 20
-21.5710
 30
0.00000
  70
    32
  0
VERTEX
  8
COS
  5
88D1
 10
-92.0080
 20
-21.5706
 30
0.00000
  70
    32
  0
VERTEX
  8
COS
  5
88D2
 10
-92.0092
 20
-21.5702
 30
0.00000
  70
    32
  0
VERTEX
  8
COS
  5
88D3
 10
-92.0103
 20
-21.5697
 30
0.00000
  70
    32
  0
VERTEX
  8
COS
  5
88D4
 10
-92.0114
 20
-21.5693
 30
0.00000
  70
    32
  0
VERTEX
  8
COS
  5
88D5
 10
-92.0125
 20
-21.5688
 30
0.00000
  70
    32
  0
VERTEX
  8
COS
  5
88D6
 10
-92.0136
 20
-21.5684
 30
0.00000
  70
    32
  0
VERTEX
  8
COS
  5
88D7
 10
-92.0147
 20
-21.5680
 30
0.00000
  70
    32
  0
VERTEX
  8
COS
  5
88D8
 10
-92.0158
 20
-21.5675
 30
0.00000
  70
    32
  0
VERTEX
  8
COS
  5
88D9
 10
-92.0169
 20
-21.5671
 30
0.00000
  70
    32
  0
VERTEX
  8
COS
  5
88DA
 10
-92.0181
 20
-21.5666
 30
0.00000
  70
    32
  0
VERTEX
  8
COS
  5
88DB
 10
-92.0192
 20
-21.5662
 30
0.00000
  70
    32
  0
VERTEX
  8
COS
  5
88DC
 10
-92.0203
 20
-21.5657
 30
0.00000
  70
    32
  0
VERTEX
  8
COS
  5
88DD
 10
-92.0214
 20
-21.5653
 30
0.00000
  70
    32
  0
VERTEX
  8
COS
  5
88DE
 10
-92.0225
 20
-21.5648
 30
0.00000
  70
    32
  0
VERTEX
  8
COS
  5
88DF
 10
-92.0236
 20
-21.5644
 30
0.00000
  70
    32
  0
VERTEX
  8
COS
  5
88E0
 10
-92.0247
 20
-21.5639
 30
0.00000
  70
    32
  0
VERTEX
  8
COS
  5
88E1
 10
-92.0258
 20
-21.5634
 30
0.00000
  70
    32
  0
VERTEX
  8
COS
  5
88E2
 10
-92.0269
 20
-21.5630
 30
0.00000
  70
    32
  0
VERTEX
  8
COS
  5
88E3
 10
-92.0280
 20
-21.5625
 30
0.00000
  70
    32
  0
VERTEX
  8
COS
  5
88E4
 10
-92.0291
 20
-21.5620
 30
0.00000
  70
    32
  0
VERTEX
  8
COS
  5
88E5
 10
-92.0302
 20
-21.5616
 30
0.00000
  70
    32
  0
VERTEX
  8
COS
  5
88E6
 10
-92.0313
 20
-21.5611
 30
0.00000
  70
    32
  0
VERTEX
  8
COS
  5
88E7
 10
-92.0324
 20
-21.5606
 30
0.00000
  70
    32
  0
VERTEX
  8
COS
  5
88E8
 10
-92.0335
 20
-21.5602
 30
0.00000
  70
    32
  0
VERTEX
  8
COS
  5
88E9
 10
-92.0346
 20
-21.5597
 30
0.00000
  70
    32
  0
VERTEX
  8
COS
  5
88EA
 10
-92.0357
 20
-21.5592
 30
0.00000
  70
    32
  0
VERTEX
  8
COS
  5
88EB
 10
-92.0368
 20
-21.5587
 30
0.00000
  70
    32
  0
VERTEX
  8
COS
  5
88EC
 10
-92.0379
 20
-21.5583
 30
0.00000
  70
    32
  0
VERTEX
  8
COS
  5
88ED
 10
-92.0390
 20
-21.5578
 30
0.00000
  70
    32
  0
VERTEX
  8
COS
  5
88EE
 10
-92.0401
 20
-21.5573
 30
0.00000
  70
    32
  0
VERTEX
  8
COS
  5
88EF
 10
-92.0412
 20
-21.5568
 30
0.00000
  70
    32
  0
VERTEX
  8
COS
  5
88F0
 10
-92.0423
 20
-21.5563
 30
0.00000
  70
    32
  0
VERTEX
  8
COS
  5
88F1
 10
-92.0434
 20
-21.5558
 30
0.00000
  70
    32
  0
VERTEX
  8
COS
  5
88F2
 10
-92.0445
 20
-21.5554
 30
0.00000
  70
    32
  0
VERTEX
  8
COS
  5
88F3
 10
-92.0455
 20
-21.5549
 30
0.00000
  70
    32
  0
VERTEX
  8
COS
  5
88F4
 10
-92.0466
 20
-21.5544
 30
0.00000
  70
    32
  0
VERTEX
  8
COS
  5
88F5
 10
-92.0477
 20
-21.5539
 30
0.00000
  70
    32
  0
VERTEX
  8
COS
  5
88F6
 10
-92.0488
 20
-21.5534
 30
0.00000
  70
    32
  0
VERTEX
  8
COS
  5
88F7
 10
-92.0499
 20
-21.5529
 30
0.00000
  70
    32
  0
VERTEX
  8
COS
  5
88F8
 10
-92.0510
 20
-21.5524
 30
0.00000
  70
    32
  0
VERTEX
  8
COS
  5
88F9
 10
-92.0521
 20
-21.5519
 30
0.00000
  70
    32
  0
VERTEX
  8
COS
  5
88FA
 10
-92.0532
 20
-21.5514
 30
0.00000
  70
    32
  0
VERTEX
  8
COS
  5
88FB
 10
-92.0542
 20
-21.5509
 30
0.00000
  70
    32
  0
VERTEX
  8
COS
  5
88FC
 10
-92.0553
 20
-21.5504
 30
0.00000
  70
    32
  0
VERTEX
  8
COS
  5
88FD
 10
-92.0564
 20
-21.5499
 30
0.00000
  70
    32
  0
VERTEX
  8
COS
  5
88FE
 10
-92.0575
 20
-21.5494
 30
0.00000
  70
    32
  0
VERTEX
  8
COS
  5
88FF
 10
-92.0586
 20
-21.5489
 30
0.00000
  70
    32
  0
VERTEX
  8
COS
  5
8900
 10
-92.0597
 20
-21.5483
 30
0.00000
  70
    32
  0
VERTEX
  8
COS
  5
8901
 10
-92.0607
 20
-21.5478
 30
0.00000
  70
    32
  0
VERTEX
  8
COS
  5
8902
 10
-92.0618
 20
-21.5473
 30
0.00000
  70
    32
  0
VERTEX
  8
COS
  5
8903
 10
-92.0629
 20
-21.5468
 30
0.00000
  70
    32
  0
VERTEX
  8
COS
  5
8904
 10
-92.0640
 20
-21.5463
 30
0.00000
  70
    32
  0
VERTEX
  8
COS
  5
8905
 10
-92.0651
 20
-21.5458
 30
0.00000
  70
    32
  0
VERTEX
  8
COS
  5
8906
 10
-92.0661
 20
-21.5452
 30
0.00000
  70
    32
  0
VERTEX
  8
COS
  5
8907
 10
-92.0672
 20
-21.5447
 30
0.00000
  70
    32
  0
VERTEX
  8
COS
  5
8908
 10
-92.0683
 20
-21.5442
 30
0.00000
  70
    32
  0
VERTEX
  8
COS
  5
8909
 10
-92.0694
 20
-21.5437
 30
0.00000
  70
    32
  0
VERTEX
  8
COS
  5
890A
 10
-92.0704
 20
-21.5431
 30
0.00000
  70
    32
  0
VERTEX
  8
COS
  5
890B
 10
-92.0715
 20
-21.5426
 30
0.00000
  70
    32
  0
VERTEX
  8
COS
  5
890C
 10
-92.0726
 20
-21.5421
 30
0.00000
  70
    32
  0
VERTEX
  8
COS
  5
890D
 10
-92.0736
 20
-21.5415
 30
0.00000
  70
    32
  0
VERTEX
  8
COS
  5
890E
 10
-92.0747
 20
-21.5410
 30
0.00000
  70
    32
  0
VERTEX
  8
COS
  5
890F
 10
-92.0758
 20
-21.5405
 30
0.00000
  70
    32
  0
VERTEX
  8
COS
  5
8910
 10
-92.0769
 20
-21.5399
 30
0.00000
  70
    32
  0
VERTEX
  8
COS
  5
8911
 10
-92.0779
 20
-21.5394
 30
0.00000
  70
    32
  0
VERTEX
  8
COS
  5
8912
 10
-92.0790
 20
-21.5388
 30
0.00000
  70
    32
  0
VERTEX
  8
COS
  5
8913
 10
-92.0801
 20
-21.5383
 30
0.00000
  70
    32
  0
VERTEX
  8
COS
  5
8914
 10
-92.0811
 20
-21.5378
 30
0.00000
  70
    32
  0
VERTEX
  8
COS
  5
8915
 10
-92.0822
 20
-21.5372
 30
0.00000
  70
    32
  0
VERTEX
  8
COS
  5
8916
 10
-92.0832
 20
-21.5367
 30
0.00000
  70
    32
  0
VERTEX
  8
COS
  5
8917
 10
-92.0843
 20
-21.5361
 30
0.00000
  70
    32
  0
VERTEX
  8
COS
  5
8918
 10
-92.0854
 20
-21.5356
 30
0.00000
  70
    32
  0
VERTEX
  8
COS
  5
8919
 10
-92.0864
 20
-21.5350
 30
0.00000
  70
    32
  0
VERTEX
  8
COS
  5
891A
 10
-92.0875
 20
-21.5345
 30
0.00000
  70
    32
  0
VERTEX
  8
COS
  5
891B
 10
-92.0885
 20
-21.5339
 30
0.00000
  70
    32
  0
VERTEX
  8
COS
  5
891C
 10
-92.0896
 20
-21.5333
 30
0.00000
  70
    32
  0
VERTEX
  8
COS
  5
891D
 10
-92.0907
 20
-21.5328
 30
0.00000
  70
    32
  0
VERTEX
  8
COS
  5
891E
 10
-92.0917
 20
-21.5322
 30
0.00000
  70
    32
  0
VERTEX
  8
COS
  5
891F
 10
-92.0928
 20
-21.5317
 30
0.00000
  70
    32
  0
VERTEX
  8
COS
  5
8920
 10
-92.0938
 20
-21.5311
 30
0.00000
  70
    32
  0
VERTEX
  8
COS
  5
8921
 10
-92.0949
 20
-21.5305
 30
0.00000
  70
    32
  0
VERTEX
  8
COS
  5
8922
 10
-92.0959
 20
-21.5300
 30
0.00000
  70
    32
  0
VERTEX
  8
COS
  5
8923
 10
-92.0970
 20
-21.5294
 30
0.00000
  70
    32
  0
SEQEND
  8
COS
  5
8924
  0
POLYLINE
  5
85E1
  8
COS
 10
-90.7030333185946205
 20
-21.7433943088829587
 30
0.0
 66
     1
 70
     8
  0
VERTEX
  8
COS
  5
8925
 10
-90.7030
 20
-21.7434
 30
0.00000
  70
    32
  0
VERTEX
  8
COS
  5
8926
 10
-90.7084
 20
-21.7461
 30
0.00000
  70
    32
  0
VERTEX
  8
COS
  5
8927
 10
-90.7137
 20
-21.7487
 30
0.00000
  70
    32
  0
VERTEX
  8
COS
  5
8928
 10
-90.7191
 20
-21.7513
 30
0.00000
  70
    32
  0
VERTEX
  8
COS
  5
8929
 10
-90.7245
 20
-21.7539
 30
0.00000
  70
    32
  0
VERTEX
  8
COS
  5
892A
 10
-90.7299
 20
-21.7564
 30
0.00000
  70
    32
  0
VERTEX
  8
COS
  5
892B
 10
-90.7353
 20
-21.7589
 30
0.00000
  70
    32
  0
VERTEX
  8
COS
  5
892C
 10
-90.7407
 20
-21.7614
 30
0.00000
  70
    32
  0
VERTEX
  8
COS
  5
892D
 10
-90.7462
 20
-21.7638
 30
0.00000
  70
    32
  0
VERTEX
  8
COS
  5
892E
 10
-90.7517
 20
-21.7661
 30
0.00000
  70
    32
  0
VERTEX
  8
COS
  5
892F
 10
-90.7571
 20
-21.7684
 30
0.00000
  70
    32
  0
VERTEX
  8
COS
  5
8930
 10
-90.7627
 20
-21.7707
 30
0.00000
  70
    32
  0
VERTEX
  8
COS
  5
8931
 10
-90.7682
 20
-21.7729
 30
0.00000
  70
    32
  0
VERTEX
  8
COS
  5
8932
 10
-90.7737
 20
-21.7751
 30
0.00000
  70
    32
  0
VERTEX
  8
COS
  5
8933
 10
-90.7793
 20
-21.7773
 30
0.00000
  70
    32
  0
VERTEX
  8
COS
  5
8934
 10
-90.7849
 20
-21.7794
 30
0.00000
  70
    32
  0
VERTEX
  8
COS
  5
8935
 10
-90.7904
 20
-21.7815
 30
0.00000
  70
    32
  0
VERTEX
  8
COS
  5
8936
 10
-90.7960
 20
-21.7835
 30
0.00000
  70
    32
  0
VERTEX
  8
COS
  5
8937
 10
-90.8017
 20
-21.7855
 30
0.00000
  70
    32
  0
VERTEX
  8
COS
  5
8938
 10
-90.8073
 20
-21.7874
 30
0.00000
  70
    32
  0
VERTEX
  8
COS
  5
8939
 10
-90.8129
 20
-21.7893
 30
0.00000
  70
    32
  0
VERTEX
  8
COS
  5
893A
 10
-90.8186
 20
-21.7912
 30
0.00000
  70
    32
  0
VERTEX
  8
COS
  5
893B
 10
-90.8243
 20
-21.7930
 30
0.00000
  70
    32
  0
VERTEX
  8
COS
  5
893C
 10
-90.8300
 20
-21.7948
 30
0.00000
  70
    32
  0
VERTEX
  8
COS
  5
893D
 10
-90.8357
 20
-21.7965
 30
0.00000
  70
    32
  0
VERTEX
  8
COS
  5
893E
 10
-90.8414
 20
-21.7982
 30
0.00000
  70
    32
  0
VERTEX
  8
COS
  5
893F
 10
-90.8471
 20
-21.7998
 30
0.00000
  70
    32
  0
VERTEX
  8
COS
  5
8940
 10
-90.8528
 20
-21.8014
 30
0.00000
  70
    32
  0
VERTEX
  8
COS
  5
8941
 10
-90.8586
 20
-21.8030
 30
0.00000
  70
    32
  0
VERTEX
  8
COS
  5
8942
 10
-90.8643
 20
-21.8045
 30
0.00000
  70
    32
  0
VERTEX
  8
COS
  5
8943
 10
-90.8701
 20
-21.8060
 30
0.00000
  70
    32
  0
VERTEX
  8
COS
  5
8944
 10
-90.8759
 20
-21.8074
 30
0.00000
  70
    32
  0
VERTEX
  8
COS
  5
8945
 10
-90.8817
 20
-21.8088
 30
0.00000
  70
    32
  0
VERTEX
  8
COS
  5
8946
 10
-90.8875
 20
-21.8101
 30
0.00000
  70
    32
  0
VERTEX
  8
COS
  5
8947
 10
-90.8933
 20
-21.8114
 30
0.00000
  70
    32
  0
VERTEX
  8
COS
  5
8948
 10
-90.8991
 20
-21.8126
 30
0.00000
  70
    32
  0
VERTEX
  8
COS
  5
8949
 10
-90.9049
 20
-21.8138
 30
0.00000
  70
    32
  0
VERTEX
  8
COS
  5
894A
 10
-90.9108
 20
-21.8150
 30
0.00000
  70
    32
  0
VERTEX
  8
COS
  5
894B
 10
-90.9166
 20
-21.8161
 30
0.00000
  70
    32
  0
VERTEX
  8
COS
  5
894C
 10
-90.9225
 20
-21.8172
 30
0.00000
  70
    32
  0
VERTEX
  8
COS
  5
894D
 10
-90.9283
 20
-21.8182
 30
0.00000
  70
    32
  0
VERTEX
  8
COS
  5
894E
 10
-90.9342
 20
-21.8192
 30
0.00000
  70
    32
  0
VERTEX
  8
COS
  5
894F
 10
-90.9401
 20
-21.8201
 30
0.00000
  70
    32
  0
VERTEX
  8
COS
  5
8950
 10
-90.9459
 20
-21.8210
 30
0.00000
  70
    32
  0
VERTEX
  8
COS
  5
8951
 10
-90.9518
 20
-21.8219
 30
0.00000
  70
    32
  0
VERTEX
  8
COS
  5
8952
 10
-90.9577
 20
-21.8227
 30
0.00000
  70
    32
  0
VERTEX
  8
COS
  5
8953
 10
-90.9636
 20
-21.8234
 30
0.00000
  70
    32
  0
VERTEX
  8
COS
  5
8954
 10
-90.9695
 20
-21.8242
 30
0.00000
  70
    32
  0
VERTEX
  8
COS
  5
8955
 10
-90.9754
 20
-21.8248
 30
0.00000
  70
    32
  0
VERTEX
  8
COS
  5
8956
 10
-90.9813
 20
-21.8255
 30
0.00000
  70
    32
  0
VERTEX
  8
COS
  5
8957
 10
-90.9873
 20
-21.8260
 30
0.00000
  70
    32
  0
VERTEX
  8
COS
  5
8958
 10
-90.9932
 20
-21.8266
 30
0.00000
  70
    32
  0
VERTEX
  8
COS
  5
8959
 10
-90.9991
 20
-21.8271
 30
0.00000
  70
    32
  0
VERTEX
  8
COS
  5
895A
 10
-91.0050
 20
-21.8275
 30
0.00000
  70
    32
  0
VERTEX
  8
COS
  5
895B
 10
-91.0110
 20
-21.8279
 30
0.00000
  70
    32
  0
VERTEX
  8
COS
  5
895C
 10
-91.0169
 20
-21.8283
 30
0.00000
  70
    32
  0
VERTEX
  8
COS
  5
895D
 10
-91.0228
 20
-21.8286
 30
0.00000
  70
    32
  0
VERTEX
  8
COS
  5
895E
 10
-91.0288
 20
-21.8289
 30
0.00000
  70
    32
  0
VERTEX
  8
COS
  5
895F
 10
-91.0347
 20
-21.8291
 30
0.00000
  70
    32
  0
VERTEX
  8
COS
  5
8960
 10
-91.0406
 20
-21.8293
 30
0.00000
  70
    32
  0
VERTEX
  8
COS
  5
8961
 10
-91.0466
 20
-21.8294
 30
0.00000
  70
    32
  0
VERTEX
  8
COS
  5
8962
 10
-91.0525
 20
-21.8295
 30
0.00000
  70
    32
  0
VERTEX
  8
COS
  5
8963
 10
-91.0585
 20
-21.8295
 30
0.00000
  70
    32
  0
VERTEX
  8
COS
  5
8964
 10
-91.0644
 20
-21.8295
 30
0.00000
  70
    32
  0
VERTEX
  8
COS
  5
8965
 10
-91.0703
 20
-21.8295
 30
0.00000
  70
    32
  0
VERTEX
  8
COS
  5
8966
 10
-91.0763
 20
-21.8294
 30
0.00000
  70
    32
  0
VERTEX
  8
COS
  5
8967
 10
-91.0822
 20
-21.8293
 30
0.00000
  70
    32
  0
VERTEX
  8
COS
  5
8968
 10
-91.0882
 20
-21.8291
 30
0.00000
  70
    32
  0
VERTEX
  8
COS
  5
8969
 10
-91.0941
 20
-21.8289
 30
0.00000
  70
    32
  0
VERTEX
  8
COS
  5
896A
 10
-91.1000
 20
-21.8286
 30
0.00000
  70
    32
  0
VERTEX
  8
COS
  5
896B
 10
-91.1060
 20
-21.8283
 30
0.00000
  70
    32
  0
VERTEX
  8
COS
  5
896C
 10
-91.1119
 20
-21.8279
 30
0.00000
  70
    32
  0
VERTEX
  8
COS
  5
896D
 10
-91.1178
 20
-21.8275
 30
0.00000
  70
    32
  0
VERTEX
  8
COS
  5
896E
 10
-91.1237
 20
-21.8271
 30
0.00000
  70
    32
  0
VERTEX
  8
COS
  5
896F
 10
-91.1297
 20
-21.8266
 30
0.00000
  70
    32
  0
VERTEX
  8
COS
  5
8970
 10
-91.1356
 20
-21.8260
 30
0.00000
  70
    32
  0
VERTEX
  8
COS
  5
8971
 10
-91.1415
 20
-21.8254
 30
0.00000
  70
    32
  0
VERTEX
  8
COS
  5
8972
 10
-91.1474
 20
-21.8248
 30
0.00000
  70
    32
  0
VERTEX
  8
COS
  5
8973
 10
-91.1533
 20
-21.8241
 30
0.00000
  70
    32
  0
VERTEX
  8
COS
  5
8974
 10
-91.1592
 20
-21.8234
 30
0.00000
  70
    32
  0
VERTEX
  8
COS
  5
8975
 10
-91.1651
 20
-21.8227
 30
0.00000
  70
    32
  0
VERTEX
  8
COS
  5
8976
 10
-91.1709
 20
-21.8219
 30
0.00000
  70
    32
  0
VERTEX
  8
COS
  5
8977
 10
-91.1768
 20
-21.8210
 30
0.00000
  70
    32
  0
VERTEX
  8
COS
  5
8978
 10
-91.1827
 20
-21.8201
 30
0.00000
  70
    32
  0
VERTEX
  8
COS
  5
8979
 10
-91.1885
 20
-21.8192
 30
0.00000
  70
    32
  0
VERTEX
  8
COS
  5
897A
 10
-91.1944
 20
-21.8182
 30
0.00000
  70
    32
  0
VERTEX
  8
COS
  5
897B
 10
-91.2002
 20
-21.8172
 30
0.00000
  70
    32
  0
VERTEX
  8
COS
  5
897C
 10
-91.2061
 20
-21.8161
 30
0.00000
  70
    32
  0
VERTEX
  8
COS
  5
897D
 10
-91.2119
 20
-21.8150
 30
0.00000
  70
    32
  0
VERTEX
  8
COS
  5
897E
 10
-91.2177
 20
-21.8138
 30
0.00000
  70
    32
  0
VERTEX
  8
COS
  5
897F
 10
-91.2236
 20
-21.8126
 30
0.00000
  70
    32
  0
VERTEX
  8
COS
  5
8980
 10
-91.2294
 20
-21.8113
 30
0.00000
  70
    32
  0
VERTEX
  8
COS
  5
8981
 10
-91.2351
 20
-21.8100
 30
0.00000
  70
    32
  0
VERTEX
  8
COS
  5
8982
 10
-91.2409
 20
-21.8087
 30
0.00000
  70
    32
  0
VERTEX
  8
COS
  5
8983
 10
-91.2467
 20
-21.8073
 30
0.00000
  70
    32
  0
VERTEX
  8
COS
  5
8984
 10
-91.2525
 20
-21.8059
 30
0.00000
  70
    32
  0
VERTEX
  8
COS
  5
8985
 10
-91.2582
 20
-21.8044
 30
0.00000
  70
    32
  0
VERTEX
  8
COS
  5
8986
 10
-91.2640
 20
-21.8029
 30
0.00000
  70
    32
  0
VERTEX
  8
COS
  5
8987
 10
-91.2697
 20
-21.8014
 30
0.00000
  70
    32
  0
VERTEX
  8
COS
  5
8988
 10
-91.2754
 20
-21.7998
 30
0.00000
  70
    32
  0
VERTEX
  8
COS
  5
8989
 10
-91.2811
 20
-21.7981
 30
0.00000
  70
    32
  0
VERTEX
  8
COS
  5
898A
 10
-91.2868
 20
-21.7964
 30
0.00000
  70
    32
  0
VERTEX
  8
COS
  5
898B
 10
-91.2925
 20
-21.7947
 30
0.00000
  70
    32
  0
VERTEX
  8
COS
  5
898C
 10
-91.2981
 20
-21.7929
 30
0.00000
  70
    32
  0
VERTEX
  8
COS
  5
898D
 10
-91.3038
 20
-21.7911
 30
0.00000
  70
    32
  0
VERTEX
  8
COS
  5
898E
 10
-91.3094
 20
-21.7893
 30
0.00000
  70
    32
  0
VERTEX
  8
COS
  5
898F
 10
-91.3151
 20
-21.7874
 30
0.00000
  70
    32
  0
VERTEX
  8
COS
  5
8990
 10
-91.3207
 20
-21.7854
 30
0.00000
  70
    32
  0
VERTEX
  8
COS
  5
8991
 10
-91.3263
 20
-21.7834
 30
0.00000
  70
    32
  0
VERTEX
  8
COS
  5
8992
 10
-91.3318
 20
-21.7814
 30
0.00000
  70
    32
  0
VERTEX
  8
COS
  5
8993
 10
-91.3374
 20
-21.7793
 30
0.00000
  70
    32
  0
VERTEX
  8
COS
  5
8994
 10
-91.3429
 20
-21.7772
 30
0.00000
  70
    32
  0
VERTEX
  8
COS
  5
8995
 10
-91.3485
 20
-21.7751
 30
0.00000
  70
    32
  0
VERTEX
  8
COS
  5
8996
 10
-91.3540
 20
-21.7729
 30
0.00000
  70
    32
  0
VERTEX
  8
COS
  5
8997
 10
-91.3595
 20
-21.7706
 30
0.00000
  70
    32
  0
VERTEX
  8
COS
  5
8998
 10
-91.3650
 20
-21.7684
 30
0.00000
  70
    32
  0
VERTEX
  8
COS
  5
8999
 10
-91.3704
 20
-21.7660
 30
0.00000
  70
    32
  0
VERTEX
  8
COS
  5
899A
 10
-91.3759
 20
-21.7637
 30
0.00000
  70
    32
  0
VERTEX
  8
COS
  5
899B
 10
-91.3813
 20
-21.7613
 30
0.00000
  70
    32
  0
VERTEX
  8
COS
  5
899C
 10
-91.3867
 20
-21.7588
 30
0.00000
  70
    32
  0
VERTEX
  8
COS
  5
899D
 10
-91.3921
 20
-21.7563
 30
0.00000
  70
    32
  0
VERTEX
  8
COS
  5
899E
 10
-91.3975
 20
-21.7538
 30
0.00000
  70
    32
  0
VERTEX
  8
COS
  5
899F
 10
-91.4028
 20
-21.7512
 30
0.00000
  70
    32
  0
VERTEX
  8
COS
  5
89A0
 10
-91.4082
 20
-21.7486
 30
0.00000
  70
    32
  0
VERTEX
  8
COS
  5
89A1
 10
-91.4135
 20
-21.7460
 30
0.00000
  70
    32
  0
VERTEX
  8
COS
  5
89A2
 10
-91.4188
 20
-21.7433
 30
0.00000
  70
    32
  0
VERTEX
  8
COS
  5
89A3
 10
-91.4240
 20
-21.7406
 30
0.00000
  70
    32
  0
VERTEX
  8
COS
  5
89A4
 10
-91.4293
 20
-21.7378
 30
0.00000
  70
    32
  0
VERTEX
  8
COS
  5
89A5
 10
-91.4345
 20
-21.7350
 30
0.00000
  70
    32
  0
SEQEND
  8
COS
  5
89A6
  0
LINE
  5
85E2
  8
COS
 10
-92.0969937037008037
 20
-21.5293894183664101
 30
0.0
 11
-92.3173351972805136
 21
-21.41004376660484
 31
0.0
  0
LINE
  5
85E4
  8
COS
 10
-99.8487125380358691
 20
-17.1775434936768896
 30
0.0
 11
-91.4345297431308239
 21
-21.7349970780395907
 31
0.0
  0
POLYLINE
  5
85E6
  8
COS
 10
-99.8487125380359259
 20
-17.1775434936768612
 30
0.0
 66
     1
 70
     8
  0
VERTEX
  8
COS
  5
89A7
 10
-99.8487
 20
-17.1775
 30
0.00000
  70
    32
  0
VERTEX
  8
COS
  5
89A8
 10
-99.8605
 20
-17.1710
 30
0.00000
  70
    32
  0
VERTEX
  8
COS
  5
89A9
 10
-99.8722
 20
-17.1643
 30
0.00000
  70
    32
  0
VERTEX
  8
COS
  5
89AA
 10
-99.8838
 20
-17.1573
 30
0.00000
  70
    32
  0
VERTEX
  8
COS
  5
89AB
 10
-99.8953
 20
-17.1502
 30
0.00000
  70
    32
  0
VERTEX
  8
COS
  5
89AC
 10
-99.9066
 20
-17.1429
 30
0.00000
  70
    32
  0
VERTEX
  8
COS
  5
89AD
 10
-99.9178
 20
-17.1354
 30
0.00000
  70
    32
  0
VERTEX
  8
COS
  5
89AE
 10
-99.9289
 20
-17.1276
 30
0.00000
  70
    32
  0
VERTEX
  8
COS
  5
89AF
 10
-99.9398
 20
-17.1197
 30
0.00000
  70
    32
  0
VERTEX
  8
COS
  5
89B0
 10
-99.9507
 20
-17.1116
 30
0.00000
  70
    32
  0
VERTEX
  8
COS
  5
89B1
 10
-99.9613
 20
-17.1034
 30
0.00000
  70
    32
  0
VERTEX
  8
COS
  5
89B2
 10
-99.9719
 20
-17.0949
 30
0.00000
  70
    32
  0
VERTEX
  8
COS
  5
89B3
 10
-99.9822
 20
-17.0863
 30
0.00000
  70
    32
  0
VERTEX
  8
COS
  5
89B4
 10
-99.9925
 20
-17.0774
 30
0.00000
  70
    32
  0
VERTEX
  8
COS
  5
89B5
 10
-100.003
 20
-17.0684
 30
0.00000
  70
    32
  0
VERTEX
  8
COS
  5
89B6
 10
-100.012
 20
-17.0593
 30
0.00000
  70
    32
  0
VERTEX
  8
COS
  5
89B7
 10
-100.022
 20
-17.0499
 30
0.00000
  70
    32
  0
VERTEX
  8
COS
  5
89B8
 10
-100.032
 20
-17.0404
 30
0.00000
  70
    32
  0
VERTEX
  8
COS
  5
89B9
 10
-100.041
 20
-17.0308
 30
0.00000
  70
    32
  0
VERTEX
  8
COS
  5
89BA
 10
-100.051
 20
-17.0209
 30
0.00000
  70
    32
  0
VERTEX
  8
COS
  5
89BB
 10
-100.060
 20
-17.0109
 30
0.00000
  70
    32
  0
VERTEX
  8
COS
  5
89BC
 10
-100.069
 20
-17.0008
 30
0.00000
  70
    32
  0
VERTEX
  8
COS
  5
89BD
 10
-100.077
 20
-16.9905
 30
0.00000
  70
    32
  0
VERTEX
  8
COS
  5
89BE
 10
-100.086
 20
-16.9800
 30
0.00000
  70
    32
  0
VERTEX
  8
COS
  5
89BF
 10
-100.094
 20
-16.9694
 30
0.00000
  70
    32
  0
VERTEX
  8
COS
  5
89C0
 10
-100.103
 20
-16.9587
 30
0.00000
  70
    32
  0
VERTEX
  8
COS
  5
89C1
 10
-100.111
 20
-16.9478
 30
0.00000
  70
    32
  0
VERTEX
  8
COS
  5
89C2
 10
-100.119
 20
-16.9368
 30
0.00000
  70
    32
  0
VERTEX
  8
COS
  5
89C3
 10
-100.126
 20
-16.9256
 30
0.00000
  70
    32
  0
VERTEX
  8
COS
  5
89C4
 10
-100.134
 20
-16.9143
 30
0.00000
  70
    32
  0
VERTEX
  8
COS
  5
89C5
 10
-100.141
 20
-16.9029
 30
0.00000
  70
    32
  0
VERTEX
  8
COS
  5
89C6
 10
-100.148
 20
-16.8913
 30
0.00000
  70
    32
  0
VERTEX
  8
COS
  5
89C7
 10
-100.155
 20
-16.8797
 30
0.00000
  70
    32
  0
VERTEX
  8
COS
  5
89C8
 10
-100.162
 20
-16.8679
 30
0.00000
  70
    32
  0
VERTEX
  8
COS
  5
89C9
 10
-100.168
 20
-16.8560
 30
0.00000
  70
    32
  0
VERTEX
  8
COS
  5
89CA
 10
-100.175
 20
-16.8440
 30
0.00000
  70
    32
  0
VERTEX
  8
COS
  5
89CB
 10
-100.181
 20
-16.8319
 30
0.00000
  70
    32
  0
VERTEX
  8
COS
  5
89CC
 10
-100.187
 20
-16.8196
 30
0.00000
  70
    32
  0
VERTEX
  8
COS
  5
89CD
 10
-100.192
 20
-16.8073
 30
0.00000
  70
    32
  0
VERTEX
  8
COS
  5
89CE
 10
-100.198
 20
-16.7949
 30
0.00000
  70
    32
  0
VERTEX
  8
COS
  5
89CF
 10
-100.203
 20
-16.7824
 30
0.00000
  70
    32
  0
VERTEX
  8
COS
  5
89D0
 10
-100.208
 20
-16.7698
 30
0.00000
  70
    32
  0
VERTEX
  8
COS
  5
89D1
 10
-100.213
 20
-16.7571
 30
0.00000
  70
    32
  0
VERTEX
  8
COS
  5
89D2
 10
-100.217
 20
-16.7443
 30
0.00000
  70
    32
  0
VERTEX
  8
COS
  5
89D3
 10
-100.222
 20
-16.7315
 30
0.00000
  70
    32
  0
VERTEX
  8
COS
  5
89D4
 10
-100.226
 20
-16.7185
 30
0.00000
  70
    32
  0
VERTEX
  8
COS
  5
89D5
 10
-100.230
 20
-16.7055
 30
0.00000
  70
    32
  0
VERTEX
  8
COS
  5
89D6
 10
-100.234
 20
-16.6925
 30
0.00000
  70
    32
  0
VERTEX
  8
COS
  5
89D7
 10
-100.237
 20
-16.6793
 30
0.00000
  70
    32
  0
VERTEX
  8
COS
  5
89D8
 10
-100.241
 20
-16.6662
 30
0.00000
  70
    32
  0
VERTEX
  8
COS
  5
89D9
 10
-100.244
 20
-16.6529
 30
0.00000
  70
    32
  0
VERTEX
  8
COS
  5
89DA
 10
-100.246
 20
-16.6396
 30
0.00000
  70
    32
  0
VERTEX
  8
COS
  5
89DB
 10
-100.249
 20
-16.6263
 30
0.00000
  70
    32
  0
VERTEX
  8
COS
  5
89DC
 10
-100.251
 20
-16.6129
 30
0.00000
  70
    32
  0
VERTEX
  8
COS
  5
89DD
 10
-100.254
 20
-16.5994
 30
0.00000
  70
    32
  0
VERTEX
  8
COS
  5
89DE
 10
-100.256
 20
-16.5860
 30
0.00000
  70
    32
  0
VERTEX
  8
COS
  5
89DF
 10
-100.257
 20
-16.5725
 30
0.00000
  70
    32
  0
VERTEX
  8
COS
  5
89E0
 10
-100.259
 20
-16.5589
 30
0.00000
  70
    32
  0
VERTEX
  8
COS
  5
89E1
 10
-100.260
 20
-16.5454
 30
0.00000
  70
    32
  0
VERTEX
  8
COS
  5
89E2
 10
-100.261
 20
-16.5318
 30
0.00000
  70
    32
  0
VERTEX
  8
COS
  5
89E3
 10
-100.262
 20
-16.5182
 30
0.00000
  70
    32
  0
VERTEX
  8
COS
  5
89E4
 10
-100.262
 20
-16.5046
 30
0.00000
  70
    32
  0
VERTEX
  8
COS
  5
89E5
 10
-100.263
 20
-16.4910
 30
0.00000
  70
    32
  0
VERTEX
  8
COS
  5
89E6
 10
-100.263
 20
-16.4774
 30
0.00000
  70
    32
  0
VERTEX
  8
COS
  5
89E7
 10
-100.263
 20
-16.4637
 30
0.00000
  70
    32
  0
VERTEX
  8
COS
  5
89E8
 10
-100.262
 20
-16.4501
 30
0.00000
  70
    32
  0
VERTEX
  8
COS
  5
89E9
 10
-100.262
 20
-16.4365
 30
0.00000
  70
    32
  0
VERTEX
  8
COS
  5
89EA
 10
-100.261
 20
-16.4229
 30
0.00000
  70
    32
  0
VERTEX
  8
COS
  5
89EB
 10
-100.260
 20
-16.4093
 30
0.00000
  70
    32
  0
VERTEX
  8
COS
  5
89EC
 10
-100.259
 20
-16.3958
 30
0.00000
  70
    32
  0
VERTEX
  8
COS
  5
89ED
 10
-100.257
 20
-16.3822
 30
0.00000
  70
    32
  0
VERTEX
  8
COS
  5
89EE
 10
-100.256
 20
-16.3687
 30
0.00000
  70
    32
  0
VERTEX
  8
COS
  5
89EF
 10
-100.254
 20
-16.3552
 30
0.00000
  70
    32
  0
VERTEX
  8
COS
  5
89F0
 10
-100.251
 20
-16.3417
 30
0.00000
  70
    32
  0
VERTEX
  8
COS
  5
89F1
 10
-100.249
 20
-16.3283
 30
0.00000
  70
    32
  0
VERTEX
  8
COS
  5
89F2
 10
-100.246
 20
-16.3149
 30
0.00000
  70
    32
  0
VERTEX
  8
COS
  5
89F3
 10
-100.243
 20
-16.3016
 30
0.00000
  70
    32
  0
VERTEX
  8
COS
  5
89F4
 10
-100.240
 20
-16.2883
 30
0.00000
  70
    32
  0
VERTEX
  8
COS
  5
89F5
 10
-100.237
 20
-16.2751
 30
0.00000
  70
    32
  0
VERTEX
  8
COS
  5
89F6
 10
-100.234
 20
-16.2619
 30
0.00000
  70
    32
  0
VERTEX
  8
COS
  5
89F7
 10
-100.230
 20
-16.2488
 30
0.00000
  70
    32
  0
VERTEX
  8
COS
  5
89F8
 10
-100.226
 20
-16.2358
 30
0.00000
  70
    32
  0
VERTEX
  8
COS
  5
89F9
 10
-100.222
 20
-16.2228
 30
0.00000
  70
    32
  0
VERTEX
  8
COS
  5
89FA
 10
-100.217
 20
-16.2099
 30
0.00000
  70
    32
  0
VERTEX
  8
COS
  5
89FB
 10
-100.213
 20
-16.1971
 30
0.00000
  70
    32
  0
VERTEX
  8
COS
  5
89FC
 10
-100.208
 20
-16.1843
 30
0.00000
  70
    32
  0
VERTEX
  8
COS
  5
89FD
 10
-100.203
 20
-16.1717
 30
0.00000
  70
    32
  0
VERTEX
  8
COS
  5
89FE
 10
-100.197
 20
-16.1591
 30
0.00000
  70
    32
  0
VERTEX
  8
COS
  5
89FF
 10
-100.192
 20
-16.1466
 30
0.00000
  70
    32
  0
VERTEX
  8
COS
  5
8A00
 10
-100.186
 20
-16.1342
 30
0.00000
  70
    32
  0
VERTEX
  8
COS
  5
8A01
 10
-100.180
 20
-16.1219
 30
0.00000
  70
    32
  0
VERTEX
  8
COS
  5
8A02
 10
-100.174
 20
-16.1098
 30
0.00000
  70
    32
  0
VERTEX
  8
COS
  5
8A03
 10
-100.168
 20
-16.0977
 30
0.00000
  70
    32
  0
VERTEX
  8
COS
  5
8A04
 10
-100.161
 20
-16.0857
 30
0.00000
  70
    32
  0
VERTEX
  8
COS
  5
8A05
 10
-100.155
 20
-16.0738
 30
0.00000
  70
    32
  0
VERTEX
  8
COS
  5
8A06
 10
-100.148
 20
-16.0621
 30
0.00000
  70
    32
  0
VERTEX
  8
COS
  5
8A07
 10
-100.141
 20
-16.0505
 30
0.00000
  70
    32
  0
VERTEX
  8
COS
  5
8A08
 10
-100.133
 20
-16.0390
 30
0.00000
  70
    32
  0
VERTEX
  8
COS
  5
8A09
 10
-100.126
 20
-16.0276
 30
0.00000
  70
    32
  0
VERTEX
  8
COS
  5
8A0A
 10
-100.118
 20
-16.0163
 30
0.00000
  70
    32
  0
VERTEX
  8
COS
  5
8A0B
 10
-100.110
 20
-16.0052
 30
0.00000
  70
    32
  0
VERTEX
  8
COS
  5
8A0C
 10
-100.102
 20
-15.9942
 30
0.00000
  70
    32
  0
VERTEX
  8
COS
  5
8A0D
 10
-100.094
 20
-15.9834
 30
0.00000
  70
    32
  0
VERTEX
  8
COS
  5
8A0E
 10
-100.086
 20
-15.9727
 30
0.00000
  70
    32
  0
VERTEX
  8
COS
  5
8A0F
 10
-100.077
 20
-15.9622
 30
0.00000
  70
    32
  0
VERTEX
  8
COS
  5
8A10
 10
-100.068
 20
-15.9517
 30
0.00000
  70
    32
  0
VERTEX
  8
COS
  5
8A11
 10
-100.059
 20
-15.9415
 30
0.00000
  70
    32
  0
VERTEX
  8
COS
  5
8A12
 10
-100.050
 20
-15.9314
 30
0.00000
  70
    32
  0
VERTEX
  8
COS
  5
8A13
 10
-100.041
 20
-15.9215
 30
0.00000
  70
    32
  0
VERTEX
  8
COS
  5
8A14
 10
-100.031
 20
-15.9117
 30
0.00000
  70
    32
  0
VERTEX
  8
COS
  5
8A15
 10
-100.022
 20
-15.9021
 30
0.00000
  70
    32
  0
VERTEX
  8
COS
  5
8A16
 10
-100.012
 20
-15.8926
 30
0.00000
  70
    32
  0
VERTEX
  8
COS
  5
8A17
 10
-100.002
 20
-15.8833
 30
0.00000
  70
    32
  0
VERTEX
  8
COS
  5
8A18
 10
-99.9920
 20
-15.8742
 30
0.00000
  70
    32
  0
VERTEX
  8
COS
  5
8A19
 10
-99.9817
 20
-15.8653
 30
0.00000
  70
    32
  0
VERTEX
  8
COS
  5
8A1A
 10
-99.9714
 20
-15.8565
 30
0.00000
  70
    32
  0
VERTEX
  8
COS
  5
8A1B
 10
-99.9608
 20
-15.8479
 30
0.00000
  70
    32
  0
VERTEX
  8
COS
  5
8A1C
 10
-99.9501
 20
-15.8395
 30
0.00000
  70
    32
  0
VERTEX
  8
COS
  5
8A1D
 10
-99.9393
 20
-15.8313
 30
0.00000
  70
    32
  0
VERTEX
  8
COS
  5
8A1E
 10
-99.9284
 20
-15.8233
 30
0.00000
  70
    32
  0
VERTEX
  8
COS
  5
8A1F
 10
-99.9173
 20
-15.8154
 30
0.00000
  70
    32
  0
VERTEX
  8
COS
  5
8A20
 10
-99.9061
 20
-15.8078
 30
0.00000
  70
    32
  0
VERTEX
  8
COS
  5
8A21
 10
-99.8947
 20
-15.8003
 30
0.00000
  70
    32
  0
VERTEX
  8
COS
  5
8A22
 10
-99.8832
 20
-15.7931
 30
0.00000
  70
    32
  0
VERTEX
  8
COS
  5
8A23
 10
-99.8717
 20
-15.7860
 30
0.00000
  70
    32
  0
VERTEX
  8
COS
  5
8A24
 10
-99.8600
 20
-15.7791
 30
0.00000
  70
    32
  0
VERTEX
  8
COS
  5
8A25
 10
-99.8481
 20
-15.7725
 30
0.00000
  70
    32
  0
VERTEX
  8
COS
  5
8A26
 10
-99.8362
 20
-15.7660
 30
0.00000
  70
    32
  0
VERTEX
  8
COS
  5
8A27
 10
-99.8242
 20
-15.7597
 30
0.00000
  70
    32
  0
SEQEND
  8
COS
  5
8A28
  0
LINE
  5
85E7
  8
COS
 10
-92.086069344635078
 20
-11.2771263718554398
 30
0.0
 11
-91.9181523411028536
 21
-11.1916343584346105
 31
0.0
  0
LINE
  5
85E8
  8
COS
 10
-91.2556883805328738
 20
-11.3972420181077592
 30
0.0
 11
-99.8241848281635669
 21
-15.7597425266184192
 31
0.0
  0
POLYLINE
  5
85E9
  8
COS
 10
-91.918152341102811
 20
-11.1916343584346141
 30
0.0
 66
     1
 70
     8
  0
VERTEX
  8
COS
  5
8A29
 10
-91.9182
 20
-11.1916
 30
0.00000
  70
    32
  0
VERTEX
  8
COS
  5
8A2A
 10
-91.9139
 20
-11.1895
 30
0.00000
  70
    32
  0
VERTEX
  8
COS
  5
8A2B
 10
-91.9096
 20
-11.1874
 30
0.00000
  70
    32
  0
VERTEX
  8
COS
  5
8A2C
 10
-91.9054
 20
-11.1853
 30
0.00000
  70
    32
  0
VERTEX
  8
COS
  5
8A2D
 10
-91.9011
 20
-11.1832
 30
0.00000
  70
    32
  0
VERTEX
  8
COS
  5
8A2E
 10
-91.8968
 20
-11.1811
 30
0.00000
  70
    32
  0
VERTEX
  8
COS
  5
8A2F
 10
-91.8925
 20
-11.1791
 30
0.00000
  70
    32
  0
VERTEX
  8
COS
  5
8A30
 10
-91.8881
 20
-11.1771
 30
0.00000
  70
    32
  0
VERTEX
  8
COS
  5
8A31
 10
-91.8838
 20
-11.1752
 30
0.00000
  70
    32
  0
VERTEX
  8
COS
  5
8A32
 10
-91.8794
 20
-11.1732
 30
0.00000
  70
    32
  0
VERTEX
  8
COS
  5
8A33
 10
-91.8751
 20
-11.1713
 30
0.00000
  70
    32
  0
VERTEX
  8
COS
  5
8A34
 10
-91.8707
 20
-11.1694
 30
0.00000
  70
    32
  0
VERTEX
  8
COS
  5
8A35
 10
-91.8663
 20
-11.1676
 30
0.00000
  70
    32
  0
VERTEX
  8
COS
  5
8A36
 10
-91.8619
 20
-11.1657
 30
0.00000
  70
    32
  0
VERTEX
  8
COS
  5
8A37
 10
-91.8575
 20
-11.1639
 30
0.00000
  70
    32
  0
VERTEX
  8
COS
  5
8A38
 10
-91.8531
 20
-11.1621
 30
0.00000
  70
    32
  0
VERTEX
  8
COS
  5
8A39
 10
-91.8487
 20
-11.1604
 30
0.00000
  70
    32
  0
VERTEX
  8
COS
  5
8A3A
 10
-91.8443
 20
-11.1586
 30
0.00000
  70
    32
  0
VERTEX
  8
COS
  5
8A3B
 10
-91.8398
 20
-11.1569
 30
0.00000
  70
    32
  0
VERTEX
  8
COS
  5
8A3C
 10
-91.8354
 20
-11.1553
 30
0.00000
  70
    32
  0
VERTEX
  8
COS
  5
8A3D
 10
-91.8309
 20
-11.1536
 30
0.00000
  70
    32
  0
VERTEX
  8
COS
  5
8A3E
 10
-91.8264
 20
-11.1520
 30
0.00000
  70
    32
  0
VERTEX
  8
COS
  5
8A3F
 10
-91.8220
 20
-11.1504
 30
0.00000
  70
    32
  0
VERTEX
  8
COS
  5
8A40
 10
-91.8175
 20
-11.1488
 30
0.00000
  70
    32
  0
VERTEX
  8
COS
  5
8A41
 10
-91.8130
 20
-11.1473
 30
0.00000
  70
    32
  0
VERTEX
  8
COS
  5
8A42
 10
-91.8085
 20
-11.1458
 30
0.00000
  70
    32
  0
VERTEX
  8
COS
  5
8A43
 10
-91.8039
 20
-11.1443
 30
0.00000
  70
    32
  0
VERTEX
  8
COS
  5
8A44
 10
-91.7994
 20
-11.1428
 30
0.00000
  70
    32
  0
VERTEX
  8
COS
  5
8A45
 10
-91.7949
 20
-11.1414
 30
0.00000
  70
    32
  0
VERTEX
  8
COS
  5
8A46
 10
-91.7903
 20
-11.1400
 30
0.00000
  70
    32
  0
VERTEX
  8
COS
  5
8A47
 10
-91.7858
 20
-11.1386
 30
0.00000
  70
    32
  0
VERTEX
  8
COS
  5
8A48
 10
-91.7812
 20
-11.1373
 30
0.00000
  70
    32
  0
VERTEX
  8
COS
  5
8A49
 10
-91.7767
 20
-11.1359
 30
0.00000
  70
    32
  0
VERTEX
  8
COS
  5
8A4A
 10
-91.7721
 20
-11.1346
 30
0.00000
  70
    32
  0
VERTEX
  8
COS
  5
8A4B
 10
-91.7675
 20
-11.1334
 30
0.00000
  70
    32
  0
VERTEX
  8
COS
  5
8A4C
 10
-91.7629
 20
-11.1321
 30
0.00000
  70
    32
  0
VERTEX
  8
COS
  5
8A4D
 10
-91.7583
 20
-11.1309
 30
0.00000
  70
    32
  0
VERTEX
  8
COS
  5
8A4E
 10
-91.7537
 20
-11.1297
 30
0.00000
  70
    32
  0
VERTEX
  8
COS
  5
8A4F
 10
-91.7491
 20
-11.1286
 30
0.00000
  70
    32
  0
VERTEX
  8
COS
  5
8A50
 10
-91.7445
 20
-11.1275
 30
0.00000
  70
    32
  0
VERTEX
  8
COS
  5
8A51
 10
-91.7399
 20
-11.1264
 30
0.00000
  70
    32
  0
VERTEX
  8
COS
  5
8A52
 10
-91.7352
 20
-11.1253
 30
0.00000
  70
    32
  0
VERTEX
  8
COS
  5
8A53
 10
-91.7306
 20
-11.1242
 30
0.00000
  70
    32
  0
VERTEX
  8
COS
  5
8A54
 10
-91.7259
 20
-11.1232
 30
0.00000
  70
    32
  0
VERTEX
  8
COS
  5
8A55
 10
-91.7213
 20
-11.1222
 30
0.00000
  70
    32
  0
VERTEX
  8
COS
  5
8A56
 10
-91.7166
 20
-11.1213
 30
0.00000
  70
    32
  0
VERTEX
  8
COS
  5
8A57
 10
-91.7120
 20
-11.1203
 30
0.00000
  70
    32
  0
VERTEX
  8
COS
  5
8A58
 10
-91.7073
 20
-11.1194
 30
0.00000
  70
    32
  0
VERTEX
  8
COS
  5
8A59
 10
-91.7027
 20
-11.1186
 30
0.00000
  70
    32
  0
VERTEX
  8
COS
  5
8A5A
 10
-91.6980
 20
-11.1177
 30
0.00000
  70
    32
  0
VERTEX
  8
COS
  5
8A5B
 10
-91.6933
 20
-11.1169
 30
0.00000
  70
    32
  0
VERTEX
  8
COS
  5
8A5C
 10
-91.6886
 20
-11.1161
 30
0.00000
  70
    32
  0
VERTEX
  8
COS
  5
8A5D
 10
-91.6839
 20
-11.1153
 30
0.00000
  70
    32
  0
VERTEX
  8
COS
  5
8A5E
 10
-91.6792
 20
-11.1146
 30
0.00000
  70
    32
  0
VERTEX
  8
COS
  5
8A5F
 10
-91.6745
 20
-11.1139
 30
0.00000
  70
    32
  0
VERTEX
  8
COS
  5
8A60
 10
-91.6698
 20
-11.1132
 30
0.00000
  70
    32
  0
VERTEX
  8
COS
  5
8A61
 10
-91.6651
 20
-11.1126
 30
0.00000
  70
    32
  0
VERTEX
  8
COS
  5
8A62
 10
-91.6604
 20
-11.1119
 30
0.00000
  70
    32
  0
VERTEX
  8
COS
  5
8A63
 10
-91.6557
 20
-11.1113
 30
0.00000
  70
    32
  0
VERTEX
  8
COS
  5
8A64
 10
-91.6510
 20
-11.1108
 30
0.00000
  70
    32
  0
VERTEX
  8
COS
  5
8A65
 10
-91.6463
 20
-11.1102
 30
0.00000
  70
    32
  0
VERTEX
  8
COS
  5
8A66
 10
-91.6416
 20
-11.1097
 30
0.00000
  70
    32
  0
VERTEX
  8
COS
  5
8A67
 10
-91.6368
 20
-11.1093
 30
0.00000
  70
    32
  0
VERTEX
  8
COS
  5
8A68
 10
-91.6321
 20
-11.1088
 30
0.00000
  70
    32
  0
VERTEX
  8
COS
  5
8A69
 10
-91.6274
 20
-11.1084
 30
0.00000
  70
    32
  0
VERTEX
  8
COS
  5
8A6A
 10
-91.6227
 20
-11.1080
 30
0.00000
  70
    32
  0
VERTEX
  8
COS
  5
8A6B
 10
-91.6179
 20
-11.1076
 30
0.00000
  70
    32
  0
VERTEX
  8
COS
  5
8A6C
 10
-91.6132
 20
-11.1073
 30
0.00000
  70
    32
  0
VERTEX
  8
COS
  5
8A6D
 10
-91.6085
 20
-11.1070
 30
0.00000
  70
    32
  0
VERTEX
  8
COS
  5
8A6E
 10
-91.6037
 20
-11.1067
 30
0.00000
  70
    32
  0
VERTEX
  8
COS
  5
8A6F
 10
-91.5990
 20
-11.1065
 30
0.00000
  70
    32
  0
VERTEX
  8
COS
  5
8A70
 10
-91.5942
 20
-11.1062
 30
0.00000
  70
    32
  0
VERTEX
  8
COS
  5
8A71
 10
-91.5895
 20
-11.1060
 30
0.00000
  70
    32
  0
VERTEX
  8
COS
  5
8A72
 10
-91.5848
 20
-11.1059
 30
0.00000
  70
    32
  0
VERTEX
  8
COS
  5
8A73
 10
-91.5800
 20
-11.1057
 30
0.00000
  70
    32
  0
VERTEX
  8
COS
  5
8A74
 10
-91.5753
 20
-11.1056
 30
0.00000
  70
    32
  0
VERTEX
  8
COS
  5
8A75
 10
-91.5705
 20
-11.1056
 30
0.00000
  70
    32
  0
VERTEX
  8
COS
  5
8A76
 10
-91.5658
 20
-11.1055
 30
0.00000
  70
    32
  0
VERTEX
  8
COS
  5
8A77
 10
-91.5610
 20
-11.1055
 30
0.00000
  70
    32
  0
VERTEX
  8
COS
  5
8A78
 10
-91.5563
 20
-11.1055
 30
0.00000
  70
    32
  0
VERTEX
  8
COS
  5
8A79
 10
-91.5516
 20
-11.1055
 30
0.00000
  70
    32
  0
VERTEX
  8
COS
  5
8A7A
 10
-91.5468
 20
-11.1056
 30
0.00000
  70
    32
  0
VERTEX
  8
COS
  5
8A7B
 10
-91.5421
 20
-11.1057
 30
0.00000
  70
    32
  0
VERTEX
  8
COS
  5
8A7C
 10
-91.5373
 20
-11.1058
 30
0.00000
  70
    32
  0
VERTEX
  8
COS
  5
8A7D
 10
-91.5326
 20
-11.1060
 30
0.00000
  70
    32
  0
VERTEX
  8
COS
  5
8A7E
 10
-91.5278
 20
-11.1061
 30
0.00000
  70
    32
  0
VERTEX
  8
COS
  5
8A7F
 10
-91.5231
 20
-11.1063
 30
0.00000
  70
    32
  0
VERTEX
  8
COS
  5
8A80
 10
-91.5184
 20
-11.1066
 30
0.00000
  70
    32
  0
VERTEX
  8
COS
  5
8A81
 10
-91.5136
 20
-11.1068
 30
0.00000
  70
    32
  0
VERTEX
  8
COS
  5
8A82
 10
-91.5089
 20
-11.1071
 30
0.00000
  70
    32
  0
VERTEX
  8
COS
  5
8A83
 10
-91.5042
 20
-11.1075
 30
0.00000
  70
    32
  0
VERTEX
  8
COS
  5
8A84
 10
-91.4994
 20
-11.1078
 30
0.00000
  70
    32
  0
VERTEX
  8
COS
  5
8A85
 10
-91.4947
 20
-11.1082
 30
0.00000
  70
    32
  0
VERTEX
  8
COS
  5
8A86
 10
-91.4900
 20
-11.1086
 30
0.00000
  70
    32
  0
VERTEX
  8
COS
  5
8A87
 10
-91.4853
 20
-11.1090
 30
0.00000
  70
    32
  0
VERTEX
  8
COS
  5
8A88
 10
-91.4806
 20
-11.1095
 30
0.00000
  70
    32
  0
VERTEX
  8
COS
  5
8A89
 10
-91.4758
 20
-11.1100
 30
0.00000
  70
    32
  0
VERTEX
  8
COS
  5
8A8A
 10
-91.4711
 20
-11.1105
 30
0.00000
  70
    32
  0
VERTEX
  8
COS
  5
8A8B
 10
-91.4664
 20
-11.1111
 30
0.00000
  70
    32
  0
VERTEX
  8
COS
  5
8A8C
 10
-91.4617
 20
-11.1116
 30
0.00000
  70
    32
  0
VERTEX
  8
COS
  5
8A8D
 10
-91.4570
 20
-11.1122
 30
0.00000
  70
    32
  0
VERTEX
  8
COS
  5
8A8E
 10
-91.4523
 20
-11.1129
 30
0.00000
  70
    32
  0
VERTEX
  8
COS
  5
8A8F
 10
-91.4476
 20
-11.1135
 30
0.00000
  70
    32
  0
VERTEX
  8
COS
  5
8A90
 10
-91.4429
 20
-11.1142
 30
0.00000
  70
    32
  0
VERTEX
  8
COS
  5
8A91
 10
-91.4382
 20
-11.1150
 30
0.00000
  70
    32
  0
VERTEX
  8
COS
  5
8A92
 10
-91.4336
 20
-11.1157
 30
0.00000
  70
    32
  0
VERTEX
  8
COS
  5
8A93
 10
-91.4289
 20
-11.1165
 30
0.00000
  70
    32
  0
VERTEX
  8
COS
  5
8A94
 10
-91.4242
 20
-11.1173
 30
0.00000
  70
    32
  0
VERTEX
  8
COS
  5
8A95
 10
-91.4195
 20
-11.1181
 30
0.00000
  70
    32
  0
VERTEX
  8
COS
  5
8A96
 10
-91.4149
 20
-11.1190
 30
0.00000
  70
    32
  0
VERTEX
  8
COS
  5
8A97
 10
-91.4102
 20
-11.1199
 30
0.00000
  70
    32
  0
VERTEX
  8
COS
  5
8A98
 10
-91.4056
 20
-11.1208
 30
0.00000
  70
    32
  0
VERTEX
  8
COS
  5
8A99
 10
-91.4009
 20
-11.1217
 30
0.00000
  70
    32
  0
VERTEX
  8
COS
  5
8A9A
 10
-91.3963
 20
-11.1227
 30
0.00000
  70
    32
  0
VERTEX
  8
COS
  5
8A9B
 10
-91.3917
 20
-11.1237
 30
0.00000
  70
    32
  0
VERTEX
  8
COS
  5
8A9C
 10
-91.3870
 20
-11.1248
 30
0.00000
  70
    32
  0
VERTEX
  8
COS
  5
8A9D
 10
-91.3824
 20
-11.1258
 30
0.00000
  70
    32
  0
VERTEX
  8
COS
  5
8A9E
 10
-91.3778
 20
-11.1269
 30
0.00000
  70
    32
  0
VERTEX
  8
COS
  5
8A9F
 10
-91.3732
 20
-11.1280
 30
0.00000
  70
    32
  0
VERTEX
  8
COS
  5
8AA0
 10
-91.3686
 20
-11.1292
 30
0.00000
  70
    32
  0
VERTEX
  8
COS
  5
8AA1
 10
-91.3640
 20
-11.1303
 30
0.00000
  70
    32
  0
VERTEX
  8
COS
  5
8AA2
 10
-91.3594
 20
-11.1315
 30
0.00000
  70
    32
  0
VERTEX
  8
COS
  5
8AA3
 10
-91.3548
 20
-11.1328
 30
0.00000
  70
    32
  0
VERTEX
  8
COS
  5
8AA4
 10
-91.3503
 20
-11.1340
 30
0.00000
  70
    32
  0
VERTEX
  8
COS
  5
8AA5
 10
-91.3457
 20
-11.1353
 30
0.00000
  70
    32
  0
VERTEX
  8
COS
  5
8AA6
 10
-91.3411
 20
-11.1366
 30
0.00000
  70
    32
  0
VERTEX
  8
COS
  5
8AA7
 10
-91.3366
 20
-11.1379
 30
0.00000
  70
    32
  0
VERTEX
  8
COS
  5
8AA8
 10
-91.3321
 20
-11.1393
 30
0.00000
  70
    32
  0
VERTEX
  8
COS
  5
8AA9
 10
-91.3275
 20
-11.1407
 30
0.00000
  70
    32
  0
SEQEND
  8
COS
  5
8AAA
  0
POLYLINE
  5
85EA
  8
COS
 10
-91.2556883805329306
 20
-11.3972420181077911
 30
0.0
 66
     1
 70
     8
  0
VERTEX
  8
COS
  5
8AAB
 10
-91.2557
 20
-11.3972
 30
0.00000
  70
    32
  0
VERTEX
  8
COS
  5
8AAC
 10
-91.2504
 20
-11.3946
 30
0.00000
  70
    32
  0
VERTEX
  8
COS
  5
8AAD
 10
-91.2450
 20
-11.3919
 30
0.00000
  70
    32
  0
VERTEX
  8
COS
  5
8AAE
 10
-91.2396
 20
-11.3893
 30
0.00000
  70
    32
  0
VERTEX
  8
COS
  5
8AAF
 10
-91.2343
 20
-11.3867
 30
0.00000
  70
    32
  0
VERTEX
  8
COS
  5
8AB0
 10
-91.2289
 20
-11.3842
 30
0.00000
  70
    32
  0
VERTEX
  8
COS
  5
8AB1
 10
-91.2234
 20
-11.3817
 30
0.00000
  70
    32
  0
VERTEX
  8
COS
  5
8AB2
 10
-91.2180
 20
-11.3793
 30
0.00000
  70
    32
  0
VERTEX
  8
COS
  5
8AB3
 10
-91.2125
 20
-11.3769
 30
0.00000
  70
    32
  0
VERTEX
  8
COS
  5
8AB4
 10
-91.2071
 20
-11.3745
 30
0.00000
  70
    32
  0
VERTEX
  8
COS
  5
8AB5
 10
-91.2016
 20
-11.3722
 30
0.00000
  70
    32
  0
VERTEX
  8
COS
  5
8AB6
 10
-91.1961
 20
-11.3699
 30
0.00000
  70
    32
  0
VERTEX
  8
COS
  5
8AB7
 10
-91.1905
 20
-11.3677
 30
0.00000
  70
    32
  0
VERTEX
  8
COS
  5
8AB8
 10
-91.1850
 20
-11.3655
 30
0.00000
  70
    32
  0
VERTEX
  8
COS
  5
8AB9
 10
-91.1794
 20
-11.3633
 30
0.00000
  70
    32
  0
VERTEX
  8
COS
  5
8ABA
 10
-91.1739
 20
-11.3612
 30
0.00000
  70
    32
  0
VERTEX
  8
COS
  5
8ABB
 10
-91.1683
 20
-11.3592
 30
0.00000
  70
    32
  0
VERTEX
  8
COS
  5
8ABC
 10
-91.1627
 20
-11.3571
 30
0.00000
  70
    32
  0
VERTEX
  8
COS
  5
8ABD
 10
-91.1571
 20
-11.3552
 30
0.00000
  70
    32
  0
VERTEX
  8
COS
  5
8ABE
 10
-91.1514
 20
-11.3532
 30
0.00000
  70
    32
  0
VERTEX
  8
COS
  5
8ABF
 10
-91.1458
 20
-11.3513
 30
0.00000
  70
    32
  0
VERTEX
  8
COS
  5
8AC0
 10
-91.1401
 20
-11.3495
 30
0.00000
  70
    32
  0
VERTEX
  8
COS
  5
8AC1
 10
-91.1344
 20
-11.3476
 30
0.00000
  70
    32
  0
VERTEX
  8
COS
  5
8AC2
 10
-91.1288
 20
-11.3459
 30
0.00000
  70
    32
  0
VERTEX
  8
COS
  5
8AC3
 10
-91.1231
 20
-11.3441
 30
0.00000
  70
    32
  0
VERTEX
  8
COS
  5
8AC4
 10
-91.1173
 20
-11.3425
 30
0.00000
  70
    32
  0
VERTEX
  8
COS
  5
8AC5
 10
-91.1116
 20
-11.3408
 30
0.00000
  70
    32
  0
VERTEX
  8
COS
  5
8AC6
 10
-91.1059
 20
-11.3392
 30
0.00000
  70
    32
  0
VERTEX
  8
COS
  5
8AC7
 10
-91.1001
 20
-11.3377
 30
0.00000
  70
    32
  0
VERTEX
  8
COS
  5
8AC8
 10
-91.0944
 20
-11.3362
 30
0.00000
  70
    32
  0
VERTEX
  8
COS
  5
8AC9
 10
-91.0886
 20
-11.3347
 30
0.00000
  70
    32
  0
VERTEX
  8
COS
  5
8ACA
 10
-91.0828
 20
-11.3333
 30
0.00000
  70
    32
  0
VERTEX
  8
COS
  5
8ACB
 10
-91.0770
 20
-11.3319
 30
0.00000
  70
    32
  0
VERTEX
  8
COS
  5
8ACC
 10
-91.0712
 20
-11.3305
 30
0.00000
  70
    32
  0
VERTEX
  8
COS
  5
8ACD
 10
-91.0654
 20
-11.3293
 30
0.00000
  70
    32
  0
VERTEX
  8
COS
  5
8ACE
 10
-91.0596
 20
-11.3280
 30
0.00000
  70
    32
  0
VERTEX
  8
COS
  5
8ACF
 10
-91.0538
 20
-11.3268
 30
0.00000
  70
    32
  0
VERTEX
  8
COS
  5
8AD0
 10
-91.0480
 20
-11.3256
 30
0.00000
  70
    32
  0
VERTEX
  8
COS
  5
8AD1
 10
-91.0421
 20
-11.3245
 30
0.00000
  70
    32
  0
VERTEX
  8
COS
  5
8AD2
 10
-91.0363
 20
-11.3235
 30
0.00000
  70
    32
  0
VERTEX
  8
COS
  5
8AD3
 10
-91.0304
 20
-11.3224
 30
0.00000
  70
    32
  0
VERTEX
  8
COS
  5
8AD4
 10
-91.0245
 20
-11.3214
 30
0.00000
  70
    32
  0
VERTEX
  8
COS
  5
8AD5
 10
-91.0187
 20
-11.3205
 30
0.00000
  70
    32
  0
VERTEX
  8
COS
  5
8AD6
 10
-91.0128
 20
-11.3196
 30
0.00000
  70
    32
  0
VERTEX
  8
COS
  5
8AD7
 10
-91.0069
 20
-11.3188
 30
0.00000
  70
    32
  0
VERTEX
  8
COS
  5
8AD8
 10
-91.0010
 20
-11.3179
 30
0.00000
  70
    32
  0
VERTEX
  8
COS
  5
8AD9
 10
-90.9951
 20
-11.3172
 30
0.00000
  70
    32
  0
VERTEX
  8
COS
  5
8ADA
 10
-90.9892
 20
-11.3165
 30
0.00000
  70
    32
  0
VERTEX
  8
COS
  5
8ADB
 10
-90.9833
 20
-11.3158
 30
0.00000
  70
    32
  0
VERTEX
  8
COS
  5
8ADC
 10
-90.9774
 20
-11.3152
 30
0.00000
  70
    32
  0
VERTEX
  8
COS
  5
8ADD
 10
-90.9715
 20
-11.3146
 30
0.00000
  70
    32
  0
VERTEX
  8
COS
  5
8ADE
 10
-90.9655
 20
-11.3140
 30
0.00000
  70
    32
  0
VERTEX
  8
COS
  5
8ADF
 10
-90.9596
 20
-11.3136
 30
0.00000
  70
    32
  0
VERTEX
  8
COS
  5
8AE0
 10
-90.9537
 20
-11.3131
 30
0.00000
  70
    32
  0
VERTEX
  8
COS
  5
8AE1
 10
-90.9478
 20
-11.3127
 30
0.00000
  70
    32
  0
VERTEX
  8
COS
  5
8AE2
 10
-90.9418
 20
-11.3123
 30
0.00000
  70
    32
  0
VERTEX
  8
COS
  5
8AE3
 10
-90.9359
 20
-11.3120
 30
0.00000
  70
    32
  0
VERTEX
  8
COS
  5
8AE4
 10
-90.9300
 20
-11.3118
 30
0.00000
  70
    32
  0
VERTEX
  8
COS
  5
8AE5
 10
-90.9240
 20
-11.3115
 30
0.00000
  70
    32
  0
VERTEX
  8
COS
  5
8AE6
 10
-90.9181
 20
-11.3114
 30
0.00000
  70
    32
  0
VERTEX
  8
COS
  5
8AE7
 10
-90.9121
 20
-11.3112
 30
0.00000
  70
    32
  0
VERTEX
  8
COS
  5
8AE8
 10
-90.9062
 20
-11.3111
 30
0.00000
  70
    32
  0
VERTEX
  8
COS
  5
8AE9
 10
-90.9003
 20
-11.3111
 30
0.00000
  70
    32
  0
VERTEX
  8
COS
  5
8AEA
 10
-90.8943
 20
-11.3111
 30
0.00000
  70
    32
  0
VERTEX
  8
COS
  5
8AEB
 10
-90.8884
 20
-11.3111
 30
0.00000
  70
    32
  0
VERTEX
  8
COS
  5
8AEC
 10
-90.8824
 20
-11.3112
 30
0.00000
  70
    32
  0
VERTEX
  8
COS
  5
8AED
 10
-90.8765
 20
-11.3114
 30
0.00000
  70
    32
  0
VERTEX
  8
COS
  5
8AEE
 10
-90.8706
 20
-11.3115
 30
0.00000
  70
    32
  0
VERTEX
  8
COS
  5
8AEF
 10
-90.8646
 20
-11.3118
 30
0.00000
  70
    32
  0
VERTEX
  8
COS
  5
8AF0
 10
-90.8587
 20
-11.3120
 30
0.00000
  70
    32
  0
VERTEX
  8
COS
  5
8AF1
 10
-90.8528
 20
-11.3124
 30
0.00000
  70
    32
  0
VERTEX
  8
COS
  5
8AF2
 10
-90.8468
 20
-11.3127
 30
0.00000
  70
    32
  0
VERTEX
  8
COS
  5
8AF3
 10
-90.8409
 20
-11.3131
 30
0.00000
  70
    32
  0
VERTEX
  8
COS
  5
8AF4
 10
-90.8350
 20
-11.3136
 30
0.00000
  70
    32
  0
VERTEX
  8
COS
  5
8AF5
 10
-90.8291
 20
-11.3141
 30
0.00000
  70
    32
  0
VERTEX
  8
COS
  5
8AF6
 10
-90.8232
 20
-11.3146
 30
0.00000
  70
    32
  0
VERTEX
  8
COS
  5
8AF7
 10
-90.8172
 20
-11.3152
 30
0.00000
  70
    32
  0
VERTEX
  8
COS
  5
8AF8
 10
-90.8113
 20
-11.3158
 30
0.00000
  70
    32
  0
VERTEX
  8
COS
  5
8AF9
 10
-90.8054
 20
-11.3165
 30
0.00000
  70
    32
  0
VERTEX
  8
COS
  5
8AFA
 10
-90.7995
 20
-11.3172
 30
0.00000
  70
    32
  0
VERTEX
  8
COS
  5
8AFB
 10
-90.7937
 20
-11.3180
 30
0.00000
  70
    32
  0
VERTEX
  8
COS
  5
8AFC
 10
-90.7878
 20
-11.3188
 30
0.00000
  70
    32
  0
VERTEX
  8
COS
  5
8AFD
 10
-90.7819
 20
-11.3196
 30
0.00000
  70
    32
  0
VERTEX
  8
COS
  5
8AFE
 10
-90.7760
 20
-11.3205
 30
0.00000
  70
    32
  0
VERTEX
  8
COS
  5
8AFF
 10
-90.7702
 20
-11.3215
 30
0.00000
  70
    32
  0
VERTEX
  8
COS
  5
8B00
 10
-90.7643
 20
-11.3225
 30
0.00000
  70
    32
  0
VERTEX
  8
COS
  5
8B01
 10
-90.7585
 20
-11.3235
 30
0.00000
  70
    32
  0
VERTEX
  8
COS
  5
8B02
 10
-90.7526
 20
-11.3246
 30
0.00000
  70
    32
  0
VERTEX
  8
COS
  5
8B03
 10
-90.7468
 20
-11.3257
 30
0.00000
  70
    32
  0
VERTEX
  8
COS
  5
8B04
 10
-90.7410
 20
-11.3268
 30
0.00000
  70
    32
  0
VERTEX
  8
COS
  5
8B05
 10
-90.7352
 20
-11.3280
 30
0.00000
  70
    32
  0
VERTEX
  8
COS
  5
8B06
 10
-90.7294
 20
-11.3293
 30
0.00000
  70
    32
  0
VERTEX
  8
COS
  5
8B07
 10
-90.7236
 20
-11.3306
 30
0.00000
  70
    32
  0
VERTEX
  8
COS
  5
8B08
 10
-90.7178
 20
-11.3319
 30
0.00000
  70
    32
  0
VERTEX
  8
COS
  5
8B09
 10
-90.7120
 20
-11.3333
 30
0.00000
  70
    32
  0
VERTEX
  8
COS
  5
8B0A
 10
-90.7063
 20
-11.3347
 30
0.00000
  70
    32
  0
VERTEX
  8
COS
  5
8B0B
 10
-90.7005
 20
-11.3362
 30
0.00000
  70
    32
  0
VERTEX
  8
COS
  5
8B0C
 10
-90.6948
 20
-11.3377
 30
0.00000
  70
    32
  0
VERTEX
  8
COS
  5
8B0D
 10
-90.6890
 20
-11.3393
 30
0.00000
  70
    32
  0
VERTEX
  8
COS
  5
8B0E
 10
-90.6833
 20
-11.3409
 30
0.00000
  70
    32
  0
VERTEX
  8
COS
  5
8B0F
 10
-90.6776
 20
-11.3425
 30
0.00000
  70
    32
  0
VERTEX
  8
COS
  5
8B10
 10
-90.6719
 20
-11.3442
 30
0.00000
  70
    32
  0
VERTEX
  8
COS
  5
8B11
 10
-90.6662
 20
-11.3459
 30
0.00000
  70
    32
  0
VERTEX
  8
COS
  5
8B12
 10
-90.6606
 20
-11.3477
 30
0.00000
  70
    32
  0
VERTEX
  8
COS
  5
8B13
 10
-90.6549
 20
-11.3495
 30
0.00000
  70
    32
  0
VERTEX
  8
COS
  5
8B14
 10
-90.6493
 20
-11.3514
 30
0.00000
  70
    32
  0
VERTEX
  8
COS
  5
8B15
 10
-90.6437
 20
-11.3533
 30
0.00000
  70
    32
  0
VERTEX
  8
COS
  5
8B16
 10
-90.6381
 20
-11.3552
 30
0.00000
  70
    32
  0
VERTEX
  8
COS
  5
8B17
 10
-90.6325
 20
-11.3572
 30
0.00000
  70
    32
  0
VERTEX
  8
COS
  5
8B18
 10
-90.6269
 20
-11.3592
 30
0.00000
  70
    32
  0
VERTEX
  8
COS
  5
8B19
 10
-90.6213
 20
-11.3613
 30
0.00000
  70
    32
  0
VERTEX
  8
COS
  5
8B1A
 10
-90.6158
 20
-11.3634
 30
0.00000
  70
    32
  0
VERTEX
  8
COS
  5
8B1B
 10
-90.6102
 20
-11.3656
 30
0.00000
  70
    32
  0
VERTEX
  8
COS
  5
8B1C
 10
-90.6047
 20
-11.3678
 30
0.00000
  70
    32
  0
VERTEX
  8
COS
  5
8B1D
 10
-90.5992
 20
-11.3700
 30
0.00000
  70
    32
  0
VERTEX
  8
COS
  5
8B1E
 10
-90.5938
 20
-11.3723
 30
0.00000
  70
    32
  0
VERTEX
  8
COS
  5
8B1F
 10
-90.5883
 20
-11.3746
 30
0.00000
  70
    32
  0
VERTEX
  8
COS
  5
8B20
 10
-90.5828
 20
-11.3770
 30
0.00000
  70
    32
  0
VERTEX
  8
COS
  5
8B21
 10
-90.5774
 20
-11.3794
 30
0.00000
  70
    32
  0
VERTEX
  8
COS
  5
8B22
 10
-90.5720
 20
-11.3818
 30
0.00000
  70
    32
  0
VERTEX
  8
COS
  5
8B23
 10
-90.5666
 20
-11.3843
 30
0.00000
  70
    32
  0
VERTEX
  8
COS
  5
8B24
 10
-90.5612
 20
-11.3868
 30
0.00000
  70
    32
  0
VERTEX
  8
COS
  5
8B25
 10
-90.5559
 20
-11.3894
 30
0.00000
  70
    32
  0
VERTEX
  8
COS
  5
8B26
 10
-90.5506
 20
-11.3920
 30
0.00000
  70
    32
  0
VERTEX
  8
COS
  5
8B27
 10
-90.5452
 20
-11.3946
 30
0.00000
  70
    32
  0
VERTEX
  8
COS
  5
8B28
 10
-90.5399
 20
-11.3973
 30
0.00000
  70
    32
  0
VERTEX
  8
COS
  5
8B29
 10
-90.5347
 20
-11.4001
 30
0.00000
  70
    32
  0
VERTEX
  8
COS
  5
8B2A
 10
-90.5294
 20
-11.4028
 30
0.00000
  70
    32
  0
VERTEX
  8
COS
  5
8B2B
 10
-90.5242
 20
-11.4056
 30
0.00000
  70
    32
  0
SEQEND
  8
COS
  5
8B2C
  0
LINE
  5
85EB
  8
COS
 10
-82.1100091610915541
 20
-15.9630928333138193
 30
0.0
 11
-90.5241919559966419
 21
-11.4056392489511307
 31
0.0
  0
LINE
  5
85EC
  8
COS
 10
-91.2936532446653075
 20
-21.7943414925870513
 30
0.0
 11
-91.9561172052352163
 21
-21.5887338329138707
 31
0.0
  0
LINE
  5
85ED
  8
COS
 10
-90.6650684544621441
 20
-11.3462948344036594
 30
0.0
 11
-91.3275324150320671
 21
-11.1406871747305107
 31
0.0
  0
LINE
  5
85FA
  8
COTES
 10
-98.9657563496228363
 20
-6.5677947014213673
 30
0.0
 11
-67.9057017549695132
 21
-6.5677947014213593
 31
0.0
  0
LINE
  5
85FB
  8
COTES
 10
-80.6959609612769384
 20
-16.6787070418085399
 30
0.0
 11
-67.9057017549695132
 21
-16.6787070418085399
 31
0.0
  0
LINE
  5
85FC
  8
COTES
 10
-68.9057017549695274
 20
-9.0677947014213593
 30
0.0
 11
-68.9057017549695274
 21
-14.1787070418085293
 31
0.0
  0
SOLID
  5
85FD
  8
COTES
 10
-68.4890350883028702
 20
-9.0677947014213593
 30
0.0
 11
-69.3223684216361846
 21
-9.0677947014213593
 31
0.0
 12
-68.9057017549695274
 22
-6.5677947014213593
 32
0.0
 13
-68.9057017549695274
 23
-6.5677947014213593
 33
0.0
  0
SOLID
  5
85FE
  8
COTES
 10
-68.4890350883028702
 20
-14.1787070418085293
 30
0.0
 11
-69.3223684216361846
 21
-14.1787070418085293
 31
0.0
 12
-68.9057017549695274
 22
-16.6787070418085399
 32
0.0
 13
-68.9057017549695274
 23
-16.6787070418085399
 33
0.0
  0
INSERT
  5
85FF
  8
0
  2
*U2
 10
0.0
 20
0.0
 30
0.0
  0
LINE
  5
8606
  8
COTES
 10
-206.7880212282965999
 20
-27.5677947014213913
 30
0.0
 11
-206.7880212282965999
 21
-42.7318821545991909
 31
0.0
  0
LINE
  5
8607
  8
COTES
 10
-81.6959609612769384
 20
-17.6787070418085399
 30
0.0
 11
-81.6959609612769384
 21
-42.7318821545991909
 31
0.0
  0
LINE
  5
8608
  8
COTES
 10
-204.2880212282965999
 20
-41.7318821545991767
 30
0.0
 11
-84.1959609612769384
 21
-41.7318821545991767
 31
0.0
  0
SOLID
  5
8609
  8
COTES
 10
-204.2880212282965999
 20
-41.3152154879325195
 30
0.0
 11
-204.2880212282965999
 21
-42.148548821265841
 31
0.0
 12
-206.7880212282965999
 22
-41.7318821545991767
 32
0.0
 13
-206.7880212282965999
 23
-41.7318821545991767
 33
0.0
  0
SOLID
  5
860A
  8
COTES
 10
-84.1959609612769384
 20
-41.3152154879325195
 30
0.0
 11
-84.1959609612769384
 21
-42.148548821265841
 31
0.0
 12
-81.6959609612769384
 22
-41.7318821545991767
 32
0.0
 13
-81.6959609612769384
 23
-41.7318821545991767
 33
0.0
  0
INSERT
  5
860B
  8
0
  2
*U3
 10
0.0
 20
0.0
 30
0.0
  0
LINE
  5
860C
  8
COTES
 10
-207.7880212282964862
 20
-6.567794701421378
 30
0.0
 11
-222.8282955628995978
 21
-6.5677947014213824
 31
0.0
  0
LINE
  5
860D
  8
COTES
 10
-207.7880212282964862
 20
-26.5677947014213913
 30
0.0
 11
-222.8282955628995978
 21
-26.5677947014213984
 31
0.0
  0
LINE
  5
860E
  8
COTES
 10
-221.8282955628995978
 20
-9.0677947014213824
 30
0.0
 11
-221.8282955628995978
 21
-24.0677947014213984
 31
0.0
  0
SOLID
  5
860F
  8
COTES
 10
-221.4116288962329122
 20
-9.0677947014213824
 30
0.0
 11
-222.2449622295663119
 21
-9.0677947014213824
 31
0.0
 12
-221.8282955628995978
 22
-6.5677947014213807
 32
0.0
 13
-221.8282955628995978
 23
-6.5677947014213807
 33
0.0
  0
SOLID
  5
8610
  8
COTES
 10
-221.4116288962329122
 20
-24.0677947014213984
 30
0.0
 11
-222.2449622295663119
 21
-24.0677947014213984
 31
0.0
 12
-221.8282955628995978
 22
-26.5677947014213984
 32
0.0
 13
-221.8282955628995978
 23
-26.5677947014213984
 33
0.0
  0
INSERT
  5
8611
  8
0
  2
*U4
 10
0.0
 20
0.0
 30
0.0
  0
LINE
  5
8612
  8
COTES
 10
-91.5941814280222957
 20
-22.1971068247598708
 30
0.0
 11
-98.7538563979308748
 21
-25.8423304515530994
 31
0.0
  0
ARC
  5
8613
  8
COTES
 10
-81.6959609612768958
 20
-17.1576005259076787
 30
0.0
 40
18.1414819334663697
 50
214.8840729882763014
 51
262.0980528029746779
  0
SOLID
  5
8614
  8
COTES
 10
-84.2187289208278571
 20
-35.5425017136955503
 30
0.0
 11
-84.1613098703617908
 21
-34.7111489022562694
 31
0.0
 12
-81.6959609612769384
 22
-35.2990824593740484
 32
0.0
 13
-81.6959609612769384
 23
-35.2990824593740484
 33
0.0
  0
SOLID
  5
8615
  8
COTES
 10
-96.2202127545531738
 20
-27.3188561417185305
 30
0.0
 11
-96.9350194988884937
 21
-27.7472201956459692
 31
0.0
 12
-97.8627082885030717
 22
-25.3886179356761907
 32
0.0
 13
-97.8627082885030717
 23
-25.3886179356761907
 33
0.0
  0
INSERT
  5
8616
  8
0
  2
*U5
 10
0.0
 20
0.0
 30
0.0
  0
VIEWPORT
  5
2F8F
 67
     1
  8
0
 10
128.5
 20
97.5
 30
0.0
 40
355.6624869109946872
 41
222.1800000000000068
 68
     1
 69
     1
1001
ACAD
1000
MVIEW
1002
{
1070
    16
1010
0.0
1020
0.0
1030
0.0
1010
0.0
1020
0.0
1030
1.0
1040
0.0
1040
222.1800000000000068
1040
128.5
1040
97.5
1040
50.0
1040
0.0
1040
0.0
1070
     0
1070
  1000
1070
     1
1070
     1
1070
     0
1070
     0
1070
     0
1070
     0
1040
0.0
1040
0.0
1040
0.0
1040
10.0
1040
10.0
1040
10.0
1040
10.0
1070
     0
1002
{
1002
}
1002
}
  0
VIEWPORT
  5
2F93
 67
     1
  8
COTES
 10
128.5
 20
97.5
 30
0.0
 40
205.5999999999999943
 41
156.0
 68
     2
 69
     2
1001
ACAD
1000
MVIEW
1002
{
1070
    16
1010
0.0
1020
0.0
1030
0.0
1010
0.0
1020
0.0
1030
1.0
1040
0.0
1040
233.4971795724864876
1040
21739.342280751629005
1040
-1809.738570137672923
1040
50.0
1040
0.0
1040
0.0
1070
     0
1070
  1000
1070
     1
1070
     3
1070
     0
1070
     0
1070
     0
1070
     0
1040
0.0
1040
0.0
1040
0.0
1040
10.0
1040
10.0
1040
10.0
1040
10.0
1070
     0
1002
{
1002
}
1002
}
  0
ENDSEC
  0
EOF
