  0
SECTION
  2
HEADER
  9
$ACADVER
  1
AC1018
  9
$ACADMAINTVER
 70
   104
  9
$DWGCODEPAGE
  3
ANSI_1250
  9
$LASTSAVEDBY
  1
wq7085
  9
$INSBASE
 10
0.0
 20
0.0
 30
0.0
  9
$EXTMIN
 10
157.7287453333333
 20
263.034221
 30
0.0
  9
$EXTMAX
 10
351.996841
 20
335.5806266666668
 30
0.0
  9
$LIMMIN
 10
-0.5
 20
-0.5
  9
$LIMMAX
 10
5.0
 20
5.0
  9
$ORTHOMODE
 70
     0
  9
$REGENMODE
 70
     1
  9
$FILLMODE
 70
     1
  9
$QTEXTMODE
 70
     0
  9
$MIRRTEXT
 70
     1
  9
$LTSCALE
 40
1.0
  9
$ATTMODE
 70
     1
  9
$TEXTSIZE
 40
0.2
  9
$TRACEWID
 40
0.05
  9
$TEXTSTYLE
  7
Standard
  9
$CLAYER
  8
0
  9
$CELTYPE
  6
ByLayer
  9
$CECOLOR
 62
   256
  9
$CELTSCALE
 40
1.0
  9
$DISPSILH
 70
     0
  9
$DIMSCALE
 40
1.0
  9
$DIMASZ
 40
0.18
  9
$DIMEXO
 40
0.0625
  9
$DIMDLI
 40
0.38
  9
$DIMRND
 40
0.0
  9
$DIMDLE
 40
0.0
  9
$DIMEXE
 40
0.18
  9
$DIMTP
 40
0.0
  9
$DIMTM
 40
0.0
  9
$DIMTXT
 40
0.18
  9
$DIMCEN
 40
0.09
  9
$DIMTSZ
 40
0.0
  9
$DIMTOL
 70
     0
  9
$DIMLIM
 70
     0
  9
$DIMTIH
 70
     1
  9
$DIMTOH
 70
     1
  9
$DIMSE1
 70
     0
  9
$DIMSE2
 70
     0
  9
$DIMTAD
 70
     0
  9
$DIMZIN
 70
     0
  9
$DIMBLK
  1

  9
$DIMASO
 70
     1
  9
$DIMSHO
 70
     1
  9
$DIMPOST
  1

  9
$DIMAPOST
  1

  9
$DIMALT
 70
     0
  9
$DIMALTD
 70
     2
  9
$DIMALTF
 40
25.4
  9
$DIMLFAC
 40
1.0
  9
$DIMTOFL
 70
     0
  9
$DIMTVP
 40
0.0
  9
$DIMTIX
 70
     0
  9
$DIMSOXD
 70
     0
  9
$DIMSAH
 70
     0
  9
$DIMBLK1
  1

  9
$DIMBLK2
  1

  9
$DIMSTYLE
  2
Standard
  9
$DIMCLRD
 70
     0
  9
$DIMCLRE
 70
     0
  9
$DIMCLRT
 70
     0
  9
$DIMTFAC
 40
1.0
  9
$DIMGAP
 40
0.09
  9
$DIMJUST
 70
     0
  9
$DIMSD1
 70
     0
  9
$DIMSD2
 70
     0
  9
$DIMTOLJ
 70
     1
  9
$DIMTZIN
 70
     0
  9
$DIMALTZ
 70
     0
  9
$DIMALTTZ
 70
     0
  9
$DIMUPT
 70
     0
  9
$DIMDEC
 70
     4
  9
$DIMTDEC
 70
     4
  9
$DIMALTU
 70
     2
  9
$DIMALTTD
 70
     2
  9
$DIMTXSTY
  7
Standard
  9
$DIMAUNIT
 70
     0
  9
$DIMADEC
 70
     0
  9
$DIMALTRND
 40
0.0
  9
$DIMAZIN
 70
     0
  9
$DIMDSEP
 70
    46
  9
$DIMATFIT
 70
     3
  9
$DIMFRAC
 70
     0
  9
$DIMLDRBLK
  1

  9
$DIMLUNIT
 70
     2
  9
$DIMLWD
 70
    -2
  9
$DIMLWE
 70
    -2
  9
$DIMTMOVE
 70
     0
  9
$LUNITS
 70
     2
  9
$LUPREC
 70
     4
  9
$SKETCHINC
 40
0.1
  9
$FILLETRAD
 40
0.5
  9
$AUNITS
 70
     0
  9
$AUPREC
 70
     0
  9
$MENU
  1
.
  9
$ELEVATION
 40
0.0
  9
$PELEVATION
 40
0.0
  9
$THICKNESS
 40
0.0
  9
$LIMCHECK
 70
     0
  9
$CHAMFERA
 40
0.0
  9
$CHAMFERB
 40
0.0
  9
$CHAMFERC
 40
0.0
  9
$CHAMFERD
 40
0.0
  9
$SKPOLY
 70
     0
  9
$TDCREATE
 40
2460087.528900464
  9
$TDUCREATE
 40
2460087.445576863
  9
$TDUPDATE
 40
2460087.530497685
  9
$TDUUPDATE
 40
2460087.447164352
  9
$TDINDWG
 40
0.0003356597
  9
$TDUSRTIMER
 40
0.0003356597
  9
$USRTIMER
 70
     1
  9
$ANGBASE
 50
0.0
  9
$ANGDIR
 70
     0
  9
$PDMODE
 70
     0
  9
$PDSIZE
 40
0.0
  9
$PLINEWID
 40
0.0
  9
$SPLFRAME
 70
     0
  9
$SPLINETYPE
 70
     6
  9
$SPLINESEGS
 70
     8
  9
$HANDSEED
  5
2A5
  9
$SURFTAB1
 70
     6
  9
$SURFTAB2
 70
     6
  9
$SURFTYPE
 70
     6
  9
$SURFU
 70
     6
  9
$SURFV
 70
     6
  9
$UCSBASE
  2

  9
$UCSNAME
  2

  9
$UCSORG
 10
248.052053
 20
306.020663
 30
0.0
  9
$UCSXDIR
 10
1.0
 20
0.0
 30
0.0
  9
$UCSYDIR
 10
0.0
 20
1.0
 30
0.0
  9
$UCSORTHOREF
  2

  9
$UCSORTHOVIEW
 70
     0
  9
$UCSORGTOP
 10
0.0
 20
0.0
 30
0.0
  9
$UCSORGBOTTOM
 10
0.0
 20
0.0
 30
0.0
  9
$UCSORGLEFT
 10
0.0
 20
0.0
 30
0.0
  9
$UCSORGRIGHT
 10
0.0
 20
0.0
 30
0.0
  9
$UCSORGFRONT
 10
0.0
 20
0.0
 30
0.0
  9
$UCSORGBACK
 10
0.0
 20
0.0
 30
0.0
  9
$PUCSBASE
  2

  9
$PUCSNAME
  2

  9
$PUCSORG
 10
0.0
 20
0.0
 30
0.0
  9
$PUCSXDIR
 10
1.0
 20
0.0
 30
0.0
  9
$PUCSYDIR
 10
0.0
 20
1.0
 30
0.0
  9
$PUCSORTHOREF
  2

  9
$PUCSORTHOVIEW
 70
     0
  9
$PUCSORGTOP
 10
0.0
 20
0.0
 30
0.0
  9
$PUCSORGBOTTOM
 10
0.0
 20
0.0
 30
0.0
  9
$PUCSORGLEFT
 10
0.0
 20
0.0
 30
0.0
  9
$PUCSORGRIGHT
 10
0.0
 20
0.0
 30
0.0
  9
$PUCSORGFRONT
 10
0.0
 20
0.0
 30
0.0
  9
$PUCSORGBACK
 10
0.0
 20
0.0
 30
0.0
  9
$USERI1
 70
     0
  9
$USERI2
 70
     0
  9
$USERI3
 70
     0
  9
$USERI4
 70
     0
  9
$USERI5
 70
     0
  9
$USERR1
 40
0.0
  9
$USERR2
 40
0.0
  9
$USERR3
 40
0.0
  9
$USERR4
 40
0.0
  9
$USERR5
 40
0.0
  9
$WORLDVIEW
 70
     1
  9
$SHADEDGE
 70
     3
  9
$SHADEDIF
 70
    70
  9
$TILEMODE
 70
     1
  9
$MAXACTVP
 70
    64
  9
$PINSBASE
 10
0.0
 20
0.0
 30
0.0
  9
$PLIMCHECK
 70
     0
  9
$PEXTMIN
 10
-0.5
 20
-0.5
 30
-0.5
  9
$PEXTMAX
 10
5.0
 20
5.0
 30
5.0
  9
$PLIMMIN
 10
-0.5
 20
-0.5
  9
$PLIMMAX
 10
5.0
 20
5.0
  9
$UNITMODE
 70
     0
  9
$VISRETAIN
 70
     1
  9
$PLINEGEN
 70
     0
  9
$PSLTSCALE
 70
     1
  9
$TREEDEPTH
 70
  3020
  9
$CMLSTYLE
  2
Standard
  9
$CMLJUST
 70
     0
  9
$CMLSCALE
 40
1.0
  9
$PROXYGRAPHICS
 70
     1
  9
$MEASUREMENT
 70
     1
  9
$CELWEIGHT
370
    13
  9
$ENDCAPS
280
     0
  9
$JOINSTYLE
280
     0
  9
$LWDISPLAY
290
     0
  9
$INSUNITS
 70
     4
  9
$HYPERLINKBASE
  1

  9
$STYLESHEET
  1

  9
$XEDIT
290
     1
  9
$CEPSNTYPE
380
     0
  9
$PSTYLEMODE
290
     1
  9
$FINGERPRINTGUID
  2
{FB39DEE4-ED97-4F0A-9FCF-20265A56DABC}
  9
$VERSIONGUID
  2
{1897ADF5-B16D-3A47-A991-83C6A04ECAD8}
  9
$EXTNAMES
290
     1
  9
$PSVPSCALE
 40
0.0
  9
$OLESTARTUP
290
     0
  9
$SORTENTS
280
   127
  9
$INDEXCTL
280
     0
  9
$HIDETEXT
280
     1
  9
$XCLIPFRAME
290
     0
  9
$HALOGAP
280
     0
  9
$OBSCOLOR
 70
   257
  9
$OBSLTYPE
280
     0
  9
$INTERSECTIONDISPLAY
280
     0
  9
$INTERSECTIONCOLOR
 70
   257
  9
$DIMASSOC
280
     2
  9
$PROJECTNAME
  1

  0
ENDSEC
  0
SECTION
  2
CLASSES
  0
CLASS
  1
ACDBDICTIONARYWDFLT
  2
AcDbDictionaryWithDefault
  3
ObjectDBX Classes
 90
        0
 91
        1
280
     0
281
     0
  0
CLASS
  1
VISUALSTYLE
  2
AcDbVisualStyle
  3
ObjectDBX Classes
 90
     4095
 91
       24
280
     0
281
     0
  0
CLASS
  1
MATERIAL
  2
AcDbMaterial
  3
ObjectDBX Classes
 90
     1153
 91
        3
280
     0
281
     0
  0
CLASS
  1
SCALE
  2
AcDbScale
  3
ObjectDBX Classes
 90
     1153
 91
       33
280
     0
281
     0
  0
CLASS
  1
TABLESTYLE
  2
AcDbTableStyle
  3
ObjectDBX Classes
 90
     4095
 91
        1
280
     0
281
     0
  0
CLASS
  1
MLEADERSTYLE
  2
AcDbMLeaderStyle
  3
ACDB_MLEADERSTYLE_CLASS
 90
     4095
 91
        1
280
     0
281
     0
  0
CLASS
  1
SUN
  2
AcDbSun
  3
SCENEOE
 90
     1153
 91
        0
280
     0
281
     0
  0
CLASS
  1
DIMASSOC
  2
AcDbDimAssoc
  3
"AcDbDimAssoc|Product Desc:     AcDim ARX App For Dimension|Company:          Autodesk, Inc.|WEB Address:      www.autodesk.com"
 90
        0
 91
        4
280
     0
281
     0
  0
CLASS
  1
DICTIONARYVAR
  2
AcDbDictionaryVar
  3
ObjectDBX Classes
 90
        0
 91
        8
280
     0
281
     0
  0
CLASS
  1
CELLSTYLEMAP
  2
AcDbCellStyleMap
  3
ObjectDBX Classes
 90
     1152
 91
        2
280
     0
281
     0
  0
CLASS
  1
ACDBSECTIONVIEWSTYLE
  2
AcDbSectionViewStyle
  3
ObjectDBX Classes
 90
     1025
 91
        1
280
     0
281
     0
  0
CLASS
  1
ACDBDETAILVIEWSTYLE
  2
AcDbDetailViewStyle
  3
ObjectDBX Classes
 90
     1025
 91
        1
280
     0
281
     0
  0
CLASS
  1
SORTENTSTABLE
  2
AcDbSortentsTable
  3
ObjectDBX Classes
 90
        0
 91
        1
280
     0
281
     0
  0
ENDSEC
  0
SECTION
  2
TABLES
  0
TABLE
  2
VPORT
  5
8
330
0
100
AcDbSymbolTable
 70
    16
  0
VPORT
  5
29
330
8
100
AcDbSymbolTableRecord
100
AcDbViewportTableRecord
  2
*Active
 70
     0
 10
0.0
 20
0.0
 11
1.0
 21
1.0
 12
261.9908453926886
 22
301.078071864874
 13
0.0
 23
0.0
 14
0.5
 24
0.5
 15
0.5
 25
0.5
 16
0.0
 26
0.0
 36
1.0
 17
0.0
 27
0.0
 37
0.0
 40
133.2708438376491
 41
2.292712066905615
 42
50.0
 43
327.330051
 44
-327.330051
 50
0.0
 51
0.0
 71
     0
 72
   100
 73
     1
 74
     3
 75
     0
 76
     0
 77
     0
 78
     0
281
     0
 65
     1
110
248.052053
120
306.020663
130
0.0
111
1.0
121
0.0
131
0.0
112
0.0
122
1.0
132
0.0
 79
     0
146
0.0
1001
ACAD_NAV_VCDISPLAY
1070
     3
  0
VPORT
  5
1A7
330
8
100
AcDbSymbolTableRecord
100
AcDbViewportTableRecord
  2
L1
 70
     0
 10
0.0
 20
0.0
 11
1.0
 21
1.0
 12
254.686699
 22
299.3119960000001
 13
0.0
 23
0.0
 14
0.5
 24
0.5
 15
0.5
 25
0.5
 16
0.0
 26
0.0
 36
1.0
 17
0.0
 27
0.0
 37
0.0
 40
207.433333
 41
0.085602
 42
50.0
 43
327.330051
 44
-327.330051
 50
0.0
 51
0.0
 71
     0
 72
   100
 73
     1
 74
     3
 75
     0
 76
     0
 77
     0
 78
     0
281
     0
 65
     1
110
0.0
120
0.0
130
0.0
111
1.0
121
0.0
131
0.0
112
0.0
122
1.0
132
0.0
 79
     0
146
0.0
  0
VPORT
  5
1A8
330
8
100
AcDbSymbolTableRecord
100
AcDbViewportTableRecord
  2
L2
 70
     0
 10
0.0
 20
0.0
 11
0.5
 21
1.0
 12
0.0
 22
0.0
 13
0.0
 23
0.0
 14
0.5
 24
0.5
 15
0.5
 25
0.5
 16
0.0
 26
-1.0
 36
0.0
 17
0.0
 27
0.0
 37
0.0
 40
1220.845301
 41
0.014545
 42
50.0
 43
626.5008179999999
 44
-626.5008179999999
 50
0.0
 51
0.0
 71
     0
 72
   100
 73
     1
 74
     3
 75
     0
 76
     0
 77
     0
 78
     0
281
     0
 65
     1
110
0.0
120
0.0
130
0.0
111
1.0
121
0.0
131
0.0
112
0.0
122
1.0
132
0.0
 79
     0
146
0.0
  0
VPORT
  5
1A9
330
8
100
AcDbSymbolTableRecord
100
AcDbViewportTableRecord
  2
L2
 70
     0
 10
0.5
 20
0.0
 11
1.0
 21
1.0
 12
0.0
 22
0.0
 13
0.0
 23
0.0
 14
0.5
 24
0.5
 15
0.5
 25
0.5
 16
1.0
 26
0.0
 36
0.0
 17
0.0
 27
0.0
 37
0.0
 40
1220.845301
 41
0.014545
 42
50.0
 43
619.171187
 44
-619.171187
 50
0.0
 51
0.0
 71
     0
 72
   100
 73
     1
 74
     3
 75
     0
 76
     0
 77
     0
 78
     0
281
     0
 65
     1
110
0.0
120
0.0
130
0.0
111
1.0
121
0.0
131
0.0
112
0.0
122
1.0
132
0.0
 79
     0
146
0.0
  0
VPORT
  5
1AA
330
8
100
AcDbSymbolTableRecord
100
AcDbViewportTableRecord
  2
L3
 70
     0
 10
0.0
 20
0.5
 11
1.0
 21
1.0
 12
254.686699
 22
299.3119960000001
 13
0.0
 23
0.0
 14
0.5
 24
0.5
 15
0.5
 25
0.5
 16
0.0
 26
0.0
 36
1.0
 17
0.0
 27
0.0
 37
0.0
 40
207.433333
 41
0.085602
 42
50.0
 43
327.330051
 44
-327.330051
 50
0.0
 51
0.0
 71
     0
 72
   100
 73
     1
 74
     3
 75
     0
 76
     0
 77
     0
 78
     0
281
     0
 65
     1
110
0.0
120
0.0
130
0.0
111
1.0
121
0.0
131
0.0
112
0.0
122
1.0
132
0.0
 79
     0
146
0.0
  0
VPORT
  5
1AB
330
8
100
AcDbSymbolTableRecord
100
AcDbViewportTableRecord
  2
L3
 70
     0
 10
0.0
 20
0.0
 11
1.0
 21
0.5
 12
0.0
 22
0.0
 13
0.0
 23
0.0
 14
0.5
 24
0.5
 15
0.5
 25
0.5
 16
0.0
 26
-1.0
 36
0.0
 17
0.0
 27
0.0
 37
0.0
 40
1220.845301
 41
0.014545
 42
50.0
 43
626.5008179999999
 44
-626.5008179999999
 50
0.0
 51
0.0
 71
     0
 72
   100
 73
     1
 74
     3
 75
     0
 76
     0
 77
     0
 78
     0
281
     0
 65
     1
110
0.0
120
0.0
130
0.0
111
1.0
121
0.0
131
0.0
112
0.0
122
1.0
132
0.0
 79
     0
146
0.0
  0
VPORT
  5
1AC
330
8
100
AcDbSymbolTableRecord
100
AcDbViewportTableRecord
  2
L4
 70
     0
 10
0.0
 20
0.5
 11
0.5
 21
1.0
 12
254.686699
 22
299.3119960000001
 13
0.0
 23
0.0
 14
0.5
 24
0.5
 15
0.5
 25
0.5
 16
0.0
 26
0.0
 36
1.0
 17
0.0
 27
0.0
 37
0.0
 40
207.433333
 41
0.085602
 42
50.0
 43
327.330051
 44
-327.330051
 50
0.0
 51
0.0
 71
     0
 72
   100
 73
     1
 74
     3
 75
     0
 76
     0
 77
     0
 78
     0
281
     0
 65
     1
110
0.0
120
0.0
130
0.0
111
1.0
121
0.0
131
0.0
112
0.0
122
1.0
132
0.0
 79
     0
146
0.0
  0
VPORT
  5
1AD
330
8
100
AcDbSymbolTableRecord
100
AcDbViewportTableRecord
  2
L4
 70
     0
 10
0.0
 20
0.0
 11
0.5
 21
0.5
 12
0.0
 22
0.0
 13
0.0
 23
0.0
 14
0.5
 24
0.5
 15
0.5
 25
0.5
 16
0.0
 26
-1.0
 36
0.0
 17
0.0
 27
0.0
 37
0.0
 40
1220.845301
 41
0.014545
 42
50.0
 43
626.5008179999999
 44
-626.5008179999999
 50
0.0
 51
0.0
 71
     0
 72
   100
 73
     1
 74
     3
 75
     0
 76
     0
 77
     0
 78
     0
281
     0
 65
     1
110
0.0
120
0.0
130
0.0
111
1.0
121
0.0
131
0.0
112
0.0
122
1.0
132
0.0
 79
     0
146
0.0
  0
VPORT
  5
1AE
330
8
100
AcDbSymbolTableRecord
100
AcDbViewportTableRecord
  2
L4
 70
     0
 10
0.5
 20
0.0
 11
1.0
 21
0.5
 12
0.0
 22
0.0
 13
0.0
 23
0.0
 14
0.5
 24
0.5
 15
0.5
 25
0.5
 16
1.0
 26
0.0
 36
0.0
 17
0.0
 27
0.0
 37
0.0
 40
1220.845301
 41
0.014545
 42
50.0
 43
619.171187
 44
-619.171187
 50
0.0
 51
0.0
 71
     0
 72
   100
 73
     1
 74
     3
 75
     0
 76
     0
 77
     0
 78
     0
281
     0
 65
     1
110
0.0
120
0.0
130
0.0
111
1.0
121
0.0
131
0.0
112
0.0
122
1.0
132
0.0
 79
     0
146
0.0
  0
VPORT
  5
1AF
330
8
100
AcDbSymbolTableRecord
100
AcDbViewportTableRecord
  2
L4
 70
     0
 10
0.5
 20
0.5
 11
1.0
 21
1.0
 12
0.0
 22
0.0
 13
0.0
 23
0.0
 14
0.5
 24
0.5
 15
0.5
 25
0.5
 16
0.5773502691896259
 26
-0.5773502691896259
 36
0.5773502691896259
 17
0.0
 27
0.0
 37
0.0
 40
1196.645047
 41
0.014839
 42
50.0
 43
622.8471509999999
 44
-622.8471509999999
 50
0.0
 51
0.0
 71
     0
 72
   100
 73
     1
 74
     3
 75
     0
 76
     0
 77
     0
 78
     0
281
     0
 65
     1
110
0.0
120
0.0
130
0.0
111
1.0
121
0.0
131
0.0
112
0.0
122
1.0
132
0.0
 79
     0
146
0.0
  0
VPORT
  5
1B0
330
8
100
AcDbSymbolTableRecord
100
AcDbViewportTableRecord
  2
L6
 70
     0
 10
0.0
 20
0.5
 11
0.333333
 21
1.0
 12
0.0
 22
0.0
 13
0.0
 23
0.0
 14
0.5
 24
0.5
 15
0.5
 25
0.5
 16
0.7188730927569434
 26
-0.5850486126764433
 36
0.3754192287502549
 17
0.0
 27
0.0
 37
0.0
 40
1262.827782
 41
0.014061
 42
50.0
 43
653.758377
 44
-653.758377
 50
0.0
 51
0.0
 71
     0
 72
   100
 73
     1
 74
     3
 75
     0
 76
     0
 77
     0
 78
     0
281
     0
 65
     1
110
0.0
120
0.0
130
0.0
111
1.0
121
0.0
131
0.0
112
0.0
122
1.0
132
0.0
 79
     0
146
0.0
  0
VPORT
  5
1B1
330
8
100
AcDbSymbolTableRecord
100
AcDbViewportTableRecord
  2
L6
 70
     0
 10
0.0
 20
0.0
 11
0.333333
 21
0.5
 12
0.0
 22
0.0
 13
0.0
 23
0.0
 14
0.5
 24
0.5
 15
0.5
 25
0.5
 16
-1.0
 26
0.0
 36
0.0
 17
0.0
 27
0.0
 37
0.0
 40
1220.845301
 41
0.014545
 42
50.0
 43
619.171187
 44
-619.171187
 50
0.0
 51
0.0
 71
     0
 72
   100
 73
     1
 74
     3
 75
     0
 76
     0
 77
     0
 78
     0
281
     0
 65
     1
110
0.0
120
0.0
130
0.0
111
1.0
121
0.0
131
0.0
112
0.0
122
1.0
132
0.0
 79
     0
146
0.0
  0
VPORT
  5
1B2
330
8
100
AcDbSymbolTableRecord
100
AcDbViewportTableRecord
  2
L6
 70
     0
 10
0.333333
 20
0.5
 11
0.666667
 21
1.0
 12
254.686699
 22
299.3119960000001
 13
0.0
 23
0.0
 14
0.5
 24
0.5
 15
0.5
 25
0.5
 16
0.0
 26
0.0
 36
1.0
 17
0.0
 27
0.0
 37
0.0
 40
207.433333
 41
0.085602
 42
50.0
 43
327.330051
 44
-327.330051
 50
0.0
 51
0.0
 71
     0
 72
   100
 73
     1
 74
     3
 75
     0
 76
     0
 77
     0
 78
     0
281
     0
 65
     1
110
0.0
120
0.0
130
0.0
111
1.0
121
0.0
131
0.0
112
0.0
122
1.0
132
0.0
 79
     0
146
0.0
  0
VPORT
  5
1B3
330
8
100
AcDbSymbolTableRecord
100
AcDbViewportTableRecord
  2
L6
 70
     0
 10
0.333333
 20
0.0
 11
0.666667
 21
0.5
 12
0.0
 22
0.0
 13
0.0
 23
0.0
 14
0.5
 24
0.5
 15
0.5
 25
0.5
 16
0.0
 26
-1.0
 36
0.0
 17
0.0
 27
0.0
 37
0.0
 40
1220.845301
 41
0.014545
 42
50.0
 43
626.5008179999999
 44
-626.5008179999999
 50
0.0
 51
0.0
 71
     0
 72
   100
 73
     1
 74
     3
 75
     0
 76
     0
 77
     0
 78
     0
281
     0
 65
     1
110
0.0
120
0.0
130
0.0
111
1.0
121
0.0
131
0.0
112
0.0
122
1.0
132
0.0
 79
     0
146
0.0
  0
VPORT
  5
1B4
330
8
100
AcDbSymbolTableRecord
100
AcDbViewportTableRecord
  2
L6
 70
     0
 10
0.666667
 20
0.5
 11
1.0
 21
1.0
 12
0.0
 22
0.0
 13
0.0
 23
0.0
 14
0.5
 24
0.5
 15
0.5
 25
0.5
 16
0.5773502691896259
 26
-0.5773502691896259
 36
0.5773502691896259
 17
0.0
 27
0.0
 37
0.0
 40
1196.645047
 41
0.014839
 42
50.0
 43
622.8471509999999
 44
-622.8471509999999
 50
0.0
 51
0.0
 71
     0
 72
   100
 73
     1
 74
     3
 75
     0
 76
     0
 77
     0
 78
     0
281
     0
 65
     1
110
0.0
120
0.0
130
0.0
111
1.0
121
0.0
131
0.0
112
0.0
122
1.0
132
0.0
 79
     0
146
0.0
  0
VPORT
  5
1B5
330
8
100
AcDbSymbolTableRecord
100
AcDbViewportTableRecord
  2
L6
 70
     0
 10
0.666667
 20
0.0
 11
1.0
 21
0.5
 12
0.0
 22
0.0
 13
0.0
 23
0.0
 14
0.5
 24
0.5
 15
0.5
 25
0.5
 16
1.0
 26
0.0
 36
0.0
 17
0.0
 27
0.0
 37
0.0
 40
1220.845301
 41
0.014545
 42
50.0
 43
619.171187
 44
-619.171187
 50
0.0
 51
0.0
 71
     0
 72
   100
 73
     1
 74
     3
 75
     0
 76
     0
 77
     0
 78
     0
281
     0
 65
     1
110
0.0
120
0.0
130
0.0
111
1.0
121
0.0
131
0.0
112
0.0
122
1.0
132
0.0
 79
     0
146
0.0
  0
ENDTAB
  0
TABLE
  2
LTYPE
  5
5
330
0
100
AcDbSymbolTable
 70
     7
  0
LTYPE
  5
14
330
5
100
AcDbSymbolTableRecord
100
AcDbLinetypeTableRecord
  2
ByBlock
 70
     0
  3

 72
    65
 73
     0
 40
0.0
  0
LTYPE
  5
15
330
5
100
AcDbSymbolTableRecord
100
AcDbLinetypeTableRecord
  2
ByLayer
 70
     0
  3

 72
    65
 73
     0
 40
0.0
  0
LTYPE
  5
16
330
5
100
AcDbSymbolTableRecord
100
AcDbLinetypeTableRecord
  2
Continuous
 70
     0
  3
Solid line
 72
    65
 73
     0
 40
0.0
  0
LTYPE
  5
6E
330
5
100
AcDbSymbolTableRecord
100
AcDbLinetypeTableRecord
  2
CENTER
 70
     0
  3
____ _ ____ _ ____ _ ____
 72
    65
 73
     4
 40
47.4
 49
22.0
 74
     4
 75
     0
340
0
 46
0.0
 50
0.0
 44
0.0
 45
0.0
 49
-8.5
 74
     4
 75
     0
340
0
 46
0.0
 50
0.0
 44
0.0
 45
0.0
 49
8.5
 74
     4
 75
     0
340
0
 46
0.0
 50
0.0
 44
0.0
 45
0.0
 49
-8.5
 74
     4
 75
     0
340
0
 46
0.0
 50
0.0
 44
0.0
 45
0.0
  0
LTYPE
  5
6F
330
5
100
AcDbSymbolTableRecord
100
AcDbLinetypeTableRecord
  2
DASHDOT
 70
     0
  3
_._._._._._._._._._._._._._._._.
 72
    65
 73
     4
 40
70.0
 49
31.0
 74
     4
 75
     0
340
0
 46
0.0
 50
0.0
 44
0.0
 45
0.0
 49
-13.0
 74
     4
 75
     0
340
0
 46
0.0
 50
0.0
 44
0.0
 45
0.0
 49
13.0
 74
     4
 75
     0
340
0
 46
0.0
 50
0.0
 44
0.0
 45
0.0
 49
-13.0
 74
     4
 75
     0
340
0
 46
0.0
 50
0.0
 44
0.0
 45
0.0
  0
LTYPE
  5
70
330
5
100
AcDbSymbolTableRecord
100
AcDbLinetypeTableRecord
  2
DASHED
 70
     0
  3
__ __ __ __ __ __ __ __ __
 72
    65
 73
     2
 40
25.72
 49
12.86
 74
     4
 75
     0
340
0
 46
0.0
 50
0.0
 44
0.0
 45
0.0
 49
-12.86
 74
     4
 75
     0
340
0
 46
0.0
 50
0.0
 44
0.0
 45
0.0
  0
LTYPE
  5
71
330
5
100
AcDbSymbolTableRecord
100
AcDbLinetypeTableRecord
  2
DOT
 70
     0
  3
.........................
 72
    65
 73
     2
 40
10.0
 49
0.0
 74
     4
 75
     0
340
0
 46
0.0
 50
0.0
 44
0.0
 45
0.0
 49
-10.0
 74
     4
 75
     0
340
0
 46
0.0
 50
0.0
 44
0.0
 45
0.0
  0
LTYPE
  5
72
330
5
100
AcDbSymbolTableRecord
100
AcDbLinetypeTableRecord
  2
PHANTOM
 70
     0
  3
____ _ _ ____ _ _ _____ _ _ ____
 72
    65
 73
     6
 40
50.5
 49
18.0
 74
     4
 75
     0
340
0
 46
0.0
 50
0.0
 44
0.0
 45
0.0
 49
-6.5
 74
     4
 75
     0
340
0
 46
0.0
 50
0.0
 44
0.0
 45
0.0
 49
6.5
 74
     4
 75
     0
340
0
 46
0.0
 50
0.0
 44
0.0
 45
0.0
 49
-6.5
 74
     4
 75
     0
340
0
 46
0.0
 50
0.0
 44
0.0
 45
0.0
 49
6.5
 74
     4
 75
     0
340
0
 46
0.0
 50
0.0
 44
0.0
 45
0.0
 49
-6.5
 74
     4
 75
     0
340
0
 46
0.0
 50
0.0
 44
0.0
 45
0.0
  0
LTYPE
  5
24A
330
5
100
AcDbSymbolTableRecord
100
AcDbLinetypeTableRecord
  2
CENTER2
 70
     0
  3
Center (.5x) ___ _ ___ _ ___ _ ___ _ ___ _ ___
 72
    65
 73
     4
 40
1.125
 49
0.75
 74
     0
 49
-0.125
 74
     0
 49
0.125
 74
     0
 49
-0.125
 74
     0
  0
ENDTAB
  0
TABLE
  2
LAYER
  5
2
330
0
100
AcDbSymbolTable
 70
    22
  0
LAYER
  5
10
102
{ACAD_XDICTIONARY
360
24E
102
}
330
2
100
AcDbSymbolTableRecord
100
AcDbLayerTableRecord
  2
0
 70
     0
 62
     7
  6
Continuous
370
    -3
390
F
  0
LAYER
  5
74
102
{ACAD_XDICTIONARY
360
250
102
}
330
2
100
AcDbSymbolTableRecord
100
AcDbLayerTableRecord
  2
30
 70
     0
 62
     7
420
 16777215
  6
Continuous
370
    -3
390
F
  0
LAYER
  5
13F
330
2
100
AcDbSymbolTableRecord
100
AcDbLayerTableRecord
  2
Defpoints
 70
     0
 62
     7
  6
Continuous
290
     0
370
    -3
390
F
  0
LAYER
  5
240
102
{ACAD_XDICTIONARY
360
252
102
}
330
2
100
AcDbSymbolTableRecord
100
AcDbLayerTableRecord
  2
1
 70
     0
 62
     4
  6
Continuous
370
    -3
390
F
  0
LAYER
  5
241
102
{ACAD_XDICTIONARY
360
254
102
}
330
2
100
AcDbSymbolTableRecord
100
AcDbLayerTableRecord
  2
2
 70
     0
 62
     7
  6
Continuous
370
    -3
390
F
  0
LAYER
  5
242
102
{ACAD_XDICTIONARY
360
256
102
}
330
2
100
AcDbSymbolTableRecord
100
AcDbLayerTableRecord
  2
SK1
 70
     0
 62
     4
  6
Continuous
370
    -3
390
F
  0
LAYER
  5
243
102
{ACAD_XDICTIONARY
360
258
102
}
330
2
100
AcDbSymbolTableRecord
100
AcDbLayerTableRecord
  2
SK2
 70
     0
 62
     7
  6
Continuous
370
    -3
390
F
  0
LAYER
  5
244
102
{ACAD_XDICTIONARY
360
25A
102
}
330
2
100
AcDbSymbolTableRecord
100
AcDbLayerTableRecord
  2
SK6
 70
     0
 62
     5
  6
Continuous
370
    -3
390
F
  0
LAYER
  5
245
102
{ACAD_XDICTIONARY
360
25C
102
}
330
2
100
AcDbSymbolTableRecord
100
AcDbLayerTableRecord
  2
CUT
 70
     0
 62
     1
  6
Continuous
370
    -3
390
F
  0
LAYER
  5
246
102
{ACAD_XDICTIONARY
360
25E
102
}
330
2
100
AcDbSymbolTableRecord
100
AcDbLayerTableRecord
  2
NOCUT
 70
     0
 62
     7
  6
Continuous
370
    -3
390
F
  0
LAYER
  5
247
102
{ACAD_XDICTIONARY
360
260
102
}
330
2
100
AcDbSymbolTableRecord
100
AcDbLayerTableRecord
  2
80
 70
     0
 62
     6
  6
Continuous
370
    -3
390
F
  0
LAYER
  5
248
102
{ACAD_XDICTIONARY
360
262
102
}
330
2
100
AcDbSymbolTableRecord
100
AcDbLayerTableRecord
  2
81
 70
     0
 62
     3
  6
Continuous
370
    -3
390
F
  0
LAYER
  5
249
102
{ACAD_XDICTIONARY
360
264
102
}
330
2
100
AcDbSymbolTableRecord
100
AcDbLayerTableRecord
  2
4
 70
     0
 62
     2
  6
CENTER2
370
    -3
390
F
  0
LAYER
  5
24B
102
{ACAD_XDICTIONARY
360
266
102
}
330
2
100
AcDbSymbolTableRecord
100
AcDbLayerTableRecord
  2
SK3
 70
     0
 62
     1
  6
DASHED
370
    -3
390
F
  0
LAYER
  5
24C
102
{ACAD_XDICTIONARY
360
268
102
}
330
2
100
AcDbSymbolTableRecord
100
AcDbLayerTableRecord
  2
SK4
 70
     0
 62
     2
  6
CENTER2
370
    -3
390
F
  0
ENDTAB
  0
TABLE
  2
STYLE
  5
3
330
0
100
AcDbSymbolTable
 70
     3
  0
STYLE
  5
11
330
3
100
AcDbSymbolTableRecord
100
AcDbTextStyleTableRecord
  2
Standard
 70
     0
 40
0.0
 41
1.0
 50
0.0
 71
     0
 42
0.2
  3
txt
  4

  0
STYLE
  5
138
330
3
100
AcDbSymbolTableRecord
100
AcDbTextStyleTableRecord
  2
cesky
 70
     0
 40
0.0
 41
1.0
 50
0.0
 71
     0
 42
0.2
  3
simplex.shx
  4

  0
STYLE
  5
139
330
3
100
AcDbSymbolTableRecord
100
AcDbTextStyleTableRecord
  2
DWGDirectTextStyle
 70
     0
 40
0.0
 41
1.0
 50
0.0
 71
     0
 42
0.2
  3
simplex
  4

  0
ENDTAB
  0
TABLE
  2
VIEW
  5
6
330
0
100
AcDbSymbolTable
 70
     0
  0
ENDTAB
  0
TABLE
  2
UCS
  5
7
330
0
100
AcDbSymbolTable
 70
     0
  0
ENDTAB
  0
TABLE
  2
APPID
  5
9
330
0
100
AcDbSymbolTable
 70
     7
  0
APPID
  5
12
330
9
100
AcDbSymbolTableRecord
100
AcDbRegAppTableRecord
  2
ACAD
 70
     0
  0
APPID
  5
13B
330
9
100
AcDbSymbolTableRecord
100
AcDbRegAppTableRecord
  2
ACAD_DSTYLE_DIMBREAK
 70
     0
  0
APPID
  5
1B6
330
9
100
AcDbSymbolTableRecord
100
AcDbRegAppTableRecord
  2
ACAD_DSTYLE_DIM_LINETYPE
 70
     0
  0
APPID
  5
1B7
330
9
100
AcDbSymbolTableRecord
100
AcDbRegAppTableRecord
  2
ACAD_DSTYLE_DIM_EXT1_LINETYPE
 70
     0
  0
APPID
  5
1B8
330
9
100
AcDbSymbolTableRecord
100
AcDbRegAppTableRecord
  2
ACAD_DSTYLE_DIM_EXT2_LINETYPE
 70
     0
  0
APPID
  5
1F8
330
9
100
AcDbSymbolTableRecord
100
AcDbRegAppTableRecord
  2
ACAD_MLEADERVER
 70
     0
  0
APPID
  5
26D
330
9
100
AcDbSymbolTableRecord
100
AcDbRegAppTableRecord
  2
ACAD_NAV_VCDISPLAY
 70
     0
  0
ENDTAB
  0
TABLE
  2
DIMSTYLE
  5
A
330
0
100
AcDbSymbolTable
 70
     1
100
AcDbDimStyleTable
 71
     0
  0
DIMSTYLE
105
27
330
A
100
AcDbSymbolTableRecord
100
AcDbDimStyleTableRecord
  2
Standard
 70
     0
340
11
1001
ACAD_DSTYLE_DIMBREAK
1070
   391
1040
6.349999999999999
  0
ENDTAB
  0
TABLE
  2
BLOCK_RECORD
  5
1
330
0
100
AcDbSymbolTable
 70
    10
  0
BLOCK_RECORD
  5
1F
102
{ACAD_XDICTIONARY
360
208
102
}
330
1
100
AcDbSymbolTableRecord
100
AcDbBlockTableRecord
  2
*Model_Space
340
22
  0
BLOCK_RECORD
  5
1B
330
1
100
AcDbSymbolTableRecord
100
AcDbBlockTableRecord
  2
*Paper_Space
340
1E
  0
BLOCK_RECORD
  5
23
330
1
100
AcDbSymbolTableRecord
100
AcDbBlockTableRecord
  2
*Paper_Space0
340
26
  0
BLOCK_RECORD
  5
140
330
1
100
AcDbSymbolTableRecord
100
AcDbBlockTableRecord
  2
*D1
340
0
  0
BLOCK_RECORD
  5
14C
330
1
100
AcDbSymbolTableRecord
100
AcDbBlockTableRecord
  2
_U0
340
0
  0
BLOCK_RECORD
  5
158
330
1
100
AcDbSymbolTableRecord
100
AcDbBlockTableRecord
  2
*D3
340
0
  0
BLOCK_RECORD
  5
164
330
1
100
AcDbSymbolTableRecord
100
AcDbBlockTableRecord
  2
_U1
340
0
  0
BLOCK_RECORD
  5
170
330
1
100
AcDbSymbolTableRecord
100
AcDbBlockTableRecord
  2
*D5
340
0
  0
BLOCK_RECORD
  5
17C
330
1
100
AcDbSymbolTableRecord
100
AcDbBlockTableRecord
  2
_U2
340
0
  0
BLOCK_RECORD
  5
188
330
1
100
AcDbSymbolTableRecord
100
AcDbBlockTableRecord
  2
*D7
340
0
  0
BLOCK_RECORD
  5
194
330
1
100
AcDbSymbolTableRecord
100
AcDbBlockTableRecord
  2
_U3
340
0
  0
BLOCK_RECORD
  5
19D
330
1
100
AcDbSymbolTableRecord
100
AcDbBlockTableRecord
  2
_U4
340
0
  0
ENDTAB
  0
ENDSEC
  0
SECTION
  2
BLOCKS
  0
BLOCK
  5
20
330
1F
100
AcDbEntity
  8
0
100
AcDbBlockBegin
  2
*Model_Space
 70
     0
 10
0.0
 20
0.0
 30
0.0
  3
*Model_Space
  1

  0
ENDBLK
  5
21
330
1F
100
AcDbEntity
  8
0
100
AcDbBlockEnd
  0
BLOCK
  5
1C
330
1B
100
AcDbEntity
 67
     1
  8
0
100
AcDbBlockBegin
  2
*Paper_Space
 70
     0
 10
0.0
 20
0.0
 30
0.0
  3
*Paper_Space
  1

  0
ENDBLK
  5
1D
330
1B
100
AcDbEntity
 67
     1
  8
0
100
AcDbBlockEnd
  0
BLOCK
  5
24
330
23
100
AcDbEntity
 67
     1
  8
0
100
AcDbBlockBegin
  2
*Paper_Space0
 70
     0
 10
0.0
 20
0.0
 30
0.0
  3
*Paper_Space0
  1

  0
ENDBLK
  5
25
330
23
100
AcDbEntity
 67
     1
  8
0
100
AcDbBlockEnd
  0
BLOCK
  5
141
330
140
100
AcDbEntity
  8
0
100
AcDbBlockBegin
  2
*D1
 70
     1
 10
0.0
 20
0.0
 30
0.0
  3
*D1
  1

  0
LINE
  5
143
330
140
100
AcDbEntity
  8
0
 62
   254
370
    -2
100
AcDbLine
 10
212.552053
 20
297.220663
 30
0.0
 11
212.552053
 21
263.034221
 31
0.0
  0
LINE
  5
144
330
140
100
AcDbEntity
  8
0
 62
   254
370
    -2
100
AcDbLine
 10
248.052053
 20
306.020663
 30
0.0
 11
248.052053
 21
263.034221
 31
0.0
  0
LINE
  5
145
330
140
100
AcDbEntity
  8
0
 62
   254
370
    -2
100
AcDbLine
 10
216.052053
 20
264.034221
 30
0.0
 11
244.552053
 21
264.034221
 31
0.0
  0
SOLID
  5
146
330
140
100
AcDbEntity
  8
0
 62
   254
100
AcDbTrace
 10
216.052053
 20
264.617554
 30
0.0
 11
216.052053
 21
263.450887
 31
0.0
 12
212.552053
 22
264.034221
 32
0.0
 13
212.552053
 23
264.034221
 33
0.0
  0
SOLID
  5
147
330
140
100
AcDbEntity
  8
0
 62
   254
100
AcDbTrace
 10
244.552053
 20
263.450887
 30
0.0
 11
244.552053
 21
264.617554
 31
0.0
 12
248.052053
 22
264.034221
 32
0.0
 13
248.052053
 23
264.034221
 33
0.0
  0
MTEXT
  5
148
330
140
100
AcDbEntity
  8
0
 62
   254
370
    13
100
AcDbMText
 10
230.302053
 20
269.284221
 30
0.0
 40
3.5
 41
0.0
 71
     5
 72
     1
  1
\A1;35.5
  7
cesky
 73
     1
 44
1.0
  0
POINT
  5
149
330
140
100
AcDbEntity
  8
Defpoints
 62
     0
100
AcDbPoint
 10
212.552053
 20
297.220663
 30
0.0
  0
POINT
  5
14A
330
140
100
AcDbEntity
  8
Defpoints
 62
     0
100
AcDbPoint
 10
248.052053
 20
306.020663
 30
0.0
  0
POINT
  5
14B
330
140
100
AcDbEntity
  8
Defpoints
 62
     0
100
AcDbPoint
 10
248.052053
 20
264.034221
 30
0.0
  0
ENDBLK
  5
142
330
140
100
AcDbEntity
  8
0
100
AcDbBlockEnd
  0
BLOCK
  5
153
330
14C
100
AcDbEntity
  8
0
100
AcDbBlockBegin
  2
_U0
 70
     0
 10
0.0
 20
0.0
 30
0.0
  3
_U0
  1

  0
ENDBLK
  5
154
330
14C
100
AcDbEntity
  8
0
100
AcDbBlockEnd
  0
BLOCK
  5
159
330
158
100
AcDbEntity
  8
0
100
AcDbBlockBegin
  2
*D3
 70
     1
 10
0.0
 20
0.0
 30
0.0
  3
*D3
  1

  0
LINE
  5
15B
330
158
100
AcDbEntity
  8
0
 62
    95
370
    -2
100
AcDbLine
 10
337.552053
 20
306.020663
 30
0.0
 11
337.552053
 21
332.039793
 31
0.0
  0
LINE
  5
15C
330
158
100
AcDbEntity
  8
0
 62
    95
370
    -2
100
AcDbLine
 10
212.552053
 20
297.220663
 30
0.0
 11
212.552053
 21
332.039793
 31
0.0
  0
LINE
  5
15D
330
158
100
AcDbEntity
  8
0
 62
    95
370
    -2
100
AcDbLine
 10
334.052053
 20
331.0397930000001
 30
0.0
 11
216.052053
 21
331.0397930000001
 31
0.0
  0
SOLID
  5
15E
330
158
100
AcDbEntity
  8
0
 62
    95
100
AcDbTrace
 10
334.052053
 20
330.45646
 30
0.0
 11
334.052053
 21
331.6231259999999
 31
0.0
 12
337.552053
 22
331.0397930000001
 32
0.0
 13
337.552053
 23
331.0397930000001
 33
0.0
  0
SOLID
  5
15F
330
158
100
AcDbEntity
  8
0
 62
    95
100
AcDbTrace
 10
216.052053
 20
331.6231259999999
 30
0.0
 11
216.052053
 21
330.45646
 31
0.0
 12
212.552053
 22
331.0397930000001
 32
0.0
 13
212.552053
 23
331.0397930000001
 33
0.0
  0
MTEXT
  5
160
330
158
100
AcDbEntity
  8
0
 62
    95
370
    13
100
AcDbMText
 10
275.052053
 20
336.289793
 30
0.0
 40
3.5
 41
0.0
 71
     5
 72
     1
  1
\A1;125
  7
cesky
 73
     1
 44
1.0
  0
POINT
  5
161
330
158
100
AcDbEntity
  8
Defpoints
 62
     0
100
AcDbPoint
 10
337.552053
 20
306.020663
 30
0.0
  0
POINT
  5
162
330
158
100
AcDbEntity
  8
Defpoints
 62
     0
100
AcDbPoint
 10
212.552053
 20
297.220663
 30
0.0
  0
POINT
  5
163
330
158
100
AcDbEntity
  8
Defpoints
 62
     0
100
AcDbPoint
 10
212.552053
 20
331.0397930000001
 30
0.0
  0
ENDBLK
  5
15A
330
158
100
AcDbEntity
  8
0
100
AcDbBlockEnd
  0
BLOCK
  5
16B
330
164
100
AcDbEntity
  8
0
100
AcDbBlockBegin
  2
_U1
 70
     0
 10
0.0
 20
0.0
 30
0.0
  3
_U1
  1

  0
ENDBLK
  5
16C
330
164
100
AcDbEntity
  8
0
100
AcDbBlockEnd
  0
BLOCK
  5
171
330
170
100
AcDbEntity
  8
0
100
AcDbBlockBegin
  2
*D5
 70
     1
 10
0.0
 20
0.0
 30
0.0
  3
*D5
  1

  0
LINE
  5
173
330
170
100
AcDbEntity
  8
0
 62
    95
370
    -2
100
AcDbLine
 10
333.798802
 20
315.970663
 30
0.0
 11
351.996841
 21
315.970663
 31
0.0
  0
LINE
  5
174
330
170
100
AcDbEntity
  8
0
 62
    95
370
    -2
100
AcDbLine
 10
337.552053
 20
296.070663
 30
0.0
 11
351.996841
 21
296.070663
 31
0.0
  0
LINE
  5
175
330
170
100
AcDbEntity
  8
0
 62
    95
370
    -2
100
AcDbLine
 10
350.996841
 20
312.470663
 30
0.0
 11
350.996841
 21
299.570663
 31
0.0
  0
SOLID
  5
176
330
170
100
AcDbEntity
  8
0
 62
    95
100
AcDbTrace
 10
351.580175
 20
312.470663
 30
0.0
 11
350.4135080000001
 21
312.470663
 31
0.0
 12
350.996841
 22
315.970663
 32
0.0
 13
350.996841
 23
315.970663
 33
0.0
  0
SOLID
  5
177
330
170
100
AcDbEntity
  8
0
 62
    95
100
AcDbTrace
 10
350.4135080000001
 20
299.570663
 30
0.0
 11
351.580175
 21
299.570663
 31
0.0
 12
350.996841
 22
296.070663
 32
0.0
 13
350.996841
 23
296.070663
 33
0.0
  0
MTEXT
  5
178
330
170
100
AcDbEntity
  8
0
 62
    95
370
    13
100
AcDbMText
 10
345.746841
 20
306.020663
 30
0.0
 40
3.5
 41
0.0
 71
     5
 72
     1
  1
\A1;20
  7
cesky
 11
0.0
 21
1.0
 31
0.0
 73
     1
 44
1.0
  0
POINT
  5
179
330
170
100
AcDbEntity
  8
Defpoints
 62
     0
100
AcDbPoint
 10
333.798802
 20
315.970663
 30
0.0
  0
POINT
  5
17A
330
170
100
AcDbEntity
  8
Defpoints
 62
     0
100
AcDbPoint
 10
337.552053
 20
296.070663
 30
0.0
  0
POINT
  5
17B
330
170
100
AcDbEntity
  8
Defpoints
 62
     0
100
AcDbPoint
 10
350.996841
 20
296.070663
 30
0.0
  0
ENDBLK
  5
172
330
170
100
AcDbEntity
  8
0
100
AcDbBlockEnd
  0
BLOCK
  5
183
330
17C
100
AcDbEntity
  8
0
100
AcDbBlockBegin
  2
_U2
 70
     0
 10
0.0
 20
0.0
 30
0.0
  3
_U2
  1

  0
ENDBLK
  5
184
330
17C
100
AcDbEntity
  8
0
100
AcDbBlockEnd
  0
BLOCK
  5
189
330
188
100
AcDbEntity
  8
0
100
AcDbBlockBegin
  2
*D7
 70
     1
 10
0.0
 20
0.0
 30
0.0
  3
*D7
  1

  0
LINE
  5
18B
330
188
100
AcDbEntity
  8
0
 62
   254
370
    -2
100
AcDbLine
 10
263.80222
 20
315.970663
 30
0.0
 11
160.926578
 21
315.970663
 31
0.0
  0
LINE
  5
18C
330
188
100
AcDbEntity
  8
0
 62
   254
370
    -2
100
AcDbLine
 10
212.552053
 20
297.220663
 30
0.0
 11
160.926578
 21
297.220663
 31
0.0
  0
LINE
  5
18D
330
188
100
AcDbEntity
  8
0
 62
   254
370
    -2
100
AcDbLine
 10
161.926578
 20
312.470663
 30
0.0
 11
161.926578
 21
300.720663
 31
0.0
  0
SOLID
  5
18E
330
188
100
AcDbEntity
  8
0
 62
   254
100
AcDbTrace
 10
162.509912
 20
312.470663
 30
0.0
 11
161.343245
 21
312.470663
 31
0.0
 12
161.926578
 22
315.970663
 32
0.0
 13
161.926578
 23
315.970663
 33
0.0
  0
SOLID
  5
18F
330
188
100
AcDbEntity
  8
0
 62
   254
100
AcDbTrace
 10
161.343245
 20
300.720663
 30
0.0
 11
162.509912
 21
300.720663
 31
0.0
 12
161.926578
 22
297.220663
 32
0.0
 13
161.926578
 23
297.220663
 33
0.0
  0
MTEXT
  5
190
330
188
100
AcDbEntity
  8
0
 62
   254
370
    13
100
AcDbMText
 10
156.676578
 20
306.595663
 30
0.0
 40
3.5
 41
0.0
 71
     5
 72
     1
  1
\A1;18.75
  7
cesky
 11
0.0
 21
1.0
 31
0.0
 73
     1
 44
1.0
  0
POINT
  5
191
330
188
100
AcDbEntity
  8
Defpoints
 62
     0
100
AcDbPoint
 10
263.80222
 20
315.970663
 30
0.0
  0
POINT
  5
192
330
188
100
AcDbEntity
  8
Defpoints
 62
     0
100
AcDbPoint
 10
212.552053
 20
297.220663
 30
0.0
  0
POINT
  5
193
330
188
100
AcDbEntity
  8
Defpoints
 62
     0
100
AcDbPoint
 10
161.926578
 20
297.220663
 30
0.0
  0
ENDBLK
  5
18A
330
188
100
AcDbEntity
  8
0
100
AcDbBlockEnd
  0
BLOCK
  5
19B
330
194
100
AcDbEntity
  8
0
100
AcDbBlockBegin
  2
_U3
 70
     0
 10
0.0
 20
0.0
 30
0.0
  3
_U3
  1

  0
ENDBLK
  5
19C
330
194
100
AcDbEntity
  8
0
100
AcDbBlockEnd
  0
BLOCK
  5
1A5
330
19D
100
AcDbEntity
  8
0
100
AcDbBlockBegin
  2
_U4
 70
     0
 10
0.0
 20
0.0
 30
0.0
  3
_U4
  1

  0
ENDBLK
  5
1A6
330
19D
100
AcDbEntity
  8
0
100
AcDbBlockEnd
  0
ENDSEC
  0
SECTION
  2
ENTITIES
  0
POINT
  5
73
330
1F
100
AcDbEntity
  8
30
 60
     1
100
AcDbPoint
 10
237.552053
 20
375.970663
 30
0.0
  0
POINT
  5
75
102
{ACAD_REACTORS
330
24D
102
}
330
1F
100
AcDbEntity
  8
80
100
AcDbPoint
 10
248.052053
 20
306.020663
 30
0.0
  0
POINT
  5
77
330
1F
100
AcDbEntity
  8
81
100
AcDbPoint
 10
212.552053
 20
297.220663
 30
0.0
  0
LINE
  5
78
330
1F
100
AcDbEntity
  8
1
100
AcDbLine
 10
213.552053
 20
295.395128
 30
0.0
 11
213.552053
 21
295.361489
 31
0.0
  0
LINE
  5
7A
330
1F
100
AcDbEntity
  8
1
100
AcDbLine
 10
213.552053
 20
295.408175
 30
0.0
 11
213.552053
 21
295.395128
 31
0.0
  0
LINE
  5
7B
330
1F
100
AcDbEntity
  8
1
100
AcDbLine
 10
213.552053
 20
295.395128
 30
0.0
 11
221.735236
 21
295.395128
 31
0.0
  0
LINE
  5
7C
330
1F
100
AcDbEntity
  8
1
100
AcDbLine
 10
213.552053
 20
295.361489
 30
0.0
 11
221.941488
 21
295.361489
 31
0.0
  0
LINE
  5
7D
330
1F
100
AcDbEntity
  8
1
100
AcDbLine
 10
213.552053
 20
295.395128
 30
0.0
 11
213.552053
 21
295.361489
 31
0.0
  0
LINE
  5
7E
330
1F
100
AcDbEntity
  8
1
100
AcDbLine
 10
213.552053
 20
295.408175
 30
0.0
 11
213.552053
 21
295.395128
 31
0.0
  0
LINE
  5
7F
330
1F
100
AcDbEntity
  8
1
100
AcDbLine
 10
213.552053
 20
295.395128
 30
0.0
 11
221.735236
 21
295.395128
 31
0.0
  0
LINE
  5
80
330
1F
100
AcDbEntity
  8
1
100
AcDbLine
 10
213.552053
 20
295.361489
 30
0.0
 11
221.941488
 21
295.361489
 31
0.0
  0
LINE
  5
81
330
1F
100
AcDbEntity
  8
1
100
AcDbLine
 10
213.552053
 20
295.361489
 30
0.0
 11
213.552053
 21
287.950429
 31
0.0
  0
LINE
  5
82
330
1F
100
AcDbEntity
  8
1
100
AcDbLine
 10
237.376243
 20
287.950429
 30
0.0
 11
213.552053
 21
287.950429
 31
0.0
  0
LINE
  5
83
330
1F
100
AcDbEntity
  8
1
100
AcDbLine
 10
239.162424
 20
294.616548
 30
0.0
 11
237.376243
 21
287.950429
 31
0.0
  0
LINE
  5
84
330
1F
100
AcDbEntity
  8
1
100
AcDbLine
 10
337.552053
 20
315.970663
 30
0.0
 11
248.75916
 21
315.970663
 31
0.0
  0
LINE
  5
85
330
1F
100
AcDbEntity
  8
1
100
AcDbLine
 10
248.75916
 20
296.070663
 30
0.0
 11
337.552053
 21
296.070663
 31
0.0
  0
LINE
  5
86
330
1F
100
AcDbEntity
  8
1
100
AcDbLine
 10
337.552053
 20
315.970663
 30
0.0
 11
337.552053
 21
296.070663
 31
0.0
  0
LINE
  5
87
330
1F
100
AcDbEntity
  8
1
100
AcDbLine
 10
247.922644
 20
315.970663
 30
0.0
 11
248.75916
 21
315.970663
 31
0.0
  0
LINE
  5
88
330
1F
100
AcDbEntity
  8
1
100
AcDbLine
 10
248.75916
 20
296.070663
 30
0.0
 11
247.922644
 21
296.070663
 31
0.0
  0
LINE
  5
89
330
1F
100
AcDbEntity
  8
1
100
AcDbLine
 10
248.75916
 20
315.970663
 30
0.0
 11
248.75916
 21
296.070663
 31
0.0
  0
LINE
  5
8A
330
1F
100
AcDbEntity
  8
1
100
AcDbLine
 10
217.852053
 20
298.137399
 30
0.0
 11
217.852053
 21
298.189448
 31
0.0
  0
LINE
  5
8B
330
1F
100
AcDbEntity
  8
1
100
AcDbLine
 10
246.417563
 20
315.970663
 30
0.0
 11
247.922644
 21
315.970663
 31
0.0
  0
LINE
  5
8C
330
1F
100
AcDbEntity
  8
1
100
AcDbLine
 10
247.922644
 20
296.070663
 30
0.0
 11
246.417563
 21
296.070663
 31
0.0
  0
LINE
  5
8D
330
1F
100
AcDbEntity
  8
1
100
AcDbLine
 10
247.922644
 20
296.070663
 30
0.0
 11
247.922644
 21
315.970663
 31
0.0
  0
LINE
  5
8E
330
1F
100
AcDbEntity
  8
1
100
AcDbLine
 10
239.353455
 20
295.329482
 30
0.0
 11
239.162443
 21
294.616617
 31
0.0
  0
LINE
  5
8F
330
1F
100
AcDbEntity
  8
1
100
AcDbLine
 10
225.552053
 20
311.970663
 30
0.0
 11
229.552053
 21
315.970663
 31
0.0
  0
LINE
  5
90
330
1F
100
AcDbEntity
  8
1
100
AcDbLine
 10
239.162443
 20
294.616617
 30
0.0
 11
225.435457
 21
294.616617
 31
0.0
  0
LINE
  5
91
330
1F
100
AcDbEntity
  8
1
100
AcDbLine
 10
246.417563
 20
296.070663
 30
0.0
 11
240.31938
 21
296.070663
 31
0.0
  0
LINE
  5
92
330
1F
100
AcDbEntity
  8
1
100
AcDbLine
 10
246.417563
 20
296.070663
 30
0.0
 11
246.417563
 21
315.970663
 31
0.0
  0
LINE
  5
93
330
1F
100
AcDbEntity
  8
1
100
AcDbLine
 10
229.552053
 20
315.970663
 30
0.0
 11
246.417563
 21
315.970663
 31
0.0
  0
LINE
  5
94
330
1F
100
AcDbEntity
  8
1
100
AcDbLine
 10
225.552053
 20
298.157531
 30
0.0
 11
225.552053
 21
311.970663
 31
0.0
  0
LINE
  5
95
330
1F
100
AcDbEntity
  8
1
100
AcDbLine
 10
217.852053
 20
295.8311959999999
 30
0.0
 11
217.852053
 21
298.137399
 31
0.0
  0
LINE
  5
96
330
1F
100
AcDbEntity
  8
1
100
AcDbLine
 10
225.435457
 20
297.657805
 30
0.0
 11
225.435457
 21
294.616617
 31
0.0
  0
LINE
  5
97
330
1F
100
AcDbEntity
  8
1
100
AcDbLine
 10
216.408982
 20
296.9341359999999
 30
0.0
 11
214.280662
 21
296.932679
 31
0.0
  0
LINE
  5
99
330
1F
100
AcDbEntity
  8
1
100
AcDbLine
 10
217.852064
 20
297.71921
 30
0.0
 11
217.300254
 21
297.718832
 31
0.0
  0
LINE
  5
9A
330
1F
100
AcDbEntity
  8
1
100
AcDbLine
 10
212.762053
 20
295.426263
 30
0.0
 11
212.762053
 21
298.416588
 31
0.0
  0
LINE
  5
9B
330
1F
100
AcDbEntity
  8
1
100
AcDbLine
 10
217.852104
 20
296.223834
 30
0.0
 11
217.298716
 21
296.223455
 31
0.0
  0
LINE
  5
9C
330
1F
100
AcDbEntity
  8
1
100
AcDbLine
 10
230.608678
 20
308.370663
 30
0.0
 11
233.495429
 21
308.370663
 31
0.0
  0
LINE
  5
9E
330
1F
100
AcDbEntity
  8
1
100
AcDbLine
 10
233.495429
 20
308.370663
 30
0.0
 11
234.938805
 21
305.870663
 31
0.0
  0
LINE
  5
9F
330
1F
100
AcDbEntity
  8
1
100
AcDbLine
 10
234.938805
 20
305.870663
 30
0.0
 11
233.495429
 21
303.370663
 31
0.0
  0
LINE
  5
A0
330
1F
100
AcDbEntity
  8
1
100
AcDbLine
 10
233.495429
 20
303.370663
 30
0.0
 11
230.608678
 21
303.370663
 31
0.0
  0
LINE
  5
A1
330
1F
100
AcDbEntity
  8
1
100
AcDbLine
 10
229.165302
 20
305.870663
 30
0.0
 11
230.608678
 21
308.370663
 31
0.0
  0
LINE
  5
A2
330
1F
100
AcDbEntity
  8
1
100
AcDbLine
 10
230.608678
 20
303.370663
 30
0.0
 11
229.165302
 21
305.870663
 31
0.0
  0
LINE
  5
A3
330
1F
100
AcDbEntity
  8
1
100
AcDbLine
 10
213.030454
 20
295.424321
 30
0.0
 11
213.038551
 21
295.424687
 31
0.0
  0
LINE
  5
A4
330
1F
100
AcDbEntity
  8
1
100
AcDbLine
 10
218.977053
 20
295.408163
 30
0.0
 11
213.459177
 21
295.408163
 31
0.0
  0
LINE
  5
A5
330
1F
100
AcDbEntity
  8
1
100
AcDbLine
 10
218.977053
 20
295.408163
 30
0.0
 11
219.032082
 21
295.409734
 31
0.0
  0
LINE
  5
A6
330
1F
100
AcDbEntity
  8
1
100
AcDbLine
 10
219.48883
 20
295.44557
 30
0.0
 11
219.032082
 21
295.409734
 31
0.0
  0
LINE
  5
A7
330
1F
100
AcDbEntity
  8
1
100
AcDbLine
 10
221.374425
 20
295.451315
 30
0.0
 11
219.665607
 21
295.451315
 31
0.0
  0
LINE
  5
A8
330
1F
100
AcDbEntity
  8
1
100
AcDbLine
 10
212.562053
 20
298.219365
 30
0.0
 11
212.562053
 21
295.625698
 31
0.0
  0
LINE
  5
A9
330
1F
100
AcDbEntity
  8
1
100
AcDbLine
 10
214.661095
 20
295.52018
 30
0.0
 11
214.934389
 21
295.533668
 31
0.0
  0
LINE
  5
AA
330
1F
100
AcDbEntity
  8
1
100
AcDbLine
 10
215.98702
 20
295.773944
 30
0.0
 11
218.597093
 21
295.775731
 31
0.0
  0
LINE
  5
AB
330
1F
100
AcDbEntity
  8
1
100
AcDbLine
 10
215.83612
 20
295.767175
 30
0.0
 11
215.83612
 21
296.172124
 31
0.0
  0
LINE
  5
AC
330
1F
100
AcDbEntity
  8
1
100
AcDbLine
 10
214.934389
 20
298.38039
 30
0.0
 11
214.661095
 21
298.38593
 31
0.0
  0
LINE
  5
AD
330
1F
100
AcDbEntity
  8
1
100
AcDbLine
 10
215.83612
 20
298.173109
 30
0.0
 11
215.83612
 21
297.76816
 31
0.0
  0
LINE
  5
AE
330
1F
100
AcDbEntity
  8
1
100
AcDbLine
 10
217.852136
 20
298.167823
 30
0.0
 11
215.98702
 21
298.166546
 31
0.0
  0
LINE
  5
AF
330
1F
100
AcDbEntity
  8
1
100
AcDbLine
 10
213.552053
 20
295.361489
 30
0.0
 11
213.552053
 21
287.950429
 31
0.0
  0
LINE
  5
B0
330
1F
100
AcDbEntity
  8
1
100
AcDbLine
 10
237.376243
 20
287.950429
 30
0.0
 11
213.552053
 21
287.950429
 31
0.0
  0
LINE
  5
B1
330
1F
100
AcDbEntity
  8
1
100
AcDbLine
 10
239.162424
 20
294.616548
 30
0.0
 11
237.376243
 21
287.950429
 31
0.0
  0
LINE
  5
B2
330
1F
100
AcDbEntity
  8
1
100
AcDbLine
 10
217.852053
 20
298.137399
 30
0.0
 11
217.852053
 21
298.189448
 31
0.0
  0
LINE
  5
B3
330
1F
100
AcDbEntity
  8
1
100
AcDbLine
 10
239.162443
 20
294.616617
 30
0.0
 11
225.435457
 21
294.616617
 31
0.0
  0
LINE
  5
B4
330
1F
100
AcDbEntity
  8
1
100
AcDbLine
 10
248.75916
 20
296.070663
 30
0.0
 11
247.922644
 21
296.070663
 31
0.0
  0
LINE
  5
B5
330
1F
100
AcDbEntity
  8
1
100
AcDbLine
 10
247.922644
 20
296.070663
 30
0.0
 11
246.417563
 21
296.070663
 31
0.0
  0
LINE
  5
B6
330
1F
100
AcDbEntity
  8
1
100
AcDbLine
 10
239.353455
 20
295.329482
 30
0.0
 11
239.162443
 21
294.616617
 31
0.0
  0
LINE
  5
B7
330
1F
100
AcDbEntity
  8
1
100
AcDbLine
 10
246.417563
 20
296.070663
 30
0.0
 11
240.31938
 21
296.070663
 31
0.0
  0
LINE
  5
B8
330
1F
100
AcDbEntity
  8
1
100
AcDbLine
 10
229.552053
 20
315.970663
 30
0.0
 11
225.552053
 21
311.970663
 31
0.0
  0
LINE
  5
B9
330
1F
100
AcDbEntity
  8
1
100
AcDbLine
 10
225.552053
 20
298.157531
 30
0.0
 11
225.552053
 21
311.970663
 31
0.0
  0
LINE
  5
BA
330
1F
100
AcDbEntity
  8
1
100
AcDbLine
 10
247.922644
 20
315.970663
 30
0.0
 11
248.75916
 21
315.970663
 31
0.0
  0
LINE
  5
BB
330
1F
100
AcDbEntity
  8
1
100
AcDbLine
 10
248.75916
 20
315.970663
 30
0.0
 11
248.75916
 21
296.070663
 31
0.0
  0
LINE
  5
BC
330
1F
100
AcDbEntity
  8
1
100
AcDbLine
 10
217.852053
 20
295.8311959999999
 30
0.0
 11
217.852053
 21
298.137399
 31
0.0
  0
LINE
  5
BD
330
1F
100
AcDbEntity
  8
1
100
AcDbLine
 10
246.417563
 20
315.970663
 30
0.0
 11
247.922644
 21
315.970663
 31
0.0
  0
LINE
  5
BE
330
1F
100
AcDbEntity
  8
1
100
AcDbLine
 10
247.922644
 20
296.070663
 30
0.0
 11
247.922644
 21
315.970663
 31
0.0
  0
LINE
  5
BF
330
1F
100
AcDbEntity
  8
1
100
AcDbLine
 10
246.417563
 20
296.070663
 30
0.0
 11
246.417563
 21
315.970663
 31
0.0
  0
LINE
  5
C0
330
1F
100
AcDbEntity
  8
1
100
AcDbLine
 10
225.435457
 20
297.657805
 30
0.0
 11
225.435457
 21
294.616617
 31
0.0
  0
LINE
  5
C3
330
1F
100
AcDbEntity
  8
80
100
AcDbLine
 10
248.052053
 20
306.020663
 30
0.0
 11
248.052053
 21
305.520663
 31
0.0
  0
LINE
  5
C5
330
1F
100
AcDbEntity
  8
81
100
AcDbLine
 10
212.552053
 20
297.220663
 30
0.0
 11
211.833028
 21
297.220663
 31
0.0
  0
LINE
  5
C6
330
1F
100
AcDbEntity
  8
81
100
AcDbLine
 10
212.552053
 20
297.220663
 30
0.0
 11
212.552053
 21
296.720663
 31
0.0
  0
LINE
  5
C7
330
1F
100
AcDbEntity
  8
80
100
AcDbLine
 10
248.052053
 20
306.020663
 30
0.0
 11
247.552053
 21
306.020663
 31
0.0
  0
LINE
  5
C8
330
1F
100
AcDbEntity
  8
SK1
100
AcDbLine
 10
248.75916
 20
296.070663
 30
0.0
 11
337.552053
 21
296.070663
 31
0.0
  0
LINE
  5
C9
330
1F
100
AcDbEntity
  8
SK1
100
AcDbLine
 10
337.552053
 20
315.970663
 30
0.0
 11
248.75916
 21
315.970663
 31
0.0
  0
LINE
  5
CA
330
1F
100
AcDbEntity
  8
SK1
100
AcDbLine
 10
337.552053
 20
315.970663
 30
0.0
 11
337.552053
 21
296.070663
 31
0.0
  0
LINE
  5
CB
330
1F
100
AcDbEntity
  8
1
100
AcDbLine
 10
229.552053
 20
315.970663
 30
0.0
 11
246.417563
 21
315.970663
 31
0.0
  0
LINE
  5
CC
330
1F
100
AcDbEntity
  8
NOCUT
100
AcDbLine
 10
213.552053
 20
295.395128
 30
0.0
 11
213.552053
 21
295.361489
 31
0.0
  0
LINE
  5
CE
330
1F
100
AcDbEntity
  8
NOCUT
100
AcDbLine
 10
213.552053
 20
295.395128
 30
0.0
 11
221.735236
 21
295.395128
 31
0.0
  0
LINE
  5
CF
330
1F
100
AcDbEntity
  8
NOCUT
100
AcDbLine
 10
213.552053
 20
295.361489
 30
0.0
 11
221.941488
 21
295.361489
 31
0.0
  0
LINE
  5
D0
330
1F
100
AcDbEntity
  8
NOCUT
100
AcDbLine
 10
213.552053
 20
297.689441
 30
0.0
 11
213.552053
 21
296.921654
 31
0.0
  0
LINE
  5
D1
330
1F
100
AcDbEntity
  8
NOCUT
100
AcDbLine
 10
217.852194
 20
297.689441
 30
0.0
 11
213.552053
 21
297.689441
 31
0.0
  0
LINE
  5
D2
330
1F
100
AcDbEntity
  8
NOCUT
100
AcDbLine
 10
213.552053
 20
296.921654
 30
0.0
 11
213.552053
 21
296.848462
 31
0.0
  0
LINE
  5
D3
330
1F
100
AcDbEntity
  8
NOCUT
100
AcDbLine
 10
213.552053
 20
296.353795
 30
0.0
 11
213.552053
 21
295.395128
 31
0.0
  0
LINE
  5
D4
330
1F
100
AcDbEntity
  8
NOCUT
100
AcDbLine
 10
213.552053
 20
296.848462
 30
0.0
 11
213.552053
 21
296.43014
 31
0.0
  0
LINE
  5
D5
330
1F
100
AcDbEntity
  8
NOCUT
100
AcDbLine
 10
213.552053
 20
296.43014
 30
0.0
 11
213.552053
 21
296.353795
 31
0.0
  0
LINE
  5
D6
330
1F
100
AcDbEntity
  8
NOCUT
100
AcDbLine
 10
217.852053
 20
298.137399
 30
0.0
 11
217.852053
 21
298.189448
 31
0.0
  0
LINE
  5
D7
330
1F
100
AcDbEntity
  8
NOCUT
100
AcDbLine
 10
239.162424
 20
294.616548
 30
0.0
 11
237.376243
 21
287.950429
 31
0.0
  0
LINE
  5
D8
330
1F
100
AcDbEntity
  8
NOCUT
100
AcDbLine
 10
213.552053
 20
295.361489
 30
0.0
 11
213.552053
 21
287.950429
 31
0.0
  0
LINE
  5
D9
330
1F
100
AcDbEntity
  8
NOCUT
100
AcDbLine
 10
237.376243
 20
287.950429
 30
0.0
 11
213.552053
 21
287.950429
 31
0.0
  0
LINE
  5
DA
330
1F
100
AcDbEntity
  8
NOCUT
100
AcDbLine
 10
247.922644
 20
315.970663
 30
0.0
 11
248.75916
 21
315.970663
 31
0.0
  0
LINE
  5
DB
330
1F
100
AcDbEntity
  8
NOCUT
100
AcDbLine
 10
248.75916
 20
296.070663
 30
0.0
 11
247.922644
 21
296.070663
 31
0.0
  0
LINE
  5
DC
330
1F
100
AcDbEntity
  8
NOCUT
100
AcDbLine
 10
248.75916
 20
315.970663
 30
0.0
 11
248.75916
 21
296.070663
 31
0.0
  0
LINE
  5
DD
330
1F
100
AcDbEntity
  8
NOCUT
100
AcDbLine
 10
246.417563
 20
315.970663
 30
0.0
 11
247.922644
 21
315.970663
 31
0.0
  0
LINE
  5
DE
330
1F
100
AcDbEntity
  8
NOCUT
100
AcDbLine
 10
247.922644
 20
296.070663
 30
0.0
 11
246.417563
 21
296.070663
 31
0.0
  0
LINE
  5
DF
330
1F
100
AcDbEntity
  8
NOCUT
100
AcDbLine
 10
217.852053
 20
295.8311959999999
 30
0.0
 11
217.852053
 21
298.137399
 31
0.0
  0
LINE
  5
E0
330
1F
100
AcDbEntity
  8
NOCUT
100
AcDbLine
 10
229.552053
 20
315.970663
 30
0.0
 11
246.417563
 21
315.970663
 31
0.0
  0
LINE
  5
E1
330
1F
100
AcDbEntity
  8
NOCUT
100
AcDbLine
 10
239.353455
 20
295.329482
 30
0.0
 11
239.162443
 21
294.616617
 31
0.0
  0
LINE
  5
E2
330
1F
100
AcDbEntity
  8
NOCUT
100
AcDbLine
 10
246.417563
 20
296.070663
 30
0.0
 11
240.31938
 21
296.070663
 31
0.0
  0
LINE
  5
E3
330
1F
100
AcDbEntity
  8
NOCUT
100
AcDbLine
 10
225.552053
 20
311.970663
 30
0.0
 11
229.552053
 21
315.970663
 31
0.0
  0
LINE
  5
E4
330
1F
100
AcDbEntity
  8
NOCUT
100
AcDbLine
 10
225.552053
 20
298.157531
 30
0.0
 11
225.552053
 21
311.970663
 31
0.0
  0
CIRCLE
  5
E5
330
1F
100
AcDbEntity
  8
1
100
AcDbCircle
 10
232.052053
 20
305.870663
 30
0.0
 40
5.25
  0
ARC
  5
E6
330
1F
100
AcDbEntity
  8
1
100
AcDbCircle
 10
240.31938
 20
295.0706629999999
 30
0.0
 40
1.0
100
AcDbArc
 50
90.0
 51
165.0
  0
ARC
  5
E7
330
1F
100
AcDbEntity
  8
1
100
AcDbCircle
 10
215.161537
 20
296.523794
 30
0.0
 40
1.0
100
AcDbArc
 50
272.636633
 51
280.309075
  0
CIRCLE
  5
E8
330
1F
100
AcDbEntity
  8
1
100
AcDbCircle
 10
232.052053
 20
305.870663
 30
0.0
 40
5.0
  0
CIRCLE
  5
E9
330
1F
100
AcDbEntity
  8
1
100
AcDbCircle
 10
232.052053
 20
305.870663
 30
0.0
 40
4.800000000000001
  0
ARC
  5
EA
330
1F
100
AcDbEntity
  8
1
100
AcDbCircle
 10
240.31938
 20
295.0706629999999
 30
0.0
 40
1.0
100
AcDbArc
 50
90.0
 51
165.0
  0
CIRCLE
  5
EB
330
1F
100
AcDbEntity
  8
1
100
AcDbCircle
 10
232.052053
 20
305.870663
 30
0.0
 40
5.25
  0
ARC
  5
EC
330
1F
100
AcDbEntity
  8
NOCUT
100
AcDbCircle
 10
240.31938
 20
295.0706629999999
 30
0.0
 40
1.0
100
AcDbArc
 50
90.0
 51
165.0
  0
ELLIPSE
  5
ED
330
1F
100
AcDbEntity
  8
1
100
AcDbEllipse
 10
1041.777772
 20
281.731242
 30
0.0
 11
2182.124270300099
 21
-7.095731627502215
 31
0.0
210
0.0
220
0.0
230
1.0
 40
0.006819
 41
1.954685948212989
 42
1.957999567138634
  0
ELLIPSE
  5
EE
330
1F
100
AcDbEntity
  8
1
100
AcDbEllipse
 10
215.049399
 20
281.716933
 30
0.0
 11
28.57883832462845
 21
0.0000000000000335
 31
0.0
210
0.0
220
0.0
230
1.0
 40
0.5773500000000001
 41
1.231836100736944
 42
1.472570993005465
  0
ELLIPSE
  5
EF
330
1F
100
AcDbEntity
  8
1
100
AcDbEllipse
 10
215.013126
 20
281.424132
 30
0.0
 11
25.11473670969923
 21
0.0000000000000294
 31
0.0
210
0.0
220
0.0
230
1.0
 40
0.5773500000000001
 41
1.142865997542277
 42
1.457515892199871
  0
ELLIPSE
  5
F0
330
1F
100
AcDbEntity
  8
1
100
AcDbEllipse
 10
213.146287
 20
295.397178
 30
0.0
 11
-0.25
 21
0.0
 31
0.0
210
0.0
220
0.0
230
1.0
 40
0.078459
 41
4.036258470823719
 42
4.275562117183138
  0
ELLIPSE
  5
F1
330
1F
100
AcDbEntity
  8
1
100
AcDbEllipse
 10
213.459177
 20
295.427777
 30
0.0
 11
0.25
 21
0.0
 31
0.0
210
0.0
220
0.0
230
1.0
 40
0.078459
 41
4.036258470824011
 42
4.71238898038469
  0
ELLIPSE
  5
F2
330
1F
100
AcDbEntity
  8
1
100
AcDbEllipse
 10
219.665607
 20
295.4316999999999
 30
0.0
 11
-0.25
 21
0.0
 31
0.0
210
0.0
220
0.0
230
1.0
 40
0.078459
 41
4.71238898038469
 42
5.497787143782124
  0
ELLIPSE
  5
F3
330
1F
100
AcDbEntity
  8
1
100
AcDbEllipse
 10
212.67061
 20
298.341481
 30
0.0
 11
0.5499860792976067
 21
-0.0267178054919968
 31
0.0
210
0.0
220
0.0
230
1.0
 40
0.146738
 41
1.31295657560258
 42
1.389626978397114
  0
ELLIPSE
  5
F4
330
1F
100
AcDbEntity
  8
1
100
AcDbEllipse
 10
212.67061
 20
295.416266
 30
0.0
 11
0.5499999984396173
 21
0.0261443806107503
 31
0.0
210
0.0
220
0.0
230
0.9999999999999998
 40
0.009819
 41
1.30536153769553
 42
1.382031939817375
  0
ELLIPSE
  5
F5
330
1F
100
AcDbEntity
  8
1
100
AcDbEllipse
 10
213.27293
 20
298.639324
 30
0.0
 11
1.749955539493761
 21
-0.0850112013714646
 31
0.0
210
0.0
220
0.0
230
0.9999999999999998
 40
0.146738
 41
4.454549246008502
 42
5.327306932792148
  0
ELLIPSE
  5
F6
330
1F
100
AcDbEntity
  8
1
100
AcDbEllipse
 10
213.27293
 20
295.46674
 30
0.0
 11
1.749999809233889
 21
0.083186655903447
 31
0.0
210
0.0
220
0.0
230
0.9999999999999998
 40
0.009819
 41
4.446954214739731
 42
5.31971190158803
  0
ELLIPSE
  5
F7
330
1F
100
AcDbEntity
  8
1
100
AcDbEllipse
 10
214.84333
 20
298.232654
 30
0.0
 11
0.9999745938974752
 21
-0.0485778293408815
 31
0.0
210
0.0
220
0.0
230
1.0
 40
0.146738
 41
1.761184166894573
 42
2.185714279188909
  0
ELLIPSE
  5
F8
330
1F
100
AcDbEntity
  8
1
100
AcDbEllipse
 10
214.84333
 20
295.519165
 30
0.0
 11
0.9999998912176415
 21
0.0475352319546997
 31
0.0
210
0.0
220
0.0
230
1.0
 40
0.009819
 41
1.753589135753703
 42
2.178119247943512
  0
ELLIPSE
  5
F9
330
1F
100
AcDbEntity
  8
1
100
AcDbEllipse
 10
214.703652
 20
296.155656
 30
0.0
 11
1.132463916984326
 21
0.0169944321950394
 31
0.0
210
0.0
220
0.0
230
1.0
 40
0.176023
 41
6.28054381232463
 42
6.778755397373004
  0
ELLIPSE
  5
FA
330
1F
100
AcDbEntity
  8
1
100
AcDbEllipse
 10
214.703652
 20
297.751692
 30
0.0
 11
1.132463916919564
 21
0.016994432191776
 31
0.0
210
0.0
220
0.0
230
0.9999999999999998
 40
0.176023
 41
5.782332227261852
 42
6.280543812324851
  0
ELLIPSE
  5
FB
330
1F
100
AcDbEntity
  8
1
100
AcDbEllipse
 10
1042.549429
 20
281.715766
 30
0.0
 11
2183.295197849097
 21
-7.104417568341817
 31
0.0
210
0.0
220
0.0
230
1.0
 40
0.006822
 41
1.954850535601019
 42
1.95816259758784
  0
ELLIPSE
  5
FC
330
1F
100
AcDbEntity
  8
1
100
AcDbEllipse
 10
215.049399
 20
281.716933
 30
0.0
 11
28.57883832467767
 21
0.0000000000000335
 31
0.0
210
0.0
220
0.0
230
1.0
 40
0.5773500000000001
 41
1.23183610073749
 42
1.472570993005577
  0
ELLIPSE
  5
FD
330
1F
100
AcDbEntity
  8
1
100
AcDbEllipse
 10
215.013126
 20
281.424132
 30
0.0
 11
25.11473670969923
 21
0.0000000000000294
 31
0.0
210
0.0
220
0.0
230
1.0
 40
0.5773500000000001
 41
1.142865997542277
 42
1.457515892199871
  0
ELLIPSE
  5
102
330
1F
100
AcDbEntity
  8
NOCUT
100
AcDbEllipse
 10
1042.549429
 20
281.715766
 30
0.0
 11
2183.295197849097
 21
-7.104417568341817
 31
0.0
210
0.0
220
0.0
230
1.0
 40
0.006822
 41
1.954850535601019
 42
1.95816259758784
  0
SPLINE
  5
103
330
1F
100
AcDbEntity
  8
1
100
AcDbSpline
210
0.0
220
0.0
230
1.0
 70
     8
 71
     3
 72
    21
 73
    17
 74
     0
 42
0.000000001
 43
0.0000000001
 40
0.0
 40
0.0
 40
0.0
 40
0.0
 40
0.2224088551493796
 40
0.2224088551493796
 40
0.2923046849043171
 40
0.2923046849043171
 40
0.3622005146592544
 40
0.3622005146592544
 40
0.5019921741691605
 40
0.6417838336790667
 40
0.6417838336790667
 40
0.7116796634340201
 40
0.7116796634340201
 40
0.7815754931889732
 40
0.7815754931889732
 40
1.0
 40
1.0
 40
1.0
 40
1.0
 10
235.8737945066486
 20
294.6161507595154
 30
0.0
 10
235.7831036074176
 20
294.6010627000923
 30
0.0
 10
235.6894930543439
 20
294.5889375424101
 30
0.0
 10
235.5624278960434
 20
294.5772798475101
 30
0.0
 10
235.5316965096767
 20
294.5748156597111
 30
0.0
 10
235.4703862711585
 20
294.5706081059496
 30
0.0
 10
235.439715408952
 20
294.5688551651168
 30
0.0
 10
235.3476563014779
 20
294.5646387923413
 30
0.0
 10
235.2247869824331
 20
294.5617935170769
 30
0.0
 10
235.1016721157259
 20
294.56447826056
 30
0.0
 10
235.009242036509
 20
294.5685982636277
 30
0.0
 10
234.9783855301878
 20
294.5703252061637
 30
0.0
 10
234.9167697079841
 20
294.5744843155352
 30
0.0
 10
234.8862298245832
 20
294.5769009037418
 30
0.0
 10
234.7613292865321
 20
294.5882121915793
 30
0.0
 10
234.6692331487606
 20
294.5999389697811
 30
0.0
 10
234.5795995562261
 20
294.6146183275203
 30
0.0
  0
SPLINE
  5
104
330
1F
100
AcDbEntity
  8
1
100
AcDbSpline
210
0.0
220
0.0
230
1.0
 70
     8
 71
     3
 72
     8
 73
     4
 74
     0
 42
0.000000001
 43
0.0000000001
 40
0.0
 40
0.0
 40
0.0
 40
0.0
 40
1.0
 40
1.0
 40
1.0
 40
1.0
 10
225.5028338206052
 20
298.88864791444
 30
0.0
 10
225.5210600440936
 20
298.9506461628072
 30
0.0
 10
225.5344167393493
 20
299.0128181248392
 30
0.0
 10
225.5426193244742
 20
299.0751739526002
 30
0.0
  0
SPLINE
  5
105
330
1F
100
AcDbEntity
  8
1
100
AcDbSpline
210
0.0
220
0.0
230
1.0
 70
     8
 71
     3
 72
    35
 73
    31
 74
     0
 42
0.000000001
 43
0.0000000001
 40
0.0
 40
0.0
 40
0.0
 40
0.0
 40
0.1249999999999761
 40
0.1249999999999761
 40
0.2499999999999523
 40
0.2499999999999523
 40
0.3124999999999564
 40
0.3124999999999564
 40
0.3749999999999606
 40
0.3749999999999606
 40
0.4374999999999649
 40
0.4374999999999649
 40
0.499999999999969
 40
0.499999999999969
 40
0.562499999999973
 40
0.562499999999973
 40
0.6249999999999773
 40
0.6249999999999773
 40
0.6874999999999814
 40
0.6874999999999814
 40
0.7499999999999857
 40
0.7499999999999857
 40
0.8124999999999896
 40
0.8124999999999896
 40
0.8437499999999863
 40
0.8437499999999863
 40
0.8749999999999829
 40
0.9374999999999912
 40
0.9374999999999912
 40
1.0
 40
1.0
 40
1.0
 40
1.0
 10
224.8198980826014
 20
298.2216321162891
 30
0.0
 10
224.8641573985462
 20
298.2335827840071
 30
0.0
 10
224.9069953116579
 20
298.2483580049604
 30
0.0
 10
224.9901235874804
 20
298.2834812746663
 30
0.0
 10
225.0304129751367
 20
298.3038284804426
 30
0.0
 10
225.0890276791408
 20
298.3388070475807
 30
0.0
 10
225.1082800930395
 20
298.3512260787193
 30
0.0
 10
225.1460988814848
 20
298.3775992430308
 30
0.0
 10
225.1645202135809
 20
298.3914508084136
 30
0.0
 10
225.2003919367877
 20
298.4205055077585
 30
0.0
 10
225.2178796986302
 20
298.4357466643731
 30
0.0
 10
225.2515897792711
 20
298.4673456063216
 30
0.0
 10
225.267833948699
 20
298.4837161796392
 30
0.0
 10
225.2990994461895
 20
298.5175785211948
 30
0.0
 10
225.314069766971
 20
298.5350227165726
 30
0.0
 10
225.3424454929145
 20
298.5705447114618
 30
0.0
 10
225.3559301534382
 20
298.5887274821176
 30
0.0
 10
225.3811326220706
 20
298.6252401423102
 30
0.0
 10
225.3929102931865
 20
298.6436515216184
 30
0.0
 10
225.4146864425576
 20
298.6802174176153
 30
0.0
 10
225.4246439943782
 20
298.6982937904875
 30
0.0
 10
225.4428557721544
 20
298.733769056138
 30
0.0
 10
225.4510051348
 20
298.7509608229501
 30
0.0
 10
225.4619860998916
 20
298.7757573944561
 30
0.0
 10
225.4654296876723
 20
298.7838383561207
 30
0.0
 10
225.4718583675584
 20
298.7994512023895
 30
0.0
 10
225.4808444166684
 20
298.8221174597418
 30
0.0
 10
225.4880659661023
 20
298.8424721503582
 30
0.0
 10
225.4964004143816
 20
298.8673853008494
 30
0.0
 10
225.4999195587554
 20
298.8787347730762
 30
0.0
 10
225.5028338206052
 20
298.88864791444
 30
0.0
  0
SPLINE
  5
106
330
1F
100
AcDbEntity
  8
1
100
AcDbSpline
210
0.0
220
0.0
230
1.0
 70
     8
 71
     3
 72
     9
 73
     5
 74
     0
 42
0.000000001
 43
0.0000000001
 40
0.0
 40
0.0
 40
0.0
 40
0.0
 40
0.5
 40
1.0
 40
1.0
 40
1.0
 40
1.0
 10
224.552053374873
 20
298.1862045355911
 30
0.0
 10
224.5975495999976
 20
298.1861819127789
 30
0.0
 10
224.6876736242105
 20
298.1921538615722
 30
0.0
 10
224.7761114705002
 20
298.2098090855768
 30
0.0
 10
224.8198980826014
 20
298.2216321162891
 30
0.0
  0
SPLINE
  5
107
330
1F
100
AcDbEntity
  8
1
100
AcDbSpline
210
0.0
220
0.0
230
1.0
 70
     8
 71
     3
 72
    15
 73
    11
 74
     0
 42
0.000000001
 43
0.0000000001
 40
0.0
 40
0.0
 40
0.0
 40
0.0
 40
0.25
 40
0.5
 40
0.5
 40
0.625
 40
0.625
 40
0.75
 40
0.75
 40
1.0
 40
1.0
 40
1.0
 40
1.0
 10
225.552053374873
 20
298.1575310565854
 30
0.0
 10
225.5520533748729
 20
298.1139970601864
 30
0.0
 10
225.5470554124018
 20
298.0277737751912
 30
0.0
 10
225.5324334003701
 20
297.9431770549826
 30
0.0
 10
225.5178342891533
 20
297.880343462497
 30
0.0
 10
225.512360844968
 20
297.859501533471
 30
0.0
 10
225.5001752085403
 20
297.818027036765
 30
0.0
 10
225.4934463783274
 20
297.7973485853616
 30
0.0
 10
225.4714553470276
 20
297.7359496967711
 30
0.0
 10
225.454552719971
 20
297.696266146054
 30
0.0
 10
225.4354566338777
 20
297.6578046272983
 30
0.0
  0
SPLINE
  5
108
330
1F
100
AcDbEntity
  8
1
100
AcDbSpline
210
0.0
220
0.0
230
1.0
 70
     8
 71
     3
 72
    26
 73
    22
 74
     0
 42
0.000000001
 43
0.0000000001
 40
0.0
 40
0.0
 40
0.0
 40
0.0
 40
0.1250000000000079
 40
0.1250000000000079
 40
0.2500000000000157
 40
0.2500000000000157
 40
0.3750000000000235
 40
0.3750000000000235
 40
0.4375000000000095
 40
0.4375000000000095
 40
0.4999999999999954
 40
0.4999999999999954
 40
0.6249999999999968
 40
0.6249999999999968
 40
0.7499999999999979
 40
0.7499999999999979
 40
0.8124999999999984
 40
0.8124999999999984
 40
0.8749999999999987
 40
0.8749999999999987
 40
1.0
 40
1.0
 40
1.0
 40
1.0
 10
225.4354566338779
 20
297.6578046273018
 30
0.0
 10
225.4127110408418
 20
297.6169324792519
 30
0.0
 10
225.3871692492833
 20
297.5790486508012
 30
0.0
 10
225.330762405354
 20
297.508970005066
 30
0.0
 10
225.2998681466042
 20
297.4767520853123
 30
0.0
 10
225.2328057312411
 20
297.4181721867883
 30
0.0
 10
225.1975651310316
 20
297.3926054990877
 30
0.0
 10
225.142387176728
 20
297.3593022885048
 30
0.0
 10
225.1236064224298
 20
297.3490465528081
 30
0.0
 10
225.0852900623962
 20
297.3301792382103
 30
0.0
 10
225.0657264649253
 20
297.3215568862528
 30
0.0
 10
225.0060963747641
 20
297.2981910460738
 30
0.0
 10
224.9657613038416
 20
297.2861811823477
 30
0.0
 10
224.8840576354866
 20
297.2684999576056
 30
0.0
 10
224.8426881700884
 20
297.2628339197262
 30
0.0
 10
224.7799039511324
 20
297.2588119993383
 30
0.0
 10
224.7589651243903
 20
297.2582296414797
 30
0.0
 10
224.7172745114398
 20
297.2585022009108
 30
0.0
 10
224.6964888824648
 20
297.2593549803002
 30
0.0
 10
224.634302401545
 20
297.263959246104
 30
0.0
 10
224.5930712656543
 20
297.2697483764682
 30
0.0
 10
224.5520533748728
 20
297.2780977690817
 30
0.0
  0
SPLINE
  5
109
330
1F
100
AcDbEntity
  8
1
100
AcDbSpline
210
0.0
220
0.0
230
1.0
 70
     8
 71
     2
 72
     6
 73
     3
 74
     0
 42
0.000000001
 43
0.0000000001
 40
0.0
 40
0.0
 40
0.0
 40
1.0
 40
1.0
 40
1.0
 10
215.3365170642826
 20
295.5392293030174
 30
0.0
 10
215.3445516988334
 20
295.5413748466858
 30
0.0
 10
215.3545556161008
 20
295.5432326887665
 30
0.0
  0
SPLINE
  5
10A
330
1F
100
AcDbEntity
  8
1
100
AcDbSpline
210
0.0
220
0.0
230
1.0
 70
    24
 71
     1
 72
     4
 73
     2
 74
     0
 42
0.000000001
 43
0.0000000001
 40
0.0
 40
0.0
 40
1.0
 40
1.0
 10
212.7571799054157
 20
295.42636717378
 30
0.0
 10
212.8708630555838
 20
295.4226586257446
 30
0.0
  0
SPLINE
  5
10B
330
1F
100
AcDbEntity
  8
1
100
AcDbSpline
210
0.0
220
0.0
230
1.0
 70
     8
 71
     3
 72
    10
 73
     6
 74
     0
 42
0.000000001
 43
0.0000000001
 40
0.0
 40
0.0
 40
0.0
 40
0.0
 40
0.503717365139231
 40
0.503717365139231
 40
1.0
 40
1.0
 40
1.0
 40
1.0
 10
213.0304695550213
 20
295.424321463492
 30
0.0
 10
213.3966785013456
 20
295.4412705128602
 30
0.0
 10
213.7627809089099
 20
295.4582061865793
 30
0.0
 10
214.4891214354417
 20
295.4917730831393
 30
0.0
 10
214.849432524858
 20
295.5084112135192
 30
0.0
 10
215.2090479949518
 20
295.5249716608489
 30
0.0
  0
SPLINE
  5
10C
330
1F
100
AcDbEntity
  8
1
100
AcDbSpline
210
0.0
220
0.0
230
1.0
 70
     8
 71
     3
 72
     8
 73
     4
 74
     0
 42
0.000000001
 43
0.0000000001
 40
0.0
 40
0.0
 40
0.0
 40
0.0
 40
1.0
 40
1.0
 40
1.0
 40
1.0
 10
212.8869342762833
 20
295.4227780143714
 30
0.0
 10
212.9093048098668
 20
295.422048247023
 30
0.0
 10
212.9569633555304
 20
295.42253493766
 30
0.0
 10
213.0304504685847
 20
295.4243205801248
 30
0.0
  0
SPLINE
  5
10D
330
1F
100
AcDbEntity
  8
1
100
AcDbSpline
210
0.0
220
0.0
230
1.0
 70
     8
 71
     3
 72
    10
 73
     6
 74
     0
 42
0.000000001
 43
0.0000000001
 40
0.0
 40
0.0
 40
0.0
 40
0.0
 40
0.480050186065774
 40
0.480050186065774
 40
1.0
 40
1.0
 40
1.0
 40
1.0
 10
215.2090479949518
 20
295.5249716608489
 30
0.0
 10
215.1568708739202
 20
295.5259609849804
 30
0.0
 10
215.1120700049171
 20
295.5273117263252
 30
0.0
 10
215.0219114343317
 20
295.5302787627151
 30
0.0
 10
214.9775832163884
 20
295.5319458748522
 30
0.0
 10
214.9343887304663
 20
295.5336680875041
 30
0.0
  0
SPLINE
  5
10E
330
1F
100
AcDbEntity
  8
1
100
AcDbSpline
210
0.0
220
0.0
230
1.0
 70
     8
 71
     3
 72
    26
 73
    22
 74
     0
 42
0.000000001
 43
0.0000000001
 40
0.0
 40
0.0
 40
0.0
 40
0.0
 40
0.0940293775612391
 40
0.1819421685560253
 40
0.2640494572247032
 40
0.340650649238844
 40
0.4120338178657636
 40
0.478476014606633
 40
0.5402435474790403
 40
0.5975922298589601
 40
0.6507676025640518
 40
0.7000051316475533
 40
0.7455303841776195
 40
0.7875591840986124
 40
0.8262977501071432
 40
0.8619428173248444
 40
0.8946817444105558
 40
0.9246926076259834
 40
0.9521442832493107
 40
0.9771965196206108
 40
1.0
 40
1.0
 40
1.0
 40
1.0
 10
215.2902020088515
 20
295.6198408919383
 30
0.0
 10
215.2936870163635
 20
295.6175720530254
 30
0.0
 10
215.3004303325548
 20
295.6131819625812
 30
0.0
 10
215.3098686318182
 20
295.6068169688785
 30
0.0
 10
215.3184377478978
 20
295.6008770390426
 30
0.0
 10
215.3261784653777
 20
295.5953406093933
 30
0.0
 10
215.3331560576878
 20
295.5901864140365
 30
0.0
 10
215.3394258513774
 20
295.5853940482428
 30
0.0
 10
215.3450417232931
 20
295.5809438186227
 30
0.0
 10
215.350054223894
 20
295.576816767116
 30
0.0
 10
215.3545111876218
 20
295.5729946545666
 30
0.0
 10
215.3584577359956
 20
295.5694599552556
 30
0.0
 10
215.361936410379
 20
295.5661958498768
 30
0.0
 10
215.364987283834
 20
295.5631862196677
 30
0.0
 10
215.3676480039179
 20
295.560415641234
 30
0.0
 10
215.3699540590697
 20
295.5578693808456
 30
0.0
 10
215.3719382734894
 20
295.555533392234
 30
0.0
 10
215.3736328146345
 20
295.5533943040292
 30
0.0
 10
215.3750629353738
 20
295.5514394419169
 30
0.0
 10
215.3762677152902
 20
295.549656737637
 30
0.0
 10
215.3769414428545
 20
295.5485246194038
 30
0.0
 10
215.3772624772959
 20
295.5479851595929
 30
0.0
  0
SPLINE
  5
10F
330
1F
100
AcDbEntity
  8
1
100
AcDbSpline
210
0.0
220
0.0
230
1.0
 70
     8
 71
     3
 72
    10
 73
     6
 74
     0
 42
0.000000001
 43
0.0000000001
 40
0.0
 40
0.0
 40
0.0
 40
0.0
 40
0.5
 40
0.5
 40
1.0
 40
1.0
 40
1.0
 40
1.0
 10
212.7735629691178
 20
298.4160502577884
 30
0.0
 10
212.761077914096
 20
298.416993589241
 30
0.0
 10
212.7486438159051
 20
298.4167607361075
 30
0.0
 10
212.7238889310626
 20
298.4138954757153
 30
0.0
 10
212.7114826748837
 20
298.4112321695341
 30
0.0
 10
212.6993949767115
 20
298.407317260315
 30
0.0
  0
SPLINE
  5
110
330
1F
100
AcDbEntity
  8
1
100
AcDbSpline
210
0.0
220
0.0
230
1.0
 70
     8
 71
     3
 72
    10
 73
     6
 74
     0
 42
0.000000001
 43
0.0000000001
 40
0.0
 40
0.0
 40
0.0
 40
0.0
 40
0.5
 40
0.5
 40
1.0
 40
1.0
 40
1.0
 40
1.0
 10
212.6993949767115
 20
295.4366166080794
 30
0.0
 10
212.7114849814949
 20
295.4326015268229
 30
0.0
 10
212.7237277231583
 20
295.4298048401952
 30
0.0
 10
212.7484810311574
 20
295.4264526951656
 30
0.0
 10
212.7610736683146
 20
295.4259061867598
 30
0.0
 10
212.7735629691178
 20
295.4264763895295
 30
0.0
  0
SPLINE
  5
111
330
1F
100
AcDbEntity
  8
1
100
AcDbSpline
210
0.0
220
0.0
230
1.0
 70
     8
 71
     3
 72
     8
 73
     4
 74
     0
 42
0.000000001
 43
0.0000000001
 40
0.0
 40
0.0
 40
0.0
 40
0.0
 40
1.0
 40
1.0
 40
1.0
 40
1.0
 10
212.5697365995839
 20
298.2738634457331
 30
0.0
 10
212.5646632712543
 20
298.2562412224229
 30
0.0
 10
212.5620533748731
 20
298.2377205743564
 30
0.0
 10
212.5620533748731
 20
298.2193649513964
 30
0.0
  0
SPLINE
  5
112
330
1F
100
AcDbEntity
  8
1
100
AcDbSpline
210
0.0
220
0.0
230
1.0
 70
     8
 71
     3
 72
    17
 73
    13
 74
     0
 42
0.000000001
 43
0.0000000001
 40
0.0
 40
0.0
 40
0.0
 40
0.0
 40
0.2499999999998556
 40
0.2499999999998556
 40
0.374999999999872
 40
0.374999999999872
 40
0.4999999999998885
 40
0.6249999999999049
 40
0.6249999999999049
 40
0.7499999999999212
 40
0.7499999999999212
 40
1.0
 40
1.0
 40
1.0
 40
1.0
 10
212.6993949767115
 20
298.407317260315
 30
0.0
 10
212.6838835540589
 20
298.4022934906382
 30
0.0
 10
212.6692967915601
 20
298.3955164323802
 30
0.0
 10
212.6487647145481
 20
298.3827947166627
 30
0.0
 10
212.6421098079457
 20
298.3780918435763
 30
0.0
 10
212.6294666947506
 20
298.3679346054762
 30
0.0
 10
212.6175564253487
 20
298.3570966559741
 30
0.0
 10
212.6070724883746
 20
298.3449338392142
 30
0.0
 10
212.5973137572332
 20
298.3320974056704
 30
0.0
 10
212.5927746540119
 20
298.3252972621584
 30
0.0
 10
212.5805796927936
 20
298.30432223473
 30
0.0
 10
212.5742423442699
 20
298.2895141653152
 30
0.0
 10
212.5697365995839
 20
298.2738634457331
 30
0.0
  0
SPLINE
  5
113
330
1F
100
AcDbEntity
  8
1
100
AcDbSpline
210
0.0
220
0.0
230
1.0
 70
     8
 71
     3
 72
    17
 73
    13
 74
     0
 42
0.000000001
 43
0.0000000001
 40
0.0
 40
0.0
 40
0.0
 40
0.0
 40
0.2500000000001605
 40
0.2500000000001605
 40
0.3750000000001639
 40
0.3750000000001639
 40
0.5000000000001674
 40
0.6250000000001707
 40
0.6250000000001707
 40
0.7500000000001741
 40
0.7500000000001741
 40
1.0
 40
1.0
 40
1.0
 40
1.0
 10
212.5697365995839
 20
295.5711366986583
 30
0.0
 10
212.5742422408536
 20
295.5554492850979
 30
0.0
 10
212.5805679750869
 20
295.5406288805135
 30
0.0
 10
212.5926887177654
 20
295.5196521052839
 30
0.0
 10
212.5972052091387
 20
295.5128297173332
 30
0.0
 10
212.6070027889935
 20
295.4998416096983
 30
0.0
 10
212.6175094555455
 20
295.4875586068221
 30
0.0
 10
212.6293911618935
 20
295.4766429220853
 30
0.0
 10
212.6419694332752
 20
295.4664198907601
 30
0.0
 10
212.6486459322631
 20
295.461635214944
 30
0.0
 10
212.669262577667
 20
295.448676298716
 30
0.0
 10
212.6838837466182
 20
295.4417678756205
 30
0.0
 10
212.6993949767115
 20
295.4366166080794
 30
0.0
  0
SPLINE
  5
114
330
1F
100
AcDbEntity
  8
1
100
AcDbSpline
210
0.0
220
0.0
230
1.0
 70
     8
 71
     3
 72
     8
 73
     4
 74
     0
 42
0.000000001
 43
0.0000000001
 40
0.0
 40
0.0
 40
0.0
 40
0.0
 40
1.0
 40
1.0
 40
1.0
 40
1.0
 10
212.5620533748731
 20
295.625698377791
 30
0.0
 10
212.5620533748731
 20
295.6073427548309
 30
0.0
 10
212.5646632712543
 20
295.5888006436709
 30
0.0
 10
212.5697365995839
 20
295.5711366986583
 30
0.0
  0
SPLINE
  5
115
330
1F
100
AcDbEntity
  8
1
100
AcDbSpline
210
0.0
220
0.0
230
1.0
 70
     8
 71
     3
 72
    58
 73
    54
 74
     0
 42
0.000000001
 43
0.0000000001
 40
0.0
 40
0.0
 40
0.0
 40
0.0
 40
0.0198866147695976
 40
0.0397400917338968
 40
0.0595617203184994
 40
0.0793527975250323
 40
0.0991146276737305
 40
0.1188485221382565
 40
0.1385557990729123
 40
0.1582377831324865
 40
0.1778958051848921
 40
0.1975312020170678
 40
0.2171453160341124
 40
0.236739494952231
 40
0.2563150914855016
 40
0.2758734630271097
 40
0.2954159713250496
 40
0.3149439821528719
 40
0.3344588649757538
 40
0.353961992612181
 40
0.3734547408917566
 40
0.3929384883094513
 40
0.4124146156766541
 40
0.4318845057695122
 40
0.4513495429749075
 40
0.4708111129345387
 40
0.4902706021874732
 40
0.5097293978116026
 40
0.5291888870645374
 40
0.548650457024176
 40
0.5681154942295846
 40
0.5875853843224482
 40
0.6070615116896558
 40
0.6265452591073712
 40
0.6460380073869763
 40
0.6655411350234292
 40
0.6850560178463261
 40
0.7045840286741847
 40
0.7241265369721576
 40
0.7436849085137908
 40
0.7632605050471076
 40
0.7828546839652525
 40
0.8024687979823525
 40
0.8221041948145726
 40
0.8417622168670222
 40
0.8614442009266413
 40
0.8811514778613608
 40
0.9008853723259434
 40
0.9206472024747
 40
0.9404382796812942
 40
0.9602599082659615
 40
0.9801133852303221
 40
1.0
 40
1.0
 40
1.0
 40
1.0
 10
216.4389598449908
 20
296.6792867658789
 30
0.0
 10
216.4381846256937
 20
296.6822700880226
 30
0.0
 10
216.4366354788762
 20
296.6882317610895
 30
0.0
 10
216.4344256413312
 20
296.6973733056748
 30
0.0
 10
216.4323017821013
 20
296.7066451734235
 30
0.0
 10
216.4302718910996
 20
296.7160578220887
 30
0.0
 10
216.4283338326639
 20
296.7256025046266
 30
0.0
 10
216.4264881778788
 20
296.735275522896
 30
0.0
 10
216.4247347741931
 20
296.7450717470937
 30
0.0
 10
216.4230736625285
 20
296.7549863513892
 30
0.0
 10
216.4215048320681
 20
296.7650143529615
 30
0.0
 10
216.4200282858258
 20
296.7751507384013
 30
0.0
 10
216.4186440231109
 20
296.7853904330833
 30
0.0
 10
216.4173520442177
 20
296.7957283125691
 30
0.0
 10
216.4161523491711
 20
296.8061592028017
 30
0.0
 10
216.4150449380618
 20
296.8166778833292
 30
0.0
 10
216.4140298109563
 20
296.8272790897488
 30
0.0
 10
216.4131069679211
 20
296.8379575163871
 30
0.0
 10
216.4122764090158
 20
296.8487078189438
 30
0.0
 10
216.4115381342943
 20
296.8595246171706
 30
0.0
 10
216.4108921438058
 20
296.8704024975634
 30
0.0
 10
216.4103384375926
 20
296.881336016073
 30
0.0
 10
216.4098770156915
 20
296.8923197008297
 30
0.0
 10
216.4095078781336
 20
296.9033480548835
 30
0.0
 10
216.4092310249434
 20
296.9144155589554
 30
0.0
 10
216.4090464561395
 20
296.9255166742007
 30
0.0
 10
216.4089541717345
 20
296.9366458449819
 30
0.0
 10
216.4089541717345
 20
296.9477975016503
 30
0.0
 10
216.4090464561395
 20
296.9589660633339
 30
0.0
 10
216.4092310249434
 20
296.9701459407323
 30
0.0
 10
216.4095078781336
 20
296.9813315389134
 30
0.0
 10
216.4098770156916
 20
296.9925172601162
 30
0.0
 10
216.4103384375926
 20
297.0036975065519
 30
0.0
 10
216.4108921438058
 20
297.0148666832072
 30
0.0
 10
216.4115381342944
 20
297.0260192006449
 30
0.0
 10
216.4122764090158
 20
297.0371494778021
 30
0.0
 10
216.4131069679211
 20
297.0482519447847
 30
0.0
 10
216.4140298109564
 20
297.0593210456552
 30
0.0
 10
216.4150449380619
 20
297.0703512412141
 30
0.0
 10
216.4161523491712
 20
297.0813370117753
 30
0.0
 10
216.4173520442178
 20
297.0922728599192
 30
0.0
 10
216.4186440231109
 20
297.1031533132813
 30
0.0
 10
216.4200282858259
 20
297.1139729271545
 30
0.0
 10
216.4215048320682
 20
297.1247262877288
 30
0.0
 10
216.4230736625285
 20
297.1354080128785
 30
0.0
 10
216.4247347741932
 20
297.1460127620432
 30
0.0
 10
216.426488177879
 20
297.1565352120311
 30
0.0
 10
216.428333832664
 20
297.1669701601571
 30
0.0
 10
216.4302718910997
 20
297.1773121511073
 30
0.0
 10
216.4323017821015
 20
297.1875568849591
 30
0.0
 10
216.4344256413314
 20
297.197695962948
 30
0.0
 10
216.4366354788763
 20
297.2077365546797
 30
0.0
 10
216.4381846256938
 20
297.2143251043065
 30
0.0
 10
216.4389598449909
 20
297.2176221260947
 30
0.0
  0
SPLINE
  5
116
330
1F
100
AcDbEntity
  8
1
100
AcDbSpline
210
0.0
220
0.0
230
1.0
 70
     8
 71
     3
 72
    58
 73
    54
 74
     0
 42
0.000000001
 43
0.0000000001
 40
0.0
 40
0.0
 40
0.0
 40
0.0
 40
0.0198868312968256
 40
0.0397403869152075
 40
0.059561984138606
 40
0.0793529452203334
 40
0.099114597201613
 40
0.1188482717262298
 40
0.1385553048515833
 40
0.1582370368563013
 40
0.1778948120447959
 40
0.1975299785484558
 40
0.217143888123902
 40
0.2367378959484458
 40
0.2563133604126843
 40
0.2758716429105464
 40
0.2954141076269667
 40
0.3149421213231948
 40
0.3344570531199863
 40
0.3539602742789411
 40
0.3734531579819623
 40
0.3929370791091607
 40
0.4124134140153369
 40
0.4318835403051934
 40
0.4513488366075601
 40
0.4708106823486993
 40
0.4902704575249416
 40
0.509729542474838
 40
0.5291893176510687
 40
0.5486511633922099
 40
0.5681164596945846
 40
0.5875865859844495
 40
0.6070629208906206
 40
0.6265468420178282
 40
0.6460397257208507
 40
0.6655429468798184
 40
0.685057878676611
 40
0.7045858923728368
 40
0.7241283570892657
 40
0.7436866395871426
 40
0.7632621040513845
 40
0.7828561118759394
 40
0.8024700214513996
 40
0.8221051879550666
 40
0.8417629631435739
 40
0.8614446951483131
 40
0.881151728273668
 40
0.9008854027983092
 40
0.9206470547795987
 40
0.940438015861336
 40
0.9602596130847508
 40
0.9801131687031499
 40
1.0
 40
1.0
 40
1.0
 40
1.0
 10
217.0786993909886
 20
297.2180601571409
 30
0.0
 10
217.0795093366203
 20
297.2147642258356
 30
0.0
 10
217.0811278726408
 20
297.2081778781485
 30
0.0
 10
217.0834367074772
 20
297.1981403692193
 30
0.0
 10
217.0856557105571
 20
297.188004259874
 30
0.0
 10
217.0877765361075
 20
297.1777623620713
 30
0.0
 10
217.0898014149185
 20
297.1674230794945
 30
0.0
 10
217.0917297504969
 20
297.1569907107677
 30
0.0
 10
217.0935617022059
 20
297.1464707115574
 30
0.0
 10
217.0952972273209
 20
297.1358682844561
 30
0.0
 10
217.0969363371595
 20
297.125188752677
 30
0.0
 10
217.0984790285918
 20
297.1144374567668
 30
0.0
 10
217.0999253023567
 20
297.1036197788421
 30
0.0
 10
217.1012751581639
 20
297.0927411326982
 30
0.0
 10
217.1025285960034
 20
297.0818069630246
 30
0.0
 10
217.1036856157958
 20
297.0708227421648
 30
0.0
 10
217.1047462174859
 20
297.0597939675142
 30
0.0
 10
217.1057104010178
 20
297.0487261587325
 30
0.0
 10
217.1065781663416
 20
297.0376248549897
 30
0.0
 10
217.1073495134116
 20
297.026495612191
 30
0.0
 10
217.1080244421876
 20
297.0153440001967
 30
0.0
 10
217.1086029526338
 20
297.0041756000337
 30
0.0
 10
217.1090850447194
 20
296.9929960011015
 30
0.0
 10
217.1094707184189
 20
296.9818107983746
 30
0.0
 10
217.1097599737114
 20
296.9706255896014
 30
0.0
 10
217.1099528105819
 20
296.9594459725026
 30
0.0
 10
217.1100492290196
 20
296.9482775419683
 30
0.0
 10
217.1100492290196
 20
296.9371258872579
 30
0.0
 10
217.1099528105818
 20
296.925996589202
 30
0.0
 10
217.1097599737114
 20
296.9148952174083
 30
0.0
 10
217.1094707184188
 20
296.9038273274742
 30
0.0
 10
217.1090850447194
 20
296.892798458205
 30
0.0
 10
217.1086029526338
 20
296.8818141288423
 30
0.0
 10
217.1080244421876
 20
296.8708798362994
 30
0.0
 10
217.1073495134117
 20
296.860001052412
 30
0.0
 10
217.1065781663415
 20
296.8491832211972
 30
0.0
 10
217.1057104010178
 20
296.838431756129
 30
0.0
 10
217.1047462174859
 20
296.8277520374286
 30
0.0
 10
217.1036856157958
 20
296.817149409372
 30
0.0
 10
217.1025285960034
 20
296.8066291776109
 30
0.0
 10
217.1012751581639
 20
296.7961966065305
 30
0.0
 10
217.0999253023567
 20
296.7858569165676
 30
0.0
 10
217.0984790285917
 20
296.775615281768
 30
0.0
 10
217.0969363371595
 20
296.7654768265625
 30
0.0
 10
217.095297227321
 20
296.7554466255716
 30
0.0
 10
217.0935617022059
 20
296.7455296922069
 30
0.0
 10
217.0917297504969
 20
296.7357310092856
 30
0.0
 10
217.0898014149185
 20
296.7260554026715
 30
0.0
 10
217.0877765361075
 20
296.716508002084
 30
0.0
 10
217.0856557105571
 20
296.7070925060303
 30
0.0
 10
217.0834367074772
 20
296.6978176602856
 30
0.0
 10
217.0811278726408
 20
296.6886730118183
 30
0.0
 10
217.0795093366203
 20
296.6827091997753
 30
0.0
 10
217.0786993909886
 20
296.679724796925
 30
0.0
  0
SPLINE
  5
117
330
1F
100
AcDbEntity
  8
1
100
AcDbSpline
210
0.0
220
0.0
230
1.0
 70
     8
 71
     3
 72
    58
 73
    54
 74
     0
 42
0.000000001
 43
0.0000000001
 40
0.0
 40
0.0
 40
0.0
 40
0.0
 40
0.0181090853791053
 40
0.0359279468324619
 40
0.0534574191592088
 40
0.0706986187204478
 40
0.0876530013774393
 40
0.1043224211238367
 40
0.1207091894866717
 40
0.1368161357705664
 40
0.1526466682049384
 40
0.1682048360216587
 40
0.1834953924377158
 40
0.1985238584412563
 40
0.2132965871759396
 40
0.227820828586096
 40
0.2421047938210032
 40
0.2561577187006278
 40
0.2699899253198235
 40
0.2836128806181129
 40
0.2970392504787924
 40
0.3102829476596765
 40
0.3233591716208357
 40
0.3362844381311985
 40
0.3490765964402517
 40
0.3617548318296578
 40
0.3743396515490676
 40
0.3868528525164587
 40
0.3993174697401027
 40
0.4117577051853615
 40
0.4241988377292983
 40
0.4366671158530139
 40
0.4491896357273681
 40
0.4617942082492822
 40
0.4745092192819917
 40
0.4873634877614231
 40
0.5003861264034651
 40
0.5285966772186406
 40
0.5561768250092009
 40
0.5834218730591494
 40
0.6106127598896691
 40
0.638009629872202
 40
0.6658467683573858
 40
0.6943294613799513
 40
0.7236328700143558
 40
0.7539026355500807
 40
0.7852567468201076
 40
0.8177881900317933
 40
0.8515679939102399
 40
0.8866484083526437
 40
0.9230660683219468
 40
0.9608450778594782
 40
1.0
 40
1.0
 40
1.0
 40
1.0
 10
216.9348574685401
 20
296.6771549472823
 30
0.0
 10
216.935275615085
 20
296.6798987824607
 30
0.0
 10
216.9361052067799
 20
296.6853424789447
 30
0.0
 10
216.9372955860646
 20
296.6936046548988
 30
0.0
 10
216.9384303176035
 20
296.701842436504
 30
0.0
 10
216.9395048957848
 20
296.7100586209687
 30
0.0
 10
216.9405189539154
 20
296.7182417437068
 30
0.0
 10
216.9414717891434
 20
296.7263849373179
 30
0.0
 10
216.942363514435
 20
296.7344810292654
 30
0.0
 10
216.9431947336133
 20
296.7425238512888
 30
0.0
 10
216.9439665959982
 20
296.7505079268493
 30
0.0
 10
216.944680745492
 20
296.758428583038
 30
0.0
 10
216.9453392907481
 20
296.7662819520405
 30
0.0
 10
216.9459447632674
 20
296.7740650014359
 30
0.0
 10
216.946500071996
 20
296.7817755565065
 30
0.0
 10
216.9470084521191
 20
296.7894123236628
 30
0.0
 10
216.9474734085935
 20
296.7969749120541
 30
0.0
 10
216.9478986542372
 20
296.8044638535273
 30
0.0
 10
216.9482880424077
 20
296.8118806202466
 30
0.0
 10
216.9486454942706
 20
296.8192276394605
 30
0.0
 10
216.9489749207034
 20
296.8265083048273
 30
0.0
 10
216.9492801389095
 20
296.8337269836854
 30
0.0
 10
216.9495647838613
 20
296.8408890196392
 30
0.0
 10
216.9498322147381
 20
296.8480007298089
 30
0.0
 10
216.9500854165908
 20
296.8550693960822
 30
0.0
 10
216.95032689753
 20
296.8621032496955
 30
0.0
 10
216.9505585818229
 20
296.8691114484644
 30
0.0
 10
216.9507816993779
 20
296.8761040459777
 30
0.0
 10
216.9509966721886
 20
296.8830919520481
 30
0.0
 10
216.9512029984591
 20
296.8900868837304
 30
0.0
 10
216.9513991351025
 20
296.8971013060903
 30
0.0
 10
216.9515823799173
 20
296.9041483622826
 30
0.0
 10
216.9517487529714
 20
296.9112417910159
 30
0.0
 10
216.9518928838535
 20
296.9183958349821
 30
0.0
 10
216.9520078850336
 20
296.9256251231481
 30
0.0
 10
216.9520852917649
 20
296.932944588027
 30
0.0
 10
216.9521260718674
 20
296.9432158495671
 30
0.0
 10
216.9520146138276
 20
296.9563051073383
 30
0.0
 10
216.9517069781846
 20
296.9721201333815
 30
0.0
 10
216.9513045575209
 20
296.9877479542976
 30
0.0
 10
216.9508492062711
 20
297.0033326662183
 30
0.0
 10
216.9503548879725
 20
297.0190052969533
 30
0.0
 10
216.9498137452604
 20
297.0348803571156
 30
0.0
 10
216.9492019650043
 20
297.0510536504295
 30
0.0
 10
216.9484853075929
 20
297.0676008487581
 30
0.0
 10
216.9476241245047
 20
297.0845768324677
 30
0.0
 10
216.9465777675596
 20
297.1020155499177
 30
0.0
 10
216.9453084941675
 20
297.1199307017617
 30
0.0
 10
216.9437843698394
 20
297.1383154270008
 30
0.0
 10
216.9419831660817
 20
297.1571474996354
 30
0.0
 10
216.9398894311175
 20
297.1763736839391
 30
0.0
 10
216.9375156909281
 20
297.1959766833879
 30
0.0
 10
216.93575404463
 20
297.2089043369494
 30
0.0
 10
216.9348574685401
 20
297.2154837650069
 30
0.0
  0
SPLINE
  5
118
330
1F
100
AcDbEntity
  8
1
100
AcDbSpline
210
0.0
220
0.0
230
1.0
 70
     8
 71
     3
 72
    58
 73
    54
 74
     0
 42
0.000000001
 43
0.0000000001
 40
0.0
 40
0.0
 40
0.0
 40
0.0
 40
0.0183037829417116
 40
0.0363073307765323
 40
0.0540112159165695
 40
0.0714162571468804
 40
0.0885235838025693
 40
0.105334700677083
 40
0.121851553758721
 40
0.1380765969066389
 40
0.1540128595759206
 40
0.1696640156809851
 40
0.1850344536431609
 40
0.2001293475983953
 40
0.2149547296401526
 40
0.2295175628356592
 40
0.2438258145784011
 40
0.2578885296218415
 40
0.2717159018801438
 40
0.2853193437840684
 40
0.2987115516531179
 40
0.3119065652046574
 40
0.3249198189915358
 40
0.3377681832756432
 40
0.350469991648549
 40
0.3630450526518867
 40
0.3755146427795534
 40
0.3879014786070378
 40
0.4002296664173911
 40
0.4125246285811403
 40
0.4248130070621325
 40
0.4371225456884477
 40
0.4494819541324074
 40
0.4619207577492266
 40
0.4744691383872331
 40
0.4871577718825195
 40
0.5000176681103183
 40
0.5279579774793638
 40
0.5552595920057061
 40
0.5822364358758514
 40
0.6091860378221586
 40
0.6363823181611157
 40
0.6640700719447472
 40
0.6924617645803936
 40
0.7217366681560088
 40
0.7520419313296625
 40
0.7834949917706168
 40
0.8161867660811727
 40
0.8501851879081428
 40
0.8855388232282592
 40
0.9222804237652949
 40
0.9604303693368162
 40
1.0
 40
1.0
 40
1.0
 40
1.0
 10
216.5833522234864
 20
297.215243088608
 30
0.0
 10
216.5829616000478
 20
297.2121789211719
 30
0.0
 10
216.5821867605276
 20
297.2061008475291
 30
0.0
 10
216.5810708901077
 20
297.1969290657381
 30
0.0
 10
216.5800055996568
 20
297.1878235904634
 30
0.0
 10
216.5789956558255
 20
297.1787831718205
 30
0.0
 10
216.5780423260307
 20
297.1698179235568
 30
0.0
 10
216.5771469633986
 20
297.1609341114431
 30
0.0
 10
216.5763100838314
 20
297.1521381032355
 30
0.0
 10
216.5755316274691
 20
297.1434353114644
 30
0.0
 10
216.5748109179908
 20
297.134830441566
 30
0.0
 10
216.5741467079902
 20
297.1263273976045
 30
0.0
 10
216.5735372092163
 20
297.117929276064
 30
0.0
 10
216.5729801342094
 20
297.1096383358483
 30
0.0
 10
216.5724727425297
 20
297.1014559741949
 30
0.0
 10
216.5720118934622
 20
297.0933827013355
 30
0.0
 10
216.5715941048064
 20
297.0854181164134
 30
0.0
 10
216.5712156179312
 20
297.077560884701
 30
0.0
 10
216.5708724691066
 20
297.0698087168615
 30
0.0
 10
216.5705605671369
 20
297.0621583508682
 30
0.0
 10
216.5702757772802
 20
297.0546055372826
 30
0.0
 10
216.5700140114072
 20
297.0471450286095
 30
0.0
 10
216.569771324299
 20
297.0397705734848
 30
0.0
 10
216.5695440159401
 20
297.0324749164703
 30
0.0
 10
216.5693287395788
 20
297.0252498042484
 30
0.0
 10
216.569122615262
 20
297.0180859990208
 30
0.0
 10
216.568923348437
 20
297.0109732999262
 30
0.0
 10
216.5687293531158
 20
297.0039005732992
 30
0.0
 10
216.5685398789457
 20
296.996855792616
 30
0.0
 10
216.568355141461
 20
296.9898260889624
 30
0.0
 10
216.5681764544061
 20
296.9827978129964
 30
0.0
 10
216.5680063637951
 20
296.9757566090136
 30
0.0
 10
216.56784877983
 20
296.9686875032061
 30
0.0
 10
216.567709115507
 20
296.9615750027814
 30
0.0
 10
216.5675943923603
 20
296.9544032230153
 30
0.0
 10
216.5675134560603
 20
296.9471559821386
 30
0.0
 10
216.5674626106145
 20
296.9369891979206
 30
0.0
 10
216.5675571523073
 20
296.9240646560772
 30
0.0
 10
216.5678343300177
 20
296.9085137699163
 30
0.0
 10
216.5681925401255
 20
296.8932185605423
 30
0.0
 10
216.5685896852172
 20
296.8780284205091
 30
0.0
 10
216.5690133451192
 20
296.8628086052501
 30
0.0
 10
216.5694741632486
 20
296.8474438787754
 30
0.0
 10
216.5699991251682
 20
296.8318407692075
 30
0.0
 10
216.5706253931801
 20
296.8159289317811
 30
0.0
 10
216.5713947562191
 20
296.799661626249
 30
0.0
 10
216.5723488138765
 20
296.7830156101216
 30
0.0
 10
216.5735247990851
 20
296.7659900529972
 30
0.0
 10
216.5749524117243
 20
296.7486068155357
 30
0.0
 10
216.5766501183757
 20
296.7309036649026
 30
0.0
 10
216.5786269165553
 20
296.7129545491075
 30
0.0
 10
216.5808657288463
 20
296.6947826802382
 30
0.0
 10
216.5825133596458
 20
296.6829425012501
 30
0.0
 10
216.5833522234863
 20
296.6769142708833
 30
0.0
  0
SPLINE
  5
119
330
1F
100
AcDbEntity
  8
1
100
AcDbSpline
210
0.0
220
0.0
230
1.0
 70
     8
 71
     3
 72
    35
 73
    31
 74
     0
 42
0.000000001
 43
0.0000000001
 40
0.0
 40
0.0
 40
0.0
 40
0.0
 40
0.1249999999999856
 40
0.1249999999999856
 40
0.1874999999999984
 40
0.1874999999999984
 40
0.2500000000000112
 40
0.312500000000024
 40
0.312500000000024
 40
0.3437500000000316
 40
0.3437500000000316
 40
0.3750000000000392
 40
0.3750000000000392
 40
0.5000000000000698
 40
0.5000000000000698
 40
0.5312500000000656
 40
0.5312500000000656
 40
0.5625000000000611
 40
0.6250000000000524
 40
0.6250000000000524
 40
0.6875000000000437
 40
0.6875000000000437
 40
0.750000000000035
 40
0.750000000000035
 40
0.8125000000000262
 40
0.8125000000000262
 40
0.8750000000000174
 40
0.9375000000000087
 40
0.9375000000000087
 40
1.0
 40
1.0
 40
1.0
 40
1.0
 10
214.4222417903888
 20
297.2162412748955
 30
0.0
 10
214.4011887109938
 20
297.2005727332674
 30
0.0
 10
214.3819370330453
 20
297.1830703891223
 30
0.0
 10
214.3559897929626
 20
297.1535174825397
 30
0.0
 10
214.3477900265381
 20
297.1430520572639
 30
0.0
 10
214.3326525256583
 20
297.1211630550077
 30
0.0
 10
214.3188657123835
 20
297.0984747403158
 30
0.0
 10
214.3077808051235
 20
297.0741308440678
 30
0.0
 10
214.3005193539112
 20
297.0552082286579
 30
0.0
 10
214.2982746835927
 20
297.0487896478852
 30
0.0
 10
214.2941501461473
 20
297.0357190774668
 30
0.0
 10
214.2922759135404
 20
297.0290773075232
 30
0.0
 10
214.2839881588061
 20
296.9958695020316
 30
0.0
 10
214.28061514692
 20
296.9688571262403
 30
0.0
 10
214.2805511060955
 20
296.9345209233061
 30
0.0
 10
214.2807525595486
 20
296.9276015141043
 30
0.0
 10
214.2815765879832
 20
296.9139373058923
 30
0.0
 10
214.2834413030848
 20
296.8936311103257
 30
0.0
 10
214.287139336847
 20
296.8738766259853
 30
0.0
 10
214.2936944640692
 20
296.8480141766105
 30
0.0
 10
214.2978243589591
 20
296.8352415056306
 30
0.0
 10
214.3075013667851
 20
296.8108247570186
 30
0.0
 10
214.3130523802977
 20
296.7991194846632
 30
0.0
 10
214.3255298708982
 20
296.7766369320042
 30
0.0
 10
214.3324851672819
 20
296.7658225965102
 30
0.0
 10
214.3476487486471
 20
296.7452440243193
 30
0.0
 10
214.3639087596344
 20
296.7259029879745
 30
0.0
 10
214.3822268248475
 20
296.7087478821897
 30
0.0
 10
214.4015358481005
 20
296.6925794724384
 30
0.0
 10
214.4117013623228
 20
296.6849826513142
 30
0.0
 10
214.4222417903893
 20
296.6779059146801
 30
0.0
  0
SPLINE
  5
11A
330
1F
100
AcDbEntity
  8
1
100
AcDbSpline
210
0.0
220
0.0
230
1.0
 70
     8
 71
     3
 72
    66
 73
    62
 74
     0
 42
0.000000001
 43
0.0000000001
 40
0.0
 40
0.0
 40
0.0
 40
0.0
 40
0.0127001720428207
 40
0.0252950334807816
 40
0.0377921818085558
 40
0.0501993241368753
 40
0.0625242624983797
 40
0.0747748782054329
 40
0.0869591153520444
 40
0.0990849635706328
 40
0.1111604401717517
 40
0.1231935718102304
 40
0.1351923758334072
 40
0.1471648414763458
 40
0.1591189110744077
 40
0.171062461464707
 40
0.1830032857457933
 40
0.1949490755574678
 40
0.2069074040329231
 40
0.2188857095608338
 40
0.2308912804787906
 40
0.2429312408003831
 40
0.2550125370574812
 40
0.2671419263186932
 40
0.2793259654226205
 40
0.2915710014449835
 40
0.3038831633976738
 40
0.3162683551408111
 40
0.3287322494722003
 40
0.34128028334472
 40
0.353917654151081
 40
0.3666493170060773
 40
0.3794799829492768
 40
0.392414117987773
 40
0.4054559428951895
 40
0.4186094336829245
 40
0.431878322661289
 40
0.4452661000095109
 40
0.4587760157784976
 40
0.4724110822535007
 40
0.4861740766098178
 40
0.5000675437997674
 40
0.5290628874332985
 40
0.557509013058133
 40
0.5854327744457205
 40
0.6128655896349842
 40
0.6398435139215506
 40
0.6664072742162053
 40
0.6926022516709339
 40
0.7184783989582641
 40
0.744090079257561
 40
0.7694958161583246
 40
0.7947579475010259
 40
0.8199421815755908
 40
0.8451170607118282
 40
0.8703533444360061
 40
0.8957233311065003
 40
0.9213001422824687
 40
0.9471569971788259
 40
0.9733665049280951
 40
1.0
 40
1.0
 40
1.0
 40
1.0
 10
216.5833522234863
 20
296.6769142708833
 30
0.0
 10
216.5836146172976
 20
296.6752249154221
 30
0.0
 10
216.5841372291349
 20
296.6718602127386
 30
0.0
 10
216.5852010182255
 20
296.6668676330475
 30
0.0
 10
216.5864637883699
 20
296.6619459992023
 30
0.0
 10
216.5879434363067
 20
296.6570996637726
 30
0.0
 10
216.5896325107458
 20
296.6523304541389
 30
0.0
 10
216.5915301775833
 20
296.6476409584595
 30
0.0
 10
216.5936337501548
 20
296.6430336540873
 30
0.0
 10
216.5959409364091
 20
296.6385111378762
 30
0.0
 10
216.5984492426938
 20
296.6340760640983
 30
0.0
 10
216.6011561321304
 20
296.6297311599128
 30
0.0
 10
216.6040589820624
 20
296.6254792201345
 30
0.0
 10
216.607155094574
 20
296.621323107413
 30
0.0
 10
216.6104416924987
 20
296.6172657508664
 30
0.0
 10
216.6139159189183
 20
296.6133101450117
 30
0.0
 10
216.6175748353546
 20
296.6094593484939
 30
0.0
 10
216.6214154199344
 20
296.6057164827293
 30
0.0
 10
216.6254345651868
 20
296.602084730423
 30
0.0
 10
216.6296290755649
 20
296.5985673339514
 30
0.0
 10
216.6339956646698
 20
296.5951675935971
 30
0.0
 10
216.6385309521852
 20
296.5918888656188
 30
0.0
 10
216.6432314605247
 20
296.5887345601388
 30
0.0
 10
216.6480936112002
 20
296.5857081388317
 30
0.0
 10
216.6531137209125
 20
296.5828131123918
 30
0.0
 10
216.6582879973799
 20
296.5800530377622
 30
0.0
 10
216.6636125349094
 20
296.5774315151003
 30
0.0
 10
216.6690833097262
 20
296.5749521844623
 30
0.0
 10
216.6746961750758
 20
296.5726187221812
 30
0.0
 10
216.6804468561128
 20
296.5704348369176
 30
0.0
 10
216.6863309445978
 20
296.5684042653613
 30
0.0
 10
216.6923438934181
 20
296.5665307675589
 30
0.0
 10
216.6984810109636
 20
296.5648181218512
 30
0.0
 10
216.704737455352
 20
296.5632701193832
 30
0.0
 10
216.7111082286337
 20
296.5618905582169
 30
0.0
 10
216.7175881706065
 20
296.5606832368364
 30
0.0
 10
216.7241719537783
 20
296.5596519477391
 30
0.0
 10
216.7308540737855
 20
296.5588004683937
 30
0.0
 10
216.7376288569585
 20
296.5581325597607
 30
0.0
 10
216.7444904031148
 20
296.5576519337063
 30
0.0
 10
216.7514327737296
 20
296.5573623355577
 30
0.0
 10
216.7609690078685
 20
296.5572330189298
 30
0.0
 10
216.7729830271195
 20
296.5575903751785
 30
0.0
 10
216.7872929240872
 20
296.5588699343197
 30
0.0
 10
216.8012049368573
 20
296.5609589262131
 30
0.0
 10
216.8146663239929
 20
296.5638230547123
 30
0.0
 10
216.8276281694525
 20
296.5674275922572
 30
0.0
 10
216.8400444134404
 20
296.5717378352793
 30
0.0
 10
216.8518717910539
 20
296.5767192847157
 30
0.0
 10
216.8630695493702
 20
296.582337848406
 30
0.0
 10
216.8735992431532
 20
296.5885599939788
 30
0.0
 10
216.8834245418232
 20
296.5953528768556
 30
0.0
 10
216.8925110494884
 20
296.6026844457597
 30
0.0
 10
216.9008262138499
 20
296.610523524537
 30
0.0
 10
216.908339029777
 20
296.6188399041873
 30
0.0
 10
216.9150206377205
 20
296.6276043393142
 30
0.0
 10
216.9208416904146
 20
296.636788862317
 30
0.0
 10
216.9257819903098
 20
296.6463658723688
 30
0.0
 10
216.9297938644262
 20
296.656311828713
 30
0.0
 10
216.9329411597166
 20
296.6665934492119
 30
0.0
 10
216.9342152912555
 20
296.6736156669382
 30
0.0
 10
216.9348574685401
 20
296.6771549472823
 30
0.0
  0
SPLINE
  5
11B
330
1F
100
AcDbEntity
  8
1
100
AcDbSpline
210
0.0
220
0.0
230
1.0
 70
     8
 71
     3
 72
    14
 73
    10
 74
     0
 42
0.000000001
 43
0.0000000001
 40
0.0
 40
0.0
 40
0.0
 40
0.0
 40
0.25
 40
0.25
 40
0.5
 40
0.5
 40
0.75
 40
0.75
 40
1.0
 40
1.0
 40
1.0
 40
1.0
 10
215.2902020250204
 20
295.6198408930914
 30
0.0
 10
215.3334976915581
 20
295.6394304668728
 30
0.0
 10
215.3774552570685
 20
295.657213888387
 30
0.0
 10
215.4666842059515
 20
295.6891956599648
 30
0.0
 10
215.5119564866512
 20
295.7033865929828
 30
0.0
 10
215.6032964474949
 20
295.7280229705878
 30
0.0
 10
215.6494948689117
 20
295.7385035492001
 30
0.0
 10
215.7424126317537
 20
295.7556729580747
 30
0.0
 10
215.7891345448277
 20
295.7623697590354
 30
0.0
 10
215.8361200529754
 20
295.7671746032405
 30
0.0
  0
SPLINE
  5
11C
330
1F
100
AcDbEntity
  8
1
100
AcDbSpline
210
0.0
220
0.0
230
1.0
 70
     8
 71
     3
 72
    10
 73
     6
 74
     0
 42
0.000000001
 43
0.0000000001
 40
0.0
 40
0.0
 40
0.0
 40
0.0
 40
0.5
 40
0.5
 40
1.0
 40
1.0
 40
1.0
 40
1.0
 10
214.9343887304661
 20
295.5336680875103
 30
0.0
 10
214.9955942768162
 20
295.5366890642939
 30
0.0
 10
215.0564725448394
 20
295.5454886507508
 30
0.0
 10
215.1759642803581
 20
295.5744413065595
 30
0.0
 10
215.2339804241329
 20
295.5944015067896
 30
0.0
 10
215.2902025522687
 20
295.6198396630777
 30
0.0
  0
SPLINE
  5
11D
330
1F
100
AcDbEntity
  8
1
100
AcDbSpline
210
0.0
220
0.0
230
1.0
 70
     8
 71
     3
 72
    66
 73
    62
 74
     0
 42
0.000000001
 43
0.0000000001
 40
0.0
 40
0.0
 40
0.0
 40
0.0
 40
0.0126966350227614
 40
0.0252899150372344
 40
0.0377873452458304
 40
0.0501965278161018
 40
0.0625251477688192
 40
0.0747809580157827
 40
0.0869717636353219
 40
0.099105405490029
 40
0.1111897433065398
 40
0.1232326383501529
 40
0.1352419358380313
 40
0.1472254472419182
 40
0.1591909326359056
 40
0.1711460832450941
 40
0.1830985043484079
 40
0.195055698682041
 40
0.2070250504800122
 40
0.2190138102762154
 40
0.2310290805761552
 40
0.2430778024902846
 40
0.2551667434018139
 40
0.2673024857230423
 40
0.2794914167750029
 40
0.2917397198066609
 40
0.3040533661521573
 40
0.316438108508462
 40
0.3288994753014124
 40
0.3414427660956439
 40
0.3540730479932165
 40
0.3667951529585186
 40
0.3796136759996136
 40
0.3925329741332189
 40
0.4055571660576292
 40
0.418690132457882
 40
0.4319355168676919
 40
0.4452967270156217
 40
0.4587769365854438
 40
0.4723790873251457
 40
0.4861058914432841
 40
0.4999598342366176
 40
0.529034322506983
 40
0.5575451530175329
 40
0.5855198143365149
 40
0.6129904756355659
 40
0.639994069674086
 40
0.6665723353525825
 40
0.692771805388797
 40
0.7186437240709114
 40
0.7442438807484415
 40
0.769632347091609
 40
0.7948731103764071
 40
0.8200336010714746
 40
0.8451841203822187
 40
0.8703971813625257
 40
0.8957467846710855
 40
0.9213076558938501
 40
0.9471544746275995
 40
0.9733611256973876
 40
1.0
 40
1.0
 40
1.0
 40
1.0
 10
216.9348574685401
 20
297.2154837650069
 30
0.0
 10
216.9345750213816
 20
297.2173523521145
 30
0.0
 10
216.9340124262825
 20
297.221074315383
 30
0.0
 10
216.9328876026308
 20
297.2265979034629
 30
0.0
 10
216.9315635403262
 20
297.2320436572398
 30
0.0
 10
216.9300224251106
 20
297.237406415787
 30
0.0
 10
216.9282719283403
 20
297.2426837666654
 30
0.0
 10
216.9263130592991
 20
297.2478725138495
 30
0.0
 10
216.9241486851293
 20
297.2529696140201
 30
0.0
 10
216.9217812698921
 20
297.2579719283143
 30
0.0
 10
216.919213474567
 20
297.2628762884392
 30
0.0
 10
216.9164479976671
 20
297.2676794793685
 30
0.0
 10
216.9134876180995
 20
297.2723782442943
 30
0.0
 10
216.910335184607
 20
297.2769692837443
 30
0.0
 10
216.9069936198231
 20
297.2814492563549
 30
0.0
 10
216.9034659208183
 20
297.2858147793132
 30
0.0
 10
216.8997551609678
 20
297.2900624290141
 30
0.0
 10
216.8958644918505
 20
297.2941887417993
 30
0.0
 10
216.8917971455214
 20
297.2981902148313
 30
0.0
 10
216.8875564370664
 20
297.3020633071068
 30
0.0
 10
216.8831457674578
 20
297.3058044406278
 30
0.0
 10
216.8785686267043
 20
297.3094100017476
 30
0.0
 10
216.8738285972895
 20
297.3128763427112
 30
0.0
 10
216.8689293578955
 20
297.3161997834083
 30
0.0
 10
216.8638746874007
 20
297.3193766133621
 30
0.0
 10
216.858668469146
 20
297.3224030939737
 30
0.0
 10
216.8533146954553
 20
297.3252754610454
 30
0.0
 10
216.8478174723995
 20
297.327989927606
 30
0.0
 10
216.8421810247872
 20
297.3305426870602
 30
0.0
 10
216.8364097013682
 20
297.3329299166857
 30
0.0
 10
216.8305079802282
 20
297.3351477815016
 30
0.0
 10
216.8244804743574
 20
297.3371924385305
 30
0.0
 10
216.8183319373642
 20
297.3390600414773
 30
0.0
 10
216.8120672693374
 20
297.3407467458439
 30
0.0
 10
216.8056915227258
 20
297.3422487145187
 30
0.0
 10
216.7992099086057
 20
297.3435621237895
 30
0.0
 10
216.7926278018088
 20
297.3446831700793
 30
0.0
 10
216.7859507505431
 20
297.3456080763716
 30
0.0
 10
216.7791844690586
 20
297.3463331023211
 30
0.0
 10
216.7723348943225
 20
297.3468545430285
 30
0.0
 10
216.7654080002694
 20
297.3471687733879
 30
0.0
 10
216.7558698774499
 20
297.3473096470176
 30
0.0
 10
216.7438415249705
 20
297.3469225710494
 30
0.0
 10
216.7295109923172
 20
297.3455310208096
 30
0.0
 10
216.7155934981495
 20
297.3432551428912
 30
0.0
 10
216.7021413873333
 20
297.3401304255593
 30
0.0
 10
216.6892031124167
 20
297.3361927366147
 30
0.0
 10
216.6768241997012
 20
297.3314781279777
 30
0.0
 10
216.6650473073959
 20
297.326022589447
 30
0.0
 10
216.6539125047138
 20
297.3198618673342
 30
0.0
 10
216.6434574719759
 20
297.3130313114543
 30
0.0
 10
216.6337176889726
 20
297.3055657536924
 30
0.0
 10
216.6247266097656
 20
297.2974994077495
 30
0.0
 10
216.6165157488529
 20
297.2888657934292
 30
0.0
 10
216.6091149711292
 20
297.2796976480477
 30
0.0
 10
216.6025518937543
 20
297.2700269403834
 30
0.0
 10
216.5968544976299
 20
297.259884537525
 30
0.0
 10
216.5920415539706
 20
297.2493012047465
 30
0.0
 10
216.5881590077388
 20
297.2383035912958
 30
0.0
 10
216.5851418460728
 20
297.2269292739509
 30
0.0
 10
216.5839520082407
 20
297.2191596662471
 30
0.0
 10
216.5833522234864
 20
297.215243088608
 30
0.0
  0
SPLINE
  5
11E
330
1F
100
AcDbEntity
  8
1
100
AcDbSpline
210
0.0
220
0.0
230
1.0
 70
     8
 71
     3
 72
     8
 73
     4
 74
     0
 42
0.000000001
 43
0.0000000001
 40
0.0
 40
0.0
 40
0.0
 40
0.0
 40
1.0
 40
1.0
 40
1.0
 40
1.0
 10
214.6610945150456
 20
296.5661034346385
 30
0.0
 10
215.0079732024341
 20
296.4716469721821
 30
0.0
 10
215.3538557684535
 20
296.3719175197479
 30
0.0
 10
215.6984556413441
 20
296.2653981035374
 30
0.0
  0
SPLINE
  5
11F
330
1F
100
AcDbEntity
  8
1
100
AcDbSpline
210
0.0
220
0.0
230
1.0
 70
     8
 71
     3
 72
    56
 73
    52
 74
     0
 42
0.000000001
 43
0.0000000001
 40
0.0
 40
0.0
 40
0.0
 40
0.0
 40
0.0100203889380455
 40
0.0199482094585927
 40
0.0297903712605578
 40
0.0395539656426357
 40
0.0492462560933525
 40
0.058874667214414
 40
0.0684467719964002
 40
0.0779702775003067
 40
0.0874530090348776
 40
0.0969028929562246
 40
0.1063279382520016
 40
0.115736217105168
 40
0.1251358446609702
 40
0.1345349582440875
 40
0.1439416962887447
 40
0.1533641772537263
 40
0.1628104787939807
 40
0.1722886174534251
 40
0.1818065291280679
 40
0.1913720505257249
 40
0.2009929018212444
 40
0.2106766706730172
 40
0.2204307977316645
 40
0.2302625637348147
 40
0.2401790782457479
 40
0.2501872700583401
 40
0.3008141771719591
 40
0.3500166392170376
 40
0.3988779025028114
 40
0.4485036158006299
 40
0.4999502471464452
 40
0.5506091118775562
 40
0.5997721825805462
 40
0.6485715099291923
 40
0.6981641573514431
 40
0.7496537957993665
 40
0.769620579230545
 40
0.7892438227144715
 40
0.8085809054171775
 40
0.8276917813372945
 40
0.8466385489247379
 40
0.8654849256775632
 40
0.8842956459028497
 40
0.9031358079329615
 40
0.9220702027791018
 40
0.9411626583622171
 40
0.9604754316503319
 40
0.9800686756186321
 40
1.0
 40
1.0
 40
1.0
 40
1.0
 10
217.0786993909886
 20
296.6797247969249
 30
0.0
 10
217.0783143889954
 20
296.6772387304181
 30
0.0
 10
217.0775479416601
 20
296.672289563703
 30
0.0
 10
217.0760982504003
 20
296.664921032019
 30
0.0
 10
217.0744348920446
 20
296.6576396069856
 30
0.0
 10
217.0725365058631
 20
296.6504467906325
 30
0.0
 10
217.0704087305538
 20
296.6433425657508
 30
0.0
 10
217.0680500616832
 20
296.6363273128757
 30
0.0
 10
217.0654608889214
 20
296.6294013027905
 30
0.0
 10
217.0626411018989
 20
296.6225648308371
 30
0.0
 10
217.0595907254604
 20
296.6158181810941
 30
0.0
 10
217.0563097511866
 20
296.6091616356504
 30
0.0
 10
217.0527981823228
 20
296.6025954718674
 30
0.0
 10
217.0490560218956
 20
296.5961199628108
 30
0.0
 10
217.045083275881
 20
296.589735376825
 30
0.0
 10
217.0408799522865
 20
296.5834419773346
 30
0.0
 10
217.0364460612477
 20
296.5772400225973
 30
0.0
 10
217.031781614791
 20
296.5711297654914
 30
0.0
 10
217.0268866265962
 20
296.5651114533312
 30
0.0
 10
217.0217611118183
 20
296.5591853277149
 30
0.0
 10
217.0164050864395
 20
296.5533516244246
 30
0.0
 10
217.0108185682903
 20
296.5476105733348
 30
0.0
 10
217.0050015717201
 20
296.5419623984945
 30
0.0
 10
216.998954126171
 20
296.5364073177759
 30
0.0
 10
216.9926762047011
 20
296.5309455443562
 30
0.0
 10
216.9861679923495
 20
296.5255772814751
 30
0.0
 10
216.9794288711075
 20
296.5203027427517
 30
0.0
 10
216.9630600769899
 20
296.5081319673231
 30
0.0
 10
216.9357301679905
 20
296.4907686752726
 30
0.0
 10
216.8949508798306
 20
296.47185797498
 30
0.0
 10
216.8514569073104
 20
296.4582590158053
 30
0.0
 10
216.80531709437
 20
296.4500369259468
 30
0.0
 10
216.7577253891313
 20
296.4471890633118
 30
0.0
 10
216.7102519713752
 20
296.4494449099097
 30
0.0
 10
216.6645468654937
 20
296.4573941168168
 30
0.0
 10
216.6212417050447
 20
296.4709425699044
 30
0.0
 10
216.5804087092592
 20
296.4900497617314
 30
0.0
 10
216.5505489370526
 20
296.5091849708686
 30
0.0
 10
216.5298328724257
 20
296.5250838369154
 30
0.0
 10
216.5171239133567
 20
296.5359283810235
 30
0.0
 10
216.5053451017785
 20
296.547145104159
 30
0.0
 10
216.4944965147932
 20
296.5587335490392
 30
0.0
 10
216.4845788389952
 20
296.5706914211668
 30
0.0
 10
216.4755925135456
 20
296.5830166880592
 30
0.0
 10
216.4675380706915
 20
296.5957070494884
 30
0.0
 10
216.4604153917168
 20
296.6087600690682
 30
0.0
 10
216.4542261679499
 20
296.6221733067604
 30
0.0
 10
216.4489646034685
 20
296.6359438341793
 30
0.0
 10
216.4446525632436
 20
296.6500702651367
 30
0.0
 10
216.4412060371297
 20
296.664545176281
 30
0.0
 10
216.4397128331655
 20
296.6743449612792
 30
0.0
 10
216.4389598449908
 20
296.6792867658789
 30
0.0
  0
SPLINE
  5
120
330
1F
100
AcDbEntity
  8
1
100
AcDbSpline
210
0.0
220
0.0
230
1.0
 70
     8
 71
     3
 72
    10
 73
     6
 74
     0
 42
0.000000001
 43
0.0000000001
 40
0.0
 40
0.0
 40
0.0
 40
0.0
 40
0.5
 40
0.5
 40
1.0
 40
1.0
 40
1.0
 40
1.0
 10
214.6610945150456
 20
296.5661034346385
 30
0.0
 10
214.616479231962
 20
296.5782523557592
 30
0.0
 10
214.5747258865985
 20
296.5943171812096
 30
0.0
 10
214.4954752474591
 20
296.6321323469257
 30
0.0
 10
214.4579928751731
 20
296.6539029984984
 30
0.0
 10
214.4222417903893
 20
296.6779059146801
 30
0.0
  0
SPLINE
  5
121
330
1F
100
AcDbEntity
  8
1
100
AcDbSpline
210
0.0
220
0.0
230
1.0
 70
     8
 71
     3
 72
     8
 73
     4
 74
     0
 42
0.000000001
 43
0.0000000001
 40
0.0
 40
0.0
 40
0.0
 40
0.0
 40
1.0
 40
1.0
 40
1.0
 40
1.0
 10
215.8361200550365
 20
295.7671745791166
 30
0.0
 10
215.8862721922492
 20
295.771648722351
 30
0.0
 10
215.9366709253079
 20
295.7739096630283
 30
0.0
 10
215.9870203971048
 20
295.7739441374202
 30
0.0
  0
SPLINE
  5
122
330
1F
100
AcDbEntity
  8
1
100
AcDbSpline
210
0.0
220
0.0
230
1.0
 70
     8
 71
     3
 72
    10
 73
     6
 74
     0
 42
0.000000001
 43
0.0000000001
 40
0.0
 40
0.0
 40
0.0
 40
0.0
 40
0.5
 40
0.5
 40
1.0
 40
1.0
 40
1.0
 40
1.0
 10
215.2902025522695
 20
298.3045666134316
 30
0.0
 10
215.233980850562
 20
298.3283694772199
 30
0.0
 10
215.1756051620686
 20
298.3467432351502
 30
0.0
 10
215.0561036106629
 20
298.3721744602136
 30
0.0
 10
214.9955937465306
 20
298.3791491105364
 30
0.0
 10
214.9343887304667
 20
298.3803900315184
 30
0.0
  0
SPLINE
  5
123
330
1F
100
AcDbEntity
  8
1
100
AcDbSpline
210
0.0
220
0.0
230
1.0
 70
     8
 71
     3
 72
    10
 73
     6
 74
     0
 42
0.000000001
 43
0.0000000001
 40
0.0
 40
0.0
 40
0.0
 40
0.0
 40
0.5000400044303771
 40
0.5000400044303771
 40
1.0
 40
1.0
 40
1.0
 40
1.0
 10
214.6610945150456
 20
297.3400064502109
 30
0.0
 10
214.6170653474914
 20
297.326736627445
 30
0.0
 10
214.5746400182964
 20
297.3087763457115
 30
0.0
 10
214.4950739465051
 20
297.266711752264
 30
0.0
 10
214.4575141772873
 20
297.2424923924671
 30
0.0
 10
214.4222417903888
 20
297.2162412748955
 30
0.0
  0
SPLINE
  5
124
330
1F
100
AcDbEntity
  8
1
100
AcDbSpline
210
0.0
220
0.0
230
1.0
 70
     8
 71
     3
 72
    56
 73
    52
 74
     0
 42
0.000000001
 43
0.0000000001
 40
0.0
 40
0.0
 40
0.0
 40
0.0
 40
0.0100197095308459
 40
0.0199468967035463
 40
0.0297884700920127
 40
0.0395515202850211
 40
0.0492433104808507
 40
0.0588712654128267
 40
0.0684429586239808
 40
0.0779660981443034
 40
0.0874485106605519
 40
0.0968981243049551
 40
0.1063229502249096
 40
0.1157310631292903
 40
0.1251305810346715
 40
0.1345296444590115
 40
0.1439363953261719
 40
0.1533589558529591
 40
0.1628054076916981
 40
0.1722837715928075
 40
0.1818019878373573
 40
0.1913678976662442
 40
0.2009892259054285
 40
0.2106735649535519
 40
0.2204283602627924
 40
0.2302608974077847
 40
0.2401782908000737
 40
0.2501874740711266
 40
0.3008138300027267
 40
0.3500152450985633
 40
0.3988758394797469
 40
0.4485020276033353
 40
0.4999507769393266
 40
0.5506074723059191
 40
0.5997700656499364
 40
0.6485700944247177
 40
0.6981638170930904
 40
0.7496539812586205
 40
0.769618909831949
 40
0.789240726335636
 40
0.808576771458078
 40
0.8276869613102896
 40
0.8466333578882959
 40
0.8654796445973676
 40
0.8842905249738237
 40
0.9031310708360773
 40
0.9220660517826816
 40
0.9411592801207785
 40
0.9604730035119656
 40
0.9800673722301855
 40
1.0
 40
1.0
 40
1.0
 40
1.0
 10
216.4389598449908
 20
297.2176221260948
 30
0.0
 10
216.4393154407136
 20
297.2203721350327
 30
0.0
 10
216.4400233485754
 20
297.2258467592271
 30
0.0
 10
216.4413861657242
 20
297.2339945553559
 30
0.0
 10
216.4429638855985
 20
297.2420438845234
 30
0.0
 10
216.4447779032795
 20
297.2499929556822
 30
0.0
 10
216.4468225711333
 20
297.2578419370293
 30
0.0
 10
216.4490993961728
 20
297.2655904815283
 30
0.0
 10
216.4516079882591
 20
297.2732383819785
 30
0.0
 10
216.4543484581154
 20
297.2807853976221
 30
0.0
 10
216.4573207810389
 20
297.2882313003522
 30
0.0
 10
216.4605249656511
 20
297.2955758627064
 30
0.0
 10
216.4639610088924
 20
297.3028188613595
 30
0.0
 10
216.4676289079214
 20
297.3099600765205
 30
0.0
 10
216.4715286569385
 20
297.3169992924348
 30
0.0
 10
216.475660248102
 20
297.3239362975934
 30
0.0
 10
216.4800236714277
 20
297.330770885006
 30
0.0
 10
216.4846189150244
 20
297.3375028524328
 30
0.0
 10
216.4894459653291
 20
297.3441320025871
 30
0.0
 10
216.4945048072834
 20
297.3506581432989
 30
0.0
 10
216.4997954249804
 20
297.3570810876252
 30
0.0
 10
216.5053178006451
 20
297.3634006539459
 30
0.0
 10
216.5110719199577
 20
297.3696166658752
 30
0.0
 10
216.517057753503
 20
297.3757289526336
 30
0.0
 10
216.5232753281645
 20
297.3817373474587
 30
0.0
 10
216.5297244590735
 20
297.3876416932089
 30
0.0
 10
216.5364057634744
 20
297.3934418206184
 30
0.0
 10
216.5526404005007
 20
297.4068217266552
 30
0.0
 10
216.5797794195868
 20
297.425897673189
 30
0.0
 10
216.6203522648057
 20
297.4466562261758
 30
0.0
 10
216.663699130455
 20
297.4615740200158
 30
0.0
 10
216.7097514476689
 20
297.4705884319383
 30
0.0
 10
216.7573130653239
 20
297.4737079714059
 30
0.0
 10
216.8048108750383
 20
297.4712312016736
 30
0.0
 10
216.850601176143
 20
297.4625100404736
 30
0.0
 10
216.8940535051216
 20
297.4476424935106
 30
0.0
 10
216.9350956623065
 20
297.426663700131
 30
0.0
 10
216.9651659991009
 20
297.4056377651809
 30
0.0
 10
216.9860575629295
 20
297.3881558187555
 30
0.0
 10
216.998886281929
 20
297.3762273028225
 30
0.0
 10
217.0107898890311
 20
297.3638841085256
 30
0.0
 10
217.0217683251308
 20
297.3511262011901
 30
0.0
 10
217.0318208975784
 20
297.3379555385883
 30
0.0
 10
217.0409471657287
 20
297.3243737749599
 30
0.0
 10
217.0491465932212
 20
297.3103828389861
 30
0.0
 10
217.0564192931483
 20
297.2959847971466
 30
0.0
 10
217.0627635709349
 20
297.281181681919
 30
0.0
 10
217.0681852069781
 20
297.2659761231598
 30
0.0
 10
217.0726623659468
 20
297.2503687435022
 30
0.0
 10
217.0762789180809
 20
297.2343679056991
 30
0.0
 10
217.0778879767541
 20
297.2235269976369
 30
0.0
 10
217.0786993909886
 20
297.2180601571409
 30
0.0
  0
SPLINE
  5
125
330
1F
100
AcDbEntity
  8
1
100
AcDbSpline
210
0.0
220
0.0
230
1.0
 70
     8
 71
     3
 72
     8
 73
     4
 74
     0
 42
0.000000001
 43
0.0000000001
 40
0.0
 40
0.0
 40
0.0
 40
0.0
 40
1.0
 40
1.0
 40
1.0
 40
1.0
 10
215.6984556413441
 20
297.6708814252155
 30
0.0
 10
215.3538557684535
 20
297.5543399875597
 30
0.0
 10
215.0079732024341
 20
297.444551209029
 30
0.0
 10
214.6610945150456
 20
297.3400064502109
 30
0.0
  0
SPLINE
  5
126
330
1F
100
AcDbEntity
  8
1
100
AcDbSpline
210
0.0
220
0.0
230
1.0
 70
     8
 71
     3
 72
    14
 73
    10
 74
     0
 42
0.000000001
 43
0.0000000001
 40
0.0
 40
0.0
 40
0.0
 40
0.0
 40
0.25
 40
0.25
 40
0.5
 40
0.5
 40
0.75
 40
0.75
 40
1.0
 40
1.0
 40
1.0
 40
1.0
 10
215.8361200529451
 20
298.1731086289231
 30
0.0
 10
215.7891345399255
 20
298.1765469907695
 30
0.0
 10
215.7424116472891
 20
298.1818850472515
 30
0.0
 10
215.6494900453204
 20
298.1963528819538
 30
0.0
 10
215.603293846274
 20
298.2054895880938
 30
0.0
 10
215.5119539047397
 20
298.2274696642788
 30
0.0
 10
215.4666795078086
 20
298.2403447067591
 30
0.0
 10
215.3774543569769
 20
298.2697303458525
 30
0.0
 10
215.3334976991608
 20
298.2862349618866
 30
0.0
 10
215.2902020250205
 20
298.3045653680843
 30
0.0
  0
SPLINE
  5
127
330
1F
100
AcDbEntity
  8
1
100
AcDbSpline
210
0.0
220
0.0
230
1.0
 70
     8
 71
     3
 72
     8
 73
     4
 74
     0
 42
0.000000001
 43
0.0000000001
 40
0.0
 40
0.0
 40
0.0
 40
0.0
 40
1.0
 40
1.0
 40
1.0
 40
1.0
 10
215.9870203971048
 20
298.1665457383797
 30
0.0
 10
215.9366709253041
 20
298.1665112639878
 30
0.0
 10
215.8862721922416
 20
298.1687031884238
 30
0.0
 10
215.836120055025
 20
298.1731086531055
 30
0.0
  0
SPLINE
  5
128
330
1F
100
AcDbEntity
  8
1
100
AcDbSpline
210
0.0
220
0.0
230
1.0
 70
     8
 71
     3
 72
    21
 73
    17
 74
     0
 42
0.000000001
 43
0.0000000001
 40
0.0
 40
0.0
 40
0.0
 40
0.0
 40
0.2224088551493796
 40
0.2224088551493796
 40
0.2923046849043171
 40
0.2923046849043171
 40
0.3622005146592544
 40
0.3622005146592544
 40
0.5019921741691605
 40
0.6417838336790667
 40
0.6417838336790667
 40
0.7116796634340201
 40
0.7116796634340201
 40
0.7815754931889732
 40
0.7815754931889732
 40
1.0
 40
1.0
 40
1.0
 40
1.0
 10
235.8737945066486
 20
294.6161507595154
 30
0.0
 10
235.7831036074176
 20
294.6010627000923
 30
0.0
 10
235.6894930543439
 20
294.5889375424101
 30
0.0
 10
235.5624278960434
 20
294.5772798475101
 30
0.0
 10
235.5316965096767
 20
294.5748156597111
 30
0.0
 10
235.4703862711585
 20
294.5706081059496
 30
0.0
 10
235.439715408952
 20
294.5688551651168
 30
0.0
 10
235.3476563014779
 20
294.5646387923413
 30
0.0
 10
235.2247869824331
 20
294.5617935170769
 30
0.0
 10
235.1016721157259
 20
294.56447826056
 30
0.0
 10
235.009242036509
 20
294.5685982636277
 30
0.0
 10
234.9783855301878
 20
294.5703252061637
 30
0.0
 10
234.9167697079841
 20
294.5744843155352
 30
0.0
 10
234.8862298245832
 20
294.5769009037418
 30
0.0
 10
234.7613292865321
 20
294.5882121915793
 30
0.0
 10
234.6692331487606
 20
294.5999389697811
 30
0.0
 10
234.5795995562261
 20
294.6146183275203
 30
0.0
  0
SPLINE
  5
129
330
1F
100
AcDbEntity
  8
1
100
AcDbSpline
210
0.0
220
0.0
230
1.0
 70
     8
 71
     3
 72
     8
 73
     4
 74
     0
 42
0.000000001
 43
0.0000000001
 40
0.0
 40
0.0
 40
0.0
 40
0.0
 40
1.0
 40
1.0
 40
1.0
 40
1.0
 10
225.5028338206052
 20
298.88864791444
 30
0.0
 10
225.5210600440936
 20
298.9506461628072
 30
0.0
 10
225.5344167393493
 20
299.0128181248392
 30
0.0
 10
225.5426193244742
 20
299.0751739526002
 30
0.0
  0
SPLINE
  5
12A
330
1F
100
AcDbEntity
  8
1
100
AcDbSpline
210
0.0
220
0.0
230
1.0
 70
     8
 71
     3
 72
    35
 73
    31
 74
     0
 42
0.000000001
 43
0.0000000001
 40
0.0
 40
0.0
 40
0.0
 40
0.0
 40
0.1249999999999761
 40
0.1249999999999761
 40
0.2499999999999523
 40
0.2499999999999523
 40
0.3124999999999564
 40
0.3124999999999564
 40
0.3749999999999606
 40
0.3749999999999606
 40
0.4374999999999649
 40
0.4374999999999649
 40
0.499999999999969
 40
0.499999999999969
 40
0.562499999999973
 40
0.562499999999973
 40
0.6249999999999773
 40
0.6249999999999773
 40
0.6874999999999814
 40
0.6874999999999814
 40
0.7499999999999857
 40
0.7499999999999857
 40
0.8124999999999896
 40
0.8124999999999896
 40
0.8437499999999863
 40
0.8437499999999863
 40
0.8749999999999829
 40
0.9374999999999912
 40
0.9374999999999912
 40
1.0
 40
1.0
 40
1.0
 40
1.0
 10
224.8198980826014
 20
298.2216321162891
 30
0.0
 10
224.8641573985462
 20
298.2335827840071
 30
0.0
 10
224.9069953116579
 20
298.2483580049604
 30
0.0
 10
224.9901235874804
 20
298.2834812746663
 30
0.0
 10
225.0304129751367
 20
298.3038284804426
 30
0.0
 10
225.0890276791408
 20
298.3388070475807
 30
0.0
 10
225.1082800930395
 20
298.3512260787193
 30
0.0
 10
225.1460988814848
 20
298.3775992430308
 30
0.0
 10
225.1645202135809
 20
298.3914508084136
 30
0.0
 10
225.2003919367877
 20
298.4205055077585
 30
0.0
 10
225.2178796986302
 20
298.4357466643731
 30
0.0
 10
225.2515897792711
 20
298.4673456063216
 30
0.0
 10
225.267833948699
 20
298.4837161796392
 30
0.0
 10
225.2990994461895
 20
298.5175785211948
 30
0.0
 10
225.314069766971
 20
298.5350227165726
 30
0.0
 10
225.3424454929145
 20
298.5705447114618
 30
0.0
 10
225.3559301534382
 20
298.5887274821176
 30
0.0
 10
225.3811326220706
 20
298.6252401423102
 30
0.0
 10
225.3929102931865
 20
298.6436515216184
 30
0.0
 10
225.4146864425576
 20
298.6802174176153
 30
0.0
 10
225.4246439943782
 20
298.6982937904875
 30
0.0
 10
225.4428557721544
 20
298.733769056138
 30
0.0
 10
225.4510051348
 20
298.7509608229501
 30
0.0
 10
225.4619860998916
 20
298.7757573944561
 30
0.0
 10
225.4654296876723
 20
298.7838383561207
 30
0.0
 10
225.4718583675584
 20
298.7994512023895
 30
0.0
 10
225.4808444166684
 20
298.8221174597418
 30
0.0
 10
225.4880659661023
 20
298.8424721503582
 30
0.0
 10
225.4964004143816
 20
298.8673853008494
 30
0.0
 10
225.4999195587554
 20
298.8787347730762
 30
0.0
 10
225.5028338206052
 20
298.88864791444
 30
0.0
  0
SPLINE
  5
12B
330
1F
100
AcDbEntity
  8
1
100
AcDbSpline
210
0.0
220
0.0
230
1.0
 70
     8
 71
     3
 72
     9
 73
     5
 74
     0
 42
0.000000001
 43
0.0000000001
 40
0.0
 40
0.0
 40
0.0
 40
0.0
 40
0.5
 40
1.0
 40
1.0
 40
1.0
 40
1.0
 10
224.552053374873
 20
298.1862045355911
 30
0.0
 10
224.5975495999976
 20
298.1861819127789
 30
0.0
 10
224.6876736242105
 20
298.1921538615722
 30
0.0
 10
224.7761114705002
 20
298.2098090855768
 30
0.0
 10
224.8198980826014
 20
298.2216321162891
 30
0.0
  0
SPLINE
  5
12C
330
1F
100
AcDbEntity
  8
1
100
AcDbSpline
210
0.0
220
0.0
230
1.0
 70
     8
 71
     3
 72
    26
 73
    22
 74
     0
 42
0.000000001
 43
0.0000000001
 40
0.0
 40
0.0
 40
0.0
 40
0.0
 40
0.1250000000000079
 40
0.1250000000000079
 40
0.2500000000000157
 40
0.2500000000000157
 40
0.3750000000000235
 40
0.3750000000000235
 40
0.4375000000000095
 40
0.4375000000000095
 40
0.4999999999999954
 40
0.4999999999999954
 40
0.6249999999999968
 40
0.6249999999999968
 40
0.7499999999999979
 40
0.7499999999999979
 40
0.8124999999999984
 40
0.8124999999999984
 40
0.8749999999999987
 40
0.8749999999999987
 40
1.0
 40
1.0
 40
1.0
 40
1.0
 10
225.4354566338779
 20
297.6578046273018
 30
0.0
 10
225.4127110408418
 20
297.6169324792519
 30
0.0
 10
225.3871692492833
 20
297.5790486508012
 30
0.0
 10
225.330762405354
 20
297.508970005066
 30
0.0
 10
225.2998681466042
 20
297.4767520853123
 30
0.0
 10
225.2328057312411
 20
297.4181721867883
 30
0.0
 10
225.1975651310316
 20
297.3926054990877
 30
0.0
 10
225.142387176728
 20
297.3593022885048
 30
0.0
 10
225.1236064224298
 20
297.3490465528081
 30
0.0
 10
225.0852900623962
 20
297.3301792382103
 30
0.0
 10
225.0657264649253
 20
297.3215568862528
 30
0.0
 10
225.0060963747641
 20
297.2981910460738
 30
0.0
 10
224.9657613038416
 20
297.2861811823477
 30
0.0
 10
224.8840576354866
 20
297.2684999576056
 30
0.0
 10
224.8426881700884
 20
297.2628339197262
 30
0.0
 10
224.7799039511324
 20
297.2588119993383
 30
0.0
 10
224.7589651243903
 20
297.2582296414797
 30
0.0
 10
224.7172745114398
 20
297.2585022009108
 30
0.0
 10
224.6964888824648
 20
297.2593549803002
 30
0.0
 10
224.634302401545
 20
297.263959246104
 30
0.0
 10
224.5930712656543
 20
297.2697483764682
 30
0.0
 10
224.5520533748728
 20
297.2780977690817
 30
0.0
  0
SPLINE
  5
12D
330
1F
100
AcDbEntity
  8
1
100
AcDbSpline
210
0.0
220
0.0
230
1.0
 70
     8
 71
     3
 72
    15
 73
    11
 74
     0
 42
0.000000001
 43
0.0000000001
 40
0.0
 40
0.0
 40
0.0
 40
0.0
 40
0.25
 40
0.5
 40
0.5
 40
0.625
 40
0.625
 40
0.75
 40
0.75
 40
1.0
 40
1.0
 40
1.0
 40
1.0
 10
225.552053374873
 20
298.1575310565854
 30
0.0
 10
225.5520533748729
 20
298.1139970601864
 30
0.0
 10
225.5470554124018
 20
298.0277737751912
 30
0.0
 10
225.5324334003701
 20
297.9431770549826
 30
0.0
 10
225.5178342891533
 20
297.880343462497
 30
0.0
 10
225.512360844968
 20
297.859501533471
 30
0.0
 10
225.5001752085403
 20
297.818027036765
 30
0.0
 10
225.4934463783274
 20
297.7973485853616
 30
0.0
 10
225.4714553470276
 20
297.7359496967711
 30
0.0
 10
225.454552719971
 20
297.696266146054
 30
0.0
 10
225.4354566338777
 20
297.6578046272983
 30
0.0
  0
SPLINE
  5
134
330
1F
100
AcDbEntity
  8
NOCUT
100
AcDbSpline
210
0.0
220
0.0
230
1.0
 70
     8
 71
     3
 72
     8
 73
     4
 74
     0
 42
0.000000001
 43
0.0000000001
 40
0.0
 40
0.0
 40
0.0
 40
0.0
 40
1.0
 40
1.0
 40
1.0
 40
1.0
 10
225.5028338206051
 20
298.88864791444
 30
0.0
 10
225.5210600440936
 20
298.9506461628072
 30
0.0
 10
225.5344167393492
 20
299.0128181248392
 30
0.0
 10
225.5426193244741
 20
299.0751739526002
 30
0.0
  0
SPLINE
  5
135
330
1F
100
AcDbEntity
  8
NOCUT
100
AcDbSpline
210
0.0
220
0.0
230
1.0
 70
     8
 71
     3
 72
    35
 73
    31
 74
     0
 42
0.000000001
 43
0.0000000001
 40
0.0
 40
0.0
 40
0.0
 40
0.0
 40
0.1249999999999761
 40
0.1249999999999761
 40
0.2499999999999523
 40
0.2499999999999523
 40
0.3124999999999564
 40
0.3124999999999564
 40
0.3749999999999606
 40
0.3749999999999606
 40
0.4374999999999649
 40
0.4374999999999649
 40
0.499999999999969
 40
0.499999999999969
 40
0.562499999999973
 40
0.562499999999973
 40
0.6249999999999773
 40
0.6249999999999773
 40
0.6874999999999814
 40
0.6874999999999814
 40
0.7499999999999857
 40
0.7499999999999857
 40
0.8124999999999896
 40
0.8124999999999896
 40
0.8437499999999863
 40
0.8437499999999863
 40
0.8749999999999829
 40
0.9374999999999912
 40
0.9374999999999912
 40
1.0
 40
1.0
 40
1.0
 40
1.0
 10
224.8198980826014
 20
298.2216321162891
 30
0.0
 10
224.8641573985462
 20
298.2335827840071
 30
0.0
 10
224.9069953116579
 20
298.2483580049604
 30
0.0
 10
224.9901235874803
 20
298.2834812746663
 30
0.0
 10
225.0304129751366
 20
298.3038284804426
 30
0.0
 10
225.0890276791407
 20
298.3388070475807
 30
0.0
 10
225.1082800930394
 20
298.3512260787193
 30
0.0
 10
225.1460988814847
 20
298.3775992430308
 30
0.0
 10
225.1645202135808
 20
298.3914508084136
 30
0.0
 10
225.2003919367876
 20
298.4205055077585
 30
0.0
 10
225.2178796986302
 20
298.4357466643731
 30
0.0
 10
225.2515897792711
 20
298.4673456063216
 30
0.0
 10
225.267833948699
 20
298.4837161796392
 30
0.0
 10
225.2990994461895
 20
298.5175785211948
 30
0.0
 10
225.314069766971
 20
298.5350227165726
 30
0.0
 10
225.3424454929145
 20
298.5705447114618
 30
0.0
 10
225.3559301534381
 20
298.5887274821176
 30
0.0
 10
225.3811326220705
 20
298.6252401423102
 30
0.0
 10
225.3929102931865
 20
298.6436515216184
 30
0.0
 10
225.4146864425575
 20
298.6802174176153
 30
0.0
 10
225.4246439943781
 20
298.6982937904875
 30
0.0
 10
225.4428557721544
 20
298.733769056138
 30
0.0
 10
225.4510051347999
 20
298.7509608229501
 30
0.0
 10
225.4619860998915
 20
298.7757573944561
 30
0.0
 10
225.4654296876722
 20
298.7838383561207
 30
0.0
 10
225.4718583675583
 20
298.7994512023895
 30
0.0
 10
225.4808444166684
 20
298.8221174597418
 30
0.0
 10
225.4880659661022
 20
298.8424721503582
 30
0.0
 10
225.4964004143816
 20
298.8673853008494
 30
0.0
 10
225.4999195587553
 20
298.8787347730762
 30
0.0
 10
225.5028338206051
 20
298.88864791444
 30
0.0
  0
SPLINE
  5
136
330
1F
100
AcDbEntity
  8
NOCUT
100
AcDbSpline
210
0.0
220
0.0
230
1.0
 70
     8
 71
     3
 72
     9
 73
     5
 74
     0
 42
0.000000001
 43
0.0000000001
 40
0.0
 40
0.0
 40
0.0
 40
0.0
 40
0.5
 40
1.0
 40
1.0
 40
1.0
 40
1.0
 10
224.5520533748729
 20
298.1862045355911
 30
0.0
 10
224.5975495999976
 20
298.1861819127789
 30
0.0
 10
224.6876736242104
 20
298.1921538615722
 30
0.0
 10
224.7761114705002
 20
298.2098090855768
 30
0.0
 10
224.8198980826014
 20
298.2216321162891
 30
0.0
  0
MTEXT
  5
137
330
1F
100
AcDbEntity
  8
SK6
100
AcDbMText
 10
266.079224
 20
262.579408
 30
0.0
 40
3.5
 41
0.0
 71
     7
 72
     5
  1
\W0.7385;GL3-S2020KFR-12-L035027
  7
cesky
 73
     2
 44
0.8433729999999998
  0
MTEXT
  5
20A
330
1F
100
AcDbEntity
  8
2
100
AcDbMText
 10
225.962553
 20
263.908387
 30
0.0
 40
3.5
 41
0.0
 71
     7
 72
     5
  1
\W0.8459;35,5
  7
cesky
 73
     2
 44
0.8433729999999998
  0
LINE
  5
20B
330
1F
100
AcDbEntity
  8
2
100
AcDbLine
 10
212.552053
 20
297.220663
 30
0.0
 11
212.552053
 21
263.034221
 31
0.0
  0
LINE
  5
20C
330
1F
100
AcDbEntity
  8
2
100
AcDbLine
 10
248.052053
 20
306.020663
 30
0.0
 11
248.052053
 21
263.034221
 31
0.0
  0
LINE
  5
20D
330
1F
100
AcDbEntity
  8
2
100
AcDbLine
 10
212.552053
 20
264.034221
 30
0.0
 11
248.052053
 21
264.034221
 31
0.0
  0
SOLID
  5
20E
330
1F
100
AcDbEntity
  8
2
100
AcDbTrace
 10
212.552053
 20
264.034221
 30
0.0
 11
216.052051
 21
264.651365
 31
0.0
 12
216.052056
 22
263.4170759999999
 32
0.0
 13
216.052056
 23
263.4170759999999
 33
0.0
  0
SOLID
  5
20F
330
1F
100
AcDbEntity
  8
2
100
AcDbTrace
 10
248.052053
 20
264.034221
 30
0.0
 11
244.552056
 21
263.4170759999999
 31
0.0
 12
244.552051
 22
264.651365
 32
0.0
 13
244.552051
 23
264.651365
 33
0.0
  0
MTEXT
  5
210
330
1F
100
AcDbEntity
  8
2
100
AcDbMText
 10
162.395412
 20
300.965663
 30
0.0
 40
3.5
 41
0.0
 71
     7
 72
     5
  1
\W0.8654;18,75
  7
cesky
 11
0.0000000000000001
 21
1.0
 31
0.0
 73
     2
 44
0.8433729999999998
  0
LINE
  5
211
330
1F
100
AcDbEntity
  8
2
100
AcDbLine
 10
212.552053
 20
297.220663
 30
0.0
 11
160.926578
 21
297.220663
 31
0.0
  0
LINE
  5
212
330
1F
100
AcDbEntity
  8
2
100
AcDbLine
 10
229.552053
 20
315.970663
 30
0.0
 11
160.926578
 21
315.970663
 31
0.0
  0
LINE
  5
213
330
1F
100
AcDbEntity
  8
2
100
AcDbLine
 10
161.926578
 20
288.470663
 30
0.0
 11
161.926578
 21
324.720663
 31
0.0
  0
SOLID
  5
214
330
1F
100
AcDbEntity
  8
2
100
AcDbTrace
 10
161.926578
 20
297.220663
 30
0.0
 11
162.543723
 21
293.720666
 31
0.0
 12
161.309434
 22
293.720661
 32
0.0
 13
161.309434
 23
293.720661
 33
0.0
  0
SOLID
  5
215
330
1F
100
AcDbEntity
  8
2
100
AcDbTrace
 10
161.926578
 20
315.970663
 30
0.0
 11
161.309434
 21
319.470661
 31
0.0
 12
162.543723
 22
319.470666
 32
0.0
 13
162.543723
 23
319.470666
 33
0.0
  0
MTEXT
  5
216
330
1F
100
AcDbEntity
  8
2
100
AcDbMText
 10
196.917193
 20
287.01431
 30
0.0
 40
3.5
 41
0.0
 71
     7
 72
     5
  1
\W1.0515;90%%d
  7
cesky
 11
0.7071067811865469
 21
-0.7071067811865484
 31
0.0
 73
     2
 44
0.8433729999999998
  0
LINE
  5
217
330
1F
100
AcDbEntity
  8
2
100
AcDbLine
 10
212.552053
 20
297.220663
 30
0.0
 11
212.552053
 21
277.988962
 31
0.0
  0
LINE
  5
218
330
1F
100
AcDbEntity
  8
2
100
AcDbLine
 10
212.552053
 20
297.220663
 30
0.0
 11
193.320352
 21
297.220663
 31
0.0
  0
ARC
  5
219
330
1F
100
AcDbEntity
  8
2
100
AcDbCircle
 10
212.552053
 20
297.220663
 30
0.0
 40
18.23170128745523
100
AcDbArc
 50
180.0
 51
269.999943
  0
SOLID
  5
21A
330
1F
100
AcDbEntity
  8
2
100
AcDbTrace
 10
212.552053
 20
278.988962
 30
0.0
 11
209.026544
 21
278.539923
 31
0.0
 12
209.085574
 22
279.7728
 32
0.0
 13
212.552053
 23
278.988962
 33
0.0
  0
SOLID
  5
21B
330
1F
100
AcDbEntity
  8
2
100
AcDbTrace
 10
194.320352
 20
297.220663
 30
0.0
 11
195.10419
 21
293.754188
 31
0.0
 12
193.871314
 22
293.695149
 32
0.0
 13
194.320352
 23
297.220663
 33
0.0
  0
MTEXT
  5
21C
330
1F
100
AcDbEntity
  8
SK2
100
AcDbMText
 10
271.975053
 20
330.91396
 30
0.0
 40
3.5
 41
0.0
 71
     7
 72
     5
  1
\W0.7809;125
  7
cesky
 73
     2
 44
0.8433729999999998
  0
LINE
  5
21D
330
1F
100
AcDbEntity
  8
SK2
100
AcDbLine
 10
337.552053
 20
315.970663
 30
0.0
 11
337.552053
 21
332.039793
 31
0.0
  0
LINE
  5
21E
330
1F
100
AcDbEntity
  8
SK2
100
AcDbLine
 10
212.552053
 20
297.220663
 30
0.0
 11
212.552053
 21
332.039793
 31
0.0
  0
LINE
  5
21F
330
1F
100
AcDbEntity
  8
SK2
100
AcDbLine
 10
337.552053
 20
331.0397930000001
 30
0.0
 11
212.552053
 21
331.0397930000001
 31
0.0
  0
SOLID
  5
220
330
1F
100
AcDbEntity
  8
SK2
100
AcDbTrace
 10
337.552053
 20
331.0397930000001
 30
0.0
 11
334.052056
 21
330.422649
 31
0.0
 12
334.052051
 22
331.656937
 32
0.0
 13
334.052051
 23
331.656937
 33
0.0
  0
SOLID
  5
221
330
1F
100
AcDbEntity
  8
SK2
100
AcDbTrace
 10
212.552053
 20
331.0397930000001
 30
0.0
 11
216.052051
 21
331.656937
 31
0.0
 12
216.052056
 22
330.422649
 32
0.0
 13
216.052056
 23
330.422649
 33
0.0
  0
MTEXT
  5
222
330
1F
100
AcDbEntity
  8
SK2
100
AcDbMText
 10
351.465675
 20
304.178163
 30
0.0
 40
3.5
 41
0.0
 71
     7
 72
     5
  1
\W0.7045;20
  7
cesky
 11
0.0000000000000001
 21
1.0
 31
0.0
 73
     2
 44
0.8433729999999998
  0
LINE
  5
223
330
1F
100
AcDbEntity
  8
SK2
100
AcDbLine
 10
337.552053
 20
296.070663
 30
0.0
 11
351.996841
 21
296.070663
 31
0.0
  0
LINE
  5
224
330
1F
100
AcDbEntity
  8
SK2
100
AcDbLine
 10
337.552053
 20
315.970663
 30
0.0
 11
351.996841
 21
315.970663
 31
0.0
  0
LINE
  5
225
330
1F
100
AcDbEntity
  8
SK2
100
AcDbLine
 10
350.996841
 20
296.070663
 30
0.0
 11
350.996841
 21
315.970663
 31
0.0
  0
SOLID
  5
226
330
1F
100
AcDbEntity
  8
SK2
100
AcDbTrace
 10
350.996841
 20
296.070663
 30
0.0
 11
350.379697
 21
299.570661
 31
0.0
 12
351.613986
 22
299.570666
 32
0.0
 13
351.613986
 23
299.570666
 33
0.0
  0
SOLID
  5
227
330
1F
100
AcDbEntity
  8
SK2
100
AcDbTrace
 10
350.996841
 20
315.970663
 30
0.0
 11
351.613986
 21
312.470666
 31
0.0
 12
350.379697
 22
312.470661
 32
0.0
 13
350.379697
 23
312.470661
 33
0.0
  0
ELLIPSE
  5
22E
330
1F
100
AcDbEntity
  8
CUT
100
AcDbEllipse
 10
213.27293
 20
295.46674
 30
0.0
 11
1.749999809368113
 21
0.08318665590923
 31
0.0
210
0.0
220
0.0
230
0.9999999999999998
 40
0.009819
 41
4.446954214795165
 42
5.319711901575394
  0
ELLIPSE
  5
22F
330
1F
100
AcDbEntity
  8
CUT
100
AcDbEllipse
 10
212.670611
 20
295.416266
 30
0.0
 11
0.549998956950526
 21
0.0261443267409697
 31
0.0
210
0.0
220
0.0
230
0.9999999999999998
 40
0.009819
 41
1.305361880746247
 42
1.382032420850161
  0
ELLIPSE
  5
230
330
1F
100
AcDbEntity
  8
CUT
100
AcDbEllipse
 10
212.67061
 20
298.341481
 30
0.0
 11
0.5499858270769455
 21
-0.0267178086621775
 31
0.0
210
0.0
220
0.0
230
0.9999999999999998
 40
0.146738
 41
1.312956656773218
 42
1.389627093036172
  0
ELLIPSE
  5
231
330
1F
100
AcDbEntity
  8
CUT
100
AcDbEllipse
 10
213.27293
 20
298.639324
 30
0.0
 11
1.74995553950236
 21
-0.0850112013723442
 31
0.0
210
0.0
220
0.0
230
1.0
 40
0.146738
 41
4.454549246011573
 42
5.327306932790769
  0
LINE
  5
232
330
1F
100
AcDbEntity
  8
CUT
100
AcDbLine
 10
212.562053
 20
298.219365
 30
0.0
 11
212.562053
 21
295.625698
 31
0.0
  0
LINE
  5
233
330
1F
100
AcDbEntity
  8
CUT
100
AcDbLine
 10
214.272276
 20
295.500101
 30
0.0
 11
214.272276
 21
298.380534
 31
0.0
  0
LINE
  5
234
330
1F
100
AcDbEntity
  8
CUT
100
AcDbLine
 10
212.5697365995839
 20
298.2738634457331
 30
0.0
 11
212.5697365995839
 21
298.2738634457331
 31
0.0
  0
ARC
  5
235
330
1F
100
AcDbEntity
  8
CUT
100
AcDbCircle
 10
212.7600213752219
 20
298.2192461642841
 30
0.0
 40
0.1979680359868105
100
AcDbArc
 50
163.9849767671082
 51
179.9656207095809
  0
LINE
  5
236
330
1F
100
AcDbEntity
  8
CUT
100
AcDbLine
 10
212.5620533748731
 20
295.625698377791
 30
0.0
 11
212.5620533748731
 21
295.625698377791
 31
0.0
  0
ARC
  5
237
330
1F
100
AcDbEntity
  8
CUT
100
AcDbCircle
 10
212.7607010107197
 20
295.6258495835227
 30
0.0
 40
0.1986476933936598
100
AcDbArc
 50
180.0436121404332
 51
195.9874461667866
  0
LINE
  5
238
330
1F
100
AcDbEntity
  8
CUT
100
AcDbLine
 10
212.5697365995839
 20
295.5711366986583
 30
0.0
 11
212.5697365995839
 21
295.5711366986583
 31
0.0
  0
ARC
  5
239
330
1F
100
AcDbEntity
  8
CUT
100
AcDbCircle
 10
212.7637801743651
 20
295.6284210804977
 30
0.0
 40
0.2023225378364333
100
AcDbArc
 50
196.4473387826139
 51
251.4440546825471
  0
LINE
  5
23A
330
1F
100
AcDbEntity
  8
CUT
100
AcDbLine
 10
212.7735629691178
 20
298.4160502577884
 30
0.0
 11
212.7735629691178
 21
298.4160502577884
 31
0.0
  0
ARC
  5
23B
330
1F
100
AcDbEntity
  8
CUT
100
AcDbCircle
 10
212.7585992320741
 20
298.2238198305014
 30
0.0
 40
0.1928119565827441
100
AcDbArc
 50
85.54891730353123
 51
107.88195909552
  0
LINE
  5
23C
330
1F
100
AcDbEntity
  8
CUT
100
AcDbLine
 10
212.6993949767115
 20
295.4366166080794
 30
0.0
 11
212.6993949767115
 21
295.4366166080794
 31
0.0
  0
ARC
  5
23D
330
1F
100
AcDbEntity
  8
CUT
100
AcDbCircle
 10
212.7637289797923
 20
295.6308595898624
 30
0.0
 40
0.2046196469657336
100
AcDbArc
 50
251.6749360067831
 51
272.7546876432636
  0
LINE
  5
23E
330
1F
100
AcDbEntity
  8
CUT
100
AcDbLine
 10
212.6993949767115
 20
298.407317260315
 30
0.0
 11
212.6993949767115
 21
298.407317260315
 31
0.0
  0
ARC
  5
23F
330
1F
100
AcDbEntity
  8
CUT
100
AcDbCircle
 10
212.7616594548626
 20
298.2171112406355
 30
0.0
 40
0.2001379403355372
100
AcDbArc
 50
108.1260054973341
 51
163.5268823024354
  0
ENDSEC
  0
SECTION
  2
OBJECTS
  0
DICTIONARY
  5
C
330
0
100
AcDbDictionary
281
     1
  3
ACAD_CIP_PREVIOUS_PRODUCT_INFO
350
207
  3
ACAD_COLOR
350
202
  3
ACAD_DETAILVIEWSTYLE
350
1FE
  3
ACAD_GROUP
350
D
  3
ACAD_LAYOUT
350
1A
  3
ACAD_MATERIAL
350
43
  3
ACAD_MLEADERSTYLE
350
6B
  3
ACAD_MLINESTYLE
350
17
  3
ACAD_PLOTSETTINGS
350
19
  3
ACAD_PLOTSTYLENAME
350
E
  3
ACAD_SCALELIST
350
47
  3
ACAD_SECTIONVIEWSTYLE
350
1FF
  3
ACAD_TABLESTYLE
350
69
  3
ACAD_VISUALSTYLE
350
2A
  3
ACDB_RECOMPOSE_DATA
350
26F
  3
AcDbVariableDictionary
350
1BB
  0
DICTIONARY
  5
24E
330
10
100
AcDbDictionary
280
     1
281
     1
  3
ADSK_XREC_LAYER_RECONCILED
360
24F
  0
DICTIONARY
  5
250
330
74
100
AcDbDictionary
280
     1
281
     1
  3
ADSK_XREC_LAYER_RECONCILED
360
251
  0
DICTIONARY
  5
252
330
240
100
AcDbDictionary
280
     1
281
     1
  3
ADSK_XREC_LAYER_RECONCILED
360
253
  0
DICTIONARY
  5
254
330
241
100
AcDbDictionary
280
     1
281
     1
  3
ADSK_XREC_LAYER_RECONCILED
360
255
  0
DICTIONARY
  5
256
330
242
100
AcDbDictionary
280
     1
281
     1
  3
ADSK_XREC_LAYER_RECONCILED
360
257
  0
DICTIONARY
  5
258
330
243
100
AcDbDictionary
280
     1
281
     1
  3
ADSK_XREC_LAYER_RECONCILED
360
259
  0
DICTIONARY
  5
25A
330
244
100
AcDbDictionary
280
     1
281
     1
  3
ADSK_XREC_LAYER_RECONCILED
360
25B
  0
DICTIONARY
  5
25C
330
245
100
AcDbDictionary
280
     1
281
     1
  3
ADSK_XREC_LAYER_RECONCILED
360
25D
  0
DICTIONARY
  5
25E
330
246
100
AcDbDictionary
280
     1
281
     1
  3
ADSK_XREC_LAYER_RECONCILED
360
25F
  0
DICTIONARY
  5
260
330
247
100
AcDbDictionary
280
     1
281
     1
  3
ADSK_XREC_LAYER_RECONCILED
360
261
  0
DICTIONARY
  5
262
330
248
100
AcDbDictionary
280
     1
281
     1
  3
ADSK_XREC_LAYER_RECONCILED
360
263
  0
DICTIONARY
  5
264
330
249
100
AcDbDictionary
280
     1
281
     1
  3
ADSK_XREC_LAYER_RECONCILED
360
265
  0
DICTIONARY
  5
266
330
24B
100
AcDbDictionary
280
     1
281
     1
  3
ADSK_XREC_LAYER_RECONCILED
360
267
  0
DICTIONARY
  5
268
330
24C
100
AcDbDictionary
280
     1
281
     1
  3
ADSK_XREC_LAYER_RECONCILED
360
269
  0
DICTIONARY
  5
208
330
1F
100
AcDbDictionary
280
     1
281
     1
  3
ACAD_SORTENTS
360
209
  0
XRECORD
  5
207
102
{ACAD_REACTORS
330
C
102
}
330
C
100
AcDbXrecord
280
     1
300
AMECH_PP
300
2019
300
87089AMECH_PP_2019_0F
  0
DICTIONARY
  5
202
102
{ACAD_REACTORS
330
C
102
}
330
C
100
AcDbDictionary
281
     1
  0
DICTIONARY
  5
1FE
102
{ACAD_REACTORS
330
C
102
}
330
C
100
AcDbDictionary
281
     1
  3
Metric50
350
204
  0
DICTIONARY
  5
D
102
{ACAD_REACTORS
330
C
102
}
330
C
100
AcDbDictionary
281
     1
  3
NULOVY_BOD
350
24D
  0
DICTIONARY
  5
1A
102
{ACAD_REACTORS
330
C
102
}
330
C
100
AcDbDictionary
281
     1
  3
Layout1
350
1E
  3
Layout2
350
26
  3
Model
350
22
  0
DICTIONARY
  5
43
102
{ACAD_REACTORS
330
C
102
}
330
C
100
AcDbDictionary
281
     1
  3
ByBlock
350
45
  3
ByLayer
350
44
  3
Global
350
46
  0
DICTIONARY
  5
6B
102
{ACAD_REACTORS
330
C
102
}
330
C
100
AcDbDictionary
281
     1
  3
Standard
350
6C
  0
DICTIONARY
  5
17
102
{ACAD_REACTORS
330
C
102
}
330
C
100
AcDbDictionary
281
     1
  3
Standard
350
18
  0
DICTIONARY
  5
19
102
{ACAD_REACTORS
330
C
102
}
330
C
100
AcDbDictionary
281
     1
  0
ACDBDICTIONARYWDFLT
  5
E
102
{ACAD_REACTORS
330
C
102
}
330
C
100
AcDbDictionary
281
     1
  3
Normal
350
F
100
AcDbDictionaryWithDefault
340
F
  0
DICTIONARY
  5
47
102
{ACAD_REACTORS
330
C
102
}
330
C
100
AcDbDictionary
281
     1
  3
A0
350
48
  3
A1
350
49
  3
A2
350
4A
  3
A3
350
4B
  3
A4
350
4C
  3
A5
350
4D
  3
A6
350
4E
  3
A7
350
4F
  3
A8
350
50
  3
A9
350
51
  3
B0
350
52
  3
B1
350
53
  3
B2
350
54
  3
B3
350
55
  3
B4
350
56
  3
B5
350
57
  3
B6
350
58
  3
B7
350
59
  3
B8
350
5A
  3
B9
350
5B
  3
C0
350
5C
  3
C1
350
5D
  3
C2
350
5E
  3
C3
350
5F
  3
C4
350
60
  3
C5
350
61
  3
C6
350
62
  3
C7
350
63
  3
C8
350
64
  3
C9
350
65
  3
D0
350
66
  3
D1
350
67
  3
D2
350
68
  0
DICTIONARY
  5
1FF
102
{ACAD_REACTORS
330
C
102
}
330
C
100
AcDbDictionary
281
     1
  3
Metric50
350
203
  0
DICTIONARY
  5
69
102
{ACAD_REACTORS
330
C
102
}
330
C
100
AcDbDictionary
281
     1
  3
Standard
350
6A
  0
DICTIONARY
  5
2A
102
{ACAD_REACTORS
330
C
102
}
330
C
100
AcDbDictionary
281
     1
  3
2dWireframe
350
2F
  3
Basic
350
32
  3
Brighten
350
36
  3
ColorChange
350
3A
  3
Conceptual
350
34
  3
Dim
350
35
  3
EdgeColorOff
350
3D
  3
Facepattern
350
39
  3
Flat
350
2B
  3
FlatWithEdges
350
2C
  3
Gouraud
350
2D
  3
GouraudWithEdges
350
2E
  3
Hidden
350
31
  3
JitterOff
350
3B
  3
Linepattern
350
38
  3
OverhangOff
350
3C
  3
Realistic
350
33
  3
Shaded
350
42
  3
Shaded with edges
350
41
  3
Shades of Gray
350
3E
  3
Sketchy
350
3F
  3
Thicken
350
37
  3
Wireframe
350
30
  3
X-Ray
350
40
  0
XRECORD
  5
26F
102
{ACAD_REACTORS
330
C
102
}
330
C
100
AcDbXrecord
280
     1
 90
        1
330
6A
  0
DICTIONARY
  5
1BB
102
{ACAD_REACTORS
330
C
102
}
330
C
100
AcDbDictionary
281
     1
  3
CANNOSCALE
350
1BC
  3
CMLEADERSTYLE
350
1FD
  3
CTABLESTYLE
350
1FC
  3
CVIEWDETAILSTYLE
350
26A
  3
CVIEWSECTIONSTYLE
350
26B
  3
MSLTSCALE
350
1BD
  3
XCLIPFRAME
350
26C
  0
XRECORD
  5
24F
102
{ACAD_REACTORS
330
24E
102
}
330
24E
100
AcDbXrecord
280
     1
290
     1
  0
XRECORD
  5
251
102
{ACAD_REACTORS
330
250
102
}
330
250
100
AcDbXrecord
280
     1
290
     1
  0
XRECORD
  5
253
102
{ACAD_REACTORS
330
252
102
}
330
252
100
AcDbXrecord
280
     1
290
     1
  0
XRECORD
  5
255
102
{ACAD_REACTORS
330
254
102
}
330
254
100
AcDbXrecord
280
     1
290
     1
  0
XRECORD
  5
257
102
{ACAD_REACTORS
330
256
102
}
330
256
100
AcDbXrecord
280
     1
290
     1
  0
XRECORD
  5
259
102
{ACAD_REACTORS
330
258
102
}
330
258
100
AcDbXrecord
280
     1
290
     1
  0
XRECORD
  5
25B
102
{ACAD_REACTORS
330
25A
102
}
330
25A
100
AcDbXrecord
280
     1
290
     1
  0
XRECORD
  5
25D
102
{ACAD_REACTORS
330
25C
102
}
330
25C
100
AcDbXrecord
280
     1
290
     1
  0
XRECORD
  5
25F
102
{ACAD_REACTORS
330
25E
102
}
330
25E
100
AcDbXrecord
280
     1
290
     1
  0
XRECORD
  5
261
102
{ACAD_REACTORS
330
260
102
}
330
260
100
AcDbXrecord
280
     1
290
     1
  0
XRECORD
  5
263
102
{ACAD_REACTORS
330
262
102
}
330
262
100
AcDbXrecord
280
     1
290
     1
  0
XRECORD
  5
265
102
{ACAD_REACTORS
330
264
102
}
330
264
100
AcDbXrecord
280
     1
290
     1
  0
XRECORD
  5
267
102
{ACAD_REACTORS
330
266
102
}
330
266
100
AcDbXrecord
280
     1
290
     1
  0
XRECORD
  5
269
102
{ACAD_REACTORS
330
268
102
}
330
268
100
AcDbXrecord
280
     1
290
     1
  0
SORTENTSTABLE
  5
209
102
{ACAD_REACTORS
330
208
102
}
330
208
100
AcDbSortentsTable
330
1F
331
20A
  5
155
331
20B
  5
16D
331
20C
  5
20A
331
20D
  5
20B
331
20E
  5
20C
331
20F
  5
20D
331
210
  5
21C
331
211
  5
21D
331
212
  5
21E
331
213
  5
21F
331
214
  5
220
331
215
  5
221
331
216
  5
222
331
217
  5
223
331
218
  5
224
331
219
  5
225
331
21A
  5
226
331
21B
  5
227
331
21C
  5
210
331
21D
  5
211
331
21E
  5
212
331
21F
  5
213
331
220
  5
214
331
221
  5
215
331
222
  5
216
331
223
  5
217
331
224
  5
218
331
225
  5
219
331
226
  5
21A
331
227
  5
21B
331
232
  5
23E
331
233
  5
23F
331
234
  5
232
331
235
  5
233
331
236
  5
234
331
237
  5
235
331
238
  5
236
331
239
  5
237
331
23A
  5
238
331
23B
  5
239
331
23C
  5
23A
331
23D
  5
23B
331
23E
  5
23C
331
23F
  5
23D
  0
ACDBDETAILVIEWSTYLE
  5
204
102
{ACAD_XDICTIONARY
360
2A3
102
}
102
{ACAD_REACTORS
330
1FE
102
}
330
1FE
100
AcDbModelDocViewStyle
 70
     0
  3
Metric50
290
     0
100
AcDbDetailViewStyle
 70
     0
 71
     0
 90
        3
 71
     1
340
11
 62
   256
 40
5.0
340
0
 62
   256
 40
5.0
300

 40
0.0
280
     1
 71
     2
340
16
 90
       25
 62
   256
 71
     3
340
11
 62
   256
 40
5.0
 90
        0
 40
15.0
 90
        1
300
%<\AcVar ViewDetailId>% (%<\AcVar ViewScale \f "%sn">%)
 71
     4
340
16
 90
       25
 62
   256
340
16
 90
       25
 62
   256
280
     0
  0
GROUP
  5
24D
102
{ACAD_REACTORS
330
D
102
}
330
D
100
AcDbGroup
300

 70
     0
 71
     1
340
75
  0
LAYOUT
  5
1E
102
{ACAD_REACTORS
330
1A
102
}
330
1A
100
AcDbPlotSettings
  1

  2
none_device
  4

  6

 40
0.0
 41
0.0
 42
0.0
 43
0.0
 44
0.0
 45
0.0
 46
0.0
 47
0.0
 48
0.0
 49
0.0
140
0.0
141
0.0
142
1.0
143
1.0
 70
   688
 72
     0
 73
     0
 74
     5
  7

 75
    16
147
1.0
 76
     0
 77
     2
 78
   300
148
0.0
149
0.0
100
AcDbLayout
  1
Layout1
 70
     1
 71
     1
 10
-0.5
 20
-0.5
 11
5.0
 21
5.0
 12
0.0
 22
0.0
 32
0.0
 14
-0.5
 24
-0.5
 34
-0.5
 15
5.0
 25
5.0
 35
5.0
146
0.0
 13
0.0
 23
0.0
 33
0.0
 16
1.0
 26
0.0
 36
0.0
 17
0.0
 27
1.0
 37
0.0
 76
     0
330
1B
  0
LAYOUT
  5
26
102
{ACAD_REACTORS
330
1A
102
}
330
1A
100
AcDbPlotSettings
  1

  2
none_device
  4

  6

 40
0.0
 41
0.0
 42
0.0
 43
0.0
 44
0.0
 45
0.0
 46
0.0
 47
0.0
 48
0.0
 49
0.0
140
0.0
141
0.0
142
1.0
143
1.0
 70
   688
 72
     0
 73
     0
 74
     5
  7

 75
    16
147
1.0
 76
     0
 77
     2
 78
   300
148
0.0
149
0.0
100
AcDbLayout
  1
Layout2
 70
     1
 71
     2
 10
0.0
 20
0.0
 11
0.0
 21
0.0
 12
0.0
 22
0.0
 32
0.0
 14
0.0
 24
0.0
 34
0.0
 15
0.0
 25
0.0
 35
0.0
146
0.0
 13
0.0
 23
0.0
 33
0.0
 16
1.0
 26
0.0
 36
0.0
 17
0.0
 27
1.0
 37
0.0
 76
     0
330
23
  0
LAYOUT
  5
22
102
{ACAD_REACTORS
330
1A
102
}
330
1A
100
AcDbPlotSettings
  1

  2
none_device
  4
Letter_(8.50_x_11.00_Inches)
  6

 40
6.349999999999999
 41
6.349999999999999
 42
6.350005
 43
6.350005
 44
215.9
 45
279.4
 46
0.0
 47
0.0
 48
0.0
 49
0.0
140
0.0
141
0.0
142
1.0
143
1.0
 70
  1712
 72
     0
 73
     0
 74
     0
  7

 75
     0
147
1.0
 76
     0
 77
     2
 78
   300
148
0.0
149
0.0
100
AcDbLayout
  1
Model
 70
     1
 71
     0
 10
-0.5
 20
-0.5
 11
5.0
 21
5.0
 12
0.0
 22
0.0
 32
0.0
 14
-0.5
 24
-0.5
 34
-0.5
 15
5.0
 25
5.0
 35
5.0
146
0.0
 13
0.0
 23
0.0
 33
0.0
 16
1.0
 26
0.0
 36
0.0
 17
0.0
 27
1.0
 37
0.0
 76
     0
330
1F
331
29
  0
MATERIAL
  5
45
102
{ACAD_XDICTIONARY
360
1F1
102
}
102
{ACAD_REACTORS
330
43
102
}
330
43
100
AcDbMaterial
  1
ByBlock
  0
MATERIAL
  5
44
102
{ACAD_XDICTIONARY
360
1EF
102
}
102
{ACAD_REACTORS
330
43
102
}
330
43
100
AcDbMaterial
  1
ByLayer
  0
MATERIAL
  5
46
102
{ACAD_XDICTIONARY
360
1F3
102
}
102
{ACAD_REACTORS
330
43
102
}
330
43
100
AcDbMaterial
  1
Global
  0
MLEADERSTYLE
  5
6C
102
{ACAD_REACTORS
330
6B
102
}
330
6B
100
AcDbMLeaderStyle
170
     2
171
     1
172
     0
 90
        2
 40
0.0
 41
0.0
173
     1
 91
-1056964608
340
14
 92
       -2
290
     1
 42
0.09
291
     1
 43
0.36
  3
Standard
 44
0.18
300

342
11
174
     1
178
     6
175
     1
176
     0
 93
-1056964608
 45
0.18
292
     0
297
     0
 46
0.18
 94
-1056964608
 47
1.0
 49
1.0
140
1.0
293
     1
141
0.0
294
     1
177
     0
142
1.0
295
     0
296
     0
143
0.125
1001
ACAD_MLEADERVER
1070
     2
  0
MLINESTYLE
  5
18
102
{ACAD_REACTORS
330
17
102
}
330
17
100
AcDbMlineStyle
  2
STANDARD
 70
     0
  3

 62
   256
 51
90.0
 52
90.0
 71
     2
 49
0.5
 62
   256
  6
BYLAYER
 49
-0.5
 62
   256
  6
BYLAYER
  0
ACDBPLACEHOLDER
  5
F
102
{ACAD_REACTORS
330
E
102
}
330
E
  0
SCALE
  5
48
102
{ACAD_REACTORS
330
47
102
}
330
47
100
AcDbScale
 70
     0
300
1:1
140
1.0
141
1.0
290
     1
  0
SCALE
  5
49
102
{ACAD_REACTORS
330
47
102
}
330
47
100
AcDbScale
 70
     0
300
1:2
140
1.0
141
2.0
290
     0
  0
SCALE
  5
4A
102
{ACAD_REACTORS
330
47
102
}
330
47
100
AcDbScale
 70
     0
300
1:4
140
1.0
141
4.0
290
     0
  0
SCALE
  5
4B
102
{ACAD_REACTORS
330
47
102
}
330
47
100
AcDbScale
 70
     0
300
1:5
140
1.0
141
5.0
290
     0
  0
SCALE
  5
4C
102
{ACAD_REACTORS
330
47
102
}
330
47
100
AcDbScale
 70
     0
300
1:8
140
1.0
141
8.0
290
     0
  0
SCALE
  5
4D
102
{ACAD_REACTORS
330
47
102
}
330
47
100
AcDbScale
 70
     0
300
1:10
140
1.0
141
10.0
290
     0
  0
SCALE
  5
4E
102
{ACAD_REACTORS
330
47
102
}
330
47
100
AcDbScale
 70
     0
300
1:16
140
1.0
141
16.0
290
     0
  0
SCALE
  5
4F
102
{ACAD_REACTORS
330
47
102
}
330
47
100
AcDbScale
 70
     0
300
1:20
140
1.0
141
20.0
290
     0
  0
SCALE
  5
50
102
{ACAD_REACTORS
330
47
102
}
330
47
100
AcDbScale
 70
     0
300
1:30
140
1.0
141
30.0
290
     0
  0
SCALE
  5
51
102
{ACAD_REACTORS
330
47
102
}
330
47
100
AcDbScale
 70
     0
300
1:40
140
1.0
141
40.0
290
     0
  0
SCALE
  5
52
102
{ACAD_REACTORS
330
47
102
}
330
47
100
AcDbScale
 70
     0
300
1:50
140
1.0
141
50.0
290
     0
  0
SCALE
  5
53
102
{ACAD_REACTORS
330
47
102
}
330
47
100
AcDbScale
 70
     0
300
1:100
140
1.0
141
100.0
290
     0
  0
SCALE
  5
54
102
{ACAD_REACTORS
330
47
102
}
330
47
100
AcDbScale
 70
     0
300
2:1
140
2.0
141
1.0
290
     0
  0
SCALE
  5
55
102
{ACAD_REACTORS
330
47
102
}
330
47
100
AcDbScale
 70
     0
300
4:1
140
4.0
141
1.0
290
     0
  0
SCALE
  5
56
102
{ACAD_REACTORS
330
47
102
}
330
47
100
AcDbScale
 70
     0
300
8:1
140
8.0
141
1.0
290
     0
  0
SCALE
  5
57
102
{ACAD_REACTORS
330
47
102
}
330
47
100
AcDbScale
 70
     0
300
10:1
140
10.0
141
1.0
290
     0
  0
SCALE
  5
58
102
{ACAD_REACTORS
330
47
102
}
330
47
100
AcDbScale
 70
     0
300
100:1
140
100.0
141
1.0
290
     0
  0
SCALE
  5
59
102
{ACAD_REACTORS
330
47
102
}
330
47
100
AcDbScale
 70
     0
300
1/128" = 1'-0"
140
0.007812
141
12.0
290
     0
  0
SCALE
  5
5A
102
{ACAD_REACTORS
330
47
102
}
330
47
100
AcDbScale
 70
     0
300
1/64" = 1'-0"
140
0.015625
141
12.0
290
     0
  0
SCALE
  5
5B
102
{ACAD_REACTORS
330
47
102
}
330
47
100
AcDbScale
 70
     0
300
1/32" = 1'-0"
140
0.03125
141
12.0
290
     0
  0
SCALE
  5
5C
102
{ACAD_REACTORS
330
47
102
}
330
47
100
AcDbScale
 70
     0
300
1/16" = 1'-0"
140
0.0625
141
12.0
290
     0
  0
SCALE
  5
5D
102
{ACAD_REACTORS
330
47
102
}
330
47
100
AcDbScale
 70
     0
300
3/32" = 1'-0"
140
0.09375
141
12.0
290
     0
  0
SCALE
  5
5E
102
{ACAD_REACTORS
330
47
102
}
330
47
100
AcDbScale
 70
     0
300
1/8" = 1'-0"
140
0.125
141
12.0
290
     0
  0
SCALE
  5
5F
102
{ACAD_REACTORS
330
47
102
}
330
47
100
AcDbScale
 70
     0
300
3/16" = 1'-0"
140
0.1875
141
12.0
290
     0
  0
SCALE
  5
60
102
{ACAD_REACTORS
330
47
102
}
330
47
100
AcDbScale
 70
     0
300
1/4" = 1'-0"
140
0.25
141
12.0
290
     0
  0
SCALE
  5
61
102
{ACAD_REACTORS
330
47
102
}
330
47
100
AcDbScale
 70
     0
300
3/8" = 1'-0"
140
0.375
141
12.0
290
     0
  0
SCALE
  5
62
102
{ACAD_REACTORS
330
47
102
}
330
47
100
AcDbScale
 70
     0
300
1/2" = 1'-0"
140
0.5
141
12.0
290
     0
  0
SCALE
  5
63
102
{ACAD_REACTORS
330
47
102
}
330
47
100
AcDbScale
 70
     0
300
3/4" = 1'-0"
140
0.75
141
12.0
290
     0
  0
SCALE
  5
64
102
{ACAD_REACTORS
330
47
102
}
330
47
100
AcDbScale
 70
     0
300
1" = 1'-0"
140
1.0
141
12.0
290
     0
  0
SCALE
  5
65
102
{ACAD_REACTORS
330
47
102
}
330
47
100
AcDbScale
 70
     0
300
1-1/2" = 1'-0"
140
1.5
141
12.0
290
     0
  0
SCALE
  5
66
102
{ACAD_REACTORS
330
47
102
}
330
47
100
AcDbScale
 70
     0
300
3" = 1'-0"
140
3.0
141
12.0
290
     0
  0
SCALE
  5
67
102
{ACAD_REACTORS
330
47
102
}
330
47
100
AcDbScale
 70
     0
300
6" = 1'-0"
140
6.0
141
12.0
290
     0
  0
SCALE
  5
68
102
{ACAD_REACTORS
330
47
102
}
330
47
100
AcDbScale
 70
     0
300
1'-0" = 1'-0"
140
12.0
141
12.0
290
     0
  0
ACDBSECTIONVIEWSTYLE
  5
203
102
{ACAD_XDICTIONARY
360
2A1
102
}
102
{ACAD_REACTORS
330
1FF
102
}
330
1FF
100
AcDbModelDocViewStyle
 70
     0
  3
Metric50
290
     0
100
AcDbSectionViewStyle
 70
     0
 71
     0
 90
      102
 71
     1
340
11
 62
   256
 40
5.0
340
0
340
0
 62
   256
 40
5.0
300
I, O, Q, S, X, Z
 40
10.0
 90
        0
 40
2.5
 90
        0
 71
     2
340
16
 90
       25
 62
   256
340
16
 90
       50
 62
   256
 40
5.0
 40
2.5
 40
5.0
 71
     3
340
11
 62
   256
 40
5.0
 90
        0
 40
15.0
 90
        1
300
%<\AcVar ViewSectionStartId>%-%<\AcVar ViewSectionEndId>% (%<\AcVar ViewScale \f "%sn">%)
 71
     4
 62
   256
 62
   257
300
ANSI31
 40
1.0
 90
        0
290
     0
290
     0
 90
        6
 40
0.0
 40
1.570796326794896
 40
0.2617993877991494
 40
1.308996938995747
 40
-0.2617993877991494
 40
1.832595714594046
  0
TABLESTYLE
  5
6A
102
{ACAD_XDICTIONARY
360
1F5
102
}
102
{ACAD_REACTORS
330
69
102
}
330
69
100
AcDbTableStyle
  3
Standard
 70
     0
 71
     0
 40
0.06
 41
0.06
280
     0
281
     0
  7
Standard
140
0.18
170
     2
 62
     0
 63
     7
283
     0
274
    -2
284
     1
 64
     0
275
    -2
285
     1
 65
     0
276
    -2
286
     1
 66
     0
277
    -2
287
     1
 67
     0
278
    -2
288
     1
 68
     0
279
    -2
289
     1
 69
     0
  7
Standard
140
0.25
170
     5
 62
     0
 63
     7
283
     0
274
    -2
284
     1
 64
     0
275
    -2
285
     1
 65
     0
276
    -2
286
     1
 66
     0
277
    -2
287
     1
 67
     0
278
    -2
288
     1
 68
     0
279
    -2
289
     1
 69
     0
  7
Standard
140
0.18
170
     5
 62
     0
 63
     7
283
     0
274
    -2
284
     1
 64
     0
275
    -2
285
     1
 65
     0
276
    -2
286
     1
 66
     0
277
    -2
287
     1
 67
     0
278
    -2
288
     1
 68
     0
279
    -2
289
     1
 69
     0
  0
VISUALSTYLE
  5
2F
102
{ACAD_XDICTIONARY
360
278
102
}
102
{ACAD_REACTORS
330
2A
102
}
330
2A
100
AcDbVisualStyle
  2

 70
     4
 71
     0
 72
     2
 73
     0
 90
        0
 40
-0.6
 41
-30.0
 62
     5
 63
     7
421
 16777215
 74
     1
 91
        4
 64
     7
 65
   257
 75
     1
175
     1
 42
1.0
 92
        0
 66
   257
 43
1.0
 76
     1
 77
     6
 78
     2
 67
     7
 79
     5
170
     0
171
     0
290
     0
174
     0
 93
        1
 44
0.0
173
     0
291
     0
 45
0.0
1001
ACAD
1000
AcDbSavedByObjectVersion
1070
     0
  0
VISUALSTYLE
  5
32
102
{ACAD_XDICTIONARY
360
27E
102
}
102
{ACAD_REACTORS
330
2A
102
}
330
2A
100
AcDbVisualStyle
  2

 70
     7
 71
     1
 72
     0
 73
     1
 90
        0
 40
-0.6
 41
-30.0
 62
     5
 63
     7
421
 16777215
 74
     0
 91
        4
 64
     7
 65
   257
 75
     1
175
     1
 42
1.0
 92
        8
 66
     7
 43
1.0
 76
     1
 77
     6
 78
     2
 67
     7
 79
     5
170
     0
171
     0
290
     0
174
     0
 93
        1
 44
0.0
173
     0
291
     1
 45
0.0
1001
ACAD
1000
AcDbSavedByObjectVersion
1070
     0
  0
VISUALSTYLE
  5
36
102
{ACAD_XDICTIONARY
360
286
102
}
102
{ACAD_REACTORS
330
2A
102
}
330
2A
100
AcDbVisualStyle
  2

 70
    12
 71
     2
 72
     2
 73
     0
 90
        0
 40
-0.6
 41
-30.0
 62
     5
 63
     7
421
 16777215
 74
     1
 91
        4
 64
     7
 65
   257
 75
     1
175
     1
 42
1.0
 92
        8
 66
     7
 43
1.0
 76
     1
 77
     6
 78
     2
 67
     7
 79
     5
170
     0
171
     0
290
     0
174
     0
 93
        1
 44
50.0
173
     0
291
     1
 45
0.0
1001
ACAD
1000
AcDbSavedByObjectVersion
1070
     0
  0
VISUALSTYLE
  5
3A
102
{ACAD_XDICTIONARY
360
28E
102
}
102
{ACAD_REACTORS
330
2A
102
}
330
2A
100
AcDbVisualStyle
  2

 70
    16
 71
     2
 72
     2
 73
     3
 90
        0
 40
-0.6
 41
-30.0
 62
     5
 63
     8
421
  8421504
 74
     1
 91
        4
 64
     7
 65
   257
 75
     1
175
     1
 42
1.0
 92
        8
 66
     8
424
  8421504
 43
1.0
 76
     1
 77
     6
 78
     2
 67
     7
 79
     5
170
     0
171
     0
290
     0
174
     0
 93
        1
 44
0.0
173
     0
291
     1
 45
0.0
1001
ACAD
1000
AcDbSavedByObjectVersion
1070
     0
  0
VISUALSTYLE
  5
34
102
{ACAD_XDICTIONARY
360
282
102
}
102
{ACAD_REACTORS
330
2A
102
}
330
2A
100
AcDbVisualStyle
  2

 70
     9
 71
     3
 72
     2
 73
     0
 90
        0
 40
-0.6
 41
-30.0
 62
     5
 63
     7
421
 16777215
 74
     2
 91
        2
 64
     7
 65
   257
 75
     1
175
     1
 42
179.0
 92
        8
 66
     7
 43
1.0
 76
     1
 77
     6
 78
     2
 67
     7
 79
     3
170
     0
171
     0
290
     0
174
     0
 93
        1
 44
0.0
173
     0
291
     0
 45
0.0
1001
ACAD
1000
AcDbSavedByObjectVersion
1070
     0
  0
VISUALSTYLE
  5
35
102
{ACAD_XDICTIONARY
360
284
102
}
102
{ACAD_REACTORS
330
2A
102
}
330
2A
100
AcDbVisualStyle
  2

 70
    11
 71
     2
 72
     2
 73
     0
 90
        0
 40
-0.6
 41
-30.0
 62
     5
 63
     7
421
 16777215
 74
     1
 91
        4
 64
     7
 65
   257
 75
     1
175
     1
 42
1.0
 92
        8
 66
     7
 43
1.0
 76
     1
 77
     6
 78
     2
 67
     7
 79
     5
170
     0
171
     0
290
     0
174
     0
 93
        1
 44
-50.0
173
     0
291
     1
 45
0.0
1001
ACAD
1000
AcDbSavedByObjectVersion
1070
     0
  0
VISUALSTYLE
  5
3D
102
{ACAD_XDICTIONARY
360
294
102
}
102
{ACAD_REACTORS
330
2A
102
}
330
2A
100
AcDbVisualStyle
  2

 70
    22
 71
     2
 72
     2
 73
     0
 90
        0
 40
-0.6
 41
-30.0
 62
     5
 63
     7
421
 16777215
 74
     1
 91
        4
 64
     7
 65
   257
 75
     1
175
     1
 42
1.0
 92
        8
 66
     7
 43
1.0
 76
     1
 77
     6
 78
     2
 67
     7
 79
     5
170
     0
171
     0
290
     0
174
     0
 93
        1
 44
0.0
173
     0
291
     1
 45
0.0
1001
ACAD
1000
AcDbSavedByObjectVersion
1070
     0
  0
VISUALSTYLE
  5
39
102
{ACAD_XDICTIONARY
360
28C
102
}
102
{ACAD_REACTORS
330
2A
102
}
330
2A
100
AcDbVisualStyle
  2

 70
    15
 71
     2
 72
     2
 73
     0
 90
        0
 40
-0.6
 41
-30.0
 62
     5
 63
     7
421
 16777215
 74
     1
 91
        4
 64
     7
 65
   257
 75
     1
175
     1
 42
1.0
 92
        8
 66
     7
 43
1.0
 76
     1
 77
     6
 78
     2
 67
     7
 79
     5
170
     0
171
     0
290
     0
174
     0
 93
        1
 44
0.0
173
     0
291
     1
 45
0.0
1001
ACAD
1000
AcDbSavedByObjectVersion
1070
     0
  0
VISUALSTYLE
  5
2B
102
{ACAD_XDICTIONARY
360
270
102
}
102
{ACAD_REACTORS
330
2A
102
}
330
2A
100
AcDbVisualStyle
  2

 70
     0
 71
     2
 72
     1
 73
     1
 90
        2
 40
-0.6
 41
30.0
 62
     5
 63
     7
421
 16777215
 74
     0
 91
        0
 64
     7
 65
   257
 75
     1
175
     1
 42
1.0
 92
        8
 66
     7
 43
1.0
 76
     1
 77
     6
 78
     2
 67
     7
 79
     5
170
     0
171
     0
290
     0
174
     0
 93
       13
 44
0.0
173
     0
291
     1
 45
0.0
1001
ACAD
1000
AcDbSavedByObjectVersion
1070
     0
  0
VISUALSTYLE
  5
2C
102
{ACAD_XDICTIONARY
360
272
102
}
102
{ACAD_REACTORS
330
2A
102
}
330
2A
100
AcDbVisualStyle
  2

 70
     1
 71
     2
 72
     1
 73
     1
 90
        2
 40
-0.6
 41
30.0
 62
     5
 63
     7
421
 16777215
 74
     1
 91
        0
 64
     7
 65
   257
 75
     1
175
     1
 42
1.0
 92
        0
 66
   257
 43
1.0
 76
     1
 77
     6
 78
     2
 67
     7
 79
     5
170
     0
171
     0
290
     0
174
     0
 93
       13
 44
0.0
173
     0
291
     1
 45
0.0
1001
ACAD
1000
AcDbSavedByObjectVersion
1070
     0
  0
VISUALSTYLE
  5
2D
102
{ACAD_XDICTIONARY
360
274
102
}
102
{ACAD_REACTORS
330
2A
102
}
330
2A
100
AcDbVisualStyle
  2

 70
     2
 71
     2
 72
     2
 73
     1
 90
        2
 40
-0.6
 41
30.0
 62
     5
 63
     7
421
 16777215
 74
     0
 91
        0
 64
     7
 65
   257
 75
     1
175
     1
 42
1.0
 92
        0
 66
     7
 43
1.0
 76
     1
 77
     6
 78
     2
 67
     7
 79
     5
170
     0
171
     0
290
     0
174
     0
 93
       13
 44
0.0
173
     0
291
     1
 45
0.0
1001
ACAD
1000
AcDbSavedByObjectVersion
1070
     0
  0
VISUALSTYLE
  5
2E
102
{ACAD_XDICTIONARY
360
276
102
}
102
{ACAD_REACTORS
330
2A
102
}
330
2A
100
AcDbVisualStyle
  2

 70
     3
 71
     2
 72
     2
 73
     1
 90
        2
 40
-0.6
 41
30.0
 62
     5
 63
     7
421
 16777215
 74
     1
 91
        0
 64
     7
 65
   257
 75
     1
175
     1
 42
1.0
 92
        0
 66
   257
 43
1.0
 76
     1
 77
     6
 78
     2
 67
     7
 79
     5
170
     0
171
     0
290
     0
174
     0
 93
       13
 44
0.0
173
     0
291
     1
 45
0.0
1001
ACAD
1000
AcDbSavedByObjectVersion
1070
     0
  0
VISUALSTYLE
  5
31
102
{ACAD_XDICTIONARY
360
27C
102
}
102
{ACAD_REACTORS
330
2A
102
}
330
2A
100
AcDbVisualStyle
  2

 70
     6
 71
     1
 72
     2
 73
     2
 90
        0
 40
-0.6
 41
-30.0
 62
     5
 63
     7
421
 16777215
 74
     2
 91
        2
 64
     7
 65
   257
 75
     2
175
     1
 42
40.0
 92
        0
 66
   257
 43
1.0
 76
     1
 77
     6
 78
     2
 67
     7
 79
     3
170
     0
171
     0
290
     0
174
     0
 93
        1
 44
0.0
173
     0
291
     0
 45
0.0
1001
ACAD
1000
AcDbSavedByObjectVersion
1070
     0
  0
VISUALSTYLE
  5
3B
102
{ACAD_XDICTIONARY
360
290
102
}
102
{ACAD_REACTORS
330
2A
102
}
330
2A
100
AcDbVisualStyle
  2

 70
    20
 71
     2
 72
     2
 73
     0
 90
        0
 40
-0.6
 41
-30.0
 62
     5
 63
     7
421
 16777215
 74
     1
 91
        4
 64
     7
 65
   257
 75
     1
175
     1
 42
1.0
 92
       10
 66
     7
 43
1.0
 76
     1
 77
     6
 78
     2
 67
     7
 79
     5
170
     0
171
     0
290
     0
174
     0
 93
        1
 44
0.0
173
     0
291
     1
 45
0.0
1001
ACAD
1000
AcDbSavedByObjectVersion
1070
     0
  0
VISUALSTYLE
  5
38
102
{ACAD_XDICTIONARY
360
28A
102
}
102
{ACAD_REACTORS
330
2A
102
}
330
2A
100
AcDbVisualStyle
  2

 70
    14
 71
     2
 72
     2
 73
     0
 90
        0
 40
-0.6
 41
-30.0
 62
     5
 63
     7
421
 16777215
 74
     1
 91
        4
 64
     7
 65
   257
 75
     7
175
     7
 42
1.0
 92
        8
 66
     7
 43
1.0
 76
     1
 77
     6
 78
     2
 67
     7
 79
     5
170
     0
171
     0
290
     0
174
     0
 93
        1
 44
0.0
173
     0
291
     1
 45
0.0
1001
ACAD
1000
AcDbSavedByObjectVersion
1070
     0
  0
VISUALSTYLE
  5
3C
102
{ACAD_XDICTIONARY
360
292
102
}
102
{ACAD_REACTORS
330
2A
102
}
330
2A
100
AcDbVisualStyle
  2

 70
    21
 71
     2
 72
     2
 73
     0
 90
        0
 40
-0.6
 41
-30.0
 62
     5
 63
     7
421
 16777215
 74
     1
 91
        4
 64
     7
 65
   257
 75
     1
175
     1
 42
1.0
 92
        9
 66
     7
 43
1.0
 76
     1
 77
     6
 78
     2
 67
     7
 79
     5
170
     0
171
     0
290
     0
174
     0
 93
        1
 44
0.0
173
     0
291
     1
 45
0.0
1001
ACAD
1000
AcDbSavedByObjectVersion
1070
     0
  0
VISUALSTYLE
  5
33
102
{ACAD_XDICTIONARY
360
280
102
}
102
{ACAD_REACTORS
330
2A
102
}
330
2A
100
AcDbVisualStyle
  2

 70
     8
 71
     2
 72
     3
 73
     0
 90
        2
 40
-0.6
 41
30.0
 62
     5
 63
     7
421
 16777215
 74
     0
 91
        0
 64
     7
 65
   257
 75
     1
175
     1
 42
1.0
 92
        8
 66
   257
 43
1.0
 76
     1
 77
     6
 78
     2
 67
     7
 79
     3
170
     0
171
     0
290
     0
174
     0
 93
       13
 44
0.0
173
     0
291
     0
 45
0.0
1001
ACAD
1000
AcDbSavedByObjectVersion
1070
     0
  0
VISUALSTYLE
  5
42
102
{ACAD_XDICTIONARY
360
29E
102
}
102
{ACAD_REACTORS
330
2A
102
}
330
2A
100
AcDbVisualStyle
  2

 70
    27
 71
     2
 72
     2
 73
     1
 90
        2
 40
-0.6
 41
30.0
 62
     5
 63
     7
421
 16777215
 74
     0
 91
        4
 64
     7
 65
   257
 75
     1
175
     1
 42
1.0
 92
        8
 66
   257
 43
1.0
 76
     1
 77
     6
 78
     2
 67
     8
425
  7895160
 79
     3
170
     0
171
     0
290
     0
174
     0
 93
        5
 44
0.0
173
     0
291
     0
 45
0.0
1001
ACAD
1000
AcDbSavedByObjectVersion
1070
     0
  0
VISUALSTYLE
  5
41
102
{ACAD_XDICTIONARY
360
29C
102
}
102
{ACAD_REACTORS
330
2A
102
}
330
2A
100
AcDbVisualStyle
  2

 70
    26
 71
     2
 72
     2
 73
     1
 90
        2
 40
-0.6
 41
30.0
 62
     5
 63
     7
421
 16777215
 74
     1
 91
       10
 64
     7
 65
   257
 75
     2
175
     1
 42
1.0
 92
        8
 66
   257
 43
1.0
 76
     1
 77
     6
 78
     2
 67
     7
 79
     3
170
     0
171
     0
290
     0
174
     0
 93
        5
 44
0.0
173
     0
291
     0
 45
0.0
1001
ACAD
1000
AcDbSavedByObjectVersion
1070
     0
  0
VISUALSTYLE
  5
3E
102
{ACAD_XDICTIONARY
360
296
102
}
102
{ACAD_REACTORS
330
2A
102
}
330
2A
100
AcDbVisualStyle
  2

 70
    23
 71
     2
 72
     2
 73
     3
 90
        0
 40
-0.6
 41
-30.0
 62
     5
 63
     7
421
 16777215
 74
     2
 91
        2
 64
     7
 65
     7
 75
     1
175
     1
 42
40.0
 92
        8
 66
     7
 43
1.0
 76
     1
 77
     6
 78
     2
 67
     7
 79
     3
170
     0
171
     0
290
     0
174
     0
 93
        1
 44
0.0
173
     0
291
     0
 45
0.0
1001
ACAD
1000
AcDbSavedByObjectVersion
1070
     0
  0
VISUALSTYLE
  5
3F
102
{ACAD_XDICTIONARY
360
298
102
}
102
{ACAD_REACTORS
330
2A
102
}
330
2A
100
AcDbVisualStyle
  2

 70
    24
 71
     1
 72
     2
 73
     2
 90
        0
 40
-0.6
 41
-30.0
 62
     5
 63
     7
421
 16777215
 74
     2
 91
        2
 64
     7
 65
     7
 75
     1
175
     1
 42
40.0
 92
       11
 66
     7
 43
1.0
 76
     1
 77
     6
 78
     2
 67
     7
 79
     6
170
     0
171
     0
290
     0
174
     0
 93
        1
 44
0.0
173
     0
291
     0
 45
0.0
1001
ACAD
1000
AcDbSavedByObjectVersion
1070
     0
  0
VISUALSTYLE
  5
37
102
{ACAD_XDICTIONARY
360
288
102
}
102
{ACAD_REACTORS
330
2A
102
}
330
2A
100
AcDbVisualStyle
  2

 70
    13
 71
     2
 72
     2
 73
     0
 90
        0
 40
-0.6
 41
-30.0
 62
     5
 63
     7
421
 16777215
 74
     1
 91
        4
 64
     7
 65
   257
 75
     1
175
     1
 42
1.0
 92
       12
 66
     7
 43
1.0
 76
     1
 77
     6
 78
     2
 67
     7
 79
     5
170
     0
171
     0
290
     0
174
     0
 93
        1
 44
0.0
173
     0
291
     1
 45
0.0
1001
ACAD
1000
AcDbSavedByObjectVersion
1070
     0
  0
VISUALSTYLE
  5
30
102
{ACAD_XDICTIONARY
360
27A
102
}
102
{ACAD_REACTORS
330
2A
102
}
330
2A
100
AcDbVisualStyle
  2

 70
     5
 71
     0
 72
     2
 73
     0
 90
        0
 40
-0.6
 41
-30.0
 62
     5
 63
     7
421
 16777215
 74
     1
 91
        4
 64
     7
 65
   257
 75
     1
175
     1
 42
1.0
 92
        0
 66
   257
 43
1.0
 76
     1
 77
     6
 78
     2
 67
     7
 79
     3
170
     0
171
     0
290
     0
174
     0
 93
        1
 44
0.0
173
     0
291
     0
 45
0.0
1001
ACAD
1000
AcDbSavedByObjectVersion
1070
     0
  0
VISUALSTYLE
  5
40
102
{ACAD_XDICTIONARY
360
29A
102
}
102
{ACAD_REACTORS
330
2A
102
}
330
2A
100
AcDbVisualStyle
  2

 70
    25
 71
     2
 72
     2
 73
     1
 90
        1
 40
0.5
 41
-30.0
 62
     5
 63
     7
421
 16777215
 74
     1
 91
        0
 64
     7
 65
   257
 75
     1
175
     1
 42
1.0
 92
        8
 66
     7
 43
1.0
 76
     1
 77
     6
 78
     2
 67
     7
 79
     3
170
     0
171
     0
290
     0
174
     0
 93
       13
 44
0.0
173
     0
291
     0
 45
0.0
1001
ACAD
1000
AcDbSavedByObjectVersion
1070
     0
  0
DICTIONARYVAR
  5
1BC
102
{ACAD_REACTORS
330
1BB
102
}
330
1BB
100
DictionaryVariables
280
     0
  1
1:1
  0
DICTIONARYVAR
  5
1FD
102
{ACAD_REACTORS
330
1BB
102
}
330
1BB
100
DictionaryVariables
280
     0
  1
STANDARD
  0
DICTIONARYVAR
  5
1FC
102
{ACAD_REACTORS
330
1BB
102
}
330
1BB
100
DictionaryVariables
280
     0
  1
STANDARD
  0
DICTIONARYVAR
  5
26A
102
{ACAD_REACTORS
330
1BB
102
}
330
1BB
100
DictionaryVariables
280
     0
  1
Metric50
  0
DICTIONARYVAR
  5
26B
102
{ACAD_REACTORS
330
1BB
102
}
330
1BB
100
DictionaryVariables
280
     0
  1
Metric50
  0
DICTIONARYVAR
  5
1BD
102
{ACAD_REACTORS
330
1BB
102
}
330
1BB
100
DictionaryVariables
280
     0
  1
1
  0
DICTIONARYVAR
  5
26C
102
{ACAD_REACTORS
330
1BB
102
}
330
1BB
100
DictionaryVariables
280
     0
  1
2
  0
DICTIONARY
  5
2A3
330
204
100
AcDbDictionary
280
     1
281
     1
  3
ACAD_XREC_ROUNDTRIP
360
2A4
  0
DICTIONARY
  5
1F1
330
45
100
AcDbDictionary
280
     1
281
     1
  3
ACAD_XREC_ROUNDTRIP
360
1F2
  0
DICTIONARY
  5
1EF
330
44
100
AcDbDictionary
280
     1
281
     1
  3
ACAD_XREC_ROUNDTRIP
360
1F0
  0
DICTIONARY
  5
1F3
330
46
100
AcDbDictionary
280
     1
281
     1
  3
ACAD_XREC_ROUNDTRIP
360
1F4
  0
DICTIONARY
  5
2A1
330
203
100
AcDbDictionary
280
     1
281
     1
  3
ACAD_XREC_ROUNDTRIP
360
2A2
  0
DICTIONARY
  5
1F5
330
6A
100
AcDbDictionary
280
     1
281
     1
  3
ACAD_ROUNDTRIP_2008_TABLESTYLE_CELLSTYLEMAP
360
26E
  3
ACAD_XREC_ROUNDTRIP
360
2A0
  0
DICTIONARY
  5
278
330
2F
100
AcDbDictionary
280
     1
281
     1
  3
ACAD_XREC_ROUNDTRIP
360
279
  0
DICTIONARY
  5
27E
330
32
100
AcDbDictionary
280
     1
281
     1
  3
ACAD_XREC_ROUNDTRIP
360
27F
  0
DICTIONARY
  5
286
330
36
100
AcDbDictionary
280
     1
281
     1
  3
ACAD_XREC_ROUNDTRIP
360
287
  0
DICTIONARY
  5
28E
330
3A
100
AcDbDictionary
280
     1
281
     1
  3
ACAD_XREC_ROUNDTRIP
360
28F
  0
DICTIONARY
  5
282
330
34
100
AcDbDictionary
280
     1
281
     1
  3
ACAD_XREC_ROUNDTRIP
360
283
  0
DICTIONARY
  5
284
330
35
100
AcDbDictionary
280
     1
281
     1
  3
ACAD_XREC_ROUNDTRIP
360
285
  0
DICTIONARY
  5
294
330
3D
100
AcDbDictionary
280
     1
281
     1
  3
ACAD_XREC_ROUNDTRIP
360
295
  0
DICTIONARY
  5
28C
330
39
100
AcDbDictionary
280
     1
281
     1
  3
ACAD_XREC_ROUNDTRIP
360
28D
  0
DICTIONARY
  5
270
330
2B
100
AcDbDictionary
280
     1
281
     1
  3
ACAD_XREC_ROUNDTRIP
360
271
  0
DICTIONARY
  5
272
330
2C
100
AcDbDictionary
280
     1
281
     1
  3
ACAD_XREC_ROUNDTRIP
360
273
  0
DICTIONARY
  5
274
330
2D
100
AcDbDictionary
280
     1
281
     1
  3
ACAD_XREC_ROUNDTRIP
360
275
  0
DICTIONARY
  5
276
330
2E
100
AcDbDictionary
280
     1
281
     1
  3
ACAD_XREC_ROUNDTRIP
360
277
  0
DICTIONARY
  5
27C
330
31
100
AcDbDictionary
280
     1
281
     1
  3
ACAD_XREC_ROUNDTRIP
360
27D
  0
DICTIONARY
  5
290
330
3B
100
AcDbDictionary
280
     1
281
     1
  3
ACAD_XREC_ROUNDTRIP
360
291
  0
DICTIONARY
  5
28A
330
38
100
AcDbDictionary
280
     1
281
     1
  3
ACAD_XREC_ROUNDTRIP
360
28B
  0
DICTIONARY
  5
292
330
3C
100
AcDbDictionary
280
     1
281
     1
  3
ACAD_XREC_ROUNDTRIP
360
293
  0
DICTIONARY
  5
280
330
33
100
AcDbDictionary
280
     1
281
     1
  3
ACAD_XREC_ROUNDTRIP
360
281
  0
DICTIONARY
  5
29E
330
42
100
AcDbDictionary
280
     1
281
     1
  3
ACAD_XREC_ROUNDTRIP
360
29F
  0
DICTIONARY
  5
29C
330
41
100
AcDbDictionary
280
     1
281
     1
  3
ACAD_XREC_ROUNDTRIP
360
29D
  0
DICTIONARY
  5
296
330
3E
100
AcDbDictionary
280
     1
281
     1
  3
ACAD_XREC_ROUNDTRIP
360
297
  0
DICTIONARY
  5
298
330
3F
100
AcDbDictionary
280
     1
281
     1
  3
ACAD_XREC_ROUNDTRIP
360
299
  0
DICTIONARY
  5
288
330
37
100
AcDbDictionary
280
     1
281
     1
  3
ACAD_XREC_ROUNDTRIP
360
289
  0
DICTIONARY
  5
27A
330
30
100
AcDbDictionary
280
     1
281
     1
  3
ACAD_XREC_ROUNDTRIP
360
27B
  0
DICTIONARY
  5
29A
330
40
100
AcDbDictionary
280
     1
281
     1
  3
ACAD_XREC_ROUNDTRIP
360
29B
  0
XRECORD
  5
2A4
102
{ACAD_REACTORS
330
2A3
102
}
330
2A3
100
AcDbXrecord
280
     1
102
DISPLAYNAME
  1
Metric50
102
FLAGS
 90
        0
  0
XRECORD
  5
1F2
102
{ACAD_REACTORS
330
1F1
102
}
330
1F1
100
AcDbXrecord
280
     1
102
MATERIAL
148
0.0
149
0.0
149
0.0
 93
        0
 94
      127
282
     0
 72
     1
 77
     1
171
     1
175
     1
179
     1
273
     0
  0
XRECORD
  5
1F0
102
{ACAD_REACTORS
330
1EF
102
}
330
1EF
100
AcDbXrecord
280
     1
102
MATERIAL
148
0.0
149
0.0
149
0.0
 93
        0
 94
      127
282
     0
 72
     1
 77
     1
171
     1
175
     1
179
     1
273
     0
  0
XRECORD
  5
1F4
102
{ACAD_REACTORS
330
1F3
102
}
330
1F3
100
AcDbXrecord
280
     1
102
MATERIAL
148
0.0
149
0.0
149
0.0
 93
        0
 94
      127
282
     0
 72
     1
 77
     1
171
     1
175
     1
179
     1
273
     0
  0
XRECORD
  5
2A2
102
{ACAD_REACTORS
330
2A1
102
}
330
2A1
100
AcDbXrecord
280
     1
102
DISPLAYNAME
  1
Metric50
102
FLAGS
 90
        0
  0
CELLSTYLEMAP
  5
26E
102
{ACAD_REACTORS
330
1F5
102
}
330
1F5
100
AcDbCellStyleMap
 90
        3
300
CELLSTYLE
  1
TABLEFORMAT_BEGIN
 90
        5
170
     1
 91
        0
 92
    32768
 62
   257
 93
        1
300
CONTENTFORMAT
  1
CONTENTFORMAT_BEGIN
 90
        0
 91
        0
 92
        4
 93
        0
300

 40
0.0
140
1.0
 94
        5
 62
     0
340
11
144
0.25
309
CONTENTFORMAT_END
171
     1
301
MARGIN
  1
CELLMARGIN_BEGIN
 40
0.06
 40
0.06
 40
0.06
 40
0.06
 40
0.18
 40
0.18
309
CELLMARGIN_END
 94
        6
 95
        1
302
GRIDFORMAT
  1
GRIDFORMAT_BEGIN
 90
        0
 91
        1
 62
     0
 92
       -2
340
14
 93
        0
 40
0.045
309
GRIDFORMAT_END
 95
        2
302
GRIDFORMAT
  1
GRIDFORMAT_BEGIN
 90
        0
 91
        1
 62
     0
 92
       -2
340
14
 93
        0
 40
0.045
309
GRIDFORMAT_END
 95
        4
302
GRIDFORMAT
  1
GRIDFORMAT_BEGIN
 90
        0
 91
        1
 62
     0
 92
       -2
340
14
 93
        0
 40
0.045
309
GRIDFORMAT_END
 95
        8
302
GRIDFORMAT
  1
GRIDFORMAT_BEGIN
 90
        0
 91
        1
 62
     0
 92
       -2
340
14
 93
        0
 40
0.045
309
GRIDFORMAT_END
 95
       16
302
GRIDFORMAT
  1
GRIDFORMAT_BEGIN
 90
        0
 91
        1
 62
     0
 92
       -2
340
14
 93
        0
 40
0.045
309
GRIDFORMAT_END
 95
       32
302
GRIDFORMAT
  1
GRIDFORMAT_BEGIN
 90
        0
 91
        1
 62
     0
 92
       -2
340
14
 93
        0
 40
0.045
309
GRIDFORMAT_END
309
TABLEFORMAT_END
  1
CELLSTYLE_BEGIN
 90
        1
 91
        1
300
_TITLE
309
CELLSTYLE_END
300
CELLSTYLE
  1
TABLEFORMAT_BEGIN
 90
        5
170
     1
 91
        0
 92
        0
 62
   257
 93
        1
300
CONTENTFORMAT
  1
CONTENTFORMAT_BEGIN
 90
        0
 91
        0
 92
        4
 93
        0
300

 40
0.0
140
1.0
 94
        5
 62
     0
340
11
144
0.18
309
CONTENTFORMAT_END
171
     1
301
MARGIN
  1
CELLMARGIN_BEGIN
 40
0.06
 40
0.06
 40
0.06
 40
0.06
 40
0.18
 40
0.18
309
CELLMARGIN_END
 94
        6
 95
        1
302
GRIDFORMAT
  1
GRIDFORMAT_BEGIN
 90
        0
 91
        1
 62
     0
 92
       -2
340
14
 93
        0
 40
0.045
309
GRIDFORMAT_END
 95
        2
302
GRIDFORMAT
  1
GRIDFORMAT_BEGIN
 90
        0
 91
        1
 62
     0
 92
       -2
340
14
 93
        0
 40
0.045
309
GRIDFORMAT_END
 95
        4
302
GRIDFORMAT
  1
GRIDFORMAT_BEGIN
 90
        0
 91
        1
 62
     0
 92
       -2
340
14
 93
        0
 40
0.045
309
GRIDFORMAT_END
 95
        8
302
GRIDFORMAT
  1
GRIDFORMAT_BEGIN
 90
        0
 91
        1
 62
     0
 92
       -2
340
14
 93
        0
 40
0.045
309
GRIDFORMAT_END
 95
       16
302
GRIDFORMAT
  1
GRIDFORMAT_BEGIN
 90
        0
 91
        1
 62
     0
 92
       -2
340
14
 93
        0
 40
0.045
309
GRIDFORMAT_END
 95
       32
302
GRIDFORMAT
  1
GRIDFORMAT_BEGIN
 90
        0
 91
        1
 62
     0
 92
       -2
340
14
 93
        0
 40
0.045
309
GRIDFORMAT_END
309
TABLEFORMAT_END
  1
CELLSTYLE_BEGIN
 90
        2
 91
        1
300
_HEADER
309
CELLSTYLE_END
300
CELLSTYLE
  1
TABLEFORMAT_BEGIN
 90
        5
170
     1
 91
        0
 92
        0
 62
   257
 93
        1
300
CONTENTFORMAT
  1
CONTENTFORMAT_BEGIN
 90
        0
 91
        0
 92
        4
 93
        0
300

 40
0.0
140
1.0
 94
        2
 62
     0
340
11
144
0.18
309
CONTENTFORMAT_END
171
     1
301
MARGIN
  1
CELLMARGIN_BEGIN
 40
0.06
 40
0.06
 40
0.06
 40
0.06
 40
0.18
 40
0.18
309
CELLMARGIN_END
 94
        6
 95
        1
302
GRIDFORMAT
  1
GRIDFORMAT_BEGIN
 90
        0
 91
        1
 62
     0
 92
       -2
340
14
 93
        0
 40
0.045
309
GRIDFORMAT_END
 95
        2
302
GRIDFORMAT
  1
GRIDFORMAT_BEGIN
 90
        0
 91
        1
 62
     0
 92
       -2
340
14
 93
        0
 40
0.045
309
GRIDFORMAT_END
 95
        4
302
GRIDFORMAT
  1
GRIDFORMAT_BEGIN
 90
        0
 91
        1
 62
     0
 92
       -2
340
14
 93
        0
 40
0.045
309
GRIDFORMAT_END
 95
        8
302
GRIDFORMAT
  1
GRIDFORMAT_BEGIN
 90
        0
 91
        1
 62
     0
 92
       -2
340
14
 93
        0
 40
0.045
309
GRIDFORMAT_END
 95
       16
302
GRIDFORMAT
  1
GRIDFORMAT_BEGIN
 90
        0
 91
        1
 62
     0
 92
       -2
340
14
 93
        0
 40
0.045
309
GRIDFORMAT_END
 95
       32
302
GRIDFORMAT
  1
GRIDFORMAT_BEGIN
 90
        0
 91
        1
 62
     0
 92
       -2
340
14
 93
        0
 40
0.045
309
GRIDFORMAT_END
309
TABLEFORMAT_END
  1
CELLSTYLE_BEGIN
 90
        3
 91
        2
300
_DATA
309
CELLSTYLE_END
  0
XRECORD
  5
2A0
102
{ACAD_REACTORS
330
1F5
102
}
330
1F5
100
AcDbXrecord
280
     1
102
ACAD_ROUNDTRIP_PRE2007_TABLESTYLE
 90
        4
 91
        0
  1

 92
        4
 93
        0
  2

 94
        4
 95
        0
  3

  0
XRECORD
  5
279
102
{ACAD_REACTORS
330
278
102
}
330
278
100
AcDbXrecord
280
     1
102
RTVSPost2010Prop28
280
     1
102
RTVSPost2010PropOp28
 70
     1
102
RTVSPost2010Prop29
280
     1
102
RTVSPost2010PropOp29
 70
     1
102
RTVSPost2010Prop30
280
     0
102
RTVSPost2010PropOp30
 70
     1
102
RTVSPost2010Prop31
280
     0
102
RTVSPost2010PropOp31
 70
     1
102
RTVSPost2010Prop32
280
     0
102
RTVSPost2010PropOp32
 70
     1
102
RTVSPost2010Prop33
280
     0
102
RTVSPost2010PropOp33
 70
     1
102
RTVSPost2010Prop34
280
     0
102
RTVSPost2010PropOp34
 70
     1
102
RTVSPost2010Prop35
280
     0
102
RTVSPost2010PropOp35
 70
     1
102
RTVSPost2010Prop36
280
     0
102
RTVSPost2010PropOp36
 70
     1
102
RTVSPost2010Prop37
 90
       50
102
RTVSPost2010PropOp37
 70
     1
102
RTVSPost2010Prop38
140
0.0
102
RTVSPost2010PropOp38
 70
     1
102
RTVSPost2010Prop39
140
1.0
102
RTVSPost2010PropOp39
 70
     1
102
RTVSPost2010Prop40
 90
        0
102
RTVSPost2010PropOp40
 70
     1
102
RTVSPost2010Prop41ColorIndex
 90
       18
102
RTVSPost2010Prop41ColorRGB
 90
        0
102
RTVSPost2010PropOp41
 70
     1
102
RTVSPost2010Prop42
 90
       50
102
RTVSPost2010PropOp42
 70
     1
102
RTVSPost2010Prop43
 90
        3
102
RTVSPost2010PropOp43
 70
     1
102
RTVSPost2010Prop44ColorIndex
 90
        5
102
RTVSPost2010Prop44ColorRGB
 90
      255
102
RTVSPost2010PropOp44
 70
     1
102
RTVSPost2010Prop45
280
     0
102
RTVSPost2010PropOp45
 70
     1
102
RTVSPost2010Prop46
 90
       50
102
RTVSPost2010PropOp46
 70
     1
102
RTVSPost2010Prop47
 90
       50
102
RTVSPost2010PropOp47
 70
     1
102
RTVSPost2010Prop48
 90
       50
102
RTVSPost2010PropOp48
 70
     1
102
RTVSPost2010Prop49
280
     0
102
RTVSPost2010PropOp49
 70
     1
102
RTVSPost2010Prop50
 90
       50
102
RTVSPost2010PropOp50
 70
     1
102
RTVSPost2010Prop51ColorIndex
 90
      256
102
RTVSPost2010Prop51ColorRGB
 90
-16777216
102
RTVSPost2010PropOp51
 70
     0
102
RTVSPost2010Prop52
140
1.0
102
RTVSPost2010PropOp52
 70
     0
102
RTVSPost2010Prop53
 90
        2
102
RTVSPost2010PropOp53
 70
     1
102
RTVSPost2010Prop54
  1
strokes_ogs.tif
102
RTVSPost2010PropOp54
 70
     1
102
RTVSPost2010Prop55
280
     0
102
RTVSPost2010PropOp55
 70
     1
102
RTVSPost2010Prop56
140
1.0
102
RTVSPost2010PropOp56
 70
     1
102
RTVSPost2010Prop57
140
1.0
102
RTVSPost2010PropOp57
 70
     1
102
RTVSPropertyOp0
 70
     1
102
RTVSPropertyOp1
 70
     1
102
RTVSPropertyOp2
 70
     1
102
RTVSPropertyOp3
 70
     1
102
RTVSPropertyOp4
 70
     1
102
RTVSPropertyOp5
 70
     1
102
RTVSPropertyOp6
 70
     1
102
RTVSPropertyOp7
 70
     1
102
RTVSPropertyOp8
 70
     1
102
RTVSPropertyOp9
 70
     1
102
RTVSPropertyOp10
 70
     1
102
RTVSPropertyOp11
 70
     1
102
RTVSPropertyOp12
 70
     1
102
RTVSPropertyOp13
 70
     1
102
RTVSPropertyOp14
 70
     1
102
RTVSPropertyOp15
 70
     1
102
RTVSPropertyOp16
 70
     1
102
RTVSPropertyOp17
 70
     1
102
RTVSPropertyOp18
 70
     1
102
RTVSPropertyOp19
 70
     1
102
RTVSPropertyOp20
 70
     1
102
RTVSPropertyOp21
 70
     1
102
RTVSPropertyOp22
 70
     1
102
RTVSPropertyOp23
 70
     1
102
RTVSPropertyOp24
 70
     1
102
RTVSPropertyOp25
 70
     1
102
RTVSPropertyOp26
 70
     1
102
RTVSPropertyOp27
 70
     1
102
RTVSPropertyOp28
 70
     1
102
RTVSPropertyOp29
 70
     1
102
RTVSPropertyOp30
 70
     1
102
RTVSPropertyOp31
 70
     1
102
RTVSPropertyOp32
 70
     1
102
RTVSPropertyOp33
 70
     1
102
RTVSPropertyOp34
 70
     1
102
RTVSPropertyOp35
 70
     1
102
RTVSPropertyOp36
 70
     1
102
RTVSPropertyOp37
 70
     1
102
RTVSPropertyOp38
 70
     1
102
RTVSPropertyOp39
 70
     1
102
RTVSPropertyOp40
 70
     1
102
RTVSPropertyOp41
 70
     1
102
RTVSPropertyOp42
 70
     1
102
RTVSPropertyOp43
 70
     1
102
RTVSPropertyOp44
 70
     1
102
RTVSPropertyOp45
 70
     1
102
RTVSPropertyOp46
 70
     1
102
RTVSPropertyOp47
 70
     1
102
RTVSPropertyOp48
 70
     1
102
RTVSPropertyOp49
 70
     1
102
RTVSPropertyOp50
 70
     1
102
RTVSPropertyOp51
 70
     0
102
RTVSPropertyOp52
 70
     0
102
RTVSPropertyOp53
 70
     1
102
RTVSPropertyOp54
 70
     1
102
RTVSPropertyOp55
 70
     1
102
RTVSPropertyOp56
 70
     1
102
RTVSPropertyOp57
 70
     1
102
RTVSPropertyOp58
 70
     1
102
RTVSPropertyOp59
 70
     1
102
RTVSPropertyOp60
 70
     1
102
RTVSPropertyOp61
 70
     1
102
RTVSPropertyOp62
 70
     1
  0
XRECORD
  5
27F
102
{ACAD_REACTORS
330
27E
102
}
330
27E
100
AcDbXrecord
280
     1
102
RTVSPost2010Prop28
280
     0
102
RTVSPost2010PropOp28
 70
     1
102
RTVSPost2010Prop29
280
     1
102
RTVSPost2010PropOp29
 70
     1
102
RTVSPost2010Prop30
280
     1
102
RTVSPost2010PropOp30
 70
     1
102
RTVSPost2010Prop31
280
     0
102
RTVSPost2010PropOp31
 70
     1
102
RTVSPost2010Prop32
280
     0
102
RTVSPost2010PropOp32
 70
     1
102
RTVSPost2010Prop33
280
     0
102
RTVSPost2010PropOp33
 70
     1
102
RTVSPost2010Prop34
280
     0
102
RTVSPost2010PropOp34
 70
     1
102
RTVSPost2010Prop35
280
     0
102
RTVSPost2010PropOp35
 70
     1
102
RTVSPost2010Prop36
280
     0
102
RTVSPost2010PropOp36
 70
     1
102
RTVSPost2010Prop37
 90
       50
102
RTVSPost2010PropOp37
 70
     1
102
RTVSPost2010Prop38
140
0.0
102
RTVSPost2010PropOp38
 70
     1
102
RTVSPost2010Prop39
140
1.0
102
RTVSPost2010PropOp39
 70
     1
102
RTVSPost2010Prop40
 90
        0
102
RTVSPost2010PropOp40
 70
     1
102
RTVSPost2010Prop41ColorIndex
 90
       18
102
RTVSPost2010Prop41ColorRGB
 90
        0
102
RTVSPost2010PropOp41
 70
     1
102
RTVSPost2010Prop42
 90
       50
102
RTVSPost2010PropOp42
 70
     1
102
RTVSPost2010Prop43
 90
        3
102
RTVSPost2010PropOp43
 70
     1
102
RTVSPost2010Prop44ColorIndex
 90
        5
102
RTVSPost2010Prop44ColorRGB
 90
      255
102
RTVSPost2010PropOp44
 70
     1
102
RTVSPost2010Prop45
280
     0
102
RTVSPost2010PropOp45
 70
     1
102
RTVSPost2010Prop46
 90
       50
102
RTVSPost2010PropOp46
 70
     1
102
RTVSPost2010Prop47
 90
       50
102
RTVSPost2010PropOp47
 70
     1
102
RTVSPost2010Prop48
 90
       50
102
RTVSPost2010PropOp48
 70
     1
102
RTVSPost2010Prop49
280
     0
102
RTVSPost2010PropOp49
 70
     1
102
RTVSPost2010Prop50
 90
       50
102
RTVSPost2010PropOp50
 70
     1
102
RTVSPost2010Prop51ColorIndex
 90
      256
102
RTVSPost2010Prop51ColorRGB
 90
-16777216
102
RTVSPost2010PropOp51
 70
     0
102
RTVSPost2010Prop52
140
1.0
102
RTVSPost2010PropOp52
 70
     0
102
RTVSPost2010Prop53
 90
        2
102
RTVSPost2010PropOp53
 70
     1
102
RTVSPost2010Prop54
  1
strokes_ogs.tif
102
RTVSPost2010PropOp54
 70
     1
102
RTVSPost2010Prop55
280
     0
102
RTVSPost2010PropOp55
 70
     1
102
RTVSPost2010Prop56
140
1.0
102
RTVSPost2010PropOp56
 70
     1
102
RTVSPost2010Prop57
140
1.0
102
RTVSPost2010PropOp57
 70
     1
102
RTVSPropertyOp0
 70
     1
102
RTVSPropertyOp1
 70
     1
102
RTVSPropertyOp2
 70
     1
102
RTVSPropertyOp3
 70
     1
102
RTVSPropertyOp4
 70
     1
102
RTVSPropertyOp5
 70
     1
102
RTVSPropertyOp6
 70
     1
102
RTVSPropertyOp7
 70
     1
102
RTVSPropertyOp8
 70
     1
102
RTVSPropertyOp9
 70
     1
102
RTVSPropertyOp10
 70
     1
102
RTVSPropertyOp11
 70
     1
102
RTVSPropertyOp12
 70
     1
102
RTVSPropertyOp13
 70
     1
102
RTVSPropertyOp14
 70
     1
102
RTVSPropertyOp15
 70
     1
102
RTVSPropertyOp16
 70
     1
102
RTVSPropertyOp17
 70
     1
102
RTVSPropertyOp18
 70
     1
102
RTVSPropertyOp19
 70
     1
102
RTVSPropertyOp20
 70
     1
102
RTVSPropertyOp21
 70
     1
102
RTVSPropertyOp22
 70
     1
102
RTVSPropertyOp23
 70
     1
102
RTVSPropertyOp24
 70
     1
102
RTVSPropertyOp25
 70
     1
102
RTVSPropertyOp26
 70
     1
102
RTVSPropertyOp27
 70
     1
102
RTVSPropertyOp28
 70
     1
102
RTVSPropertyOp29
 70
     1
102
RTVSPropertyOp30
 70
     1
102
RTVSPropertyOp31
 70
     1
102
RTVSPropertyOp32
 70
     1
102
RTVSPropertyOp33
 70
     1
102
RTVSPropertyOp34
 70
     1
102
RTVSPropertyOp35
 70
     1
102
RTVSPropertyOp36
 70
     1
102
RTVSPropertyOp37
 70
     1
102
RTVSPropertyOp38
 70
     1
102
RTVSPropertyOp39
 70
     1
102
RTVSPropertyOp40
 70
     1
102
RTVSPropertyOp41
 70
     1
102
RTVSPropertyOp42
 70
     1
102
RTVSPropertyOp43
 70
     1
102
RTVSPropertyOp44
 70
     1
102
RTVSPropertyOp45
 70
     1
102
RTVSPropertyOp46
 70
     1
102
RTVSPropertyOp47
 70
     1
102
RTVSPropertyOp48
 70
     1
102
RTVSPropertyOp49
 70
     1
102
RTVSPropertyOp50
 70
     1
102
RTVSPropertyOp51
 70
     0
102
RTVSPropertyOp52
 70
     0
102
RTVSPropertyOp53
 70
     1
102
RTVSPropertyOp54
 70
     1
102
RTVSPropertyOp55
 70
     1
102
RTVSPropertyOp56
 70
     1
102
RTVSPropertyOp57
 70
     1
102
RTVSPropertyOp58
 70
     1
102
RTVSPropertyOp59
 70
     1
102
RTVSPropertyOp60
 70
     1
102
RTVSPropertyOp61
 70
     1
102
RTVSPropertyOp62
 70
     1
  0
XRECORD
  5
287
102
{ACAD_REACTORS
330
286
102
}
330
286
100
AcDbXrecord
280
     1
102
RTVSPost2010Prop28
280
     0
102
RTVSPost2010PropOp28
 70
     1
102
RTVSPost2010Prop29
280
     1
102
RTVSPost2010PropOp29
 70
     1
102
RTVSPost2010Prop30
280
     1
102
RTVSPost2010PropOp30
 70
     1
102
RTVSPost2010Prop31
280
     0
102
RTVSPost2010PropOp31
 70
     1
102
RTVSPost2010Prop32
280
     0
102
RTVSPost2010PropOp32
 70
     1
102
RTVSPost2010Prop33
280
     0
102
RTVSPost2010PropOp33
 70
     1
102
RTVSPost2010Prop34
280
     0
102
RTVSPost2010PropOp34
 70
     1
102
RTVSPost2010Prop35
280
     0
102
RTVSPost2010PropOp35
 70
     1
102
RTVSPost2010Prop36
280
     0
102
RTVSPost2010PropOp36
 70
     1
102
RTVSPost2010Prop37
 90
       50
102
RTVSPost2010PropOp37
 70
     1
102
RTVSPost2010Prop38
140
0.0
102
RTVSPost2010PropOp38
 70
     1
102
RTVSPost2010Prop39
140
1.0
102
RTVSPost2010PropOp39
 70
     1
102
RTVSPost2010Prop40
 90
        0
102
RTVSPost2010PropOp40
 70
     1
102
RTVSPost2010Prop41ColorIndex
 90
       18
102
RTVSPost2010Prop41ColorRGB
 90
        0
102
RTVSPost2010PropOp41
 70
     1
102
RTVSPost2010Prop42
 90
       50
102
RTVSPost2010PropOp42
 70
     1
102
RTVSPost2010Prop43
 90
        3
102
RTVSPost2010PropOp43
 70
     1
102
RTVSPost2010Prop44ColorIndex
 90
        5
102
RTVSPost2010Prop44ColorRGB
 90
      255
102
RTVSPost2010PropOp44
 70
     1
102
RTVSPost2010Prop45
280
     0
102
RTVSPost2010PropOp45
 70
     1
102
RTVSPost2010Prop46
 90
       50
102
RTVSPost2010PropOp46
 70
     1
102
RTVSPost2010Prop47
 90
       50
102
RTVSPost2010PropOp47
 70
     1
102
RTVSPost2010Prop48
 90
       50
102
RTVSPost2010PropOp48
 70
     1
102
RTVSPost2010Prop49
280
     0
102
RTVSPost2010PropOp49
 70
     1
102
RTVSPost2010Prop50
 90
       50
102
RTVSPost2010PropOp50
 70
     1
102
RTVSPost2010Prop51ColorIndex
 90
      256
102
RTVSPost2010Prop51ColorRGB
 90
-16777216
102
RTVSPost2010PropOp51
 70
     0
102
RTVSPost2010Prop52
140
1.0
102
RTVSPost2010PropOp52
 70
     0
102
RTVSPost2010Prop53
 90
        2
102
RTVSPost2010PropOp53
 70
     1
102
RTVSPost2010Prop54
  1
strokes_ogs.tif
102
RTVSPost2010PropOp54
 70
     1
102
RTVSPost2010Prop55
280
     0
102
RTVSPost2010PropOp55
 70
     1
102
RTVSPost2010Prop56
140
1.0
102
RTVSPost2010PropOp56
 70
     1
102
RTVSPost2010Prop57
140
1.0
102
RTVSPost2010PropOp57
 70
     1
102
RTVSPropertyOp0
 70
     1
102
RTVSPropertyOp1
 70
     1
102
RTVSPropertyOp2
 70
     1
102
RTVSPropertyOp3
 70
     1
102
RTVSPropertyOp4
 70
     1
102
RTVSPropertyOp5
 70
     1
102
RTVSPropertyOp6
 70
     1
102
RTVSPropertyOp7
 70
     1
102
RTVSPropertyOp8
 70
     1
102
RTVSPropertyOp9
 70
     1
102
RTVSPropertyOp10
 70
     1
102
RTVSPropertyOp11
 70
     1
102
RTVSPropertyOp12
 70
     1
102
RTVSPropertyOp13
 70
     1
102
RTVSPropertyOp14
 70
     1
102
RTVSPropertyOp15
 70
     1
102
RTVSPropertyOp16
 70
     1
102
RTVSPropertyOp17
 70
     1
102
RTVSPropertyOp18
 70
     1
102
RTVSPropertyOp19
 70
     1
102
RTVSPropertyOp20
 70
     1
102
RTVSPropertyOp21
 70
     1
102
RTVSPropertyOp22
 70
     1
102
RTVSPropertyOp23
 70
     1
102
RTVSPropertyOp24
 70
     1
102
RTVSPropertyOp25
 70
     1
102
RTVSPropertyOp26
 70
     1
102
RTVSPropertyOp27
 70
     1
102
RTVSPropertyOp28
 70
     1
102
RTVSPropertyOp29
 70
     1
102
RTVSPropertyOp30
 70
     1
102
RTVSPropertyOp31
 70
     1
102
RTVSPropertyOp32
 70
     1
102
RTVSPropertyOp33
 70
     1
102
RTVSPropertyOp34
 70
     1
102
RTVSPropertyOp35
 70
     1
102
RTVSPropertyOp36
 70
     1
102
RTVSPropertyOp37
 70
     1
102
RTVSPropertyOp38
 70
     1
102
RTVSPropertyOp39
 70
     1
102
RTVSPropertyOp40
 70
     1
102
RTVSPropertyOp41
 70
     1
102
RTVSPropertyOp42
 70
     1
102
RTVSPropertyOp43
 70
     1
102
RTVSPropertyOp44
 70
     1
102
RTVSPropertyOp45
 70
     1
102
RTVSPropertyOp46
 70
     1
102
RTVSPropertyOp47
 70
     1
102
RTVSPropertyOp48
 70
     1
102
RTVSPropertyOp49
 70
     1
102
RTVSPropertyOp50
 70
     1
102
RTVSPropertyOp51
 70
     0
102
RTVSPropertyOp52
 70
     0
102
RTVSPropertyOp53
 70
     1
102
RTVSPropertyOp54
 70
     1
102
RTVSPropertyOp55
 70
     1
102
RTVSPropertyOp56
 70
     1
102
RTVSPropertyOp57
 70
     1
102
RTVSPropertyOp58
 70
     1
102
RTVSPropertyOp59
 70
     1
102
RTVSPropertyOp60
 70
     1
102
RTVSPropertyOp61
 70
     1
102
RTVSPropertyOp62
 70
     1
  0
XRECORD
  5
28F
102
{ACAD_REACTORS
330
28E
102
}
330
28E
100
AcDbXrecord
280
     1
102
RTVSPost2010Prop28
280
     0
102
RTVSPost2010PropOp28
 70
     1
102
RTVSPost2010Prop29
280
     1
102
RTVSPost2010PropOp29
 70
     1
102
RTVSPost2010Prop30
280
     1
102
RTVSPost2010PropOp30
 70
     1
102
RTVSPost2010Prop31
280
     0
102
RTVSPost2010PropOp31
 70
     1
102
RTVSPost2010Prop32
280
     0
102
RTVSPost2010PropOp32
 70
     1
102
RTVSPost2010Prop33
280
     0
102
RTVSPost2010PropOp33
 70
     1
102
RTVSPost2010Prop34
280
     0
102
RTVSPost2010PropOp34
 70
     1
102
RTVSPost2010Prop35
280
     0
102
RTVSPost2010PropOp35
 70
     1
102
RTVSPost2010Prop36
280
     0
102
RTVSPost2010PropOp36
 70
     1
102
RTVSPost2010Prop37
 90
       50
102
RTVSPost2010PropOp37
 70
     1
102
RTVSPost2010Prop38
140
0.0
102
RTVSPost2010PropOp38
 70
     1
102
RTVSPost2010Prop39
140
1.0
102
RTVSPost2010PropOp39
 70
     1
102
RTVSPost2010Prop40
 90
        0
102
RTVSPost2010PropOp40
 70
     1
102
RTVSPost2010Prop41ColorIndex
 90
       18
102
RTVSPost2010Prop41ColorRGB
 90
        0
102
RTVSPost2010PropOp41
 70
     1
102
RTVSPost2010Prop42
 90
       50
102
RTVSPost2010PropOp42
 70
     1
102
RTVSPost2010Prop43
 90
        3
102
RTVSPost2010PropOp43
 70
     1
102
RTVSPost2010Prop44ColorIndex
 90
        5
102
RTVSPost2010Prop44ColorRGB
 90
      255
102
RTVSPost2010PropOp44
 70
     1
102
RTVSPost2010Prop45
280
     0
102
RTVSPost2010PropOp45
 70
     1
102
RTVSPost2010Prop46
 90
       50
102
RTVSPost2010PropOp46
 70
     1
102
RTVSPost2010Prop47
 90
       50
102
RTVSPost2010PropOp47
 70
     1
102
RTVSPost2010Prop48
 90
       50
102
RTVSPost2010PropOp48
 70
     1
102
RTVSPost2010Prop49
280
     0
102
RTVSPost2010PropOp49
 70
     1
102
RTVSPost2010Prop50
 90
       50
102
RTVSPost2010PropOp50
 70
     1
102
RTVSPost2010Prop51ColorIndex
 90
      256
102
RTVSPost2010Prop51ColorRGB
 90
-16777216
102
RTVSPost2010PropOp51
 70
     0
102
RTVSPost2010Prop52
140
1.0
102
RTVSPost2010PropOp52
 70
     0
102
RTVSPost2010Prop53
 90
        2
102
RTVSPost2010PropOp53
 70
     1
102
RTVSPost2010Prop54
  1
strokes_ogs.tif
102
RTVSPost2010PropOp54
 70
     1
102
RTVSPost2010Prop55
280
     0
102
RTVSPost2010PropOp55
 70
     1
102
RTVSPost2010Prop56
140
1.0
102
RTVSPost2010PropOp56
 70
     1
102
RTVSPost2010Prop57
140
1.0
102
RTVSPost2010PropOp57
 70
     1
102
RTVSPropertyOp0
 70
     1
102
RTVSPropertyOp1
 70
     1
102
RTVSPropertyOp2
 70
     1
102
RTVSPropertyOp3
 70
     1
102
RTVSPropertyOp4
 70
     1
102
RTVSPropertyOp5
 70
     1
102
RTVSPropertyOp6
 70
     1
102
RTVSPropertyOp7
 70
     1
102
RTVSPropertyOp8
 70
     1
102
RTVSPropertyOp9
 70
     1
102
RTVSPropertyOp10
 70
     1
102
RTVSPropertyOp11
 70
     1
102
RTVSPropertyOp12
 70
     1
102
RTVSPropertyOp13
 70
     1
102
RTVSPropertyOp14
 70
     1
102
RTVSPropertyOp15
 70
     1
102
RTVSPropertyOp16
 70
     1
102
RTVSPropertyOp17
 70
     1
102
RTVSPropertyOp18
 70
     1
102
RTVSPropertyOp19
 70
     1
102
RTVSPropertyOp20
 70
     1
102
RTVSPropertyOp21
 70
     1
102
RTVSPropertyOp22
 70
     1
102
RTVSPropertyOp23
 70
     1
102
RTVSPropertyOp24
 70
     1
102
RTVSPropertyOp25
 70
     1
102
RTVSPropertyOp26
 70
     1
102
RTVSPropertyOp27
 70
     1
102
RTVSPropertyOp28
 70
     1
102
RTVSPropertyOp29
 70
     1
102
RTVSPropertyOp30
 70
     1
102
RTVSPropertyOp31
 70
     1
102
RTVSPropertyOp32
 70
     1
102
RTVSPropertyOp33
 70
     1
102
RTVSPropertyOp34
 70
     1
102
RTVSPropertyOp35
 70
     1
102
RTVSPropertyOp36
 70
     1
102
RTVSPropertyOp37
 70
     1
102
RTVSPropertyOp38
 70
     1
102
RTVSPropertyOp39
 70
     1
102
RTVSPropertyOp40
 70
     1
102
RTVSPropertyOp41
 70
     1
102
RTVSPropertyOp42
 70
     1
102
RTVSPropertyOp43
 70
     1
102
RTVSPropertyOp44
 70
     1
102
RTVSPropertyOp45
 70
     1
102
RTVSPropertyOp46
 70
     1
102
RTVSPropertyOp47
 70
     1
102
RTVSPropertyOp48
 70
     1
102
RTVSPropertyOp49
 70
     1
102
RTVSPropertyOp50
 70
     1
102
RTVSPropertyOp51
 70
     0
102
RTVSPropertyOp52
 70
     0
102
RTVSPropertyOp53
 70
     1
102
RTVSPropertyOp54
 70
     1
102
RTVSPropertyOp55
 70
     1
102
RTVSPropertyOp56
 70
     1
102
RTVSPropertyOp57
 70
     1
102
RTVSPropertyOp58
 70
     1
102
RTVSPropertyOp59
 70
     1
102
RTVSPropertyOp60
 70
     1
102
RTVSPropertyOp61
 70
     1
102
RTVSPropertyOp62
 70
     1
  0
XRECORD
  5
283
102
{ACAD_REACTORS
330
282
102
}
330
282
100
AcDbXrecord
280
     1
102
RTVSPost2010Prop28
280
     0
102
RTVSPost2010PropOp28
 70
     1
102
RTVSPost2010Prop29
280
     1
102
RTVSPost2010PropOp29
 70
     1
102
RTVSPost2010Prop30
280
     1
102
RTVSPost2010PropOp30
 70
     1
102
RTVSPost2010Prop31
280
     0
102
RTVSPost2010PropOp31
 70
     1
102
RTVSPost2010Prop32
280
     0
102
RTVSPost2010PropOp32
 70
     1
102
RTVSPost2010Prop33
280
     0
102
RTVSPost2010PropOp33
 70
     1
102
RTVSPost2010Prop34
280
     0
102
RTVSPost2010PropOp34
 70
     1
102
RTVSPost2010Prop35
280
     0
102
RTVSPost2010PropOp35
 70
     1
102
RTVSPost2010Prop36
280
     0
102
RTVSPost2010PropOp36
 70
     1
102
RTVSPost2010Prop37
 90
       50
102
RTVSPost2010PropOp37
 70
     1
102
RTVSPost2010Prop38
140
0.0
102
RTVSPost2010PropOp38
 70
     1
102
RTVSPost2010Prop39
140
1.0
102
RTVSPost2010PropOp39
 70
     1
102
RTVSPost2010Prop40
 90
        0
102
RTVSPost2010PropOp40
 70
     1
102
RTVSPost2010Prop41ColorIndex
 90
       18
102
RTVSPost2010Prop41ColorRGB
 90
        0
102
RTVSPost2010PropOp41
 70
     1
102
RTVSPost2010Prop42
 90
       50
102
RTVSPost2010PropOp42
 70
     1
102
RTVSPost2010Prop43
 90
        3
102
RTVSPost2010PropOp43
 70
     1
102
RTVSPost2010Prop44ColorIndex
 90
        5
102
RTVSPost2010Prop44ColorRGB
 90
      255
102
RTVSPost2010PropOp44
 70
     1
102
RTVSPost2010Prop45
280
     0
102
RTVSPost2010PropOp45
 70
     1
102
RTVSPost2010Prop46
 90
       50
102
RTVSPost2010PropOp46
 70
     1
102
RTVSPost2010Prop47
 90
       50
102
RTVSPost2010PropOp47
 70
     1
102
RTVSPost2010Prop48
 90
       50
102
RTVSPost2010PropOp48
 70
     1
102
RTVSPost2010Prop49
280
     0
102
RTVSPost2010PropOp49
 70
     1
102
RTVSPost2010Prop50
 90
       50
102
RTVSPost2010PropOp50
 70
     1
102
RTVSPost2010Prop51ColorIndex
 90
      256
102
RTVSPost2010Prop51ColorRGB
 90
-16777216
102
RTVSPost2010PropOp51
 70
     0
102
RTVSPost2010Prop52
140
1.0
102
RTVSPost2010PropOp52
 70
     0
102
RTVSPost2010Prop53
 90
        2
102
RTVSPost2010PropOp53
 70
     1
102
RTVSPost2010Prop54
  1
strokes_ogs.tif
102
RTVSPost2010PropOp54
 70
     1
102
RTVSPost2010Prop55
280
     0
102
RTVSPost2010PropOp55
 70
     1
102
RTVSPost2010Prop56
140
1.0
102
RTVSPost2010PropOp56
 70
     1
102
RTVSPost2010Prop57
140
1.0
102
RTVSPost2010PropOp57
 70
     1
102
RTVSPropertyOp0
 70
     1
102
RTVSPropertyOp1
 70
     1
102
RTVSPropertyOp2
 70
     1
102
RTVSPropertyOp3
 70
     1
102
RTVSPropertyOp4
 70
     1
102
RTVSPropertyOp5
 70
     1
102
RTVSPropertyOp6
 70
     1
102
RTVSPropertyOp7
 70
     1
102
RTVSPropertyOp8
 70
     1
102
RTVSPropertyOp9
 70
     1
102
RTVSPropertyOp10
 70
     1
102
RTVSPropertyOp11
 70
     1
102
RTVSPropertyOp12
 70
     1
102
RTVSPropertyOp13
 70
     1
102
RTVSPropertyOp14
 70
     1
102
RTVSPropertyOp15
 70
     1
102
RTVSPropertyOp16
 70
     1
102
RTVSPropertyOp17
 70
     1
102
RTVSPropertyOp18
 70
     1
102
RTVSPropertyOp19
 70
     1
102
RTVSPropertyOp20
 70
     1
102
RTVSPropertyOp21
 70
     1
102
RTVSPropertyOp22
 70
     1
102
RTVSPropertyOp23
 70
     1
102
RTVSPropertyOp24
 70
     1
102
RTVSPropertyOp25
 70
     1
102
RTVSPropertyOp26
 70
     1
102
RTVSPropertyOp27
 70
     1
102
RTVSPropertyOp28
 70
     1
102
RTVSPropertyOp29
 70
     1
102
RTVSPropertyOp30
 70
     1
102
RTVSPropertyOp31
 70
     1
102
RTVSPropertyOp32
 70
     1
102
RTVSPropertyOp33
 70
     1
102
RTVSPropertyOp34
 70
     1
102
RTVSPropertyOp35
 70
     1
102
RTVSPropertyOp36
 70
     1
102
RTVSPropertyOp37
 70
     1
102
RTVSPropertyOp38
 70
     1
102
RTVSPropertyOp39
 70
     1
102
RTVSPropertyOp40
 70
     1
102
RTVSPropertyOp41
 70
     1
102
RTVSPropertyOp42
 70
     1
102
RTVSPropertyOp43
 70
     1
102
RTVSPropertyOp44
 70
     1
102
RTVSPropertyOp45
 70
     1
102
RTVSPropertyOp46
 70
     1
102
RTVSPropertyOp47
 70
     1
102
RTVSPropertyOp48
 70
     1
102
RTVSPropertyOp49
 70
     1
102
RTVSPropertyOp50
 70
     1
102
RTVSPropertyOp51
 70
     0
102
RTVSPropertyOp52
 70
     0
102
RTVSPropertyOp53
 70
     1
102
RTVSPropertyOp54
 70
     1
102
RTVSPropertyOp55
 70
     1
102
RTVSPropertyOp56
 70
     1
102
RTVSPropertyOp57
 70
     1
102
RTVSPropertyOp58
 70
     1
102
RTVSPropertyOp59
 70
     1
102
RTVSPropertyOp60
 70
     1
102
RTVSPropertyOp61
 70
     1
102
RTVSPropertyOp62
 70
     1
  0
XRECORD
  5
285
102
{ACAD_REACTORS
330
284
102
}
330
284
100
AcDbXrecord
280
     1
102
RTVSPost2010Prop28
280
     0
102
RTVSPost2010PropOp28
 70
     1
102
RTVSPost2010Prop29
280
     1
102
RTVSPost2010PropOp29
 70
     1
102
RTVSPost2010Prop30
280
     1
102
RTVSPost2010PropOp30
 70
     1
102
RTVSPost2010Prop31
280
     0
102
RTVSPost2010PropOp31
 70
     1
102
RTVSPost2010Prop32
280
     0
102
RTVSPost2010PropOp32
 70
     1
102
RTVSPost2010Prop33
280
     0
102
RTVSPost2010PropOp33
 70
     1
102
RTVSPost2010Prop34
280
     0
102
RTVSPost2010PropOp34
 70
     1
102
RTVSPost2010Prop35
280
     0
102
RTVSPost2010PropOp35
 70
     1
102
RTVSPost2010Prop36
280
     0
102
RTVSPost2010PropOp36
 70
     1
102
RTVSPost2010Prop37
 90
       50
102
RTVSPost2010PropOp37
 70
     1
102
RTVSPost2010Prop38
140
0.0
102
RTVSPost2010PropOp38
 70
     1
102
RTVSPost2010Prop39
140
1.0
102
RTVSPost2010PropOp39
 70
     1
102
RTVSPost2010Prop40
 90
        0
102
RTVSPost2010PropOp40
 70
     1
102
RTVSPost2010Prop41ColorIndex
 90
       18
102
RTVSPost2010Prop41ColorRGB
 90
        0
102
RTVSPost2010PropOp41
 70
     1
102
RTVSPost2010Prop42
 90
       50
102
RTVSPost2010PropOp42
 70
     1
102
RTVSPost2010Prop43
 90
        3
102
RTVSPost2010PropOp43
 70
     1
102
RTVSPost2010Prop44ColorIndex
 90
        5
102
RTVSPost2010Prop44ColorRGB
 90
      255
102
RTVSPost2010PropOp44
 70
     1
102
RTVSPost2010Prop45
280
     0
102
RTVSPost2010PropOp45
 70
     1
102
RTVSPost2010Prop46
 90
       50
102
RTVSPost2010PropOp46
 70
     1
102
RTVSPost2010Prop47
 90
       50
102
RTVSPost2010PropOp47
 70
     1
102
RTVSPost2010Prop48
 90
       50
102
RTVSPost2010PropOp48
 70
     1
102
RTVSPost2010Prop49
280
     0
102
RTVSPost2010PropOp49
 70
     1
102
RTVSPost2010Prop50
 90
       50
102
RTVSPost2010PropOp50
 70
     1
102
RTVSPost2010Prop51ColorIndex
 90
      256
102
RTVSPost2010Prop51ColorRGB
 90
-16777216
102
RTVSPost2010PropOp51
 70
     0
102
RTVSPost2010Prop52
140
1.0
102
RTVSPost2010PropOp52
 70
     0
102
RTVSPost2010Prop53
 90
        2
102
RTVSPost2010PropOp53
 70
     1
102
RTVSPost2010Prop54
  1
strokes_ogs.tif
102
RTVSPost2010PropOp54
 70
     1
102
RTVSPost2010Prop55
280
     0
102
RTVSPost2010PropOp55
 70
     1
102
RTVSPost2010Prop56
140
1.0
102
RTVSPost2010PropOp56
 70
     1
102
RTVSPost2010Prop57
140
1.0
102
RTVSPost2010PropOp57
 70
     1
102
RTVSPropertyOp0
 70
     1
102
RTVSPropertyOp1
 70
     1
102
RTVSPropertyOp2
 70
     1
102
RTVSPropertyOp3
 70
     1
102
RTVSPropertyOp4
 70
     1
102
RTVSPropertyOp5
 70
     1
102
RTVSPropertyOp6
 70
     1
102
RTVSPropertyOp7
 70
     1
102
RTVSPropertyOp8
 70
     1
102
RTVSPropertyOp9
 70
     1
102
RTVSPropertyOp10
 70
     1
102
RTVSPropertyOp11
 70
     1
102
RTVSPropertyOp12
 70
     1
102
RTVSPropertyOp13
 70
     1
102
RTVSPropertyOp14
 70
     1
102
RTVSPropertyOp15
 70
     1
102
RTVSPropertyOp16
 70
     1
102
RTVSPropertyOp17
 70
     1
102
RTVSPropertyOp18
 70
     1
102
RTVSPropertyOp19
 70
     1
102
RTVSPropertyOp20
 70
     1
102
RTVSPropertyOp21
 70
     1
102
RTVSPropertyOp22
 70
     1
102
RTVSPropertyOp23
 70
     1
102
RTVSPropertyOp24
 70
     1
102
RTVSPropertyOp25
 70
     1
102
RTVSPropertyOp26
 70
     1
102
RTVSPropertyOp27
 70
     1
102
RTVSPropertyOp28
 70
     1
102
RTVSPropertyOp29
 70
     1
102
RTVSPropertyOp30
 70
     1
102
RTVSPropertyOp31
 70
     1
102
RTVSPropertyOp32
 70
     1
102
RTVSPropertyOp33
 70
     1
102
RTVSPropertyOp34
 70
     1
102
RTVSPropertyOp35
 70
     1
102
RTVSPropertyOp36
 70
     1
102
RTVSPropertyOp37
 70
     1
102
RTVSPropertyOp38
 70
     1
102
RTVSPropertyOp39
 70
     1
102
RTVSPropertyOp40
 70
     1
102
RTVSPropertyOp41
 70
     1
102
RTVSPropertyOp42
 70
     1
102
RTVSPropertyOp43
 70
     1
102
RTVSPropertyOp44
 70
     1
102
RTVSPropertyOp45
 70
     1
102
RTVSPropertyOp46
 70
     1
102
RTVSPropertyOp47
 70
     1
102
RTVSPropertyOp48
 70
     1
102
RTVSPropertyOp49
 70
     1
102
RTVSPropertyOp50
 70
     1
102
RTVSPropertyOp51
 70
     0
102
RTVSPropertyOp52
 70
     0
102
RTVSPropertyOp53
 70
     1
102
RTVSPropertyOp54
 70
     1
102
RTVSPropertyOp55
 70
     1
102
RTVSPropertyOp56
 70
     1
102
RTVSPropertyOp57
 70
     1
102
RTVSPropertyOp58
 70
     1
102
RTVSPropertyOp59
 70
     1
102
RTVSPropertyOp60
 70
     1
102
RTVSPropertyOp61
 70
     1
102
RTVSPropertyOp62
 70
     1
  0
XRECORD
  5
295
102
{ACAD_REACTORS
330
294
102
}
330
294
100
AcDbXrecord
280
     1
102
RTVSPost2010Prop28
280
     0
102
RTVSPost2010PropOp28
 70
     0
102
RTVSPost2010Prop29
280
     1
102
RTVSPost2010PropOp29
 70
     0
102
RTVSPost2010Prop30
280
     1
102
RTVSPost2010PropOp30
 70
     0
102
RTVSPost2010Prop31
280
     0
102
RTVSPost2010PropOp31
 70
     0
102
RTVSPost2010Prop32
280
     0
102
RTVSPost2010PropOp32
 70
     0
102
RTVSPost2010Prop33
280
     0
102
RTVSPost2010PropOp33
 70
     0
102
RTVSPost2010Prop34
280
     0
102
RTVSPost2010PropOp34
 70
     0
102
RTVSPost2010Prop35
280
     0
102
RTVSPost2010PropOp35
 70
     0
102
RTVSPost2010Prop36
280
     0
102
RTVSPost2010PropOp36
 70
     0
102
RTVSPost2010Prop37
 90
       50
102
RTVSPost2010PropOp37
 70
     0
102
RTVSPost2010Prop38
140
0.0
102
RTVSPost2010PropOp38
 70
     0
102
RTVSPost2010Prop39
140
1.0
102
RTVSPost2010PropOp39
 70
     0
102
RTVSPost2010Prop40
 90
        0
102
RTVSPost2010PropOp40
 70
     0
102
RTVSPost2010Prop41ColorIndex
 90
       18
102
RTVSPost2010Prop41ColorRGB
 90
        0
102
RTVSPost2010PropOp41
 70
     0
102
RTVSPost2010Prop42
 90
       50
102
RTVSPost2010PropOp42
 70
     0
102
RTVSPost2010Prop43
 90
        3
102
RTVSPost2010PropOp43
 70
     0
102
RTVSPost2010Prop44ColorIndex
 90
        5
102
RTVSPost2010Prop44ColorRGB
 90
      255
102
RTVSPost2010PropOp44
 70
     0
102
RTVSPost2010Prop45
280
     0
102
RTVSPost2010PropOp45
 70
     0
102
RTVSPost2010Prop46
 90
       50
102
RTVSPost2010PropOp46
 70
     0
102
RTVSPost2010Prop47
 90
       50
102
RTVSPost2010PropOp47
 70
     0
102
RTVSPost2010Prop48
 90
       50
102
RTVSPost2010PropOp48
 70
     0
102
RTVSPost2010Prop49
280
     0
102
RTVSPost2010PropOp49
 70
     0
102
RTVSPost2010Prop50
 90
       50
102
RTVSPost2010PropOp50
 70
     0
102
RTVSPost2010Prop51ColorIndex
 90
      256
102
RTVSPost2010Prop51ColorRGB
 90
-16777216
102
RTVSPost2010PropOp51
 70
     0
102
RTVSPost2010Prop52
140
1.0
102
RTVSPost2010PropOp52
 70
     0
102
RTVSPost2010Prop53
 90
        2
102
RTVSPost2010PropOp53
 70
     0
102
RTVSPost2010Prop54
  1
strokes_ogs.tif
102
RTVSPost2010PropOp54
 70
     0
102
RTVSPost2010Prop55
280
     0
102
RTVSPost2010PropOp55
 70
     0
102
RTVSPost2010Prop56
140
1.0
102
RTVSPost2010PropOp56
 70
     0
102
RTVSPost2010Prop57
140
1.0
102
RTVSPost2010PropOp57
 70
     0
102
RTVSPropertyOp0
 70
     0
102
RTVSPropertyOp1
 70
     0
102
RTVSPropertyOp2
 70
     0
102
RTVSPropertyOp3
 70
     0
102
RTVSPropertyOp4
 70
     0
102
RTVSPropertyOp5
 70
     0
102
RTVSPropertyOp6
 70
     0
102
RTVSPropertyOp7
 70
     0
102
RTVSPropertyOp8
 70
     0
102
RTVSPropertyOp9
 70
     0
102
RTVSPropertyOp10
 70
     0
102
RTVSPropertyOp11
 70
     0
102
RTVSPropertyOp12
 70
     0
102
RTVSPropertyOp13
 70
     0
102
RTVSPropertyOp14
 70
     2
102
RTVSPropertyOp15
 70
     0
102
RTVSPropertyOp16
 70
     0
102
RTVSPropertyOp17
 70
     0
102
RTVSPropertyOp18
 70
     0
102
RTVSPropertyOp19
 70
     0
102
RTVSPropertyOp20
 70
     0
102
RTVSPropertyOp21
 70
     0
102
RTVSPropertyOp22
 70
     0
102
RTVSPropertyOp23
 70
     0
102
RTVSPropertyOp24
 70
     0
102
RTVSPropertyOp25
 70
     0
102
RTVSPropertyOp26
 70
     0
102
RTVSPropertyOp27
 70
     0
102
RTVSPropertyOp28
 70
     0
102
RTVSPropertyOp29
 70
     0
102
RTVSPropertyOp30
 70
     0
102
RTVSPropertyOp31
 70
     0
102
RTVSPropertyOp32
 70
     0
102
RTVSPropertyOp33
 70
     0
102
RTVSPropertyOp34
 70
     0
102
RTVSPropertyOp35
 70
     0
102
RTVSPropertyOp36
 70
     0
102
RTVSPropertyOp37
 70
     0
102
RTVSPropertyOp38
 70
     0
102
RTVSPropertyOp39
 70
     0
102
RTVSPropertyOp40
 70
     0
102
RTVSPropertyOp41
 70
     0
102
RTVSPropertyOp42
 70
     0
102
RTVSPropertyOp43
 70
     0
102
RTVSPropertyOp44
 70
     0
102
RTVSPropertyOp45
 70
     0
102
RTVSPropertyOp46
 70
     0
102
RTVSPropertyOp47
 70
     0
102
RTVSPropertyOp48
 70
     0
102
RTVSPropertyOp49
 70
     0
102
RTVSPropertyOp50
 70
     0
102
RTVSPropertyOp51
 70
     0
102
RTVSPropertyOp52
 70
     0
102
RTVSPropertyOp53
 70
     0
102
RTVSPropertyOp54
 70
     0
102
RTVSPropertyOp55
 70
     0
102
RTVSPropertyOp56
 70
     0
102
RTVSPropertyOp57
 70
     0
102
RTVSPropertyOp58
 70
     1
102
RTVSPropertyOp59
 70
     1
102
RTVSPropertyOp60
 70
     1
102
RTVSPropertyOp61
 70
     1
102
RTVSPropertyOp62
 70
     1
  0
XRECORD
  5
28D
102
{ACAD_REACTORS
330
28C
102
}
330
28C
100
AcDbXrecord
280
     1
102
RTVSPost2010Prop28
280
     0
102
RTVSPost2010PropOp28
 70
     1
102
RTVSPost2010Prop29
280
     1
102
RTVSPost2010PropOp29
 70
     1
102
RTVSPost2010Prop30
280
     1
102
RTVSPost2010PropOp30
 70
     1
102
RTVSPost2010Prop31
280
     0
102
RTVSPost2010PropOp31
 70
     1
102
RTVSPost2010Prop32
280
     0
102
RTVSPost2010PropOp32
 70
     1
102
RTVSPost2010Prop33
280
     0
102
RTVSPost2010PropOp33
 70
     1
102
RTVSPost2010Prop34
280
     0
102
RTVSPost2010PropOp34
 70
     1
102
RTVSPost2010Prop35
280
     0
102
RTVSPost2010PropOp35
 70
     1
102
RTVSPost2010Prop36
280
     0
102
RTVSPost2010PropOp36
 70
     1
102
RTVSPost2010Prop37
 90
       50
102
RTVSPost2010PropOp37
 70
     1
102
RTVSPost2010Prop38
140
0.0
102
RTVSPost2010PropOp38
 70
     1
102
RTVSPost2010Prop39
140
1.0
102
RTVSPost2010PropOp39
 70
     1
102
RTVSPost2010Prop40
 90
        0
102
RTVSPost2010PropOp40
 70
     1
102
RTVSPost2010Prop41ColorIndex
 90
       18
102
RTVSPost2010Prop41ColorRGB
 90
        0
102
RTVSPost2010PropOp41
 70
     1
102
RTVSPost2010Prop42
 90
       50
102
RTVSPost2010PropOp42
 70
     1
102
RTVSPost2010Prop43
 90
        3
102
RTVSPost2010PropOp43
 70
     1
102
RTVSPost2010Prop44ColorIndex
 90
        5
102
RTVSPost2010Prop44ColorRGB
 90
      255
102
RTVSPost2010PropOp44
 70
     1
102
RTVSPost2010Prop45
280
     0
102
RTVSPost2010PropOp45
 70
     1
102
RTVSPost2010Prop46
 90
       50
102
RTVSPost2010PropOp46
 70
     1
102
RTVSPost2010Prop47
 90
       50
102
RTVSPost2010PropOp47
 70
     1
102
RTVSPost2010Prop48
 90
       50
102
RTVSPost2010PropOp48
 70
     1
102
RTVSPost2010Prop49
280
     0
102
RTVSPost2010PropOp49
 70
     1
102
RTVSPost2010Prop50
 90
       50
102
RTVSPost2010PropOp50
 70
     1
102
RTVSPost2010Prop51ColorIndex
 90
      256
102
RTVSPost2010Prop51ColorRGB
 90
-16777216
102
RTVSPost2010PropOp51
 70
     0
102
RTVSPost2010Prop52
140
1.0
102
RTVSPost2010PropOp52
 70
     0
102
RTVSPost2010Prop53
 90
        2
102
RTVSPost2010PropOp53
 70
     1
102
RTVSPost2010Prop54
  1
strokes_ogs.tif
102
RTVSPost2010PropOp54
 70
     1
102
RTVSPost2010Prop55
280
     0
102
RTVSPost2010PropOp55
 70
     1
102
RTVSPost2010Prop56
140
1.0
102
RTVSPost2010PropOp56
 70
     1
102
RTVSPost2010Prop57
140
1.0
102
RTVSPost2010PropOp57
 70
     1
102
RTVSPropertyOp0
 70
     1
102
RTVSPropertyOp1
 70
     1
102
RTVSPropertyOp2
 70
     1
102
RTVSPropertyOp3
 70
     1
102
RTVSPropertyOp4
 70
     1
102
RTVSPropertyOp5
 70
     1
102
RTVSPropertyOp6
 70
     1
102
RTVSPropertyOp7
 70
     1
102
RTVSPropertyOp8
 70
     1
102
RTVSPropertyOp9
 70
     1
102
RTVSPropertyOp10
 70
     1
102
RTVSPropertyOp11
 70
     1
102
RTVSPropertyOp12
 70
     1
102
RTVSPropertyOp13
 70
     1
102
RTVSPropertyOp14
 70
     1
102
RTVSPropertyOp15
 70
     1
102
RTVSPropertyOp16
 70
     1
102
RTVSPropertyOp17
 70
     1
102
RTVSPropertyOp18
 70
     1
102
RTVSPropertyOp19
 70
     1
102
RTVSPropertyOp20
 70
     1
102
RTVSPropertyOp21
 70
     1
102
RTVSPropertyOp22
 70
     1
102
RTVSPropertyOp23
 70
     1
102
RTVSPropertyOp24
 70
     1
102
RTVSPropertyOp25
 70
     1
102
RTVSPropertyOp26
 70
     1
102
RTVSPropertyOp27
 70
     1
102
RTVSPropertyOp28
 70
     1
102
RTVSPropertyOp29
 70
     1
102
RTVSPropertyOp30
 70
     1
102
RTVSPropertyOp31
 70
     1
102
RTVSPropertyOp32
 70
     1
102
RTVSPropertyOp33
 70
     1
102
RTVSPropertyOp34
 70
     1
102
RTVSPropertyOp35
 70
     1
102
RTVSPropertyOp36
 70
     1
102
RTVSPropertyOp37
 70
     1
102
RTVSPropertyOp38
 70
     1
102
RTVSPropertyOp39
 70
     1
102
RTVSPropertyOp40
 70
     1
102
RTVSPropertyOp41
 70
     1
102
RTVSPropertyOp42
 70
     1
102
RTVSPropertyOp43
 70
     1
102
RTVSPropertyOp44
 70
     1
102
RTVSPropertyOp45
 70
     1
102
RTVSPropertyOp46
 70
     1
102
RTVSPropertyOp47
 70
     1
102
RTVSPropertyOp48
 70
     1
102
RTVSPropertyOp49
 70
     1
102
RTVSPropertyOp50
 70
     1
102
RTVSPropertyOp51
 70
     0
102
RTVSPropertyOp52
 70
     0
102
RTVSPropertyOp53
 70
     1
102
RTVSPropertyOp54
 70
     1
102
RTVSPropertyOp55
 70
     1
102
RTVSPropertyOp56
 70
     1
102
RTVSPropertyOp57
 70
     1
102
RTVSPropertyOp58
 70
     1
102
RTVSPropertyOp59
 70
     1
102
RTVSPropertyOp60
 70
     1
102
RTVSPropertyOp61
 70
     1
102
RTVSPropertyOp62
 70
     1
  0
XRECORD
  5
271
102
{ACAD_REACTORS
330
270
102
}
330
270
100
AcDbXrecord
280
     1
102
RTVSPost2010Prop28
280
     0
102
RTVSPost2010PropOp28
 70
     1
102
RTVSPost2010Prop29
280
     1
102
RTVSPost2010PropOp29
 70
     1
102
RTVSPost2010Prop30
280
     1
102
RTVSPost2010PropOp30
 70
     1
102
RTVSPost2010Prop31
280
     0
102
RTVSPost2010PropOp31
 70
     1
102
RTVSPost2010Prop32
280
     0
102
RTVSPost2010PropOp32
 70
     1
102
RTVSPost2010Prop33
280
     0
102
RTVSPost2010PropOp33
 70
     1
102
RTVSPost2010Prop34
280
     0
102
RTVSPost2010PropOp34
 70
     1
102
RTVSPost2010Prop35
280
     0
102
RTVSPost2010PropOp35
 70
     1
102
RTVSPost2010Prop36
280
     0
102
RTVSPost2010PropOp36
 70
     1
102
RTVSPost2010Prop37
 90
       50
102
RTVSPost2010PropOp37
 70
     1
102
RTVSPost2010Prop38
140
0.0
102
RTVSPost2010PropOp38
 70
     1
102
RTVSPost2010Prop39
140
1.0
102
RTVSPost2010PropOp39
 70
     1
102
RTVSPost2010Prop40
 90
        0
102
RTVSPost2010PropOp40
 70
     1
102
RTVSPost2010Prop41ColorIndex
 90
       18
102
RTVSPost2010Prop41ColorRGB
 90
        0
102
RTVSPost2010PropOp41
 70
     1
102
RTVSPost2010Prop42
 90
       50
102
RTVSPost2010PropOp42
 70
     1
102
RTVSPost2010Prop43
 90
        3
102
RTVSPost2010PropOp43
 70
     1
102
RTVSPost2010Prop44ColorIndex
 90
        5
102
RTVSPost2010Prop44ColorRGB
 90
      255
102
RTVSPost2010PropOp44
 70
     1
102
RTVSPost2010Prop45
280
     0
102
RTVSPost2010PropOp45
 70
     1
102
RTVSPost2010Prop46
 90
       50
102
RTVSPost2010PropOp46
 70
     1
102
RTVSPost2010Prop47
 90
       50
102
RTVSPost2010PropOp47
 70
     1
102
RTVSPost2010Prop48
 90
       50
102
RTVSPost2010PropOp48
 70
     1
102
RTVSPost2010Prop49
280
     0
102
RTVSPost2010PropOp49
 70
     1
102
RTVSPost2010Prop50
 90
       50
102
RTVSPost2010PropOp50
 70
     1
102
RTVSPost2010Prop51ColorIndex
 90
      256
102
RTVSPost2010Prop51ColorRGB
 90
-16777216
102
RTVSPost2010PropOp51
 70
     0
102
RTVSPost2010Prop52
140
1.0
102
RTVSPost2010PropOp52
 70
     0
102
RTVSPost2010Prop53
 90
        2
102
RTVSPost2010PropOp53
 70
     1
102
RTVSPost2010Prop54
  1
strokes_ogs.tif
102
RTVSPost2010PropOp54
 70
     1
102
RTVSPost2010Prop55
280
     0
102
RTVSPost2010PropOp55
 70
     1
102
RTVSPost2010Prop56
140
1.0
102
RTVSPost2010PropOp56
 70
     1
102
RTVSPost2010Prop57
140
1.0
102
RTVSPost2010PropOp57
 70
     1
102
RTVSPropertyOp0
 70
     1
102
RTVSPropertyOp1
 70
     1
102
RTVSPropertyOp2
 70
     1
102
RTVSPropertyOp3
 70
     1
102
RTVSPropertyOp4
 70
     1
102
RTVSPropertyOp5
 70
     1
102
RTVSPropertyOp6
 70
     1
102
RTVSPropertyOp7
 70
     1
102
RTVSPropertyOp8
 70
     1
102
RTVSPropertyOp9
 70
     1
102
RTVSPropertyOp10
 70
     1
102
RTVSPropertyOp11
 70
     1
102
RTVSPropertyOp12
 70
     1
102
RTVSPropertyOp13
 70
     1
102
RTVSPropertyOp14
 70
     1
102
RTVSPropertyOp15
 70
     1
102
RTVSPropertyOp16
 70
     1
102
RTVSPropertyOp17
 70
     1
102
RTVSPropertyOp18
 70
     1
102
RTVSPropertyOp19
 70
     1
102
RTVSPropertyOp20
 70
     1
102
RTVSPropertyOp21
 70
     1
102
RTVSPropertyOp22
 70
     1
102
RTVSPropertyOp23
 70
     1
102
RTVSPropertyOp24
 70
     1
102
RTVSPropertyOp25
 70
     1
102
RTVSPropertyOp26
 70
     1
102
RTVSPropertyOp27
 70
     1
102
RTVSPropertyOp28
 70
     1
102
RTVSPropertyOp29
 70
     1
102
RTVSPropertyOp30
 70
     1
102
RTVSPropertyOp31
 70
     1
102
RTVSPropertyOp32
 70
     1
102
RTVSPropertyOp33
 70
     1
102
RTVSPropertyOp34
 70
     1
102
RTVSPropertyOp35
 70
     1
102
RTVSPropertyOp36
 70
     1
102
RTVSPropertyOp37
 70
     1
102
RTVSPropertyOp38
 70
     1
102
RTVSPropertyOp39
 70
     1
102
RTVSPropertyOp40
 70
     1
102
RTVSPropertyOp41
 70
     1
102
RTVSPropertyOp42
 70
     1
102
RTVSPropertyOp43
 70
     1
102
RTVSPropertyOp44
 70
     1
102
RTVSPropertyOp45
 70
     1
102
RTVSPropertyOp46
 70
     1
102
RTVSPropertyOp47
 70
     1
102
RTVSPropertyOp48
 70
     1
102
RTVSPropertyOp49
 70
     1
102
RTVSPropertyOp50
 70
     1
102
RTVSPropertyOp51
 70
     0
102
RTVSPropertyOp52
 70
     0
102
RTVSPropertyOp53
 70
     1
102
RTVSPropertyOp54
 70
     1
102
RTVSPropertyOp55
 70
     1
102
RTVSPropertyOp56
 70
     1
102
RTVSPropertyOp57
 70
     1
102
RTVSPropertyOp58
 70
     1
102
RTVSPropertyOp59
 70
     1
102
RTVSPropertyOp60
 70
     1
102
RTVSPropertyOp61
 70
     1
102
RTVSPropertyOp62
 70
     1
  0
XRECORD
  5
273
102
{ACAD_REACTORS
330
272
102
}
330
272
100
AcDbXrecord
280
     1
102
RTVSPost2010Prop28
280
     0
102
RTVSPost2010PropOp28
 70
     1
102
RTVSPost2010Prop29
280
     1
102
RTVSPost2010PropOp29
 70
     1
102
RTVSPost2010Prop30
280
     1
102
RTVSPost2010PropOp30
 70
     1
102
RTVSPost2010Prop31
280
     0
102
RTVSPost2010PropOp31
 70
     1
102
RTVSPost2010Prop32
280
     0
102
RTVSPost2010PropOp32
 70
     1
102
RTVSPost2010Prop33
280
     0
102
RTVSPost2010PropOp33
 70
     1
102
RTVSPost2010Prop34
280
     0
102
RTVSPost2010PropOp34
 70
     1
102
RTVSPost2010Prop35
280
     0
102
RTVSPost2010PropOp35
 70
     1
102
RTVSPost2010Prop36
280
     0
102
RTVSPost2010PropOp36
 70
     1
102
RTVSPost2010Prop37
 90
       50
102
RTVSPost2010PropOp37
 70
     1
102
RTVSPost2010Prop38
140
0.0
102
RTVSPost2010PropOp38
 70
     1
102
RTVSPost2010Prop39
140
1.0
102
RTVSPost2010PropOp39
 70
     1
102
RTVSPost2010Prop40
 90
        0
102
RTVSPost2010PropOp40
 70
     1
102
RTVSPost2010Prop41ColorIndex
 90
       18
102
RTVSPost2010Prop41ColorRGB
 90
        0
102
RTVSPost2010PropOp41
 70
     1
102
RTVSPost2010Prop42
 90
       50
102
RTVSPost2010PropOp42
 70
     1
102
RTVSPost2010Prop43
 90
        3
102
RTVSPost2010PropOp43
 70
     1
102
RTVSPost2010Prop44ColorIndex
 90
        5
102
RTVSPost2010Prop44ColorRGB
 90
      255
102
RTVSPost2010PropOp44
 70
     1
102
RTVSPost2010Prop45
280
     0
102
RTVSPost2010PropOp45
 70
     1
102
RTVSPost2010Prop46
 90
       50
102
RTVSPost2010PropOp46
 70
     1
102
RTVSPost2010Prop47
 90
       50
102
RTVSPost2010PropOp47
 70
     1
102
RTVSPost2010Prop48
 90
       50
102
RTVSPost2010PropOp48
 70
     1
102
RTVSPost2010Prop49
280
     0
102
RTVSPost2010PropOp49
 70
     1
102
RTVSPost2010Prop50
 90
       50
102
RTVSPost2010PropOp50
 70
     1
102
RTVSPost2010Prop51ColorIndex
 90
      256
102
RTVSPost2010Prop51ColorRGB
 90
-16777216
102
RTVSPost2010PropOp51
 70
     0
102
RTVSPost2010Prop52
140
1.0
102
RTVSPost2010PropOp52
 70
     0
102
RTVSPost2010Prop53
 90
        2
102
RTVSPost2010PropOp53
 70
     1
102
RTVSPost2010Prop54
  1
strokes_ogs.tif
102
RTVSPost2010PropOp54
 70
     1
102
RTVSPost2010Prop55
280
     0
102
RTVSPost2010PropOp55
 70
     1
102
RTVSPost2010Prop56
140
1.0
102
RTVSPost2010PropOp56
 70
     1
102
RTVSPost2010Prop57
140
1.0
102
RTVSPost2010PropOp57
 70
     1
102
RTVSPropertyOp0
 70
     1
102
RTVSPropertyOp1
 70
     1
102
RTVSPropertyOp2
 70
     1
102
RTVSPropertyOp3
 70
     1
102
RTVSPropertyOp4
 70
     1
102
RTVSPropertyOp5
 70
     1
102
RTVSPropertyOp6
 70
     1
102
RTVSPropertyOp7
 70
     1
102
RTVSPropertyOp8
 70
     1
102
RTVSPropertyOp9
 70
     1
102
RTVSPropertyOp10
 70
     1
102
RTVSPropertyOp11
 70
     1
102
RTVSPropertyOp12
 70
     1
102
RTVSPropertyOp13
 70
     1
102
RTVSPropertyOp14
 70
     1
102
RTVSPropertyOp15
 70
     1
102
RTVSPropertyOp16
 70
     1
102
RTVSPropertyOp17
 70
     1
102
RTVSPropertyOp18
 70
     1
102
RTVSPropertyOp19
 70
     1
102
RTVSPropertyOp20
 70
     1
102
RTVSPropertyOp21
 70
     1
102
RTVSPropertyOp22
 70
     1
102
RTVSPropertyOp23
 70
     1
102
RTVSPropertyOp24
 70
     1
102
RTVSPropertyOp25
 70
     1
102
RTVSPropertyOp26
 70
     1
102
RTVSPropertyOp27
 70
     1
102
RTVSPropertyOp28
 70
     1
102
RTVSPropertyOp29
 70
     1
102
RTVSPropertyOp30
 70
     1
102
RTVSPropertyOp31
 70
     1
102
RTVSPropertyOp32
 70
     1
102
RTVSPropertyOp33
 70
     1
102
RTVSPropertyOp34
 70
     1
102
RTVSPropertyOp35
 70
     1
102
RTVSPropertyOp36
 70
     1
102
RTVSPropertyOp37
 70
     1
102
RTVSPropertyOp38
 70
     1
102
RTVSPropertyOp39
 70
     1
102
RTVSPropertyOp40
 70
     1
102
RTVSPropertyOp41
 70
     1
102
RTVSPropertyOp42
 70
     1
102
RTVSPropertyOp43
 70
     1
102
RTVSPropertyOp44
 70
     1
102
RTVSPropertyOp45
 70
     1
102
RTVSPropertyOp46
 70
     1
102
RTVSPropertyOp47
 70
     1
102
RTVSPropertyOp48
 70
     1
102
RTVSPropertyOp49
 70
     1
102
RTVSPropertyOp50
 70
     1
102
RTVSPropertyOp51
 70
     0
102
RTVSPropertyOp52
 70
     0
102
RTVSPropertyOp53
 70
     1
102
RTVSPropertyOp54
 70
     1
102
RTVSPropertyOp55
 70
     1
102
RTVSPropertyOp56
 70
     1
102
RTVSPropertyOp57
 70
     1
102
RTVSPropertyOp58
 70
     1
102
RTVSPropertyOp59
 70
     1
102
RTVSPropertyOp60
 70
     1
102
RTVSPropertyOp61
 70
     1
102
RTVSPropertyOp62
 70
     1
  0
XRECORD
  5
275
102
{ACAD_REACTORS
330
274
102
}
330
274
100
AcDbXrecord
280
     1
102
RTVSPost2010Prop28
280
     0
102
RTVSPost2010PropOp28
 70
     1
102
RTVSPost2010Prop29
280
     1
102
RTVSPost2010PropOp29
 70
     1
102
RTVSPost2010Prop30
280
     1
102
RTVSPost2010PropOp30
 70
     1
102
RTVSPost2010Prop31
280
     0
102
RTVSPost2010PropOp31
 70
     1
102
RTVSPost2010Prop32
280
     0
102
RTVSPost2010PropOp32
 70
     1
102
RTVSPost2010Prop33
280
     0
102
RTVSPost2010PropOp33
 70
     1
102
RTVSPost2010Prop34
280
     0
102
RTVSPost2010PropOp34
 70
     1
102
RTVSPost2010Prop35
280
     0
102
RTVSPost2010PropOp35
 70
     1
102
RTVSPost2010Prop36
280
     0
102
RTVSPost2010PropOp36
 70
     1
102
RTVSPost2010Prop37
 90
       50
102
RTVSPost2010PropOp37
 70
     1
102
RTVSPost2010Prop38
140
0.0
102
RTVSPost2010PropOp38
 70
     1
102
RTVSPost2010Prop39
140
1.0
102
RTVSPost2010PropOp39
 70
     1
102
RTVSPost2010Prop40
 90
        0
102
RTVSPost2010PropOp40
 70
     1
102
RTVSPost2010Prop41ColorIndex
 90
       18
102
RTVSPost2010Prop41ColorRGB
 90
        0
102
RTVSPost2010PropOp41
 70
     1
102
RTVSPost2010Prop42
 90
       50
102
RTVSPost2010PropOp42
 70
     1
102
RTVSPost2010Prop43
 90
        3
102
RTVSPost2010PropOp43
 70
     1
102
RTVSPost2010Prop44ColorIndex
 90
        5
102
RTVSPost2010Prop44ColorRGB
 90
      255
102
RTVSPost2010PropOp44
 70
     1
102
RTVSPost2010Prop45
280
     0
102
RTVSPost2010PropOp45
 70
     1
102
RTVSPost2010Prop46
 90
       50
102
RTVSPost2010PropOp46
 70
     1
102
RTVSPost2010Prop47
 90
       50
102
RTVSPost2010PropOp47
 70
     1
102
RTVSPost2010Prop48
 90
       50
102
RTVSPost2010PropOp48
 70
     1
102
RTVSPost2010Prop49
280
     0
102
RTVSPost2010PropOp49
 70
     1
102
RTVSPost2010Prop50
 90
       50
102
RTVSPost2010PropOp50
 70
     1
102
RTVSPost2010Prop51ColorIndex
 90
      256
102
RTVSPost2010Prop51ColorRGB
 90
-16777216
102
RTVSPost2010PropOp51
 70
     0
102
RTVSPost2010Prop52
140
1.0
102
RTVSPost2010PropOp52
 70
     0
102
RTVSPost2010Prop53
 90
        2
102
RTVSPost2010PropOp53
 70
     1
102
RTVSPost2010Prop54
  1
strokes_ogs.tif
102
RTVSPost2010PropOp54
 70
     1
102
RTVSPost2010Prop55
280
     0
102
RTVSPost2010PropOp55
 70
     1
102
RTVSPost2010Prop56
140
1.0
102
RTVSPost2010PropOp56
 70
     1
102
RTVSPost2010Prop57
140
1.0
102
RTVSPost2010PropOp57
 70
     1
102
RTVSPropertyOp0
 70
     1
102
RTVSPropertyOp1
 70
     1
102
RTVSPropertyOp2
 70
     1
102
RTVSPropertyOp3
 70
     1
102
RTVSPropertyOp4
 70
     1
102
RTVSPropertyOp5
 70
     1
102
RTVSPropertyOp6
 70
     1
102
RTVSPropertyOp7
 70
     1
102
RTVSPropertyOp8
 70
     1
102
RTVSPropertyOp9
 70
     1
102
RTVSPropertyOp10
 70
     1
102
RTVSPropertyOp11
 70
     1
102
RTVSPropertyOp12
 70
     1
102
RTVSPropertyOp13
 70
     1
102
RTVSPropertyOp14
 70
     1
102
RTVSPropertyOp15
 70
     1
102
RTVSPropertyOp16
 70
     1
102
RTVSPropertyOp17
 70
     1
102
RTVSPropertyOp18
 70
     1
102
RTVSPropertyOp19
 70
     1
102
RTVSPropertyOp20
 70
     1
102
RTVSPropertyOp21
 70
     1
102
RTVSPropertyOp22
 70
     1
102
RTVSPropertyOp23
 70
     1
102
RTVSPropertyOp24
 70
     1
102
RTVSPropertyOp25
 70
     1
102
RTVSPropertyOp26
 70
     1
102
RTVSPropertyOp27
 70
     1
102
RTVSPropertyOp28
 70
     1
102
RTVSPropertyOp29
 70
     1
102
RTVSPropertyOp30
 70
     1
102
RTVSPropertyOp31
 70
     1
102
RTVSPropertyOp32
 70
     1
102
RTVSPropertyOp33
 70
     1
102
RTVSPropertyOp34
 70
     1
102
RTVSPropertyOp35
 70
     1
102
RTVSPropertyOp36
 70
     1
102
RTVSPropertyOp37
 70
     1
102
RTVSPropertyOp38
 70
     1
102
RTVSPropertyOp39
 70
     1
102
RTVSPropertyOp40
 70
     1
102
RTVSPropertyOp41
 70
     1
102
RTVSPropertyOp42
 70
     1
102
RTVSPropertyOp43
 70
     1
102
RTVSPropertyOp44
 70
     1
102
RTVSPropertyOp45
 70
     1
102
RTVSPropertyOp46
 70
     1
102
RTVSPropertyOp47
 70
     1
102
RTVSPropertyOp48
 70
     1
102
RTVSPropertyOp49
 70
     1
102
RTVSPropertyOp50
 70
     1
102
RTVSPropertyOp51
 70
     0
102
RTVSPropertyOp52
 70
     0
102
RTVSPropertyOp53
 70
     1
102
RTVSPropertyOp54
 70
     1
102
RTVSPropertyOp55
 70
     1
102
RTVSPropertyOp56
 70
     1
102
RTVSPropertyOp57
 70
     1
102
RTVSPropertyOp58
 70
     1
102
RTVSPropertyOp59
 70
     1
102
RTVSPropertyOp60
 70
     1
102
RTVSPropertyOp61
 70
     1
102
RTVSPropertyOp62
 70
     1
  0
XRECORD
  5
277
102
{ACAD_REACTORS
330
276
102
}
330
276
100
AcDbXrecord
280
     1
102
RTVSPost2010Prop28
280
     0
102
RTVSPost2010PropOp28
 70
     1
102
RTVSPost2010Prop29
280
     1
102
RTVSPost2010PropOp29
 70
     1
102
RTVSPost2010Prop30
280
     1
102
RTVSPost2010PropOp30
 70
     1
102
RTVSPost2010Prop31
280
     0
102
RTVSPost2010PropOp31
 70
     1
102
RTVSPost2010Prop32
280
     0
102
RTVSPost2010PropOp32
 70
     1
102
RTVSPost2010Prop33
280
     0
102
RTVSPost2010PropOp33
 70
     1
102
RTVSPost2010Prop34
280
     0
102
RTVSPost2010PropOp34
 70
     1
102
RTVSPost2010Prop35
280
     0
102
RTVSPost2010PropOp35
 70
     1
102
RTVSPost2010Prop36
280
     0
102
RTVSPost2010PropOp36
 70
     1
102
RTVSPost2010Prop37
 90
       50
102
RTVSPost2010PropOp37
 70
     1
102
RTVSPost2010Prop38
140
0.0
102
RTVSPost2010PropOp38
 70
     1
102
RTVSPost2010Prop39
140
1.0
102
RTVSPost2010PropOp39
 70
     1
102
RTVSPost2010Prop40
 90
        0
102
RTVSPost2010PropOp40
 70
     1
102
RTVSPost2010Prop41ColorIndex
 90
       18
102
RTVSPost2010Prop41ColorRGB
 90
        0
102
RTVSPost2010PropOp41
 70
     1
102
RTVSPost2010Prop42
 90
       50
102
RTVSPost2010PropOp42
 70
     1
102
RTVSPost2010Prop43
 90
        3
102
RTVSPost2010PropOp43
 70
     1
102
RTVSPost2010Prop44ColorIndex
 90
        5
102
RTVSPost2010Prop44ColorRGB
 90
      255
102
RTVSPost2010PropOp44
 70
     1
102
RTVSPost2010Prop45
280
     0
102
RTVSPost2010PropOp45
 70
     1
102
RTVSPost2010Prop46
 90
       50
102
RTVSPost2010PropOp46
 70
     1
102
RTVSPost2010Prop47
 90
       50
102
RTVSPost2010PropOp47
 70
     1
102
RTVSPost2010Prop48
 90
       50
102
RTVSPost2010PropOp48
 70
     1
102
RTVSPost2010Prop49
280
     0
102
RTVSPost2010PropOp49
 70
     1
102
RTVSPost2010Prop50
 90
       50
102
RTVSPost2010PropOp50
 70
     1
102
RTVSPost2010Prop51ColorIndex
 90
      256
102
RTVSPost2010Prop51ColorRGB
 90
-16777216
102
RTVSPost2010PropOp51
 70
     0
102
RTVSPost2010Prop52
140
1.0
102
RTVSPost2010PropOp52
 70
     0
102
RTVSPost2010Prop53
 90
        2
102
RTVSPost2010PropOp53
 70
     1
102
RTVSPost2010Prop54
  1
strokes_ogs.tif
102
RTVSPost2010PropOp54
 70
     1
102
RTVSPost2010Prop55
280
     0
102
RTVSPost2010PropOp55
 70
     1
102
RTVSPost2010Prop56
140
1.0
102
RTVSPost2010PropOp56
 70
     1
102
RTVSPost2010Prop57
140
1.0
102
RTVSPost2010PropOp57
 70
     1
102
RTVSPropertyOp0
 70
     1
102
RTVSPropertyOp1
 70
     1
102
RTVSPropertyOp2
 70
     1
102
RTVSPropertyOp3
 70
     1
102
RTVSPropertyOp4
 70
     1
102
RTVSPropertyOp5
 70
     1
102
RTVSPropertyOp6
 70
     1
102
RTVSPropertyOp7
 70
     1
102
RTVSPropertyOp8
 70
     1
102
RTVSPropertyOp9
 70
     1
102
RTVSPropertyOp10
 70
     1
102
RTVSPropertyOp11
 70
     1
102
RTVSPropertyOp12
 70
     1
102
RTVSPropertyOp13
 70
     1
102
RTVSPropertyOp14
 70
     1
102
RTVSPropertyOp15
 70
     1
102
RTVSPropertyOp16
 70
     1
102
RTVSPropertyOp17
 70
     1
102
RTVSPropertyOp18
 70
     1
102
RTVSPropertyOp19
 70
     1
102
RTVSPropertyOp20
 70
     1
102
RTVSPropertyOp21
 70
     1
102
RTVSPropertyOp22
 70
     1
102
RTVSPropertyOp23
 70
     1
102
RTVSPropertyOp24
 70
     1
102
RTVSPropertyOp25
 70
     1
102
RTVSPropertyOp26
 70
     1
102
RTVSPropertyOp27
 70
     1
102
RTVSPropertyOp28
 70
     1
102
RTVSPropertyOp29
 70
     1
102
RTVSPropertyOp30
 70
     1
102
RTVSPropertyOp31
 70
     1
102
RTVSPropertyOp32
 70
     1
102
RTVSPropertyOp33
 70
     1
102
RTVSPropertyOp34
 70
     1
102
RTVSPropertyOp35
 70
     1
102
RTVSPropertyOp36
 70
     1
102
RTVSPropertyOp37
 70
     1
102
RTVSPropertyOp38
 70
     1
102
RTVSPropertyOp39
 70
     1
102
RTVSPropertyOp40
 70
     1
102
RTVSPropertyOp41
 70
     1
102
RTVSPropertyOp42
 70
     1
102
RTVSPropertyOp43
 70
     1
102
RTVSPropertyOp44
 70
     1
102
RTVSPropertyOp45
 70
     1
102
RTVSPropertyOp46
 70
     1
102
RTVSPropertyOp47
 70
     1
102
RTVSPropertyOp48
 70
     1
102
RTVSPropertyOp49
 70
     1
102
RTVSPropertyOp50
 70
     1
102
RTVSPropertyOp51
 70
     0
102
RTVSPropertyOp52
 70
     0
102
RTVSPropertyOp53
 70
     1
102
RTVSPropertyOp54
 70
     1
102
RTVSPropertyOp55
 70
     1
102
RTVSPropertyOp56
 70
     1
102
RTVSPropertyOp57
 70
     1
102
RTVSPropertyOp58
 70
     1
102
RTVSPropertyOp59
 70
     1
102
RTVSPropertyOp60
 70
     1
102
RTVSPropertyOp61
 70
     1
102
RTVSPropertyOp62
 70
     1
  0
XRECORD
  5
27D
102
{ACAD_REACTORS
330
27C
102
}
330
27C
100
AcDbXrecord
280
     1
102
RTVSPost2010Prop28
280
     0
102
RTVSPost2010PropOp28
 70
     1
102
RTVSPost2010Prop29
280
     1
102
RTVSPost2010PropOp29
 70
     1
102
RTVSPost2010Prop30
280
     1
102
RTVSPost2010PropOp30
 70
     1
102
RTVSPost2010Prop31
280
     0
102
RTVSPost2010PropOp31
 70
     1
102
RTVSPost2010Prop32
280
     0
102
RTVSPost2010PropOp32
 70
     1
102
RTVSPost2010Prop33
280
     0
102
RTVSPost2010PropOp33
 70
     1
102
RTVSPost2010Prop34
280
     0
102
RTVSPost2010PropOp34
 70
     1
102
RTVSPost2010Prop35
280
     0
102
RTVSPost2010PropOp35
 70
     1
102
RTVSPost2010Prop36
280
     0
102
RTVSPost2010PropOp36
 70
     1
102
RTVSPost2010Prop37
 90
       50
102
RTVSPost2010PropOp37
 70
     1
102
RTVSPost2010Prop38
140
0.0
102
RTVSPost2010PropOp38
 70
     1
102
RTVSPost2010Prop39
140
1.0
102
RTVSPost2010PropOp39
 70
     1
102
RTVSPost2010Prop40
 90
        0
102
RTVSPost2010PropOp40
 70
     1
102
RTVSPost2010Prop41ColorIndex
 90
       18
102
RTVSPost2010Prop41ColorRGB
 90
        0
102
RTVSPost2010PropOp41
 70
     1
102
RTVSPost2010Prop42
 90
       50
102
RTVSPost2010PropOp42
 70
     1
102
RTVSPost2010Prop43
 90
        3
102
RTVSPost2010PropOp43
 70
     1
102
RTVSPost2010Prop44ColorIndex
 90
        5
102
RTVSPost2010Prop44ColorRGB
 90
      255
102
RTVSPost2010PropOp44
 70
     1
102
RTVSPost2010Prop45
280
     0
102
RTVSPost2010PropOp45
 70
     1
102
RTVSPost2010Prop46
 90
       50
102
RTVSPost2010PropOp46
 70
     1
102
RTVSPost2010Prop47
 90
       50
102
RTVSPost2010PropOp47
 70
     1
102
RTVSPost2010Prop48
 90
       50
102
RTVSPost2010PropOp48
 70
     1
102
RTVSPost2010Prop49
280
     0
102
RTVSPost2010PropOp49
 70
     1
102
RTVSPost2010Prop50
 90
       50
102
RTVSPost2010PropOp50
 70
     1
102
RTVSPost2010Prop51ColorIndex
 90
      256
102
RTVSPost2010Prop51ColorRGB
 90
-16777216
102
RTVSPost2010PropOp51
 70
     0
102
RTVSPost2010Prop52
140
1.0
102
RTVSPost2010PropOp52
 70
     0
102
RTVSPost2010Prop53
 90
        2
102
RTVSPost2010PropOp53
 70
     1
102
RTVSPost2010Prop54
  1
strokes_ogs.tif
102
RTVSPost2010PropOp54
 70
     1
102
RTVSPost2010Prop55
280
     0
102
RTVSPost2010PropOp55
 70
     1
102
RTVSPost2010Prop56
140
1.0
102
RTVSPost2010PropOp56
 70
     1
102
RTVSPost2010Prop57
140
1.0
102
RTVSPost2010PropOp57
 70
     1
102
RTVSPropertyOp0
 70
     1
102
RTVSPropertyOp1
 70
     1
102
RTVSPropertyOp2
 70
     1
102
RTVSPropertyOp3
 70
     1
102
RTVSPropertyOp4
 70
     1
102
RTVSPropertyOp5
 70
     1
102
RTVSPropertyOp6
 70
     1
102
RTVSPropertyOp7
 70
     1
102
RTVSPropertyOp8
 70
     1
102
RTVSPropertyOp9
 70
     1
102
RTVSPropertyOp10
 70
     1
102
RTVSPropertyOp11
 70
     1
102
RTVSPropertyOp12
 70
     1
102
RTVSPropertyOp13
 70
     1
102
RTVSPropertyOp14
 70
     1
102
RTVSPropertyOp15
 70
     1
102
RTVSPropertyOp16
 70
     1
102
RTVSPropertyOp17
 70
     1
102
RTVSPropertyOp18
 70
     1
102
RTVSPropertyOp19
 70
     1
102
RTVSPropertyOp20
 70
     1
102
RTVSPropertyOp21
 70
     1
102
RTVSPropertyOp22
 70
     1
102
RTVSPropertyOp23
 70
     1
102
RTVSPropertyOp24
 70
     1
102
RTVSPropertyOp25
 70
     1
102
RTVSPropertyOp26
 70
     1
102
RTVSPropertyOp27
 70
     1
102
RTVSPropertyOp28
 70
     1
102
RTVSPropertyOp29
 70
     1
102
RTVSPropertyOp30
 70
     1
102
RTVSPropertyOp31
 70
     1
102
RTVSPropertyOp32
 70
     1
102
RTVSPropertyOp33
 70
     1
102
RTVSPropertyOp34
 70
     1
102
RTVSPropertyOp35
 70
     1
102
RTVSPropertyOp36
 70
     1
102
RTVSPropertyOp37
 70
     1
102
RTVSPropertyOp38
 70
     1
102
RTVSPropertyOp39
 70
     1
102
RTVSPropertyOp40
 70
     1
102
RTVSPropertyOp41
 70
     1
102
RTVSPropertyOp42
 70
     1
102
RTVSPropertyOp43
 70
     1
102
RTVSPropertyOp44
 70
     1
102
RTVSPropertyOp45
 70
     1
102
RTVSPropertyOp46
 70
     1
102
RTVSPropertyOp47
 70
     1
102
RTVSPropertyOp48
 70
     1
102
RTVSPropertyOp49
 70
     1
102
RTVSPropertyOp50
 70
     1
102
RTVSPropertyOp51
 70
     0
102
RTVSPropertyOp52
 70
     0
102
RTVSPropertyOp53
 70
     1
102
RTVSPropertyOp54
 70
     1
102
RTVSPropertyOp55
 70
     1
102
RTVSPropertyOp56
 70
     1
102
RTVSPropertyOp57
 70
     1
102
RTVSPropertyOp58
 70
     1
102
RTVSPropertyOp59
 70
     1
102
RTVSPropertyOp60
 70
     1
102
RTVSPropertyOp61
 70
     1
102
RTVSPropertyOp62
 70
     1
  0
XRECORD
  5
291
102
{ACAD_REACTORS
330
290
102
}
330
290
100
AcDbXrecord
280
     1
102
RTVSPost2010Prop28
280
     0
102
RTVSPost2010PropOp28
 70
     0
102
RTVSPost2010Prop29
280
     1
102
RTVSPost2010PropOp29
 70
     0
102
RTVSPost2010Prop30
280
     1
102
RTVSPost2010PropOp30
 70
     0
102
RTVSPost2010Prop31
280
     0
102
RTVSPost2010PropOp31
 70
     0
102
RTVSPost2010Prop32
280
     0
102
RTVSPost2010PropOp32
 70
     0
102
RTVSPost2010Prop33
280
     0
102
RTVSPost2010PropOp33
 70
     0
102
RTVSPost2010Prop34
280
     0
102
RTVSPost2010PropOp34
 70
     0
102
RTVSPost2010Prop35
280
     0
102
RTVSPost2010PropOp35
 70
     0
102
RTVSPost2010Prop36
280
     0
102
RTVSPost2010PropOp36
 70
     0
102
RTVSPost2010Prop37
 90
       50
102
RTVSPost2010PropOp37
 70
     0
102
RTVSPost2010Prop38
140
0.0
102
RTVSPost2010PropOp38
 70
     0
102
RTVSPost2010Prop39
140
1.0
102
RTVSPost2010PropOp39
 70
     0
102
RTVSPost2010Prop40
 90
        0
102
RTVSPost2010PropOp40
 70
     0
102
RTVSPost2010Prop41ColorIndex
 90
       18
102
RTVSPost2010Prop41ColorRGB
 90
        0
102
RTVSPost2010PropOp41
 70
     0
102
RTVSPost2010Prop42
 90
       50
102
RTVSPost2010PropOp42
 70
     0
102
RTVSPost2010Prop43
 90
        3
102
RTVSPost2010PropOp43
 70
     0
102
RTVSPost2010Prop44ColorIndex
 90
        5
102
RTVSPost2010Prop44ColorRGB
 90
      255
102
RTVSPost2010PropOp44
 70
     0
102
RTVSPost2010Prop45
280
     0
102
RTVSPost2010PropOp45
 70
     0
102
RTVSPost2010Prop46
 90
       50
102
RTVSPost2010PropOp46
 70
     0
102
RTVSPost2010Prop47
 90
       50
102
RTVSPost2010PropOp47
 70
     0
102
RTVSPost2010Prop48
 90
       50
102
RTVSPost2010PropOp48
 70
     0
102
RTVSPost2010Prop49
280
     0
102
RTVSPost2010PropOp49
 70
     0
102
RTVSPost2010Prop50
 90
       50
102
RTVSPost2010PropOp50
 70
     0
102
RTVSPost2010Prop51ColorIndex
 90
      256
102
RTVSPost2010Prop51ColorRGB
 90
-16777216
102
RTVSPost2010PropOp51
 70
     0
102
RTVSPost2010Prop52
140
1.0
102
RTVSPost2010PropOp52
 70
     0
102
RTVSPost2010Prop53
 90
        2
102
RTVSPost2010PropOp53
 70
     0
102
RTVSPost2010Prop54
  1
strokes_ogs.tif
102
RTVSPost2010PropOp54
 70
     0
102
RTVSPost2010Prop55
280
     0
102
RTVSPost2010PropOp55
 70
     0
102
RTVSPost2010Prop56
140
1.0
102
RTVSPost2010PropOp56
 70
     0
102
RTVSPost2010Prop57
140
1.0
102
RTVSPost2010PropOp57
 70
     0
102
RTVSPropertyOp0
 70
     0
102
RTVSPropertyOp1
 70
     0
102
RTVSPropertyOp2
 70
     0
102
RTVSPropertyOp3
 70
     0
102
RTVSPropertyOp4
 70
     0
102
RTVSPropertyOp5
 70
     0
102
RTVSPropertyOp6
 70
     0
102
RTVSPropertyOp7
 70
     0
102
RTVSPropertyOp8
 70
     0
102
RTVSPropertyOp9
 70
     0
102
RTVSPropertyOp10
 70
     0
102
RTVSPropertyOp11
 70
     0
102
RTVSPropertyOp12
 70
     0
102
RTVSPropertyOp13
 70
     0
102
RTVSPropertyOp14
 70
     2
102
RTVSPropertyOp15
 70
     0
102
RTVSPropertyOp16
 70
     0
102
RTVSPropertyOp17
 70
     0
102
RTVSPropertyOp18
 70
     0
102
RTVSPropertyOp19
 70
     0
102
RTVSPropertyOp20
 70
     0
102
RTVSPropertyOp21
 70
     0
102
RTVSPropertyOp22
 70
     0
102
RTVSPropertyOp23
 70
     0
102
RTVSPropertyOp24
 70
     0
102
RTVSPropertyOp25
 70
     0
102
RTVSPropertyOp26
 70
     0
102
RTVSPropertyOp27
 70
     0
102
RTVSPropertyOp28
 70
     0
102
RTVSPropertyOp29
 70
     0
102
RTVSPropertyOp30
 70
     0
102
RTVSPropertyOp31
 70
     0
102
RTVSPropertyOp32
 70
     0
102
RTVSPropertyOp33
 70
     0
102
RTVSPropertyOp34
 70
     0
102
RTVSPropertyOp35
 70
     0
102
RTVSPropertyOp36
 70
     0
102
RTVSPropertyOp37
 70
     0
102
RTVSPropertyOp38
 70
     0
102
RTVSPropertyOp39
 70
     0
102
RTVSPropertyOp40
 70
     0
102
RTVSPropertyOp41
 70
     0
102
RTVSPropertyOp42
 70
     0
102
RTVSPropertyOp43
 70
     0
102
RTVSPropertyOp44
 70
     0
102
RTVSPropertyOp45
 70
     0
102
RTVSPropertyOp46
 70
     0
102
RTVSPropertyOp47
 70
     0
102
RTVSPropertyOp48
 70
     0
102
RTVSPropertyOp49
 70
     0
102
RTVSPropertyOp50
 70
     0
102
RTVSPropertyOp51
 70
     0
102
RTVSPropertyOp52
 70
     0
102
RTVSPropertyOp53
 70
     0
102
RTVSPropertyOp54
 70
     0
102
RTVSPropertyOp55
 70
     0
102
RTVSPropertyOp56
 70
     0
102
RTVSPropertyOp57
 70
     0
102
RTVSPropertyOp58
 70
     1
102
RTVSPropertyOp59
 70
     1
102
RTVSPropertyOp60
 70
     1
102
RTVSPropertyOp61
 70
     1
102
RTVSPropertyOp62
 70
     1
  0
XRECORD
  5
28B
102
{ACAD_REACTORS
330
28A
102
}
330
28A
100
AcDbXrecord
280
     1
102
RTVSPost2010Prop28
280
     0
102
RTVSPost2010PropOp28
 70
     1
102
RTVSPost2010Prop29
280
     1
102
RTVSPost2010PropOp29
 70
     1
102
RTVSPost2010Prop30
280
     1
102
RTVSPost2010PropOp30
 70
     1
102
RTVSPost2010Prop31
280
     0
102
RTVSPost2010PropOp31
 70
     1
102
RTVSPost2010Prop32
280
     0
102
RTVSPost2010PropOp32
 70
     1
102
RTVSPost2010Prop33
280
     0
102
RTVSPost2010PropOp33
 70
     1
102
RTVSPost2010Prop34
280
     0
102
RTVSPost2010PropOp34
 70
     1
102
RTVSPost2010Prop35
280
     0
102
RTVSPost2010PropOp35
 70
     1
102
RTVSPost2010Prop36
280
     0
102
RTVSPost2010PropOp36
 70
     1
102
RTVSPost2010Prop37
 90
       50
102
RTVSPost2010PropOp37
 70
     1
102
RTVSPost2010Prop38
140
0.0
102
RTVSPost2010PropOp38
 70
     1
102
RTVSPost2010Prop39
140
1.0
102
RTVSPost2010PropOp39
 70
     1
102
RTVSPost2010Prop40
 90
        0
102
RTVSPost2010PropOp40
 70
     1
102
RTVSPost2010Prop41ColorIndex
 90
       18
102
RTVSPost2010Prop41ColorRGB
 90
        0
102
RTVSPost2010PropOp41
 70
     1
102
RTVSPost2010Prop42
 90
       50
102
RTVSPost2010PropOp42
 70
     1
102
RTVSPost2010Prop43
 90
        3
102
RTVSPost2010PropOp43
 70
     1
102
RTVSPost2010Prop44ColorIndex
 90
        5
102
RTVSPost2010Prop44ColorRGB
 90
      255
102
RTVSPost2010PropOp44
 70
     1
102
RTVSPost2010Prop45
280
     0
102
RTVSPost2010PropOp45
 70
     1
102
RTVSPost2010Prop46
 90
       50
102
RTVSPost2010PropOp46
 70
     1
102
RTVSPost2010Prop47
 90
       50
102
RTVSPost2010PropOp47
 70
     1
102
RTVSPost2010Prop48
 90
       50
102
RTVSPost2010PropOp48
 70
     1
102
RTVSPost2010Prop49
280
     0
102
RTVSPost2010PropOp49
 70
     1
102
RTVSPost2010Prop50
 90
       50
102
RTVSPost2010PropOp50
 70
     1
102
RTVSPost2010Prop51ColorIndex
 90
      256
102
RTVSPost2010Prop51ColorRGB
 90
-16777216
102
RTVSPost2010PropOp51
 70
     0
102
RTVSPost2010Prop52
140
1.0
102
RTVSPost2010PropOp52
 70
     0
102
RTVSPost2010Prop53
 90
        2
102
RTVSPost2010PropOp53
 70
     1
102
RTVSPost2010Prop54
  1
strokes_ogs.tif
102
RTVSPost2010PropOp54
 70
     1
102
RTVSPost2010Prop55
280
     0
102
RTVSPost2010PropOp55
 70
     1
102
RTVSPost2010Prop56
140
1.0
102
RTVSPost2010PropOp56
 70
     1
102
RTVSPost2010Prop57
140
1.0
102
RTVSPost2010PropOp57
 70
     1
102
RTVSPropertyOp0
 70
     1
102
RTVSPropertyOp1
 70
     1
102
RTVSPropertyOp2
 70
     1
102
RTVSPropertyOp3
 70
     1
102
RTVSPropertyOp4
 70
     1
102
RTVSPropertyOp5
 70
     1
102
RTVSPropertyOp6
 70
     1
102
RTVSPropertyOp7
 70
     1
102
RTVSPropertyOp8
 70
     1
102
RTVSPropertyOp9
 70
     1
102
RTVSPropertyOp10
 70
     1
102
RTVSPropertyOp11
 70
     1
102
RTVSPropertyOp12
 70
     1
102
RTVSPropertyOp13
 70
     1
102
RTVSPropertyOp14
 70
     1
102
RTVSPropertyOp15
 70
     1
102
RTVSPropertyOp16
 70
     1
102
RTVSPropertyOp17
 70
     1
102
RTVSPropertyOp18
 70
     1
102
RTVSPropertyOp19
 70
     1
102
RTVSPropertyOp20
 70
     1
102
RTVSPropertyOp21
 70
     1
102
RTVSPropertyOp22
 70
     1
102
RTVSPropertyOp23
 70
     1
102
RTVSPropertyOp24
 70
     1
102
RTVSPropertyOp25
 70
     1
102
RTVSPropertyOp26
 70
     1
102
RTVSPropertyOp27
 70
     1
102
RTVSPropertyOp28
 70
     1
102
RTVSPropertyOp29
 70
     1
102
RTVSPropertyOp30
 70
     1
102
RTVSPropertyOp31
 70
     1
102
RTVSPropertyOp32
 70
     1
102
RTVSPropertyOp33
 70
     1
102
RTVSPropertyOp34
 70
     1
102
RTVSPropertyOp35
 70
     1
102
RTVSPropertyOp36
 70
     1
102
RTVSPropertyOp37
 70
     1
102
RTVSPropertyOp38
 70
     1
102
RTVSPropertyOp39
 70
     1
102
RTVSPropertyOp40
 70
     1
102
RTVSPropertyOp41
 70
     1
102
RTVSPropertyOp42
 70
     1
102
RTVSPropertyOp43
 70
     1
102
RTVSPropertyOp44
 70
     1
102
RTVSPropertyOp45
 70
     1
102
RTVSPropertyOp46
 70
     1
102
RTVSPropertyOp47
 70
     1
102
RTVSPropertyOp48
 70
     1
102
RTVSPropertyOp49
 70
     1
102
RTVSPropertyOp50
 70
     1
102
RTVSPropertyOp51
 70
     0
102
RTVSPropertyOp52
 70
     0
102
RTVSPropertyOp53
 70
     1
102
RTVSPropertyOp54
 70
     1
102
RTVSPropertyOp55
 70
     1
102
RTVSPropertyOp56
 70
     1
102
RTVSPropertyOp57
 70
     1
102
RTVSPropertyOp58
 70
     1
102
RTVSPropertyOp59
 70
     1
102
RTVSPropertyOp60
 70
     1
102
RTVSPropertyOp61
 70
     1
102
RTVSPropertyOp62
 70
     1
  0
XRECORD
  5
293
102
{ACAD_REACTORS
330
292
102
}
330
292
100
AcDbXrecord
280
     1
102
RTVSPost2010Prop28
280
     0
102
RTVSPost2010PropOp28
 70
     0
102
RTVSPost2010Prop29
280
     1
102
RTVSPost2010PropOp29
 70
     0
102
RTVSPost2010Prop30
280
     1
102
RTVSPost2010PropOp30
 70
     0
102
RTVSPost2010Prop31
280
     0
102
RTVSPost2010PropOp31
 70
     0
102
RTVSPost2010Prop32
280
     0
102
RTVSPost2010PropOp32
 70
     0
102
RTVSPost2010Prop33
280
     0
102
RTVSPost2010PropOp33
 70
     0
102
RTVSPost2010Prop34
280
     0
102
RTVSPost2010PropOp34
 70
     0
102
RTVSPost2010Prop35
280
     0
102
RTVSPost2010PropOp35
 70
     0
102
RTVSPost2010Prop36
280
     0
102
RTVSPost2010PropOp36
 70
     0
102
RTVSPost2010Prop37
 90
       50
102
RTVSPost2010PropOp37
 70
     0
102
RTVSPost2010Prop38
140
0.0
102
RTVSPost2010PropOp38
 70
     0
102
RTVSPost2010Prop39
140
1.0
102
RTVSPost2010PropOp39
 70
     0
102
RTVSPost2010Prop40
 90
        0
102
RTVSPost2010PropOp40
 70
     0
102
RTVSPost2010Prop41ColorIndex
 90
       18
102
RTVSPost2010Prop41ColorRGB
 90
        0
102
RTVSPost2010PropOp41
 70
     0
102
RTVSPost2010Prop42
 90
       50
102
RTVSPost2010PropOp42
 70
     0
102
RTVSPost2010Prop43
 90
        3
102
RTVSPost2010PropOp43
 70
     0
102
RTVSPost2010Prop44ColorIndex
 90
        5
102
RTVSPost2010Prop44ColorRGB
 90
      255
102
RTVSPost2010PropOp44
 70
     0
102
RTVSPost2010Prop45
280
     0
102
RTVSPost2010PropOp45
 70
     0
102
RTVSPost2010Prop46
 90
       50
102
RTVSPost2010PropOp46
 70
     0
102
RTVSPost2010Prop47
 90
       50
102
RTVSPost2010PropOp47
 70
     0
102
RTVSPost2010Prop48
 90
       50
102
RTVSPost2010PropOp48
 70
     0
102
RTVSPost2010Prop49
280
     0
102
RTVSPost2010PropOp49
 70
     0
102
RTVSPost2010Prop50
 90
       50
102
RTVSPost2010PropOp50
 70
     0
102
RTVSPost2010Prop51ColorIndex
 90
      256
102
RTVSPost2010Prop51ColorRGB
 90
-16777216
102
RTVSPost2010PropOp51
 70
     0
102
RTVSPost2010Prop52
140
1.0
102
RTVSPost2010PropOp52
 70
     0
102
RTVSPost2010Prop53
 90
        2
102
RTVSPost2010PropOp53
 70
     0
102
RTVSPost2010Prop54
  1
strokes_ogs.tif
102
RTVSPost2010PropOp54
 70
     0
102
RTVSPost2010Prop55
280
     0
102
RTVSPost2010PropOp55
 70
     0
102
RTVSPost2010Prop56
140
1.0
102
RTVSPost2010PropOp56
 70
     0
102
RTVSPost2010Prop57
140
1.0
102
RTVSPost2010PropOp57
 70
     0
102
RTVSPropertyOp0
 70
     0
102
RTVSPropertyOp1
 70
     0
102
RTVSPropertyOp2
 70
     0
102
RTVSPropertyOp3
 70
     0
102
RTVSPropertyOp4
 70
     0
102
RTVSPropertyOp5
 70
     0
102
RTVSPropertyOp6
 70
     0
102
RTVSPropertyOp7
 70
     0
102
RTVSPropertyOp8
 70
     0
102
RTVSPropertyOp9
 70
     0
102
RTVSPropertyOp10
 70
     0
102
RTVSPropertyOp11
 70
     0
102
RTVSPropertyOp12
 70
     0
102
RTVSPropertyOp13
 70
     0
102
RTVSPropertyOp14
 70
     2
102
RTVSPropertyOp15
 70
     0
102
RTVSPropertyOp16
 70
     0
102
RTVSPropertyOp17
 70
     0
102
RTVSPropertyOp18
 70
     0
102
RTVSPropertyOp19
 70
     0
102
RTVSPropertyOp20
 70
     0
102
RTVSPropertyOp21
 70
     0
102
RTVSPropertyOp22
 70
     0
102
RTVSPropertyOp23
 70
     0
102
RTVSPropertyOp24
 70
     0
102
RTVSPropertyOp25
 70
     0
102
RTVSPropertyOp26
 70
     0
102
RTVSPropertyOp27
 70
     0
102
RTVSPropertyOp28
 70
     0
102
RTVSPropertyOp29
 70
     0
102
RTVSPropertyOp30
 70
     0
102
RTVSPropertyOp31
 70
     0
102
RTVSPropertyOp32
 70
     0
102
RTVSPropertyOp33
 70
     0
102
RTVSPropertyOp34
 70
     0
102
RTVSPropertyOp35
 70
     0
102
RTVSPropertyOp36
 70
     0
102
RTVSPropertyOp37
 70
     0
102
RTVSPropertyOp38
 70
     0
102
RTVSPropertyOp39
 70
     0
102
RTVSPropertyOp40
 70
     0
102
RTVSPropertyOp41
 70
     0
102
RTVSPropertyOp42
 70
     0
102
RTVSPropertyOp43
 70
     0
102
RTVSPropertyOp44
 70
     0
102
RTVSPropertyOp45
 70
     0
102
RTVSPropertyOp46
 70
     0
102
RTVSPropertyOp47
 70
     0
102
RTVSPropertyOp48
 70
     0
102
RTVSPropertyOp49
 70
     0
102
RTVSPropertyOp50
 70
     0
102
RTVSPropertyOp51
 70
     0
102
RTVSPropertyOp52
 70
     0
102
RTVSPropertyOp53
 70
     0
102
RTVSPropertyOp54
 70
     0
102
RTVSPropertyOp55
 70
     0
102
RTVSPropertyOp56
 70
     0
102
RTVSPropertyOp57
 70
     0
102
RTVSPropertyOp58
 70
     1
102
RTVSPropertyOp59
 70
     1
102
RTVSPropertyOp60
 70
     1
102
RTVSPropertyOp61
 70
     1
102
RTVSPropertyOp62
 70
     1
  0
XRECORD
  5
281
102
{ACAD_REACTORS
330
280
102
}
330
280
100
AcDbXrecord
280
     1
102
RTVSPost2010Prop28
280
     0
102
RTVSPost2010PropOp28
 70
     1
102
RTVSPost2010Prop29
280
     1
102
RTVSPost2010PropOp29
 70
     1
102
RTVSPost2010Prop30
280
     1
102
RTVSPost2010PropOp30
 70
     1
102
RTVSPost2010Prop31
280
     0
102
RTVSPost2010PropOp31
 70
     1
102
RTVSPost2010Prop32
280
     0
102
RTVSPost2010PropOp32
 70
     1
102
RTVSPost2010Prop33
280
     0
102
RTVSPost2010PropOp33
 70
     1
102
RTVSPost2010Prop34
280
     0
102
RTVSPost2010PropOp34
 70
     1
102
RTVSPost2010Prop35
280
     0
102
RTVSPost2010PropOp35
 70
     1
102
RTVSPost2010Prop36
280
     0
102
RTVSPost2010PropOp36
 70
     1
102
RTVSPost2010Prop37
 90
       50
102
RTVSPost2010PropOp37
 70
     1
102
RTVSPost2010Prop38
140
0.0
102
RTVSPost2010PropOp38
 70
     1
102
RTVSPost2010Prop39
140
1.0
102
RTVSPost2010PropOp39
 70
     1
102
RTVSPost2010Prop40
 90
        0
102
RTVSPost2010PropOp40
 70
     1
102
RTVSPost2010Prop41ColorIndex
 90
       18
102
RTVSPost2010Prop41ColorRGB
 90
        0
102
RTVSPost2010PropOp41
 70
     1
102
RTVSPost2010Prop42
 90
       50
102
RTVSPost2010PropOp42
 70
     1
102
RTVSPost2010Prop43
 90
        3
102
RTVSPost2010PropOp43
 70
     1
102
RTVSPost2010Prop44ColorIndex
 90
        5
102
RTVSPost2010Prop44ColorRGB
 90
      255
102
RTVSPost2010PropOp44
 70
     1
102
RTVSPost2010Prop45
280
     0
102
RTVSPost2010PropOp45
 70
     1
102
RTVSPost2010Prop46
 90
       50
102
RTVSPost2010PropOp46
 70
     1
102
RTVSPost2010Prop47
 90
       50
102
RTVSPost2010PropOp47
 70
     1
102
RTVSPost2010Prop48
 90
       50
102
RTVSPost2010PropOp48
 70
     1
102
RTVSPost2010Prop49
280
     0
102
RTVSPost2010PropOp49
 70
     1
102
RTVSPost2010Prop50
 90
       50
102
RTVSPost2010PropOp50
 70
     1
102
RTVSPost2010Prop51ColorIndex
 90
      256
102
RTVSPost2010Prop51ColorRGB
 90
-16777216
102
RTVSPost2010PropOp51
 70
     0
102
RTVSPost2010Prop52
140
1.0
102
RTVSPost2010PropOp52
 70
     0
102
RTVSPost2010Prop53
 90
        2
102
RTVSPost2010PropOp53
 70
     1
102
RTVSPost2010Prop54
  1
strokes_ogs.tif
102
RTVSPost2010PropOp54
 70
     1
102
RTVSPost2010Prop55
280
     0
102
RTVSPost2010PropOp55
 70
     1
102
RTVSPost2010Prop56
140
1.0
102
RTVSPost2010PropOp56
 70
     1
102
RTVSPost2010Prop57
140
1.0
102
RTVSPost2010PropOp57
 70
     1
102
RTVSPropertyOp0
 70
     1
102
RTVSPropertyOp1
 70
     1
102
RTVSPropertyOp2
 70
     1
102
RTVSPropertyOp3
 70
     1
102
RTVSPropertyOp4
 70
     1
102
RTVSPropertyOp5
 70
     1
102
RTVSPropertyOp6
 70
     1
102
RTVSPropertyOp7
 70
     1
102
RTVSPropertyOp8
 70
     1
102
RTVSPropertyOp9
 70
     1
102
RTVSPropertyOp10
 70
     1
102
RTVSPropertyOp11
 70
     1
102
RTVSPropertyOp12
 70
     1
102
RTVSPropertyOp13
 70
     1
102
RTVSPropertyOp14
 70
     1
102
RTVSPropertyOp15
 70
     1
102
RTVSPropertyOp16
 70
     1
102
RTVSPropertyOp17
 70
     1
102
RTVSPropertyOp18
 70
     1
102
RTVSPropertyOp19
 70
     1
102
RTVSPropertyOp20
 70
     1
102
RTVSPropertyOp21
 70
     1
102
RTVSPropertyOp22
 70
     1
102
RTVSPropertyOp23
 70
     1
102
RTVSPropertyOp24
 70
     1
102
RTVSPropertyOp25
 70
     1
102
RTVSPropertyOp26
 70
     1
102
RTVSPropertyOp27
 70
     1
102
RTVSPropertyOp28
 70
     1
102
RTVSPropertyOp29
 70
     1
102
RTVSPropertyOp30
 70
     1
102
RTVSPropertyOp31
 70
     1
102
RTVSPropertyOp32
 70
     1
102
RTVSPropertyOp33
 70
     1
102
RTVSPropertyOp34
 70
     1
102
RTVSPropertyOp35
 70
     1
102
RTVSPropertyOp36
 70
     1
102
RTVSPropertyOp37
 70
     1
102
RTVSPropertyOp38
 70
     1
102
RTVSPropertyOp39
 70
     1
102
RTVSPropertyOp40
 70
     1
102
RTVSPropertyOp41
 70
     1
102
RTVSPropertyOp42
 70
     1
102
RTVSPropertyOp43
 70
     1
102
RTVSPropertyOp44
 70
     1
102
RTVSPropertyOp45
 70
     1
102
RTVSPropertyOp46
 70
     1
102
RTVSPropertyOp47
 70
     1
102
RTVSPropertyOp48
 70
     1
102
RTVSPropertyOp49
 70
     1
102
RTVSPropertyOp50
 70
     1
102
RTVSPropertyOp51
 70
     0
102
RTVSPropertyOp52
 70
     0
102
RTVSPropertyOp53
 70
     1
102
RTVSPropertyOp54
 70
     1
102
RTVSPropertyOp55
 70
     1
102
RTVSPropertyOp56
 70
     1
102
RTVSPropertyOp57
 70
     1
102
RTVSPropertyOp58
 70
     1
102
RTVSPropertyOp59
 70
     1
102
RTVSPropertyOp60
 70
     1
102
RTVSPropertyOp61
 70
     1
102
RTVSPropertyOp62
 70
     1
  0
XRECORD
  5
29F
102
{ACAD_REACTORS
330
29E
102
}
330
29E
100
AcDbXrecord
280
     1
102
RTVSPost2010Prop28
280
     0
102
RTVSPost2010PropOp28
 70
     1
102
RTVSPost2010Prop29
280
     1
102
RTVSPost2010PropOp29
 70
     1
102
RTVSPost2010Prop30
280
     1
102
RTVSPost2010PropOp30
 70
     1
102
RTVSPost2010Prop31
280
     0
102
RTVSPost2010PropOp31
 70
     1
102
RTVSPost2010Prop32
280
     0
102
RTVSPost2010PropOp32
 70
     1
102
RTVSPost2010Prop33
280
     0
102
RTVSPost2010PropOp33
 70
     1
102
RTVSPost2010Prop34
280
     0
102
RTVSPost2010PropOp34
 70
     1
102
RTVSPost2010Prop35
280
     0
102
RTVSPost2010PropOp35
 70
     1
102
RTVSPost2010Prop36
280
     0
102
RTVSPost2010PropOp36
 70
     1
102
RTVSPost2010Prop37
 90
       50
102
RTVSPost2010PropOp37
 70
     1
102
RTVSPost2010Prop38
140
0.0
102
RTVSPost2010PropOp38
 70
     1
102
RTVSPost2010Prop39
140
1.0
102
RTVSPost2010PropOp39
 70
     1
102
RTVSPost2010Prop40
 90
        0
102
RTVSPost2010PropOp40
 70
     1
102
RTVSPost2010Prop41ColorIndex
 90
       18
102
RTVSPost2010Prop41ColorRGB
 90
        0
102
RTVSPost2010PropOp41
 70
     1
102
RTVSPost2010Prop42
 90
       50
102
RTVSPost2010PropOp42
 70
     1
102
RTVSPost2010Prop43
 90
        3
102
RTVSPost2010PropOp43
 70
     1
102
RTVSPost2010Prop44ColorIndex
 90
        5
102
RTVSPost2010Prop44ColorRGB
 90
      255
102
RTVSPost2010PropOp44
 70
     1
102
RTVSPost2010Prop45
280
     0
102
RTVSPost2010PropOp45
 70
     1
102
RTVSPost2010Prop46
 90
       50
102
RTVSPost2010PropOp46
 70
     1
102
RTVSPost2010Prop47
 90
       50
102
RTVSPost2010PropOp47
 70
     1
102
RTVSPost2010Prop48
 90
       50
102
RTVSPost2010PropOp48
 70
     1
102
RTVSPost2010Prop49
280
     0
102
RTVSPost2010PropOp49
 70
     1
102
RTVSPost2010Prop50
 90
       50
102
RTVSPost2010PropOp50
 70
     1
102
RTVSPost2010Prop51ColorIndex
 90
      256
102
RTVSPost2010Prop51ColorRGB
 90
-16777216
102
RTVSPost2010PropOp51
 70
     0
102
RTVSPost2010Prop52
140
1.0
102
RTVSPost2010PropOp52
 70
     0
102
RTVSPost2010Prop53
 90
        2
102
RTVSPost2010PropOp53
 70
     1
102
RTVSPost2010Prop54
  1
strokes_ogs.tif
102
RTVSPost2010PropOp54
 70
     1
102
RTVSPost2010Prop55
280
     0
102
RTVSPost2010PropOp55
 70
     1
102
RTVSPost2010Prop56
140
1.0
102
RTVSPost2010PropOp56
 70
     1
102
RTVSPost2010Prop57
140
1.0
102
RTVSPost2010PropOp57
 70
     1
102
RTVSPropertyOp0
 70
     1
102
RTVSPropertyOp1
 70
     1
102
RTVSPropertyOp2
 70
     1
102
RTVSPropertyOp3
 70
     1
102
RTVSPropertyOp4
 70
     1
102
RTVSPropertyOp5
 70
     1
102
RTVSPropertyOp6
 70
     1
102
RTVSPropertyOp7
 70
     1
102
RTVSPropertyOp8
 70
     1
102
RTVSPropertyOp9
 70
     1
102
RTVSPropertyOp10
 70
     1
102
RTVSPropertyOp11
 70
     1
102
RTVSPropertyOp12
 70
     1
102
RTVSPropertyOp13
 70
     1
102
RTVSPropertyOp14
 70
     1
102
RTVSPropertyOp15
 70
     1
102
RTVSPropertyOp16
 70
     1
102
RTVSPropertyOp17
 70
     1
102
RTVSPropertyOp18
 70
     1
102
RTVSPropertyOp19
 70
     1
102
RTVSPropertyOp20
 70
     1
102
RTVSPropertyOp21
 70
     1
102
RTVSPropertyOp22
 70
     1
102
RTVSPropertyOp23
 70
     1
102
RTVSPropertyOp24
 70
     1
102
RTVSPropertyOp25
 70
     1
102
RTVSPropertyOp26
 70
     1
102
RTVSPropertyOp27
 70
     1
102
RTVSPropertyOp28
 70
     1
102
RTVSPropertyOp29
 70
     1
102
RTVSPropertyOp30
 70
     1
102
RTVSPropertyOp31
 70
     1
102
RTVSPropertyOp32
 70
     1
102
RTVSPropertyOp33
 70
     1
102
RTVSPropertyOp34
 70
     1
102
RTVSPropertyOp35
 70
     1
102
RTVSPropertyOp36
 70
     1
102
RTVSPropertyOp37
 70
     1
102
RTVSPropertyOp38
 70
     1
102
RTVSPropertyOp39
 70
     1
102
RTVSPropertyOp40
 70
     1
102
RTVSPropertyOp41
 70
     1
102
RTVSPropertyOp42
 70
     1
102
RTVSPropertyOp43
 70
     1
102
RTVSPropertyOp44
 70
     1
102
RTVSPropertyOp45
 70
     1
102
RTVSPropertyOp46
 70
     1
102
RTVSPropertyOp47
 70
     1
102
RTVSPropertyOp48
 70
     1
102
RTVSPropertyOp49
 70
     1
102
RTVSPropertyOp50
 70
     1
102
RTVSPropertyOp51
 70
     0
102
RTVSPropertyOp52
 70
     0
102
RTVSPropertyOp53
 70
     1
102
RTVSPropertyOp54
 70
     1
102
RTVSPropertyOp55
 70
     1
102
RTVSPropertyOp56
 70
     1
102
RTVSPropertyOp57
 70
     1
102
RTVSPropertyOp58
 70
     1
102
RTVSPropertyOp59
 70
     1
102
RTVSPropertyOp60
 70
     1
102
RTVSPropertyOp61
 70
     1
102
RTVSPropertyOp62
 70
     1
  0
XRECORD
  5
29D
102
{ACAD_REACTORS
330
29C
102
}
330
29C
100
AcDbXrecord
280
     1
102
RTVSPost2010Prop28
280
     0
102
RTVSPost2010PropOp28
 70
     1
102
RTVSPost2010Prop29
280
     1
102
RTVSPost2010PropOp29
 70
     1
102
RTVSPost2010Prop30
280
     1
102
RTVSPost2010PropOp30
 70
     1
102
RTVSPost2010Prop31
280
     0
102
RTVSPost2010PropOp31
 70
     1
102
RTVSPost2010Prop32
280
     0
102
RTVSPost2010PropOp32
 70
     1
102
RTVSPost2010Prop33
280
     0
102
RTVSPost2010PropOp33
 70
     1
102
RTVSPost2010Prop34
280
     0
102
RTVSPost2010PropOp34
 70
     1
102
RTVSPost2010Prop35
280
     0
102
RTVSPost2010PropOp35
 70
     1
102
RTVSPost2010Prop36
280
     0
102
RTVSPost2010PropOp36
 70
     1
102
RTVSPost2010Prop37
 90
       50
102
RTVSPost2010PropOp37
 70
     1
102
RTVSPost2010Prop38
140
0.0
102
RTVSPost2010PropOp38
 70
     1
102
RTVSPost2010Prop39
140
1.0
102
RTVSPost2010PropOp39
 70
     1
102
RTVSPost2010Prop40
 90
        0
102
RTVSPost2010PropOp40
 70
     1
102
RTVSPost2010Prop41ColorIndex
 90
       18
102
RTVSPost2010Prop41ColorRGB
 90
        0
102
RTVSPost2010PropOp41
 70
     1
102
RTVSPost2010Prop42
 90
       50
102
RTVSPost2010PropOp42
 70
     1
102
RTVSPost2010Prop43
 90
        3
102
RTVSPost2010PropOp43
 70
     1
102
RTVSPost2010Prop44ColorIndex
 90
        5
102
RTVSPost2010Prop44ColorRGB
 90
      255
102
RTVSPost2010PropOp44
 70
     1
102
RTVSPost2010Prop45
280
     0
102
RTVSPost2010PropOp45
 70
     1
102
RTVSPost2010Prop46
 90
       50
102
RTVSPost2010PropOp46
 70
     1
102
RTVSPost2010Prop47
 90
       50
102
RTVSPost2010PropOp47
 70
     1
102
RTVSPost2010Prop48
 90
       50
102
RTVSPost2010PropOp48
 70
     1
102
RTVSPost2010Prop49
280
     0
102
RTVSPost2010PropOp49
 70
     1
102
RTVSPost2010Prop50
 90
       50
102
RTVSPost2010PropOp50
 70
     1
102
RTVSPost2010Prop51ColorIndex
 90
      256
102
RTVSPost2010Prop51ColorRGB
 90
-16777216
102
RTVSPost2010PropOp51
 70
     0
102
RTVSPost2010Prop52
140
1.0
102
RTVSPost2010PropOp52
 70
     0
102
RTVSPost2010Prop53
 90
        2
102
RTVSPost2010PropOp53
 70
     1
102
RTVSPost2010Prop54
  1
strokes_ogs.tif
102
RTVSPost2010PropOp54
 70
     1
102
RTVSPost2010Prop55
280
     0
102
RTVSPost2010PropOp55
 70
     1
102
RTVSPost2010Prop56
140
1.0
102
RTVSPost2010PropOp56
 70
     1
102
RTVSPost2010Prop57
140
1.0
102
RTVSPost2010PropOp57
 70
     1
102
RTVSPropertyOp0
 70
     1
102
RTVSPropertyOp1
 70
     1
102
RTVSPropertyOp2
 70
     1
102
RTVSPropertyOp3
 70
     1
102
RTVSPropertyOp4
 70
     1
102
RTVSPropertyOp5
 70
     1
102
RTVSPropertyOp6
 70
     1
102
RTVSPropertyOp7
 70
     1
102
RTVSPropertyOp8
 70
     1
102
RTVSPropertyOp9
 70
     1
102
RTVSPropertyOp10
 70
     1
102
RTVSPropertyOp11
 70
     1
102
RTVSPropertyOp12
 70
     1
102
RTVSPropertyOp13
 70
     1
102
RTVSPropertyOp14
 70
     1
102
RTVSPropertyOp15
 70
     1
102
RTVSPropertyOp16
 70
     1
102
RTVSPropertyOp17
 70
     1
102
RTVSPropertyOp18
 70
     1
102
RTVSPropertyOp19
 70
     1
102
RTVSPropertyOp20
 70
     1
102
RTVSPropertyOp21
 70
     1
102
RTVSPropertyOp22
 70
     1
102
RTVSPropertyOp23
 70
     1
102
RTVSPropertyOp24
 70
     1
102
RTVSPropertyOp25
 70
     1
102
RTVSPropertyOp26
 70
     1
102
RTVSPropertyOp27
 70
     1
102
RTVSPropertyOp28
 70
     1
102
RTVSPropertyOp29
 70
     1
102
RTVSPropertyOp30
 70
     1
102
RTVSPropertyOp31
 70
     1
102
RTVSPropertyOp32
 70
     1
102
RTVSPropertyOp33
 70
     1
102
RTVSPropertyOp34
 70
     1
102
RTVSPropertyOp35
 70
     1
102
RTVSPropertyOp36
 70
     1
102
RTVSPropertyOp37
 70
     1
102
RTVSPropertyOp38
 70
     1
102
RTVSPropertyOp39
 70
     1
102
RTVSPropertyOp40
 70
     1
102
RTVSPropertyOp41
 70
     1
102
RTVSPropertyOp42
 70
     1
102
RTVSPropertyOp43
 70
     1
102
RTVSPropertyOp44
 70
     1
102
RTVSPropertyOp45
 70
     1
102
RTVSPropertyOp46
 70
     1
102
RTVSPropertyOp47
 70
     1
102
RTVSPropertyOp48
 70
     1
102
RTVSPropertyOp49
 70
     1
102
RTVSPropertyOp50
 70
     1
102
RTVSPropertyOp51
 70
     0
102
RTVSPropertyOp52
 70
     0
102
RTVSPropertyOp53
 70
     1
102
RTVSPropertyOp54
 70
     1
102
RTVSPropertyOp55
 70
     1
102
RTVSPropertyOp56
 70
     1
102
RTVSPropertyOp57
 70
     1
102
RTVSPropertyOp58
 70
     1
102
RTVSPropertyOp59
 70
     1
102
RTVSPropertyOp60
 70
     1
102
RTVSPropertyOp61
 70
     1
102
RTVSPropertyOp62
 70
     1
  0
XRECORD
  5
297
102
{ACAD_REACTORS
330
296
102
}
330
296
100
AcDbXrecord
280
     1
102
RTVSPost2010Prop28
280
     0
102
RTVSPost2010PropOp28
 70
     1
102
RTVSPost2010Prop29
280
     1
102
RTVSPost2010PropOp29
 70
     1
102
RTVSPost2010Prop30
280
     1
102
RTVSPost2010PropOp30
 70
     1
102
RTVSPost2010Prop31
280
     0
102
RTVSPost2010PropOp31
 70
     1
102
RTVSPost2010Prop32
280
     0
102
RTVSPost2010PropOp32
 70
     1
102
RTVSPost2010Prop33
280
     0
102
RTVSPost2010PropOp33
 70
     1
102
RTVSPost2010Prop34
280
     0
102
RTVSPost2010PropOp34
 70
     1
102
RTVSPost2010Prop35
280
     0
102
RTVSPost2010PropOp35
 70
     1
102
RTVSPost2010Prop36
280
     0
102
RTVSPost2010PropOp36
 70
     1
102
RTVSPost2010Prop37
 90
       50
102
RTVSPost2010PropOp37
 70
     1
102
RTVSPost2010Prop38
140
0.0
102
RTVSPost2010PropOp38
 70
     1
102
RTVSPost2010Prop39
140
1.0
102
RTVSPost2010PropOp39
 70
     1
102
RTVSPost2010Prop40
 90
        0
102
RTVSPost2010PropOp40
 70
     1
102
RTVSPost2010Prop41ColorIndex
 90
       18
102
RTVSPost2010Prop41ColorRGB
 90
        0
102
RTVSPost2010PropOp41
 70
     1
102
RTVSPost2010Prop42
 90
       50
102
RTVSPost2010PropOp42
 70
     1
102
RTVSPost2010Prop43
 90
        3
102
RTVSPost2010PropOp43
 70
     1
102
RTVSPost2010Prop44ColorIndex
 90
        5
102
RTVSPost2010Prop44ColorRGB
 90
      255
102
RTVSPost2010PropOp44
 70
     1
102
RTVSPost2010Prop45
280
     0
102
RTVSPost2010PropOp45
 70
     1
102
RTVSPost2010Prop46
 90
       50
102
RTVSPost2010PropOp46
 70
     1
102
RTVSPost2010Prop47
 90
       50
102
RTVSPost2010PropOp47
 70
     1
102
RTVSPost2010Prop48
 90
       50
102
RTVSPost2010PropOp48
 70
     1
102
RTVSPost2010Prop49
280
     0
102
RTVSPost2010PropOp49
 70
     1
102
RTVSPost2010Prop50
 90
       50
102
RTVSPost2010PropOp50
 70
     1
102
RTVSPost2010Prop51ColorIndex
 90
      256
102
RTVSPost2010Prop51ColorRGB
 90
-16777216
102
RTVSPost2010PropOp51
 70
     0
102
RTVSPost2010Prop52
140
1.0
102
RTVSPost2010PropOp52
 70
     0
102
RTVSPost2010Prop53
 90
        2
102
RTVSPost2010PropOp53
 70
     1
102
RTVSPost2010Prop54
  1
strokes_ogs.tif
102
RTVSPost2010PropOp54
 70
     1
102
RTVSPost2010Prop55
280
     0
102
RTVSPost2010PropOp55
 70
     1
102
RTVSPost2010Prop56
140
1.0
102
RTVSPost2010PropOp56
 70
     1
102
RTVSPost2010Prop57
140
1.0
102
RTVSPost2010PropOp57
 70
     1
102
RTVSPropertyOp0
 70
     1
102
RTVSPropertyOp1
 70
     1
102
RTVSPropertyOp2
 70
     1
102
RTVSPropertyOp3
 70
     1
102
RTVSPropertyOp4
 70
     1
102
RTVSPropertyOp5
 70
     1
102
RTVSPropertyOp6
 70
     1
102
RTVSPropertyOp7
 70
     1
102
RTVSPropertyOp8
 70
     1
102
RTVSPropertyOp9
 70
     1
102
RTVSPropertyOp10
 70
     1
102
RTVSPropertyOp11
 70
     1
102
RTVSPropertyOp12
 70
     1
102
RTVSPropertyOp13
 70
     1
102
RTVSPropertyOp14
 70
     1
102
RTVSPropertyOp15
 70
     1
102
RTVSPropertyOp16
 70
     1
102
RTVSPropertyOp17
 70
     1
102
RTVSPropertyOp18
 70
     1
102
RTVSPropertyOp19
 70
     1
102
RTVSPropertyOp20
 70
     1
102
RTVSPropertyOp21
 70
     1
102
RTVSPropertyOp22
 70
     1
102
RTVSPropertyOp23
 70
     1
102
RTVSPropertyOp24
 70
     1
102
RTVSPropertyOp25
 70
     1
102
RTVSPropertyOp26
 70
     1
102
RTVSPropertyOp27
 70
     1
102
RTVSPropertyOp28
 70
     1
102
RTVSPropertyOp29
 70
     1
102
RTVSPropertyOp30
 70
     1
102
RTVSPropertyOp31
 70
     1
102
RTVSPropertyOp32
 70
     1
102
RTVSPropertyOp33
 70
     1
102
RTVSPropertyOp34
 70
     1
102
RTVSPropertyOp35
 70
     1
102
RTVSPropertyOp36
 70
     1
102
RTVSPropertyOp37
 70
     1
102
RTVSPropertyOp38
 70
     1
102
RTVSPropertyOp39
 70
     1
102
RTVSPropertyOp40
 70
     1
102
RTVSPropertyOp41
 70
     1
102
RTVSPropertyOp42
 70
     1
102
RTVSPropertyOp43
 70
     1
102
RTVSPropertyOp44
 70
     1
102
RTVSPropertyOp45
 70
     1
102
RTVSPropertyOp46
 70
     1
102
RTVSPropertyOp47
 70
     1
102
RTVSPropertyOp48
 70
     1
102
RTVSPropertyOp49
 70
     1
102
RTVSPropertyOp50
 70
     1
102
RTVSPropertyOp51
 70
     0
102
RTVSPropertyOp52
 70
     0
102
RTVSPropertyOp53
 70
     1
102
RTVSPropertyOp54
 70
     1
102
RTVSPropertyOp55
 70
     1
102
RTVSPropertyOp56
 70
     1
102
RTVSPropertyOp57
 70
     1
102
RTVSPropertyOp58
 70
     1
102
RTVSPropertyOp59
 70
     1
102
RTVSPropertyOp60
 70
     1
102
RTVSPropertyOp61
 70
     1
102
RTVSPropertyOp62
 70
     1
  0
XRECORD
  5
299
102
{ACAD_REACTORS
330
298
102
}
330
298
100
AcDbXrecord
280
     1
102
RTVSPost2010Prop28
280
     0
102
RTVSPost2010PropOp28
 70
     1
102
RTVSPost2010Prop29
280
     1
102
RTVSPost2010PropOp29
 70
     1
102
RTVSPost2010Prop30
280
     1
102
RTVSPost2010PropOp30
 70
     1
102
RTVSPost2010Prop31
280
     0
102
RTVSPost2010PropOp31
 70
     1
102
RTVSPost2010Prop32
280
     0
102
RTVSPost2010PropOp32
 70
     1
102
RTVSPost2010Prop33
280
     0
102
RTVSPost2010PropOp33
 70
     1
102
RTVSPost2010Prop34
280
     0
102
RTVSPost2010PropOp34
 70
     1
102
RTVSPost2010Prop35
280
     0
102
RTVSPost2010PropOp35
 70
     1
102
RTVSPost2010Prop36
280
     0
102
RTVSPost2010PropOp36
 70
     1
102
RTVSPost2010Prop37
 90
       50
102
RTVSPost2010PropOp37
 70
     1
102
RTVSPost2010Prop38
140
0.0
102
RTVSPost2010PropOp38
 70
     1
102
RTVSPost2010Prop39
140
1.0
102
RTVSPost2010PropOp39
 70
     1
102
RTVSPost2010Prop40
 90
        0
102
RTVSPost2010PropOp40
 70
     1
102
RTVSPost2010Prop41ColorIndex
 90
       18
102
RTVSPost2010Prop41ColorRGB
 90
        0
102
RTVSPost2010PropOp41
 70
     1
102
RTVSPost2010Prop42
 90
       50
102
RTVSPost2010PropOp42
 70
     1
102
RTVSPost2010Prop43
 90
        3
102
RTVSPost2010PropOp43
 70
     1
102
RTVSPost2010Prop44ColorIndex
 90
        5
102
RTVSPost2010Prop44ColorRGB
 90
      255
102
RTVSPost2010PropOp44
 70
     1
102
RTVSPost2010Prop45
280
     0
102
RTVSPost2010PropOp45
 70
     1
102
RTVSPost2010Prop46
 90
       50
102
RTVSPost2010PropOp46
 70
     1
102
RTVSPost2010Prop47
 90
       50
102
RTVSPost2010PropOp47
 70
     1
102
RTVSPost2010Prop48
 90
       50
102
RTVSPost2010PropOp48
 70
     1
102
RTVSPost2010Prop49
280
     0
102
RTVSPost2010PropOp49
 70
     1
102
RTVSPost2010Prop50
 90
       50
102
RTVSPost2010PropOp50
 70
     1
102
RTVSPost2010Prop51ColorIndex
 90
      256
102
RTVSPost2010Prop51ColorRGB
 90
-16777216
102
RTVSPost2010PropOp51
 70
     0
102
RTVSPost2010Prop52
140
1.0
102
RTVSPost2010PropOp52
 70
     0
102
RTVSPost2010Prop53
 90
        2
102
RTVSPost2010PropOp53
 70
     1
102
RTVSPost2010Prop54
  1
strokes_ogs.tif
102
RTVSPost2010PropOp54
 70
     1
102
RTVSPost2010Prop55
280
     0
102
RTVSPost2010PropOp55
 70
     1
102
RTVSPost2010Prop56
140
1.0
102
RTVSPost2010PropOp56
 70
     1
102
RTVSPost2010Prop57
140
1.0
102
RTVSPost2010PropOp57
 70
     1
102
RTVSPropertyOp0
 70
     1
102
RTVSPropertyOp1
 70
     1
102
RTVSPropertyOp2
 70
     1
102
RTVSPropertyOp3
 70
     1
102
RTVSPropertyOp4
 70
     1
102
RTVSPropertyOp5
 70
     1
102
RTVSPropertyOp6
 70
     1
102
RTVSPropertyOp7
 70
     1
102
RTVSPropertyOp8
 70
     1
102
RTVSPropertyOp9
 70
     1
102
RTVSPropertyOp10
 70
     1
102
RTVSPropertyOp11
 70
     1
102
RTVSPropertyOp12
 70
     1
102
RTVSPropertyOp13
 70
     1
102
RTVSPropertyOp14
 70
     1
102
RTVSPropertyOp15
 70
     1
102
RTVSPropertyOp16
 70
     1
102
RTVSPropertyOp17
 70
     1
102
RTVSPropertyOp18
 70
     1
102
RTVSPropertyOp19
 70
     1
102
RTVSPropertyOp20
 70
     1
102
RTVSPropertyOp21
 70
     1
102
RTVSPropertyOp22
 70
     1
102
RTVSPropertyOp23
 70
     1
102
RTVSPropertyOp24
 70
     1
102
RTVSPropertyOp25
 70
     1
102
RTVSPropertyOp26
 70
     1
102
RTVSPropertyOp27
 70
     1
102
RTVSPropertyOp28
 70
     1
102
RTVSPropertyOp29
 70
     1
102
RTVSPropertyOp30
 70
     1
102
RTVSPropertyOp31
 70
     1
102
RTVSPropertyOp32
 70
     1
102
RTVSPropertyOp33
 70
     1
102
RTVSPropertyOp34
 70
     1
102
RTVSPropertyOp35
 70
     1
102
RTVSPropertyOp36
 70
     1
102
RTVSPropertyOp37
 70
     1
102
RTVSPropertyOp38
 70
     1
102
RTVSPropertyOp39
 70
     1
102
RTVSPropertyOp40
 70
     1
102
RTVSPropertyOp41
 70
     1
102
RTVSPropertyOp42
 70
     1
102
RTVSPropertyOp43
 70
     1
102
RTVSPropertyOp44
 70
     1
102
RTVSPropertyOp45
 70
     1
102
RTVSPropertyOp46
 70
     1
102
RTVSPropertyOp47
 70
     1
102
RTVSPropertyOp48
 70
     1
102
RTVSPropertyOp49
 70
     1
102
RTVSPropertyOp50
 70
     1
102
RTVSPropertyOp51
 70
     0
102
RTVSPropertyOp52
 70
     0
102
RTVSPropertyOp53
 70
     1
102
RTVSPropertyOp54
 70
     1
102
RTVSPropertyOp55
 70
     1
102
RTVSPropertyOp56
 70
     1
102
RTVSPropertyOp57
 70
     1
102
RTVSPropertyOp58
 70
     1
102
RTVSPropertyOp59
 70
     1
102
RTVSPropertyOp60
 70
     1
102
RTVSPropertyOp61
 70
     1
102
RTVSPropertyOp62
 70
     1
  0
XRECORD
  5
289
102
{ACAD_REACTORS
330
288
102
}
330
288
100
AcDbXrecord
280
     1
102
RTVSPost2010Prop28
280
     0
102
RTVSPost2010PropOp28
 70
     1
102
RTVSPost2010Prop29
280
     1
102
RTVSPost2010PropOp29
 70
     1
102
RTVSPost2010Prop30
280
     1
102
RTVSPost2010PropOp30
 70
     1
102
RTVSPost2010Prop31
280
     0
102
RTVSPost2010PropOp31
 70
     1
102
RTVSPost2010Prop32
280
     0
102
RTVSPost2010PropOp32
 70
     1
102
RTVSPost2010Prop33
280
     0
102
RTVSPost2010PropOp33
 70
     1
102
RTVSPost2010Prop34
280
     0
102
RTVSPost2010PropOp34
 70
     1
102
RTVSPost2010Prop35
280
     0
102
RTVSPost2010PropOp35
 70
     1
102
RTVSPost2010Prop36
280
     0
102
RTVSPost2010PropOp36
 70
     1
102
RTVSPost2010Prop37
 90
       50
102
RTVSPost2010PropOp37
 70
     1
102
RTVSPost2010Prop38
140
0.0
102
RTVSPost2010PropOp38
 70
     1
102
RTVSPost2010Prop39
140
1.0
102
RTVSPost2010PropOp39
 70
     1
102
RTVSPost2010Prop40
 90
        0
102
RTVSPost2010PropOp40
 70
     1
102
RTVSPost2010Prop41ColorIndex
 90
       18
102
RTVSPost2010Prop41ColorRGB
 90
        0
102
RTVSPost2010PropOp41
 70
     1
102
RTVSPost2010Prop42
 90
       50
102
RTVSPost2010PropOp42
 70
     1
102
RTVSPost2010Prop43
 90
        3
102
RTVSPost2010PropOp43
 70
     1
102
RTVSPost2010Prop44ColorIndex
 90
        5
102
RTVSPost2010Prop44ColorRGB
 90
      255
102
RTVSPost2010PropOp44
 70
     1
102
RTVSPost2010Prop45
280
     0
102
RTVSPost2010PropOp45
 70
     1
102
RTVSPost2010Prop46
 90
       50
102
RTVSPost2010PropOp46
 70
     1
102
RTVSPost2010Prop47
 90
       50
102
RTVSPost2010PropOp47
 70
     1
102
RTVSPost2010Prop48
 90
       50
102
RTVSPost2010PropOp48
 70
     1
102
RTVSPost2010Prop49
280
     0
102
RTVSPost2010PropOp49
 70
     1
102
RTVSPost2010Prop50
 90
       50
102
RTVSPost2010PropOp50
 70
     1
102
RTVSPost2010Prop51ColorIndex
 90
      256
102
RTVSPost2010Prop51ColorRGB
 90
-16777216
102
RTVSPost2010PropOp51
 70
     0
102
RTVSPost2010Prop52
140
1.0
102
RTVSPost2010PropOp52
 70
     0
102
RTVSPost2010Prop53
 90
        2
102
RTVSPost2010PropOp53
 70
     1
102
RTVSPost2010Prop54
  1
strokes_ogs.tif
102
RTVSPost2010PropOp54
 70
     1
102
RTVSPost2010Prop55
280
     0
102
RTVSPost2010PropOp55
 70
     1
102
RTVSPost2010Prop56
140
1.0
102
RTVSPost2010PropOp56
 70
     1
102
RTVSPost2010Prop57
140
1.0
102
RTVSPost2010PropOp57
 70
     1
102
RTVSPropertyOp0
 70
     1
102
RTVSPropertyOp1
 70
     1
102
RTVSPropertyOp2
 70
     1
102
RTVSPropertyOp3
 70
     1
102
RTVSPropertyOp4
 70
     1
102
RTVSPropertyOp5
 70
     1
102
RTVSPropertyOp6
 70
     1
102
RTVSPropertyOp7
 70
     1
102
RTVSPropertyOp8
 70
     1
102
RTVSPropertyOp9
 70
     1
102
RTVSPropertyOp10
 70
     1
102
RTVSPropertyOp11
 70
     1
102
RTVSPropertyOp12
 70
     1
102
RTVSPropertyOp13
 70
     1
102
RTVSPropertyOp14
 70
     1
102
RTVSPropertyOp15
 70
     1
102
RTVSPropertyOp16
 70
     1
102
RTVSPropertyOp17
 70
     1
102
RTVSPropertyOp18
 70
     1
102
RTVSPropertyOp19
 70
     1
102
RTVSPropertyOp20
 70
     1
102
RTVSPropertyOp21
 70
     1
102
RTVSPropertyOp22
 70
     1
102
RTVSPropertyOp23
 70
     1
102
RTVSPropertyOp24
 70
     1
102
RTVSPropertyOp25
 70
     1
102
RTVSPropertyOp26
 70
     1
102
RTVSPropertyOp27
 70
     1
102
RTVSPropertyOp28
 70
     1
102
RTVSPropertyOp29
 70
     1
102
RTVSPropertyOp30
 70
     1
102
RTVSPropertyOp31
 70
     1
102
RTVSPropertyOp32
 70
     1
102
RTVSPropertyOp33
 70
     1
102
RTVSPropertyOp34
 70
     1
102
RTVSPropertyOp35
 70
     1
102
RTVSPropertyOp36
 70
     1
102
RTVSPropertyOp37
 70
     1
102
RTVSPropertyOp38
 70
     1
102
RTVSPropertyOp39
 70
     1
102
RTVSPropertyOp40
 70
     1
102
RTVSPropertyOp41
 70
     1
102
RTVSPropertyOp42
 70
     1
102
RTVSPropertyOp43
 70
     1
102
RTVSPropertyOp44
 70
     1
102
RTVSPropertyOp45
 70
     1
102
RTVSPropertyOp46
 70
     1
102
RTVSPropertyOp47
 70
     1
102
RTVSPropertyOp48
 70
     1
102
RTVSPropertyOp49
 70
     1
102
RTVSPropertyOp50
 70
     1
102
RTVSPropertyOp51
 70
     0
102
RTVSPropertyOp52
 70
     0
102
RTVSPropertyOp53
 70
     1
102
RTVSPropertyOp54
 70
     1
102
RTVSPropertyOp55
 70
     1
102
RTVSPropertyOp56
 70
     1
102
RTVSPropertyOp57
 70
     1
102
RTVSPropertyOp58
 70
     1
102
RTVSPropertyOp59
 70
     1
102
RTVSPropertyOp60
 70
     1
102
RTVSPropertyOp61
 70
     1
102
RTVSPropertyOp62
 70
     1
  0
XRECORD
  5
27B
102
{ACAD_REACTORS
330
27A
102
}
330
27A
100
AcDbXrecord
280
     1
102
RTVSPost2010Prop28
280
     0
102
RTVSPost2010PropOp28
 70
     1
102
RTVSPost2010Prop29
280
     1
102
RTVSPost2010PropOp29
 70
     1
102
RTVSPost2010Prop30
280
     1
102
RTVSPost2010PropOp30
 70
     1
102
RTVSPost2010Prop31
280
     0
102
RTVSPost2010PropOp31
 70
     1
102
RTVSPost2010Prop32
280
     0
102
RTVSPost2010PropOp32
 70
     1
102
RTVSPost2010Prop33
280
     0
102
RTVSPost2010PropOp33
 70
     1
102
RTVSPost2010Prop34
280
     0
102
RTVSPost2010PropOp34
 70
     1
102
RTVSPost2010Prop35
280
     0
102
RTVSPost2010PropOp35
 70
     1
102
RTVSPost2010Prop36
280
     0
102
RTVSPost2010PropOp36
 70
     1
102
RTVSPost2010Prop37
 90
       50
102
RTVSPost2010PropOp37
 70
     1
102
RTVSPost2010Prop38
140
0.0
102
RTVSPost2010PropOp38
 70
     1
102
RTVSPost2010Prop39
140
1.0
102
RTVSPost2010PropOp39
 70
     1
102
RTVSPost2010Prop40
 90
        0
102
RTVSPost2010PropOp40
 70
     1
102
RTVSPost2010Prop41ColorIndex
 90
       18
102
RTVSPost2010Prop41ColorRGB
 90
        0
102
RTVSPost2010PropOp41
 70
     1
102
RTVSPost2010Prop42
 90
       50
102
RTVSPost2010PropOp42
 70
     1
102
RTVSPost2010Prop43
 90
        3
102
RTVSPost2010PropOp43
 70
     1
102
RTVSPost2010Prop44ColorIndex
 90
        5
102
RTVSPost2010Prop44ColorRGB
 90
      255
102
RTVSPost2010PropOp44
 70
     1
102
RTVSPost2010Prop45
280
     0
102
RTVSPost2010PropOp45
 70
     1
102
RTVSPost2010Prop46
 90
       50
102
RTVSPost2010PropOp46
 70
     1
102
RTVSPost2010Prop47
 90
       50
102
RTVSPost2010PropOp47
 70
     1
102
RTVSPost2010Prop48
 90
       50
102
RTVSPost2010PropOp48
 70
     1
102
RTVSPost2010Prop49
280
     0
102
RTVSPost2010PropOp49
 70
     1
102
RTVSPost2010Prop50
 90
       50
102
RTVSPost2010PropOp50
 70
     1
102
RTVSPost2010Prop51ColorIndex
 90
      256
102
RTVSPost2010Prop51ColorRGB
 90
-16777216
102
RTVSPost2010PropOp51
 70
     0
102
RTVSPost2010Prop52
140
1.0
102
RTVSPost2010PropOp52
 70
     0
102
RTVSPost2010Prop53
 90
        2
102
RTVSPost2010PropOp53
 70
     1
102
RTVSPost2010Prop54
  1
strokes_ogs.tif
102
RTVSPost2010PropOp54
 70
     1
102
RTVSPost2010Prop55
280
     0
102
RTVSPost2010PropOp55
 70
     1
102
RTVSPost2010Prop56
140
1.0
102
RTVSPost2010PropOp56
 70
     1
102
RTVSPost2010Prop57
140
1.0
102
RTVSPost2010PropOp57
 70
     1
102
RTVSPropertyOp0
 70
     1
102
RTVSPropertyOp1
 70
     1
102
RTVSPropertyOp2
 70
     1
102
RTVSPropertyOp3
 70
     1
102
RTVSPropertyOp4
 70
     1
102
RTVSPropertyOp5
 70
     1
102
RTVSPropertyOp6
 70
     1
102
RTVSPropertyOp7
 70
     1
102
RTVSPropertyOp8
 70
     1
102
RTVSPropertyOp9
 70
     1
102
RTVSPropertyOp10
 70
     1
102
RTVSPropertyOp11
 70
     1
102
RTVSPropertyOp12
 70
     1
102
RTVSPropertyOp13
 70
     1
102
RTVSPropertyOp14
 70
     1
102
RTVSPropertyOp15
 70
     1
102
RTVSPropertyOp16
 70
     1
102
RTVSPropertyOp17
 70
     1
102
RTVSPropertyOp18
 70
     1
102
RTVSPropertyOp19
 70
     1
102
RTVSPropertyOp20
 70
     1
102
RTVSPropertyOp21
 70
     1
102
RTVSPropertyOp22
 70
     1
102
RTVSPropertyOp23
 70
     1
102
RTVSPropertyOp24
 70
     1
102
RTVSPropertyOp25
 70
     1
102
RTVSPropertyOp26
 70
     1
102
RTVSPropertyOp27
 70
     1
102
RTVSPropertyOp28
 70
     1
102
RTVSPropertyOp29
 70
     1
102
RTVSPropertyOp30
 70
     1
102
RTVSPropertyOp31
 70
     1
102
RTVSPropertyOp32
 70
     1
102
RTVSPropertyOp33
 70
     1
102
RTVSPropertyOp34
 70
     1
102
RTVSPropertyOp35
 70
     1
102
RTVSPropertyOp36
 70
     1
102
RTVSPropertyOp37
 70
     1
102
RTVSPropertyOp38
 70
     1
102
RTVSPropertyOp39
 70
     1
102
RTVSPropertyOp40
 70
     1
102
RTVSPropertyOp41
 70
     1
102
RTVSPropertyOp42
 70
     1
102
RTVSPropertyOp43
 70
     1
102
RTVSPropertyOp44
 70
     1
102
RTVSPropertyOp45
 70
     1
102
RTVSPropertyOp46
 70
     1
102
RTVSPropertyOp47
 70
     1
102
RTVSPropertyOp48
 70
     1
102
RTVSPropertyOp49
 70
     1
102
RTVSPropertyOp50
 70
     1
102
RTVSPropertyOp51
 70
     0
102
RTVSPropertyOp52
 70
     0
102
RTVSPropertyOp53
 70
     1
102
RTVSPropertyOp54
 70
     1
102
RTVSPropertyOp55
 70
     1
102
RTVSPropertyOp56
 70
     1
102
RTVSPropertyOp57
 70
     1
102
RTVSPropertyOp58
 70
     1
102
RTVSPropertyOp59
 70
     1
102
RTVSPropertyOp60
 70
     1
102
RTVSPropertyOp61
 70
     1
102
RTVSPropertyOp62
 70
     1
  0
XRECORD
  5
29B
102
{ACAD_REACTORS
330
29A
102
}
330
29A
100
AcDbXrecord
280
     1
102
RTVSPost2010Prop28
280
     0
102
RTVSPost2010PropOp28
 70
     1
102
RTVSPost2010Prop29
280
     1
102
RTVSPost2010PropOp29
 70
     1
102
RTVSPost2010Prop30
280
     1
102
RTVSPost2010PropOp30
 70
     1
102
RTVSPost2010Prop31
280
     0
102
RTVSPost2010PropOp31
 70
     1
102
RTVSPost2010Prop32
280
     0
102
RTVSPost2010PropOp32
 70
     1
102
RTVSPost2010Prop33
280
     0
102
RTVSPost2010PropOp33
 70
     1
102
RTVSPost2010Prop34
280
     0
102
RTVSPost2010PropOp34
 70
     1
102
RTVSPost2010Prop35
280
     0
102
RTVSPost2010PropOp35
 70
     1
102
RTVSPost2010Prop36
280
     0
102
RTVSPost2010PropOp36
 70
     1
102
RTVSPost2010Prop37
 90
       50
102
RTVSPost2010PropOp37
 70
     1
102
RTVSPost2010Prop38
140
0.0
102
RTVSPost2010PropOp38
 70
     1
102
RTVSPost2010Prop39
140
1.0
102
RTVSPost2010PropOp39
 70
     1
102
RTVSPost2010Prop40
 90
        0
102
RTVSPost2010PropOp40
 70
     1
102
RTVSPost2010Prop41ColorIndex
 90
       18
102
RTVSPost2010Prop41ColorRGB
 90
        0
102
RTVSPost2010PropOp41
 70
     1
102
RTVSPost2010Prop42
 90
       50
102
RTVSPost2010PropOp42
 70
     1
102
RTVSPost2010Prop43
 90
        3
102
RTVSPost2010PropOp43
 70
     1
102
RTVSPost2010Prop44ColorIndex
 90
        5
102
RTVSPost2010Prop44ColorRGB
 90
      255
102
RTVSPost2010PropOp44
 70
     1
102
RTVSPost2010Prop45
280
     0
102
RTVSPost2010PropOp45
 70
     1
102
RTVSPost2010Prop46
 90
       50
102
RTVSPost2010PropOp46
 70
     1
102
RTVSPost2010Prop47
 90
       50
102
RTVSPost2010PropOp47
 70
     1
102
RTVSPost2010Prop48
 90
       50
102
RTVSPost2010PropOp48
 70
     1
102
RTVSPost2010Prop49
280
     0
102
RTVSPost2010PropOp49
 70
     1
102
RTVSPost2010Prop50
 90
       50
102
RTVSPost2010PropOp50
 70
     1
102
RTVSPost2010Prop51ColorIndex
 90
      256
102
RTVSPost2010Prop51ColorRGB
 90
-16777216
102
RTVSPost2010PropOp51
 70
     0
102
RTVSPost2010Prop52
140
1.0
102
RTVSPost2010PropOp52
 70
     0
102
RTVSPost2010Prop53
 90
        2
102
RTVSPost2010PropOp53
 70
     1
102
RTVSPost2010Prop54
  1
strokes_ogs.tif
102
RTVSPost2010PropOp54
 70
     1
102
RTVSPost2010Prop55
280
     0
102
RTVSPost2010PropOp55
 70
     1
102
RTVSPost2010Prop56
140
1.0
102
RTVSPost2010PropOp56
 70
     1
102
RTVSPost2010Prop57
140
1.0
102
RTVSPost2010PropOp57
 70
     1
102
RTVSPropertyOp0
 70
     1
102
RTVSPropertyOp1
 70
     1
102
RTVSPropertyOp2
 70
     1
102
RTVSPropertyOp3
 70
     1
102
RTVSPropertyOp4
 70
     1
102
RTVSPropertyOp5
 70
     1
102
RTVSPropertyOp6
 70
     1
102
RTVSPropertyOp7
 70
     1
102
RTVSPropertyOp8
 70
     1
102
RTVSPropertyOp9
 70
     1
102
RTVSPropertyOp10
 70
     1
102
RTVSPropertyOp11
 70
     1
102
RTVSPropertyOp12
 70
     1
102
RTVSPropertyOp13
 70
     1
102
RTVSPropertyOp14
 70
     1
102
RTVSPropertyOp15
 70
     1
102
RTVSPropertyOp16
 70
     1
102
RTVSPropertyOp17
 70
     1
102
RTVSPropertyOp18
 70
     1
102
RTVSPropertyOp19
 70
     1
102
RTVSPropertyOp20
 70
     1
102
RTVSPropertyOp21
 70
     1
102
RTVSPropertyOp22
 70
     1
102
RTVSPropertyOp23
 70
     1
102
RTVSPropertyOp24
 70
     1
102
RTVSPropertyOp25
 70
     1
102
RTVSPropertyOp26
 70
     1
102
RTVSPropertyOp27
 70
     1
102
RTVSPropertyOp28
 70
     1
102
RTVSPropertyOp29
 70
     1
102
RTVSPropertyOp30
 70
     1
102
RTVSPropertyOp31
 70
     1
102
RTVSPropertyOp32
 70
     1
102
RTVSPropertyOp33
 70
     1
102
RTVSPropertyOp34
 70
     1
102
RTVSPropertyOp35
 70
     1
102
RTVSPropertyOp36
 70
     1
102
RTVSPropertyOp37
 70
     1
102
RTVSPropertyOp38
 70
     1
102
RTVSPropertyOp39
 70
     1
102
RTVSPropertyOp40
 70
     1
102
RTVSPropertyOp41
 70
     1
102
RTVSPropertyOp42
 70
     1
102
RTVSPropertyOp43
 70
     1
102
RTVSPropertyOp44
 70
     1
102
RTVSPropertyOp45
 70
     1
102
RTVSPropertyOp46
 70
     1
102
RTVSPropertyOp47
 70
     1
102
RTVSPropertyOp48
 70
     1
102
RTVSPropertyOp49
 70
     1
102
RTVSPropertyOp50
 70
     1
102
RTVSPropertyOp51
 70
     0
102
RTVSPropertyOp52
 70
     0
102
RTVSPropertyOp53
 70
     1
102
RTVSPropertyOp54
 70
     1
102
RTVSPropertyOp55
 70
     1
102
RTVSPropertyOp56
 70
     1
102
RTVSPropertyOp57
 70
     1
102
RTVSPropertyOp58
 70
     1
102
RTVSPropertyOp59
 70
     1
102
RTVSPropertyOp60
 70
     1
102
RTVSPropertyOp61
 70
     1
102
RTVSPropertyOp62
 70
     1
  0
ENDSEC
  0
EOF
