  0
SECTION
  2
HEADER
  9
$ACADVER
  1
AC1018
  9
$ACADMAINTVER
 70
   104
  9
$DWGCODEPAGE
  3
ANSI_1250
  9
$LASTSAVEDBY
  1
wq7085
  9
$INSBASE
 10
0.0
 20
0.0
 30
0.0
  9
$EXTMIN
 10
223.4319713333333
 20
268.3790336666667
 30
0.0
  9
$EXTMAX
 10
348.541169
 20
326.9547776666667
 30
0.0
  9
$LIMMIN
 10
-0.5
 20
-0.5
  9
$LIMMAX
 10
5.0
 20
5.0
  9
$ORTHOMODE
 70
     0
  9
$REGENMODE
 70
     1
  9
$FILLMODE
 70
     1
  9
$QTEXTMODE
 70
     0
  9
$MIRRTEXT
 70
     1
  9
$LTSCALE
 40
1.0
  9
$ATTMODE
 70
     1
  9
$TEXTSIZE
 40
0.2
  9
$TRACEWID
 40
0.05
  9
$TEXTSTYLE
  7
Standard
  9
$CLAYER
  8
0
  9
$CELTYPE
  6
ByLayer
  9
$CECOLOR
 62
   256
  9
$CELTSCALE
 40
1.0
  9
$DISPSILH
 70
     0
  9
$DIMSCALE
 40
1.0
  9
$DIMASZ
 40
0.18
  9
$DIMEXO
 40
0.0625
  9
$DIMDLI
 40
0.38
  9
$DIMRND
 40
0.0
  9
$DIMDLE
 40
0.0
  9
$DIMEXE
 40
0.18
  9
$DIMTP
 40
0.0
  9
$DIMTM
 40
0.0
  9
$DIMTXT
 40
0.18
  9
$DIMCEN
 40
0.09
  9
$DIMTSZ
 40
0.0
  9
$DIMTOL
 70
     0
  9
$DIMLIM
 70
     0
  9
$DIMTIH
 70
     1
  9
$DIMTOH
 70
     1
  9
$DIMSE1
 70
     0
  9
$DIMSE2
 70
     0
  9
$DIMTAD
 70
     0
  9
$DIMZIN
 70
     0
  9
$DIMBLK
  1

  9
$DIMASO
 70
     1
  9
$DIMSHO
 70
     1
  9
$DIMPOST
  1

  9
$DIMAPOST
  1

  9
$DIMALT
 70
     0
  9
$DIMALTD
 70
     2
  9
$DIMALTF
 40
25.4
  9
$DIMLFAC
 40
1.0
  9
$DIMTOFL
 70
     0
  9
$DIMTVP
 40
0.0
  9
$DIMTIX
 70
     0
  9
$DIMSOXD
 70
     0
  9
$DIMSAH
 70
     0
  9
$DIMBLK1
  1

  9
$DIMBLK2
  1

  9
$DIMSTYLE
  2
Standard
  9
$DIMCLRD
 70
     0
  9
$DIMCLRE
 70
     0
  9
$DIMCLRT
 70
     0
  9
$DIMTFAC
 40
1.0
  9
$DIMGAP
 40
0.09
  9
$DIMJUST
 70
     0
  9
$DIMSD1
 70
     0
  9
$DIMSD2
 70
     0
  9
$DIMTOLJ
 70
     1
  9
$DIMTZIN
 70
     0
  9
$DIMALTZ
 70
     0
  9
$DIMALTTZ
 70
     0
  9
$DIMUPT
 70
     0
  9
$DIMDEC
 70
     4
  9
$DIMTDEC
 70
     4
  9
$DIMALTU
 70
     2
  9
$DIMALTTD
 70
     2
  9
$DIMTXSTY
  7
Standard
  9
$DIMAUNIT
 70
     0
  9
$DIMADEC
 70
     0
  9
$DIMALTRND
 40
0.0
  9
$DIMAZIN
 70
     0
  9
$DIMDSEP
 70
    46
  9
$DIMATFIT
 70
     3
  9
$DIMFRAC
 70
     0
  9
$DIMLDRBLK
  1

  9
$DIMLUNIT
 70
     2
  9
$DIMLWD
 70
    -2
  9
$DIMLWE
 70
    -2
  9
$DIMTMOVE
 70
     0
  9
$LUNITS
 70
     2
  9
$LUPREC
 70
     4
  9
$SKETCHINC
 40
0.1
  9
$FILLETRAD
 40
0.5
  9
$AUNITS
 70
     0
  9
$AUPREC
 70
     0
  9
$MENU
  1
.
  9
$ELEVATION
 40
0.0
  9
$PELEVATION
 40
0.0
  9
$THICKNESS
 40
0.0
  9
$LIMCHECK
 70
     0
  9
$CHAMFERA
 40
0.0
  9
$CHAMFERB
 40
0.0
  9
$CHAMFERC
 40
0.0
  9
$CHAMFERD
 40
0.0
  9
$SKPOLY
 70
     0
  9
$TDCREATE
 40
2460019.393379630
  9
$TDUCREATE
 40
2460019.351713843
  9
$TDUPDATE
 40
2460019.395254630
  9
$TDUUPDATE
 40
2460019.353587963
  9
$TDINDWG
 40
0.0013657523
  9
$TDUSRTIMER
 40
0.0013657523
  9
$USRTIMER
 70
     1
  9
$ANGBASE
 50
0.0
  9
$ANGDIR
 70
     0
  9
$PDMODE
 70
     0
  9
$PDSIZE
 40
0.0
  9
$PLINEWID
 40
0.0
  9
$SPLFRAME
 70
     0
  9
$SPLINETYPE
 70
     6
  9
$SPLINESEGS
 70
     8
  9
$HANDSEED
  5
398
  9
$SURFTAB1
 70
     6
  9
$SURFTAB2
 70
     6
  9
$SURFTYPE
 70
     6
  9
$SURFU
 70
     6
  9
$SURFV
 70
     6
  9
$UCSBASE
  2

  9
$UCSNAME
  2

  9
$UCSORG
 10
266.892541
 20
294.389665
 30
0.0
  9
$UCSXDIR
 10
1.0
 20
0.0
 30
0.0
  9
$UCSYDIR
 10
0.0
 20
1.0
 30
0.0
  9
$UCSORTHOREF
  2

  9
$UCSORTHOVIEW
 70
     0
  9
$UCSORGTOP
 10
0.0
 20
0.0
 30
0.0
  9
$UCSORGBOTTOM
 10
0.0
 20
0.0
 30
0.0
  9
$UCSORGLEFT
 10
0.0
 20
0.0
 30
0.0
  9
$UCSORGRIGHT
 10
0.0
 20
0.0
 30
0.0
  9
$UCSORGFRONT
 10
0.0
 20
0.0
 30
0.0
  9
$UCSORGBACK
 10
0.0
 20
0.0
 30
0.0
  9
$PUCSBASE
  2

  9
$PUCSNAME
  2

  9
$PUCSORG
 10
0.0
 20
0.0
 30
0.0
  9
$PUCSXDIR
 10
1.0
 20
0.0
 30
0.0
  9
$PUCSYDIR
 10
0.0
 20
1.0
 30
0.0
  9
$PUCSORTHOREF
  2

  9
$PUCSORTHOVIEW
 70
     0
  9
$PUCSORGTOP
 10
0.0
 20
0.0
 30
0.0
  9
$PUCSORGBOTTOM
 10
0.0
 20
0.0
 30
0.0
  9
$PUCSORGLEFT
 10
0.0
 20
0.0
 30
0.0
  9
$PUCSORGRIGHT
 10
0.0
 20
0.0
 30
0.0
  9
$PUCSORGFRONT
 10
0.0
 20
0.0
 30
0.0
  9
$PUCSORGBACK
 10
0.0
 20
0.0
 30
0.0
  9
$USERI1
 70
     0
  9
$USERI2
 70
     0
  9
$USERI3
 70
     0
  9
$USERI4
 70
     0
  9
$USERI5
 70
     0
  9
$USERR1
 40
0.0
  9
$USERR2
 40
0.0
  9
$USERR3
 40
0.0
  9
$USERR4
 40
0.0
  9
$USERR5
 40
0.0
  9
$WORLDVIEW
 70
     1
  9
$SHADEDGE
 70
     3
  9
$SHADEDIF
 70
    70
  9
$TILEMODE
 70
     1
  9
$MAXACTVP
 70
    64
  9
$PINSBASE
 10
0.0
 20
0.0
 30
0.0
  9
$PLIMCHECK
 70
     0
  9
$PEXTMIN
 10
-0.5
 20
-0.5
 30
-0.5
  9
$PEXTMAX
 10
5.0
 20
5.0
 30
5.0
  9
$PLIMMIN
 10
-0.5
 20
-0.5
  9
$PLIMMAX
 10
5.0
 20
5.0
  9
$UNITMODE
 70
     0
  9
$VISRETAIN
 70
     1
  9
$PLINEGEN
 70
     0
  9
$PSLTSCALE
 70
     1
  9
$TREEDEPTH
 70
  3020
  9
$CMLSTYLE
  2
Standard
  9
$CMLJUST
 70
     0
  9
$CMLSCALE
 40
1.0
  9
$PROXYGRAPHICS
 70
     1
  9
$MEASUREMENT
 70
     1
  9
$CELWEIGHT
370
    13
  9
$ENDCAPS
280
     0
  9
$JOINSTYLE
280
     0
  9
$LWDISPLAY
290
     0
  9
$INSUNITS
 70
     4
  9
$HYPERLINKBASE
  1

  9
$STYLESHEET
  1

  9
$XEDIT
290
     1
  9
$CEPSNTYPE
380
     0
  9
$PSTYLEMODE
290
     1
  9
$FINGERPRINTGUID
  2
{195CE623-EABE-4D34-9B61-E93C0B8C7E06}
  9
$VERSIONGUID
  2
{704BB341-DA5F-EB44-AC48-B4535FB2F449}
  9
$EXTNAMES
290
     1
  9
$PSVPSCALE
 40
0.0
  9
$OLESTARTUP
290
     0
  9
$SORTENTS
280
   127
  9
$INDEXCTL
280
     0
  9
$HIDETEXT
280
     1
  9
$XCLIPFRAME
290
     0
  9
$HALOGAP
280
     0
  9
$OBSCOLOR
 70
   257
  9
$OBSLTYPE
280
     0
  9
$INTERSECTIONDISPLAY
280
     0
  9
$INTERSECTIONCOLOR
 70
   257
  9
$DIMASSOC
280
     2
  9
$PROJECTNAME
  1

  0
ENDSEC
  0
SECTION
  2
CLASSES
  0
CLASS
  1
ACDBDICTIONARYWDFLT
  2
AcDbDictionaryWithDefault
  3
ObjectDBX Classes
 90
        0
 91
        1
280
     0
281
     0
  0
CLASS
  1
VISUALSTYLE
  2
AcDbVisualStyle
  3
ObjectDBX Classes
 90
     4095
 91
       24
280
     0
281
     0
  0
CLASS
  1
MATERIAL
  2
AcDbMaterial
  3
ObjectDBX Classes
 90
     1153
 91
        3
280
     0
281
     0
  0
CLASS
  1
SCALE
  2
AcDbScale
  3
ObjectDBX Classes
 90
     1153
 91
       33
280
     0
281
     0
  0
CLASS
  1
TABLESTYLE
  2
AcDbTableStyle
  3
ObjectDBX Classes
 90
     4095
 91
        1
280
     0
281
     0
  0
CLASS
  1
MLEADERSTYLE
  2
AcDbMLeaderStyle
  3
ACDB_MLEADERSTYLE_CLASS
 90
     4095
 91
        1
280
     0
281
     0
  0
CLASS
  1
SUN
  2
AcDbSun
  3
SCENEOE
 90
     1153
 91
        0
280
     0
281
     0
  0
CLASS
  1
DIMASSOC
  2
AcDbDimAssoc
  3
"AcDbDimAssoc|Product Desc:     AcDim ARX App For Dimension|Company:          Autodesk, Inc.|WEB Address:      www.autodesk.com"
 90
        0
 91
        4
280
     0
281
     0
  0
CLASS
  1
DICTIONARYVAR
  2
AcDbDictionaryVar
  3
ObjectDBX Classes
 90
        0
 91
        8
280
     0
281
     0
  0
CLASS
  1
CELLSTYLEMAP
  2
AcDbCellStyleMap
  3
ObjectDBX Classes
 90
     1152
 91
        2
280
     0
281
     0
  0
CLASS
  1
ACDBSECTIONVIEWSTYLE
  2
AcDbSectionViewStyle
  3
ObjectDBX Classes
 90
     1025
 91
        1
280
     0
281
     0
  0
CLASS
  1
ACDBDETAILVIEWSTYLE
  2
AcDbDetailViewStyle
  3
ObjectDBX Classes
 90
     1025
 91
        1
280
     0
281
     0
  0
CLASS
  1
SORTENTSTABLE
  2
AcDbSortentsTable
  3
ObjectDBX Classes
 90
        0
 91
        1
280
     0
281
     0
  0
ENDSEC
  0
SECTION
  2
TABLES
  0
TABLE
  2
VPORT
  5
8
330
0
100
AcDbSymbolTable
 70
    16
  0
VPORT
  5
29
330
8
100
AcDbSymbolTableRecord
100
AcDbViewportTableRecord
  2
*Active
 70
     0
 10
0.0
 20
0.0
 11
1.0
 21
1.0
 12
279.7286196587138
 22
295.1370243277879
 13
0.0
 23
0.0
 14
0.5
 24
0.5
 15
0.5
 25
0.5
 16
0.0
 26
0.0
 36
1.0
 17
0.0
 27
0.0
 37
0.0
 40
149.7857020041138
 41
2.292712066905615
 42
50.0
 43
216.907834
 44
-216.907834
 50
0.0
 51
0.0
 71
     0
 72
   100
 73
     1
 74
     3
 75
     0
 76
     0
 77
     0
 78
     0
281
     0
 65
     1
110
266.892541
120
294.389665
130
0.0
111
1.0
121
0.0
131
0.0
112
0.0
122
1.0
132
0.0
 79
     0
146
0.0
1001
ACAD_NAV_VCDISPLAY
1070
     3
  0
VPORT
  5
195
330
8
100
AcDbSymbolTableRecord
100
AcDbViewportTableRecord
  2
L1
 70
     0
 10
0.0
 20
0.0
 11
1.0
 21
1.0
 12
285.810486
 22
297.676086
 13
0.0
 23
0.0
 14
0.5
 24
0.5
 15
0.5
 25
0.5
 16
0.0
 26
0.0
 36
1.0
 17
0.0
 27
0.0
 37
0.0
 40
207.433333
 41
0.085602
 42
50.0
 43
216.907834
 44
-216.907834
 50
0.0
 51
0.0
 71
     0
 72
   100
 73
     1
 74
     3
 75
     0
 76
     0
 77
     0
 78
     0
281
     0
 65
     1
110
0.0
120
0.0
130
0.0
111
1.0
121
0.0
131
0.0
112
0.0
122
1.0
132
0.0
 79
     0
146
0.0
  0
VPORT
  5
196
330
8
100
AcDbSymbolTableRecord
100
AcDbViewportTableRecord
  2
L2
 70
     0
 10
0.0
 20
0.0
 11
0.5
 21
1.0
 12
0.0
 22
0.0
 13
0.0
 23
0.0
 14
0.5
 24
0.5
 15
0.5
 25
0.5
 16
0.0
 26
-1.0
 36
0.0
 17
0.0
 27
0.0
 37
0.0
 40
1220.295307
 41
0.014551
 42
50.0
 43
626.203104
 44
-626.203104
 50
0.0
 51
0.0
 71
     0
 72
   100
 73
     1
 74
     3
 75
     0
 76
     0
 77
     0
 78
     0
281
     0
 65
     1
110
0.0
120
0.0
130
0.0
111
1.0
121
0.0
131
0.0
112
0.0
122
1.0
132
0.0
 79
     0
146
0.0
  0
VPORT
  5
197
330
8
100
AcDbSymbolTableRecord
100
AcDbViewportTableRecord
  2
L2
 70
     0
 10
0.5
 20
0.0
 11
1.0
 21
1.0
 12
0.0
 22
0.0
 13
0.0
 23
0.0
 14
0.5
 24
0.5
 15
0.5
 25
0.5
 16
1.0
 26
0.0
 36
0.0
 17
0.0
 27
0.0
 37
0.0
 40
1220.295307
 41
0.014551
 42
50.0
 43
618.9000769999999
 44
-618.9000769999999
 50
0.0
 51
0.0
 71
     0
 72
   100
 73
     1
 74
     3
 75
     0
 76
     0
 77
     0
 78
     0
281
     0
 65
     1
110
0.0
120
0.0
130
0.0
111
1.0
121
0.0
131
0.0
112
0.0
122
1.0
132
0.0
 79
     0
146
0.0
  0
VPORT
  5
198
330
8
100
AcDbSymbolTableRecord
100
AcDbViewportTableRecord
  2
L3
 70
     0
 10
0.0
 20
0.5
 11
1.0
 21
1.0
 12
285.810486
 22
297.676086
 13
0.0
 23
0.0
 14
0.5
 24
0.5
 15
0.5
 25
0.5
 16
0.0
 26
0.0
 36
1.0
 17
0.0
 27
0.0
 37
0.0
 40
207.433333
 41
0.085602
 42
50.0
 43
216.907834
 44
-216.907834
 50
0.0
 51
0.0
 71
     0
 72
   100
 73
     1
 74
     3
 75
     0
 76
     0
 77
     0
 78
     0
281
     0
 65
     1
110
0.0
120
0.0
130
0.0
111
1.0
121
0.0
131
0.0
112
0.0
122
1.0
132
0.0
 79
     0
146
0.0
  0
VPORT
  5
199
330
8
100
AcDbSymbolTableRecord
100
AcDbViewportTableRecord
  2
L3
 70
     0
 10
0.0
 20
0.0
 11
1.0
 21
0.5
 12
0.0
 22
0.0
 13
0.0
 23
0.0
 14
0.5
 24
0.5
 15
0.5
 25
0.5
 16
0.0
 26
-1.0
 36
0.0
 17
0.0
 27
0.0
 37
0.0
 40
1220.295307
 41
0.014551
 42
50.0
 43
626.203104
 44
-626.203104
 50
0.0
 51
0.0
 71
     0
 72
   100
 73
     1
 74
     3
 75
     0
 76
     0
 77
     0
 78
     0
281
     0
 65
     1
110
0.0
120
0.0
130
0.0
111
1.0
121
0.0
131
0.0
112
0.0
122
1.0
132
0.0
 79
     0
146
0.0
  0
VPORT
  5
19A
330
8
100
AcDbSymbolTableRecord
100
AcDbViewportTableRecord
  2
L4
 70
     0
 10
0.0
 20
0.5
 11
0.5
 21
1.0
 12
285.810486
 22
297.676086
 13
0.0
 23
0.0
 14
0.5
 24
0.5
 15
0.5
 25
0.5
 16
0.0
 26
0.0
 36
1.0
 17
0.0
 27
0.0
 37
0.0
 40
207.433333
 41
0.085602
 42
50.0
 43
216.907834
 44
-216.907834
 50
0.0
 51
0.0
 71
     0
 72
   100
 73
     1
 74
     3
 75
     0
 76
     0
 77
     0
 78
     0
281
     0
 65
     1
110
0.0
120
0.0
130
0.0
111
1.0
121
0.0
131
0.0
112
0.0
122
1.0
132
0.0
 79
     0
146
0.0
  0
VPORT
  5
19B
330
8
100
AcDbSymbolTableRecord
100
AcDbViewportTableRecord
  2
L4
 70
     0
 10
0.0
 20
0.0
 11
0.5
 21
0.5
 12
0.0
 22
0.0
 13
0.0
 23
0.0
 14
0.5
 24
0.5
 15
0.5
 25
0.5
 16
0.0
 26
-1.0
 36
0.0
 17
0.0
 27
0.0
 37
0.0
 40
1220.295307
 41
0.014551
 42
50.0
 43
626.203104
 44
-626.203104
 50
0.0
 51
0.0
 71
     0
 72
   100
 73
     1
 74
     3
 75
     0
 76
     0
 77
     0
 78
     0
281
     0
 65
     1
110
0.0
120
0.0
130
0.0
111
1.0
121
0.0
131
0.0
112
0.0
122
1.0
132
0.0
 79
     0
146
0.0
  0
VPORT
  5
19C
330
8
100
AcDbSymbolTableRecord
100
AcDbViewportTableRecord
  2
L4
 70
     0
 10
0.5
 20
0.0
 11
1.0
 21
0.5
 12
0.0
 22
0.0
 13
0.0
 23
0.0
 14
0.5
 24
0.5
 15
0.5
 25
0.5
 16
1.0
 26
0.0
 36
0.0
 17
0.0
 27
0.0
 37
0.0
 40
1220.295307
 41
0.014551
 42
50.0
 43
618.9000769999999
 44
-618.9000769999999
 50
0.0
 51
0.0
 71
     0
 72
   100
 73
     1
 74
     3
 75
     0
 76
     0
 77
     0
 78
     0
281
     0
 65
     1
110
0.0
120
0.0
130
0.0
111
1.0
121
0.0
131
0.0
112
0.0
122
1.0
132
0.0
 79
     0
146
0.0
  0
VPORT
  5
19D
330
8
100
AcDbSymbolTableRecord
100
AcDbViewportTableRecord
  2
L4
 70
     0
 10
0.5
 20
0.5
 11
1.0
 21
1.0
 12
0.0
 22
0.0
 13
0.0
 23
0.0
 14
0.5
 24
0.5
 15
0.5
 25
0.5
 16
0.5773502691896259
 26
-0.5773502691896259
 36
0.5773502691896259
 17
0.0
 27
0.0
 37
0.0
 40
1196.087963
 41
0.014846
 42
50.0
 43
622.5535859999999
 44
-622.5535859999999
 50
0.0
 51
0.0
 71
     0
 72
   100
 73
     1
 74
     3
 75
     0
 76
     0
 77
     0
 78
     0
281
     0
 65
     1
110
0.0
120
0.0
130
0.0
111
1.0
121
0.0
131
0.0
112
0.0
122
1.0
132
0.0
 79
     0
146
0.0
  0
VPORT
  5
19E
330
8
100
AcDbSymbolTableRecord
100
AcDbViewportTableRecord
  2
L6
 70
     0
 10
0.0
 20
0.5
 11
0.333333
 21
1.0
 12
0.0
 22
0.0
 13
0.0
 23
0.0
 14
0.5
 24
0.5
 15
0.5
 25
0.5
 16
0.7188730927569434
 26
-0.5850486126764433
 36
0.3754192287502549
 17
0.0
 27
0.0
 37
0.0
 40
1262.240976
 41
0.014068
 42
50.0
 43
653.4533569999999
 44
-653.4533569999999
 50
0.0
 51
0.0
 71
     0
 72
   100
 73
     1
 74
     3
 75
     0
 76
     0
 77
     0
 78
     0
281
     0
 65
     1
110
0.0
120
0.0
130
0.0
111
1.0
121
0.0
131
0.0
112
0.0
122
1.0
132
0.0
 79
     0
146
0.0
  0
VPORT
  5
19F
330
8
100
AcDbSymbolTableRecord
100
AcDbViewportTableRecord
  2
L6
 70
     0
 10
0.0
 20
0.0
 11
0.333333
 21
0.5
 12
0.0
 22
0.0
 13
0.0
 23
0.0
 14
0.5
 24
0.5
 15
0.5
 25
0.5
 16
-1.0
 26
0.0
 36
0.0
 17
0.0
 27
0.0
 37
0.0
 40
1220.295307
 41
0.014551
 42
50.0
 43
618.9000769999999
 44
-618.9000769999999
 50
0.0
 51
0.0
 71
     0
 72
   100
 73
     1
 74
     3
 75
     0
 76
     0
 77
     0
 78
     0
281
     0
 65
     1
110
0.0
120
0.0
130
0.0
111
1.0
121
0.0
131
0.0
112
0.0
122
1.0
132
0.0
 79
     0
146
0.0
  0
VPORT
  5
1A0
330
8
100
AcDbSymbolTableRecord
100
AcDbViewportTableRecord
  2
L6
 70
     0
 10
0.333333
 20
0.5
 11
0.666667
 21
1.0
 12
285.810486
 22
297.676086
 13
0.0
 23
0.0
 14
0.5
 24
0.5
 15
0.5
 25
0.5
 16
0.0
 26
0.0
 36
1.0
 17
0.0
 27
0.0
 37
0.0
 40
207.433333
 41
0.085602
 42
50.0
 43
216.907834
 44
-216.907834
 50
0.0
 51
0.0
 71
     0
 72
   100
 73
     1
 74
     3
 75
     0
 76
     0
 77
     0
 78
     0
281
     0
 65
     1
110
0.0
120
0.0
130
0.0
111
1.0
121
0.0
131
0.0
112
0.0
122
1.0
132
0.0
 79
     0
146
0.0
  0
VPORT
  5
1A1
330
8
100
AcDbSymbolTableRecord
100
AcDbViewportTableRecord
  2
L6
 70
     0
 10
0.333333
 20
0.0
 11
0.666667
 21
0.5
 12
0.0
 22
0.0
 13
0.0
 23
0.0
 14
0.5
 24
0.5
 15
0.5
 25
0.5
 16
0.0
 26
-1.0
 36
0.0
 17
0.0
 27
0.0
 37
0.0
 40
1220.295307
 41
0.014551
 42
50.0
 43
626.203104
 44
-626.203104
 50
0.0
 51
0.0
 71
     0
 72
   100
 73
     1
 74
     3
 75
     0
 76
     0
 77
     0
 78
     0
281
     0
 65
     1
110
0.0
120
0.0
130
0.0
111
1.0
121
0.0
131
0.0
112
0.0
122
1.0
132
0.0
 79
     0
146
0.0
  0
VPORT
  5
1A2
330
8
100
AcDbSymbolTableRecord
100
AcDbViewportTableRecord
  2
L6
 70
     0
 10
0.666667
 20
0.5
 11
1.0
 21
1.0
 12
0.0
 22
0.0
 13
0.0
 23
0.0
 14
0.5
 24
0.5
 15
0.5
 25
0.5
 16
0.5773502691896259
 26
-0.5773502691896259
 36
0.5773502691896259
 17
0.0
 27
0.0
 37
0.0
 40
1196.087963
 41
0.014846
 42
50.0
 43
622.5535859999999
 44
-622.5535859999999
 50
0.0
 51
0.0
 71
     0
 72
   100
 73
     1
 74
     3
 75
     0
 76
     0
 77
     0
 78
     0
281
     0
 65
     1
110
0.0
120
0.0
130
0.0
111
1.0
121
0.0
131
0.0
112
0.0
122
1.0
132
0.0
 79
     0
146
0.0
  0
VPORT
  5
1A3
330
8
100
AcDbSymbolTableRecord
100
AcDbViewportTableRecord
  2
L6
 70
     0
 10
0.666667
 20
0.0
 11
1.0
 21
0.5
 12
0.0
 22
0.0
 13
0.0
 23
0.0
 14
0.5
 24
0.5
 15
0.5
 25
0.5
 16
1.0
 26
0.0
 36
0.0
 17
0.0
 27
0.0
 37
0.0
 40
1220.295307
 41
0.014551
 42
50.0
 43
618.9000769999999
 44
-618.9000769999999
 50
0.0
 51
0.0
 71
     0
 72
   100
 73
     1
 74
     3
 75
     0
 76
     0
 77
     0
 78
     0
281
     0
 65
     1
110
0.0
120
0.0
130
0.0
111
1.0
121
0.0
131
0.0
112
0.0
122
1.0
132
0.0
 79
     0
146
0.0
  0
ENDTAB
  0
TABLE
  2
LTYPE
  5
5
330
0
100
AcDbSymbolTable
 70
     7
  0
LTYPE
  5
14
330
5
100
AcDbSymbolTableRecord
100
AcDbLinetypeTableRecord
  2
ByBlock
 70
     0
  3

 72
    65
 73
     0
 40
0.0
  0
LTYPE
  5
15
330
5
100
AcDbSymbolTableRecord
100
AcDbLinetypeTableRecord
  2
ByLayer
 70
     0
  3

 72
    65
 73
     0
 40
0.0
  0
LTYPE
  5
16
330
5
100
AcDbSymbolTableRecord
100
AcDbLinetypeTableRecord
  2
Continuous
 70
     0
  3
Solid line
 72
    65
 73
     0
 40
0.0
  0
LTYPE
  5
6E
330
5
100
AcDbSymbolTableRecord
100
AcDbLinetypeTableRecord
  2
CENTER
 70
     0
  3
____ _ ____ _ ____ _ ____
 72
    65
 73
     4
 40
47.4
 49
22.0
 74
     4
 75
     0
340
0
 46
0.0
 50
0.0
 44
0.0
 45
0.0
 49
-8.5
 74
     4
 75
     0
340
0
 46
0.0
 50
0.0
 44
0.0
 45
0.0
 49
8.5
 74
     4
 75
     0
340
0
 46
0.0
 50
0.0
 44
0.0
 45
0.0
 49
-8.5
 74
     4
 75
     0
340
0
 46
0.0
 50
0.0
 44
0.0
 45
0.0
  0
LTYPE
  5
6F
330
5
100
AcDbSymbolTableRecord
100
AcDbLinetypeTableRecord
  2
DASHDOT
 70
     0
  3
_._._._._._._._._._._._._._._._.
 72
    65
 73
     4
 40
70.0
 49
31.0
 74
     4
 75
     0
340
0
 46
0.0
 50
0.0
 44
0.0
 45
0.0
 49
-13.0
 74
     4
 75
     0
340
0
 46
0.0
 50
0.0
 44
0.0
 45
0.0
 49
13.0
 74
     4
 75
     0
340
0
 46
0.0
 50
0.0
 44
0.0
 45
0.0
 49
-13.0
 74
     4
 75
     0
340
0
 46
0.0
 50
0.0
 44
0.0
 45
0.0
  0
LTYPE
  5
70
330
5
100
AcDbSymbolTableRecord
100
AcDbLinetypeTableRecord
  2
DASHED
 70
     0
  3
__ __ __ __ __ __ __ __ __
 72
    65
 73
     2
 40
25.72
 49
12.86
 74
     4
 75
     0
340
0
 46
0.0
 50
0.0
 44
0.0
 45
0.0
 49
-12.86
 74
     4
 75
     0
340
0
 46
0.0
 50
0.0
 44
0.0
 45
0.0
  0
LTYPE
  5
71
330
5
100
AcDbSymbolTableRecord
100
AcDbLinetypeTableRecord
  2
DOT
 70
     0
  3
.........................
 72
    65
 73
     2
 40
10.0
 49
0.0
 74
     4
 75
     0
340
0
 46
0.0
 50
0.0
 44
0.0
 45
0.0
 49
-10.0
 74
     4
 75
     0
340
0
 46
0.0
 50
0.0
 44
0.0
 45
0.0
  0
LTYPE
  5
72
330
5
100
AcDbSymbolTableRecord
100
AcDbLinetypeTableRecord
  2
PHANTOM
 70
     0
  3
____ _ _ ____ _ _ _____ _ _ ____
 72
    65
 73
     6
 40
50.5
 49
18.0
 74
     4
 75
     0
340
0
 46
0.0
 50
0.0
 44
0.0
 45
0.0
 49
-6.5
 74
     4
 75
     0
340
0
 46
0.0
 50
0.0
 44
0.0
 45
0.0
 49
6.5
 74
     4
 75
     0
340
0
 46
0.0
 50
0.0
 44
0.0
 45
0.0
 49
-6.5
 74
     4
 75
     0
340
0
 46
0.0
 50
0.0
 44
0.0
 45
0.0
 49
6.5
 74
     4
 75
     0
340
0
 46
0.0
 50
0.0
 44
0.0
 45
0.0
 49
-6.5
 74
     4
 75
     0
340
0
 46
0.0
 50
0.0
 44
0.0
 45
0.0
  0
LTYPE
  5
33D
330
5
100
AcDbSymbolTableRecord
100
AcDbLinetypeTableRecord
  2
CENTER2
 70
     0
  3
Center (.5x) ___ _ ___ _ ___ _ ___ _ ___ _ ___
 72
    65
 73
     4
 40
1.125
 49
0.75
 74
     0
 49
-0.125
 74
     0
 49
0.125
 74
     0
 49
-0.125
 74
     0
  0
ENDTAB
  0
TABLE
  2
LAYER
  5
2
330
0
100
AcDbSymbolTable
 70
    22
  0
LAYER
  5
10
102
{ACAD_XDICTIONARY
360
341
102
}
330
2
100
AcDbSymbolTableRecord
100
AcDbLayerTableRecord
  2
0
 70
     0
 62
     7
  6
Continuous
370
    -3
390
F
  0
LAYER
  5
74
102
{ACAD_XDICTIONARY
360
343
102
}
330
2
100
AcDbSymbolTableRecord
100
AcDbLayerTableRecord
  2
30
 70
     0
 62
     7
420
 16777215
  6
Continuous
370
    -3
390
F
  0
LAYER
  5
133
330
2
100
AcDbSymbolTableRecord
100
AcDbLayerTableRecord
  2
Defpoints
 70
     0
 62
     7
  6
Continuous
290
     0
370
    -3
390
F
  0
LAYER
  5
333
102
{ACAD_XDICTIONARY
360
345
102
}
330
2
100
AcDbSymbolTableRecord
100
AcDbLayerTableRecord
  2
1
 70
     0
 62
     4
  6
Continuous
370
    -3
390
F
  0
LAYER
  5
334
102
{ACAD_XDICTIONARY
360
347
102
}
330
2
100
AcDbSymbolTableRecord
100
AcDbLayerTableRecord
  2
2
 70
     0
 62
     7
  6
Continuous
370
    -3
390
F
  0
LAYER
  5
335
102
{ACAD_XDICTIONARY
360
349
102
}
330
2
100
AcDbSymbolTableRecord
100
AcDbLayerTableRecord
  2
SK1
 70
     0
 62
     4
  6
Continuous
370
    -3
390
F
  0
LAYER
  5
336
102
{ACAD_XDICTIONARY
360
34B
102
}
330
2
100
AcDbSymbolTableRecord
100
AcDbLayerTableRecord
  2
SK2
 70
     0
 62
     7
  6
Continuous
370
    -3
390
F
  0
LAYER
  5
337
102
{ACAD_XDICTIONARY
360
34D
102
}
330
2
100
AcDbSymbolTableRecord
100
AcDbLayerTableRecord
  2
SK6
 70
     0
 62
     5
  6
Continuous
370
    -3
390
F
  0
LAYER
  5
338
102
{ACAD_XDICTIONARY
360
34F
102
}
330
2
100
AcDbSymbolTableRecord
100
AcDbLayerTableRecord
  2
CUT
 70
     0
 62
     1
  6
Continuous
370
    -3
390
F
  0
LAYER
  5
339
102
{ACAD_XDICTIONARY
360
351
102
}
330
2
100
AcDbSymbolTableRecord
100
AcDbLayerTableRecord
  2
NOCUT
 70
     0
 62
     7
  6
Continuous
370
    -3
390
F
  0
LAYER
  5
33A
102
{ACAD_XDICTIONARY
360
353
102
}
330
2
100
AcDbSymbolTableRecord
100
AcDbLayerTableRecord
  2
80
 70
     0
 62
     6
  6
Continuous
370
    -3
390
F
  0
LAYER
  5
33B
102
{ACAD_XDICTIONARY
360
355
102
}
330
2
100
AcDbSymbolTableRecord
100
AcDbLayerTableRecord
  2
81
 70
     0
 62
     3
  6
Continuous
370
    -3
390
F
  0
LAYER
  5
33C
102
{ACAD_XDICTIONARY
360
357
102
}
330
2
100
AcDbSymbolTableRecord
100
AcDbLayerTableRecord
  2
4
 70
     0
 62
     2
  6
CENTER2
370
    -3
390
F
  0
LAYER
  5
33E
102
{ACAD_XDICTIONARY
360
359
102
}
330
2
100
AcDbSymbolTableRecord
100
AcDbLayerTableRecord
  2
SK3
 70
     0
 62
     1
  6
DASHED
370
    -3
390
F
  0
LAYER
  5
33F
102
{ACAD_XDICTIONARY
360
35B
102
}
330
2
100
AcDbSymbolTableRecord
100
AcDbLayerTableRecord
  2
SK4
 70
     0
 62
     2
  6
CENTER2
370
    -3
390
F
  0
ENDTAB
  0
TABLE
  2
STYLE
  5
3
330
0
100
AcDbSymbolTable
 70
     3
  0
STYLE
  5
11
330
3
100
AcDbSymbolTableRecord
100
AcDbTextStyleTableRecord
  2
Standard
 70
     0
 40
0.0
 41
1.0
 50
0.0
 71
     0
 42
0.2
  3
txt
  4

  0
STYLE
  5
124
330
3
100
AcDbSymbolTableRecord
100
AcDbTextStyleTableRecord
  2
cesky
 70
     0
 40
0.0
 41
1.0
 50
0.0
 71
     0
 42
0.2
  3
simplex.shx
  4

  0
STYLE
  5
125
330
3
100
AcDbSymbolTableRecord
100
AcDbTextStyleTableRecord
  2
DWGDirectTextStyle
 70
     0
 40
0.0
 41
1.0
 50
0.0
 71
     0
 42
0.2
  3
simplex
  4

  0
ENDTAB
  0
TABLE
  2
VIEW
  5
6
330
0
100
AcDbSymbolTable
 70
     0
  0
ENDTAB
  0
TABLE
  2
UCS
  5
7
330
0
100
AcDbSymbolTable
 70
     0
  0
ENDTAB
  0
TABLE
  2
APPID
  5
9
330
0
100
AcDbSymbolTable
 70
     7
  0
APPID
  5
12
330
9
100
AcDbSymbolTableRecord
100
AcDbRegAppTableRecord
  2
ACAD
 70
     0
  0
APPID
  5
12F
330
9
100
AcDbSymbolTableRecord
100
AcDbRegAppTableRecord
  2
ACAD_DSTYLE_DIMBREAK
 70
     0
  0
APPID
  5
1A4
330
9
100
AcDbSymbolTableRecord
100
AcDbRegAppTableRecord
  2
ACAD_DSTYLE_DIM_LINETYPE
 70
     0
  0
APPID
  5
1A5
330
9
100
AcDbSymbolTableRecord
100
AcDbRegAppTableRecord
  2
ACAD_DSTYLE_DIM_EXT1_LINETYPE
 70
     0
  0
APPID
  5
1A6
330
9
100
AcDbSymbolTableRecord
100
AcDbRegAppTableRecord
  2
ACAD_DSTYLE_DIM_EXT2_LINETYPE
 70
     0
  0
APPID
  5
1E6
330
9
100
AcDbSymbolTableRecord
100
AcDbRegAppTableRecord
  2
ACAD_MLEADERVER
 70
     0
  0
APPID
  5
360
330
9
100
AcDbSymbolTableRecord
100
AcDbRegAppTableRecord
  2
ACAD_NAV_VCDISPLAY
 70
     0
  0
ENDTAB
  0
TABLE
  2
DIMSTYLE
  5
A
330
0
100
AcDbSymbolTable
 70
     1
100
AcDbDimStyleTable
 71
     0
  0
DIMSTYLE
105
27
330
A
100
AcDbSymbolTableRecord
100
AcDbDimStyleTableRecord
  2
Standard
 70
     0
340
11
1001
ACAD_DSTYLE_DIMBREAK
1070
   391
1040
6.349999999999999
  0
ENDTAB
  0
TABLE
  2
BLOCK_RECORD
  5
1
330
0
100
AcDbSymbolTable
 70
     9
  0
BLOCK_RECORD
  5
1F
102
{ACAD_XDICTIONARY
360
1F6
102
}
330
1
100
AcDbSymbolTableRecord
100
AcDbBlockTableRecord
  2
*Model_Space
340
22
  0
BLOCK_RECORD
  5
1B
330
1
100
AcDbSymbolTableRecord
100
AcDbBlockTableRecord
  2
*Paper_Space
340
1E
  0
BLOCK_RECORD
  5
23
330
1
100
AcDbSymbolTableRecord
100
AcDbBlockTableRecord
  2
*Paper_Space0
340
26
  0
BLOCK_RECORD
  5
134
330
1
100
AcDbSymbolTableRecord
100
AcDbBlockTableRecord
  2
*D1
340
0
  0
BLOCK_RECORD
  5
140
330
1
100
AcDbSymbolTableRecord
100
AcDbBlockTableRecord
  2
_U0
340
0
  0
BLOCK_RECORD
  5
14C
330
1
100
AcDbSymbolTableRecord
100
AcDbBlockTableRecord
  2
*D3
340
0
  0
BLOCK_RECORD
  5
158
330
1
100
AcDbSymbolTableRecord
100
AcDbBlockTableRecord
  2
_U1
340
0
  0
BLOCK_RECORD
  5
164
330
1
100
AcDbSymbolTableRecord
100
AcDbBlockTableRecord
  2
*D5
340
0
  0
BLOCK_RECORD
  5
171
330
1
100
AcDbSymbolTableRecord
100
AcDbBlockTableRecord
  2
_U2
340
0
  0
BLOCK_RECORD
  5
17D
330
1
100
AcDbSymbolTableRecord
100
AcDbBlockTableRecord
  2
*D7
340
0
  0
BLOCK_RECORD
  5
18B
330
1
100
AcDbSymbolTableRecord
100
AcDbBlockTableRecord
  2
_U3
340
0
  0
ENDTAB
  0
ENDSEC
  0
SECTION
  2
BLOCKS
  0
BLOCK
  5
20
330
1F
100
AcDbEntity
  8
0
100
AcDbBlockBegin
  2
*Model_Space
 70
     0
 10
0.0
 20
0.0
 30
0.0
  3
*Model_Space
  1

  0
ENDBLK
  5
21
330
1F
100
AcDbEntity
  8
0
100
AcDbBlockEnd
  0
BLOCK
  5
1C
330
1B
100
AcDbEntity
 67
     1
  8
0
100
AcDbBlockBegin
  2
*Paper_Space
 70
     0
 10
0.0
 20
0.0
 30
0.0
  3
*Paper_Space
  1

  0
ENDBLK
  5
1D
330
1B
100
AcDbEntity
 67
     1
  8
0
100
AcDbBlockEnd
  0
BLOCK
  5
24
330
23
100
AcDbEntity
 67
     1
  8
0
100
AcDbBlockBegin
  2
*Paper_Space0
 70
     0
 10
0.0
 20
0.0
 30
0.0
  3
*Paper_Space0
  1

  0
ENDBLK
  5
25
330
23
100
AcDbEntity
 67
     1
  8
0
100
AcDbBlockEnd
  0
BLOCK
  5
135
330
134
100
AcDbEntity
  8
0
100
AcDbBlockBegin
  2
*D1
 70
     1
 10
0.0
 20
0.0
 30
0.0
  3
*D1
  1

  0
LINE
  5
137
330
134
100
AcDbEntity
  8
0
 62
    95
370
    -2
100
AcDbLine
 10
336.692541
 20
294.389665
 30
0.0
 11
336.692541
 21
323.413945
 31
0.0
  0
LINE
  5
138
330
134
100
AcDbEntity
  8
0
 62
    95
370
    -2
100
AcDbLine
 10
236.692541
 20
299.689665
 30
0.0
 11
236.692541
 21
323.413945
 31
0.0
  0
LINE
  5
139
330
134
100
AcDbEntity
  8
0
 62
    95
370
    -2
100
AcDbLine
 10
333.192541
 20
322.413945
 30
0.0
 11
240.192541
 21
322.413945
 31
0.0
  0
SOLID
  5
13A
330
134
100
AcDbEntity
  8
0
 62
    95
100
AcDbTrace
 10
333.192541
 20
321.830611
 30
0.0
 11
333.192541
 21
322.997278
 31
0.0
 12
336.692541
 22
322.413945
 32
0.0
 13
336.692541
 23
322.413945
 33
0.0
  0
SOLID
  5
13B
330
134
100
AcDbEntity
  8
0
 62
    95
100
AcDbTrace
 10
240.192541
 20
322.997278
 30
0.0
 11
240.192541
 21
321.830611
 31
0.0
 12
236.692541
 22
322.413945
 32
0.0
 13
236.692541
 23
322.413945
 33
0.0
  0
MTEXT
  5
13C
330
134
100
AcDbEntity
  8
0
 62
    95
370
    13
100
AcDbMText
 10
286.692541
 20
327.663945
 30
0.0
 40
3.5
 41
0.0
 71
     5
 72
     1
  1
\A1;100
  7
cesky
 73
     1
 44
1.0
  0
POINT
  5
13D
330
134
100
AcDbEntity
  8
Defpoints
 62
     0
100
AcDbPoint
 10
336.692541
 20
294.389665
 30
0.0
  0
POINT
  5
13E
330
134
100
AcDbEntity
  8
Defpoints
 62
     0
100
AcDbPoint
 10
236.692541
 20
299.689665
 30
0.0
  0
POINT
  5
13F
330
134
100
AcDbEntity
  8
Defpoints
 62
     0
100
AcDbPoint
 10
236.692541
 20
322.413945
 30
0.0
  0
ENDBLK
  5
136
330
134
100
AcDbEntity
  8
0
100
AcDbBlockEnd
  0
BLOCK
  5
147
330
140
100
AcDbEntity
  8
0
100
AcDbBlockBegin
  2
_U0
 70
     0
 10
0.0
 20
0.0
 30
0.0
  3
_U0
  1

  0
ENDBLK
  5
148
330
140
100
AcDbEntity
  8
0
100
AcDbBlockEnd
  0
BLOCK
  5
14D
330
14C
100
AcDbEntity
  8
0
100
AcDbBlockBegin
  2
*D3
 70
     1
 10
0.0
 20
0.0
 30
0.0
  3
*D3
  1

  0
LINE
  5
14F
330
14C
100
AcDbEntity
  8
0
 62
   254
370
    -2
100
AcDbLine
 10
236.692541
 20
299.689665
 30
0.0
 11
236.692541
 21
310.154593
 31
0.0
  0
LINE
  5
150
330
14C
100
AcDbEntity
  8
0
 62
   254
370
    -2
100
AcDbLine
 10
266.892541
 20
294.389665
 30
0.0
 11
266.892541
 21
310.154593
 31
0.0
  0
LINE
  5
151
330
14C
100
AcDbEntity
  8
0
 62
   254
370
    -2
100
AcDbLine
 10
240.192541
 20
309.154593
 30
0.0
 11
263.392541
 21
309.154593
 31
0.0
  0
SOLID
  5
152
330
14C
100
AcDbEntity
  8
0
 62
   254
100
AcDbTrace
 10
240.192541
 20
309.737927
 30
0.0
 11
240.192541
 21
308.57126
 31
0.0
 12
236.692541
 22
309.154593
 32
0.0
 13
236.692541
 23
309.154593
 33
0.0
  0
SOLID
  5
153
330
14C
100
AcDbEntity
  8
0
 62
   254
100
AcDbTrace
 10
263.392541
 20
308.57126
 30
0.0
 11
263.392541
 21
309.737927
 31
0.0
 12
266.892541
 22
309.154593
 32
0.0
 13
266.892541
 23
309.154593
 33
0.0
  0
MTEXT
  5
154
330
14C
100
AcDbEntity
  8
0
 62
   254
370
    13
100
AcDbMText
 10
251.792541
 20
314.404593
 30
0.0
 40
3.5
 41
0.0
 71
     5
 72
     1
  1
\A1;30.2
  7
cesky
 73
     1
 44
1.0
  0
POINT
  5
155
330
14C
100
AcDbEntity
  8
Defpoints
 62
     0
100
AcDbPoint
 10
236.692541
 20
299.689665
 30
0.0
  0
POINT
  5
156
330
14C
100
AcDbEntity
  8
Defpoints
 62
     0
100
AcDbPoint
 10
266.892541
 20
294.389665
 30
0.0
  0
POINT
  5
157
330
14C
100
AcDbEntity
  8
Defpoints
 62
     0
100
AcDbPoint
 10
266.892541
 20
309.154593
 30
0.0
  0
ENDBLK
  5
14E
330
14C
100
AcDbEntity
  8
0
100
AcDbBlockEnd
  0
BLOCK
  5
15F
330
158
100
AcDbEntity
  8
0
100
AcDbBlockBegin
  2
_U1
 70
     0
 10
0.0
 20
0.0
 30
0.0
  3
_U1
  1

  0
ENDBLK
  5
160
330
158
100
AcDbEntity
  8
0
100
AcDbBlockEnd
  0
BLOCK
  5
165
330
164
100
AcDbEntity
  8
0
100
AcDbBlockBegin
  2
*D5
 70
     1
 10
0.0
 20
0.0
 30
0.0
  3
*D5
  1

  0
LINE
  5
167
330
164
100
AcDbEntity
  8
0
 62
    95
370
    -2
100
AcDbLine
 10
332.93929
 20
288.439665
 30
0.0
 11
348.541169
 21
288.439665
 31
0.0
  0
LINE
  5
168
330
164
100
AcDbEntity
  8
0
 62
    95
370
    -2
100
AcDbLine
 10
336.692541
 20
300.339665
 30
0.0
 11
348.541169
 21
300.339665
 31
0.0
  0
LINE
  5
169
330
164
100
AcDbEntity
  8
0
 62
    95
370
    -2
100
AcDbLine
 10
347.541169
 20
284.939665
 30
0.0
 11
347.541169
 21
281.439665
 31
0.0
  0
LINE
  5
16A
330
164
100
AcDbEntity
  8
0
 62
    95
370
    -2
100
AcDbLine
 10
347.541169
 20
303.839665
 30
0.0
 11
347.541169
 21
307.339665
 31
0.0
  0
SOLID
  5
16B
330
164
100
AcDbEntity
  8
0
 62
    95
100
AcDbTrace
 10
348.124503
 20
284.939665
 30
0.0
 11
346.957836
 21
284.939665
 31
0.0
 12
347.541169
 22
288.439665
 32
0.0
 13
347.541169
 23
288.439665
 33
0.0
  0
SOLID
  5
16C
330
164
100
AcDbEntity
  8
0
 62
    95
100
AcDbTrace
 10
346.957836
 20
303.839665
 30
0.0
 11
348.124503
 21
303.839665
 31
0.0
 12
347.541169
 22
300.339665
 32
0.0
 13
347.541169
 23
300.339665
 33
0.0
  0
MTEXT
  5
16D
330
164
100
AcDbEntity
  8
0
 62
    95
370
    13
100
AcDbMText
 10
342.291169
 20
294.389665
 30
0.0
 40
3.5
 41
0.0
 71
     5
 72
     1
  1
\A1;12
  7
cesky
 11
0.0
 21
1.0
 31
0.0
 73
     1
 44
1.0
  0
POINT
  5
16E
330
164
100
AcDbEntity
  8
Defpoints
 62
     0
100
AcDbPoint
 10
332.93929
 20
288.439665
 30
0.0
  0
POINT
  5
16F
330
164
100
AcDbEntity
  8
Defpoints
 62
     0
100
AcDbPoint
 10
336.692541
 20
300.339665
 30
0.0
  0
POINT
  5
170
330
164
100
AcDbEntity
  8
Defpoints
 62
     0
100
AcDbPoint
 10
347.541169
 20
300.339665
 30
0.0
  0
ENDBLK
  5
166
330
164
100
AcDbEntity
  8
0
100
AcDbBlockEnd
  0
BLOCK
  5
178
330
171
100
AcDbEntity
  8
0
100
AcDbBlockBegin
  2
_U2
 70
     0
 10
0.0
 20
0.0
 30
0.0
  3
_U2
  1

  0
ENDBLK
  5
179
330
171
100
AcDbEntity
  8
0
100
AcDbBlockEnd
  0
BLOCK
  5
17E
330
17D
100
AcDbEntity
  8
0
100
AcDbBlockBegin
  2
*D7
 70
     1
 10
0.0
 20
0.0
 30
0.0
  3
*D7
  1

  0
LINE
  5
180
330
17D
100
AcDbEntity
  8
0
 62
   254
370
    -2
100
AcDbLine
 10
262.942708
 20
288.439665
 30
0.0
 11
226.629804
 21
288.439665
 31
0.0
  0
LINE
  5
181
330
17D
100
AcDbEntity
  8
0
 62
   254
370
    -2
100
AcDbLine
 10
236.692541
 20
299.689665
 30
0.0
 11
226.629804
 21
299.689665
 31
0.0
  0
LINE
  5
182
330
17D
100
AcDbEntity
  8
0
 62
   254
370
    -2
100
AcDbLine
 10
227.629804
 20
288.439665
 30
0.0
 11
227.629804
 21
261.772998
 31
0.0
  0
LINE
  5
183
330
17D
100
AcDbEntity
  8
0
 62
   254
370
    -2
100
AcDbLine
 10
227.629804
 20
284.939665
 30
0.0
 11
227.629804
 21
281.439665
 31
0.0
  0
LINE
  5
184
330
17D
100
AcDbEntity
  8
0
 62
   254
370
    -2
100
AcDbLine
 10
227.629804
 20
303.189665
 30
0.0
 11
227.629804
 21
306.689665
 31
0.0
  0
SOLID
  5
185
330
17D
100
AcDbEntity
  8
0
 62
   254
100
AcDbTrace
 10
228.213138
 20
284.939665
 30
0.0
 11
227.046471
 21
284.939665
 31
0.0
 12
227.629804
 22
288.439665
 32
0.0
 13
227.629804
 23
288.439665
 33
0.0
  0
SOLID
  5
186
330
17D
100
AcDbEntity
  8
0
 62
   254
100
AcDbTrace
 10
227.046471
 20
303.189665
 30
0.0
 11
228.213138
 21
303.189665
 31
0.0
 12
227.629804
 22
299.689665
 32
0.0
 13
227.629804
 23
299.689665
 33
0.0
  0
MTEXT
  5
187
330
17D
100
AcDbEntity
  8
0
 62
   254
370
    13
100
AcDbMText
 10
222.379804
 20
271.606332
 30
0.0
 40
3.5
 41
0.0
 71
     5
 72
     1
  1
\A1;11.25
  7
cesky
 11
0.0
 21
1.0
 31
0.0
 73
     1
 44
1.0
  0
POINT
  5
188
330
17D
100
AcDbEntity
  8
Defpoints
 62
     0
100
AcDbPoint
 10
262.942708
 20
288.439665
 30
0.0
  0
POINT
  5
189
330
17D
100
AcDbEntity
  8
Defpoints
 62
     0
100
AcDbPoint
 10
236.692541
 20
299.689665
 30
0.0
  0
POINT
  5
18A
330
17D
100
AcDbEntity
  8
Defpoints
 62
     0
100
AcDbPoint
 10
227.629804
 20
299.689665
 30
0.0
  0
ENDBLK
  5
17F
330
17D
100
AcDbEntity
  8
0
100
AcDbBlockEnd
  0
BLOCK
  5
192
330
18B
100
AcDbEntity
  8
0
100
AcDbBlockBegin
  2
_U3
 70
     0
 10
0.0
 20
0.0
 30
0.0
  3
_U3
  1

  0
ENDBLK
  5
193
330
18B
100
AcDbEntity
  8
0
100
AcDbBlockEnd
  0
ENDSEC
  0
SECTION
  2
ENTITIES
  0
POINT
  5
73
330
1F
100
AcDbEntity
  8
30
 60
     1
100
AcDbPoint
 10
236.692541
 20
348.439665
 30
0.0
  0
POINT
  5
75
102
{ACAD_REACTORS
330
340
102
}
330
1F
100
AcDbEntity
  8
80
100
AcDbPoint
 10
266.892541
 20
294.389665
 30
0.0
  0
POINT
  5
77
330
1F
100
AcDbEntity
  8
81
100
AcDbPoint
 10
236.692541
 20
299.689665
 30
0.0
  0
LINE
  5
7B
330
1F
100
AcDbEntity
  8
81
100
AcDbLine
 10
236.692541
 20
299.689665
 30
0.0
 11
236.692541
 21
299.189665
 31
0.0
  0
LINE
  5
7C
330
1F
100
AcDbEntity
  8
80
100
AcDbLine
 10
266.892541
 20
294.389665
 30
0.0
 11
266.392541
 21
294.389665
 31
0.0
  0
LINE
  5
7D
330
1F
100
AcDbEntity
  8
81
100
AcDbLine
 10
236.692541
 20
299.689665
 30
0.0
 11
235.973516
 21
299.689665
 31
0.0
  0
LINE
  5
7E
330
1F
100
AcDbEntity
  8
80
100
AcDbLine
 10
266.892541
 20
294.389665
 30
0.0
 11
266.892541
 21
293.889665
 31
0.0
  0
LINE
  5
7F
330
1F
100
AcDbEntity
  8
SK1
100
AcDbLine
 10
267.392541
 20
288.439665
 30
0.0
 11
336.692541
 21
288.439665
 31
0.0
  0
LINE
  5
81
330
1F
100
AcDbEntity
  8
SK1
100
AcDbLine
 10
336.692541
 20
300.339665
 30
0.0
 11
267.392541
 21
300.339665
 31
0.0
  0
LINE
  5
82
330
1F
100
AcDbEntity
  8
1
100
AcDbLine
 10
248.692541
 20
299.139665
 30
0.0
 11
240.492541
 21
299.139665
 31
0.0
  0
LINE
  5
83
330
1F
100
AcDbEntity
  8
1
100
AcDbLine
 10
265.2580509999999
 20
288.439665
 30
0.0
 11
257.992541
 21
288.439665
 31
0.0
  0
LINE
  5
84
330
1F
100
AcDbEntity
  8
1
100
AcDbLine
 10
240.492579
 20
299.739665
 30
0.0
 11
240.14987
 21
299.739665
 31
0.0
  0
LINE
  5
86
330
1F
100
AcDbEntity
  8
1
100
AcDbLine
 10
239.629608
 20
299.739665
 30
0.0
 11
238.460561
 21
299.739665
 31
0.0
  0
LINE
  5
87
330
1F
100
AcDbEntity
  8
1
100
AcDbLine
 10
240.053317
 20
300.281446
 30
0.0
 11
240.053317
 21
300.339665
 31
0.0
  0
LINE
  5
88
330
1F
100
AcDbEntity
  8
1
100
AcDbLine
 10
240.201995
 20
300.239665
 30
0.0
 11
240.492584
 21
300.239665
 31
0.0
  0
LINE
  5
89
330
1F
100
AcDbEntity
  8
1
100
AcDbLine
 10
252.992541
 20
300.490193
 30
0.0
 11
252.992541
 21
300.339642
 31
0.0
  0
LINE
  5
8A
330
1F
100
AcDbEntity
  8
1
100
AcDbLine
 10
251.692364
 20
300.445973
 30
0.0
 11
251.692364
 21
300.339652
 31
0.0
  0
LINE
  5
8B
330
1F
100
AcDbEntity
  8
1
100
AcDbLine
 10
238.092718
 20
299.033357
 30
0.0
 11
238.092718
 21
300.445973
 31
0.0
  0
LINE
  5
8C
330
1F
100
AcDbEntity
  8
1
100
AcDbLine
 10
236.792541
 20
298.989136
 30
0.0
 11
236.792541
 21
300.490197
 31
0.0
  0
LINE
  5
8D
330
1F
100
AcDbEntity
  8
1
100
AcDbLine
 10
240.492589
 20
299.239665
 30
0.0
 11
240.201995
 21
299.239665
 31
0.0
  0
LINE
  5
8E
330
1F
100
AcDbEntity
  8
1
100
AcDbLine
 10
240.053317
 20
299.139665
 30
0.0
 11
240.053317
 21
299.197883
 31
0.0
  0
LINE
  5
8F
330
1F
100
AcDbEntity
  8
1
100
AcDbLine
 10
249.69254
 20
298.139665
 30
0.0
 11
249.417988
 21
298.139665
 31
0.0
  0
LINE
  5
90
330
1F
100
AcDbEntity
  8
1
100
AcDbLine
 10
249.578493
 20
296.739665
 30
0.0
 11
249.569713
 21
296.739665
 31
0.0
  0
LINE
  5
91
330
1F
100
AcDbEntity
  8
1
100
AcDbLine
 10
255.442541
 20
296.239665
 30
0.0
 11
253.592541
 21
296.239665
 31
0.0
  0
LINE
  5
93
330
1F
100
AcDbEntity
  8
1
100
AcDbLine
 10
253.592541
 20
289.239665
 30
0.0
 11
255.442541
 21
289.239665
 31
0.0
  0
LINE
  5
94
330
1F
100
AcDbEntity
  8
1
100
AcDbLine
 10
252.992541
 20
292.739665
 30
0.0
 11
253.742541
 21
291.239665
 31
0.0
  0
LINE
  5
95
330
1F
100
AcDbEntity
  8
1
100
AcDbLine
 10
251.992541
 20
292.739665
 30
0.0
 11
252.992541
 21
292.739665
 31
0.0
  0
LINE
  5
96
330
1F
100
AcDbEntity
  8
1
100
AcDbLine
 10
253.742541
 20
294.239665
 30
0.0
 11
252.992541
 21
292.739665
 31
0.0
  0
LINE
  5
97
330
1F
100
AcDbEntity
  8
1
100
AcDbLine
 10
254.992541
 20
292.739665
 30
0.0
 11
254.242541
 21
291.239665
 31
0.0
  0
LINE
  5
98
330
1F
100
AcDbEntity
  8
1
100
AcDbLine
 10
254.242541
 20
291.239665
 30
0.0
 11
252.742541
 21
291.239665
 31
0.0
  0
LINE
  5
99
330
1F
100
AcDbEntity
  8
1
100
AcDbLine
 10
252.742541
 20
291.239665
 30
0.0
 11
251.992541
 21
292.739665
 31
0.0
  0
LINE
  5
9A
330
1F
100
AcDbEntity
  8
1
100
AcDbLine
 10
251.992541
 20
292.739665
 30
0.0
 11
252.742541
 21
294.239665
 31
0.0
  0
LINE
  5
9B
330
1F
100
AcDbEntity
  8
1
100
AcDbLine
 10
252.742541
 20
294.239665
 30
0.0
 11
254.242541
 21
294.239665
 31
0.0
  0
LINE
  5
9C
330
1F
100
AcDbEntity
  8
1
100
AcDbLine
 10
254.242541
 20
294.239665
 30
0.0
 11
254.992541
 21
292.739665
 31
0.0
  0
LINE
  5
9D
330
1F
100
AcDbEntity
  8
1
100
AcDbLine
 10
236.642541
 20
300.342414
 30
0.0
 11
236.642541
 21
299.1369160000001
 31
0.0
  0
LINE
  5
9E
330
1F
100
AcDbEntity
  8
1
100
AcDbLine
 10
253.142541
 20
300.339664
 30
0.0
 11
253.142541
 21
300.342414
 31
0.0
  0
LINE
  5
9F
330
1F
100
AcDbEntity
  8
1
100
AcDbLine
 10
249.692541
 20
289.429119
 30
0.0
 11
249.692541
 21
296.747487
 31
0.0
  0
LINE
  5
A0
330
1F
100
AcDbEntity
  8
1
100
AcDbLine
 10
250.871726
 20
288.439665
 30
0.0
 11
249.692541
 21
289.429119
 31
0.0
  0
LINE
  5
A1
330
1F
100
AcDbEntity
  8
1
100
AcDbLine
 10
265.2580509999999
 20
300.339665
 30
0.0
 11
266.801035
 21
300.339665
 31
0.0
  0
LINE
  5
A2
330
1F
100
AcDbEntity
  8
1
100
AcDbLine
 10
266.801035
 20
288.439665
 30
0.0
 11
265.2580509999999
 21
288.439665
 31
0.0
  0
LINE
  5
A3
330
1F
100
AcDbEntity
  8
1
100
AcDbLine
 10
266.801035
 20
288.439665
 30
0.0
 11
266.801035
 21
300.339665
 31
0.0
  0
LINE
  5
A4
330
1F
100
AcDbEntity
  8
1
100
AcDbLine
 10
249.687528
 20
298.239665
 30
0.0
 11
255.992541
 21
298.239665
 31
0.0
  0
LINE
  5
A5
330
1F
100
AcDbEntity
  8
1
100
AcDbLine
 10
257.992541
 20
297.239665
 30
0.0
 11
257.992541
 21
288.439665
 31
0.0
  0
LINE
  5
A6
330
1F
100
AcDbEntity
  8
1
100
AcDbLine
 10
265.2580509999999
 20
288.439665
 30
0.0
 11
265.2580509999999
 21
300.339665
 31
0.0
  0
LINE
  5
A7
330
1F
100
AcDbEntity
  8
1
100
AcDbLine
 10
248.766192
 20
300.339665
 30
0.0
 11
265.2580509999999
 21
300.339665
 31
0.0
  0
LINE
  5
A8
330
1F
100
AcDbEntity
  8
1
100
AcDbLine
 10
248.766192
 20
300.339665
 30
0.0
 11
248.766192
 21
299.136949
 31
0.0
  0
LINE
  5
A9
330
1F
100
AcDbEntity
  8
1
100
AcDbLine
 10
240.492581
 20
300.339665
 30
0.0
 11
240.201937
 21
300.339665
 31
0.0
  0
LINE
  5
AA
330
1F
100
AcDbEntity
  8
1
100
AcDbLine
 10
240.492581
 20
299.139665
 30
0.0
 11
240.201937
 21
299.139665
 31
0.0
  0
LINE
  5
AB
330
1F
100
AcDbEntity
  8
1
100
AcDbLine
 10
250.192541
 20
297.892755
 30
0.0
 11
250.192541
 21
297.889665
 31
0.0
  0
LINE
  5
AC
330
1F
100
AcDbEntity
  8
1
100
AcDbLine
 10
250.192541
 20
297.889665
 30
0.0
 11
250.192541
 21
297.672998
 31
0.0
  0
LINE
  5
AD
330
1F
100
AcDbEntity
  8
1
100
AcDbLine
 10
250.192541
 20
297.239665
 30
0.0
 11
250.192541
 21
297.672998
 31
0.0
  0
LINE
  5
AE
330
1F
100
AcDbEntity
  8
1
100
AcDbLine
 10
250.192541
 20
297.672998
 30
0.0
 11
249.507821
 21
297.672998
 31
0.0
  0
LINE
  5
AF
330
1F
100
AcDbEntity
  8
1
100
AcDbLine
 10
249.640452
 20
296.739665
 30
0.0
 11
249.569846
 21
296.739665
 31
0.0
  0
LINE
  5
B0
330
1F
100
AcDbEntity
  8
1
100
AcDbLine
 10
247.214585
 20
291.50837
 30
0.0
 11
249.640452
 21
289.472826
 31
0.0
  0
LINE
  5
B1
330
1F
100
AcDbEntity
  8
1
100
AcDbLine
 10
249.507821
 20
297.672998
 30
0.0
 11
249.507821
 21
297.239665
 31
0.0
  0
LINE
  5
B2
330
1F
100
AcDbEntity
  8
1
100
AcDbLine
 10
249.640452
 20
296.739665
 30
0.0
 11
249.692571
 21
296.739665
 31
0.0
  0
LINE
  5
B3
330
1F
100
AcDbEntity
  8
1
100
AcDbLine
 10
249.640452
 20
296.739665
 30
0.0
 11
249.640452
 21
289.472826
 31
0.0
  0
LINE
  5
B4
330
1F
100
AcDbEntity
  8
1
100
AcDbLine
 10
249.640452
 20
289.472826
 30
0.0
 11
249.692551
 21
289.429111
 31
0.0
  0
LINE
  5
B5
330
1F
100
AcDbEntity
  8
1
100
AcDbLine
 10
266.801035
 20
300.339665
 30
0.0
 11
267.392541
 21
300.339665
 31
0.0
  0
LINE
  5
B6
330
1F
100
AcDbEntity
  8
1
100
AcDbLine
 10
267.392541
 20
288.439665
 30
0.0
 11
266.801035
 21
288.439665
 31
0.0
  0
LINE
  5
B7
330
1F
100
AcDbEntity
  8
1
100
AcDbLine
 10
267.392541
 20
300.339665
 30
0.0
 11
267.392541
 21
288.439665
 31
0.0
  0
LINE
  5
B8
330
1F
100
AcDbEntity
  8
1
100
AcDbLine
 10
240.492541
 20
300.339665
 30
0.0
 11
248.766192
 21
300.339665
 31
0.0
  0
LINE
  5
B9
330
1F
100
AcDbEntity
  8
1
100
AcDbLine
 10
240.492541
 20
299.139665
 30
0.0
 11
240.492541
 21
300.339665
 31
0.0
  0
LINE
  5
BA
330
1F
100
AcDbEntity
  8
1
100
AcDbLine
 10
257.992541
 20
288.439665
 30
0.0
 11
250.871726
 21
288.439665
 31
0.0
  0
LINE
  5
BB
330
1F
100
AcDbEntity
  8
SK1
100
AcDbLine
 10
336.692541
 20
300.339665
 30
0.0
 11
336.692541
 21
288.439665
 31
0.0
  0
LINE
  5
BC
330
1F
100
AcDbEntity
  8
1
100
AcDbLine
 10
239.168584
 20
300.339665
 30
0.0
 11
239.906522
 21
300.339665
 31
0.0
  0
LINE
  5
BD
330
1F
100
AcDbEntity
  8
1
100
AcDbLine
 10
239.168584
 20
299.139665
 30
0.0
 11
239.906522
 21
299.139665
 31
0.0
  0
LINE
  5
BE
330
1F
100
AcDbEntity
  8
1
100
AcDbLine
 10
238.291536
 20
299.03842
 30
0.0
 11
238.676372
 21
299.051858
 31
0.0
  0
LINE
  5
BF
330
1F
100
AcDbEntity
  8
1
100
AcDbLine
 10
238.676372
 20
300.427472
 30
0.0
 11
238.291536
 21
300.44091
 31
0.0
  0
LINE
  5
C0
330
1F
100
AcDbEntity
  8
1
100
AcDbLine
 10
251.493546
 20
300.44091
 30
0.0
 11
251.10871
 21
300.427472
 31
0.0
  0
LINE
  5
C1
330
1F
100
AcDbEntity
  8
1
100
AcDbLine
 10
239.906522
 20
300.339665
 30
0.0
 11
240.201937
 21
300.339665
 31
0.0
  0
LINE
  5
C2
330
1F
100
AcDbEntity
  8
1
100
AcDbLine
 10
240.201937
 20
299.139665
 30
0.0
 11
239.906522
 21
299.139665
 31
0.0
  0
LINE
  5
C3
330
1F
100
AcDbEntity
  8
1
100
AcDbLine
 10
247.214585
 20
298.139665
 30
0.0
 11
247.214585
 21
291.50837
 31
0.0
  0
LINE
  5
C4
330
1F
100
AcDbEntity
  8
NOCUT
100
AcDbLine
 10
237.692541
 20
300.339665
 30
0.0
 11
240.492619
 21
300.339665
 31
0.0
  0
LINE
  5
C6
330
1F
100
AcDbEntity
  8
NOCUT
100
AcDbLine
 10
237.692541
 20
299.974473
 30
0.0
 11
237.692541
 21
300.339665
 31
0.0
  0
LINE
  5
C7
330
1F
100
AcDbEntity
  8
NOCUT
100
AcDbLine
 10
237.692541
 20
299.899473
 30
0.0
 11
237.692541
 21
299.974473
 31
0.0
  0
LINE
  5
C8
330
1F
100
AcDbEntity
  8
NOCUT
100
AcDbLine
 10
237.692541
 20
299.899473
 30
0.0
 11
237.692541
 21
299.139665
 31
0.0
  0
LINE
  5
C9
330
1F
100
AcDbEntity
  8
NOCUT
100
AcDbLine
 10
237.692541
 20
299.139665
 30
0.0
 11
240.492674
 21
299.139665
 31
0.0
  0
LINE
  5
CA
330
1F
100
AcDbEntity
  8
NOCUT
100
AcDbLine
 10
247.214585
 20
291.50837
 30
0.0
 11
249.692541
 21
289.429119
 31
0.0
  0
LINE
  5
CB
330
1F
100
AcDbEntity
  8
NOCUT
100
AcDbLine
 10
247.214585
 20
298.139665
 30
0.0
 11
247.214585
 21
291.50837
 31
0.0
  0
LINE
  5
CC
330
1F
100
AcDbEntity
  8
NOCUT
100
AcDbLine
 10
267.392541
 20
288.439665
 30
0.0
 11
266.801035
 21
288.439665
 31
0.0
  0
LINE
  5
CD
330
1F
100
AcDbEntity
  8
NOCUT
100
AcDbLine
 10
266.801035
 20
300.339665
 30
0.0
 11
267.392541
 21
300.339665
 31
0.0
  0
LINE
  5
CE
330
1F
100
AcDbEntity
  8
NOCUT
100
AcDbLine
 10
267.392541
 20
300.339665
 30
0.0
 11
267.392541
 21
288.439665
 31
0.0
  0
LINE
  5
CF
330
1F
100
AcDbEntity
  8
NOCUT
100
AcDbLine
 10
240.492541
 20
300.339665
 30
0.0
 11
248.766192
 21
300.339665
 31
0.0
  0
LINE
  5
D0
330
1F
100
AcDbEntity
  8
NOCUT
100
AcDbLine
 10
248.692541
 20
299.139665
 30
0.0
 11
240.492541
 21
299.139665
 31
0.0
  0
LINE
  5
D1
330
1F
100
AcDbEntity
  8
NOCUT
100
AcDbLine
 10
257.992541
 20
288.439665
 30
0.0
 11
250.871726
 21
288.439665
 31
0.0
  0
LINE
  5
D2
330
1F
100
AcDbEntity
  8
NOCUT
100
AcDbLine
 10
250.871726
 20
288.439665
 30
0.0
 11
249.692541
 21
289.429119
 31
0.0
  0
LINE
  5
D3
330
1F
100
AcDbEntity
  8
NOCUT
100
AcDbLine
 10
266.801035
 20
288.439665
 30
0.0
 11
265.2580509999999
 21
288.439665
 31
0.0
  0
LINE
  5
D4
330
1F
100
AcDbEntity
  8
NOCUT
100
AcDbLine
 10
265.2580509999999
 20
300.339665
 30
0.0
 11
266.801035
 21
300.339665
 31
0.0
  0
LINE
  5
D5
330
1F
100
AcDbEntity
  8
NOCUT
100
AcDbLine
 10
265.2580509999999
 20
288.439665
 30
0.0
 11
257.992541
 21
288.439665
 31
0.0
  0
LINE
  5
D6
330
1F
100
AcDbEntity
  8
NOCUT
100
AcDbLine
 10
265.2580509999999
 20
300.339665
 30
0.0
 11
248.766192
 21
300.339665
 31
0.0
  0
LINE
  5
D7
102
{ACAD_REACTORS
330
194
102
}
330
1F
100
AcDbEntity
  8
2
100
AcDbLine
 10
236.692541
 20
299.689665
 30
0.0
 11
236.692541
 21
289.460496
 31
0.0
  0
LINE
  5
D9
330
1F
100
AcDbEntity
  8
2
 60
     1
100
AcDbLine
 10
245.37171
 20
299.139665
 30
0.0
 11
245.638189
 21
295.595678
 31
0.0
  0
LINE
  5
DA
330
1F
100
AcDbEntity
  8
2
 60
     1
100
AcDbLine
 10
245.638189
 20
295.595678
 30
0.0
 11
244.410003
 21
295.718261
 31
0.0
  0
LINE
  5
DB
330
1F
100
AcDbEntity
  8
2
 60
     1
100
AcDbLine
 10
244.410003
 20
295.718261
 30
0.0
 11
245.37171
 21
299.139665
 31
0.0
  0
LINE
  5
DC
330
1F
100
AcDbEntity
  8
2
 60
     1
100
AcDbLine
 10
236.692541
 20
290.460496
 30
0.0
 11
240.11394
 21
291.422203
 31
0.0
  0
LINE
  5
DD
330
1F
100
AcDbEntity
  8
2
 60
     1
100
AcDbLine
 10
240.11394
 20
291.422203
 30
0.0
 11
240.236532
 21
290.1940169999999
 31
0.0
  0
LINE
  5
DE
330
1F
100
AcDbEntity
  8
2
 60
     1
100
AcDbLine
 10
240.236532
 20
290.1940169999999
 30
0.0
 11
236.692541
 21
290.460496
 31
0.0
  0
ARC
  5
DF
330
1F
100
AcDbEntity
  8
1
100
AcDbCircle
 10
248.692541
 20
298.139665
 30
0.0
 40
1.0
100
AcDbArc
 50
5.739169999999999
 51
85.77625600000001
  0
ARC
  5
E0
330
1F
100
AcDbEntity
  8
1
100
AcDbCircle
 10
250.692541
 20
297.239665
 30
0.0
 40
0.5000000000002444
100
AcDbArc
 50
180.0
 51
235.728282
  0
ARC
  5
E1
102
{ACAD_REACTORS
330
194
102
}
330
1F
100
AcDbEntity
  8
2
100
AcDbCircle
 10
236.692541
 20
299.139665
 30
0.0
 40
8.679168974480381
100
AcDbArc
 50
270.0
 51
0.0
  0
ELLIPSE
  5
EA
330
1F
100
AcDbEntity
  8
1
100
AcDbEllipse
 10
255.492541
 20
292.739665
 30
0.0
 11
0.0
 21
-4.0
 31
0.0
210
0.0
220
0.0
230
1.0
 40
0.8660250000000001
 41
5.777860991482905
 42
6.050195759675446
  0
ELLIPSE
  5
EB
330
1F
100
AcDbEntity
  8
1
100
AcDbEllipse
 10
255.492541
 20
292.739665
 30
0.0
 11
0.0
 21
-4.0
 31
0.0
210
0.0
220
0.0
230
1.0
 40
0.8660250000000001
 41
3.374588120488833
 42
3.646839314078748
  0
ELLIPSE
  5
EC
330
1F
100
AcDbEntity
  8
1
100
AcDbEllipse
 10
255.442541
 20
292.739665
 30
0.0
 11
0.0
 21
-3.5
 31
0.0
210
0.0
220
0.0
230
1.0
 40
0.8660249999999999
 41
0.0
 42
0.0435896351319161
  0
ELLIPSE
  5
ED
330
1F
100
AcDbEntity
  8
1
100
AcDbEllipse
 10
255.442541
 20
292.739665
 30
0.0
 11
0.0
 21
-3.5
 31
0.0
210
0.0
220
0.0
230
1.0
 40
0.8660249999999999
 41
3.097904888609803
 42
3.141592807124018
  0
ELLIPSE
  5
EE
330
1F
100
AcDbEntity
  8
1
100
AcDbEllipse
 10
253.592541
 20
292.739665
 30
0.0
 11
0.0
 21
3.5
 31
0.0
210
0.0
220
0.0
230
1.0
 40
0.8660249999999999
 41
0.0
 42
6.283185307179585
  0
ELLIPSE
  5
EF
330
1F
100
AcDbEntity
  8
1
100
AcDbEllipse
 10
253.492541
 20
292.739665
 30
0.0
 11
0.0
 21
-3.299999999999999
 31
0.0
210
0.0
220
0.0
230
1.0
 40
0.8660250000000001
 41
0.0
 42
6.283185307179585
  0
ELLIPSE
  5
F0
330
1F
100
AcDbEntity
  8
1
100
AcDbEllipse
 10
236.688789
 20
299.0179359999999
 30
0.0
 11
0.4999973442680115
 21
0.0230451712131507
 31
0.0
210
0.0
220
0.0
230
0.9999999999999998
 40
0.06899
 41
4.936727406220438
 42
5.018785003812773
  0
ELLIPSE
  5
F1
330
1F
100
AcDbEntity
  8
1
100
AcDbEllipse
 10
236.688789
 20
300.461394
 30
0.0
 11
0.4999974570556365
 21
-0.0230451726931961
 31
0.0
210
0.0
220
0.0
230
0.9999999999999996
 40
0.06899
 41
1.264400257745639
 42
1.346457838044932
  0
ELLIPSE
  5
F2
330
1F
100
AcDbEntity
  8
1
100
AcDbEllipse
 10
253.096293
 20
300.461394
 30
0.0
 11
0.4999974401935569
 21
0.0230451724793987
 31
0.0
210
0.0
220
0.0
230
0.9999999999999998
 40
0.06899
 41
1.795134805868363
 42
1.87719238874685
  0
ELLIPSE
  5
F3
330
1F
100
AcDbEntity
  8
1
100
AcDbEllipse
 10
236.795308
 20
299.139282
 30
0.0
 11
0.141298210881267
 21
0.0593684288808396
 31
0.0
210
0.0
220
0.0
230
1.0
 40
0.978218
 41
2.751629280297389
 42
3.897765866426325
  0
ELLIPSE
  5
F4
330
1F
100
AcDbEntity
  8
1
100
AcDbEllipse
 10
236.795308
 20
300.340048
 30
0.0
 11
0.1412982108784917
 21
-0.0593684288952461
 31
0.0
210
0.0
220
0.0
230
0.9999999999999994
 40
0.978218
 41
2.385419440852798
 42
3.531556026970002
  0
ELLIPSE
  5
F5
330
1F
100
AcDbEntity
  8
1
100
AcDbEllipse
 10
252.989773
 20
300.340048
 30
0.0
 11
0.1412982108786115
 21
0.0593684288937146
 31
0.0
210
0.0
220
0.0
230
0.9999999999999998
 40
0.9782180000000002
 41
5.893221933808029
 42
7.039358519927268
  0
ELLIPSE
  5
F6
330
1F
100
AcDbEntity
  8
1
100
AcDbEllipse
 10
237.237167
 20
298.924563
 30
0.0
 11
1.299993427938042
 21
0.0599174495821581
 31
0.0
210
0.0
220
0.0
230
1.0
 40
0.06899
 41
0.9712084547266012
 42
1.877192401178934
  0
ELLIPSE
  5
F7
330
1F
100
AcDbEntity
  8
1
100
AcDbEllipse
 10
237.237167
 20
300.554767
 30
0.0
 11
1.29999342794292
 21
-0.0599174495825601
 31
0.0
210
0.0
220
0.0
230
1.0
 40
0.06899
 41
4.405992906003806
 42
5.311976852452684
  0
ELLIPSE
  5
F8
330
1F
100
AcDbEntity
  8
1
100
AcDbEllipse
 10
252.547915
 20
300.554767
 30
0.0
 11
1.299993427945438
 21
0.0599174495827327
 31
0.0
210
0.0
220
0.0
230
1.0
 40
0.06899
 41
4.112801108317311
 42
5.018785054764333
  0
ELLIPSE
  5
F9
330
1F
100
AcDbEntity
  8
1
100
AcDbEllipse
 10
253.892541
 20
292.739665
 30
0.0
 11
0.0
 21
4.0
 31
0.0
210
0.0
220
0.0
230
1.0
 40
0.8660250000000001
 41
0.0
 42
6.283185307179585
  0
ELLIPSE
  5
FA
330
1F
100
AcDbEntity
  8
1
100
AcDbEllipse
 10
249.90568
 20
297.239665
 30
0.0
 11
0.8793500899892135
 21
0.000000000000001
 31
0.0
210
0.0
220
0.0
230
1.0
 40
0.5686020000000001
 41
5.419016584354515
 42
6.283185307179585
  0
ELLIPSE
  5
FB
330
1F
100
AcDbEntity
  8
1
100
AcDbEllipse
 10
255.992541
 20
297.239665
 30
0.0
 11
-2.0
 21
0.0
 31
0.0
210
0.0
220
0.0
230
1.0
 40
0.5
 41
3.141592653589792
 42
4.71238898038469
  0
ELLIPSE
  5
FC
330
1F
100
AcDbEntity
  8
1
100
AcDbEllipse
 10
229.692511
 20
296.107249
 30
0.0
 11
20.000029749545
 21
0.0000037421616593
 31
0.0
210
0.0
220
0.0
230
0.9999999999999996
 40
0.5773500000000001
 41
0.1360164193387989
 42
0.1549809552443389
  0
ELLIPSE
  5
FD
330
1F
100
AcDbEntity
  8
1
100
AcDbEllipse
 10
248.692541
 20
298.139665
 30
0.0
 11
0.0
 21
1.000000000674188
 31
0.0
210
0.0
220
0.0
230
1.0
 40
1.0
 41
6.209467059048253
 42
6.283185307179585
  0
ELLIPSE
  5
FE
330
1F
100
AcDbEntity
  8
1
100
AcDbEllipse
 10
248.754336
 20
297.239665
 30
0.0
 11
2.030694719043039
 21
0.0000000000000024
 31
0.0
210
0.0
220
0.0
230
1.0
 40
0.492442
 41
0.0
 42
0.5597814285239889
  0
ELLIPSE
  5
FF
330
1F
100
AcDbEntity
  8
1
100
AcDbEllipse
 10
238.416683
 20
299.098788
 30
0.0
 11
0.7999959556651508
 21
0.0368722766668697
 31
0.0
210
0.0
220
0.0
230
1.0
 40
0.06899
 41
4.112801108316963
 42
4.55212958961841
  0
ELLIPSE
  5
100
330
1F
100
AcDbEntity
  8
1
100
AcDbEllipse
 10
238.416683
 20
300.380542
 30
0.0
 11
0.7999959556048094
 21
-0.0368722766613278
 31
0.0
210
0.0
220
0.0
230
0.9999999999999998
 40
0.06899
 41
1.731055717520038
 42
2.170384198850575
  0
ELLIPSE
  5
101
330
1F
100
AcDbEntity
  8
1
100
AcDbEllipse
 10
251.368399
 20
300.380542
 30
0.0
 11
0.7999959555692752
 21
0.0368722766580275
 31
0.0
210
0.0
220
0.0
230
1.0
 40
0.06899
 41
0.9712084547489208
 42
1.410536936096109
  0
ELLIPSE
  5
102
330
1F
100
AcDbEntity
  8
1
100
AcDbEllipse
 10
238.658367
 20
299.552948
 30
0.0
 11
0.0347045311535868
 21
-0.5002186356347424
 31
0.0
210
0.0
220
0.0
230
1.0
 40
0.985196
 41
6.249332441620249
 42
6.552670539220025
  0
ELLIPSE
  5
103
330
1F
100
AcDbEntity
  8
1
100
AcDbEllipse
 10
238.658367
 20
299.926382
 30
0.0
 11
0.0347045327002207
 21
0.5002186359607434
 31
0.0
210
0.0
220
0.0
230
0.9999999999999998
 40
0.985196
 41
6.013700078243286
 42
6.3170381757112
  0
ELLIPSE
  5
104
330
1F
100
AcDbEntity
  8
1
100
AcDbEllipse
 10
251.126714
 20
299.926382
 30
0.0
 11
0.0347045335551489
 21
-0.5002186360860837
 31
0.0
210
0.0
220
0.0
230
0.9999999999999998
 40
0.985196
 41
3.107739783405728
 42
3.411077880817571
  0
SPLINE
  5
107
330
1F
100
AcDbEntity
  8
1
100
AcDbSpline
210
0.0
220
0.0
230
1.0
 70
     8
 71
     3
 72
    10
 73
     6
 74
     0
 42
0.000000001
 43
0.0000000001
 40
0.0
 40
0.0
 40
0.0
 40
0.0
 40
0.5
 40
0.5
 40
1.0
 40
1.0
 40
1.0
 40
1.0
 10
236.7323665445201
 20
299.0012548571548
 30
0.0
 10
236.7434056343538
 20
298.996511201236
 30
0.0
 10
236.7547456450559
 20
298.9932222002875
 30
0.0
 10
236.7779493564454
 20
298.9893045871514
 30
0.0
 10
236.7898547806314
 20
298.988707911425
 30
0.0
 10
236.8015688890337
 20
298.9894327507646
 30
0.0
  0
SPLINE
  5
108
330
1F
100
AcDbEntity
  8
1
100
AcDbSpline
210
0.0
220
0.0
230
1.0
 70
     8
 71
     3
 72
    10
 73
     6
 74
     0
 42
0.000000001
 43
0.0000000001
 40
0.0
 40
0.0
 40
0.0
 40
0.0
 40
0.5
 40
0.5
 40
1.0
 40
1.0
 40
1.0
 40
1.0
 10
236.8015688890337
 20
300.4898971498759
 30
0.0
 10
236.7898622905745
 20
300.4906215245193
 30
0.0
 10
236.7782006156585
 20
300.4900476984266
 30
0.0
 10
236.7549899874913
 20
300.4861685672445
 30
0.0
 10
236.7434009417865
 20
300.4828166829408
 30
0.0
 10
236.7323665445201
 20
300.4780750434858
 30
0.0
  0
SPLINE
  5
109
330
1F
100
AcDbEntity
  8
1
100
AcDbSpline
210
0.0
220
0.0
230
1.0
 70
     8
 71
     3
 72
    10
 73
     6
 74
     0
 42
0.000000001
 43
0.0000000001
 40
0.0
 40
0.0
 40
0.0
 40
0.0
 40
0.5
 40
0.5
 40
1.0
 40
1.0
 40
1.0
 40
1.0
 10
253.0527152052259
 20
300.4780750434858
 30
0.0
 10
253.0416761153922
 20
300.4828186994045
 30
0.0
 10
253.03033610469
 20
300.486107700353
 30
0.0
 10
253.0071323933006
 20
300.4900253134892
 30
0.0
 10
252.9952269691146
 20
300.4906219892155
 30
0.0
 10
252.9835128607124
 20
300.4898971498759
 30
0.0
  0
SPLINE
  5
10A
330
1F
100
AcDbEntity
  8
1
100
AcDbSpline
210
0.0
220
0.0
230
1.0
 70
     8
 71
     3
 72
    18
 73
    14
 74
     0
 42
0.000000001
 43
0.0000000001
 40
0.0
 40
0.0
 40
0.0
 40
0.0
 40
0.1250000000000098
 40
0.1250000000000098
 40
0.2500000000000195
 40
0.2500000000000195
 40
0.3750000000000293
 40
0.3750000000000293
 40
0.5000000000000391
 40
0.5000000000000391
 40
0.7500000000000196
 40
0.7500000000000196
 40
1.0
 40
1.0
 40
1.0
 40
1.0
 10
250.4766181215489
 20
296.8593870498192
 30
0.0
 10
250.4458116282657
 20
296.8444334266848
 30
0.0
 10
250.414491345798
 20
296.8319622181625
 30
0.0
 10
250.3511046894982
 20
296.8106246027773
 30
0.0
 10
250.3190358623484
 20
296.8017700493203
 30
0.0
 10
250.2543348781304
 20
296.7867827171396
 30
0.0
 10
250.2217018010543
 20
296.7806543835097
 30
0.0
 10
250.1560118538261
 20
296.7704453072774
 30
0.0
 10
250.1229456474877
 20
296.7663677960079
 30
0.0
 10
250.0238275871921
 20
296.7564329736303
 30
0.0
 10
249.9576394105343
 20
296.7527721353253
 30
0.0
 10
249.8251588416445
 20
296.748270650182
 30
0.0
 10
249.7588665266165
 20
296.7474279141208
 30
0.0
 10
249.692540874873
 20
296.7474873073353
 30
0.0
  0
SPLINE
  5
10B
330
1F
100
AcDbEntity
  8
1
100
AcDbSpline
210
0.0
220
0.0
230
1.0
 70
     8
 71
     3
 72
    10
 73
     6
 74
     0
 42
0.000000001
 43
0.0000000001
 40
0.0
 40
0.0
 40
0.0
 40
0.0
 40
0.38503880833001
 40
0.38503880833001
 40
1.0
 40
1.0
 40
1.0
 40
1.0
 10
239.9362823331078
 20
300.1576394850104
 30
0.0
 10
239.8093153919282
 20
300.122521641125
 30
0.0
 10
239.682191125907
 20
300.0879831259938
 30
0.0
 10
239.3516717789428
 20
299.9996872551817
 30
0.0
 10
239.1480538495351
 20
299.9467657362897
 30
0.0
 10
238.944133962697
 20
299.8950866370673
 30
0.0
  0
SPLINE
  5
10C
330
1F
100
AcDbEntity
  8
1
100
AcDbSpline
210
0.0
220
0.0
230
1.0
 70
     8
 71
     3
 72
    48
 73
    44
 74
     0
 42
0.000000001
 43
0.0000000001
 40
0.0
 40
0.0
 40
0.0
 40
0.0
 40
0.0124207324933103
 40
0.0247001086950015
 40
0.0368511774866927
 40
0.0488874046491535
 40
0.0608226442650164
 40
0.072671104263763
 40
0.0844473062785133
 40
0.0961660401765065
 40
0.1078423138211342
 40
0.1194912988113857
 40
0.1311282731120682
 40
0.1427685616229417
 40
0.1544274758270997
 40
0.1661202537002536
 40
0.1778620010509484
 40
0.1896676353976259
 40
0.2015518333756143
 40
0.2135289825177757
 40
0.2256131380734745
 40
0.2378179853377914
 40
0.2501568077673346
 40
0.3132954725403081
 40
0.3744826246717057
 40
0.4359237155794239
 40
0.4997980102952696
 40
0.5504000224810248
 40
0.599508283260218
 40
0.6482945944925551
 40
0.6979536210375339
 40
0.7496195665686174
 40
0.773106043552613
 40
0.796142838261585
 40
0.8188260276242445
 40
0.8412562290357287
 40
0.8635374833473081
 40
0.885775917653221
 40
0.9080782657522082
 40
0.9305503459800702
 40
0.9532956028984052
 40
0.976413809206303
 40
1.0
 40
1.0
 40
1.0
 40
1.0
 10
240.1288851070408
 20
299.5842432635733
 30
0.0
 10
240.1285448542923
 20
299.5817424328725
 30
0.0
 10
240.1278682211004
 20
299.5767692326067
 30
0.0
 10
240.1265073191523
 20
299.5693818491273
 30
0.0
 10
240.1248993316214
 20
299.5621059291244
 30
0.0
 10
240.1230197983859
 20
299.5549434276537
 30
0.0
 10
240.1208751483614
 20
299.5478941533556
 30
0.0
 10
240.1184636614395
 20
299.5409584799927
 30
0.0
 10
240.1157857778372
 20
299.5341366298485
 30
0.0
 10
240.1128413723063
 20
299.5274288624649
 30
0.0
 10
240.1096304768683
 20
299.5208354236849
 30
0.0
 10
240.1061530893757
 20
299.5143565580899
 30
0.0
 10
240.1024092245008
 20
299.5079925045341
 30
0.0
 10
240.0983988999014
 20
299.5017434961594
 30
0.0
 10
240.0941221395183
 20
299.4956097592842
 30
0.0
 10
240.089578971438
 20
299.489591512662
 30
0.0
 10
240.0847694291874
 20
299.4836889670015
 30
0.0
 10
240.0796935436567
 20
299.4779023239304
 30
0.0
 10
240.0743513686148
 20
299.4722317779815
 30
0.0
 10
240.06874287966
 20
299.4666775080909
 30
0.0
 10
240.0628683510259
 20
299.4612397096176
 30
0.0
 10
240.0567269252604
 20
299.4559184739495
 30
0.0
 10
240.0415606680804
 20
299.4435952986963
 30
0.0
 10
240.0157018563046
 20
299.4263610191165
 30
0.0
 10
239.9761257995627
 20
299.4090219580248
 30
0.0
 10
239.9332928621207
 20
299.3985977458031
 30
0.0
 10
239.8915740637651
 20
299.3953526370128
 30
0.0
 10
239.8527953158078
 20
299.3973547269352
 30
0.0
 10
239.8183152597566
 20
299.4038433094768
 30
0.0
 10
239.7856762211126
 20
299.4148953724744
 30
0.0
 10
239.754932352585
 20
299.4304875967159
 30
0.0
 10
239.7318604197093
 20
299.4465407729949
 30
0.0
 10
239.7152303922786
 20
299.4605439174847
 30
0.0
 10
239.704259234146
 20
299.4710361706801
 30
0.0
 10
239.6942676020841
 20
299.4819519091502
 30
0.0
 10
239.6852562042278
 20
299.493291238622
 30
0.0
 10
239.6772260983085
 20
299.5050519695885
 30
0.0
 10
239.6701775535586
 20
299.5172321459103
 30
0.0
 10
239.6641126393851
 20
299.5298296093412
 30
0.0
 10
239.6590255040877
 20
299.5428415957363
 30
0.0
 10
239.6549388812848
 20
299.5562672781241
 30
0.0
 10
239.6517651999338
 20
299.5700983271189
 30
0.0
 10
239.6504951826755
 20
299.5794968931136
 30
0.0
 10
239.6498538111725
 20
299.5842432635732
 30
0.0
  0
SPLINE
  5
10D
330
1F
100
AcDbEntity
  8
1
100
AcDbSpline
210
0.0
220
0.0
230
1.0
 70
     8
 71
     3
 72
    10
 73
     6
 74
     0
 42
0.000000001
 43
0.0000000001
 40
0.0
 40
0.0
 40
0.0
 40
0.0
 40
0.385037397222936
 40
0.385037397222936
 40
1.0
 40
1.0
 40
1.0
 40
1.0
 10
238.944133962697
 20
299.5842432635733
 30
0.0
 10
239.0718132506076
 20
299.5518857005573
 30
0.0
 10
239.1993732831643
 20
299.5190407425904
 30
0.0
 10
239.5303163629152
 20
299.4323896502298
 30
0.0
 10
239.7335004482606
 20
299.3777779491935
 30
0.0
 10
239.9362823331077
 20
299.3216904156301
 30
0.0
  0
SPLINE
  5
10E
330
1F
100
AcDbEntity
  8
1
100
AcDbSpline
210
0.0
220
0.0
230
1.0
 70
     8
 71
     3
 72
     8
 73
     4
 74
     0
 42
0.000000001
 43
0.0000000001
 40
0.0
 40
0.0
 40
0.0
 40
0.0
 40
1.0
 40
1.0
 40
1.0
 40
1.0
 10
239.9362823331077
 20
299.3216904156301
 30
0.0
 10
240.02177785076
 20
299.2980431716002
 30
0.0
 10
240.1123722866516
 20
299.2849224544406
 30
0.0
 10
240.2021521823292
 20
299.2849224544406
 30
0.0
  0
SPLINE
  5
10F
330
1F
100
AcDbEntity
  8
1
100
AcDbSpline
210
0.0
220
0.0
230
1.0
 70
     8
 71
     3
 72
     8
 73
     4
 74
     0
 42
0.000000001
 43
0.0000000001
 40
0.0
 40
0.0
 40
0.0
 40
0.0
 40
1.0
 40
1.0
 40
1.0
 40
1.0
 10
250.193531326724
 20
297.9265059675428
 30
0.0
 10
250.1928978563218
 20
297.9142679221235
 30
0.0
 10
250.192540874873
 20
297.9030200558045
 30
0.0
 10
250.192540874873
 20
297.8927552072759
 30
0.0
  0
SPLINE
  5
110
330
1F
100
AcDbEntity
  8
1
100
AcDbSpline
210
0.0
220
0.0
230
1.0
 70
     8
 71
     3
 72
    40
 73
    36
 74
     0
 42
0.000000001
 43
0.0000000001
 40
0.0
 40
0.0
 40
0.0
 40
0.0
 40
0.1250000000000212
 40
0.1250000000000212
 40
0.1875000000000318
 40
0.1875000000000318
 40
0.2187500000000317
 40
0.2187500000000317
 40
0.2500000000000316
 40
0.2500000000000316
 40
0.3750000000000313
 40
0.3750000000000313
 40
0.4062500000000305
 40
0.4062500000000305
 40
0.4375000000000299
 40
0.4375000000000299
 40
0.5000000000000307
 40
0.5625000000000316
 40
0.5625000000000316
 40
0.6250000000000325
 40
0.6250000000000325
 40
0.7500000000000555
 40
0.7500000000000555
 40
0.8125000000000781
 40
0.8125000000000781
 40
0.8437500000000774
 40
0.8437500000000774
 40
0.8750000000000765
 40
0.9375000000000511
 40
0.9375000000000511
 40
0.968750000000038
 40
0.9843750000000316
 40
0.9921875000000159
 40
0.9921875000000159
 40
1.0
 40
1.0
 40
1.0
 40
1.0
 10
247.2145854054222
 20
298.1396649503203
 30
0.0
 10
247.2145854054222
 20
298.2068162322335
 30
0.0
 10
247.2078902738455
 20
298.2727824024451
 30
0.0
 10
247.1882508386461
 20
298.3700327618052
 30
0.0
 10
247.1800925592969
 20
298.4021642104449
 30
0.0
 10
247.165383463311
 20
298.4499237689736
 30
0.0
 10
247.1600505741804
 20
298.4658143623818
 30
0.0
 10
247.1486558356029
 20
298.497142580089
 30
0.0
 10
247.1425916748937
 20
298.5125967739914
 30
0.0
 10
247.1104768344719
 20
298.5888409157468
 30
0.0
 10
247.0790959717696
 20
298.6465801361061
 30
0.0
 10
247.0328541543428
 20
298.7147367717883
 30
0.0
 10
247.0232517866688
 20
298.7281653856722
 30
0.0
 10
247.0033283468183
 20
298.7546110056499
 30
0.0
 10
246.9930310344488
 20
298.767592789612
 30
0.0
 10
246.9613976028211
 20
298.8055143451906
 30
0.0
 10
246.9170588699062
 20
298.8536039397118
 30
0.0
 10
246.8685347681432
 20
298.8969026832904
 30
0.0
 10
246.817924866929
 20
298.9378129612966
 30
0.0
 10
246.7915339379541
 20
298.9571022335474
 30
0.0
 10
246.7094227027112
 20
299.0111173781743
 30
0.0
 10
246.65218511711
 20
299.0411366987785
 30
0.0
 10
246.5627795181791
 20
299.0776399313703
 30
0.0
 10
246.5323816827927
 20
299.088376112289
 30
0.0
 10
246.4858768798425
 20
299.1022981990685
 30
0.0
 10
246.4701926700977
 20
299.1065819713343
 30
0.0
 10
246.4386689955413
 20
299.1143701077504
 30
0.0
 10
246.3912395276684
 20
299.1248653836413
 30
0.0
 10
246.3433856531409
 20
299.1318594707621
 30
0.0
 10
246.2952511202774
 20
299.1365365117557
 30
0.0
 10
246.2711135643043
 20
299.1382947541342
 30
0.0
 10
246.242829235755
 20
299.1393233926654
 30
0.0
 10
246.2306806654194
 20
299.1395436268443
 30
0.0
 10
246.2225756596239
 20
299.139641240539
 30
0.0
 10
246.2185849289777
 20
299.1396649503203
 30
0.0
 10
246.2145854054222
 20
299.1396649503203
 30
0.0
  0
SPLINE
  5
111
330
1F
100
AcDbEntity
  8
1
100
AcDbSpline
210
0.0
220
0.0
230
1.0
 70
     8
 71
     3
 72
    19
 73
    15
 74
     0
 42
0.000000001
 43
0.0000000001
 40
0.0
 40
0.0
 40
0.0
 40
0.0
 40
0.2499999999999861
 40
0.2499999999999861
 40
0.374999999999979
 40
0.374999999999979
 40
0.4999999999999731
 40
0.4999999999999731
 40
0.7499999999999806
 40
0.7499999999999806
 40
0.8124999999999825
 40
0.8124999999999825
 40
0.8749999999999849
 40
1.0
 40
1.0
 40
1.0
 40
1.0
 10
249.323403040812
 20
298.5726776522124
 30
0.0
 10
249.3358237485962
 20
298.5408969543681
 30
0.0
 10
249.3475274047139
 20
298.50751484739
 30
0.0
 10
249.3635705424987
 20
298.4549071665867
 30
0.0
 10
249.3686679180414
 20
298.43694589765
 30
0.0
 10
249.3782998950473
 20
298.4001089179636
 30
0.0
 10
249.3827511564
 20
298.3815463089277
 30
0.0
 10
249.3949676722023
 20
298.3256665590035
 30
0.0
 10
249.4016217702191
 20
298.2880551735687
 30
0.0
 10
249.4081459152683
 20
298.2405998557116
 30
0.0
 10
249.4093552369625
 20
298.2311255475366
 30
0.0
 10
249.4115711844358
 20
298.2123952637124
 30
0.0
 10
249.4146026943969
 20
298.1845444174042
 30
0.0
 10
249.4168191944334
 20
298.1574197585792
 30
0.0
 10
249.4179883764685
 20
298.1396649503203
 30
0.0
  0
SPLINE
  5
112
330
1F
100
AcDbEntity
  8
1
100
AcDbSpline
210
0.0
220
0.0
230
1.0
 70
     8
 71
     3
 72
    35
 73
    31
 74
     0
 42
0.000000001
 43
0.0000000001
 40
0.0
 40
0.0
 40
0.0
 40
0.0
 40
0.0312499999999941
 40
0.0312499999999941
 40
0.0624999999999882
 40
0.1249999999999766
 40
0.1249999999999766
 40
0.2499999999999529
 40
0.2499999999999529
 40
0.2812499999999375
 40
0.2812499999999375
 40
0.3124999999999221
 40
0.3124999999999221
 40
0.3749999999999215
 40
0.3749999999999215
 40
0.4999999999999509
 40
0.4999999999999509
 40
0.5312499999999579
 40
0.5312499999999579
 40
0.562499999999965
 40
0.562499999999965
 40
0.6249999999999764
 40
0.6249999999999764
 40
0.7499999999999716
 40
0.7499999999999716
 40
0.8124999999999777
 40
0.8124999999999777
 40
0.874999999999984
 40
0.874999999999984
 40
1.0
 40
1.0
 40
1.0
 40
1.0
 10
248.4632463427291
 20
299.1396649503203
 30
0.0
 10
248.4753501935039
 20
299.1396649503203
 30
0.0
 10
248.4875198920552
 20
299.1394488262605
 30
0.0
 10
248.5117021996747
 20
299.1385857711888
 30
0.0
 10
248.5478226268849
 20
299.1366467886852
 30
0.0
 10
248.5834890538451
 20
299.132796091825
 30
0.0
 10
248.6542214018712
 20
299.1225660745191
 30
0.0
 10
248.7005788246346
 20
299.1123880336265
 30
0.0
 10
248.7574979767674
 20
299.0953383307245
 30
0.0
 10
248.7688301724863
 20
299.0917109655677
 30
0.0
 10
248.7913894590778
 20
299.0840136574286
 30
0.0
 10
248.8026118427719
 20
299.0799437707562
 30
0.0
 10
248.8357857859713
 20
299.0671937891707
 30
0.0
 10
248.8573589248528
 20
299.0579366168749
 30
0.0
 10
248.9205048826363
 20
299.0279702810086
 30
0.0
 10
248.9605121331263
 20
299.0050773048526
 30
0.0
 10
249.0079621882192
 20
298.9728915223973
 30
0.0
 10
249.0173236162916
 20
298.9662750054556
 30
0.0
 10
249.035788125896
 20
298.9526816037835
 30
0.0
 10
249.0448942385287
 20
298.945700853844
 30
0.0
 10
249.0715978753369
 20
298.9244007188339
 30
0.0
 10
249.0886614847921
 20
298.9096671345669
 30
0.0
 10
249.1377381054578
 20
298.8639397241519
 30
0.0
 10
249.1676471160402
 20
298.8314266108596
 30
0.0
 10
249.2084919800437
 20
298.7797550947703
 30
0.0
 10
249.2214676021485
 20
298.7619951991307
 30
0.0
 10
249.2459098910536
 20
298.7257573118977
 30
0.0
 10
249.2573517021028
 20
298.7073259542752
 30
0.0
 10
249.2894362219348
 20
298.6511335589402
 30
0.0
 10
249.3078479747542
 20
298.6124781903977
 30
0.0
 10
249.3234030408152
 20
298.5726776522138
 30
0.0
  0
SPLINE
  5
113
330
1F
100
AcDbEntity
  8
1
100
AcDbSpline
210
0.0
220
0.0
230
1.0
 70
     8
 71
     3
 72
    30
 73
    26
 74
     0
 42
0.000000001
 43
0.0000000001
 40
0.0
 40
0.0
 40
0.0
 40
0.0
 40
0.125000000000003
 40
0.125000000000003
 40
0.1875000000000079
 40
0.1875000000000079
 40
0.2500000000000127
 40
0.2500000000000127
 40
0.3750000000000224
 40
0.3750000000000224
 40
0.4375000000000207
 40
0.4375000000000207
 40
0.500000000000019
 40
0.500000000000019
 40
0.6250000000000062
 40
0.6250000000000062
 40
0.6562500000000071
 40
0.6562500000000071
 40
0.6875000000000079
 40
0.7500000000000038
 40
0.8124999999999998
 40
0.8124999999999998
 40
0.8749999999999957
 40
0.8749999999999957
 40
1.0
 40
1.0
 40
1.0
 40
1.0
 10
249.5078206924069
 20
297.2396649503203
 30
0.0
 10
249.5078206924068
 20
297.2065263500875
 30
0.0
 10
249.5082678941767
 20
297.1739496824772
 30
0.0
 10
249.5095743450163
 20
297.1258920760518
 30
0.0
 10
249.5101164327429
 20
297.1100084456087
 30
0.0
 10
249.511415711234
 20
297.0785183751251
 30
0.0
 10
249.5121759632096
 20
297.0628820730249
 30
0.0
 10
249.5147252316321
 20
297.0174227420221
 30
0.0
 10
249.516792503092
 20
296.9886883001316
 30
0.0
 10
249.5204095480178
 20
296.9479185070138
 30
0.0
 10
249.5217082292172
 20
296.9346619206018
 30
0.0
 10
249.5244487877264
 20
296.9092421098592
 30
0.0
 10
249.5258820799248
 20
296.8971456720259
 30
0.0
 10
249.5303563105474
 20
296.8626390453384
 30
0.0
 10
249.5335700137094
 20
296.8419946192963
 30
0.0
 10
249.5378534249708
 20
296.8192092548994
 30
0.0
 10
249.5387250140604
 20
296.8147986190455
 30
0.0
 10
249.5404759505631
 20
296.8063770866373
 30
0.0
 10
249.5431201965998
 20
296.7943099684513
 30
0.0
 10
249.547609810741
 20
296.776966375747
 30
0.0
 10
249.5512794079668
 20
296.7660031920127
 30
0.0
 10
249.5549848363234
 20
296.7565177118748
 30
0.0
 10
249.5568642050316
 20
296.752501012352
 30
0.0
 10
249.5624765229676
 20
296.7428863851031
 30
0.0
 10
249.5661819054379
 20
296.7396649503204
 30
0.0
 10
249.5698461911076
 20
296.7396649503204
 30
0.0
  0
SPLINE
  5
114
330
1F
100
AcDbEntity
  8
1
100
AcDbSpline
210
0.0
220
0.0
230
1.0
 70
     8
 71
     3
 72
    13
 73
     9
 74
     0
 42
0.000000001
 43
0.0000000001
 40
0.0
 40
0.0
 40
0.0
 40
0.0
 40
0.25
 40
0.5
 40
0.5
 40
0.75
 40
0.75
 40
1.0
 40
1.0
 40
1.0
 40
1.0
 10
249.4528296010148
 20
297.8896649503203
 30
0.0
 10
249.4490161382599
 20
297.9037572922803
 30
0.0
 10
249.4417694796652
 20
297.9356606862717
 30
0.0
 10
249.4353093983995
 20
297.9747282731543
 30
0.0
 10
249.4292926036611
 20
298.017554677501
 30
0.0
 10
249.4265887836971
 20
298.0402637742992
 30
0.0
 10
249.4218077586415
 20
298.0881000059217
 30
0.0
 10
249.4197284636497
 20
298.1132405670034
 30
0.0
 10
249.4179883764682
 20
298.1396649503203
 30
0.0
  0
SPLINE
  5
115
330
1F
100
AcDbEntity
  8
1
100
AcDbSpline
210
0.0
220
0.0
230
1.0
 70
     8
 71
     3
 72
    18
 73
    14
 74
     0
 42
0.000000001
 43
0.0000000001
 40
0.0
 40
0.0
 40
0.0
 40
0.0
 40
0.2499999999999887
 40
0.2499999999999887
 40
0.4999999999999776
 40
0.4999999999999776
 40
0.5624999999999777
 40
0.5624999999999777
 40
0.6249999999999777
 40
0.6249999999999777
 40
0.7499999999999824
 40
0.7499999999999824
 40
1.0
 40
1.0
 40
1.0
 40
1.0
 10
249.6875262825371
 20
298.0396447596812
 30
0.0
 10
249.6907949188395
 20
298.0721606487537
 30
0.0
 10
249.6921006500692
 20
298.1009373112621
 30
0.0
 10
249.6927895788174
 20
298.1507150396728
 30
0.0
 10
249.6921711999627
 20
298.171721532414
 30
0.0
 10
249.6911306110387
 20
298.1929243582249
 30
0.0
 10
249.6909079237121
 20
298.1969118628559
 30
0.0
 10
249.6904520428397
 20
298.2043740999824
 30
0.0
 10
249.6902185783218
 20
298.2078520640986
 30
0.0
 10
249.6895318581682
 20
298.2174473969574
 30
0.0
 10
249.6890924330211
 20
298.2227495928011
 30
0.0
 10
249.6879790146218
 20
298.2354520756967
 30
0.0
 10
249.6875271417354
 20
298.2396758890007
 30
0.0
 10
249.6875288173123
 20
298.2396602267992
 30
0.0
  0
SPLINE
  5
116
330
1F
100
AcDbEntity
  8
1
100
AcDbSpline
210
0.0
220
0.0
230
1.0
 70
     8
 71
     3
 72
    20
 73
    16
 74
     0
 42
0.000000001
 43
0.0000000001
 40
0.0
 40
0.0
 40
0.0
 40
0.0
 40
0.1249999999999952
 40
0.1249999999999952
 40
0.2499999999999905
 40
0.2499999999999905
 40
0.3749999999999857
 40
0.3749999999999857
 40
0.4374999999999602
 40
0.4374999999999602
 40
0.4999999999999347
 40
0.4999999999999347
 40
0.7499999999999674
 40
0.7499999999999674
 40
1.0
 40
1.0
 40
1.0
 40
1.0
 10
250.4750878038763
 20
297.770665949747
 30
0.0
 10
250.446293053225
 20
297.7932939950685
 30
0.0
 10
250.4164662266747
 20
297.8138754407956
 30
0.0
 10
250.3551432967313
 20
297.851645647276
 30
0.0
 10
250.3236453183824
 20
297.8688309883945
 30
0.0
 10
250.2592622887
 20
297.9003032500827
 30
0.0
 10
250.226376315807
 20
297.914588515215
 30
0.0
 10
250.1761688085134
 20
297.934121458754
 30
0.0
 10
250.1592521681219
 20
297.9403273880286
 30
0.0
 10
250.1253069023018
 20
297.9520895240603
 30
0.0
 10
250.1083315895864
 20
297.9576290321142
 30
0.0
 10
250.0234775822933
 20
297.9837774044072
 30
0.0
 10
249.9556809718411
 20
297.9998138008038
 30
0.0
 10
249.8209032215913
 20
298.0247890539477
 30
0.0
 10
249.7539164031804
 20
298.0337085682365
 30
0.0
 10
249.687526282538
 20
298.0396447596839
 30
0.0
  0
SPLINE
  5
117
330
1F
100
AcDbEntity
  8
1
100
AcDbSpline
210
0.0
220
0.0
230
1.0
 70
     8
 71
     3
 72
    47
 73
    43
 74
     0
 42
0.000000001
 43
0.0000000001
 40
0.0
 40
0.0
 40
0.0
 40
0.0
 40
0.0254776977927077
 40
0.0508827366623329
 40
0.0762187260155999
 40
0.1014893084285218
 40
0.1266981582442706
 40
0.1518489801029438
 40
0.1769455074050152
 40
0.2019915007108297
 40
0.2269907460789211
 40
0.2519470533457508
 40
0.2768642543504851
 40
0.3017462011079352
 40
0.3265967639337137
 40
0.3514198295254214
 40
0.3762192990041572
 40
0.4009990859209183
 40
0.4257631142324086
 40
0.4505153162511252
 40
0.4752596305747354
 40
0.4999999999997636
 40
0.5247403694247971
 40
0.549484683748411
 40
0.5742368857671342
 40
0.5990009140786274
 40
0.6237807009954021
 40
0.648580170474152
 40
0.6734032360658709
 40
0.6982537988916687
 40
0.7231357456491407
 40
0.7480529466538901
 40
0.7730092539207504
 40
0.7980084992888714
 40
0.8230544925947185
 40
0.8481510198968237
 40
0.8733018417555269
 40
0.8985106915713082
 40
0.9237812739842656
 40
0.9491172633375803
 40
0.974522302207244
 40
1.0
 40
1.0
 40
1.0
 40
1.0
 10
239.6498538111725
 20
299.5842432635733
 30
0.0
 10
239.6491890701186
 20
299.5865819604937
 30
0.0
 10
239.6478614837618
 20
299.5912526846895
 30
0.0
 10
239.6459938229032
 20
299.5984155083181
 30
0.0
 10
239.6442206221201
 20
299.6056733819392
 30
0.0
 10
239.6425504724175
 20
299.6130332091214
 30
0.0
 10
239.6409810816183
 20
299.6204862537269
 30
0.0
 10
239.6395130621041
 20
299.6280278642568
 30
0.0
 10
239.6381462508862
 20
299.635652214633
 30
0.0
 10
239.6368806919752
 20
299.6433537134103
 30
0.0
 10
239.6357163740758
 20
299.6511266328055
 30
0.0
 10
239.6346533006381
 20
299.6589652131285
 30
0.0
 10
239.6336914711428
 20
299.6668636402972
 30
0.0
 10
239.6328308861006
 20
299.6748160573009
 30
0.0
 10
239.6320715457131
 20
299.6828165666387
 30
0.0
 10
239.63141345023
 20
299.6908592352069
 30
0.0
 10
239.6308565998522
 20
299.6989380985675
 30
0.0
 10
239.6304009947558
 20
299.707047165413
 30
0.0
 10
239.6300466350851
 20
299.7151804220052
 30
0.0
 10
239.6297935209533
 20
299.7233318366434
 30
0.0
 10
239.6296416524416
 20
299.7314953641419
 30
0.0
 10
239.629591029599
 20
299.7396649503202
 30
0.0
 10
239.6296416524416
 20
299.7478345364985
 30
0.0
 10
239.6297935209533
 20
299.7559980639971
 30
0.0
 10
239.6300466350851
 20
299.7641494786352
 30
0.0
 10
239.6304009947558
 20
299.7722827352273
 30
0.0
 10
239.6308565998522
 20
299.7803918020729
 30
0.0
 10
239.63141345023
 20
299.7884706654335
 30
0.0
 10
239.632071545713
 20
299.7965133340017
 30
0.0
 10
239.6328308861006
 20
299.8045138433395
 30
0.0
 10
239.6336914711428
 20
299.8124662603434
 30
0.0
 10
239.634653300638
 20
299.8203646875119
 30
0.0
 10
239.6357163740758
 20
299.828203267835
 30
0.0
 10
239.6368806919752
 20
299.83597618723
 30
0.0
 10
239.6381462508862
 20
299.8436776860075
 30
0.0
 10
239.6395130621041
 20
299.8513020363836
 30
0.0
 10
239.6409810816183
 20
299.8588436469137
 30
0.0
 10
239.6425504724175
 20
299.8662966915192
 30
0.0
 10
239.6442206221201
 20
299.8736565187014
 30
0.0
 10
239.6459938229032
 20
299.8809143923224
 30
0.0
 10
239.6478614837618
 20
299.8880772159511
 30
0.0
 10
239.6491890701186
 20
299.8927479401469
 30
0.0
 10
239.6498538111725
 20
299.8950866370673
 30
0.0
  0
SPLINE
  5
118
330
1F
100
AcDbEntity
  8
1
100
AcDbSpline
210
0.0
220
0.0
230
1.0
 70
     8
 71
     3
 72
    48
 73
    44
 74
     0
 42
0.000000001
 43
0.0000000001
 40
0.0
 40
0.0
 40
0.0
 40
0.0
 40
0.0358156475416153
 40
0.0702494267464778
 40
0.1033030244186046
 40
0.1349783493482655
 40
0.1652775722520615
 40
0.194203175042514
 40
0.2217580121358738
 40
0.2479453874559857
 40
0.2727691521355422
 40
0.296233829842002
 40
0.3183447794571788
 40
0.3391084089795912
 40
0.3585324607313126
 40
0.3766263974306743
 40
0.3934019333934397
 40
0.4088737782794999
 40
0.4230606977505201
 40
0.4359870548221231
 40
0.4476850908926206
 40
0.458198353703652
 40
0.4675868909128364
 40
0.4759350543541576
 40
0.4833627237056621
 40
0.4900395428720559
 40
0.4961975230437046
 40
0.5021298618700662
 40
0.512511576910017
 40
0.5246289801913264
 40
0.5393866726162965
 40
0.5572935032981965
 40
0.5786342422817594
 40
0.6035763231738796
 40
0.6322241062010102
 40
0.6646461870901744
 40
0.7008897353937544
 40
0.7409884328828235
 40
0.7849670991978758
 40
0.8328445136065838
 40
0.8846352068339198
 40
0.9403506393279531
 40
1.0
 40
1.0
 40
1.0
 40
1.0
 10
238.944133962697
 20
299.8950866370673
 30
0.0
 10
238.9318119472988
 20
299.8932349541771
 30
0.0
 10
238.9076433344856
 20
299.8896030315269
 30
0.0
 10
238.8721559008757
 20
299.8839179919407
 30
0.0
 10
238.838134559112
 20
299.8781940481416
 30
0.0
 10
238.8055825503486
 20
299.8724121273883
 30
0.0
 10
238.7744989992185
 20
299.8665809305096
 30
0.0
 10
238.7448840521334
 20
299.8607021769747
 30
0.0
 10
238.716737581046
 20
299.8547793445665
 30
0.0
 10
238.6900595030725
 20
299.8488154772524
 30
0.0
 10
238.6648496931095
 20
299.8428137333491
 30
0.0
 10
238.641107995351
 20
299.8367772488892
 30
0.0
 10
238.6188342061337
 20
299.8307091712539
 30
0.0
 10
238.5980280580499
 20
299.8246126494931
 30
0.0
 10
238.5786891952109
 20
299.8184908328428
 30
0.0
 10
238.5608171381361
 20
299.8123468618122
 30
0.0
 10
238.5444112328623
 20
299.8061838499593
 30
0.0
 10
238.529470577138
 20
299.8000048455704
 30
0.0
 10
238.5159939158301
 20
299.7938127535176
 30
0.0
 10
238.5039794954259
 20
299.7876101785234
 30
0.0
 10
238.4934248933415
 20
299.7813991132218
 30
0.0
 10
238.4843268537739
 20
299.7751803355244
 30
0.0
 10
238.4766814576238
 20
299.7689522855828
 30
0.0
 10
238.4704850183877
 20
299.7627092656107
 30
0.0
 10
238.4657382500901
 20
299.7564393755106
 30
0.0
 10
238.4624527913227
 20
299.7501259303972
 30
0.0
 10
238.4606661069942
 20
299.7437599767949
 30
0.0
 10
238.4603497957871
 20
299.7358351126184
 30
0.0
 10
238.4632905648174
 20
299.726079459459
 30
0.0
 10
238.4709705717781
 20
299.7154002988358
 30
0.0
 10
238.482650102007
 20
299.7049246286557
 30
0.0
 10
238.4983801056271
 20
299.6945181377938
 30
0.0
 10
238.5182052435482
 20
299.6841336151012
 30
0.0
 10
238.5421641977605
 20
299.6737709018516
 30
0.0
 10
238.5702764451162
 20
299.6634411370978
 30
0.0
 10
238.6025540656102
 20
299.6531599796961
 30
0.0
 10
238.6390038224286
 20
299.6429437875351
 30
0.0
 10
238.6796298946648
 20
299.6328087766974
 30
0.0
 10
238.7244350036493
 20
299.6227718780615
 30
0.0
 10
238.7734203713466
 20
299.6128457567423
 30
0.0
 10
238.8265891700813
 20
299.603059964965
 30
0.0
 10
238.883933681907
 20
299.5933724037435
 30
0.0
 10
238.9236161463796
 20
299.5873547112059
 30
0.0
 10
238.944133962697
 20
299.5842432635733
 30
0.0
  0
SPLINE
  5
119
330
1F
100
AcDbEntity
  8
1
100
AcDbSpline
210
0.0
220
0.0
230
1.0
 70
     8
 71
     3
 72
    47
 73
    43
 74
     0
 42
0.000000001
 43
0.0000000001
 40
0.0
 40
0.0
 40
0.0
 40
0.0
 40
0.0254779545942438
 40
0.050883035602319
 40
0.0762189084884904
 40
0.1014892651199255
 40
0.1266978226102464
 40
0.1518483221145426
 40
0.1769445275777691
 40
0.2019902244379422
 40
0.2269892182862293
 40
0.2519453334859189
 40
0.2768624117525854
 40
0.301744310698
 40
0.326594902340441
 40
0.3514180715841461
 40
0.3762177146710827
 40
0.4009977376079831
 40
0.4257620545721192
 40
0.450514586299004
 40
0.4752592584556278
 40
0.5000000000027582
 40
0.5247407415498737
 40
0.5494854137064597
 40
0.5742379454332748
 40
0.5990022623973146
 40
0.623782285334089
 40
0.6485819284208667
 40
0.6734050976643978
 40
0.6982556893066276
 40
0.7231375882518165
 40
0.7480546665182026
 40
0.7730107817176056
 40
0.7980097755655712
 40
0.8230554724253961
 40
0.8481516778882493
 40
0.8733021773921532
 40
0.8985107348820479
 40
0.9237810915130332
 40
0.9491169643987051
 40
0.9745220454062764
 40
1.0
 40
1.0
 40
1.0
 40
1.0
 10
240.1288851070408
 20
299.8950866370673
 30
0.0
 10
240.1295740976905
 20
299.8927479446467
 30
0.0
 10
240.1309501082972
 20
299.8880772490748
 30
0.0
 10
240.1328859082802
 20
299.8809144140027
 30
0.0
 10
240.1347237999126
 20
299.8736565347564
 30
0.0
 10
240.1364548810823
 20
299.8662967012905
 30
0.0
 10
240.1380815270079
 20
299.8588436514755
 30
0.0
 10
240.13960310318
 20
299.8513020363739
 30
0.0
 10
240.1410197785296
 20
299.8436776821881
 30
0.0
 10
240.1423315074934
 20
299.8359761803268
 30
0.0
 10
240.1435383018149
 20
299.8282032585681
 30
0.0
 10
240.1446401579564
 20
299.8203646765764
 30
0.0
 10
240.1456370764913
 20
299.8124662484029
 30
0.0
 10
240.1465290569234
 20
299.8045138310177
 30
0.0
 10
240.1473160990741
 20
299.796513321874
 30
0.0
 10
240.1479982027117
 20
299.7884706540204
 30
0.0
 10
240.1485753676526
 20
299.7803917918333
 30
0.0
 10
240.1490475937346
 20
299.7722827265525
 30
0.0
 10
240.1494148808261
 20
299.7641494718442
 30
0.0
 10
240.1496772288229
 20
299.7559980593329
 30
0.0
 10
240.1498346376508
 20
299.7478345341249
 30
0.0
 10
240.1498871072652
 20
299.7396649503193
 30
0.0
 10
240.1498346376509
 20
299.7314953665137
 30
0.0
 10
240.149677228823
 20
299.7233318413057
 30
0.0
 10
240.1494148808262
 20
299.7151804287944
 30
0.0
 10
240.1490475937349
 20
299.7070471740861
 30
0.0
 10
240.1485753676528
 20
299.6989381088055
 30
0.0
 10
240.1479982027121
 20
299.6908592466183
 30
0.0
 10
240.1473160990744
 20
299.6828165787648
 30
0.0
 10
240.146529056924
 20
299.6748160696212
 30
0.0
 10
240.1456370764917
 20
299.6668636522361
 30
0.0
 10
240.144640157957
 20
299.6589652240627
 30
0.0
 10
240.1435383018154
 20
299.6511266420711
 30
0.0
 10
240.142331507494
 20
299.6433537203125
 30
0.0
 10
240.1410197785302
 20
299.6356522184513
 30
0.0
 10
240.1396031031808
 20
299.6280278642656
 30
0.0
 10
240.1380815270086
 20
299.6204862491641
 30
0.0
 10
240.1364548810832
 20
299.6130331993493
 30
0.0
 10
240.1347237999134
 20
299.6056733658835
 30
0.0
 10
240.1328859082811
 20
299.5984154866374
 30
0.0
 10
240.1309501082982
 20
299.5912526515653
 30
0.0
 10
240.1295740976915
 20
299.5865819559936
 30
0.0
 10
240.1288851070418
 20
299.5842432635731
 30
0.0
  0
SPLINE
  5
11A
330
1F
100
AcDbEntity
  8
1
100
AcDbSpline
210
0.0
220
0.0
230
1.0
 70
     8
 71
     3
 72
    51
 73
    47
 74
     0
 42
0.000000001
 43
0.0000000001
 40
0.0
 40
0.0
 40
0.0
 40
0.0
 40
0.0177716387130979
 40
0.0353385193255538
 40
0.0527195116097385
 40
0.0699337981792567
 40
0.0870008098319557
 40
0.1039401559850838
 40
0.1207715509745316
 40
0.137514737159821
 40
0.1541894059193656
 40
0.1708151177242729
 40
0.187411222537958
 40
0.2039967817951692
 40
0.2205904931698089
 40
0.2372106192451527
 40
0.2538749210618078
 40
0.2706005973466759
 40
0.2874042300293689
 40
0.3043017364478354
 40
0.3213083284374099
 40
0.3384384783057586
 40
0.3557058915213573
 40
0.3731234857956208
 40
0.3907033761227558
 40
0.4084568652541777
 40
0.4263944390294661
 40
0.4445257659577707
 40
0.4628597004412893
 40
0.4814042890488627
 40
0.5001667792833011
 40
0.5360987316908548
 40
0.5712690697203132
 40
0.6057372585341668
 40
0.6395737267511093
 40
0.672859882724627
 40
0.7056879270644398
 40
0.7381604102092544
 40
0.7703894931417138
 40
0.8024958881893887
 40
0.8346074845231171
 40
0.8668576960896762
 40
0.899383602546103
 40
0.9323239794393147
 40
0.9658173265351276
 40
1.0
 40
1.0
 40
1.0
 40
1.0
 10
239.7869692301285
 20
299.5842457376694
 30
0.0
 10
239.7871760137709
 20
299.582743871001
 30
0.0
 10
239.7875871985729
 20
299.5797574416038
 30
0.0
 10
239.7885237184913
 20
299.5753454826521
 30
0.0
 10
239.7896863894087
 20
299.5710242485563
 30
0.0
 10
239.7910940098638
 20
299.5668007095185
 30
0.0
 10
239.7927365355677
 20
299.5626789196414
 30
0.0
 10
239.79461131551
 20
299.5586638023848
 30
0.0
 10
239.7967135284288
 20
299.5547601494311
 30
0.0
 10
239.7990387129648
 20
299.5509728833389
 30
0.0
 10
239.8015820976167
 20
299.5473069855952
 30
0.0
 10
239.8043387771399
 20
299.543767512951
 30
0.0
 10
239.8073036629457
 20
299.540359589922
 30
0.0
 10
239.8104714922056
 20
299.5370884071676
 30
0.0
 10
239.8138368199473
 20
299.533959217783
 30
0.0
 10
239.8173940143111
 20
299.5309773335478
 30
0.0
 10
239.8211372495819
 20
299.5281481204912
 30
0.0
 10
239.8250604984447
 20
299.5254769938364
 30
0.0
 10
239.8291575230956
 20
299.5229694121801
 30
0.0
 10
239.833421865342
 20
299.5206308708091
 30
0.0
 10
239.8378468357088
 20
299.5184668940295
 30
0.0
 10
239.8424255016309
 20
299.5164830263925
 30
0.0
 10
239.8471506747709
 20
299.5146848226696
 30
0.0
 10
239.8520148977034
 20
299.5130778365251
 30
0.0
 10
239.8570104295371
 20
299.511667607494
 30
0.0
 10
239.862129232643
 20
299.51045964715
 30
0.0
 10
239.8673629529064
 20
299.5094594205612
 30
0.0
 10
239.8727029229223
 20
299.5086723372721
 30
0.0
 10
239.8781400773205
 20
299.5081036973179
 30
0.0
 10
239.8836652014908
 20
299.507758798558
 30
0.0
 10
239.8909543947868
 20
299.5076073911002
 30
0.0
 10
239.8999049621177
 20
299.5079610531131
 30
0.0
 10
239.9103364838846
 20
299.5092227146431
 30
0.0
 10
239.920392763925
 20
299.5112842184647
 30
0.0
 10
239.930010586628
 20
299.5141076068624
 30
0.0
 10
239.93913152517
 20
299.5176539297789
 30
0.0
 10
239.947700755446
 20
299.5218838630032
 30
0.0
 10
239.9556668787258
 20
299.5267579405476
 30
0.0
 10
239.9629815975881
 20
299.5322367873396
 30
0.0
 10
239.9695992963452
 20
299.5382813005561
 30
0.0
 10
239.9754774957988
 20
299.544852715018
 30
0.0
 10
239.9805742780275
 20
299.5519129623614
 30
0.0
 10
239.9848573910343
 20
299.5594238265205
 30
0.0
 10
239.9882694289583
 20
299.5673505952709
 30
0.0
 10
239.9908603355028
 20
299.5756485605009
 30
0.0
 10
239.9917958402029
 20
299.5813606182137
 30
0.0
 10
239.9922683569292
 20
299.5842457376694
 30
0.0
  0
SPLINE
  5
11B
330
1F
100
AcDbEntity
  8
1
100
AcDbSpline
210
0.0
220
0.0
230
1.0
 70
     8
 71
     3
 72
    50
 73
    46
 74
     0
 42
0.000000001
 43
0.0000000001
 40
0.0
 40
0.0
 40
0.0
 40
0.0
 40
0.0177658143840701
 40
0.0353309655102195
 40
0.0527140153798951
 40
0.0699337961843616
 40
0.0870093491893383
 40
0.1039598592792922
 40
0.1208045858740637
 40
0.1375627910781317
 40
0.1542536660448373
 40
0.1708962566260723
 40
0.1875093894249726
 40
0.2041115993726207
 40
0.2207210599058889
 40
0.2373555167392337
 40
0.2540322260985902
 40
0.2707678981348702
 40
0.2875786460601687
 40
0.3044799413706936
 40
0.3214865753371753
 40
0.3386126267749902
 40
0.3558714359505048
 40
0.3732755843508302
 40
0.390836879938236
 40
0.4085663474331497
 40
0.4264742231177762
 40
0.4445699536268419
 40
0.4628621981867503
 40
0.48135883377816
 40
0.5000669627260537
 40
0.5386412269683405
 40
0.5763190096507327
 40
0.6131765191881249
 40
0.6493049227768517
 40
0.6848103529057264
 40
0.7198135664094795
 40
0.7544491647469151
 40
0.7888643070329532
 40
0.8232168904587048
 40
0.8576732324510846
 40
0.8924053550696115
 40
0.9275880297806311
 40
0.9633957749496333
 40
1.0
 40
1.0
 40
1.0
 40
1.0
 10
239.9922683569292
 20
299.8950841629711
 30
0.0
 10
239.9920456005893
 20
299.8965855129232
 30
0.0
 10
239.9916026039223
 20
299.8995712552162
 30
0.0
 10
239.9906171276862
 20
299.9039827549161
 30
0.0
 10
239.9894052878616
 20
299.9083043570672
 30
0.0
 10
239.9879484464592
 20
299.9125289070163
 30
0.0
 10
239.9862569755473
 20
299.9166521668369
 30
0.0
 10
239.9843337930758
 20
299.9206690544127
 30
0.0
 10
239.9821839894201
 20
299.9245746375629
 30
0.0
 10
239.9798122797582
 20
299.9283638722743
 30
0.0
 10
239.9772236788664
 20
299.9320316734897
 30
0.0
 10
239.9744233234354
 20
299.9355728980992
 30
0.0
 10
239.9714165220884
 20
299.9389823516181
 30
0.0
 10
239.9682087462843
 20
299.9422547890152
 30
0.0
 10
239.9648056383865
 20
299.9453849176197
 30
0.0
 10
239.9612130165707
 20
299.9483674000828
 30
0.0
 10
239.95743688199
 20
299.9511968580354
 30
0.0
 10
239.9534834267344
 20
299.9538678763874
 30
0.0
 10
239.9493590429473
 20
299.9563750084112
 30
0.0
 10
239.9450703329611
 20
299.9587127817118
 30
0.0
 10
239.940624120429
 20
299.960875705206
 30
0.0
 10
239.9360274623702
 20
299.9628582772338
 30
0.0
 10
239.9312876620888
 20
299.9646549949222
 30
0.0
 10
239.9264122827075
 20
299.9662603649431
 30
0.0
 10
239.9214091618134
 20
299.9676689157308
 30
0.0
 10
239.9162864247724
 20
299.968875211482
 30
0.0
 10
239.9110525053437
 20
299.9698738672853
 30
0.0
 10
239.9057161401992
 20
299.9706595683846
 30
0.0
 10
239.9002864631884
 20
299.971227082691
 30
0.0
 10
239.8947727212756
 20
299.9715713082967
 30
0.0
 10
239.8872296177357
 20
299.9717277646528
 30
0.0
 10
239.8777743996471
 20
299.9713274963995
 30
0.0
 10
239.8666237674628
 20
299.9698800570016
 30
0.0
 10
239.8559303512262
 20
299.9675193229297
 30
0.0
 10
239.8457703965246
 20
299.9642930687933
 30
0.0
 10
239.8362138265691
 20
299.9602498528239
 30
0.0
 10
239.8273258425789
 20
299.9554385570379
 30
0.0
 10
239.8191670850669
 20
299.9499079865547
 30
0.0
 10
239.8117942995464
 20
299.9437065568051
 30
0.0
 10
239.8052598674764
 20
299.9368821369836
 30
0.0
 10
239.7996147869579
 20
299.9294815643337
 30
0.0
 10
239.7948983526195
 20
299.9215515415294
 30
0.0
 10
239.7911777002539
 20
299.9131343713923
 30
0.0
 10
239.7883972866611
 20
299.9042833857764
 30
0.0
 10
239.7874487267994
 20
299.8981729739594
 30
0.0
 10
239.7869692301285
 20
299.8950841629712
 30
0.0
  0
SPLINE
  5
11C
330
1F
100
AcDbEntity
  8
1
100
AcDbSpline
210
0.0
220
0.0
230
1.0
 70
     8
 71
     3
 72
    10
 73
     6
 74
     0
 42
0.000000001
 43
0.0000000001
 40
0.0
 40
0.0
 40
0.0
 40
0.0
 40
0.5
 40
0.5
 40
1.0
 40
1.0
 40
1.0
 40
1.0
 10
238.8230233046814
 20
299.0798870742482
 30
0.0
 10
238.8784755906575
 20
299.0996647820518
 30
0.0
 10
238.9354912367961
 20
299.1146296028844
 30
0.0
 10
239.0513810283142
 20
299.1346536203596
 30
0.0
 10
239.1097917748562
 20
299.1396649503203
 30
0.0
 10
239.1685839924484
 20
299.1396649503203
 30
0.0
  0
SPLINE
  5
11D
330
1F
100
AcDbEntity
  8
1
100
AcDbSpline
210
0.0
220
0.0
230
1.0
 70
     8
 71
     2
 72
    11
 73
     8
 74
     0
 42
0.000000001
 43
0.0000000001
 40
0.0
 40
0.0
 40
0.0
 40
0.25
 40
0.25
 40
0.5
 40
0.75
 40
0.75
 40
1.0
 40
1.0
 40
1.0
 10
238.9143399103979
 20
299.4806316921874
 30
0.0
 10
238.7523705953019
 20
299.5206518000676
 30
0.0
 10
238.6417915642932
 20
299.5648830038675
 30
0.0
 10
238.4314866386422
 20
299.6490041970243
 30
0.0
 10
238.4306068312202
 20
299.8290676094035
 30
0.0
 10
238.6421265017966
 20
299.9146275059165
 30
0.0
 10
238.7489196200901
 20
299.9578254180756
 30
0.0
 10
238.9143399103976
 20
299.998698208454
 30
0.0
  0
SPLINE
  5
11E
330
1F
100
AcDbEntity
  8
1
100
AcDbSpline
210
0.0
220
0.0
230
1.0
 70
     8
 71
     3
 72
    10
 73
     6
 74
     0
 42
0.000000001
 43
0.0000000001
 40
0.0
 40
0.0
 40
0.0
 40
0.0
 40
0.5
 40
0.5
 40
1.0
 40
1.0
 40
1.0
 40
1.0
 10
239.1685839924486
 20
300.3396649503203
 30
0.0
 10
239.109791687785
 20
300.3396649503202
 30
0.0
 10
239.0511027768451
 20
300.3447081717852
 30
0.0
 10
238.9352180604544
 20
300.3647637619076
 30
0.0
 10
238.8784761148074
 20
300.3796649316445
 30
0.0
 10
238.8230233046814
 20
300.3994428263924
 30
0.0
  0
SPLINE
  5
11F
330
1F
100
AcDbEntity
  8
1
100
AcDbSpline
210
0.0
220
0.0
230
1.0
 70
     8
 71
     3
 72
    10
 73
     6
 74
     0
 42
0.000000001
 43
0.0000000001
 40
0.0
 40
0.0
 40
0.0
 40
0.0
 40
0.5
 40
0.5
 40
1.0
 40
1.0
 40
1.0
 40
1.0
 10
250.9620584450647
 20
300.3994428263923
 30
0.0
 10
250.9066061590886
 20
300.3796651185887
 30
0.0
 10
250.84959051295
 20
300.3647002977559
 30
0.0
 10
250.7337007214318
 20
300.3446762802809
 30
0.0
 10
250.6752899748897
 20
300.3396649503202
 30
0.0
 10
250.6164977572975
 20
300.3396649503203
 30
0.0
  0
SPLINE
  5
120
330
1F
100
AcDbEntity
  8
1
100
AcDbSpline
210
0.0
220
0.0
230
1.0
 70
     8
 71
     3
 72
    48
 73
    44
 74
     0
 42
0.000000001
 43
0.0000000001
 40
0.0
 40
0.0
 40
0.0
 40
0.0
 40
0.012420164179955
 40
0.0246990204613327
 40
0.0368496164207627
 40
0.0488854171873598
 40
0.0608202768517323
 40
0.072668404010198
 40
0.0844443216133948
 40
0.0961628214806541
 40
0.1078389140380653
 40
0.1194877740257899
 40
0.1311246830889875
 40
0.1427649703014164
 40
0.1544239517623191
 40
0.1661168704506441
 40
0.1778588375074592
 40
0.1896647760537365
 40
0.2015493685390601
 40
0.2135270084651284
 40
0.2256117571507499
 40
0.2378173060109401
 40
0.2501569446271708
 40
0.3132950643896031
 40
0.3744813704039549
 40
0.4359224470223058
 40
0.499798378591809
 40
0.550398896853038
 40
0.5995068290407091
 40
0.6482936222836329
 40
0.69795338597701
 40
0.7496196903463571
 40
0.7731047166272359
 40
0.7961404564466335
 40
0.8188229444282059
 40
0.8412527568960451
 40
0.8635338962364288
 40
0.8857724551526139
 40
0.908075138567332
 40
0.9305477427358949
 40
0.9532936979375353
 40
0.9764127710346132
 40
1.0
 40
1.0
 40
1.0
 40
1.0
 10
239.6498538111725
 20
299.8950866370673
 30
0.0
 10
239.6501676298677
 20
299.8975873534795
 30
0.0
 10
239.6507916968496
 20
299.9025603349102
 30
0.0
 10
239.6520747121164
 20
299.9099474099297
 30
0.0
 10
239.6536061348675
 20
299.9172230552853
 30
0.0
 10
239.6554104574348
 20
299.9243853162698
 30
0.0
 10
239.6574812427598
 20
299.9314343842428
 30
0.0
 10
239.659820213542
 20
299.9383698855227
 30
0.0
 10
239.6624269293366
 20
299.9451915978773
 30
0.0
 10
239.6653015159346
 20
299.9518992618152
 30
0.0
 10
239.6684439416606
 20
299.9584926315367
 30
0.0
 10
239.6718542090572
 20
299.964971462498
 30
0.0
 10
239.6755323038165
 20
299.9713355158782
 30
0.0
 10
239.6794782086237
 20
299.9775845585651
 30
0.0
 10
239.6836918998448
 20
299.9837183642672
 30
0.0
 10
239.6881733496579
 20
299.9897367142567
 30
0.0
 10
239.6929225247546
 20
299.9956393978495
 30
0.0
 10
239.6979393944031
 20
300.0014262134472
 30
0.0
 10
239.7032239049726
 20
300.0070969665281
 30
0.0
 10
239.7087760808255
 20
300.0126514782432
 30
0.0
 10
239.7145956481106
 20
300.0180895530403
 30
0.0
 10
239.7206834628437
 20
300.0234111004076
 30
0.0
 10
239.7357251530988
 20
300.0357344098076
 30
0.0
 10
239.7614101882305
 20
300.0529688221159
 30
0.0
 10
239.8008125009201
 20
300.0703080458565
 30
0.0
 10
239.8435419484696
 20
300.0807322204348
 30
0.0
 10
239.8852285753599
 20
300.0839772605411
 30
0.0
 10
239.9240271476303
 20
300.0819751315202
 30
0.0
 10
239.9585713613853
 20
300.0754864947659
 30
0.0
 10
239.9913208140311
 20
300.064434475627
 30
0.0
 10
240.0222213297092
 20
300.0488423657365
 30
0.0
 10
240.0454550741816
 20
300.032789385489
 30
0.0
 10
240.0622265667217
 20
300.0187865412681
 30
0.0
 10
240.0733038755963
 20
300.0082947942669
 30
0.0
 10
240.0834065809632
 20
299.9973794349261
 30
0.0
 10
240.0925339915326
 20
299.9860403602123
 30
0.0
 10
240.1006850404931
 20
299.9742797586831
 30
0.0
 10
240.1078594525823
 20
299.9620995863712
 30
0.0
 10
240.1140551515707
 20
299.9495020011792
 30
0.0
 10
240.1192779715622
 20
299.9364897671524
 30
0.0
 10
240.1235051991913
 20
299.9230637110607
 30
0.0
 10
240.1268242826425
 20
299.9092321634755
 30
0.0
 10
240.1281935905352
 20
299.8998332156692
 30
0.0
 10
240.1288851070408
 20
299.8950866370673
 30
0.0
  0
SPLINE
  5
121
330
1F
100
AcDbEntity
  8
1
100
AcDbSpline
210
0.0
220
0.0
230
1.0
 70
     8
 71
     3
 72
     8
 73
     4
 74
     0
 42
0.000000001
 43
0.0000000001
 40
0.0
 40
0.0
 40
0.0
 40
0.0
 40
1.0
 40
1.0
 40
1.0
 40
1.0
 10
240.2021521823292
 20
300.1944074461999
 30
0.0
 10
240.1123722866516
 20
300.1944074461999
 30
0.0
 10
240.02177785076
 20
300.1812867290404
 30
0.0
 10
239.9362823331078
 20
300.1576394850104
 30
0.0
  0
SPLINE
  5
122
330
1F
100
AcDbEntity
  8
NOCUT
100
AcDbSpline
210
0.0
220
0.0
230
1.0
 70
     8
 71
     3
 72
    40
 73
    36
 74
     0
 42
0.000000001
 43
0.0000000001
 40
0.0
 40
0.0
 40
0.0
 40
0.0
 40
0.1250000000000212
 40
0.1250000000000212
 40
0.1875000000000318
 40
0.1875000000000318
 40
0.2187500000000317
 40
0.2187500000000317
 40
0.2500000000000316
 40
0.2500000000000316
 40
0.3750000000000313
 40
0.3750000000000313
 40
0.4062500000000305
 40
0.4062500000000305
 40
0.4375000000000299
 40
0.4375000000000299
 40
0.5000000000000307
 40
0.5625000000000316
 40
0.5625000000000316
 40
0.6250000000000325
 40
0.6250000000000325
 40
0.7500000000000555
 40
0.7500000000000555
 40
0.8125000000000781
 40
0.8125000000000781
 40
0.8437500000000774
 40
0.8437500000000774
 40
0.8750000000000765
 40
0.9375000000000511
 40
0.9375000000000511
 40
0.968750000000038
 40
0.9843750000000316
 40
0.9921875000000159
 40
0.9921875000000159
 40
1.0
 40
1.0
 40
1.0
 40
1.0
 10
247.2145854054222
 20
298.1396649503203
 30
0.0
 10
247.2145854054222
 20
298.2068162322335
 30
0.0
 10
247.2078902738455
 20
298.2727824024451
 30
0.0
 10
247.1882508386461
 20
298.3700327618052
 30
0.0
 10
247.1800925592969
 20
298.4021642104449
 30
0.0
 10
247.165383463311
 20
298.4499237689736
 30
0.0
 10
247.1600505741804
 20
298.4658143623818
 30
0.0
 10
247.1486558356029
 20
298.497142580089
 30
0.0
 10
247.1425916748937
 20
298.5125967739914
 30
0.0
 10
247.1104768344719
 20
298.5888409157468
 30
0.0
 10
247.0790959717696
 20
298.6465801361061
 30
0.0
 10
247.0328541543428
 20
298.7147367717883
 30
0.0
 10
247.0232517866688
 20
298.7281653856722
 30
0.0
 10
247.0033283468183
 20
298.7546110056499
 30
0.0
 10
246.9930310344488
 20
298.767592789612
 30
0.0
 10
246.9613976028211
 20
298.8055143451906
 30
0.0
 10
246.9170588699062
 20
298.8536039397118
 30
0.0
 10
246.8685347681432
 20
298.8969026832904
 30
0.0
 10
246.817924866929
 20
298.9378129612966
 30
0.0
 10
246.7915339379541
 20
298.9571022335474
 30
0.0
 10
246.7094227027112
 20
299.0111173781743
 30
0.0
 10
246.65218511711
 20
299.0411366987785
 30
0.0
 10
246.5627795181791
 20
299.0776399313703
 30
0.0
 10
246.5323816827927
 20
299.088376112289
 30
0.0
 10
246.4858768798425
 20
299.1022981990685
 30
0.0
 10
246.4701926700977
 20
299.1065819713343
 30
0.0
 10
246.4386689955413
 20
299.1143701077504
 30
0.0
 10
246.3912395276684
 20
299.1248653836413
 30
0.0
 10
246.3433856531409
 20
299.1318594707621
 30
0.0
 10
246.2952511202774
 20
299.1365365117557
 30
0.0
 10
246.2711135643043
 20
299.1382947541342
 30
0.0
 10
246.242829235755
 20
299.1393233926654
 30
0.0
 10
246.2306806654194
 20
299.1395436268443
 30
0.0
 10
246.2225756596239
 20
299.139641240539
 30
0.0
 10
246.2185849289777
 20
299.1396649503203
 30
0.0
 10
246.2145854054222
 20
299.1396649503203
 30
0.0
  0
LINE
  5
126
330
1F
100
AcDbEntity
  8
2
 60
     1
100
AcDbLine
 10
245.37171
 20
299.139665
 30
0.0
 11
245.638189
 21
295.595678
 31
0.0
  0
LINE
  5
127
330
1F
100
AcDbEntity
  8
2
 60
     1
100
AcDbLine
 10
245.638189
 20
295.595678
 30
0.0
 11
244.410003
 21
295.718261
 31
0.0
  0
LINE
  5
128
330
1F
100
AcDbEntity
  8
2
 60
     1
100
AcDbLine
 10
244.410003
 20
295.718261
 30
0.0
 11
245.37171
 21
299.139665
 31
0.0
  0
LINE
  5
12A
330
1F
100
AcDbEntity
  8
2
 60
     1
100
AcDbLine
 10
236.692541
 20
290.460496
 30
0.0
 11
240.11394
 21
291.422203
 31
0.0
  0
LINE
  5
12B
330
1F
100
AcDbEntity
  8
2
 60
     1
100
AcDbLine
 10
240.11394
 20
291.422203
 30
0.0
 11
240.236532
 21
290.1940169999999
 31
0.0
  0
LINE
  5
12C
330
1F
100
AcDbEntity
  8
2
 60
     1
100
AcDbLine
 10
240.236532
 20
290.1940169999999
 30
0.0
 11
236.692541
 21
290.460496
 31
0.0
  0
MTEXT
  5
12E
330
1F
100
AcDbEntity
  8
SK6
100
AcDbMText
 10
262.48736
 20
267.212367
 30
0.0
 40
3.5
 41
0.0
 71
     7
 72
     5
  1
\W0.7581;GL1-S1212HFL-12-40
  7
cesky
 73
     2
 44
0.8433729999999998
  0
TEXT
  5
1F8
330
1F
100
AcDbEntity
  8
2
100
AcDbText
 10
239.6622750886157
 20
291.0564229113843
 30
0.0
 40
3.5
  1
90°
 50
44.99999999999996
 41
1.0515
  7
cesky
100
AcDbText
  0
LINE
  5
1F9
330
1F
100
AcDbEntity
  8
2
100
AcDbLine
 10
245.3673136269985
 20
299.1240247933305
 30
0.0
 11
245.3724961778501
 21
299.1292073441822
 31
0.0
  0
LINE
  5
1FA
330
1F
100
AcDbEntity
  8
2
100
AcDbLine
 10
245.3564290450096
 20
299.0853014173663
 30
0.0
 11
245.3744430441142
 21
299.1033154164709
 31
0.0
  0
LINE
  5
1FB
330
1F
100
AcDbEntity
  8
2
100
AcDbLine
 10
245.3455444630208
 20
299.0465780414021
 30
0.0
 11
245.3763899103782
 21
299.0774234887596
 31
0.0
  0
LINE
  5
1FC
330
1F
100
AcDbEntity
  8
2
100
AcDbLine
 10
245.3346598810318
 20
299.0078546654379
 30
0.0
 11
245.3783367766423
 21
299.0515315610484
 31
0.0
  0
LINE
  5
1FD
330
1F
100
AcDbEntity
  8
2
100
AcDbLine
 10
245.323775299043
 20
298.9691312894738
 30
0.0
 11
245.3802836429064
 21
299.0256396333372
 31
0.0
  0
LINE
  5
1FE
330
1F
100
AcDbEntity
  8
2
100
AcDbLine
 10
245.3128907170541
 20
298.9304079135096
 30
0.0
 11
245.3822305091704
 21
298.9997477056259
 31
0.0
  0
LINE
  5
1FF
330
1F
100
AcDbEntity
  8
2
100
AcDbLine
 10
245.3020061350653
 20
298.8916845375455
 30
0.0
 11
245.3841773754345
 21
298.9738557779146
 31
0.0
  0
LINE
  5
200
330
1F
100
AcDbEntity
  8
2
100
AcDbLine
 10
245.2911215530765
 20
298.8529611615813
 30
0.0
 11
245.3861242416986
 21
298.9479638502034
 31
0.0
  0
LINE
  5
201
330
1F
100
AcDbEntity
  8
2
100
AcDbLine
 10
245.2802369710876
 20
298.814237785617
 30
0.0
 11
245.3880711079626
 21
298.9220719224921
 31
0.0
  0
LINE
  5
202
330
1F
100
AcDbEntity
  8
2
100
AcDbLine
 10
245.2693523890987
 20
298.7755144096529
 30
0.0
 11
245.3900179742267
 21
298.8961799947809
 31
0.0
  0
LINE
  5
203
330
1F
100
AcDbEntity
  8
2
100
AcDbLine
 10
245.2584678071099
 20
298.7367910336887
 30
0.0
 11
245.3919648404907
 21
298.8702880670696
 31
0.0
  0
LINE
  5
204
330
1F
100
AcDbEntity
  8
2
100
AcDbLine
 10
245.247583225121
 20
298.6980676577246
 30
0.0
 11
245.3939117067548
 21
298.8443961393583
 31
0.0
  0
LINE
  5
205
330
1F
100
AcDbEntity
  8
2
100
AcDbLine
 10
245.2366986431322
 20
298.6593442817603
 30
0.0
 11
245.3958585730189
 21
298.8185042116471
 31
0.0
  0
LINE
  5
206
330
1F
100
AcDbEntity
  8
2
100
AcDbLine
 10
245.2258140611433
 20
298.6206209057963
 30
0.0
 11
245.397805439283
 21
298.7926122839359
 31
0.0
  0
LINE
  5
207
330
1F
100
AcDbEntity
  8
2
100
AcDbLine
 10
245.2149294791544
 20
298.5818975298321
 30
0.0
 11
245.399752305547
 21
298.7667203562247
 31
0.0
  0
LINE
  5
208
330
1F
100
AcDbEntity
  8
2
100
AcDbLine
 10
245.2040448971656
 20
298.5431741538679
 30
0.0
 11
245.401699171811
 21
298.7408284285134
 31
0.0
  0
LINE
  5
209
330
1F
100
AcDbEntity
  8
2
100
AcDbLine
 10
245.1931603151768
 20
298.5044507779038
 30
0.0
 11
245.4036460380752
 21
298.7149365008022
 31
0.0
  0
LINE
  5
20A
330
1F
100
AcDbEntity
  8
2
100
AcDbLine
 10
245.1822757331879
 20
298.4657274019395
 30
0.0
 11
245.4055929043392
 21
298.6890445730909
 31
0.0
  0
LINE
  5
20B
330
1F
100
AcDbEntity
  8
2
100
AcDbLine
 10
245.1713911511991
 20
298.4270040259754
 30
0.0
 11
245.4075397706032
 21
298.6631526453796
 31
0.0
  0
LINE
  5
20C
330
1F
100
AcDbEntity
  8
2
100
AcDbLine
 10
245.1605065692102
 20
298.3882806500112
 30
0.0
 11
245.4094866368674
 21
298.6372607176684
 31
0.0
  0
LINE
  5
20D
330
1F
100
AcDbEntity
  8
2
100
AcDbLine
 10
245.1496219872213
 20
298.349557274047
 30
0.0
 11
245.4114335031314
 21
298.6113687899571
 31
0.0
  0
LINE
  5
20E
330
1F
100
AcDbEntity
  8
2
100
AcDbLine
 10
245.1387374052324
 20
298.3108338980829
 30
0.0
 11
245.4133803693954
 21
298.5854768622459
 31
0.0
  0
LINE
  5
20F
330
1F
100
AcDbEntity
  8
2
100
AcDbLine
 10
245.1278528232436
 20
298.2721105221187
 30
0.0
 11
245.4153272356595
 21
298.5595849345346
 31
0.0
  0
LINE
  5
210
330
1F
100
AcDbEntity
  8
2
100
AcDbLine
 10
245.1169682412547
 20
298.2333871461545
 30
0.0
 11
245.4172741019235
 21
298.5336930068234
 31
0.0
  0
LINE
  5
211
330
1F
100
AcDbEntity
  8
2
100
AcDbLine
 10
245.1060836592659
 20
298.1946637701904
 30
0.0
 11
245.4192209681876
 21
298.5078010791121
 31
0.0
  0
LINE
  5
212
330
1F
100
AcDbEntity
  8
2
100
AcDbLine
 10
245.095199077277
 20
298.1559403942262
 30
0.0
 11
245.4211678344517
 21
298.4819091514008
 31
0.0
  0
LINE
  5
213
330
1F
100
AcDbEntity
  8
2
100
AcDbLine
 10
245.0843144952882
 20
298.117217018262
 30
0.0
 11
245.4231147007158
 21
298.4560172236896
 31
0.0
  0
LINE
  5
214
330
1F
100
AcDbEntity
  8
2
100
AcDbLine
 10
245.0734299132993
 20
298.0784936422978
 30
0.0
 11
245.4250615669798
 21
298.4301252959783
 31
0.0
  0
LINE
  5
215
330
1F
100
AcDbEntity
  8
2
100
AcDbLine
 10
245.0625453313104
 20
298.0397702663336
 30
0.0
 11
245.4270084332439
 21
298.404233368267
 31
0.0
  0
LINE
  5
216
330
1F
100
AcDbEntity
  8
2
100
AcDbLine
 10
245.0516607493216
 20
298.0010468903695
 30
0.0
 11
245.428955299508
 21
298.3783414405558
 31
0.0
  0
LINE
  5
217
330
1F
100
AcDbEntity
  8
2
100
AcDbLine
 10
245.0407761673328
 20
297.9623235144053
 30
0.0
 11
245.430902165772
 21
298.3524495128445
 31
0.0
  0
LINE
  5
218
330
1F
100
AcDbEntity
  8
2
100
AcDbLine
 10
245.0298915853438
 20
297.9236001384411
 30
0.0
 11
245.4328490320361
 21
298.3265575851334
 31
0.0
  0
LINE
  5
219
330
1F
100
AcDbEntity
  8
2
100
AcDbLine
 10
245.019007003355
 20
297.884876762477
 30
0.0
 11
245.4347958983001
 21
298.3006656574221
 31
0.0
  0
LINE
  5
21A
330
1F
100
AcDbEntity
  8
2
100
AcDbLine
 10
245.0081224213661
 20
297.8461533865129
 30
0.0
 11
245.4367427645642
 21
298.2747737297109
 31
0.0
  0
LINE
  5
21B
330
1F
100
AcDbEntity
  8
2
100
AcDbLine
 10
244.9972378393773
 20
297.8074300105486
 30
0.0
 11
245.4386896308282
 21
298.2488818019996
 31
0.0
  0
LINE
  5
21C
330
1F
100
AcDbEntity
  8
2
100
AcDbLine
 10
244.9863532573885
 20
297.7687066345845
 30
0.0
 11
245.4406364970924
 21
298.2229898742884
 31
0.0
  0
LINE
  5
21D
330
1F
100
AcDbEntity
  8
2
100
AcDbLine
 10
244.9754686753996
 20
297.7299832586203
 30
0.0
 11
245.4425833633564
 21
298.1970979465771
 31
0.0
  0
LINE
  5
21E
330
1F
100
AcDbEntity
  8
2
100
AcDbLine
 10
244.9645840934107
 20
297.6912598826562
 30
0.0
 11
245.4445302296204
 21
298.1712060188659
 31
0.0
  0
LINE
  5
21F
330
1F
100
AcDbEntity
  8
2
100
AcDbLine
 10
244.953699511422
 20
297.652536506692
 30
0.0
 11
245.4464770958845
 21
298.1453140911546
 31
0.0
  0
LINE
  5
220
330
1F
100
AcDbEntity
  8
2
100
AcDbLine
 10
244.942814929433
 20
297.6138131307278
 30
0.0
 11
245.4484239621486
 21
298.1194221634433
 31
0.0
  0
LINE
  5
221
330
1F
100
AcDbEntity
  8
2
100
AcDbLine
 10
244.9319303474442
 20
297.5750897547637
 30
0.0
 11
245.4503708284126
 21
298.0935302357321
 31
0.0
  0
LINE
  5
222
330
1F
100
AcDbEntity
  8
2
100
AcDbLine
 10
244.9210457654553
 20
297.5363663787994
 30
0.0
 11
245.4523176946767
 21
298.0676383080208
 31
0.0
  0
LINE
  5
223
330
1F
100
AcDbEntity
  8
2
100
AcDbLine
 10
244.9101611834665
 20
297.4976430028353
 30
0.0
 11
245.4542645609407
 21
298.0417463803096
 31
0.0
  0
LINE
  5
224
330
1F
100
AcDbEntity
  8
2
100
AcDbLine
 10
244.8992766014776
 20
297.4589196268711
 30
0.0
 11
245.4562114272048
 21
298.0158544525983
 31
0.0
  0
LINE
  5
225
330
1F
100
AcDbEntity
  8
2
100
AcDbLine
 10
244.8883920194888
 20
297.420196250907
 30
0.0
 11
245.4581582934689
 21
297.989962524887
 31
0.0
  0
LINE
  5
226
330
1F
100
AcDbEntity
  8
2
100
AcDbLine
 10
244.8775074374999
 20
297.3814728749427
 30
0.0
 11
245.460105159733
 21
297.9640705971759
 31
0.0
  0
LINE
  5
227
330
1F
100
AcDbEntity
  8
2
100
AcDbLine
 10
244.8666228555111
 20
297.3427494989786
 30
0.0
 11
245.462052025997
 21
297.9381786694646
 31
0.0
  0
LINE
  5
228
330
1F
100
AcDbEntity
  8
2
100
AcDbLine
 10
244.8557382735221
 20
297.3040261230144
 30
0.0
 11
245.4639988922611
 21
297.9122867417533
 31
0.0
  0
LINE
  5
229
330
1F
100
AcDbEntity
  8
2
100
AcDbLine
 10
244.8448536915333
 20
297.2653027470503
 30
0.0
 11
245.4659457585251
 21
297.886394814042
 31
0.0
  0
LINE
  5
22A
330
1F
100
AcDbEntity
  8
2
100
AcDbLine
 10
244.8339691095445
 20
297.2265793710861
 30
0.0
 11
245.4678926247892
 21
297.8605028863308
 31
0.0
  0
LINE
  5
22B
330
1F
100
AcDbEntity
  8
2
100
AcDbLine
 10
244.8230845275556
 20
297.1878559951219
 30
0.0
 11
245.4698394910533
 21
297.8346109586195
 31
0.0
  0
LINE
  5
22C
330
1F
100
AcDbEntity
  8
2
100
AcDbLine
 10
244.8121999455667
 20
297.1491326191578
 30
0.0
 11
245.4717863573173
 21
297.8087190309082
 31
0.0
  0
LINE
  5
22D
330
1F
100
AcDbEntity
  8
2
100
AcDbLine
 10
244.8013153635779
 20
297.1104092431935
 30
0.0
 11
245.4737332235813
 21
297.7828271031971
 31
0.0
  0
LINE
  5
22E
330
1F
100
AcDbEntity
  8
2
100
AcDbLine
 10
244.790430781589
 20
297.0716858672294
 30
0.0
 11
245.4756800898454
 21
297.7569351754858
 31
0.0
  0
LINE
  5
22F
330
1F
100
AcDbEntity
  8
2
100
AcDbLine
 10
244.7795461996002
 20
297.0329624912653
 30
0.0
 11
245.4776269561095
 21
297.7310432477746
 31
0.0
  0
LINE
  5
230
330
1F
100
AcDbEntity
  8
2
100
AcDbLine
 10
244.7686616176113
 20
296.9942391153011
 30
0.0
 11
245.4795738223736
 21
297.7051513200633
 31
0.0
  0
LINE
  5
231
330
1F
100
AcDbEntity
  8
2
100
AcDbLine
 10
244.7577770356225
 20
296.9555157393369
 30
0.0
 11
245.4815206886376
 21
297.679259392352
 31
0.0
  0
LINE
  5
232
330
1F
100
AcDbEntity
  8
2
100
AcDbLine
 10
244.7468924536337
 20
296.9167923633728
 30
0.0
 11
245.4834675549017
 21
297.6533674646408
 31
0.0
  0
LINE
  5
233
330
1F
100
AcDbEntity
  8
2
100
AcDbLine
 10
244.7360078716448
 20
296.8780689874086
 30
0.0
 11
245.4854144211658
 21
297.6274755369296
 31
0.0
  0
LINE
  5
234
330
1F
100
AcDbEntity
  8
2
100
AcDbLine
 10
244.7251232896559
 20
296.8393456114444
 30
0.0
 11
245.4873612874298
 21
297.6015836092183
 31
0.0
  0
LINE
  5
235
330
1F
100
AcDbEntity
  8
2
100
AcDbLine
 10
244.7142387076671
 20
296.8006222354802
 30
0.0
 11
245.4893081536939
 21
297.575691681507
 31
0.0
  0
LINE
  5
236
330
1F
100
AcDbEntity
  8
2
100
AcDbLine
 10
244.7033541256782
 20
296.761898859516
 30
0.0
 11
245.4912550199579
 21
297.5497997537958
 31
0.0
  0
LINE
  5
237
330
1F
100
AcDbEntity
  8
2
100
AcDbLine
 10
244.6924695436893
 20
296.7231754835519
 30
0.0
 11
245.493201886222
 21
297.5239078260845
 31
0.0
  0
LINE
  5
238
330
1F
100
AcDbEntity
  8
2
100
AcDbLine
 10
244.6815849617005
 20
296.6844521075877
 30
0.0
 11
245.495148752486
 21
297.4980158983732
 31
0.0
  0
LINE
  5
239
330
1F
100
AcDbEntity
  8
2
100
AcDbLine
 10
244.6707003797116
 20
296.6457287316235
 30
0.0
 11
245.4970956187501
 21
297.472123970662
 31
0.0
  0
LINE
  5
23A
330
1F
100
AcDbEntity
  8
2
100
AcDbLine
 10
244.6598157977228
 20
296.6070053556594
 30
0.0
 11
245.4990424850142
 21
297.4462320429508
 31
0.0
  0
LINE
  5
23B
330
1F
100
AcDbEntity
  8
2
100
AcDbLine
 10
244.6489312157339
 20
296.5682819796952
 30
0.0
 11
245.5009893512783
 21
297.4203401152395
 31
0.0
  0
LINE
  5
23C
330
1F
100
AcDbEntity
  8
2
100
AcDbLine
 10
244.638046633745
 20
296.529558603731
 30
0.0
 11
245.5029362175423
 21
297.3944481875283
 31
0.0
  0
LINE
  5
23D
330
1F
100
AcDbEntity
  8
2
100
AcDbLine
 10
244.6271620517562
 20
296.4908352277669
 30
0.0
 11
245.5048830838064
 21
297.368556259817
 31
0.0
  0
LINE
  5
23E
330
1F
100
AcDbEntity
  8
2
100
AcDbLine
 10
244.6162774697674
 20
296.4521118518027
 30
0.0
 11
245.5068299500705
 21
297.3426643321058
 31
0.0
  0
LINE
  5
23F
330
1F
100
AcDbEntity
  8
2
100
AcDbLine
 10
244.6053928877785
 20
296.4133884758385
 30
0.0
 11
245.5087768163346
 21
297.3167724043945
 31
0.0
  0
LINE
  5
240
330
1F
100
AcDbEntity
  8
2
100
AcDbLine
 10
244.5945083057896
 20
296.3746650998743
 30
0.0
 11
245.5107236825985
 21
297.2908804766833
 31
0.0
  0
LINE
  5
241
330
1F
100
AcDbEntity
  8
2
100
AcDbLine
 10
244.5836237238008
 20
296.3359417239102
 30
0.0
 11
245.5126705488626
 21
297.264988548972
 31
0.0
  0
LINE
  5
242
330
1F
100
AcDbEntity
  8
2
100
AcDbLine
 10
244.5727391418119
 20
296.297218347946
 30
0.0
 11
245.5146174151267
 21
297.2390966212608
 31
0.0
  0
LINE
  5
243
330
1F
100
AcDbEntity
  8
2
100
AcDbLine
 10
244.5618545598231
 20
296.2584949719818
 30
0.0
 11
245.5165642813907
 21
297.2132046935495
 31
0.0
  0
LINE
  5
244
330
1F
100
AcDbEntity
  8
2
100
AcDbLine
 10
244.5509699778342
 20
296.2197715960177
 30
0.0
 11
245.5185111476549
 21
297.1873127658383
 31
0.0
  0
LINE
  5
245
330
1F
100
AcDbEntity
  8
2
100
AcDbLine
 10
244.5400853958453
 20
296.1810482200535
 30
0.0
 11
245.5204580139189
 21
297.1614208381271
 31
0.0
  0
LINE
  5
246
330
1F
100
AcDbEntity
  8
2
100
AcDbLine
 10
244.5292008138565
 20
296.1423248440893
 30
0.0
 11
245.5224048801829
 21
297.1355289104158
 31
0.0
  0
LINE
  5
247
330
1F
100
AcDbEntity
  8
2
100
AcDbLine
 10
244.5183162318677
 20
296.1036014681251
 30
0.0
 11
245.524351746447
 21
297.1096369827045
 31
0.0
  0
LINE
  5
248
330
1F
100
AcDbEntity
  8
2
100
AcDbLine
 10
244.5074316498788
 20
296.0648780921609
 30
0.0
 11
245.526298612711
 21
297.0837450549933
 31
0.0
  0
LINE
  5
249
330
1F
100
AcDbEntity
  8
2
100
AcDbLine
 10
244.4965470678899
 20
296.0261547161968
 30
0.0
 11
245.5282454789751
 21
297.0578531272821
 31
0.0
  0
LINE
  5
24A
330
1F
100
AcDbEntity
  8
2
100
AcDbLine
 10
244.485662485901
 20
295.9874313402326
 30
0.0
 11
245.5301923452392
 21
297.0319611995707
 31
0.0
  0
LINE
  5
24B
330
1F
100
AcDbEntity
  8
2
100
AcDbLine
 10
244.4747779039122
 20
295.9487079642685
 30
0.0
 11
245.5321392115032
 21
297.0060692718595
 31
0.0
  0
LINE
  5
24C
330
1F
100
AcDbEntity
  8
2
100
AcDbLine
 10
244.4638933219234
 20
295.9099845883043
 30
0.0
 11
245.5340860777673
 21
296.9801773441482
 31
0.0
  0
LINE
  5
24D
330
1F
100
AcDbEntity
  8
2
100
AcDbLine
 10
244.4530087399345
 20
295.8712612123401
 30
0.0
 11
245.5360329440314
 21
296.954285416437
 31
0.0
  0
LINE
  5
24E
330
1F
100
AcDbEntity
  8
2
100
AcDbLine
 10
244.4421241579457
 20
295.832537836376
 30
0.0
 11
245.5379798102955
 21
296.9283934887257
 31
0.0
  0
LINE
  5
24F
330
1F
100
AcDbEntity
  8
2
100
AcDbLine
 10
244.4312395759568
 20
295.7938144604117
 30
0.0
 11
245.5399266765595
 21
296.9025015610144
 31
0.0
  0
LINE
  5
250
330
1F
100
AcDbEntity
  8
2
100
AcDbLine
 10
244.420354993968
 20
295.7550910844476
 30
0.0
 11
245.5418735428235
 21
296.8766096333033
 31
0.0
  0
LINE
  5
251
330
1F
100
AcDbEntity
  8
2
100
AcDbLine
 10
244.4112405270684
 20
295.7181378235727
 30
0.0
 11
245.5438204090877
 21
296.850717705592
 31
0.0
  0
LINE
  5
252
330
1F
100
AcDbEntity
  8
2
100
AcDbLine
 10
244.4365529391736
 20
295.7156114417026
 30
0.0
 11
245.5457672753517
 21
296.8248257778807
 31
0.0
  0
LINE
  5
253
330
1F
100
AcDbEntity
  8
2
100
AcDbLine
 10
244.4618653512788
 20
295.7130850598326
 30
0.0
 11
245.5477141416157
 21
296.7989338501695
 31
0.0
  0
LINE
  5
254
330
1F
100
AcDbEntity
  8
2
100
AcDbLine
 10
244.4871777633841
 20
295.7105586779625
 30
0.0
 11
245.5496610078799
 21
296.7730419224582
 31
0.0
  0
LINE
  5
255
330
1F
100
AcDbEntity
  8
2
100
AcDbLine
 10
244.5124901754893
 20
295.7080322960924
 30
0.0
 11
245.5516078741438
 21
296.747149994747
 31
0.0
  0
LINE
  5
256
330
1F
100
AcDbEntity
  8
2
100
AcDbLine
 10
244.5378025875946
 20
295.7055059142223
 30
0.0
 11
245.5535547404079
 21
296.7212580670357
 31
0.0
  0
LINE
  5
257
330
1F
100
AcDbEntity
  8
2
100
AcDbLine
 10
244.5631149996998
 20
295.7029795323523
 30
0.0
 11
245.555501606672
 21
296.6953661393245
 31
0.0
  0
LINE
  5
258
330
1F
100
AcDbEntity
  8
2
100
AcDbLine
 10
244.588427411805
 20
295.7004531504821
 30
0.0
 11
245.5574484729361
 21
296.6694742116132
 31
0.0
  0
LINE
  5
259
330
1F
100
AcDbEntity
  8
2
100
AcDbLine
 10
244.6137398239103
 20
295.6979267686121
 30
0.0
 11
245.5593953392001
 21
296.643582283902
 31
0.0
  0
LINE
  5
25A
330
1F
100
AcDbEntity
  8
2
100
AcDbLine
 10
244.6390522360155
 20
295.6954003867421
 30
0.0
 11
245.5613422054642
 21
296.6176903561907
 31
0.0
  0
LINE
  5
25B
330
1F
100
AcDbEntity
  8
2
100
AcDbLine
 10
244.6643646481207
 20
295.6928740048719
 30
0.0
 11
245.5632890717283
 21
296.5917984284796
 31
0.0
  0
LINE
  5
25C
330
1F
100
AcDbEntity
  8
2
100
AcDbLine
 10
244.6896770602259
 20
295.6903476230019
 30
0.0
 11
245.5652359379923
 21
296.5659065007683
 31
0.0
  0
LINE
  5
25D
330
1F
100
AcDbEntity
  8
2
100
AcDbLine
 10
244.7149894723312
 20
295.6878212411318
 30
0.0
 11
245.5671828042564
 21
296.540014573057
 31
0.0
  0
LINE
  5
25E
330
1F
100
AcDbEntity
  8
2
100
AcDbLine
 10
244.7403018844364
 20
295.6852948592617
 30
0.0
 11
245.5691296705205
 21
296.5141226453457
 31
0.0
  0
LINE
  5
25F
330
1F
100
AcDbEntity
  8
2
100
AcDbLine
 10
244.7656142965416
 20
295.6827684773916
 30
0.0
 11
245.5710765367844
 21
296.4882307176345
 31
0.0
  0
LINE
  5
260
330
1F
100
AcDbEntity
  8
2
100
AcDbLine
 10
244.7909267086469
 20
295.6802420955215
 30
0.0
 11
245.5730234030486
 21
296.4623387899232
 31
0.0
  0
LINE
  5
261
330
1F
100
AcDbEntity
  8
2
100
AcDbLine
 10
244.8162391207521
 20
295.6777157136514
 30
0.0
 11
245.5749702693126
 21
296.436446862212
 31
0.0
  0
LINE
  5
262
330
1F
100
AcDbEntity
  8
2
100
AcDbLine
 10
244.8415515328573
 20
295.6751893317813
 30
0.0
 11
245.5769171355766
 21
296.4105549345007
 31
0.0
  0
LINE
  5
263
330
1F
100
AcDbEntity
  8
2
100
AcDbLine
 10
244.8668639449626
 20
295.6726629499113
 30
0.0
 11
245.5788640018408
 21
296.3846630067894
 31
0.0
  0
LINE
  5
264
330
1F
100
AcDbEntity
  8
2
100
AcDbLine
 10
244.8921763570678
 20
295.6701365680412
 30
0.0
 11
245.5808108681048
 21
296.3587710790782
 31
0.0
  0
LINE
  5
265
330
1F
100
AcDbEntity
  8
2
100
AcDbLine
 10
244.917488769173
 20
295.6676101861711
 30
0.0
 11
245.5827577343689
 21
296.332879151367
 31
0.0
  0
LINE
  5
266
330
1F
100
AcDbEntity
  8
2
100
AcDbLine
 10
244.9428011812783
 20
295.665083804301
 30
0.0
 11
245.584704600633
 21
296.3069872236557
 31
0.0
  0
LINE
  5
267
330
1F
100
AcDbEntity
  8
2
100
AcDbLine
 10
244.9681135933835
 20
295.662557422431
 30
0.0
 11
245.586651466897
 21
296.2810952959445
 31
0.0
  0
LINE
  5
268
330
1F
100
AcDbEntity
  8
2
100
AcDbLine
 10
244.9934260054887
 20
295.6600310405609
 30
0.0
 11
245.5885983331611
 21
296.2552033682332
 31
0.0
  0
LINE
  5
269
330
1F
100
AcDbEntity
  8
2
100
AcDbLine
 10
245.018738417594
 20
295.6575046586907
 30
0.0
 11
245.5905451994251
 21
296.229311440522
 31
0.0
  0
LINE
  5
26A
330
1F
100
AcDbEntity
  8
2
100
AcDbLine
 10
245.0440508296992
 20
295.6549782768207
 30
0.0
 11
245.5924920656892
 21
296.2034195128108
 31
0.0
  0
LINE
  5
26B
330
1F
100
AcDbEntity
  8
2
100
AcDbLine
 10
245.0693632418044
 20
295.6524518949507
 30
0.0
 11
245.5944389319533
 21
296.1775275850995
 31
0.0
  0
LINE
  5
26C
330
1F
100
AcDbEntity
  8
2
100
AcDbLine
 10
245.0946756539097
 20
295.6499255130805
 30
0.0
 11
245.5963857982173
 21
296.1516356573882
 31
0.0
  0
LINE
  5
26D
330
1F
100
AcDbEntity
  8
2
100
AcDbLine
 10
245.1199880660149
 20
295.6473991312105
 30
0.0
 11
245.5983326644814
 21
296.1257437296769
 31
0.0
  0
LINE
  5
26E
330
1F
100
AcDbEntity
  8
2
100
AcDbLine
 10
245.1453004781201
 20
295.6448727493404
 30
0.0
 11
245.6002795307454
 21
296.0998518019657
 31
0.0
  0
LINE
  5
26F
330
1F
100
AcDbEntity
  8
2
100
AcDbLine
 10
245.1706128902253
 20
295.6423463674703
 30
0.0
 11
245.6022263970095
 21
296.0739598742545
 31
0.0
  0
LINE
  5
270
330
1F
100
AcDbEntity
  8
2
100
AcDbLine
 10
245.1959253023306
 20
295.6398199856002
 30
0.0
 11
245.6041732632736
 21
296.0480679465432
 31
0.0
  0
LINE
  5
271
330
1F
100
AcDbEntity
  8
2
100
AcDbLine
 10
245.2212377144358
 20
295.6372936037301
 30
0.0
 11
245.6061201295376
 21
296.022176018832
 31
0.0
  0
LINE
  5
272
330
1F
100
AcDbEntity
  8
2
100
AcDbLine
 10
245.246550126541
 20
295.63476722186
 30
0.0
 11
245.6080669958017
 21
295.9962840911207
 31
0.0
  0
LINE
  5
273
330
1F
100
AcDbEntity
  8
2
100
AcDbLine
 10
245.2718625386463
 20
295.63224083999
 30
0.0
 11
245.6100138620658
 21
295.9703921634094
 31
0.0
  0
LINE
  5
274
330
1F
100
AcDbEntity
  8
2
100
AcDbLine
 10
245.2971749507515
 20
295.6297144581199
 30
0.0
 11
245.6119607283298
 21
295.9445002356982
 31
0.0
  0
LINE
  5
275
330
1F
100
AcDbEntity
  8
2
100
AcDbLine
 10
245.3224873628567
 20
295.6271880762498
 30
0.0
 11
245.6139075945939
 21
295.9186083079869
 31
0.0
  0
LINE
  5
276
330
1F
100
AcDbEntity
  8
2
100
AcDbLine
 10
245.347799774962
 20
295.6246616943797
 30
0.0
 11
245.615854460858
 21
295.8927163802757
 31
0.0
  0
LINE
  5
277
330
1F
100
AcDbEntity
  8
2
100
AcDbLine
 10
245.3731121870672
 20
295.6221353125096
 30
0.0
 11
245.617801327122
 21
295.8668244525644
 31
0.0
  0
LINE
  5
278
330
1F
100
AcDbEntity
  8
2
100
AcDbLine
 10
245.3984245991725
 20
295.6196089306395
 30
0.0
 11
245.619748193386
 21
295.8409325248531
 31
0.0
  0
LINE
  5
279
330
1F
100
AcDbEntity
  8
2
100
AcDbLine
 10
245.4237370112778
 20
295.6170825487695
 30
0.0
 11
245.6216950596502
 21
295.8150405971419
 31
0.0
  0
LINE
  5
27A
330
1F
100
AcDbEntity
  8
2
100
AcDbLine
 10
245.449049423383
 20
295.6145561668994
 30
0.0
 11
245.6236419259142
 21
295.7891486694306
 31
0.0
  0
LINE
  5
27B
330
1F
100
AcDbEntity
  8
2
100
AcDbLine
 10
245.4743618354882
 20
295.6120297850294
 30
0.0
 11
245.6255887921783
 21
295.7632567417195
 31
0.0
  0
LINE
  5
27C
330
1F
100
AcDbEntity
  8
2
100
AcDbLine
 10
245.4996742475934
 20
295.6095034031592
 30
0.0
 11
245.6275356584423
 21
295.7373648140082
 31
0.0
  0
LINE
  5
27D
330
1F
100
AcDbEntity
  8
2
100
AcDbLine
 10
245.5249866596986
 20
295.6069770212891
 30
0.0
 11
245.6294825247064
 21
295.711472886297
 31
0.0
  0
LINE
  5
27E
330
1F
100
AcDbEntity
  8
2
100
AcDbLine
 10
245.5502990718038
 20
295.6044506394191
 30
0.0
 11
245.6314293909704
 21
295.6855809585857
 31
0.0
  0
LINE
  5
27F
330
1F
100
AcDbEntity
  8
2
100
AcDbLine
 10
245.5756114839091
 20
295.6019242575489
 30
0.0
 11
245.6333762572345
 21
295.6596890308744
 31
0.0
  0
LINE
  5
280
330
1F
100
AcDbEntity
  8
2
100
AcDbLine
 10
245.6009238960143
 20
295.5993978756789
 30
0.0
 11
245.6353231234986
 21
295.6337971031632
 31
0.0
  0
LINE
  5
281
330
1F
100
AcDbEntity
  8
2
100
AcDbLine
 10
245.6262363081195
 20
295.5968714938089
 30
0.0
 11
245.6372699897626
 21
295.6079051754519
 31
0.0
  0
LINE
  5
282
330
1F
100
AcDbEntity
  8
2
100
AcDbLine
 10
236.7029984831781
 20
290.4597096495099
 30
0.0
 11
236.708181037063
 21
290.4648922033949
 31
0.0
  0
LINE
  5
283
330
1F
100
AcDbEntity
  8
2
100
AcDbLine
 10
236.728890416254
 20
290.4577627886105
 30
0.0
 11
236.7469044259019
 21
290.4757767982584
 31
0.0
  0
LINE
  5
284
330
1F
100
AcDbEntity
  8
2
100
AcDbLine
 10
236.7547823493299
 20
290.4558159277112
 30
0.0
 11
236.7856278147407
 21
290.486661393122
 31
0.0
  0
LINE
  5
285
330
1F
100
AcDbEntity
  8
2
100
AcDbLine
 10
236.7806742824058
 20
290.4538690668117
 30
0.0
 11
236.8243512035796
 21
290.4975459879856
 31
0.0
  0
LINE
  5
286
330
1F
100
AcDbEntity
  8
2
100
AcDbLine
 10
236.8065662154817
 20
290.4519222059123
 30
0.0
 11
236.8630745924185
 21
290.5084305828491
 31
0.0
  0
LINE
  5
287
330
1F
100
AcDbEntity
  8
2
100
AcDbLine
 10
236.8324581485576
 20
290.4499753450129
 30
0.0
 11
236.9017979812573
 21
290.5193151777126
 31
0.0
  0
LINE
  5
288
330
1F
100
AcDbEntity
  8
2
100
AcDbLine
 10
236.8583500816335
 20
290.4480284841135
 30
0.0
 11
236.9405213700962
 21
290.5301997725762
 31
0.0
  0
LINE
  5
289
330
1F
100
AcDbEntity
  8
2
100
AcDbLine
 10
236.8842420147095
 20
290.4460816232141
 30
0.0
 11
236.9792447589351
 21
290.5410843674397
 31
0.0
  0
LINE
  5
28A
330
1F
100
AcDbEntity
  8
2
100
AcDbLine
 10
236.9101339477854
 20
290.4441347623147
 30
0.0
 11
237.017968147774
 21
290.5519689623033
 31
0.0
  0
LINE
  5
28B
330
1F
100
AcDbEntity
  8
2
100
AcDbLine
 10
236.9360258808613
 20
290.4421879014153
 30
0.0
 11
237.0566915366128
 21
290.5628535571668
 31
0.0
  0
LINE
  5
28C
330
1F
100
AcDbEntity
  8
2
100
AcDbLine
 10
236.9619178139372
 20
290.4402410405159
 30
0.0
 11
237.0954149254517
 21
290.5737381520304
 31
0.0
  0
LINE
  5
28D
330
1F
100
AcDbEntity
  8
2
100
AcDbLine
 10
236.9878097470131
 20
290.4382941796166
 30
0.0
 11
237.1341383142905
 21
290.584622746894
 31
0.0
  0
LINE
  5
28E
330
1F
100
AcDbEntity
  8
2
100
AcDbLine
 10
237.013701680089
 20
290.4363473187171
 30
0.0
 11
237.1728617031294
 21
290.5955073417575
 31
0.0
  0
LINE
  5
28F
330
1F
100
AcDbEntity
  8
2
100
AcDbLine
 10
237.0395936131649
 20
290.4344004578178
 30
0.0
 11
237.2115850919683
 21
290.6063919366211
 31
0.0
  0
LINE
  5
290
330
1F
100
AcDbEntity
  8
2
100
AcDbLine
 10
237.0654855462409
 20
290.4324535969184
 30
0.0
 11
237.2503084808072
 21
290.6172765314847
 31
0.0
  0
LINE
  5
291
330
1F
100
AcDbEntity
  8
2
100
AcDbLine
 10
237.0913774793168
 20
290.430506736019
 30
0.0
 11
237.289031869646
 21
290.6281611263482
 31
0.0
  0
LINE
  5
292
330
1F
100
AcDbEntity
  8
2
100
AcDbLine
 10
237.1172694123927
 20
290.4285598751196
 30
0.0
 11
237.3277552584849
 21
290.6390457212117
 31
0.0
  0
LINE
  5
293
330
1F
100
AcDbEntity
  8
2
100
AcDbLine
 10
237.1431613454686
 20
290.4266130142202
 30
0.0
 11
237.3664786473237
 21
290.6499303160753
 31
0.0
  0
LINE
  5
294
330
1F
100
AcDbEntity
  8
2
100
AcDbLine
 10
237.1690532785445
 20
290.4246661533208
 30
0.0
 11
237.4052020361626
 21
290.6608149109388
 31
0.0
  0
LINE
  5
295
330
1F
100
AcDbEntity
  8
2
100
AcDbLine
 10
237.1949452116204
 20
290.4227192924214
 30
0.0
 11
237.4439254250015
 21
290.6716995058024
 31
0.0
  0
LINE
  5
296
330
1F
100
AcDbEntity
  8
2
100
AcDbLine
 10
237.2208371446963
 20
290.420772431522
 30
0.0
 11
237.4826488138403
 21
290.682584100666
 31
0.0
  0
LINE
  5
297
330
1F
100
AcDbEntity
  8
2
100
AcDbLine
 10
237.2467290777723
 20
290.4188255706226
 30
0.0
 11
237.5213722026792
 21
290.6934686955295
 31
0.0
  0
LINE
  5
298
330
1F
100
AcDbEntity
  8
2
100
AcDbLine
 10
237.2726210108482
 20
290.4168787097232
 30
0.0
 11
237.560095591518
 21
290.704353290393
 31
0.0
  0
LINE
  5
299
330
1F
100
AcDbEntity
  8
2
100
AcDbLine
 10
237.2985129439241
 20
290.4149318488237
 30
0.0
 11
237.5988189803569
 21
290.7152378852566
 31
0.0
  0
LINE
  5
29A
330
1F
100
AcDbEntity
  8
2
100
AcDbLine
 10
237.3244048770001
 20
290.4129849879243
 30
0.0
 11
237.6375423691958
 21
290.7261224801201
 31
0.0
  0
LINE
  5
29B
330
1F
100
AcDbEntity
  8
2
100
AcDbLine
 10
237.3502968100759
 20
290.411038127025
 30
0.0
 11
237.6762657580346
 21
290.7370070749837
 31
0.0
  0
LINE
  5
29C
330
1F
100
AcDbEntity
  8
2
100
AcDbLine
 10
237.3761887431518
 20
290.4090912661255
 30
0.0
 11
237.7149891468735
 21
290.7478916698472
 31
0.0
  0
LINE
  5
29D
330
1F
100
AcDbEntity
  8
2
100
AcDbLine
 10
237.4020806762278
 20
290.4071444052262
 30
0.0
 11
237.7537125357124
 21
290.7587762647109
 31
0.0
  0
LINE
  5
29E
330
1F
100
AcDbEntity
  8
2
100
AcDbLine
 10
237.4279726093037
 20
290.4051975443268
 30
0.0
 11
237.7924359245512
 21
290.7696608595744
 31
0.0
  0
LINE
  5
29F
330
1F
100
AcDbEntity
  8
2
100
AcDbLine
 10
237.4538645423796
 20
290.4032506834274
 30
0.0
 11
237.8311593133901
 21
290.7805454544379
 31
0.0
  0
LINE
  5
2A0
330
1F
100
AcDbEntity
  8
2
100
AcDbLine
 10
237.4797564754555
 20
290.401303822528
 30
0.0
 11
237.869882702229
 21
290.7914300493014
 31
0.0
  0
LINE
  5
2A1
330
1F
100
AcDbEntity
  8
2
100
AcDbLine
 10
237.5056484085314
 20
290.3993569616286
 30
0.0
 11
237.9086060910678
 21
290.802314644165
 31
0.0
  0
LINE
  5
2A2
330
1F
100
AcDbEntity
  8
2
100
AcDbLine
 10
237.5315403416073
 20
290.3974101007291
 30
0.0
 11
237.9473294799067
 21
290.8131992390286
 31
0.0
  0
LINE
  5
2A3
330
1F
100
AcDbEntity
  8
2
100
AcDbLine
 10
237.5574322746833
 20
290.3954632398298
 30
0.0
 11
237.9860528687456
 21
290.8240838338921
 31
0.0
  0
LINE
  5
2A4
330
1F
100
AcDbEntity
  8
2
100
AcDbLine
 10
237.5833242077592
 20
290.3935163789304
 30
0.0
 11
238.0247762575844
 21
290.8349684287557
 31
0.0
  0
LINE
  5
2A5
330
1F
100
AcDbEntity
  8
2
100
AcDbLine
 10
237.6092161408351
 20
290.391569518031
 30
0.0
 11
238.0634996464233
 21
290.8458530236192
 31
0.0
  0
LINE
  5
2A6
330
1F
100
AcDbEntity
  8
2
100
AcDbLine
 10
237.635108073911
 20
290.3896226571316
 30
0.0
 11
238.1022230352622
 21
290.8567376184828
 31
0.0
  0
LINE
  5
2A7
330
1F
100
AcDbEntity
  8
2
100
AcDbLine
 10
237.6610000069869
 20
290.3876757962322
 30
0.0
 11
238.140946424101
 21
290.8676222133463
 31
0.0
  0
LINE
  5
2A8
330
1F
100
AcDbEntity
  8
2
100
AcDbLine
 10
237.6868919400629
 20
290.3857289353329
 30
0.0
 11
238.1796698129399
 21
290.8785068082099
 31
0.0
  0
LINE
  5
2A9
330
1F
100
AcDbEntity
  8
2
100
AcDbLine
 10
237.7127838731388
 20
290.3837820744334
 30
0.0
 11
238.2183932017788
 21
290.8893914030734
 31
0.0
  0
LINE
  5
2AA
330
1F
100
AcDbEntity
  8
2
100
AcDbLine
 10
237.7386758062147
 20
290.381835213534
 30
0.0
 11
238.2571165906176
 21
290.900275997937
 31
0.0
  0
LINE
  5
2AB
330
1F
100
AcDbEntity
  8
2
100
AcDbLine
 10
237.7645677392906
 20
290.3798883526346
 30
0.0
 11
238.2958399794565
 21
290.9111605928005
 31
0.0
  0
LINE
  5
2AC
330
1F
100
AcDbEntity
  8
2
100
AcDbLine
 10
237.7904596723666
 20
290.3779414917352
 30
0.0
 11
238.3345633682953
 21
290.9220451876641
 31
0.0
  0
LINE
  5
2AD
330
1F
100
AcDbEntity
  8
2
100
AcDbLine
 10
237.8163516054425
 20
290.3759946308358
 30
0.0
 11
238.3732867571342
 21
290.9329297825276
 31
0.0
  0
LINE
  5
2AE
330
1F
100
AcDbEntity
  8
2
100
AcDbLine
 10
237.8422435385184
 20
290.3740477699365
 30
0.0
 11
238.4120101459731
 21
290.9438143773911
 31
0.0
  0
LINE
  5
2AF
330
1F
100
AcDbEntity
  8
2
100
AcDbLine
 10
237.8681354715943
 20
290.372100909037
 30
0.0
 11
238.450733534812
 21
290.9546989722547
 31
0.0
  0
LINE
  5
2B0
330
1F
100
AcDbEntity
  8
2
100
AcDbLine
 10
237.8940274046702
 20
290.3701540481376
 30
0.0
 11
238.4894569236508
 21
290.9655835671182
 31
0.0
  0
LINE
  5
2B1
330
1F
100
AcDbEntity
  8
2
100
AcDbLine
 10
237.9199193377461
 20
290.3682071872382
 30
0.0
 11
238.5281803124897
 21
290.9764681619818
 31
0.0
  0
LINE
  5
2B2
330
1F
100
AcDbEntity
  8
2
100
AcDbLine
 10
237.945811270822
 20
290.3662603263388
 30
0.0
 11
238.5669037013286
 21
290.9873527568453
 31
0.0
  0
LINE
  5
2B3
330
1F
100
AcDbEntity
  8
2
100
AcDbLine
 10
237.971703203898
 20
290.3643134654394
 30
0.0
 11
238.6056270901674
 21
290.9982373517089
 31
0.0
  0
LINE
  5
2B4
330
1F
100
AcDbEntity
  8
2
100
AcDbLine
 10
237.9975951369739
 20
290.36236660454
 30
0.0
 11
238.6443504790063
 21
291.0091219465725
 31
0.0
  0
LINE
  5
2B5
330
1F
100
AcDbEntity
  8
2
100
AcDbLine
 10
238.0234870700498
 20
290.3604197436406
 30
0.0
 11
238.6830738678451
 21
291.020006541436
 31
0.0
  0
LINE
  5
2B6
330
1F
100
AcDbEntity
  8
2
100
AcDbLine
 10
238.0493790031258
 20
290.3584728827413
 30
0.0
 11
238.7217972566841
 21
291.0308911362996
 31
0.0
  0
LINE
  5
2B7
330
1F
100
AcDbEntity
  8
2
100
AcDbLine
 10
238.0752709362016
 20
290.3565260218419
 30
0.0
 11
238.760520645523
 21
291.0417757311632
 31
0.0
  0
LINE
  5
2B8
330
1F
100
AcDbEntity
  8
2
100
AcDbLine
 10
238.1011628692775
 20
290.3545791609424
 30
0.0
 11
238.7992440343618
 21
291.0526603260267
 31
0.0
  0
LINE
  5
2B9
330
1F
100
AcDbEntity
  8
2
100
AcDbLine
 10
238.1270548023534
 20
290.3526323000431
 30
0.0
 11
238.8379674232007
 21
291.0635449208903
 31
0.0
  0
LINE
  5
2BA
330
1F
100
AcDbEntity
  8
2
100
AcDbLine
 10
238.1529467354294
 20
290.3506854391437
 30
0.0
 11
238.8766908120395
 21
291.0744295157538
 31
0.0
  0
LINE
  5
2BB
330
1F
100
AcDbEntity
  8
2
100
AcDbLine
 10
238.1788386685052
 20
290.3487385782442
 30
0.0
 11
238.9154142008784
 21
291.0853141106174
 31
0.0
  0
LINE
  5
2BC
330
1F
100
AcDbEntity
  8
2
100
AcDbLine
 10
238.2047306015812
 20
290.3467917173449
 30
0.0
 11
238.9541375897172
 21
291.0961987054809
 31
0.0
  0
LINE
  5
2BD
330
1F
100
AcDbEntity
  8
2
100
AcDbLine
 10
238.2306225346571
 20
290.3448448564454
 30
0.0
 11
238.9928609785561
 21
291.1070833003444
 31
0.0
  0
LINE
  5
2BE
330
1F
100
AcDbEntity
  8
2
100
AcDbLine
 10
238.256514467733
 20
290.3428979955461
 30
0.0
 11
239.031584367395
 21
291.117967895208
 31
0.0
  0
LINE
  5
2BF
330
1F
100
AcDbEntity
  8
2
100
AcDbLine
 10
238.282406400809
 20
290.3409511346467
 30
0.0
 11
239.0703077562339
 21
291.1288524900716
 31
0.0
  0
LINE
  5
2C0
330
1F
100
AcDbEntity
  8
2
100
AcDbLine
 10
238.3082983338848
 20
290.3390042737473
 30
0.0
 11
239.1090311450728
 21
291.1397370849351
 31
0.0
  0
LINE
  5
2C1
330
1F
100
AcDbEntity
  8
2
100
AcDbLine
 10
238.3341902669608
 20
290.3370574128479
 30
0.0
 11
239.1477545339117
 21
291.1506216797987
 31
0.0
  0
LINE
  5
2C2
330
1F
100
AcDbEntity
  8
2
100
AcDbLine
 10
238.3600822000367
 20
290.3351105519485
 30
0.0
 11
239.1864779227504
 21
291.1615062746621
 31
0.0
  0
LINE
  5
2C3
330
1F
100
AcDbEntity
  8
2
100
AcDbLine
 10
238.3859741331126
 20
290.333163691049
 30
0.0
 11
239.2252013115893
 21
291.1723908695257
 31
0.0
  0
LINE
  5
2C4
330
1F
100
AcDbEntity
  8
2
100
AcDbLine
 10
238.4118660661886
 20
290.3312168301497
 30
0.0
 11
239.2639247004282
 21
291.1832754643893
 31
0.0
  0
LINE
  5
2C5
330
1F
100
AcDbEntity
  8
2
100
AcDbLine
 10
238.4377579992644
 20
290.3292699692503
 30
0.0
 11
239.302648089267
 21
291.1941600592529
 31
0.0
  0
LINE
  5
2C6
330
1F
100
AcDbEntity
  8
2
100
AcDbLine
 10
238.4636499323403
 20
290.3273231083508
 30
0.0
 11
239.3413714781059
 21
291.2050446541164
 31
0.0
  0
LINE
  5
2C7
330
1F
100
AcDbEntity
  8
2
100
AcDbLine
 10
238.4895418654163
 20
290.3253762474514
 30
0.0
 11
239.3800948669448
 21
291.21592924898
 31
0.0
  0
LINE
  5
2C8
330
1F
100
AcDbEntity
  8
2
100
AcDbLine
 10
238.5154337984922
 20
290.3234293865521
 30
0.0
 11
239.4188182557836
 21
291.2268138438435
 31
0.0
  0
LINE
  5
2C9
330
1F
100
AcDbEntity
  8
2
100
AcDbLine
 10
238.5413257315681
 20
290.3214825256526
 30
0.0
 11
239.4575416446225
 21
291.237698438707
 31
0.0
  0
LINE
  5
2CA
330
1F
100
AcDbEntity
  8
2
100
AcDbLine
 10
238.5672176646441
 20
290.3195356647533
 30
0.0
 11
239.4962650334614
 21
291.2485830335707
 31
0.0
  0
LINE
  5
2CB
330
1F
100
AcDbEntity
  8
2
100
AcDbLine
 10
238.5931095977199
 20
290.3175888038539
 30
0.0
 11
239.5349884223003
 21
291.2594676284342
 31
0.0
  0
LINE
  5
2CC
330
1F
100
AcDbEntity
  8
2
100
AcDbLine
 10
238.6190015307958
 20
290.3156419429545
 30
0.0
 11
239.5737118111391
 21
291.2703522232977
 31
0.0
  0
LINE
  5
2CD
330
1F
100
AcDbEntity
  8
2
100
AcDbLine
 10
238.6448934638718
 20
290.3136950820551
 30
0.0
 11
239.612435199978
 21
291.2812368181613
 31
0.0
  0
LINE
  5
2CE
330
1F
100
AcDbEntity
  8
2
100
AcDbLine
 10
238.6707853969476
 20
290.3117482211557
 30
0.0
 11
239.6511585888168
 21
291.2921214130248
 31
0.0
  0
LINE
  5
2CF
330
1F
100
AcDbEntity
  8
2
100
AcDbLine
 10
238.6966773300236
 20
290.3098013602563
 30
0.0
 11
239.6898819776557
 21
291.3030060078884
 31
0.0
  0
LINE
  5
2D0
330
1F
100
AcDbEntity
  8
2
100
AcDbLine
 10
238.7225692630995
 20
290.3078544993569
 30
0.0
 11
239.7286053664946
 21
291.3138906027519
 31
0.0
  0
LINE
  5
2D1
330
1F
100
AcDbEntity
  8
2
100
AcDbLine
 10
238.7484611961754
 20
290.3059076384575
 30
0.0
 11
239.7673287553334
 21
291.3247751976155
 31
0.0
  0
LINE
  5
2D2
330
1F
100
AcDbEntity
  8
2
100
AcDbLine
 10
238.7743531292514
 20
290.3039607775582
 30
0.0
 11
239.8060521441723
 21
291.335659792479
 31
0.0
  0
LINE
  5
2D3
330
1F
100
AcDbEntity
  8
2
100
AcDbLine
 10
238.8002450623273
 20
290.3020139166587
 30
0.0
 11
239.8447755330112
 21
291.3465443873426
 31
0.0
  0
LINE
  5
2D4
330
1F
100
AcDbEntity
  8
2
100
AcDbLine
 10
238.8261369954032
 20
290.3000670557593
 30
0.0
 11
239.8834989218501
 21
291.3574289822062
 31
0.0
  0
LINE
  5
2D5
330
1F
100
AcDbEntity
  8
2
100
AcDbLine
 10
238.8520289284791
 20
290.2981201948599
 30
0.0
 11
239.9222223106889
 21
291.3683135770697
 31
0.0
  0
LINE
  5
2D6
330
1F
100
AcDbEntity
  8
2
100
AcDbLine
 10
238.877920861555
 20
290.2961733339605
 30
0.0
 11
239.9609456995277
 21
291.3791981719332
 31
0.0
  0
LINE
  5
2D7
330
1F
100
AcDbEntity
  8
2
100
AcDbLine
 10
238.9038127946309
 20
290.2942264730611
 30
0.0
 11
239.9996690883666
 21
291.3900827667968
 31
0.0
  0
LINE
  5
2D8
330
1F
100
AcDbEntity
  8
2
100
AcDbLine
 10
238.9297047277068
 20
290.2922796121617
 30
0.0
 11
240.0383924772055
 21
291.4009673616603
 31
0.0
  0
LINE
  5
2D9
330
1F
100
AcDbEntity
  8
2
100
AcDbLine
 10
238.9555966607828
 20
290.2903327512623
 30
0.0
 11
240.0771158660444
 21
291.4118519565239
 31
0.0
  0
LINE
  5
2DA
330
1F
100
AcDbEntity
  8
2
100
AcDbLine
 10
238.9814885938587
 20
290.2883858903629
 30
0.0
 11
240.1140638671622
 21
291.4209611636664
 31
0.0
  0
LINE
  5
2DB
330
1F
100
AcDbEntity
  8
2
100
AcDbLine
 10
239.0073805269346
 20
290.2864390294635
 30
0.0
 11
240.1165904197953
 21
291.3956489223242
 31
0.0
  0
LINE
  5
2DC
330
1F
100
AcDbEntity
  8
2
100
AcDbLine
 10
239.0332724600105
 20
290.2844921685641
 30
0.0
 11
240.1191169724285
 21
291.3703366809821
 31
0.0
  0
LINE
  5
2DD
330
1F
100
AcDbEntity
  8
2
100
AcDbLine
 10
239.0591643930865
 20
290.2825453076647
 30
0.0
 11
240.1216435250618
 21
291.34502443964
 31
0.0
  0
LINE
  5
2DE
330
1F
100
AcDbEntity
  8
2
100
AcDbLine
 10
239.0850563261624
 20
290.2805984467653
 30
0.0
 11
240.1241700776949
 21
291.3197121982979
 31
0.0
  0
LINE
  5
2DF
330
1F
100
AcDbEntity
  8
2
100
AcDbLine
 10
239.1109482592383
 20
290.2786515858659
 30
0.0
 11
240.1266966303281
 21
291.2943999569558
 31
0.0
  0
LINE
  5
2E0
330
1F
100
AcDbEntity
  8
2
100
AcDbLine
 10
239.1368401923143
 20
290.2767047249666
 30
0.0
 11
240.1292231829613
 21
291.2690877156137
 31
0.0
  0
LINE
  5
2E1
330
1F
100
AcDbEntity
  8
2
100
AcDbLine
 10
239.1627321253901
 20
290.2747578640672
 30
0.0
 11
240.1317497355945
 21
291.2437754742716
 31
0.0
  0
LINE
  5
2E2
330
1F
100
AcDbEntity
  8
2
100
AcDbLine
 10
239.1886240584661
 20
290.2728110031678
 30
0.0
 11
240.1342762882277
 21
291.2184632329294
 31
0.0
  0
LINE
  5
2E3
330
1F
100
AcDbEntity
  8
2
100
AcDbLine
 10
239.214515991542
 20
290.2708641422684
 30
0.0
 11
240.1368028408609
 21
291.1931509915874
 31
0.0
  0
LINE
  5
2E4
330
1F
100
AcDbEntity
  8
2
100
AcDbLine
 10
239.2404079246179
 20
290.268917281369
 30
0.0
 11
240.1393293934941
 21
291.1678387502452
 31
0.0
  0
LINE
  5
2E5
330
1F
100
AcDbEntity
  8
2
100
AcDbLine
 10
239.2662998576938
 20
290.2669704204695
 30
0.0
 11
240.1418559461273
 21
291.1425265089031
 31
0.0
  0
LINE
  5
2E6
330
1F
100
AcDbEntity
  8
2
100
AcDbLine
 10
239.2921917907697
 20
290.2650235595702
 30
0.0
 11
240.1443824987606
 21
291.117214267561
 31
0.0
  0
LINE
  5
2E7
330
1F
100
AcDbEntity
  8
2
100
AcDbLine
 10
239.3180837238456
 20
290.2630766986707
 30
0.0
 11
240.1469090513938
 21
291.0919020262189
 31
0.0
  0
LINE
  5
2E8
330
1F
100
AcDbEntity
  8
2
100
AcDbLine
 10
239.3439756569215
 20
290.2611298377713
 30
0.0
 11
240.1494356040269
 21
291.0665897848768
 31
0.0
  0
LINE
  5
2E9
330
1F
100
AcDbEntity
  8
2
100
AcDbLine
 10
239.3698675899975
 20
290.259182976872
 30
0.0
 11
240.1519621566602
 21
291.0412775435347
 31
0.0
  0
LINE
  5
2EA
330
1F
100
AcDbEntity
  8
2
100
AcDbLine
 10
239.3957595230733
 20
290.2572361159725
 30
0.0
 11
240.1544887092933
 21
291.0159653021925
 31
0.0
  0
LINE
  5
2EB
330
1F
100
AcDbEntity
  8
2
100
AcDbLine
 10
239.4216514561493
 20
290.2552892550732
 30
0.0
 11
240.1570152619266
 21
290.9906530608505
 31
0.0
  0
LINE
  5
2EC
330
1F
100
AcDbEntity
  8
2
100
AcDbLine
 10
239.4475433892252
 20
290.2533423941737
 30
0.0
 11
240.1595418145597
 21
290.9653408195083
 31
0.0
  0
LINE
  5
2ED
330
1F
100
AcDbEntity
  8
2
100
AcDbLine
 10
239.4734353223011
 20
290.2513955332743
 30
0.0
 11
240.162068367193
 21
290.9400285781662
 31
0.0
  0
LINE
  5
2EE
330
1F
100
AcDbEntity
  8
2
100
AcDbLine
 10
239.4993272553771
 20
290.249448672375
 30
0.0
 11
240.1645949198261
 21
290.9147163368241
 31
0.0
  0
LINE
  5
2EF
330
1F
100
AcDbEntity
  8
2
100
AcDbLine
 10
239.5252191884529
 20
290.2475018114756
 30
0.0
 11
240.1671214724593
 21
290.889404095482
 31
0.0
  0
LINE
  5
2F0
330
1F
100
AcDbEntity
  8
2
100
AcDbLine
 10
239.5511111215288
 20
290.2455549505761
 30
0.0
 11
240.1696480250925
 21
290.8640918541399
 31
0.0
  0
LINE
  5
2F1
330
1F
100
AcDbEntity
  8
2
100
AcDbLine
 10
239.5770030546048
 20
290.2436080896767
 30
0.0
 11
240.1721745777257
 21
290.8387796127977
 31
0.0
  0
LINE
  5
2F2
330
1F
100
AcDbEntity
  8
2
100
AcDbLine
 10
239.6028949876807
 20
290.2416612287774
 30
0.0
 11
240.174701130359
 21
290.8134673714556
 31
0.0
  0
LINE
  5
2F3
330
1F
100
AcDbEntity
  8
2
100
AcDbLine
 10
239.6287869207566
 20
290.239714367878
 30
0.0
 11
240.1772276829922
 21
290.7881551301135
 31
0.0
  0
LINE
  5
2F4
330
1F
100
AcDbEntity
  8
2
100
AcDbLine
 10
239.6546788538325
 20
290.2377675069786
 30
0.0
 11
240.1797542356253
 21
290.7628428887715
 31
0.0
  0
LINE
  5
2F5
330
1F
100
AcDbEntity
  8
2
100
AcDbLine
 10
239.6805707869084
 20
290.2358206460792
 30
0.0
 11
240.1822807882586
 21
290.7375306474293
 31
0.0
  0
LINE
  5
2F6
330
1F
100
AcDbEntity
  8
2
100
AcDbLine
 10
239.7064627199843
 20
290.2338737851798
 30
0.0
 11
240.1848073408917
 21
290.7122184060872
 31
0.0
  0
LINE
  5
2F7
330
1F
100
AcDbEntity
  8
2
100
AcDbLine
 10
239.7323546530603
 20
290.2319269242804
 30
0.0
 11
240.187333893525
 21
290.6869061647451
 31
0.0
  0
LINE
  5
2F8
330
1F
100
AcDbEntity
  8
2
100
AcDbLine
 10
239.7582465861361
 20
290.229980063381
 30
0.0
 11
240.1898604461581
 21
290.6615939234029
 31
0.0
  0
LINE
  5
2F9
330
1F
100
AcDbEntity
  8
2
100
AcDbLine
 10
239.7841385192121
 20
290.2280332024816
 30
0.0
 11
240.1923869987914
 21
290.6362816820608
 31
0.0
  0
LINE
  5
2FA
330
1F
100
AcDbEntity
  8
2
100
AcDbLine
 10
239.8100304522881
 20
290.2260863415822
 30
0.0
 11
240.1949135514246
 21
290.6109694407188
 31
0.0
  0
LINE
  5
2FB
330
1F
100
AcDbEntity
  8
2
100
AcDbLine
 10
239.8359223853639
 20
290.2241394806828
 30
0.0
 11
240.1974401040578
 21
290.5856571993766
 31
0.0
  0
LINE
  5
2FC
330
1F
100
AcDbEntity
  8
2
100
AcDbLine
 10
239.8618143184399
 20
290.2221926197834
 30
0.0
 11
240.199966656691
 21
290.5603449580345
 31
0.0
  0
LINE
  5
2FD
330
1F
100
AcDbEntity
  8
2
100
AcDbLine
 10
239.8877062515158
 20
290.220245758884
 30
0.0
 11
240.2024932093242
 21
290.5350327166924
 31
0.0
  0
LINE
  5
2FE
330
1F
100
AcDbEntity
  8
2
100
AcDbLine
 10
239.9135981845916
 20
290.2182988979845
 30
0.0
 11
240.2050197619574
 21
290.5097204753503
 31
0.0
  0
LINE
  5
2FF
330
1F
100
AcDbEntity
  8
2
100
AcDbLine
 10
239.9394901176676
 20
290.2163520370852
 30
0.0
 11
240.2075463145906
 21
290.4844082340081
 31
0.0
  0
LINE
  5
300
330
1F
100
AcDbEntity
  8
2
100
AcDbLine
 10
239.9653820507435
 20
290.2144051761858
 30
0.0
 11
240.2100728672238
 21
290.4590959926661
 31
0.0
  0
LINE
  5
301
330
1F
100
AcDbEntity
  8
2
100
AcDbLine
 10
239.9912739838194
 20
290.2124583152864
 30
0.0
 11
240.212599419857
 21
290.4337837513239
 31
0.0
  0
LINE
  5
302
330
1F
100
AcDbEntity
  8
2
100
AcDbLine
 10
240.0171659168953
 20
290.210511454387
 30
0.0
 11
240.2151259724902
 21
290.4084715099818
 31
0.0
  0
LINE
  5
303
330
1F
100
AcDbEntity
  8
2
100
AcDbLine
 10
240.0430578499713
 20
290.2085645934875
 30
0.0
 11
240.2176525251234
 21
290.3831592686397
 31
0.0
  0
LINE
  5
304
330
1F
100
AcDbEntity
  8
2
100
AcDbLine
 10
240.0689497830472
 20
290.2066177325882
 30
0.0
 11
240.2201790777566
 21
290.3578470272976
 31
0.0
  0
LINE
  5
305
330
1F
100
AcDbEntity
  8
2
100
AcDbLine
 10
240.0948417161231
 20
290.2046708716888
 30
0.0
 11
240.2227056303898
 21
290.3325347859554
 31
0.0
  0
LINE
  5
306
330
1F
100
AcDbEntity
  8
2
100
AcDbLine
 10
240.120733649199
 20
290.2027240107894
 30
0.0
 11
240.225232183023
 21
290.3072225446134
 31
0.0
  0
LINE
  5
307
330
1F
100
AcDbEntity
  8
2
100
AcDbLine
 10
240.146625582275
 20
290.2007771498901
 30
0.0
 11
240.2277587356563
 21
290.2819103032713
 31
0.0
  0
LINE
  5
308
330
1F
100
AcDbEntity
  8
2
100
AcDbLine
 10
240.1725175153508
 20
290.1988302889906
 30
0.0
 11
240.2302852882894
 21
290.2565980619292
 31
0.0
  0
LINE
  5
309
330
1F
100
AcDbEntity
  8
2
100
AcDbLine
 10
240.1984094484268
 20
290.1968834280913
 30
0.0
 11
240.2328118409226
 21
290.2312858205871
 31
0.0
  0
LINE
  5
30A
330
1F
100
AcDbEntity
  8
2
100
AcDbLine
 10
240.2243013815027
 20
290.1949365671919
 30
0.0
 11
240.2353383935558
 21
290.205973579245
 31
0.0
  0
MTEXT
  5
30B
330
1F
100
AcDbEntity
  8
2
100
AcDbMText
 10
247.453041
 20
309.02876
 30
0.0
 40
3.5
 41
0.0
 71
     7
 72
     5
  1
\W0.8459;30,2
  7
cesky
 73
     2
 44
0.8433729999999998
  0
LINE
  5
30C
330
1F
100
AcDbEntity
  8
2
100
AcDbLine
 10
236.692541
 20
299.689665
 30
0.0
 11
236.692541
 21
310.154593
 31
0.0
  0
LINE
  5
30D
330
1F
100
AcDbEntity
  8
2
100
AcDbLine
 10
266.892541
 20
294.389665
 30
0.0
 11
266.892541
 21
310.154593
 31
0.0
  0
LINE
  5
30E
330
1F
100
AcDbEntity
  8
2
100
AcDbLine
 10
236.692541
 20
309.154593
 30
0.0
 11
266.892541
 21
309.154593
 31
0.0
  0
SOLID
  5
30F
330
1F
100
AcDbEntity
  8
2
100
AcDbTrace
 10
236.692541
 20
309.154593
 30
0.0
 11
240.192539
 21
309.771738
 31
0.0
 12
240.192543
 22
308.537449
 32
0.0
 13
240.192543
 23
308.537449
 33
0.0
  0
SOLID
  5
310
330
1F
100
AcDbEntity
  8
2
100
AcDbTrace
 10
266.892541
 20
309.154593
 30
0.0
 11
263.392543
 21
308.537449
 31
0.0
 12
263.392539
 22
309.771738
 32
0.0
 13
263.392539
 23
309.771738
 33
0.0
  0
MTEXT
  5
311
330
1F
100
AcDbEntity
  8
2
100
AcDbMText
 10
228.098638
 20
270.522165
 30
0.0
 40
3.5
 41
0.0
 71
     7
 72
     5
  1
\W0.9110;11,25
  7
cesky
 11
0.0000000000000001
 21
1.0
 31
0.0
 73
     2
 44
0.8433729999999998
  0
LINE
  5
312
330
1F
100
AcDbEntity
  8
2
100
AcDbLine
 10
236.692541
 20
299.689665
 30
0.0
 11
226.629804
 21
299.689665
 31
0.0
  0
LINE
  5
313
330
1F
100
AcDbEntity
  8
2
100
AcDbLine
 10
257.992541
 20
288.439665
 30
0.0
 11
226.629804
 21
288.439665
 31
0.0
  0
LINE
  5
314
330
1F
100
AcDbEntity
  8
2
100
AcDbLine
 10
227.629804
 20
299.689665
 30
0.0
 11
227.629804
 21
270.364665
 31
0.0
  0
SOLID
  5
315
330
1F
100
AcDbEntity
  8
2
100
AcDbTrace
 10
227.629804
 20
299.689665
 30
0.0
 11
228.246949
 21
296.189667
 31
0.0
 12
227.01266
 22
296.189663
 32
0.0
 13
227.01266
 23
296.189663
 33
0.0
  0
SOLID
  5
316
330
1F
100
AcDbEntity
  8
2
100
AcDbTrace
 10
227.629804
 20
288.439665
 30
0.0
 11
227.01266
 21
291.939663
 31
0.0
 12
228.246949
 22
291.939667
 32
0.0
 13
228.246949
 23
291.939667
 33
0.0
  0
MTEXT
  5
317
330
1F
100
AcDbEntity
  8
SK2
100
AcDbMText
 10
283.615541
 20
322.288111
 30
0.0
 40
3.5
 41
0.0
 71
     7
 72
     5
  1
\W0.7809;100
  7
cesky
 73
     2
 44
0.8433729999999998
  0
LINE
  5
318
330
1F
100
AcDbEntity
  8
SK2
100
AcDbLine
 10
336.692541
 20
300.339665
 30
0.0
 11
336.692541
 21
323.413945
 31
0.0
  0
LINE
  5
319
330
1F
100
AcDbEntity
  8
SK2
100
AcDbLine
 10
236.692541
 20
299.689665
 30
0.0
 11
236.692541
 21
323.413945
 31
0.0
  0
LINE
  5
31A
330
1F
100
AcDbEntity
  8
SK2
100
AcDbLine
 10
336.692541
 20
322.413945
 30
0.0
 11
236.692541
 21
322.413945
 31
0.0
  0
SOLID
  5
31B
330
1F
100
AcDbEntity
  8
SK2
100
AcDbTrace
 10
336.692541
 20
322.413945
 30
0.0
 11
333.192543
 21
321.7968
 31
0.0
 12
333.192539
 22
323.031089
 32
0.0
 13
333.192539
 23
323.031089
 33
0.0
  0
SOLID
  5
31C
330
1F
100
AcDbEntity
  8
SK2
100
AcDbTrace
 10
236.692541
 20
322.413945
 30
0.0
 11
240.192539
 21
323.031089
 31
0.0
 12
240.192543
 22
321.7968
 32
0.0
 13
240.192543
 23
321.7968
 33
0.0
  0
MTEXT
  5
31D
330
1F
100
AcDbEntity
  8
SK2
100
AcDbMText
 10
348.010003
 20
292.547165
 30
0.0
 40
3.5
 41
0.0
 71
     7
 72
     5
  1
\W0.7984;12
  7
cesky
 11
0.0000000000000001
 21
1.0
 31
0.0
 73
     2
 44
0.8433729999999998
  0
LINE
  5
31E
330
1F
100
AcDbEntity
  8
SK2
100
AcDbLine
 10
336.692541
 20
300.339665
 30
0.0
 11
348.541169
 21
300.339665
 31
0.0
  0
LINE
  5
31F
330
1F
100
AcDbEntity
  8
SK2
100
AcDbLine
 10
336.692541
 20
288.439665
 30
0.0
 11
348.541169
 21
288.439665
 31
0.0
  0
LINE
  5
320
330
1F
100
AcDbEntity
  8
SK2
100
AcDbLine
 10
347.541169
 20
309.089665
 30
0.0
 11
347.541169
 21
279.689665
 31
0.0
  0
SOLID
  5
321
330
1F
100
AcDbEntity
  8
SK2
100
AcDbTrace
 10
347.541169
 20
300.339665
 30
0.0
 11
346.924025
 21
303.839663
 31
0.0
 12
348.158314
 22
303.839667
 32
0.0
 13
348.158314
 23
303.839667
 33
0.0
  0
SOLID
  5
322
330
1F
100
AcDbEntity
  8
SK2
100
AcDbTrace
 10
347.541169
 20
288.439665
 30
0.0
 11
348.158314
 21
284.939667
 31
0.0
 12
346.924025
 22
284.939663
 32
0.0
 13
346.924025
 23
284.939663
 33
0.0
  0
ELLIPSE
  5
325
330
1F
100
AcDbEntity
  8
CUT
100
AcDbEllipse
 10
236.795308
 20
300.340048
 30
0.0
 11
0.1412982108784917
 21
-0.0593684288952461
 31
0.0
210
0.0
220
0.0
230
1.0
 40
0.978218
 41
2.385419440852798
 42
3.531556026970002
  0
ELLIPSE
  5
326
330
1F
100
AcDbEntity
  8
CUT
100
AcDbEllipse
 10
238.416683
 20
299.098788
 30
0.0
 11
0.7999959557357569
 21
0.0368722766731668
 31
0.0
210
0.0
220
0.0
230
1.0
 40
0.06899
 41
4.112801108305638
 42
4.552129589572659
  0
ELLIPSE
  5
327
330
1F
100
AcDbEntity
  8
CUT
100
AcDbEllipse
 10
237.237167
 20
298.924563
 30
0.0
 11
1.299993427947497
 21
0.0599174495828978
 31
0.0
210
0.0
220
0.0
230
0.9999999999999998
 40
0.06899
 41
0.9712084547277227
 42
1.877192401173289
  0
ELLIPSE
  5
328
330
1F
100
AcDbEntity
  8
CUT
100
AcDbEllipse
 10
236.688789
 20
300.461394
 30
0.0
 11
0.499997440193557
 21
-0.0230451724793986
 31
0.0
210
0.0
220
0.0
230
0.9999999999999998
 40
0.06899
 41
1.264400264842942
 42
1.346457847721428
  0
ELLIPSE
  5
329
330
1F
100
AcDbEntity
  8
CUT
100
AcDbEllipse
 10
236.688789
 20
299.0179359999999
 30
0.0
 11
0.4999973442680114
 21
0.0230451712131507
 31
0.0
210
0.0
220
0.0
230
1.0
 40
0.06899
 41
4.936727406220438
 42
5.018785003812773
  0
ELLIPSE
  5
32A
330
1F
100
AcDbEntity
  8
CUT
100
AcDbEllipse
 10
237.237167
 20
300.554767
 30
0.0
 11
1.299993427944692
 21
-0.0599174495826724
 31
0.0
210
0.0
220
0.0
230
1.0
 40
0.06899
 41
4.405992906004549
 42
5.311976852452111
  0
ELLIPSE
  5
32B
330
1F
100
AcDbEntity
  8
CUT
100
AcDbEllipse
 10
238.416683
 20
300.380542
 30
0.0
 11
0.7999959556326417
 21
-0.0368722766638573
 31
0.0
210
0.0
220
0.0
230
0.9999999999999998
 40
0.06899
 41
1.731055717538914
 42
2.170384198856036
  0
ELLIPSE
  5
32C
330
1F
100
AcDbEntity
  8
CUT
100
AcDbEllipse
 10
236.795308
 20
299.139282
 30
0.0
 11
0.1412982108812666
 21
0.0593684288808403
 31
0.0
210
0.0
220
0.0
230
1.0
 40
0.978218
 41
2.751629280297384
 42
3.897765866426322
  0
LINE
  5
32D
330
1F
100
AcDbEntity
  8
CUT
100
AcDbLine
 10
236.642541
 20
299.1369160000001
 30
0.0
 11
236.642541
 21
300.342414
 31
0.0
  0
LINE
  5
32E
330
1F
100
AcDbEntity
  8
CUT
100
AcDbLine
 10
238.291536
 20
300.44091
 30
0.0
 11
238.291536
 21
299.03842
 31
0.0
  0
LINE
  5
32F
330
1F
100
AcDbEntity
  8
CUT
100
AcDbLine
 10
236.7323665445201
 20
300.4780750434858
 30
0.0
 11
236.7323665445201
 21
300.4780750434858
 31
0.0
  0
ARC
  5
330
330
1F
100
AcDbEntity
  8
CUT
100
AcDbCircle
 10
236.7917241535432
 20
300.3390708498115
 30
0.0
 40
0.1511472514072925
100
AcDbArc
 50
86.26548694942647
 51
113.1234646950088
  0
LINE
  5
331
330
1F
100
AcDbEntity
  8
CUT
100
AcDbLine
 10
236.8015688890337
 20
298.9894327507646
 30
0.0
 11
236.8015688890337
 21
298.9894327507646
 31
0.0
  0
ARC
  5
332
330
1F
100
AcDbEntity
  8
CUT
100
AcDbCircle
 10
236.7917897688534
 20
299.1406431391736
 30
0.0
 40
0.1515262774383042
100
AcDbArc
 50
246.9107529021318
 51
273.700295453173
  0
ENDSEC
  0
SECTION
  2
OBJECTS
  0
DICTIONARY
  5
C
330
0
100
AcDbDictionary
281
     1
  3
ACAD_CIP_PREVIOUS_PRODUCT_INFO
350
1F5
  3
ACAD_COLOR
350
1F0
  3
ACAD_DETAILVIEWSTYLE
350
1EC
  3
ACAD_GROUP
350
D
  3
ACAD_LAYOUT
350
1A
  3
ACAD_MATERIAL
350
43
  3
ACAD_MLEADERSTYLE
350
6B
  3
ACAD_MLINESTYLE
350
17
  3
ACAD_PLOTSETTINGS
350
19
  3
ACAD_PLOTSTYLENAME
350
E
  3
ACAD_SCALELIST
350
47
  3
ACAD_SECTIONVIEWSTYLE
350
1ED
  3
ACAD_TABLESTYLE
350
69
  3
ACAD_VISUALSTYLE
350
2A
  3
ACDB_RECOMPOSE_DATA
350
362
  3
AcDbVariableDictionary
350
1A9
  0
DICTIONARY
  5
341
330
10
100
AcDbDictionary
280
     1
281
     1
  3
ADSK_XREC_LAYER_RECONCILED
360
342
  0
DICTIONARY
  5
343
330
74
100
AcDbDictionary
280
     1
281
     1
  3
ADSK_XREC_LAYER_RECONCILED
360
344
  0
DICTIONARY
  5
345
330
333
100
AcDbDictionary
280
     1
281
     1
  3
ADSK_XREC_LAYER_RECONCILED
360
346
  0
DICTIONARY
  5
347
330
334
100
AcDbDictionary
280
     1
281
     1
  3
ADSK_XREC_LAYER_RECONCILED
360
348
  0
DICTIONARY
  5
349
330
335
100
AcDbDictionary
280
     1
281
     1
  3
ADSK_XREC_LAYER_RECONCILED
360
34A
  0
DICTIONARY
  5
34B
330
336
100
AcDbDictionary
280
     1
281
     1
  3
ADSK_XREC_LAYER_RECONCILED
360
34C
  0
DICTIONARY
  5
34D
330
337
100
AcDbDictionary
280
     1
281
     1
  3
ADSK_XREC_LAYER_RECONCILED
360
34E
  0
DICTIONARY
  5
34F
330
338
100
AcDbDictionary
280
     1
281
     1
  3
ADSK_XREC_LAYER_RECONCILED
360
350
  0
DICTIONARY
  5
351
330
339
100
AcDbDictionary
280
     1
281
     1
  3
ADSK_XREC_LAYER_RECONCILED
360
352
  0
DICTIONARY
  5
353
330
33A
100
AcDbDictionary
280
     1
281
     1
  3
ADSK_XREC_LAYER_RECONCILED
360
354
  0
DICTIONARY
  5
355
330
33B
100
AcDbDictionary
280
     1
281
     1
  3
ADSK_XREC_LAYER_RECONCILED
360
356
  0
DICTIONARY
  5
357
330
33C
100
AcDbDictionary
280
     1
281
     1
  3
ADSK_XREC_LAYER_RECONCILED
360
358
  0
DICTIONARY
  5
359
330
33E
100
AcDbDictionary
280
     1
281
     1
  3
ADSK_XREC_LAYER_RECONCILED
360
35A
  0
DICTIONARY
  5
35B
330
33F
100
AcDbDictionary
280
     1
281
     1
  3
ADSK_XREC_LAYER_RECONCILED
360
35C
  0
DICTIONARY
  5
1F6
330
1F
100
AcDbDictionary
280
     1
281
     1
  3
ACAD_SORTENTS
360
1F7
  0
XRECORD
  5
1F5
102
{ACAD_REACTORS
330
C
102
}
330
C
100
AcDbXrecord
280
     1
300
AMECH_PP
300
2019
300
87089AMECH_PP_2019_0F
  0
DICTIONARY
  5
1F0
102
{ACAD_REACTORS
330
C
102
}
330
C
100
AcDbDictionary
281
     1
  0
DICTIONARY
  5
1EC
102
{ACAD_REACTORS
330
C
102
}
330
C
100
AcDbDictionary
281
     1
  3
Metric50
350
1F2
  0
DICTIONARY
  5
D
102
{ACAD_REACTORS
330
C
102
}
330
C
100
AcDbDictionary
281
     1
  3
ANNOTATION
350
194
  3
NULOVY_BOD
350
340
  0
DICTIONARY
  5
1A
102
{ACAD_REACTORS
330
C
102
}
330
C
100
AcDbDictionary
281
     1
  3
Layout1
350
1E
  3
Layout2
350
26
  3
Model
350
22
  0
DICTIONARY
  5
43
102
{ACAD_REACTORS
330
C
102
}
330
C
100
AcDbDictionary
281
     1
  3
ByBlock
350
45
  3
ByLayer
350
44
  3
Global
350
46
  0
DICTIONARY
  5
6B
102
{ACAD_REACTORS
330
C
102
}
330
C
100
AcDbDictionary
281
     1
  3
Standard
350
6C
  0
DICTIONARY
  5
17
102
{ACAD_REACTORS
330
C
102
}
330
C
100
AcDbDictionary
281
     1
  3
Standard
350
18
  0
DICTIONARY
  5
19
102
{ACAD_REACTORS
330
C
102
}
330
C
100
AcDbDictionary
281
     1
  0
ACDBDICTIONARYWDFLT
  5
E
102
{ACAD_REACTORS
330
C
102
}
330
C
100
AcDbDictionary
281
     1
  3
Normal
350
F
100
AcDbDictionaryWithDefault
340
F
  0
DICTIONARY
  5
47
102
{ACAD_REACTORS
330
C
102
}
330
C
100
AcDbDictionary
281
     1
  3
A0
350
48
  3
A1
350
49
  3
A2
350
4A
  3
A3
350
4B
  3
A4
350
4C
  3
A5
350
4D
  3
A6
350
4E
  3
A7
350
4F
  3
A8
350
50
  3
A9
350
51
  3
B0
350
52
  3
B1
350
53
  3
B2
350
54
  3
B3
350
55
  3
B4
350
56
  3
B5
350
57
  3
B6
350
58
  3
B7
350
59
  3
B8
350
5A
  3
B9
350
5B
  3
C0
350
5C
  3
C1
350
5D
  3
C2
350
5E
  3
C3
350
5F
  3
C4
350
60
  3
C5
350
61
  3
C6
350
62
  3
C7
350
63
  3
C8
350
64
  3
C9
350
65
  3
D0
350
66
  3
D1
350
67
  3
D2
350
68
  0
DICTIONARY
  5
1ED
102
{ACAD_REACTORS
330
C
102
}
330
C
100
AcDbDictionary
281
     1
  3
Metric50
350
1F1
  0
DICTIONARY
  5
69
102
{ACAD_REACTORS
330
C
102
}
330
C
100
AcDbDictionary
281
     1
  3
Standard
350
6A
  0
DICTIONARY
  5
2A
102
{ACAD_REACTORS
330
C
102
}
330
C
100
AcDbDictionary
281
     1
  3
2dWireframe
350
2F
  3
Basic
350
32
  3
Brighten
350
36
  3
ColorChange
350
3A
  3
Conceptual
350
34
  3
Dim
350
35
  3
EdgeColorOff
350
3D
  3
Facepattern
350
39
  3
Flat
350
2B
  3
FlatWithEdges
350
2C
  3
Gouraud
350
2D
  3
GouraudWithEdges
350
2E
  3
Hidden
350
31
  3
JitterOff
350
3B
  3
Linepattern
350
38
  3
OverhangOff
350
3C
  3
Realistic
350
33
  3
Shaded
350
42
  3
Shaded with edges
350
41
  3
Shades of Gray
350
3E
  3
Sketchy
350
3F
  3
Thicken
350
37
  3
Wireframe
350
30
  3
X-Ray
350
40
  0
XRECORD
  5
362
102
{ACAD_REACTORS
330
C
102
}
330
C
100
AcDbXrecord
280
     1
 90
        1
330
6A
  0
DICTIONARY
  5
1A9
102
{ACAD_REACTORS
330
C
102
}
330
C
100
AcDbDictionary
281
     1
  3
CANNOSCALE
350
1AA
  3
CMLEADERSTYLE
350
1EB
  3
CTABLESTYLE
350
1EA
  3
CVIEWDETAILSTYLE
350
35D
  3
CVIEWSECTIONSTYLE
350
35E
  3
MSLTSCALE
350
1AB
  3
XCLIPFRAME
350
35F
  0
XRECORD
  5
342
102
{ACAD_REACTORS
330
341
102
}
330
341
100
AcDbXrecord
280
     1
290
     1
  0
XRECORD
  5
344
102
{ACAD_REACTORS
330
343
102
}
330
343
100
AcDbXrecord
280
     1
290
     1
  0
XRECORD
  5
346
102
{ACAD_REACTORS
330
345
102
}
330
345
100
AcDbXrecord
280
     1
290
     1
  0
XRECORD
  5
348
102
{ACAD_REACTORS
330
347
102
}
330
347
100
AcDbXrecord
280
     1
290
     1
  0
XRECORD
  5
34A
102
{ACAD_REACTORS
330
349
102
}
330
349
100
AcDbXrecord
280
     1
290
     1
  0
XRECORD
  5
34C
102
{ACAD_REACTORS
330
34B
102
}
330
34B
100
AcDbXrecord
280
     1
290
     1
  0
XRECORD
  5
34E
102
{ACAD_REACTORS
330
34D
102
}
330
34D
100
AcDbXrecord
280
     1
290
     1
  0
XRECORD
  5
350
102
{ACAD_REACTORS
330
34F
102
}
330
34F
100
AcDbXrecord
280
     1
290
     1
  0
XRECORD
  5
352
102
{ACAD_REACTORS
330
351
102
}
330
351
100
AcDbXrecord
280
     1
290
     1
  0
XRECORD
  5
354
102
{ACAD_REACTORS
330
353
102
}
330
353
100
AcDbXrecord
280
     1
290
     1
  0
XRECORD
  5
356
102
{ACAD_REACTORS
330
355
102
}
330
355
100
AcDbXrecord
280
     1
290
     1
  0
XRECORD
  5
358
102
{ACAD_REACTORS
330
357
102
}
330
357
100
AcDbXrecord
280
     1
290
     1
  0
XRECORD
  5
35A
102
{ACAD_REACTORS
330
359
102
}
330
359
100
AcDbXrecord
280
     1
290
     1
  0
XRECORD
  5
35C
102
{ACAD_REACTORS
330
35B
102
}
330
35B
100
AcDbXrecord
280
     1
290
     1
  0
SORTENTSTABLE
  5
1F7
102
{ACAD_REACTORS
330
1F6
102
}
330
1F6
100
AcDbSortentsTable
330
1F
331
126
  5
127
331
127
  5
128
331
128
  5
12A
331
12A
  5
27C
331
12B
  5
27D
331
12C
  5
27E
331
12E
  5
308
331
1F8
  5
126
331
1F9
  5
12B
331
1FA
  5
12C
331
1FB
  5
12E
331
1FC
  5
130
331
1FD
  5
161
331
1FE
  5
1F8
331
1FF
  5
1F9
331
200
  5
1FA
331
201
  5
1FB
331
202
  5
1FC
331
203
  5
1FD
331
204
  5
1FE
331
205
  5
1FF
331
206
  5
200
331
207
  5
201
331
208
  5
202
331
209
  5
203
331
20A
  5
204
331
20B
  5
205
331
20C
  5
206
331
20D
  5
207
331
20E
  5
208
331
20F
  5
209
331
210
  5
20A
331
211
  5
20B
331
212
  5
20C
331
213
  5
20D
331
214
  5
20E
331
215
  5
20F
331
216
  5
210
331
217
  5
211
331
218
  5
212
331
219
  5
213
331
21A
  5
214
331
21B
  5
215
331
21C
  5
216
331
21D
  5
217
331
21E
  5
218
331
21F
  5
219
331
220
  5
21A
331
221
  5
21B
331
222
  5
21C
331
223
  5
21D
331
224
  5
21E
331
225
  5
21F
331
226
  5
220
331
227
  5
221
331
228
  5
222
331
229
  5
223
331
22A
  5
224
331
22B
  5
225
331
22C
  5
226
331
22D
  5
227
331
22E
  5
228
331
22F
  5
229
331
230
  5
22A
331
231
  5
22B
331
232
  5
22C
331
233
  5
22D
331
234
  5
22E
331
235
  5
22F
331
236
  5
230
331
237
  5
231
331
238
  5
232
331
239
  5
233
331
23A
  5
234
331
23B
  5
235
331
23C
  5
236
331
23D
  5
237
331
23E
  5
238
331
23F
  5
239
331
240
  5
23A
331
241
  5
23B
331
242
  5
23C
331
243
  5
23D
331
244
  5
23E
331
245
  5
23F
331
246
  5
240
331
247
  5
241
331
248
  5
242
331
249
  5
243
331
24A
  5
244
331
24B
  5
245
331
24C
  5
246
331
24D
  5
247
331
24E
  5
248
331
24F
  5
249
331
250
  5
24A
331
251
  5
24B
331
252
  5
24C
331
253
  5
24D
331
254
  5
24E
331
255
  5
24F
331
256
  5
250
331
257
  5
251
331
258
  5
252
331
259
  5
253
331
25A
  5
254
331
25B
  5
255
331
25C
  5
256
331
25D
  5
257
331
25E
  5
258
331
25F
  5
259
331
260
  5
25A
331
261
  5
25B
331
262
  5
25C
331
263
  5
25D
331
264
  5
25E
331
265
  5
25F
331
266
  5
260
331
267
  5
261
331
268
  5
262
331
269
  5
263
331
26A
  5
264
331
26B
  5
265
331
26C
  5
266
331
26D
  5
267
331
26E
  5
268
331
26F
  5
269
331
270
  5
26A
331
271
  5
26B
331
272
  5
26C
331
273
  5
26D
331
274
  5
26E
331
275
  5
26F
331
276
  5
270
331
277
  5
271
331
278
  5
272
331
279
  5
273
331
27A
  5
274
331
27B
  5
275
331
27C
  5
276
331
27D
  5
277
331
27E
  5
278
331
27F
  5
279
331
280
  5
27A
331
281
  5
27B
331
282
  5
27F
331
283
  5
280
331
284
  5
281
331
285
  5
282
331
286
  5
283
331
287
  5
284
331
288
  5
285
331
289
  5
286
331
28A
  5
287
331
28B
  5
288
331
28C
  5
289
331
28D
  5
28A
331
28E
  5
28B
331
28F
  5
28C
331
290
  5
28D
331
291
  5
28E
331
292
  5
28F
331
293
  5
290
331
294
  5
291
331
295
  5
292
331
296
  5
293
331
297
  5
294
331
298
  5
295
331
299
  5
296
331
29A
  5
297
331
29B
  5
298
331
29C
  5
299
331
29D
  5
29A
331
29E
  5
29B
331
29F
  5
29C
331
2A0
  5
29D
331
2A1
  5
29E
331
2A2
  5
29F
331
2A3
  5
2A0
331
2A4
  5
2A1
331
2A5
  5
2A2
331
2A6
  5
2A3
331
2A7
  5
2A4
331
2A8
  5
2A5
331
2A9
  5
2A6
331
2AA
  5
2A7
331
2AB
  5
2A8
331
2AC
  5
2A9
331
2AD
  5
2AA
331
2AE
  5
2AB
331
2AF
  5
2AC
331
2B0
  5
2AD
331
2B1
  5
2AE
331
2B2
  5
2AF
331
2B3
  5
2B0
331
2B4
  5
2B1
331
2B5
  5
2B2
331
2B6
  5
2B3
331
2B7
  5
2B4
331
2B8
  5
2B5
331
2B9
  5
2B6
331
2BA
  5
2B7
331
2BB
  5
2B8
331
2BC
  5
2B9
331
2BD
  5
2BA
331
2BE
  5
2BB
331
2BF
  5
2BC
331
2C0
  5
2BD
331
2C1
  5
2BE
331
2C2
  5
2BF
331
2C3
  5
2C0
331
2C4
  5
2C1
331
2C5
  5
2C2
331
2C6
  5
2C3
331
2C7
  5
2C4
331
2C8
  5
2C5
331
2C9
  5
2C6
331
2CA
  5
2C7
331
2CB
  5
2C8
331
2CC
  5
2C9
331
2CD
  5
2CA
331
2CE
  5
2CB
331
2CF
  5
2CC
331
2D0
  5
2CD
331
2D1
  5
2CE
331
2D2
  5
2CF
331
2D3
  5
2D0
331
2D4
  5
2D1
331
2D5
  5
2D2
331
2D6
  5
2D3
331
2D7
  5
2D4
331
2D8
  5
2D5
331
2D9
  5
2D6
331
2DA
  5
2D7
331
2DB
  5
2D8
331
2DC
  5
2D9
331
2DD
  5
2DA
331
2DE
  5
2DB
331
2DF
  5
2DC
331
2E0
  5
2DD
331
2E1
  5
2DE
331
2E2
  5
2DF
331
2E3
  5
2E0
331
2E4
  5
2E1
331
2E5
  5
2E2
331
2E6
  5
2E3
331
2E7
  5
2E4
331
2E8
  5
2E5
331
2E9
  5
2E6
331
2EA
  5
2E7
331
2EB
  5
2E8
331
2EC
  5
2E9
331
2ED
  5
2EA
331
2EE
  5
2EB
331
2EF
  5
2EC
331
2F0
  5
2ED
331
2F1
  5
2EE
331
2F2
  5
2EF
331
2F3
  5
2F0
331
2F4
  5
2F1
331
2F5
  5
2F2
331
2F6
  5
2F3
331
2F7
  5
2F4
331
2F8
  5
2F5
331
2F9
  5
2F6
331
2FA
  5
2F7
331
2FB
  5
2F8
331
2FC
  5
2F9
331
2FD
  5
2FA
331
2FE
  5
2FB
331
2FF
  5
2FC
331
300
  5
2FD
331
301
  5
2FE
331
302
  5
2FF
331
303
  5
300
331
304
  5
301
331
305
  5
302
331
306
  5
303
331
307
  5
304
331
308
  5
305
331
309
  5
306
331
30A
  5
307
331
30B
  5
311
331
30C
  5
312
331
30D
  5
313
331
30E
  5
314
331
30F
  5
315
331
310
  5
316
331
311
  5
31D
331
312
  5
31E
331
313
  5
31F
331
314
  5
320
331
315
  5
321
331
316
  5
322
331
317
  5
30A
331
318
  5
30B
331
319
  5
30C
331
31A
  5
30D
331
31B
  5
30E
331
31C
  5
30F
331
31D
  5
317
331
31E
  5
318
331
31F
  5
319
331
320
  5
31A
331
321
  5
31B
331
322
  5
31C
331
32D
  5
331
331
32E
  5
332
331
32F
  5
32D
331
330
  5
32E
331
331
  5
32F
331
332
  5
330
  0
ACDBDETAILVIEWSTYLE
  5
1F2
102
{ACAD_XDICTIONARY
360
396
102
}
102
{ACAD_REACTORS
330
1EC
102
}
330
1EC
100
AcDbModelDocViewStyle
 70
     0
  3
Metric50
290
     0
100
AcDbDetailViewStyle
 70
     0
 71
     0
 90
        3
 71
     1
340
11
 62
   256
 40
5.0
340
0
 62
   256
 40
5.0
300

 40
0.0
280
     1
 71
     2
340
16
 90
       25
 62
   256
 71
     3
340
11
 62
   256
 40
5.0
 90
        0
 40
15.0
 90
        1
300
%<\AcVar ViewDetailId>% (%<\AcVar ViewScale \f "%sn">%)
 71
     4
340
16
 90
       25
 62
   256
340
16
 90
       25
 62
   256
280
     0
  0
GROUP
  5
194
102
{ACAD_REACTORS
330
D
102
}
330
D
100
AcDbGroup
300

 70
     0
 71
     1
340
D7
340
E1
  0
GROUP
  5
340
102
{ACAD_REACTORS
330
D
102
}
330
D
100
AcDbGroup
300

 70
     0
 71
     1
340
75
  0
LAYOUT
  5
1E
102
{ACAD_REACTORS
330
1A
102
}
330
1A
100
AcDbPlotSettings
  1

  2
none_device
  4

  6

 40
0.0
 41
0.0
 42
0.0
 43
0.0
 44
0.0
 45
0.0
 46
0.0
 47
0.0
 48
0.0
 49
0.0
140
0.0
141
0.0
142
1.0
143
1.0
 70
   688
 72
     0
 73
     0
 74
     5
  7

 75
    16
147
1.0
 76
     0
 77
     2
 78
   300
148
0.0
149
0.0
100
AcDbLayout
  1
Layout1
 70
     1
 71
     1
 10
-0.5
 20
-0.5
 11
5.0
 21
5.0
 12
0.0
 22
0.0
 32
0.0
 14
-0.5
 24
-0.5
 34
-0.5
 15
5.0
 25
5.0
 35
5.0
146
0.0
 13
0.0
 23
0.0
 33
0.0
 16
1.0
 26
0.0
 36
0.0
 17
0.0
 27
1.0
 37
0.0
 76
     0
330
1B
  0
LAYOUT
  5
26
102
{ACAD_REACTORS
330
1A
102
}
330
1A
100
AcDbPlotSettings
  1

  2
none_device
  4

  6

 40
0.0
 41
0.0
 42
0.0
 43
0.0
 44
0.0
 45
0.0
 46
0.0
 47
0.0
 48
0.0
 49
0.0
140
0.0
141
0.0
142
1.0
143
1.0
 70
   688
 72
     0
 73
     0
 74
     5
  7

 75
    16
147
1.0
 76
     0
 77
     2
 78
   300
148
0.0
149
0.0
100
AcDbLayout
  1
Layout2
 70
     1
 71
     2
 10
0.0
 20
0.0
 11
0.0
 21
0.0
 12
0.0
 22
0.0
 32
0.0
 14
0.0
 24
0.0
 34
0.0
 15
0.0
 25
0.0
 35
0.0
146
0.0
 13
0.0
 23
0.0
 33
0.0
 16
1.0
 26
0.0
 36
0.0
 17
0.0
 27
1.0
 37
0.0
 76
     0
330
23
  0
LAYOUT
  5
22
102
{ACAD_REACTORS
330
1A
102
}
330
1A
100
AcDbPlotSettings
  1

  2
none_device
  4
Letter_(8.50_x_11.00_Inches)
  6

 40
6.349999999999999
 41
6.349999999999999
 42
6.350005
 43
6.350005
 44
215.9
 45
279.4
 46
0.0
 47
0.0
 48
0.0
 49
0.0
140
0.0
141
0.0
142
1.0
143
1.0
 70
  1712
 72
     0
 73
     0
 74
     0
  7

 75
     0
147
1.0
 76
     0
 77
     2
 78
   300
148
0.0
149
0.0
100
AcDbLayout
  1
Model
 70
     1
 71
     0
 10
-0.5
 20
-0.5
 11
5.0
 21
5.0
 12
0.0
 22
0.0
 32
0.0
 14
-0.5
 24
-0.5
 34
-0.5
 15
5.0
 25
5.0
 35
5.0
146
0.0
 13
0.0
 23
0.0
 33
0.0
 16
1.0
 26
0.0
 36
0.0
 17
0.0
 27
1.0
 37
0.0
 76
     0
330
1F
331
29
  0
MATERIAL
  5
45
102
{ACAD_XDICTIONARY
360
1DF
102
}
102
{ACAD_REACTORS
330
43
102
}
330
43
100
AcDbMaterial
  1
ByBlock
  0
MATERIAL
  5
44
102
{ACAD_XDICTIONARY
360
1DD
102
}
102
{ACAD_REACTORS
330
43
102
}
330
43
100
AcDbMaterial
  1
ByLayer
  0
MATERIAL
  5
46
102
{ACAD_XDICTIONARY
360
1E1
102
}
102
{ACAD_REACTORS
330
43
102
}
330
43
100
AcDbMaterial
  1
Global
  0
MLEADERSTYLE
  5
6C
102
{ACAD_REACTORS
330
6B
102
}
330
6B
100
AcDbMLeaderStyle
170
     2
171
     1
172
     0
 90
        2
 40
0.0
 41
0.0
173
     1
 91
-1056964608
340
14
 92
       -2
290
     1
 42
0.09
291
     1
 43
0.36
  3
Standard
 44
0.18
300

342
11
174
     1
178
     6
175
     1
176
     0
 93
-1056964608
 45
0.18
292
     0
297
     0
 46
0.18
 94
-1056964608
 47
1.0
 49
1.0
140
1.0
293
     1
141
0.0
294
     1
177
     0
142
1.0
295
     0
296
     0
143
0.125
1001
ACAD_MLEADERVER
1070
     2
  0
MLINESTYLE
  5
18
102
{ACAD_REACTORS
330
17
102
}
330
17
100
AcDbMlineStyle
  2
STANDARD
 70
     0
  3

 62
   256
 51
90.0
 52
90.0
 71
     2
 49
0.5
 62
   256
  6
BYLAYER
 49
-0.5
 62
   256
  6
BYLAYER
  0
ACDBPLACEHOLDER
  5
F
102
{ACAD_REACTORS
330
E
102
}
330
E
  0
SCALE
  5
48
102
{ACAD_REACTORS
330
47
102
}
330
47
100
AcDbScale
 70
     0
300
1:1
140
1.0
141
1.0
290
     1
  0
SCALE
  5
49
102
{ACAD_REACTORS
330
47
102
}
330
47
100
AcDbScale
 70
     0
300
1:2
140
1.0
141
2.0
290
     0
  0
SCALE
  5
4A
102
{ACAD_REACTORS
330
47
102
}
330
47
100
AcDbScale
 70
     0
300
1:4
140
1.0
141
4.0
290
     0
  0
SCALE
  5
4B
102
{ACAD_REACTORS
330
47
102
}
330
47
100
AcDbScale
 70
     0
300
1:5
140
1.0
141
5.0
290
     0
  0
SCALE
  5
4C
102
{ACAD_REACTORS
330
47
102
}
330
47
100
AcDbScale
 70
     0
300
1:8
140
1.0
141
8.0
290
     0
  0
SCALE
  5
4D
102
{ACAD_REACTORS
330
47
102
}
330
47
100
AcDbScale
 70
     0
300
1:10
140
1.0
141
10.0
290
     0
  0
SCALE
  5
4E
102
{ACAD_REACTORS
330
47
102
}
330
47
100
AcDbScale
 70
     0
300
1:16
140
1.0
141
16.0
290
     0
  0
SCALE
  5
4F
102
{ACAD_REACTORS
330
47
102
}
330
47
100
AcDbScale
 70
     0
300
1:20
140
1.0
141
20.0
290
     0
  0
SCALE
  5
50
102
{ACAD_REACTORS
330
47
102
}
330
47
100
AcDbScale
 70
     0
300
1:30
140
1.0
141
30.0
290
     0
  0
SCALE
  5
51
102
{ACAD_REACTORS
330
47
102
}
330
47
100
AcDbScale
 70
     0
300
1:40
140
1.0
141
40.0
290
     0
  0
SCALE
  5
52
102
{ACAD_REACTORS
330
47
102
}
330
47
100
AcDbScale
 70
     0
300
1:50
140
1.0
141
50.0
290
     0
  0
SCALE
  5
53
102
{ACAD_REACTORS
330
47
102
}
330
47
100
AcDbScale
 70
     0
300
1:100
140
1.0
141
100.0
290
     0
  0
SCALE
  5
54
102
{ACAD_REACTORS
330
47
102
}
330
47
100
AcDbScale
 70
     0
300
2:1
140
2.0
141
1.0
290
     0
  0
SCALE
  5
55
102
{ACAD_REACTORS
330
47
102
}
330
47
100
AcDbScale
 70
     0
300
4:1
140
4.0
141
1.0
290
     0
  0
SCALE
  5
56
102
{ACAD_REACTORS
330
47
102
}
330
47
100
AcDbScale
 70
     0
300
8:1
140
8.0
141
1.0
290
     0
  0
SCALE
  5
57
102
{ACAD_REACTORS
330
47
102
}
330
47
100
AcDbScale
 70
     0
300
10:1
140
10.0
141
1.0
290
     0
  0
SCALE
  5
58
102
{ACAD_REACTORS
330
47
102
}
330
47
100
AcDbScale
 70
     0
300
100:1
140
100.0
141
1.0
290
     0
  0
SCALE
  5
59
102
{ACAD_REACTORS
330
47
102
}
330
47
100
AcDbScale
 70
     0
300
1/128" = 1'-0"
140
0.007812
141
12.0
290
     0
  0
SCALE
  5
5A
102
{ACAD_REACTORS
330
47
102
}
330
47
100
AcDbScale
 70
     0
300
1/64" = 1'-0"
140
0.015625
141
12.0
290
     0
  0
SCALE
  5
5B
102
{ACAD_REACTORS
330
47
102
}
330
47
100
AcDbScale
 70
     0
300
1/32" = 1'-0"
140
0.03125
141
12.0
290
     0
  0
SCALE
  5
5C
102
{ACAD_REACTORS
330
47
102
}
330
47
100
AcDbScale
 70
     0
300
1/16" = 1'-0"
140
0.0625
141
12.0
290
     0
  0
SCALE
  5
5D
102
{ACAD_REACTORS
330
47
102
}
330
47
100
AcDbScale
 70
     0
300
3/32" = 1'-0"
140
0.09375
141
12.0
290
     0
  0
SCALE
  5
5E
102
{ACAD_REACTORS
330
47
102
}
330
47
100
AcDbScale
 70
     0
300
1/8" = 1'-0"
140
0.125
141
12.0
290
     0
  0
SCALE
  5
5F
102
{ACAD_REACTORS
330
47
102
}
330
47
100
AcDbScale
 70
     0
300
3/16" = 1'-0"
140
0.1875
141
12.0
290
     0
  0
SCALE
  5
60
102
{ACAD_REACTORS
330
47
102
}
330
47
100
AcDbScale
 70
     0
300
1/4" = 1'-0"
140
0.25
141
12.0
290
     0
  0
SCALE
  5
61
102
{ACAD_REACTORS
330
47
102
}
330
47
100
AcDbScale
 70
     0
300
3/8" = 1'-0"
140
0.375
141
12.0
290
     0
  0
SCALE
  5
62
102
{ACAD_REACTORS
330
47
102
}
330
47
100
AcDbScale
 70
     0
300
1/2" = 1'-0"
140
0.5
141
12.0
290
     0
  0
SCALE
  5
63
102
{ACAD_REACTORS
330
47
102
}
330
47
100
AcDbScale
 70
     0
300
3/4" = 1'-0"
140
0.75
141
12.0
290
     0
  0
SCALE
  5
64
102
{ACAD_REACTORS
330
47
102
}
330
47
100
AcDbScale
 70
     0
300
1" = 1'-0"
140
1.0
141
12.0
290
     0
  0
SCALE
  5
65
102
{ACAD_REACTORS
330
47
102
}
330
47
100
AcDbScale
 70
     0
300
1-1/2" = 1'-0"
140
1.5
141
12.0
290
     0
  0
SCALE
  5
66
102
{ACAD_REACTORS
330
47
102
}
330
47
100
AcDbScale
 70
     0
300
3" = 1'-0"
140
3.0
141
12.0
290
     0
  0
SCALE
  5
67
102
{ACAD_REACTORS
330
47
102
}
330
47
100
AcDbScale
 70
     0
300
6" = 1'-0"
140
6.0
141
12.0
290
     0
  0
SCALE
  5
68
102
{ACAD_REACTORS
330
47
102
}
330
47
100
AcDbScale
 70
     0
300
1'-0" = 1'-0"
140
12.0
141
12.0
290
     0
  0
ACDBSECTIONVIEWSTYLE
  5
1F1
102
{ACAD_XDICTIONARY
360
394
102
}
102
{ACAD_REACTORS
330
1ED
102
}
330
1ED
100
AcDbModelDocViewStyle
 70
     0
  3
Metric50
290
     0
100
AcDbSectionViewStyle
 70
     0
 71
     0
 90
      102
 71
     1
340
11
 62
   256
 40
5.0
340
0
340
0
 62
   256
 40
5.0
300
I, O, Q, S, X, Z
 40
10.0
 90
        0
 40
2.5
 90
        0
 71
     2
340
16
 90
       25
 62
   256
340
16
 90
       50
 62
   256
 40
5.0
 40
2.5
 40
5.0
 71
     3
340
11
 62
   256
 40
5.0
 90
        0
 40
15.0
 90
        1
300
%<\AcVar ViewSectionStartId>%-%<\AcVar ViewSectionEndId>% (%<\AcVar ViewScale \f "%sn">%)
 71
     4
 62
   256
 62
   257
300
ANSI31
 40
1.0
 90
        0
290
     0
290
     0
 90
        6
 40
0.0
 40
1.570796326794896
 40
0.2617993877991494
 40
1.308996938995747
 40
-0.2617993877991494
 40
1.832595714594046
  0
TABLESTYLE
  5
6A
102
{ACAD_XDICTIONARY
360
1E3
102
}
102
{ACAD_REACTORS
330
69
102
}
330
69
100
AcDbTableStyle
  3
Standard
 70
     0
 71
     0
 40
0.06
 41
0.06
280
     0
281
     0
  7
Standard
140
0.18
170
     2
 62
     0
 63
     7
283
     0
274
    -2
284
     1
 64
     0
275
    -2
285
     1
 65
     0
276
    -2
286
     1
 66
     0
277
    -2
287
     1
 67
     0
278
    -2
288
     1
 68
     0
279
    -2
289
     1
 69
     0
  7
Standard
140
0.25
170
     5
 62
     0
 63
     7
283
     0
274
    -2
284
     1
 64
     0
275
    -2
285
     1
 65
     0
276
    -2
286
     1
 66
     0
277
    -2
287
     1
 67
     0
278
    -2
288
     1
 68
     0
279
    -2
289
     1
 69
     0
  7
Standard
140
0.18
170
     5
 62
     0
 63
     7
283
     0
274
    -2
284
     1
 64
     0
275
    -2
285
     1
 65
     0
276
    -2
286
     1
 66
     0
277
    -2
287
     1
 67
     0
278
    -2
288
     1
 68
     0
279
    -2
289
     1
 69
     0
  0
VISUALSTYLE
  5
2F
102
{ACAD_XDICTIONARY
360
36B
102
}
102
{ACAD_REACTORS
330
2A
102
}
330
2A
100
AcDbVisualStyle
  2

 70
     4
 71
     0
 72
     2
 73
     0
 90
        0
 40
-0.6
 41
-30.0
 62
     5
 63
     7
421
 16777215
 74
     1
 91
        4
 64
     7
 65
   257
 75
     1
175
     1
 42
1.0
 92
        0
 66
   257
 43
1.0
 76
     1
 77
     6
 78
     2
 67
     7
 79
     5
170
     0
171
     0
290
     0
174
     0
 93
        1
 44
0.0
173
     0
291
     0
 45
0.0
1001
ACAD
1000
AcDbSavedByObjectVersion
1070
     0
  0
VISUALSTYLE
  5
32
102
{ACAD_XDICTIONARY
360
371
102
}
102
{ACAD_REACTORS
330
2A
102
}
330
2A
100
AcDbVisualStyle
  2

 70
     7
 71
     1
 72
     0
 73
     1
 90
        0
 40
-0.6
 41
-30.0
 62
     5
 63
     7
421
 16777215
 74
     0
 91
        4
 64
     7
 65
   257
 75
     1
175
     1
 42
1.0
 92
        8
 66
     7
 43
1.0
 76
     1
 77
     6
 78
     2
 67
     7
 79
     5
170
     0
171
     0
290
     0
174
     0
 93
        1
 44
0.0
173
     0
291
     1
 45
0.0
1001
ACAD
1000
AcDbSavedByObjectVersion
1070
     0
  0
VISUALSTYLE
  5
36
102
{ACAD_XDICTIONARY
360
379
102
}
102
{ACAD_REACTORS
330
2A
102
}
330
2A
100
AcDbVisualStyle
  2

 70
    12
 71
     2
 72
     2
 73
     0
 90
        0
 40
-0.6
 41
-30.0
 62
     5
 63
     7
421
 16777215
 74
     1
 91
        4
 64
     7
 65
   257
 75
     1
175
     1
 42
1.0
 92
        8
 66
     7
 43
1.0
 76
     1
 77
     6
 78
     2
 67
     7
 79
     5
170
     0
171
     0
290
     0
174
     0
 93
        1
 44
50.0
173
     0
291
     1
 45
0.0
1001
ACAD
1000
AcDbSavedByObjectVersion
1070
     0
  0
VISUALSTYLE
  5
3A
102
{ACAD_XDICTIONARY
360
381
102
}
102
{ACAD_REACTORS
330
2A
102
}
330
2A
100
AcDbVisualStyle
  2

 70
    16
 71
     2
 72
     2
 73
     3
 90
        0
 40
-0.6
 41
-30.0
 62
     5
 63
     8
421
  8421504
 74
     1
 91
        4
 64
     7
 65
   257
 75
     1
175
     1
 42
1.0
 92
        8
 66
     8
424
  8421504
 43
1.0
 76
     1
 77
     6
 78
     2
 67
     7
 79
     5
170
     0
171
     0
290
     0
174
     0
 93
        1
 44
0.0
173
     0
291
     1
 45
0.0
1001
ACAD
1000
AcDbSavedByObjectVersion
1070
     0
  0
VISUALSTYLE
  5
34
102
{ACAD_XDICTIONARY
360
375
102
}
102
{ACAD_REACTORS
330
2A
102
}
330
2A
100
AcDbVisualStyle
  2

 70
     9
 71
     3
 72
     2
 73
     0
 90
        0
 40
-0.6
 41
-30.0
 62
     5
 63
     7
421
 16777215
 74
     2
 91
        2
 64
     7
 65
   257
 75
     1
175
     1
 42
179.0
 92
        8
 66
     7
 43
1.0
 76
     1
 77
     6
 78
     2
 67
     7
 79
     3
170
     0
171
     0
290
     0
174
     0
 93
        1
 44
0.0
173
     0
291
     0
 45
0.0
1001
ACAD
1000
AcDbSavedByObjectVersion
1070
     0
  0
VISUALSTYLE
  5
35
102
{ACAD_XDICTIONARY
360
377
102
}
102
{ACAD_REACTORS
330
2A
102
}
330
2A
100
AcDbVisualStyle
  2

 70
    11
 71
     2
 72
     2
 73
     0
 90
        0
 40
-0.6
 41
-30.0
 62
     5
 63
     7
421
 16777215
 74
     1
 91
        4
 64
     7
 65
   257
 75
     1
175
     1
 42
1.0
 92
        8
 66
     7
 43
1.0
 76
     1
 77
     6
 78
     2
 67
     7
 79
     5
170
     0
171
     0
290
     0
174
     0
 93
        1
 44
-50.0
173
     0
291
     1
 45
0.0
1001
ACAD
1000
AcDbSavedByObjectVersion
1070
     0
  0
VISUALSTYLE
  5
3D
102
{ACAD_XDICTIONARY
360
387
102
}
102
{ACAD_REACTORS
330
2A
102
}
330
2A
100
AcDbVisualStyle
  2

 70
    22
 71
     2
 72
     2
 73
     0
 90
        0
 40
-0.6
 41
-30.0
 62
     5
 63
     7
421
 16777215
 74
     1
 91
        4
 64
     7
 65
   257
 75
     1
175
     1
 42
1.0
 92
        8
 66
     7
 43
1.0
 76
     1
 77
     6
 78
     2
 67
     7
 79
     5
170
     0
171
     0
290
     0
174
     0
 93
        1
 44
0.0
173
     0
291
     1
 45
0.0
1001
ACAD
1000
AcDbSavedByObjectVersion
1070
     0
  0
VISUALSTYLE
  5
39
102
{ACAD_XDICTIONARY
360
37F
102
}
102
{ACAD_REACTORS
330
2A
102
}
330
2A
100
AcDbVisualStyle
  2

 70
    15
 71
     2
 72
     2
 73
     0
 90
        0
 40
-0.6
 41
-30.0
 62
     5
 63
     7
421
 16777215
 74
     1
 91
        4
 64
     7
 65
   257
 75
     1
175
     1
 42
1.0
 92
        8
 66
     7
 43
1.0
 76
     1
 77
     6
 78
     2
 67
     7
 79
     5
170
     0
171
     0
290
     0
174
     0
 93
        1
 44
0.0
173
     0
291
     1
 45
0.0
1001
ACAD
1000
AcDbSavedByObjectVersion
1070
     0
  0
VISUALSTYLE
  5
2B
102
{ACAD_XDICTIONARY
360
363
102
}
102
{ACAD_REACTORS
330
2A
102
}
330
2A
100
AcDbVisualStyle
  2

 70
     0
 71
     2
 72
     1
 73
     1
 90
        2
 40
-0.6
 41
30.0
 62
     5
 63
     7
421
 16777215
 74
     0
 91
        0
 64
     7
 65
   257
 75
     1
175
     1
 42
1.0
 92
        8
 66
     7
 43
1.0
 76
     1
 77
     6
 78
     2
 67
     7
 79
     5
170
     0
171
     0
290
     0
174
     0
 93
       13
 44
0.0
173
     0
291
     1
 45
0.0
1001
ACAD
1000
AcDbSavedByObjectVersion
1070
     0
  0
VISUALSTYLE
  5
2C
102
{ACAD_XDICTIONARY
360
365
102
}
102
{ACAD_REACTORS
330
2A
102
}
330
2A
100
AcDbVisualStyle
  2

 70
     1
 71
     2
 72
     1
 73
     1
 90
        2
 40
-0.6
 41
30.0
 62
     5
 63
     7
421
 16777215
 74
     1
 91
        0
 64
     7
 65
   257
 75
     1
175
     1
 42
1.0
 92
        0
 66
   257
 43
1.0
 76
     1
 77
     6
 78
     2
 67
     7
 79
     5
170
     0
171
     0
290
     0
174
     0
 93
       13
 44
0.0
173
     0
291
     1
 45
0.0
1001
ACAD
1000
AcDbSavedByObjectVersion
1070
     0
  0
VISUALSTYLE
  5
2D
102
{ACAD_XDICTIONARY
360
367
102
}
102
{ACAD_REACTORS
330
2A
102
}
330
2A
100
AcDbVisualStyle
  2

 70
     2
 71
     2
 72
     2
 73
     1
 90
        2
 40
-0.6
 41
30.0
 62
     5
 63
     7
421
 16777215
 74
     0
 91
        0
 64
     7
 65
   257
 75
     1
175
     1
 42
1.0
 92
        0
 66
     7
 43
1.0
 76
     1
 77
     6
 78
     2
 67
     7
 79
     5
170
     0
171
     0
290
     0
174
     0
 93
       13
 44
0.0
173
     0
291
     1
 45
0.0
1001
ACAD
1000
AcDbSavedByObjectVersion
1070
     0
  0
VISUALSTYLE
  5
2E
102
{ACAD_XDICTIONARY
360
369
102
}
102
{ACAD_REACTORS
330
2A
102
}
330
2A
100
AcDbVisualStyle
  2

 70
     3
 71
     2
 72
     2
 73
     1
 90
        2
 40
-0.6
 41
30.0
 62
     5
 63
     7
421
 16777215
 74
     1
 91
        0
 64
     7
 65
   257
 75
     1
175
     1
 42
1.0
 92
        0
 66
   257
 43
1.0
 76
     1
 77
     6
 78
     2
 67
     7
 79
     5
170
     0
171
     0
290
     0
174
     0
 93
       13
 44
0.0
173
     0
291
     1
 45
0.0
1001
ACAD
1000
AcDbSavedByObjectVersion
1070
     0
  0
VISUALSTYLE
  5
31
102
{ACAD_XDICTIONARY
360
36F
102
}
102
{ACAD_REACTORS
330
2A
102
}
330
2A
100
AcDbVisualStyle
  2

 70
     6
 71
     1
 72
     2
 73
     2
 90
        0
 40
-0.6
 41
-30.0
 62
     5
 63
     7
421
 16777215
 74
     2
 91
        2
 64
     7
 65
   257
 75
     2
175
     1
 42
40.0
 92
        0
 66
   257
 43
1.0
 76
     1
 77
     6
 78
     2
 67
     7
 79
     3
170
     0
171
     0
290
     0
174
     0
 93
        1
 44
0.0
173
     0
291
     0
 45
0.0
1001
ACAD
1000
AcDbSavedByObjectVersion
1070
     0
  0
VISUALSTYLE
  5
3B
102
{ACAD_XDICTIONARY
360
383
102
}
102
{ACAD_REACTORS
330
2A
102
}
330
2A
100
AcDbVisualStyle
  2

 70
    20
 71
     2
 72
     2
 73
     0
 90
        0
 40
-0.6
 41
-30.0
 62
     5
 63
     7
421
 16777215
 74
     1
 91
        4
 64
     7
 65
   257
 75
     1
175
     1
 42
1.0
 92
       10
 66
     7
 43
1.0
 76
     1
 77
     6
 78
     2
 67
     7
 79
     5
170
     0
171
     0
290
     0
174
     0
 93
        1
 44
0.0
173
     0
291
     1
 45
0.0
1001
ACAD
1000
AcDbSavedByObjectVersion
1070
     0
  0
VISUALSTYLE
  5
38
102
{ACAD_XDICTIONARY
360
37D
102
}
102
{ACAD_REACTORS
330
2A
102
}
330
2A
100
AcDbVisualStyle
  2

 70
    14
 71
     2
 72
     2
 73
     0
 90
        0
 40
-0.6
 41
-30.0
 62
     5
 63
     7
421
 16777215
 74
     1
 91
        4
 64
     7
 65
   257
 75
     7
175
     7
 42
1.0
 92
        8
 66
     7
 43
1.0
 76
     1
 77
     6
 78
     2
 67
     7
 79
     5
170
     0
171
     0
290
     0
174
     0
 93
        1
 44
0.0
173
     0
291
     1
 45
0.0
1001
ACAD
1000
AcDbSavedByObjectVersion
1070
     0
  0
VISUALSTYLE
  5
3C
102
{ACAD_XDICTIONARY
360
385
102
}
102
{ACAD_REACTORS
330
2A
102
}
330
2A
100
AcDbVisualStyle
  2

 70
    21
 71
     2
 72
     2
 73
     0
 90
        0
 40
-0.6
 41
-30.0
 62
     5
 63
     7
421
 16777215
 74
     1
 91
        4
 64
     7
 65
   257
 75
     1
175
     1
 42
1.0
 92
        9
 66
     7
 43
1.0
 76
     1
 77
     6
 78
     2
 67
     7
 79
     5
170
     0
171
     0
290
     0
174
     0
 93
        1
 44
0.0
173
     0
291
     1
 45
0.0
1001
ACAD
1000
AcDbSavedByObjectVersion
1070
     0
  0
VISUALSTYLE
  5
33
102
{ACAD_XDICTIONARY
360
373
102
}
102
{ACAD_REACTORS
330
2A
102
}
330
2A
100
AcDbVisualStyle
  2

 70
     8
 71
     2
 72
     3
 73
     0
 90
        2
 40
-0.6
 41
30.0
 62
     5
 63
     7
421
 16777215
 74
     0
 91
        0
 64
     7
 65
   257
 75
     1
175
     1
 42
1.0
 92
        8
 66
   257
 43
1.0
 76
     1
 77
     6
 78
     2
 67
     7
 79
     3
170
     0
171
     0
290
     0
174
     0
 93
       13
 44
0.0
173
     0
291
     0
 45
0.0
1001
ACAD
1000
AcDbSavedByObjectVersion
1070
     0
  0
VISUALSTYLE
  5
42
102
{ACAD_XDICTIONARY
360
391
102
}
102
{ACAD_REACTORS
330
2A
102
}
330
2A
100
AcDbVisualStyle
  2

 70
    27
 71
     2
 72
     2
 73
     1
 90
        2
 40
-0.6
 41
30.0
 62
     5
 63
     7
421
 16777215
 74
     0
 91
        4
 64
     7
 65
   257
 75
     1
175
     1
 42
1.0
 92
        8
 66
   257
 43
1.0
 76
     1
 77
     6
 78
     2
 67
     8
425
  7895160
 79
     3
170
     0
171
     0
290
     0
174
     0
 93
        5
 44
0.0
173
     0
291
     0
 45
0.0
1001
ACAD
1000
AcDbSavedByObjectVersion
1070
     0
  0
VISUALSTYLE
  5
41
102
{ACAD_XDICTIONARY
360
38F
102
}
102
{ACAD_REACTORS
330
2A
102
}
330
2A
100
AcDbVisualStyle
  2

 70
    26
 71
     2
 72
     2
 73
     1
 90
        2
 40
-0.6
 41
30.0
 62
     5
 63
     7
421
 16777215
 74
     1
 91
       10
 64
     7
 65
   257
 75
     2
175
     1
 42
1.0
 92
        8
 66
   257
 43
1.0
 76
     1
 77
     6
 78
     2
 67
     7
 79
     3
170
     0
171
     0
290
     0
174
     0
 93
        5
 44
0.0
173
     0
291
     0
 45
0.0
1001
ACAD
1000
AcDbSavedByObjectVersion
1070
     0
  0
VISUALSTYLE
  5
3E
102
{ACAD_XDICTIONARY
360
389
102
}
102
{ACAD_REACTORS
330
2A
102
}
330
2A
100
AcDbVisualStyle
  2

 70
    23
 71
     2
 72
     2
 73
     3
 90
        0
 40
-0.6
 41
-30.0
 62
     5
 63
     7
421
 16777215
 74
     2
 91
        2
 64
     7
 65
     7
 75
     1
175
     1
 42
40.0
 92
        8
 66
     7
 43
1.0
 76
     1
 77
     6
 78
     2
 67
     7
 79
     3
170
     0
171
     0
290
     0
174
     0
 93
        1
 44
0.0
173
     0
291
     0
 45
0.0
1001
ACAD
1000
AcDbSavedByObjectVersion
1070
     0
  0
VISUALSTYLE
  5
3F
102
{ACAD_XDICTIONARY
360
38B
102
}
102
{ACAD_REACTORS
330
2A
102
}
330
2A
100
AcDbVisualStyle
  2

 70
    24
 71
     1
 72
     2
 73
     2
 90
        0
 40
-0.6
 41
-30.0
 62
     5
 63
     7
421
 16777215
 74
     2
 91
        2
 64
     7
 65
     7
 75
     1
175
     1
 42
40.0
 92
       11
 66
     7
 43
1.0
 76
     1
 77
     6
 78
     2
 67
     7
 79
     6
170
     0
171
     0
290
     0
174
     0
 93
        1
 44
0.0
173
     0
291
     0
 45
0.0
1001
ACAD
1000
AcDbSavedByObjectVersion
1070
     0
  0
VISUALSTYLE
  5
37
102
{ACAD_XDICTIONARY
360
37B
102
}
102
{ACAD_REACTORS
330
2A
102
}
330
2A
100
AcDbVisualStyle
  2

 70
    13
 71
     2
 72
     2
 73
     0
 90
        0
 40
-0.6
 41
-30.0
 62
     5
 63
     7
421
 16777215
 74
     1
 91
        4
 64
     7
 65
   257
 75
     1
175
     1
 42
1.0
 92
       12
 66
     7
 43
1.0
 76
     1
 77
     6
 78
     2
 67
     7
 79
     5
170
     0
171
     0
290
     0
174
     0
 93
        1
 44
0.0
173
     0
291
     1
 45
0.0
1001
ACAD
1000
AcDbSavedByObjectVersion
1070
     0
  0
VISUALSTYLE
  5
30
102
{ACAD_XDICTIONARY
360
36D
102
}
102
{ACAD_REACTORS
330
2A
102
}
330
2A
100
AcDbVisualStyle
  2

 70
     5
 71
     0
 72
     2
 73
     0
 90
        0
 40
-0.6
 41
-30.0
 62
     5
 63
     7
421
 16777215
 74
     1
 91
        4
 64
     7
 65
   257
 75
     1
175
     1
 42
1.0
 92
        0
 66
   257
 43
1.0
 76
     1
 77
     6
 78
     2
 67
     7
 79
     3
170
     0
171
     0
290
     0
174
     0
 93
        1
 44
0.0
173
     0
291
     0
 45
0.0
1001
ACAD
1000
AcDbSavedByObjectVersion
1070
     0
  0
VISUALSTYLE
  5
40
102
{ACAD_XDICTIONARY
360
38D
102
}
102
{ACAD_REACTORS
330
2A
102
}
330
2A
100
AcDbVisualStyle
  2

 70
    25
 71
     2
 72
     2
 73
     1
 90
        1
 40
0.5
 41
-30.0
 62
     5
 63
     7
421
 16777215
 74
     1
 91
        0
 64
     7
 65
   257
 75
     1
175
     1
 42
1.0
 92
        8
 66
     7
 43
1.0
 76
     1
 77
     6
 78
     2
 67
     7
 79
     3
170
     0
171
     0
290
     0
174
     0
 93
       13
 44
0.0
173
     0
291
     0
 45
0.0
1001
ACAD
1000
AcDbSavedByObjectVersion
1070
     0
  0
DICTIONARYVAR
  5
1AA
102
{ACAD_REACTORS
330
1A9
102
}
330
1A9
100
DictionaryVariables
280
     0
  1
1:1
  0
DICTIONARYVAR
  5
1EB
102
{ACAD_REACTORS
330
1A9
102
}
330
1A9
100
DictionaryVariables
280
     0
  1
STANDARD
  0
DICTIONARYVAR
  5
1EA
102
{ACAD_REACTORS
330
1A9
102
}
330
1A9
100
DictionaryVariables
280
     0
  1
STANDARD
  0
DICTIONARYVAR
  5
35D
102
{ACAD_REACTORS
330
1A9
102
}
330
1A9
100
DictionaryVariables
280
     0
  1
Metric50
  0
DICTIONARYVAR
  5
35E
102
{ACAD_REACTORS
330
1A9
102
}
330
1A9
100
DictionaryVariables
280
     0
  1
Metric50
  0
DICTIONARYVAR
  5
1AB
102
{ACAD_REACTORS
330
1A9
102
}
330
1A9
100
DictionaryVariables
280
     0
  1
1
  0
DICTIONARYVAR
  5
35F
102
{ACAD_REACTORS
330
1A9
102
}
330
1A9
100
DictionaryVariables
280
     0
  1
2
  0
DICTIONARY
  5
396
330
1F2
100
AcDbDictionary
280
     1
281
     1
  3
ACAD_XREC_ROUNDTRIP
360
397
  0
DICTIONARY
  5
1DF
330
45
100
AcDbDictionary
280
     1
281
     1
  3
ACAD_XREC_ROUNDTRIP
360
1E0
  0
DICTIONARY
  5
1DD
330
44
100
AcDbDictionary
280
     1
281
     1
  3
ACAD_XREC_ROUNDTRIP
360
1DE
  0
DICTIONARY
  5
1E1
330
46
100
AcDbDictionary
280
     1
281
     1
  3
ACAD_XREC_ROUNDTRIP
360
1E2
  0
DICTIONARY
  5
394
330
1F1
100
AcDbDictionary
280
     1
281
     1
  3
ACAD_XREC_ROUNDTRIP
360
395
  0
DICTIONARY
  5
1E3
330
6A
100
AcDbDictionary
280
     1
281
     1
  3
ACAD_ROUNDTRIP_2008_TABLESTYLE_CELLSTYLEMAP
360
361
  3
ACAD_XREC_ROUNDTRIP
360
393
  0
DICTIONARY
  5
36B
330
2F
100
AcDbDictionary
280
     1
281
     1
  3
ACAD_XREC_ROUNDTRIP
360
36C
  0
DICTIONARY
  5
371
330
32
100
AcDbDictionary
280
     1
281
     1
  3
ACAD_XREC_ROUNDTRIP
360
372
  0
DICTIONARY
  5
379
330
36
100
AcDbDictionary
280
     1
281
     1
  3
ACAD_XREC_ROUNDTRIP
360
37A
  0
DICTIONARY
  5
381
330
3A
100
AcDbDictionary
280
     1
281
     1
  3
ACAD_XREC_ROUNDTRIP
360
382
  0
DICTIONARY
  5
375
330
34
100
AcDbDictionary
280
     1
281
     1
  3
ACAD_XREC_ROUNDTRIP
360
376
  0
DICTIONARY
  5
377
330
35
100
AcDbDictionary
280
     1
281
     1
  3
ACAD_XREC_ROUNDTRIP
360
378
  0
DICTIONARY
  5
387
330
3D
100
AcDbDictionary
280
     1
281
     1
  3
ACAD_XREC_ROUNDTRIP
360
388
  0
DICTIONARY
  5
37F
330
39
100
AcDbDictionary
280
     1
281
     1
  3
ACAD_XREC_ROUNDTRIP
360
380
  0
DICTIONARY
  5
363
330
2B
100
AcDbDictionary
280
     1
281
     1
  3
ACAD_XREC_ROUNDTRIP
360
364
  0
DICTIONARY
  5
365
330
2C
100
AcDbDictionary
280
     1
281
     1
  3
ACAD_XREC_ROUNDTRIP
360
366
  0
DICTIONARY
  5
367
330
2D
100
AcDbDictionary
280
     1
281
     1
  3
ACAD_XREC_ROUNDTRIP
360
368
  0
DICTIONARY
  5
369
330
2E
100
AcDbDictionary
280
     1
281
     1
  3
ACAD_XREC_ROUNDTRIP
360
36A
  0
DICTIONARY
  5
36F
330
31
100
AcDbDictionary
280
     1
281
     1
  3
ACAD_XREC_ROUNDTRIP
360
370
  0
DICTIONARY
  5
383
330
3B
100
AcDbDictionary
280
     1
281
     1
  3
ACAD_XREC_ROUNDTRIP
360
384
  0
DICTIONARY
  5
37D
330
38
100
AcDbDictionary
280
     1
281
     1
  3
ACAD_XREC_ROUNDTRIP
360
37E
  0
DICTIONARY
  5
385
330
3C
100
AcDbDictionary
280
     1
281
     1
  3
ACAD_XREC_ROUNDTRIP
360
386
  0
DICTIONARY
  5
373
330
33
100
AcDbDictionary
280
     1
281
     1
  3
ACAD_XREC_ROUNDTRIP
360
374
  0
DICTIONARY
  5
391
330
42
100
AcDbDictionary
280
     1
281
     1
  3
ACAD_XREC_ROUNDTRIP
360
392
  0
DICTIONARY
  5
38F
330
41
100
AcDbDictionary
280
     1
281
     1
  3
ACAD_XREC_ROUNDTRIP
360
390
  0
DICTIONARY
  5
389
330
3E
100
AcDbDictionary
280
     1
281
     1
  3
ACAD_XREC_ROUNDTRIP
360
38A
  0
DICTIONARY
  5
38B
330
3F
100
AcDbDictionary
280
     1
281
     1
  3
ACAD_XREC_ROUNDTRIP
360
38C
  0
DICTIONARY
  5
37B
330
37
100
AcDbDictionary
280
     1
281
     1
  3
ACAD_XREC_ROUNDTRIP
360
37C
  0
DICTIONARY
  5
36D
330
30
100
AcDbDictionary
280
     1
281
     1
  3
ACAD_XREC_ROUNDTRIP
360
36E
  0
DICTIONARY
  5
38D
330
40
100
AcDbDictionary
280
     1
281
     1
  3
ACAD_XREC_ROUNDTRIP
360
38E
  0
XRECORD
  5
397
102
{ACAD_REACTORS
330
396
102
}
330
396
100
AcDbXrecord
280
     1
102
DISPLAYNAME
  1
Metric50
102
FLAGS
 90
        0
  0
XRECORD
  5
1E0
102
{ACAD_REACTORS
330
1DF
102
}
330
1DF
100
AcDbXrecord
280
     1
102
MATERIAL
148
0.0
149
0.0
149
0.0
 93
        0
 94
      127
282
     0
 72
     1
 77
     1
171
     1
175
     1
179
     1
273
     0
  0
XRECORD
  5
1DE
102
{ACAD_REACTORS
330
1DD
102
}
330
1DD
100
AcDbXrecord
280
     1
102
MATERIAL
148
0.0
149
0.0
149
0.0
 93
        0
 94
      127
282
     0
 72
     1
 77
     1
171
     1
175
     1
179
     1
273
     0
  0
XRECORD
  5
1E2
102
{ACAD_REACTORS
330
1E1
102
}
330
1E1
100
AcDbXrecord
280
     1
102
MATERIAL
148
0.0
149
0.0
149
0.0
 93
        0
 94
      127
282
     0
 72
     1
 77
     1
171
     1
175
     1
179
     1
273
     0
  0
XRECORD
  5
395
102
{ACAD_REACTORS
330
394
102
}
330
394
100
AcDbXrecord
280
     1
102
DISPLAYNAME
  1
Metric50
102
FLAGS
 90
        0
  0
CELLSTYLEMAP
  5
361
102
{ACAD_REACTORS
330
1E3
102
}
330
1E3
100
AcDbCellStyleMap
 90
        3
300
CELLSTYLE
  1
TABLEFORMAT_BEGIN
 90
        5
170
     1
 91
        0
 92
    32768
 62
   257
 93
        1
300
CONTENTFORMAT
  1
CONTENTFORMAT_BEGIN
 90
        0
 91
        0
 92
        4
 93
        0
300

 40
0.0
140
1.0
 94
        5
 62
     0
340
11
144
0.25
309
CONTENTFORMAT_END
171
     1
301
MARGIN
  1
CELLMARGIN_BEGIN
 40
0.06
 40
0.06
 40
0.06
 40
0.06
 40
0.18
 40
0.18
309
CELLMARGIN_END
 94
        6
 95
        1
302
GRIDFORMAT
  1
GRIDFORMAT_BEGIN
 90
        0
 91
        1
 62
     0
 92
       -2
340
14
 93
        0
 40
0.045
309
GRIDFORMAT_END
 95
        2
302
GRIDFORMAT
  1
GRIDFORMAT_BEGIN
 90
        0
 91
        1
 62
     0
 92
       -2
340
14
 93
        0
 40
0.045
309
GRIDFORMAT_END
 95
        4
302
GRIDFORMAT
  1
GRIDFORMAT_BEGIN
 90
        0
 91
        1
 62
     0
 92
       -2
340
14
 93
        0
 40
0.045
309
GRIDFORMAT_END
 95
        8
302
GRIDFORMAT
  1
GRIDFORMAT_BEGIN
 90
        0
 91
        1
 62
     0
 92
       -2
340
14
 93
        0
 40
0.045
309
GRIDFORMAT_END
 95
       16
302
GRIDFORMAT
  1
GRIDFORMAT_BEGIN
 90
        0
 91
        1
 62
     0
 92
       -2
340
14
 93
        0
 40
0.045
309
GRIDFORMAT_END
 95
       32
302
GRIDFORMAT
  1
GRIDFORMAT_BEGIN
 90
        0
 91
        1
 62
     0
 92
       -2
340
14
 93
        0
 40
0.045
309
GRIDFORMAT_END
309
TABLEFORMAT_END
  1
CELLSTYLE_BEGIN
 90
        1
 91
        1
300
_TITLE
309
CELLSTYLE_END
300
CELLSTYLE
  1
TABLEFORMAT_BEGIN
 90
        5
170
     1
 91
        0
 92
        0
 62
   257
 93
        1
300
CONTENTFORMAT
  1
CONTENTFORMAT_BEGIN
 90
        0
 91
        0
 92
        4
 93
        0
300

 40
0.0
140
1.0
 94
        5
 62
     0
340
11
144
0.18
309
CONTENTFORMAT_END
171
     1
301
MARGIN
  1
CELLMARGIN_BEGIN
 40
0.06
 40
0.06
 40
0.06
 40
0.06
 40
0.18
 40
0.18
309
CELLMARGIN_END
 94
        6
 95
        1
302
GRIDFORMAT
  1
GRIDFORMAT_BEGIN
 90
        0
 91
        1
 62
     0
 92
       -2
340
14
 93
        0
 40
0.045
309
GRIDFORMAT_END
 95
        2
302
GRIDFORMAT
  1
GRIDFORMAT_BEGIN
 90
        0
 91
        1
 62
     0
 92
       -2
340
14
 93
        0
 40
0.045
309
GRIDFORMAT_END
 95
        4
302
GRIDFORMAT
  1
GRIDFORMAT_BEGIN
 90
        0
 91
        1
 62
     0
 92
       -2
340
14
 93
        0
 40
0.045
309
GRIDFORMAT_END
 95
        8
302
GRIDFORMAT
  1
GRIDFORMAT_BEGIN
 90
        0
 91
        1
 62
     0
 92
       -2
340
14
 93
        0
 40
0.045
309
GRIDFORMAT_END
 95
       16
302
GRIDFORMAT
  1
GRIDFORMAT_BEGIN
 90
        0
 91
        1
 62
     0
 92
       -2
340
14
 93
        0
 40
0.045
309
GRIDFORMAT_END
 95
       32
302
GRIDFORMAT
  1
GRIDFORMAT_BEGIN
 90
        0
 91
        1
 62
     0
 92
       -2
340
14
 93
        0
 40
0.045
309
GRIDFORMAT_END
309
TABLEFORMAT_END
  1
CELLSTYLE_BEGIN
 90
        2
 91
        1
300
_HEADER
309
CELLSTYLE_END
300
CELLSTYLE
  1
TABLEFORMAT_BEGIN
 90
        5
170
     1
 91
        0
 92
        0
 62
   257
 93
        1
300
CONTENTFORMAT
  1
CONTENTFORMAT_BEGIN
 90
        0
 91
        0
 92
        4
 93
        0
300

 40
0.0
140
1.0
 94
        2
 62
     0
340
11
144
0.18
309
CONTENTFORMAT_END
171
     1
301
MARGIN
  1
CELLMARGIN_BEGIN
 40
0.06
 40
0.06
 40
0.06
 40
0.06
 40
0.18
 40
0.18
309
CELLMARGIN_END
 94
        6
 95
        1
302
GRIDFORMAT
  1
GRIDFORMAT_BEGIN
 90
        0
 91
        1
 62
     0
 92
       -2
340
14
 93
        0
 40
0.045
309
GRIDFORMAT_END
 95
        2
302
GRIDFORMAT
  1
GRIDFORMAT_BEGIN
 90
        0
 91
        1
 62
     0
 92
       -2
340
14
 93
        0
 40
0.045
309
GRIDFORMAT_END
 95
        4
302
GRIDFORMAT
  1
GRIDFORMAT_BEGIN
 90
        0
 91
        1
 62
     0
 92
       -2
340
14
 93
        0
 40
0.045
309
GRIDFORMAT_END
 95
        8
302
GRIDFORMAT
  1
GRIDFORMAT_BEGIN
 90
        0
 91
        1
 62
     0
 92
       -2
340
14
 93
        0
 40
0.045
309
GRIDFORMAT_END
 95
       16
302
GRIDFORMAT
  1
GRIDFORMAT_BEGIN
 90
        0
 91
        1
 62
     0
 92
       -2
340
14
 93
        0
 40
0.045
309
GRIDFORMAT_END
 95
       32
302
GRIDFORMAT
  1
GRIDFORMAT_BEGIN
 90
        0
 91
        1
 62
     0
 92
       -2
340
14
 93
        0
 40
0.045
309
GRIDFORMAT_END
309
TABLEFORMAT_END
  1
CELLSTYLE_BEGIN
 90
        3
 91
        2
300
_DATA
309
CELLSTYLE_END
  0
XRECORD
  5
393
102
{ACAD_REACTORS
330
1E3
102
}
330
1E3
100
AcDbXrecord
280
     1
102
ACAD_ROUNDTRIP_PRE2007_TABLESTYLE
 90
        4
 91
        0
  1

 92
        4
 93
        0
  2

 94
        4
 95
        0
  3

  0
XRECORD
  5
36C
102
{ACAD_REACTORS
330
36B
102
}
330
36B
100
AcDbXrecord
280
     1
102
RTVSPost2010Prop28
280
     1
102
RTVSPost2010PropOp28
 70
     1
102
RTVSPost2010Prop29
280
     1
102
RTVSPost2010PropOp29
 70
     1
102
RTVSPost2010Prop30
280
     0
102
RTVSPost2010PropOp30
 70
     1
102
RTVSPost2010Prop31
280
     0
102
RTVSPost2010PropOp31
 70
     1
102
RTVSPost2010Prop32
280
     0
102
RTVSPost2010PropOp32
 70
     1
102
RTVSPost2010Prop33
280
     0
102
RTVSPost2010PropOp33
 70
     1
102
RTVSPost2010Prop34
280
     0
102
RTVSPost2010PropOp34
 70
     1
102
RTVSPost2010Prop35
280
     0
102
RTVSPost2010PropOp35
 70
     1
102
RTVSPost2010Prop36
280
     0
102
RTVSPost2010PropOp36
 70
     1
102
RTVSPost2010Prop37
 90
       50
102
RTVSPost2010PropOp37
 70
     1
102
RTVSPost2010Prop38
140
0.0
102
RTVSPost2010PropOp38
 70
     1
102
RTVSPost2010Prop39
140
1.0
102
RTVSPost2010PropOp39
 70
     1
102
RTVSPost2010Prop40
 90
        0
102
RTVSPost2010PropOp40
 70
     1
102
RTVSPost2010Prop41ColorIndex
 90
       18
102
RTVSPost2010Prop41ColorRGB
 90
        0
102
RTVSPost2010PropOp41
 70
     1
102
RTVSPost2010Prop42
 90
       50
102
RTVSPost2010PropOp42
 70
     1
102
RTVSPost2010Prop43
 90
        3
102
RTVSPost2010PropOp43
 70
     1
102
RTVSPost2010Prop44ColorIndex
 90
        5
102
RTVSPost2010Prop44ColorRGB
 90
      255
102
RTVSPost2010PropOp44
 70
     1
102
RTVSPost2010Prop45
280
     0
102
RTVSPost2010PropOp45
 70
     1
102
RTVSPost2010Prop46
 90
       50
102
RTVSPost2010PropOp46
 70
     1
102
RTVSPost2010Prop47
 90
       50
102
RTVSPost2010PropOp47
 70
     1
102
RTVSPost2010Prop48
 90
       50
102
RTVSPost2010PropOp48
 70
     1
102
RTVSPost2010Prop49
280
     0
102
RTVSPost2010PropOp49
 70
     1
102
RTVSPost2010Prop50
 90
       50
102
RTVSPost2010PropOp50
 70
     1
102
RTVSPost2010Prop51ColorIndex
 90
      256
102
RTVSPost2010Prop51ColorRGB
 90
-16777216
102
RTVSPost2010PropOp51
 70
     0
102
RTVSPost2010Prop52
140
1.0
102
RTVSPost2010PropOp52
 70
     0
102
RTVSPost2010Prop53
 90
        2
102
RTVSPost2010PropOp53
 70
     1
102
RTVSPost2010Prop54
  1
strokes_ogs.tif
102
RTVSPost2010PropOp54
 70
     1
102
RTVSPost2010Prop55
280
     0
102
RTVSPost2010PropOp55
 70
     1
102
RTVSPost2010Prop56
140
1.0
102
RTVSPost2010PropOp56
 70
     1
102
RTVSPost2010Prop57
140
1.0
102
RTVSPost2010PropOp57
 70
     1
102
RTVSPropertyOp0
 70
     1
102
RTVSPropertyOp1
 70
     1
102
RTVSPropertyOp2
 70
     1
102
RTVSPropertyOp3
 70
     1
102
RTVSPropertyOp4
 70
     1
102
RTVSPropertyOp5
 70
     1
102
RTVSPropertyOp6
 70
     1
102
RTVSPropertyOp7
 70
     1
102
RTVSPropertyOp8
 70
     1
102
RTVSPropertyOp9
 70
     1
102
RTVSPropertyOp10
 70
     1
102
RTVSPropertyOp11
 70
     1
102
RTVSPropertyOp12
 70
     1
102
RTVSPropertyOp13
 70
     1
102
RTVSPropertyOp14
 70
     1
102
RTVSPropertyOp15
 70
     1
102
RTVSPropertyOp16
 70
     1
102
RTVSPropertyOp17
 70
     1
102
RTVSPropertyOp18
 70
     1
102
RTVSPropertyOp19
 70
     1
102
RTVSPropertyOp20
 70
     1
102
RTVSPropertyOp21
 70
     1
102
RTVSPropertyOp22
 70
     1
102
RTVSPropertyOp23
 70
     1
102
RTVSPropertyOp24
 70
     1
102
RTVSPropertyOp25
 70
     1
102
RTVSPropertyOp26
 70
     1
102
RTVSPropertyOp27
 70
     1
102
RTVSPropertyOp28
 70
     1
102
RTVSPropertyOp29
 70
     1
102
RTVSPropertyOp30
 70
     1
102
RTVSPropertyOp31
 70
     1
102
RTVSPropertyOp32
 70
     1
102
RTVSPropertyOp33
 70
     1
102
RTVSPropertyOp34
 70
     1
102
RTVSPropertyOp35
 70
     1
102
RTVSPropertyOp36
 70
     1
102
RTVSPropertyOp37
 70
     1
102
RTVSPropertyOp38
 70
     1
102
RTVSPropertyOp39
 70
     1
102
RTVSPropertyOp40
 70
     1
102
RTVSPropertyOp41
 70
     1
102
RTVSPropertyOp42
 70
     1
102
RTVSPropertyOp43
 70
     1
102
RTVSPropertyOp44
 70
     1
102
RTVSPropertyOp45
 70
     1
102
RTVSPropertyOp46
 70
     1
102
RTVSPropertyOp47
 70
     1
102
RTVSPropertyOp48
 70
     1
102
RTVSPropertyOp49
 70
     1
102
RTVSPropertyOp50
 70
     1
102
RTVSPropertyOp51
 70
     0
102
RTVSPropertyOp52
 70
     0
102
RTVSPropertyOp53
 70
     1
102
RTVSPropertyOp54
 70
     1
102
RTVSPropertyOp55
 70
     1
102
RTVSPropertyOp56
 70
     1
102
RTVSPropertyOp57
 70
     1
102
RTVSPropertyOp58
 70
     1
102
RTVSPropertyOp59
 70
     1
102
RTVSPropertyOp60
 70
     1
102
RTVSPropertyOp61
 70
     1
102
RTVSPropertyOp62
 70
     1
  0
XRECORD
  5
372
102
{ACAD_REACTORS
330
371
102
}
330
371
100
AcDbXrecord
280
     1
102
RTVSPost2010Prop28
280
     0
102
RTVSPost2010PropOp28
 70
     1
102
RTVSPost2010Prop29
280
     1
102
RTVSPost2010PropOp29
 70
     1
102
RTVSPost2010Prop30
280
     1
102
RTVSPost2010PropOp30
 70
     1
102
RTVSPost2010Prop31
280
     0
102
RTVSPost2010PropOp31
 70
     1
102
RTVSPost2010Prop32
280
     0
102
RTVSPost2010PropOp32
 70
     1
102
RTVSPost2010Prop33
280
     0
102
RTVSPost2010PropOp33
 70
     1
102
RTVSPost2010Prop34
280
     0
102
RTVSPost2010PropOp34
 70
     1
102
RTVSPost2010Prop35
280
     0
102
RTVSPost2010PropOp35
 70
     1
102
RTVSPost2010Prop36
280
     0
102
RTVSPost2010PropOp36
 70
     1
102
RTVSPost2010Prop37
 90
       50
102
RTVSPost2010PropOp37
 70
     1
102
RTVSPost2010Prop38
140
0.0
102
RTVSPost2010PropOp38
 70
     1
102
RTVSPost2010Prop39
140
1.0
102
RTVSPost2010PropOp39
 70
     1
102
RTVSPost2010Prop40
 90
        0
102
RTVSPost2010PropOp40
 70
     1
102
RTVSPost2010Prop41ColorIndex
 90
       18
102
RTVSPost2010Prop41ColorRGB
 90
        0
102
RTVSPost2010PropOp41
 70
     1
102
RTVSPost2010Prop42
 90
       50
102
RTVSPost2010PropOp42
 70
     1
102
RTVSPost2010Prop43
 90
        3
102
RTVSPost2010PropOp43
 70
     1
102
RTVSPost2010Prop44ColorIndex
 90
        5
102
RTVSPost2010Prop44ColorRGB
 90
      255
102
RTVSPost2010PropOp44
 70
     1
102
RTVSPost2010Prop45
280
     0
102
RTVSPost2010PropOp45
 70
     1
102
RTVSPost2010Prop46
 90
       50
102
RTVSPost2010PropOp46
 70
     1
102
RTVSPost2010Prop47
 90
       50
102
RTVSPost2010PropOp47
 70
     1
102
RTVSPost2010Prop48
 90
       50
102
RTVSPost2010PropOp48
 70
     1
102
RTVSPost2010Prop49
280
     0
102
RTVSPost2010PropOp49
 70
     1
102
RTVSPost2010Prop50
 90
       50
102
RTVSPost2010PropOp50
 70
     1
102
RTVSPost2010Prop51ColorIndex
 90
      256
102
RTVSPost2010Prop51ColorRGB
 90
-16777216
102
RTVSPost2010PropOp51
 70
     0
102
RTVSPost2010Prop52
140
1.0
102
RTVSPost2010PropOp52
 70
     0
102
RTVSPost2010Prop53
 90
        2
102
RTVSPost2010PropOp53
 70
     1
102
RTVSPost2010Prop54
  1
strokes_ogs.tif
102
RTVSPost2010PropOp54
 70
     1
102
RTVSPost2010Prop55
280
     0
102
RTVSPost2010PropOp55
 70
     1
102
RTVSPost2010Prop56
140
1.0
102
RTVSPost2010PropOp56
 70
     1
102
RTVSPost2010Prop57
140
1.0
102
RTVSPost2010PropOp57
 70
     1
102
RTVSPropertyOp0
 70
     1
102
RTVSPropertyOp1
 70
     1
102
RTVSPropertyOp2
 70
     1
102
RTVSPropertyOp3
 70
     1
102
RTVSPropertyOp4
 70
     1
102
RTVSPropertyOp5
 70
     1
102
RTVSPropertyOp6
 70
     1
102
RTVSPropertyOp7
 70
     1
102
RTVSPropertyOp8
 70
     1
102
RTVSPropertyOp9
 70
     1
102
RTVSPropertyOp10
 70
     1
102
RTVSPropertyOp11
 70
     1
102
RTVSPropertyOp12
 70
     1
102
RTVSPropertyOp13
 70
     1
102
RTVSPropertyOp14
 70
     1
102
RTVSPropertyOp15
 70
     1
102
RTVSPropertyOp16
 70
     1
102
RTVSPropertyOp17
 70
     1
102
RTVSPropertyOp18
 70
     1
102
RTVSPropertyOp19
 70
     1
102
RTVSPropertyOp20
 70
     1
102
RTVSPropertyOp21
 70
     1
102
RTVSPropertyOp22
 70
     1
102
RTVSPropertyOp23
 70
     1
102
RTVSPropertyOp24
 70
     1
102
RTVSPropertyOp25
 70
     1
102
RTVSPropertyOp26
 70
     1
102
RTVSPropertyOp27
 70
     1
102
RTVSPropertyOp28
 70
     1
102
RTVSPropertyOp29
 70
     1
102
RTVSPropertyOp30
 70
     1
102
RTVSPropertyOp31
 70
     1
102
RTVSPropertyOp32
 70
     1
102
RTVSPropertyOp33
 70
     1
102
RTVSPropertyOp34
 70
     1
102
RTVSPropertyOp35
 70
     1
102
RTVSPropertyOp36
 70
     1
102
RTVSPropertyOp37
 70
     1
102
RTVSPropertyOp38
 70
     1
102
RTVSPropertyOp39
 70
     1
102
RTVSPropertyOp40
 70
     1
102
RTVSPropertyOp41
 70
     1
102
RTVSPropertyOp42
 70
     1
102
RTVSPropertyOp43
 70
     1
102
RTVSPropertyOp44
 70
     1
102
RTVSPropertyOp45
 70
     1
102
RTVSPropertyOp46
 70
     1
102
RTVSPropertyOp47
 70
     1
102
RTVSPropertyOp48
 70
     1
102
RTVSPropertyOp49
 70
     1
102
RTVSPropertyOp50
 70
     1
102
RTVSPropertyOp51
 70
     0
102
RTVSPropertyOp52
 70
     0
102
RTVSPropertyOp53
 70
     1
102
RTVSPropertyOp54
 70
     1
102
RTVSPropertyOp55
 70
     1
102
RTVSPropertyOp56
 70
     1
102
RTVSPropertyOp57
 70
     1
102
RTVSPropertyOp58
 70
     1
102
RTVSPropertyOp59
 70
     1
102
RTVSPropertyOp60
 70
     1
102
RTVSPropertyOp61
 70
     1
102
RTVSPropertyOp62
 70
     1
  0
XRECORD
  5
37A
102
{ACAD_REACTORS
330
379
102
}
330
379
100
AcDbXrecord
280
     1
102
RTVSPost2010Prop28
280
     0
102
RTVSPost2010PropOp28
 70
     1
102
RTVSPost2010Prop29
280
     1
102
RTVSPost2010PropOp29
 70
     1
102
RTVSPost2010Prop30
280
     1
102
RTVSPost2010PropOp30
 70
     1
102
RTVSPost2010Prop31
280
     0
102
RTVSPost2010PropOp31
 70
     1
102
RTVSPost2010Prop32
280
     0
102
RTVSPost2010PropOp32
 70
     1
102
RTVSPost2010Prop33
280
     0
102
RTVSPost2010PropOp33
 70
     1
102
RTVSPost2010Prop34
280
     0
102
RTVSPost2010PropOp34
 70
     1
102
RTVSPost2010Prop35
280
     0
102
RTVSPost2010PropOp35
 70
     1
102
RTVSPost2010Prop36
280
     0
102
RTVSPost2010PropOp36
 70
     1
102
RTVSPost2010Prop37
 90
       50
102
RTVSPost2010PropOp37
 70
     1
102
RTVSPost2010Prop38
140
0.0
102
RTVSPost2010PropOp38
 70
     1
102
RTVSPost2010Prop39
140
1.0
102
RTVSPost2010PropOp39
 70
     1
102
RTVSPost2010Prop40
 90
        0
102
RTVSPost2010PropOp40
 70
     1
102
RTVSPost2010Prop41ColorIndex
 90
       18
102
RTVSPost2010Prop41ColorRGB
 90
        0
102
RTVSPost2010PropOp41
 70
     1
102
RTVSPost2010Prop42
 90
       50
102
RTVSPost2010PropOp42
 70
     1
102
RTVSPost2010Prop43
 90
        3
102
RTVSPost2010PropOp43
 70
     1
102
RTVSPost2010Prop44ColorIndex
 90
        5
102
RTVSPost2010Prop44ColorRGB
 90
      255
102
RTVSPost2010PropOp44
 70
     1
102
RTVSPost2010Prop45
280
     0
102
RTVSPost2010PropOp45
 70
     1
102
RTVSPost2010Prop46
 90
       50
102
RTVSPost2010PropOp46
 70
     1
102
RTVSPost2010Prop47
 90
       50
102
RTVSPost2010PropOp47
 70
     1
102
RTVSPost2010Prop48
 90
       50
102
RTVSPost2010PropOp48
 70
     1
102
RTVSPost2010Prop49
280
     0
102
RTVSPost2010PropOp49
 70
     1
102
RTVSPost2010Prop50
 90
       50
102
RTVSPost2010PropOp50
 70
     1
102
RTVSPost2010Prop51ColorIndex
 90
      256
102
RTVSPost2010Prop51ColorRGB
 90
-16777216
102
RTVSPost2010PropOp51
 70
     0
102
RTVSPost2010Prop52
140
1.0
102
RTVSPost2010PropOp52
 70
     0
102
RTVSPost2010Prop53
 90
        2
102
RTVSPost2010PropOp53
 70
     1
102
RTVSPost2010Prop54
  1
strokes_ogs.tif
102
RTVSPost2010PropOp54
 70
     1
102
RTVSPost2010Prop55
280
     0
102
RTVSPost2010PropOp55
 70
     1
102
RTVSPost2010Prop56
140
1.0
102
RTVSPost2010PropOp56
 70
     1
102
RTVSPost2010Prop57
140
1.0
102
RTVSPost2010PropOp57
 70
     1
102
RTVSPropertyOp0
 70
     1
102
RTVSPropertyOp1
 70
     1
102
RTVSPropertyOp2
 70
     1
102
RTVSPropertyOp3
 70
     1
102
RTVSPropertyOp4
 70
     1
102
RTVSPropertyOp5
 70
     1
102
RTVSPropertyOp6
 70
     1
102
RTVSPropertyOp7
 70
     1
102
RTVSPropertyOp8
 70
     1
102
RTVSPropertyOp9
 70
     1
102
RTVSPropertyOp10
 70
     1
102
RTVSPropertyOp11
 70
     1
102
RTVSPropertyOp12
 70
     1
102
RTVSPropertyOp13
 70
     1
102
RTVSPropertyOp14
 70
     1
102
RTVSPropertyOp15
 70
     1
102
RTVSPropertyOp16
 70
     1
102
RTVSPropertyOp17
 70
     1
102
RTVSPropertyOp18
 70
     1
102
RTVSPropertyOp19
 70
     1
102
RTVSPropertyOp20
 70
     1
102
RTVSPropertyOp21
 70
     1
102
RTVSPropertyOp22
 70
     1
102
RTVSPropertyOp23
 70
     1
102
RTVSPropertyOp24
 70
     1
102
RTVSPropertyOp25
 70
     1
102
RTVSPropertyOp26
 70
     1
102
RTVSPropertyOp27
 70
     1
102
RTVSPropertyOp28
 70
     1
102
RTVSPropertyOp29
 70
     1
102
RTVSPropertyOp30
 70
     1
102
RTVSPropertyOp31
 70
     1
102
RTVSPropertyOp32
 70
     1
102
RTVSPropertyOp33
 70
     1
102
RTVSPropertyOp34
 70
     1
102
RTVSPropertyOp35
 70
     1
102
RTVSPropertyOp36
 70
     1
102
RTVSPropertyOp37
 70
     1
102
RTVSPropertyOp38
 70
     1
102
RTVSPropertyOp39
 70
     1
102
RTVSPropertyOp40
 70
     1
102
RTVSPropertyOp41
 70
     1
102
RTVSPropertyOp42
 70
     1
102
RTVSPropertyOp43
 70
     1
102
RTVSPropertyOp44
 70
     1
102
RTVSPropertyOp45
 70
     1
102
RTVSPropertyOp46
 70
     1
102
RTVSPropertyOp47
 70
     1
102
RTVSPropertyOp48
 70
     1
102
RTVSPropertyOp49
 70
     1
102
RTVSPropertyOp50
 70
     1
102
RTVSPropertyOp51
 70
     0
102
RTVSPropertyOp52
 70
     0
102
RTVSPropertyOp53
 70
     1
102
RTVSPropertyOp54
 70
     1
102
RTVSPropertyOp55
 70
     1
102
RTVSPropertyOp56
 70
     1
102
RTVSPropertyOp57
 70
     1
102
RTVSPropertyOp58
 70
     1
102
RTVSPropertyOp59
 70
     1
102
RTVSPropertyOp60
 70
     1
102
RTVSPropertyOp61
 70
     1
102
RTVSPropertyOp62
 70
     1
  0
XRECORD
  5
382
102
{ACAD_REACTORS
330
381
102
}
330
381
100
AcDbXrecord
280
     1
102
RTVSPost2010Prop28
280
     0
102
RTVSPost2010PropOp28
 70
     1
102
RTVSPost2010Prop29
280
     1
102
RTVSPost2010PropOp29
 70
     1
102
RTVSPost2010Prop30
280
     1
102
RTVSPost2010PropOp30
 70
     1
102
RTVSPost2010Prop31
280
     0
102
RTVSPost2010PropOp31
 70
     1
102
RTVSPost2010Prop32
280
     0
102
RTVSPost2010PropOp32
 70
     1
102
RTVSPost2010Prop33
280
     0
102
RTVSPost2010PropOp33
 70
     1
102
RTVSPost2010Prop34
280
     0
102
RTVSPost2010PropOp34
 70
     1
102
RTVSPost2010Prop35
280
     0
102
RTVSPost2010PropOp35
 70
     1
102
RTVSPost2010Prop36
280
     0
102
RTVSPost2010PropOp36
 70
     1
102
RTVSPost2010Prop37
 90
       50
102
RTVSPost2010PropOp37
 70
     1
102
RTVSPost2010Prop38
140
0.0
102
RTVSPost2010PropOp38
 70
     1
102
RTVSPost2010Prop39
140
1.0
102
RTVSPost2010PropOp39
 70
     1
102
RTVSPost2010Prop40
 90
        0
102
RTVSPost2010PropOp40
 70
     1
102
RTVSPost2010Prop41ColorIndex
 90
       18
102
RTVSPost2010Prop41ColorRGB
 90
        0
102
RTVSPost2010PropOp41
 70
     1
102
RTVSPost2010Prop42
 90
       50
102
RTVSPost2010PropOp42
 70
     1
102
RTVSPost2010Prop43
 90
        3
102
RTVSPost2010PropOp43
 70
     1
102
RTVSPost2010Prop44ColorIndex
 90
        5
102
RTVSPost2010Prop44ColorRGB
 90
      255
102
RTVSPost2010PropOp44
 70
     1
102
RTVSPost2010Prop45
280
     0
102
RTVSPost2010PropOp45
 70
     1
102
RTVSPost2010Prop46
 90
       50
102
RTVSPost2010PropOp46
 70
     1
102
RTVSPost2010Prop47
 90
       50
102
RTVSPost2010PropOp47
 70
     1
102
RTVSPost2010Prop48
 90
       50
102
RTVSPost2010PropOp48
 70
     1
102
RTVSPost2010Prop49
280
     0
102
RTVSPost2010PropOp49
 70
     1
102
RTVSPost2010Prop50
 90
       50
102
RTVSPost2010PropOp50
 70
     1
102
RTVSPost2010Prop51ColorIndex
 90
      256
102
RTVSPost2010Prop51ColorRGB
 90
-16777216
102
RTVSPost2010PropOp51
 70
     0
102
RTVSPost2010Prop52
140
1.0
102
RTVSPost2010PropOp52
 70
     0
102
RTVSPost2010Prop53
 90
        2
102
RTVSPost2010PropOp53
 70
     1
102
RTVSPost2010Prop54
  1
strokes_ogs.tif
102
RTVSPost2010PropOp54
 70
     1
102
RTVSPost2010Prop55
280
     0
102
RTVSPost2010PropOp55
 70
     1
102
RTVSPost2010Prop56
140
1.0
102
RTVSPost2010PropOp56
 70
     1
102
RTVSPost2010Prop57
140
1.0
102
RTVSPost2010PropOp57
 70
     1
102
RTVSPropertyOp0
 70
     1
102
RTVSPropertyOp1
 70
     1
102
RTVSPropertyOp2
 70
     1
102
RTVSPropertyOp3
 70
     1
102
RTVSPropertyOp4
 70
     1
102
RTVSPropertyOp5
 70
     1
102
RTVSPropertyOp6
 70
     1
102
RTVSPropertyOp7
 70
     1
102
RTVSPropertyOp8
 70
     1
102
RTVSPropertyOp9
 70
     1
102
RTVSPropertyOp10
 70
     1
102
RTVSPropertyOp11
 70
     1
102
RTVSPropertyOp12
 70
     1
102
RTVSPropertyOp13
 70
     1
102
RTVSPropertyOp14
 70
     1
102
RTVSPropertyOp15
 70
     1
102
RTVSPropertyOp16
 70
     1
102
RTVSPropertyOp17
 70
     1
102
RTVSPropertyOp18
 70
     1
102
RTVSPropertyOp19
 70
     1
102
RTVSPropertyOp20
 70
     1
102
RTVSPropertyOp21
 70
     1
102
RTVSPropertyOp22
 70
     1
102
RTVSPropertyOp23
 70
     1
102
RTVSPropertyOp24
 70
     1
102
RTVSPropertyOp25
 70
     1
102
RTVSPropertyOp26
 70
     1
102
RTVSPropertyOp27
 70
     1
102
RTVSPropertyOp28
 70
     1
102
RTVSPropertyOp29
 70
     1
102
RTVSPropertyOp30
 70
     1
102
RTVSPropertyOp31
 70
     1
102
RTVSPropertyOp32
 70
     1
102
RTVSPropertyOp33
 70
     1
102
RTVSPropertyOp34
 70
     1
102
RTVSPropertyOp35
 70
     1
102
RTVSPropertyOp36
 70
     1
102
RTVSPropertyOp37
 70
     1
102
RTVSPropertyOp38
 70
     1
102
RTVSPropertyOp39
 70
     1
102
RTVSPropertyOp40
 70
     1
102
RTVSPropertyOp41
 70
     1
102
RTVSPropertyOp42
 70
     1
102
RTVSPropertyOp43
 70
     1
102
RTVSPropertyOp44
 70
     1
102
RTVSPropertyOp45
 70
     1
102
RTVSPropertyOp46
 70
     1
102
RTVSPropertyOp47
 70
     1
102
RTVSPropertyOp48
 70
     1
102
RTVSPropertyOp49
 70
     1
102
RTVSPropertyOp50
 70
     1
102
RTVSPropertyOp51
 70
     0
102
RTVSPropertyOp52
 70
     0
102
RTVSPropertyOp53
 70
     1
102
RTVSPropertyOp54
 70
     1
102
RTVSPropertyOp55
 70
     1
102
RTVSPropertyOp56
 70
     1
102
RTVSPropertyOp57
 70
     1
102
RTVSPropertyOp58
 70
     1
102
RTVSPropertyOp59
 70
     1
102
RTVSPropertyOp60
 70
     1
102
RTVSPropertyOp61
 70
     1
102
RTVSPropertyOp62
 70
     1
  0
XRECORD
  5
376
102
{ACAD_REACTORS
330
375
102
}
330
375
100
AcDbXrecord
280
     1
102
RTVSPost2010Prop28
280
     0
102
RTVSPost2010PropOp28
 70
     1
102
RTVSPost2010Prop29
280
     1
102
RTVSPost2010PropOp29
 70
     1
102
RTVSPost2010Prop30
280
     1
102
RTVSPost2010PropOp30
 70
     1
102
RTVSPost2010Prop31
280
     0
102
RTVSPost2010PropOp31
 70
     1
102
RTVSPost2010Prop32
280
     0
102
RTVSPost2010PropOp32
 70
     1
102
RTVSPost2010Prop33
280
     0
102
RTVSPost2010PropOp33
 70
     1
102
RTVSPost2010Prop34
280
     0
102
RTVSPost2010PropOp34
 70
     1
102
RTVSPost2010Prop35
280
     0
102
RTVSPost2010PropOp35
 70
     1
102
RTVSPost2010Prop36
280
     0
102
RTVSPost2010PropOp36
 70
     1
102
RTVSPost2010Prop37
 90
       50
102
RTVSPost2010PropOp37
 70
     1
102
RTVSPost2010Prop38
140
0.0
102
RTVSPost2010PropOp38
 70
     1
102
RTVSPost2010Prop39
140
1.0
102
RTVSPost2010PropOp39
 70
     1
102
RTVSPost2010Prop40
 90
        0
102
RTVSPost2010PropOp40
 70
     1
102
RTVSPost2010Prop41ColorIndex
 90
       18
102
RTVSPost2010Prop41ColorRGB
 90
        0
102
RTVSPost2010PropOp41
 70
     1
102
RTVSPost2010Prop42
 90
       50
102
RTVSPost2010PropOp42
 70
     1
102
RTVSPost2010Prop43
 90
        3
102
RTVSPost2010PropOp43
 70
     1
102
RTVSPost2010Prop44ColorIndex
 90
        5
102
RTVSPost2010Prop44ColorRGB
 90
      255
102
RTVSPost2010PropOp44
 70
     1
102
RTVSPost2010Prop45
280
     0
102
RTVSPost2010PropOp45
 70
     1
102
RTVSPost2010Prop46
 90
       50
102
RTVSPost2010PropOp46
 70
     1
102
RTVSPost2010Prop47
 90
       50
102
RTVSPost2010PropOp47
 70
     1
102
RTVSPost2010Prop48
 90
       50
102
RTVSPost2010PropOp48
 70
     1
102
RTVSPost2010Prop49
280
     0
102
RTVSPost2010PropOp49
 70
     1
102
RTVSPost2010Prop50
 90
       50
102
RTVSPost2010PropOp50
 70
     1
102
RTVSPost2010Prop51ColorIndex
 90
      256
102
RTVSPost2010Prop51ColorRGB
 90
-16777216
102
RTVSPost2010PropOp51
 70
     0
102
RTVSPost2010Prop52
140
1.0
102
RTVSPost2010PropOp52
 70
     0
102
RTVSPost2010Prop53
 90
        2
102
RTVSPost2010PropOp53
 70
     1
102
RTVSPost2010Prop54
  1
strokes_ogs.tif
102
RTVSPost2010PropOp54
 70
     1
102
RTVSPost2010Prop55
280
     0
102
RTVSPost2010PropOp55
 70
     1
102
RTVSPost2010Prop56
140
1.0
102
RTVSPost2010PropOp56
 70
     1
102
RTVSPost2010Prop57
140
1.0
102
RTVSPost2010PropOp57
 70
     1
102
RTVSPropertyOp0
 70
     1
102
RTVSPropertyOp1
 70
     1
102
RTVSPropertyOp2
 70
     1
102
RTVSPropertyOp3
 70
     1
102
RTVSPropertyOp4
 70
     1
102
RTVSPropertyOp5
 70
     1
102
RTVSPropertyOp6
 70
     1
102
RTVSPropertyOp7
 70
     1
102
RTVSPropertyOp8
 70
     1
102
RTVSPropertyOp9
 70
     1
102
RTVSPropertyOp10
 70
     1
102
RTVSPropertyOp11
 70
     1
102
RTVSPropertyOp12
 70
     1
102
RTVSPropertyOp13
 70
     1
102
RTVSPropertyOp14
 70
     1
102
RTVSPropertyOp15
 70
     1
102
RTVSPropertyOp16
 70
     1
102
RTVSPropertyOp17
 70
     1
102
RTVSPropertyOp18
 70
     1
102
RTVSPropertyOp19
 70
     1
102
RTVSPropertyOp20
 70
     1
102
RTVSPropertyOp21
 70
     1
102
RTVSPropertyOp22
 70
     1
102
RTVSPropertyOp23
 70
     1
102
RTVSPropertyOp24
 70
     1
102
RTVSPropertyOp25
 70
     1
102
RTVSPropertyOp26
 70
     1
102
RTVSPropertyOp27
 70
     1
102
RTVSPropertyOp28
 70
     1
102
RTVSPropertyOp29
 70
     1
102
RTVSPropertyOp30
 70
     1
102
RTVSPropertyOp31
 70
     1
102
RTVSPropertyOp32
 70
     1
102
RTVSPropertyOp33
 70
     1
102
RTVSPropertyOp34
 70
     1
102
RTVSPropertyOp35
 70
     1
102
RTVSPropertyOp36
 70
     1
102
RTVSPropertyOp37
 70
     1
102
RTVSPropertyOp38
 70
     1
102
RTVSPropertyOp39
 70
     1
102
RTVSPropertyOp40
 70
     1
102
RTVSPropertyOp41
 70
     1
102
RTVSPropertyOp42
 70
     1
102
RTVSPropertyOp43
 70
     1
102
RTVSPropertyOp44
 70
     1
102
RTVSPropertyOp45
 70
     1
102
RTVSPropertyOp46
 70
     1
102
RTVSPropertyOp47
 70
     1
102
RTVSPropertyOp48
 70
     1
102
RTVSPropertyOp49
 70
     1
102
RTVSPropertyOp50
 70
     1
102
RTVSPropertyOp51
 70
     0
102
RTVSPropertyOp52
 70
     0
102
RTVSPropertyOp53
 70
     1
102
RTVSPropertyOp54
 70
     1
102
RTVSPropertyOp55
 70
     1
102
RTVSPropertyOp56
 70
     1
102
RTVSPropertyOp57
 70
     1
102
RTVSPropertyOp58
 70
     1
102
RTVSPropertyOp59
 70
     1
102
RTVSPropertyOp60
 70
     1
102
RTVSPropertyOp61
 70
     1
102
RTVSPropertyOp62
 70
     1
  0
XRECORD
  5
378
102
{ACAD_REACTORS
330
377
102
}
330
377
100
AcDbXrecord
280
     1
102
RTVSPost2010Prop28
280
     0
102
RTVSPost2010PropOp28
 70
     1
102
RTVSPost2010Prop29
280
     1
102
RTVSPost2010PropOp29
 70
     1
102
RTVSPost2010Prop30
280
     1
102
RTVSPost2010PropOp30
 70
     1
102
RTVSPost2010Prop31
280
     0
102
RTVSPost2010PropOp31
 70
     1
102
RTVSPost2010Prop32
280
     0
102
RTVSPost2010PropOp32
 70
     1
102
RTVSPost2010Prop33
280
     0
102
RTVSPost2010PropOp33
 70
     1
102
RTVSPost2010Prop34
280
     0
102
RTVSPost2010PropOp34
 70
     1
102
RTVSPost2010Prop35
280
     0
102
RTVSPost2010PropOp35
 70
     1
102
RTVSPost2010Prop36
280
     0
102
RTVSPost2010PropOp36
 70
     1
102
RTVSPost2010Prop37
 90
       50
102
RTVSPost2010PropOp37
 70
     1
102
RTVSPost2010Prop38
140
0.0
102
RTVSPost2010PropOp38
 70
     1
102
RTVSPost2010Prop39
140
1.0
102
RTVSPost2010PropOp39
 70
     1
102
RTVSPost2010Prop40
 90
        0
102
RTVSPost2010PropOp40
 70
     1
102
RTVSPost2010Prop41ColorIndex
 90
       18
102
RTVSPost2010Prop41ColorRGB
 90
        0
102
RTVSPost2010PropOp41
 70
     1
102
RTVSPost2010Prop42
 90
       50
102
RTVSPost2010PropOp42
 70
     1
102
RTVSPost2010Prop43
 90
        3
102
RTVSPost2010PropOp43
 70
     1
102
RTVSPost2010Prop44ColorIndex
 90
        5
102
RTVSPost2010Prop44ColorRGB
 90
      255
102
RTVSPost2010PropOp44
 70
     1
102
RTVSPost2010Prop45
280
     0
102
RTVSPost2010PropOp45
 70
     1
102
RTVSPost2010Prop46
 90
       50
102
RTVSPost2010PropOp46
 70
     1
102
RTVSPost2010Prop47
 90
       50
102
RTVSPost2010PropOp47
 70
     1
102
RTVSPost2010Prop48
 90
       50
102
RTVSPost2010PropOp48
 70
     1
102
RTVSPost2010Prop49
280
     0
102
RTVSPost2010PropOp49
 70
     1
102
RTVSPost2010Prop50
 90
       50
102
RTVSPost2010PropOp50
 70
     1
102
RTVSPost2010Prop51ColorIndex
 90
      256
102
RTVSPost2010Prop51ColorRGB
 90
-16777216
102
RTVSPost2010PropOp51
 70
     0
102
RTVSPost2010Prop52
140
1.0
102
RTVSPost2010PropOp52
 70
     0
102
RTVSPost2010Prop53
 90
        2
102
RTVSPost2010PropOp53
 70
     1
102
RTVSPost2010Prop54
  1
strokes_ogs.tif
102
RTVSPost2010PropOp54
 70
     1
102
RTVSPost2010Prop55
280
     0
102
RTVSPost2010PropOp55
 70
     1
102
RTVSPost2010Prop56
140
1.0
102
RTVSPost2010PropOp56
 70
     1
102
RTVSPost2010Prop57
140
1.0
102
RTVSPost2010PropOp57
 70
     1
102
RTVSPropertyOp0
 70
     1
102
RTVSPropertyOp1
 70
     1
102
RTVSPropertyOp2
 70
     1
102
RTVSPropertyOp3
 70
     1
102
RTVSPropertyOp4
 70
     1
102
RTVSPropertyOp5
 70
     1
102
RTVSPropertyOp6
 70
     1
102
RTVSPropertyOp7
 70
     1
102
RTVSPropertyOp8
 70
     1
102
RTVSPropertyOp9
 70
     1
102
RTVSPropertyOp10
 70
     1
102
RTVSPropertyOp11
 70
     1
102
RTVSPropertyOp12
 70
     1
102
RTVSPropertyOp13
 70
     1
102
RTVSPropertyOp14
 70
     1
102
RTVSPropertyOp15
 70
     1
102
RTVSPropertyOp16
 70
     1
102
RTVSPropertyOp17
 70
     1
102
RTVSPropertyOp18
 70
     1
102
RTVSPropertyOp19
 70
     1
102
RTVSPropertyOp20
 70
     1
102
RTVSPropertyOp21
 70
     1
102
RTVSPropertyOp22
 70
     1
102
RTVSPropertyOp23
 70
     1
102
RTVSPropertyOp24
 70
     1
102
RTVSPropertyOp25
 70
     1
102
RTVSPropertyOp26
 70
     1
102
RTVSPropertyOp27
 70
     1
102
RTVSPropertyOp28
 70
     1
102
RTVSPropertyOp29
 70
     1
102
RTVSPropertyOp30
 70
     1
102
RTVSPropertyOp31
 70
     1
102
RTVSPropertyOp32
 70
     1
102
RTVSPropertyOp33
 70
     1
102
RTVSPropertyOp34
 70
     1
102
RTVSPropertyOp35
 70
     1
102
RTVSPropertyOp36
 70
     1
102
RTVSPropertyOp37
 70
     1
102
RTVSPropertyOp38
 70
     1
102
RTVSPropertyOp39
 70
     1
102
RTVSPropertyOp40
 70
     1
102
RTVSPropertyOp41
 70
     1
102
RTVSPropertyOp42
 70
     1
102
RTVSPropertyOp43
 70
     1
102
RTVSPropertyOp44
 70
     1
102
RTVSPropertyOp45
 70
     1
102
RTVSPropertyOp46
 70
     1
102
RTVSPropertyOp47
 70
     1
102
RTVSPropertyOp48
 70
     1
102
RTVSPropertyOp49
 70
     1
102
RTVSPropertyOp50
 70
     1
102
RTVSPropertyOp51
 70
     0
102
RTVSPropertyOp52
 70
     0
102
RTVSPropertyOp53
 70
     1
102
RTVSPropertyOp54
 70
     1
102
RTVSPropertyOp55
 70
     1
102
RTVSPropertyOp56
 70
     1
102
RTVSPropertyOp57
 70
     1
102
RTVSPropertyOp58
 70
     1
102
RTVSPropertyOp59
 70
     1
102
RTVSPropertyOp60
 70
     1
102
RTVSPropertyOp61
 70
     1
102
RTVSPropertyOp62
 70
     1
  0
XRECORD
  5
388
102
{ACAD_REACTORS
330
387
102
}
330
387
100
AcDbXrecord
280
     1
102
RTVSPost2010Prop28
280
     0
102
RTVSPost2010PropOp28
 70
     0
102
RTVSPost2010Prop29
280
     1
102
RTVSPost2010PropOp29
 70
     0
102
RTVSPost2010Prop30
280
     1
102
RTVSPost2010PropOp30
 70
     0
102
RTVSPost2010Prop31
280
     0
102
RTVSPost2010PropOp31
 70
     0
102
RTVSPost2010Prop32
280
     0
102
RTVSPost2010PropOp32
 70
     0
102
RTVSPost2010Prop33
280
     0
102
RTVSPost2010PropOp33
 70
     0
102
RTVSPost2010Prop34
280
     0
102
RTVSPost2010PropOp34
 70
     0
102
RTVSPost2010Prop35
280
     0
102
RTVSPost2010PropOp35
 70
     0
102
RTVSPost2010Prop36
280
     0
102
RTVSPost2010PropOp36
 70
     0
102
RTVSPost2010Prop37
 90
       50
102
RTVSPost2010PropOp37
 70
     0
102
RTVSPost2010Prop38
140
0.0
102
RTVSPost2010PropOp38
 70
     0
102
RTVSPost2010Prop39
140
1.0
102
RTVSPost2010PropOp39
 70
     0
102
RTVSPost2010Prop40
 90
        0
102
RTVSPost2010PropOp40
 70
     0
102
RTVSPost2010Prop41ColorIndex
 90
       18
102
RTVSPost2010Prop41ColorRGB
 90
        0
102
RTVSPost2010PropOp41
 70
     0
102
RTVSPost2010Prop42
 90
       50
102
RTVSPost2010PropOp42
 70
     0
102
RTVSPost2010Prop43
 90
        3
102
RTVSPost2010PropOp43
 70
     0
102
RTVSPost2010Prop44ColorIndex
 90
        5
102
RTVSPost2010Prop44ColorRGB
 90
      255
102
RTVSPost2010PropOp44
 70
     0
102
RTVSPost2010Prop45
280
     0
102
RTVSPost2010PropOp45
 70
     0
102
RTVSPost2010Prop46
 90
       50
102
RTVSPost2010PropOp46
 70
     0
102
RTVSPost2010Prop47
 90
       50
102
RTVSPost2010PropOp47
 70
     0
102
RTVSPost2010Prop48
 90
       50
102
RTVSPost2010PropOp48
 70
     0
102
RTVSPost2010Prop49
280
     0
102
RTVSPost2010PropOp49
 70
     0
102
RTVSPost2010Prop50
 90
       50
102
RTVSPost2010PropOp50
 70
     0
102
RTVSPost2010Prop51ColorIndex
 90
      256
102
RTVSPost2010Prop51ColorRGB
 90
-16777216
102
RTVSPost2010PropOp51
 70
     0
102
RTVSPost2010Prop52
140
1.0
102
RTVSPost2010PropOp52
 70
     0
102
RTVSPost2010Prop53
 90
        2
102
RTVSPost2010PropOp53
 70
     0
102
RTVSPost2010Prop54
  1
strokes_ogs.tif
102
RTVSPost2010PropOp54
 70
     0
102
RTVSPost2010Prop55
280
     0
102
RTVSPost2010PropOp55
 70
     0
102
RTVSPost2010Prop56
140
1.0
102
RTVSPost2010PropOp56
 70
     0
102
RTVSPost2010Prop57
140
1.0
102
RTVSPost2010PropOp57
 70
     0
102
RTVSPropertyOp0
 70
     0
102
RTVSPropertyOp1
 70
     0
102
RTVSPropertyOp2
 70
     0
102
RTVSPropertyOp3
 70
     0
102
RTVSPropertyOp4
 70
     0
102
RTVSPropertyOp5
 70
     0
102
RTVSPropertyOp6
 70
     0
102
RTVSPropertyOp7
 70
     0
102
RTVSPropertyOp8
 70
     0
102
RTVSPropertyOp9
 70
     0
102
RTVSPropertyOp10
 70
     0
102
RTVSPropertyOp11
 70
     0
102
RTVSPropertyOp12
 70
     0
102
RTVSPropertyOp13
 70
     0
102
RTVSPropertyOp14
 70
     2
102
RTVSPropertyOp15
 70
     0
102
RTVSPropertyOp16
 70
     0
102
RTVSPropertyOp17
 70
     0
102
RTVSPropertyOp18
 70
     0
102
RTVSPropertyOp19
 70
     0
102
RTVSPropertyOp20
 70
     0
102
RTVSPropertyOp21
 70
     0
102
RTVSPropertyOp22
 70
     0
102
RTVSPropertyOp23
 70
     0
102
RTVSPropertyOp24
 70
     0
102
RTVSPropertyOp25
 70
     0
102
RTVSPropertyOp26
 70
     0
102
RTVSPropertyOp27
 70
     0
102
RTVSPropertyOp28
 70
     0
102
RTVSPropertyOp29
 70
     0
102
RTVSPropertyOp30
 70
     0
102
RTVSPropertyOp31
 70
     0
102
RTVSPropertyOp32
 70
     0
102
RTVSPropertyOp33
 70
     0
102
RTVSPropertyOp34
 70
     0
102
RTVSPropertyOp35
 70
     0
102
RTVSPropertyOp36
 70
     0
102
RTVSPropertyOp37
 70
     0
102
RTVSPropertyOp38
 70
     0
102
RTVSPropertyOp39
 70
     0
102
RTVSPropertyOp40
 70
     0
102
RTVSPropertyOp41
 70
     0
102
RTVSPropertyOp42
 70
     0
102
RTVSPropertyOp43
 70
     0
102
RTVSPropertyOp44
 70
     0
102
RTVSPropertyOp45
 70
     0
102
RTVSPropertyOp46
 70
     0
102
RTVSPropertyOp47
 70
     0
102
RTVSPropertyOp48
 70
     0
102
RTVSPropertyOp49
 70
     0
102
RTVSPropertyOp50
 70
     0
102
RTVSPropertyOp51
 70
     0
102
RTVSPropertyOp52
 70
     0
102
RTVSPropertyOp53
 70
     0
102
RTVSPropertyOp54
 70
     0
102
RTVSPropertyOp55
 70
     0
102
RTVSPropertyOp56
 70
     0
102
RTVSPropertyOp57
 70
     0
102
RTVSPropertyOp58
 70
     1
102
RTVSPropertyOp59
 70
     1
102
RTVSPropertyOp60
 70
     1
102
RTVSPropertyOp61
 70
     1
102
RTVSPropertyOp62
 70
     1
  0
XRECORD
  5
380
102
{ACAD_REACTORS
330
37F
102
}
330
37F
100
AcDbXrecord
280
     1
102
RTVSPost2010Prop28
280
     0
102
RTVSPost2010PropOp28
 70
     1
102
RTVSPost2010Prop29
280
     1
102
RTVSPost2010PropOp29
 70
     1
102
RTVSPost2010Prop30
280
     1
102
RTVSPost2010PropOp30
 70
     1
102
RTVSPost2010Prop31
280
     0
102
RTVSPost2010PropOp31
 70
     1
102
RTVSPost2010Prop32
280
     0
102
RTVSPost2010PropOp32
 70
     1
102
RTVSPost2010Prop33
280
     0
102
RTVSPost2010PropOp33
 70
     1
102
RTVSPost2010Prop34
280
     0
102
RTVSPost2010PropOp34
 70
     1
102
RTVSPost2010Prop35
280
     0
102
RTVSPost2010PropOp35
 70
     1
102
RTVSPost2010Prop36
280
     0
102
RTVSPost2010PropOp36
 70
     1
102
RTVSPost2010Prop37
 90
       50
102
RTVSPost2010PropOp37
 70
     1
102
RTVSPost2010Prop38
140
0.0
102
RTVSPost2010PropOp38
 70
     1
102
RTVSPost2010Prop39
140
1.0
102
RTVSPost2010PropOp39
 70
     1
102
RTVSPost2010Prop40
 90
        0
102
RTVSPost2010PropOp40
 70
     1
102
RTVSPost2010Prop41ColorIndex
 90
       18
102
RTVSPost2010Prop41ColorRGB
 90
        0
102
RTVSPost2010PropOp41
 70
     1
102
RTVSPost2010Prop42
 90
       50
102
RTVSPost2010PropOp42
 70
     1
102
RTVSPost2010Prop43
 90
        3
102
RTVSPost2010PropOp43
 70
     1
102
RTVSPost2010Prop44ColorIndex
 90
        5
102
RTVSPost2010Prop44ColorRGB
 90
      255
102
RTVSPost2010PropOp44
 70
     1
102
RTVSPost2010Prop45
280
     0
102
RTVSPost2010PropOp45
 70
     1
102
RTVSPost2010Prop46
 90
       50
102
RTVSPost2010PropOp46
 70
     1
102
RTVSPost2010Prop47
 90
       50
102
RTVSPost2010PropOp47
 70
     1
102
RTVSPost2010Prop48
 90
       50
102
RTVSPost2010PropOp48
 70
     1
102
RTVSPost2010Prop49
280
     0
102
RTVSPost2010PropOp49
 70
     1
102
RTVSPost2010Prop50
 90
       50
102
RTVSPost2010PropOp50
 70
     1
102
RTVSPost2010Prop51ColorIndex
 90
      256
102
RTVSPost2010Prop51ColorRGB
 90
-16777216
102
RTVSPost2010PropOp51
 70
     0
102
RTVSPost2010Prop52
140
1.0
102
RTVSPost2010PropOp52
 70
     0
102
RTVSPost2010Prop53
 90
        2
102
RTVSPost2010PropOp53
 70
     1
102
RTVSPost2010Prop54
  1
strokes_ogs.tif
102
RTVSPost2010PropOp54
 70
     1
102
RTVSPost2010Prop55
280
     0
102
RTVSPost2010PropOp55
 70
     1
102
RTVSPost2010Prop56
140
1.0
102
RTVSPost2010PropOp56
 70
     1
102
RTVSPost2010Prop57
140
1.0
102
RTVSPost2010PropOp57
 70
     1
102
RTVSPropertyOp0
 70
     1
102
RTVSPropertyOp1
 70
     1
102
RTVSPropertyOp2
 70
     1
102
RTVSPropertyOp3
 70
     1
102
RTVSPropertyOp4
 70
     1
102
RTVSPropertyOp5
 70
     1
102
RTVSPropertyOp6
 70
     1
102
RTVSPropertyOp7
 70
     1
102
RTVSPropertyOp8
 70
     1
102
RTVSPropertyOp9
 70
     1
102
RTVSPropertyOp10
 70
     1
102
RTVSPropertyOp11
 70
     1
102
RTVSPropertyOp12
 70
     1
102
RTVSPropertyOp13
 70
     1
102
RTVSPropertyOp14
 70
     1
102
RTVSPropertyOp15
 70
     1
102
RTVSPropertyOp16
 70
     1
102
RTVSPropertyOp17
 70
     1
102
RTVSPropertyOp18
 70
     1
102
RTVSPropertyOp19
 70
     1
102
RTVSPropertyOp20
 70
     1
102
RTVSPropertyOp21
 70
     1
102
RTVSPropertyOp22
 70
     1
102
RTVSPropertyOp23
 70
     1
102
RTVSPropertyOp24
 70
     1
102
RTVSPropertyOp25
 70
     1
102
RTVSPropertyOp26
 70
     1
102
RTVSPropertyOp27
 70
     1
102
RTVSPropertyOp28
 70
     1
102
RTVSPropertyOp29
 70
     1
102
RTVSPropertyOp30
 70
     1
102
RTVSPropertyOp31
 70
     1
102
RTVSPropertyOp32
 70
     1
102
RTVSPropertyOp33
 70
     1
102
RTVSPropertyOp34
 70
     1
102
RTVSPropertyOp35
 70
     1
102
RTVSPropertyOp36
 70
     1
102
RTVSPropertyOp37
 70
     1
102
RTVSPropertyOp38
 70
     1
102
RTVSPropertyOp39
 70
     1
102
RTVSPropertyOp40
 70
     1
102
RTVSPropertyOp41
 70
     1
102
RTVSPropertyOp42
 70
     1
102
RTVSPropertyOp43
 70
     1
102
RTVSPropertyOp44
 70
     1
102
RTVSPropertyOp45
 70
     1
102
RTVSPropertyOp46
 70
     1
102
RTVSPropertyOp47
 70
     1
102
RTVSPropertyOp48
 70
     1
102
RTVSPropertyOp49
 70
     1
102
RTVSPropertyOp50
 70
     1
102
RTVSPropertyOp51
 70
     0
102
RTVSPropertyOp52
 70
     0
102
RTVSPropertyOp53
 70
     1
102
RTVSPropertyOp54
 70
     1
102
RTVSPropertyOp55
 70
     1
102
RTVSPropertyOp56
 70
     1
102
RTVSPropertyOp57
 70
     1
102
RTVSPropertyOp58
 70
     1
102
RTVSPropertyOp59
 70
     1
102
RTVSPropertyOp60
 70
     1
102
RTVSPropertyOp61
 70
     1
102
RTVSPropertyOp62
 70
     1
  0
XRECORD
  5
364
102
{ACAD_REACTORS
330
363
102
}
330
363
100
AcDbXrecord
280
     1
102
RTVSPost2010Prop28
280
     0
102
RTVSPost2010PropOp28
 70
     1
102
RTVSPost2010Prop29
280
     1
102
RTVSPost2010PropOp29
 70
     1
102
RTVSPost2010Prop30
280
     1
102
RTVSPost2010PropOp30
 70
     1
102
RTVSPost2010Prop31
280
     0
102
RTVSPost2010PropOp31
 70
     1
102
RTVSPost2010Prop32
280
     0
102
RTVSPost2010PropOp32
 70
     1
102
RTVSPost2010Prop33
280
     0
102
RTVSPost2010PropOp33
 70
     1
102
RTVSPost2010Prop34
280
     0
102
RTVSPost2010PropOp34
 70
     1
102
RTVSPost2010Prop35
280
     0
102
RTVSPost2010PropOp35
 70
     1
102
RTVSPost2010Prop36
280
     0
102
RTVSPost2010PropOp36
 70
     1
102
RTVSPost2010Prop37
 90
       50
102
RTVSPost2010PropOp37
 70
     1
102
RTVSPost2010Prop38
140
0.0
102
RTVSPost2010PropOp38
 70
     1
102
RTVSPost2010Prop39
140
1.0
102
RTVSPost2010PropOp39
 70
     1
102
RTVSPost2010Prop40
 90
        0
102
RTVSPost2010PropOp40
 70
     1
102
RTVSPost2010Prop41ColorIndex
 90
       18
102
RTVSPost2010Prop41ColorRGB
 90
        0
102
RTVSPost2010PropOp41
 70
     1
102
RTVSPost2010Prop42
 90
       50
102
RTVSPost2010PropOp42
 70
     1
102
RTVSPost2010Prop43
 90
        3
102
RTVSPost2010PropOp43
 70
     1
102
RTVSPost2010Prop44ColorIndex
 90
        5
102
RTVSPost2010Prop44ColorRGB
 90
      255
102
RTVSPost2010PropOp44
 70
     1
102
RTVSPost2010Prop45
280
     0
102
RTVSPost2010PropOp45
 70
     1
102
RTVSPost2010Prop46
 90
       50
102
RTVSPost2010PropOp46
 70
     1
102
RTVSPost2010Prop47
 90
       50
102
RTVSPost2010PropOp47
 70
     1
102
RTVSPost2010Prop48
 90
       50
102
RTVSPost2010PropOp48
 70
     1
102
RTVSPost2010Prop49
280
     0
102
RTVSPost2010PropOp49
 70
     1
102
RTVSPost2010Prop50
 90
       50
102
RTVSPost2010PropOp50
 70
     1
102
RTVSPost2010Prop51ColorIndex
 90
      256
102
RTVSPost2010Prop51ColorRGB
 90
-16777216
102
RTVSPost2010PropOp51
 70
     0
102
RTVSPost2010Prop52
140
1.0
102
RTVSPost2010PropOp52
 70
     0
102
RTVSPost2010Prop53
 90
        2
102
RTVSPost2010PropOp53
 70
     1
102
RTVSPost2010Prop54
  1
strokes_ogs.tif
102
RTVSPost2010PropOp54
 70
     1
102
RTVSPost2010Prop55
280
     0
102
RTVSPost2010PropOp55
 70
     1
102
RTVSPost2010Prop56
140
1.0
102
RTVSPost2010PropOp56
 70
     1
102
RTVSPost2010Prop57
140
1.0
102
RTVSPost2010PropOp57
 70
     1
102
RTVSPropertyOp0
 70
     1
102
RTVSPropertyOp1
 70
     1
102
RTVSPropertyOp2
 70
     1
102
RTVSPropertyOp3
 70
     1
102
RTVSPropertyOp4
 70
     1
102
RTVSPropertyOp5
 70
     1
102
RTVSPropertyOp6
 70
     1
102
RTVSPropertyOp7
 70
     1
102
RTVSPropertyOp8
 70
     1
102
RTVSPropertyOp9
 70
     1
102
RTVSPropertyOp10
 70
     1
102
RTVSPropertyOp11
 70
     1
102
RTVSPropertyOp12
 70
     1
102
RTVSPropertyOp13
 70
     1
102
RTVSPropertyOp14
 70
     1
102
RTVSPropertyOp15
 70
     1
102
RTVSPropertyOp16
 70
     1
102
RTVSPropertyOp17
 70
     1
102
RTVSPropertyOp18
 70
     1
102
RTVSPropertyOp19
 70
     1
102
RTVSPropertyOp20
 70
     1
102
RTVSPropertyOp21
 70
     1
102
RTVSPropertyOp22
 70
     1
102
RTVSPropertyOp23
 70
     1
102
RTVSPropertyOp24
 70
     1
102
RTVSPropertyOp25
 70
     1
102
RTVSPropertyOp26
 70
     1
102
RTVSPropertyOp27
 70
     1
102
RTVSPropertyOp28
 70
     1
102
RTVSPropertyOp29
 70
     1
102
RTVSPropertyOp30
 70
     1
102
RTVSPropertyOp31
 70
     1
102
RTVSPropertyOp32
 70
     1
102
RTVSPropertyOp33
 70
     1
102
RTVSPropertyOp34
 70
     1
102
RTVSPropertyOp35
 70
     1
102
RTVSPropertyOp36
 70
     1
102
RTVSPropertyOp37
 70
     1
102
RTVSPropertyOp38
 70
     1
102
RTVSPropertyOp39
 70
     1
102
RTVSPropertyOp40
 70
     1
102
RTVSPropertyOp41
 70
     1
102
RTVSPropertyOp42
 70
     1
102
RTVSPropertyOp43
 70
     1
102
RTVSPropertyOp44
 70
     1
102
RTVSPropertyOp45
 70
     1
102
RTVSPropertyOp46
 70
     1
102
RTVSPropertyOp47
 70
     1
102
RTVSPropertyOp48
 70
     1
102
RTVSPropertyOp49
 70
     1
102
RTVSPropertyOp50
 70
     1
102
RTVSPropertyOp51
 70
     0
102
RTVSPropertyOp52
 70
     0
102
RTVSPropertyOp53
 70
     1
102
RTVSPropertyOp54
 70
     1
102
RTVSPropertyOp55
 70
     1
102
RTVSPropertyOp56
 70
     1
102
RTVSPropertyOp57
 70
     1
102
RTVSPropertyOp58
 70
     1
102
RTVSPropertyOp59
 70
     1
102
RTVSPropertyOp60
 70
     1
102
RTVSPropertyOp61
 70
     1
102
RTVSPropertyOp62
 70
     1
  0
XRECORD
  5
366
102
{ACAD_REACTORS
330
365
102
}
330
365
100
AcDbXrecord
280
     1
102
RTVSPost2010Prop28
280
     0
102
RTVSPost2010PropOp28
 70
     1
102
RTVSPost2010Prop29
280
     1
102
RTVSPost2010PropOp29
 70
     1
102
RTVSPost2010Prop30
280
     1
102
RTVSPost2010PropOp30
 70
     1
102
RTVSPost2010Prop31
280
     0
102
RTVSPost2010PropOp31
 70
     1
102
RTVSPost2010Prop32
280
     0
102
RTVSPost2010PropOp32
 70
     1
102
RTVSPost2010Prop33
280
     0
102
RTVSPost2010PropOp33
 70
     1
102
RTVSPost2010Prop34
280
     0
102
RTVSPost2010PropOp34
 70
     1
102
RTVSPost2010Prop35
280
     0
102
RTVSPost2010PropOp35
 70
     1
102
RTVSPost2010Prop36
280
     0
102
RTVSPost2010PropOp36
 70
     1
102
RTVSPost2010Prop37
 90
       50
102
RTVSPost2010PropOp37
 70
     1
102
RTVSPost2010Prop38
140
0.0
102
RTVSPost2010PropOp38
 70
     1
102
RTVSPost2010Prop39
140
1.0
102
RTVSPost2010PropOp39
 70
     1
102
RTVSPost2010Prop40
 90
        0
102
RTVSPost2010PropOp40
 70
     1
102
RTVSPost2010Prop41ColorIndex
 90
       18
102
RTVSPost2010Prop41ColorRGB
 90
        0
102
RTVSPost2010PropOp41
 70
     1
102
RTVSPost2010Prop42
 90
       50
102
RTVSPost2010PropOp42
 70
     1
102
RTVSPost2010Prop43
 90
        3
102
RTVSPost2010PropOp43
 70
     1
102
RTVSPost2010Prop44ColorIndex
 90
        5
102
RTVSPost2010Prop44ColorRGB
 90
      255
102
RTVSPost2010PropOp44
 70
     1
102
RTVSPost2010Prop45
280
     0
102
RTVSPost2010PropOp45
 70
     1
102
RTVSPost2010Prop46
 90
       50
102
RTVSPost2010PropOp46
 70
     1
102
RTVSPost2010Prop47
 90
       50
102
RTVSPost2010PropOp47
 70
     1
102
RTVSPost2010Prop48
 90
       50
102
RTVSPost2010PropOp48
 70
     1
102
RTVSPost2010Prop49
280
     0
102
RTVSPost2010PropOp49
 70
     1
102
RTVSPost2010Prop50
 90
       50
102
RTVSPost2010PropOp50
 70
     1
102
RTVSPost2010Prop51ColorIndex
 90
      256
102
RTVSPost2010Prop51ColorRGB
 90
-16777216
102
RTVSPost2010PropOp51
 70
     0
102
RTVSPost2010Prop52
140
1.0
102
RTVSPost2010PropOp52
 70
     0
102
RTVSPost2010Prop53
 90
        2
102
RTVSPost2010PropOp53
 70
     1
102
RTVSPost2010Prop54
  1
strokes_ogs.tif
102
RTVSPost2010PropOp54
 70
     1
102
RTVSPost2010Prop55
280
     0
102
RTVSPost2010PropOp55
 70
     1
102
RTVSPost2010Prop56
140
1.0
102
RTVSPost2010PropOp56
 70
     1
102
RTVSPost2010Prop57
140
1.0
102
RTVSPost2010PropOp57
 70
     1
102
RTVSPropertyOp0
 70
     1
102
RTVSPropertyOp1
 70
     1
102
RTVSPropertyOp2
 70
     1
102
RTVSPropertyOp3
 70
     1
102
RTVSPropertyOp4
 70
     1
102
RTVSPropertyOp5
 70
     1
102
RTVSPropertyOp6
 70
     1
102
RTVSPropertyOp7
 70
     1
102
RTVSPropertyOp8
 70
     1
102
RTVSPropertyOp9
 70
     1
102
RTVSPropertyOp10
 70
     1
102
RTVSPropertyOp11
 70
     1
102
RTVSPropertyOp12
 70
     1
102
RTVSPropertyOp13
 70
     1
102
RTVSPropertyOp14
 70
     1
102
RTVSPropertyOp15
 70
     1
102
RTVSPropertyOp16
 70
     1
102
RTVSPropertyOp17
 70
     1
102
RTVSPropertyOp18
 70
     1
102
RTVSPropertyOp19
 70
     1
102
RTVSPropertyOp20
 70
     1
102
RTVSPropertyOp21
 70
     1
102
RTVSPropertyOp22
 70
     1
102
RTVSPropertyOp23
 70
     1
102
RTVSPropertyOp24
 70
     1
102
RTVSPropertyOp25
 70
     1
102
RTVSPropertyOp26
 70
     1
102
RTVSPropertyOp27
 70
     1
102
RTVSPropertyOp28
 70
     1
102
RTVSPropertyOp29
 70
     1
102
RTVSPropertyOp30
 70
     1
102
RTVSPropertyOp31
 70
     1
102
RTVSPropertyOp32
 70
     1
102
RTVSPropertyOp33
 70
     1
102
RTVSPropertyOp34
 70
     1
102
RTVSPropertyOp35
 70
     1
102
RTVSPropertyOp36
 70
     1
102
RTVSPropertyOp37
 70
     1
102
RTVSPropertyOp38
 70
     1
102
RTVSPropertyOp39
 70
     1
102
RTVSPropertyOp40
 70
     1
102
RTVSPropertyOp41
 70
     1
102
RTVSPropertyOp42
 70
     1
102
RTVSPropertyOp43
 70
     1
102
RTVSPropertyOp44
 70
     1
102
RTVSPropertyOp45
 70
     1
102
RTVSPropertyOp46
 70
     1
102
RTVSPropertyOp47
 70
     1
102
RTVSPropertyOp48
 70
     1
102
RTVSPropertyOp49
 70
     1
102
RTVSPropertyOp50
 70
     1
102
RTVSPropertyOp51
 70
     0
102
RTVSPropertyOp52
 70
     0
102
RTVSPropertyOp53
 70
     1
102
RTVSPropertyOp54
 70
     1
102
RTVSPropertyOp55
 70
     1
102
RTVSPropertyOp56
 70
     1
102
RTVSPropertyOp57
 70
     1
102
RTVSPropertyOp58
 70
     1
102
RTVSPropertyOp59
 70
     1
102
RTVSPropertyOp60
 70
     1
102
RTVSPropertyOp61
 70
     1
102
RTVSPropertyOp62
 70
     1
  0
XRECORD
  5
368
102
{ACAD_REACTORS
330
367
102
}
330
367
100
AcDbXrecord
280
     1
102
RTVSPost2010Prop28
280
     0
102
RTVSPost2010PropOp28
 70
     1
102
RTVSPost2010Prop29
280
     1
102
RTVSPost2010PropOp29
 70
     1
102
RTVSPost2010Prop30
280
     1
102
RTVSPost2010PropOp30
 70
     1
102
RTVSPost2010Prop31
280
     0
102
RTVSPost2010PropOp31
 70
     1
102
RTVSPost2010Prop32
280
     0
102
RTVSPost2010PropOp32
 70
     1
102
RTVSPost2010Prop33
280
     0
102
RTVSPost2010PropOp33
 70
     1
102
RTVSPost2010Prop34
280
     0
102
RTVSPost2010PropOp34
 70
     1
102
RTVSPost2010Prop35
280
     0
102
RTVSPost2010PropOp35
 70
     1
102
RTVSPost2010Prop36
280
     0
102
RTVSPost2010PropOp36
 70
     1
102
RTVSPost2010Prop37
 90
       50
102
RTVSPost2010PropOp37
 70
     1
102
RTVSPost2010Prop38
140
0.0
102
RTVSPost2010PropOp38
 70
     1
102
RTVSPost2010Prop39
140
1.0
102
RTVSPost2010PropOp39
 70
     1
102
RTVSPost2010Prop40
 90
        0
102
RTVSPost2010PropOp40
 70
     1
102
RTVSPost2010Prop41ColorIndex
 90
       18
102
RTVSPost2010Prop41ColorRGB
 90
        0
102
RTVSPost2010PropOp41
 70
     1
102
RTVSPost2010Prop42
 90
       50
102
RTVSPost2010PropOp42
 70
     1
102
RTVSPost2010Prop43
 90
        3
102
RTVSPost2010PropOp43
 70
     1
102
RTVSPost2010Prop44ColorIndex
 90
        5
102
RTVSPost2010Prop44ColorRGB
 90
      255
102
RTVSPost2010PropOp44
 70
     1
102
RTVSPost2010Prop45
280
     0
102
RTVSPost2010PropOp45
 70
     1
102
RTVSPost2010Prop46
 90
       50
102
RTVSPost2010PropOp46
 70
     1
102
RTVSPost2010Prop47
 90
       50
102
RTVSPost2010PropOp47
 70
     1
102
RTVSPost2010Prop48
 90
       50
102
RTVSPost2010PropOp48
 70
     1
102
RTVSPost2010Prop49
280
     0
102
RTVSPost2010PropOp49
 70
     1
102
RTVSPost2010Prop50
 90
       50
102
RTVSPost2010PropOp50
 70
     1
102
RTVSPost2010Prop51ColorIndex
 90
      256
102
RTVSPost2010Prop51ColorRGB
 90
-16777216
102
RTVSPost2010PropOp51
 70
     0
102
RTVSPost2010Prop52
140
1.0
102
RTVSPost2010PropOp52
 70
     0
102
RTVSPost2010Prop53
 90
        2
102
RTVSPost2010PropOp53
 70
     1
102
RTVSPost2010Prop54
  1
strokes_ogs.tif
102
RTVSPost2010PropOp54
 70
     1
102
RTVSPost2010Prop55
280
     0
102
RTVSPost2010PropOp55
 70
     1
102
RTVSPost2010Prop56
140
1.0
102
RTVSPost2010PropOp56
 70
     1
102
RTVSPost2010Prop57
140
1.0
102
RTVSPost2010PropOp57
 70
     1
102
RTVSPropertyOp0
 70
     1
102
RTVSPropertyOp1
 70
     1
102
RTVSPropertyOp2
 70
     1
102
RTVSPropertyOp3
 70
     1
102
RTVSPropertyOp4
 70
     1
102
RTVSPropertyOp5
 70
     1
102
RTVSPropertyOp6
 70
     1
102
RTVSPropertyOp7
 70
     1
102
RTVSPropertyOp8
 70
     1
102
RTVSPropertyOp9
 70
     1
102
RTVSPropertyOp10
 70
     1
102
RTVSPropertyOp11
 70
     1
102
RTVSPropertyOp12
 70
     1
102
RTVSPropertyOp13
 70
     1
102
RTVSPropertyOp14
 70
     1
102
RTVSPropertyOp15
 70
     1
102
RTVSPropertyOp16
 70
     1
102
RTVSPropertyOp17
 70
     1
102
RTVSPropertyOp18
 70
     1
102
RTVSPropertyOp19
 70
     1
102
RTVSPropertyOp20
 70
     1
102
RTVSPropertyOp21
 70
     1
102
RTVSPropertyOp22
 70
     1
102
RTVSPropertyOp23
 70
     1
102
RTVSPropertyOp24
 70
     1
102
RTVSPropertyOp25
 70
     1
102
RTVSPropertyOp26
 70
     1
102
RTVSPropertyOp27
 70
     1
102
RTVSPropertyOp28
 70
     1
102
RTVSPropertyOp29
 70
     1
102
RTVSPropertyOp30
 70
     1
102
RTVSPropertyOp31
 70
     1
102
RTVSPropertyOp32
 70
     1
102
RTVSPropertyOp33
 70
     1
102
RTVSPropertyOp34
 70
     1
102
RTVSPropertyOp35
 70
     1
102
RTVSPropertyOp36
 70
     1
102
RTVSPropertyOp37
 70
     1
102
RTVSPropertyOp38
 70
     1
102
RTVSPropertyOp39
 70
     1
102
RTVSPropertyOp40
 70
     1
102
RTVSPropertyOp41
 70
     1
102
RTVSPropertyOp42
 70
     1
102
RTVSPropertyOp43
 70
     1
102
RTVSPropertyOp44
 70
     1
102
RTVSPropertyOp45
 70
     1
102
RTVSPropertyOp46
 70
     1
102
RTVSPropertyOp47
 70
     1
102
RTVSPropertyOp48
 70
     1
102
RTVSPropertyOp49
 70
     1
102
RTVSPropertyOp50
 70
     1
102
RTVSPropertyOp51
 70
     0
102
RTVSPropertyOp52
 70
     0
102
RTVSPropertyOp53
 70
     1
102
RTVSPropertyOp54
 70
     1
102
RTVSPropertyOp55
 70
     1
102
RTVSPropertyOp56
 70
     1
102
RTVSPropertyOp57
 70
     1
102
RTVSPropertyOp58
 70
     1
102
RTVSPropertyOp59
 70
     1
102
RTVSPropertyOp60
 70
     1
102
RTVSPropertyOp61
 70
     1
102
RTVSPropertyOp62
 70
     1
  0
XRECORD
  5
36A
102
{ACAD_REACTORS
330
369
102
}
330
369
100
AcDbXrecord
280
     1
102
RTVSPost2010Prop28
280
     0
102
RTVSPost2010PropOp28
 70
     1
102
RTVSPost2010Prop29
280
     1
102
RTVSPost2010PropOp29
 70
     1
102
RTVSPost2010Prop30
280
     1
102
RTVSPost2010PropOp30
 70
     1
102
RTVSPost2010Prop31
280
     0
102
RTVSPost2010PropOp31
 70
     1
102
RTVSPost2010Prop32
280
     0
102
RTVSPost2010PropOp32
 70
     1
102
RTVSPost2010Prop33
280
     0
102
RTVSPost2010PropOp33
 70
     1
102
RTVSPost2010Prop34
280
     0
102
RTVSPost2010PropOp34
 70
     1
102
RTVSPost2010Prop35
280
     0
102
RTVSPost2010PropOp35
 70
     1
102
RTVSPost2010Prop36
280
     0
102
RTVSPost2010PropOp36
 70
     1
102
RTVSPost2010Prop37
 90
       50
102
RTVSPost2010PropOp37
 70
     1
102
RTVSPost2010Prop38
140
0.0
102
RTVSPost2010PropOp38
 70
     1
102
RTVSPost2010Prop39
140
1.0
102
RTVSPost2010PropOp39
 70
     1
102
RTVSPost2010Prop40
 90
        0
102
RTVSPost2010PropOp40
 70
     1
102
RTVSPost2010Prop41ColorIndex
 90
       18
102
RTVSPost2010Prop41ColorRGB
 90
        0
102
RTVSPost2010PropOp41
 70
     1
102
RTVSPost2010Prop42
 90
       50
102
RTVSPost2010PropOp42
 70
     1
102
RTVSPost2010Prop43
 90
        3
102
RTVSPost2010PropOp43
 70
     1
102
RTVSPost2010Prop44ColorIndex
 90
        5
102
RTVSPost2010Prop44ColorRGB
 90
      255
102
RTVSPost2010PropOp44
 70
     1
102
RTVSPost2010Prop45
280
     0
102
RTVSPost2010PropOp45
 70
     1
102
RTVSPost2010Prop46
 90
       50
102
RTVSPost2010PropOp46
 70
     1
102
RTVSPost2010Prop47
 90
       50
102
RTVSPost2010PropOp47
 70
     1
102
RTVSPost2010Prop48
 90
       50
102
RTVSPost2010PropOp48
 70
     1
102
RTVSPost2010Prop49
280
     0
102
RTVSPost2010PropOp49
 70
     1
102
RTVSPost2010Prop50
 90
       50
102
RTVSPost2010PropOp50
 70
     1
102
RTVSPost2010Prop51ColorIndex
 90
      256
102
RTVSPost2010Prop51ColorRGB
 90
-16777216
102
RTVSPost2010PropOp51
 70
     0
102
RTVSPost2010Prop52
140
1.0
102
RTVSPost2010PropOp52
 70
     0
102
RTVSPost2010Prop53
 90
        2
102
RTVSPost2010PropOp53
 70
     1
102
RTVSPost2010Prop54
  1
strokes_ogs.tif
102
RTVSPost2010PropOp54
 70
     1
102
RTVSPost2010Prop55
280
     0
102
RTVSPost2010PropOp55
 70
     1
102
RTVSPost2010Prop56
140
1.0
102
RTVSPost2010PropOp56
 70
     1
102
RTVSPost2010Prop57
140
1.0
102
RTVSPost2010PropOp57
 70
     1
102
RTVSPropertyOp0
 70
     1
102
RTVSPropertyOp1
 70
     1
102
RTVSPropertyOp2
 70
     1
102
RTVSPropertyOp3
 70
     1
102
RTVSPropertyOp4
 70
     1
102
RTVSPropertyOp5
 70
     1
102
RTVSPropertyOp6
 70
     1
102
RTVSPropertyOp7
 70
     1
102
RTVSPropertyOp8
 70
     1
102
RTVSPropertyOp9
 70
     1
102
RTVSPropertyOp10
 70
     1
102
RTVSPropertyOp11
 70
     1
102
RTVSPropertyOp12
 70
     1
102
RTVSPropertyOp13
 70
     1
102
RTVSPropertyOp14
 70
     1
102
RTVSPropertyOp15
 70
     1
102
RTVSPropertyOp16
 70
     1
102
RTVSPropertyOp17
 70
     1
102
RTVSPropertyOp18
 70
     1
102
RTVSPropertyOp19
 70
     1
102
RTVSPropertyOp20
 70
     1
102
RTVSPropertyOp21
 70
     1
102
RTVSPropertyOp22
 70
     1
102
RTVSPropertyOp23
 70
     1
102
RTVSPropertyOp24
 70
     1
102
RTVSPropertyOp25
 70
     1
102
RTVSPropertyOp26
 70
     1
102
RTVSPropertyOp27
 70
     1
102
RTVSPropertyOp28
 70
     1
102
RTVSPropertyOp29
 70
     1
102
RTVSPropertyOp30
 70
     1
102
RTVSPropertyOp31
 70
     1
102
RTVSPropertyOp32
 70
     1
102
RTVSPropertyOp33
 70
     1
102
RTVSPropertyOp34
 70
     1
102
RTVSPropertyOp35
 70
     1
102
RTVSPropertyOp36
 70
     1
102
RTVSPropertyOp37
 70
     1
102
RTVSPropertyOp38
 70
     1
102
RTVSPropertyOp39
 70
     1
102
RTVSPropertyOp40
 70
     1
102
RTVSPropertyOp41
 70
     1
102
RTVSPropertyOp42
 70
     1
102
RTVSPropertyOp43
 70
     1
102
RTVSPropertyOp44
 70
     1
102
RTVSPropertyOp45
 70
     1
102
RTVSPropertyOp46
 70
     1
102
RTVSPropertyOp47
 70
     1
102
RTVSPropertyOp48
 70
     1
102
RTVSPropertyOp49
 70
     1
102
RTVSPropertyOp50
 70
     1
102
RTVSPropertyOp51
 70
     0
102
RTVSPropertyOp52
 70
     0
102
RTVSPropertyOp53
 70
     1
102
RTVSPropertyOp54
 70
     1
102
RTVSPropertyOp55
 70
     1
102
RTVSPropertyOp56
 70
     1
102
RTVSPropertyOp57
 70
     1
102
RTVSPropertyOp58
 70
     1
102
RTVSPropertyOp59
 70
     1
102
RTVSPropertyOp60
 70
     1
102
RTVSPropertyOp61
 70
     1
102
RTVSPropertyOp62
 70
     1
  0
XRECORD
  5
370
102
{ACAD_REACTORS
330
36F
102
}
330
36F
100
AcDbXrecord
280
     1
102
RTVSPost2010Prop28
280
     0
102
RTVSPost2010PropOp28
 70
     1
102
RTVSPost2010Prop29
280
     1
102
RTVSPost2010PropOp29
 70
     1
102
RTVSPost2010Prop30
280
     1
102
RTVSPost2010PropOp30
 70
     1
102
RTVSPost2010Prop31
280
     0
102
RTVSPost2010PropOp31
 70
     1
102
RTVSPost2010Prop32
280
     0
102
RTVSPost2010PropOp32
 70
     1
102
RTVSPost2010Prop33
280
     0
102
RTVSPost2010PropOp33
 70
     1
102
RTVSPost2010Prop34
280
     0
102
RTVSPost2010PropOp34
 70
     1
102
RTVSPost2010Prop35
280
     0
102
RTVSPost2010PropOp35
 70
     1
102
RTVSPost2010Prop36
280
     0
102
RTVSPost2010PropOp36
 70
     1
102
RTVSPost2010Prop37
 90
       50
102
RTVSPost2010PropOp37
 70
     1
102
RTVSPost2010Prop38
140
0.0
102
RTVSPost2010PropOp38
 70
     1
102
RTVSPost2010Prop39
140
1.0
102
RTVSPost2010PropOp39
 70
     1
102
RTVSPost2010Prop40
 90
        0
102
RTVSPost2010PropOp40
 70
     1
102
RTVSPost2010Prop41ColorIndex
 90
       18
102
RTVSPost2010Prop41ColorRGB
 90
        0
102
RTVSPost2010PropOp41
 70
     1
102
RTVSPost2010Prop42
 90
       50
102
RTVSPost2010PropOp42
 70
     1
102
RTVSPost2010Prop43
 90
        3
102
RTVSPost2010PropOp43
 70
     1
102
RTVSPost2010Prop44ColorIndex
 90
        5
102
RTVSPost2010Prop44ColorRGB
 90
      255
102
RTVSPost2010PropOp44
 70
     1
102
RTVSPost2010Prop45
280
     0
102
RTVSPost2010PropOp45
 70
     1
102
RTVSPost2010Prop46
 90
       50
102
RTVSPost2010PropOp46
 70
     1
102
RTVSPost2010Prop47
 90
       50
102
RTVSPost2010PropOp47
 70
     1
102
RTVSPost2010Prop48
 90
       50
102
RTVSPost2010PropOp48
 70
     1
102
RTVSPost2010Prop49
280
     0
102
RTVSPost2010PropOp49
 70
     1
102
RTVSPost2010Prop50
 90
       50
102
RTVSPost2010PropOp50
 70
     1
102
RTVSPost2010Prop51ColorIndex
 90
      256
102
RTVSPost2010Prop51ColorRGB
 90
-16777216
102
RTVSPost2010PropOp51
 70
     0
102
RTVSPost2010Prop52
140
1.0
102
RTVSPost2010PropOp52
 70
     0
102
RTVSPost2010Prop53
 90
        2
102
RTVSPost2010PropOp53
 70
     1
102
RTVSPost2010Prop54
  1
strokes_ogs.tif
102
RTVSPost2010PropOp54
 70
     1
102
RTVSPost2010Prop55
280
     0
102
RTVSPost2010PropOp55
 70
     1
102
RTVSPost2010Prop56
140
1.0
102
RTVSPost2010PropOp56
 70
     1
102
RTVSPost2010Prop57
140
1.0
102
RTVSPost2010PropOp57
 70
     1
102
RTVSPropertyOp0
 70
     1
102
RTVSPropertyOp1
 70
     1
102
RTVSPropertyOp2
 70
     1
102
RTVSPropertyOp3
 70
     1
102
RTVSPropertyOp4
 70
     1
102
RTVSPropertyOp5
 70
     1
102
RTVSPropertyOp6
 70
     1
102
RTVSPropertyOp7
 70
     1
102
RTVSPropertyOp8
 70
     1
102
RTVSPropertyOp9
 70
     1
102
RTVSPropertyOp10
 70
     1
102
RTVSPropertyOp11
 70
     1
102
RTVSPropertyOp12
 70
     1
102
RTVSPropertyOp13
 70
     1
102
RTVSPropertyOp14
 70
     1
102
RTVSPropertyOp15
 70
     1
102
RTVSPropertyOp16
 70
     1
102
RTVSPropertyOp17
 70
     1
102
RTVSPropertyOp18
 70
     1
102
RTVSPropertyOp19
 70
     1
102
RTVSPropertyOp20
 70
     1
102
RTVSPropertyOp21
 70
     1
102
RTVSPropertyOp22
 70
     1
102
RTVSPropertyOp23
 70
     1
102
RTVSPropertyOp24
 70
     1
102
RTVSPropertyOp25
 70
     1
102
RTVSPropertyOp26
 70
     1
102
RTVSPropertyOp27
 70
     1
102
RTVSPropertyOp28
 70
     1
102
RTVSPropertyOp29
 70
     1
102
RTVSPropertyOp30
 70
     1
102
RTVSPropertyOp31
 70
     1
102
RTVSPropertyOp32
 70
     1
102
RTVSPropertyOp33
 70
     1
102
RTVSPropertyOp34
 70
     1
102
RTVSPropertyOp35
 70
     1
102
RTVSPropertyOp36
 70
     1
102
RTVSPropertyOp37
 70
     1
102
RTVSPropertyOp38
 70
     1
102
RTVSPropertyOp39
 70
     1
102
RTVSPropertyOp40
 70
     1
102
RTVSPropertyOp41
 70
     1
102
RTVSPropertyOp42
 70
     1
102
RTVSPropertyOp43
 70
     1
102
RTVSPropertyOp44
 70
     1
102
RTVSPropertyOp45
 70
     1
102
RTVSPropertyOp46
 70
     1
102
RTVSPropertyOp47
 70
     1
102
RTVSPropertyOp48
 70
     1
102
RTVSPropertyOp49
 70
     1
102
RTVSPropertyOp50
 70
     1
102
RTVSPropertyOp51
 70
     0
102
RTVSPropertyOp52
 70
     0
102
RTVSPropertyOp53
 70
     1
102
RTVSPropertyOp54
 70
     1
102
RTVSPropertyOp55
 70
     1
102
RTVSPropertyOp56
 70
     1
102
RTVSPropertyOp57
 70
     1
102
RTVSPropertyOp58
 70
     1
102
RTVSPropertyOp59
 70
     1
102
RTVSPropertyOp60
 70
     1
102
RTVSPropertyOp61
 70
     1
102
RTVSPropertyOp62
 70
     1
  0
XRECORD
  5
384
102
{ACAD_REACTORS
330
383
102
}
330
383
100
AcDbXrecord
280
     1
102
RTVSPost2010Prop28
280
     0
102
RTVSPost2010PropOp28
 70
     0
102
RTVSPost2010Prop29
280
     1
102
RTVSPost2010PropOp29
 70
     0
102
RTVSPost2010Prop30
280
     1
102
RTVSPost2010PropOp30
 70
     0
102
RTVSPost2010Prop31
280
     0
102
RTVSPost2010PropOp31
 70
     0
102
RTVSPost2010Prop32
280
     0
102
RTVSPost2010PropOp32
 70
     0
102
RTVSPost2010Prop33
280
     0
102
RTVSPost2010PropOp33
 70
     0
102
RTVSPost2010Prop34
280
     0
102
RTVSPost2010PropOp34
 70
     0
102
RTVSPost2010Prop35
280
     0
102
RTVSPost2010PropOp35
 70
     0
102
RTVSPost2010Prop36
280
     0
102
RTVSPost2010PropOp36
 70
     0
102
RTVSPost2010Prop37
 90
       50
102
RTVSPost2010PropOp37
 70
     0
102
RTVSPost2010Prop38
140
0.0
102
RTVSPost2010PropOp38
 70
     0
102
RTVSPost2010Prop39
140
1.0
102
RTVSPost2010PropOp39
 70
     0
102
RTVSPost2010Prop40
 90
        0
102
RTVSPost2010PropOp40
 70
     0
102
RTVSPost2010Prop41ColorIndex
 90
       18
102
RTVSPost2010Prop41ColorRGB
 90
        0
102
RTVSPost2010PropOp41
 70
     0
102
RTVSPost2010Prop42
 90
       50
102
RTVSPost2010PropOp42
 70
     0
102
RTVSPost2010Prop43
 90
        3
102
RTVSPost2010PropOp43
 70
     0
102
RTVSPost2010Prop44ColorIndex
 90
        5
102
RTVSPost2010Prop44ColorRGB
 90
      255
102
RTVSPost2010PropOp44
 70
     0
102
RTVSPost2010Prop45
280
     0
102
RTVSPost2010PropOp45
 70
     0
102
RTVSPost2010Prop46
 90
       50
102
RTVSPost2010PropOp46
 70
     0
102
RTVSPost2010Prop47
 90
       50
102
RTVSPost2010PropOp47
 70
     0
102
RTVSPost2010Prop48
 90
       50
102
RTVSPost2010PropOp48
 70
     0
102
RTVSPost2010Prop49
280
     0
102
RTVSPost2010PropOp49
 70
     0
102
RTVSPost2010Prop50
 90
       50
102
RTVSPost2010PropOp50
 70
     0
102
RTVSPost2010Prop51ColorIndex
 90
      256
102
RTVSPost2010Prop51ColorRGB
 90
-16777216
102
RTVSPost2010PropOp51
 70
     0
102
RTVSPost2010Prop52
140
1.0
102
RTVSPost2010PropOp52
 70
     0
102
RTVSPost2010Prop53
 90
        2
102
RTVSPost2010PropOp53
 70
     0
102
RTVSPost2010Prop54
  1
strokes_ogs.tif
102
RTVSPost2010PropOp54
 70
     0
102
RTVSPost2010Prop55
280
     0
102
RTVSPost2010PropOp55
 70
     0
102
RTVSPost2010Prop56
140
1.0
102
RTVSPost2010PropOp56
 70
     0
102
RTVSPost2010Prop57
140
1.0
102
RTVSPost2010PropOp57
 70
     0
102
RTVSPropertyOp0
 70
     0
102
RTVSPropertyOp1
 70
     0
102
RTVSPropertyOp2
 70
     0
102
RTVSPropertyOp3
 70
     0
102
RTVSPropertyOp4
 70
     0
102
RTVSPropertyOp5
 70
     0
102
RTVSPropertyOp6
 70
     0
102
RTVSPropertyOp7
 70
     0
102
RTVSPropertyOp8
 70
     0
102
RTVSPropertyOp9
 70
     0
102
RTVSPropertyOp10
 70
     0
102
RTVSPropertyOp11
 70
     0
102
RTVSPropertyOp12
 70
     0
102
RTVSPropertyOp13
 70
     0
102
RTVSPropertyOp14
 70
     2
102
RTVSPropertyOp15
 70
     0
102
RTVSPropertyOp16
 70
     0
102
RTVSPropertyOp17
 70
     0
102
RTVSPropertyOp18
 70
     0
102
RTVSPropertyOp19
 70
     0
102
RTVSPropertyOp20
 70
     0
102
RTVSPropertyOp21
 70
     0
102
RTVSPropertyOp22
 70
     0
102
RTVSPropertyOp23
 70
     0
102
RTVSPropertyOp24
 70
     0
102
RTVSPropertyOp25
 70
     0
102
RTVSPropertyOp26
 70
     0
102
RTVSPropertyOp27
 70
     0
102
RTVSPropertyOp28
 70
     0
102
RTVSPropertyOp29
 70
     0
102
RTVSPropertyOp30
 70
     0
102
RTVSPropertyOp31
 70
     0
102
RTVSPropertyOp32
 70
     0
102
RTVSPropertyOp33
 70
     0
102
RTVSPropertyOp34
 70
     0
102
RTVSPropertyOp35
 70
     0
102
RTVSPropertyOp36
 70
     0
102
RTVSPropertyOp37
 70
     0
102
RTVSPropertyOp38
 70
     0
102
RTVSPropertyOp39
 70
     0
102
RTVSPropertyOp40
 70
     0
102
RTVSPropertyOp41
 70
     0
102
RTVSPropertyOp42
 70
     0
102
RTVSPropertyOp43
 70
     0
102
RTVSPropertyOp44
 70
     0
102
RTVSPropertyOp45
 70
     0
102
RTVSPropertyOp46
 70
     0
102
RTVSPropertyOp47
 70
     0
102
RTVSPropertyOp48
 70
     0
102
RTVSPropertyOp49
 70
     0
102
RTVSPropertyOp50
 70
     0
102
RTVSPropertyOp51
 70
     0
102
RTVSPropertyOp52
 70
     0
102
RTVSPropertyOp53
 70
     0
102
RTVSPropertyOp54
 70
     0
102
RTVSPropertyOp55
 70
     0
102
RTVSPropertyOp56
 70
     0
102
RTVSPropertyOp57
 70
     0
102
RTVSPropertyOp58
 70
     1
102
RTVSPropertyOp59
 70
     1
102
RTVSPropertyOp60
 70
     1
102
RTVSPropertyOp61
 70
     1
102
RTVSPropertyOp62
 70
     1
  0
XRECORD
  5
37E
102
{ACAD_REACTORS
330
37D
102
}
330
37D
100
AcDbXrecord
280
     1
102
RTVSPost2010Prop28
280
     0
102
RTVSPost2010PropOp28
 70
     1
102
RTVSPost2010Prop29
280
     1
102
RTVSPost2010PropOp29
 70
     1
102
RTVSPost2010Prop30
280
     1
102
RTVSPost2010PropOp30
 70
     1
102
RTVSPost2010Prop31
280
     0
102
RTVSPost2010PropOp31
 70
     1
102
RTVSPost2010Prop32
280
     0
102
RTVSPost2010PropOp32
 70
     1
102
RTVSPost2010Prop33
280
     0
102
RTVSPost2010PropOp33
 70
     1
102
RTVSPost2010Prop34
280
     0
102
RTVSPost2010PropOp34
 70
     1
102
RTVSPost2010Prop35
280
     0
102
RTVSPost2010PropOp35
 70
     1
102
RTVSPost2010Prop36
280
     0
102
RTVSPost2010PropOp36
 70
     1
102
RTVSPost2010Prop37
 90
       50
102
RTVSPost2010PropOp37
 70
     1
102
RTVSPost2010Prop38
140
0.0
102
RTVSPost2010PropOp38
 70
     1
102
RTVSPost2010Prop39
140
1.0
102
RTVSPost2010PropOp39
 70
     1
102
RTVSPost2010Prop40
 90
        0
102
RTVSPost2010PropOp40
 70
     1
102
RTVSPost2010Prop41ColorIndex
 90
       18
102
RTVSPost2010Prop41ColorRGB
 90
        0
102
RTVSPost2010PropOp41
 70
     1
102
RTVSPost2010Prop42
 90
       50
102
RTVSPost2010PropOp42
 70
     1
102
RTVSPost2010Prop43
 90
        3
102
RTVSPost2010PropOp43
 70
     1
102
RTVSPost2010Prop44ColorIndex
 90
        5
102
RTVSPost2010Prop44ColorRGB
 90
      255
102
RTVSPost2010PropOp44
 70
     1
102
RTVSPost2010Prop45
280
     0
102
RTVSPost2010PropOp45
 70
     1
102
RTVSPost2010Prop46
 90
       50
102
RTVSPost2010PropOp46
 70
     1
102
RTVSPost2010Prop47
 90
       50
102
RTVSPost2010PropOp47
 70
     1
102
RTVSPost2010Prop48
 90
       50
102
RTVSPost2010PropOp48
 70
     1
102
RTVSPost2010Prop49
280
     0
102
RTVSPost2010PropOp49
 70
     1
102
RTVSPost2010Prop50
 90
       50
102
RTVSPost2010PropOp50
 70
     1
102
RTVSPost2010Prop51ColorIndex
 90
      256
102
RTVSPost2010Prop51ColorRGB
 90
-16777216
102
RTVSPost2010PropOp51
 70
     0
102
RTVSPost2010Prop52
140
1.0
102
RTVSPost2010PropOp52
 70
     0
102
RTVSPost2010Prop53
 90
        2
102
RTVSPost2010PropOp53
 70
     1
102
RTVSPost2010Prop54
  1
strokes_ogs.tif
102
RTVSPost2010PropOp54
 70
     1
102
RTVSPost2010Prop55
280
     0
102
RTVSPost2010PropOp55
 70
     1
102
RTVSPost2010Prop56
140
1.0
102
RTVSPost2010PropOp56
 70
     1
102
RTVSPost2010Prop57
140
1.0
102
RTVSPost2010PropOp57
 70
     1
102
RTVSPropertyOp0
 70
     1
102
RTVSPropertyOp1
 70
     1
102
RTVSPropertyOp2
 70
     1
102
RTVSPropertyOp3
 70
     1
102
RTVSPropertyOp4
 70
     1
102
RTVSPropertyOp5
 70
     1
102
RTVSPropertyOp6
 70
     1
102
RTVSPropertyOp7
 70
     1
102
RTVSPropertyOp8
 70
     1
102
RTVSPropertyOp9
 70
     1
102
RTVSPropertyOp10
 70
     1
102
RTVSPropertyOp11
 70
     1
102
RTVSPropertyOp12
 70
     1
102
RTVSPropertyOp13
 70
     1
102
RTVSPropertyOp14
 70
     1
102
RTVSPropertyOp15
 70
     1
102
RTVSPropertyOp16
 70
     1
102
RTVSPropertyOp17
 70
     1
102
RTVSPropertyOp18
 70
     1
102
RTVSPropertyOp19
 70
     1
102
RTVSPropertyOp20
 70
     1
102
RTVSPropertyOp21
 70
     1
102
RTVSPropertyOp22
 70
     1
102
RTVSPropertyOp23
 70
     1
102
RTVSPropertyOp24
 70
     1
102
RTVSPropertyOp25
 70
     1
102
RTVSPropertyOp26
 70
     1
102
RTVSPropertyOp27
 70
     1
102
RTVSPropertyOp28
 70
     1
102
RTVSPropertyOp29
 70
     1
102
RTVSPropertyOp30
 70
     1
102
RTVSPropertyOp31
 70
     1
102
RTVSPropertyOp32
 70
     1
102
RTVSPropertyOp33
 70
     1
102
RTVSPropertyOp34
 70
     1
102
RTVSPropertyOp35
 70
     1
102
RTVSPropertyOp36
 70
     1
102
RTVSPropertyOp37
 70
     1
102
RTVSPropertyOp38
 70
     1
102
RTVSPropertyOp39
 70
     1
102
RTVSPropertyOp40
 70
     1
102
RTVSPropertyOp41
 70
     1
102
RTVSPropertyOp42
 70
     1
102
RTVSPropertyOp43
 70
     1
102
RTVSPropertyOp44
 70
     1
102
RTVSPropertyOp45
 70
     1
102
RTVSPropertyOp46
 70
     1
102
RTVSPropertyOp47
 70
     1
102
RTVSPropertyOp48
 70
     1
102
RTVSPropertyOp49
 70
     1
102
RTVSPropertyOp50
 70
     1
102
RTVSPropertyOp51
 70
     0
102
RTVSPropertyOp52
 70
     0
102
RTVSPropertyOp53
 70
     1
102
RTVSPropertyOp54
 70
     1
102
RTVSPropertyOp55
 70
     1
102
RTVSPropertyOp56
 70
     1
102
RTVSPropertyOp57
 70
     1
102
RTVSPropertyOp58
 70
     1
102
RTVSPropertyOp59
 70
     1
102
RTVSPropertyOp60
 70
     1
102
RTVSPropertyOp61
 70
     1
102
RTVSPropertyOp62
 70
     1
  0
XRECORD
  5
386
102
{ACAD_REACTORS
330
385
102
}
330
385
100
AcDbXrecord
280
     1
102
RTVSPost2010Prop28
280
     0
102
RTVSPost2010PropOp28
 70
     0
102
RTVSPost2010Prop29
280
     1
102
RTVSPost2010PropOp29
 70
     0
102
RTVSPost2010Prop30
280
     1
102
RTVSPost2010PropOp30
 70
     0
102
RTVSPost2010Prop31
280
     0
102
RTVSPost2010PropOp31
 70
     0
102
RTVSPost2010Prop32
280
     0
102
RTVSPost2010PropOp32
 70
     0
102
RTVSPost2010Prop33
280
     0
102
RTVSPost2010PropOp33
 70
     0
102
RTVSPost2010Prop34
280
     0
102
RTVSPost2010PropOp34
 70
     0
102
RTVSPost2010Prop35
280
     0
102
RTVSPost2010PropOp35
 70
     0
102
RTVSPost2010Prop36
280
     0
102
RTVSPost2010PropOp36
 70
     0
102
RTVSPost2010Prop37
 90
       50
102
RTVSPost2010PropOp37
 70
     0
102
RTVSPost2010Prop38
140
0.0
102
RTVSPost2010PropOp38
 70
     0
102
RTVSPost2010Prop39
140
1.0
102
RTVSPost2010PropOp39
 70
     0
102
RTVSPost2010Prop40
 90
        0
102
RTVSPost2010PropOp40
 70
     0
102
RTVSPost2010Prop41ColorIndex
 90
       18
102
RTVSPost2010Prop41ColorRGB
 90
        0
102
RTVSPost2010PropOp41
 70
     0
102
RTVSPost2010Prop42
 90
       50
102
RTVSPost2010PropOp42
 70
     0
102
RTVSPost2010Prop43
 90
        3
102
RTVSPost2010PropOp43
 70
     0
102
RTVSPost2010Prop44ColorIndex
 90
        5
102
RTVSPost2010Prop44ColorRGB
 90
      255
102
RTVSPost2010PropOp44
 70
     0
102
RTVSPost2010Prop45
280
     0
102
RTVSPost2010PropOp45
 70
     0
102
RTVSPost2010Prop46
 90
       50
102
RTVSPost2010PropOp46
 70
     0
102
RTVSPost2010Prop47
 90
       50
102
RTVSPost2010PropOp47
 70
     0
102
RTVSPost2010Prop48
 90
       50
102
RTVSPost2010PropOp48
 70
     0
102
RTVSPost2010Prop49
280
     0
102
RTVSPost2010PropOp49
 70
     0
102
RTVSPost2010Prop50
 90
       50
102
RTVSPost2010PropOp50
 70
     0
102
RTVSPost2010Prop51ColorIndex
 90
      256
102
RTVSPost2010Prop51ColorRGB
 90
-16777216
102
RTVSPost2010PropOp51
 70
     0
102
RTVSPost2010Prop52
140
1.0
102
RTVSPost2010PropOp52
 70
     0
102
RTVSPost2010Prop53
 90
        2
102
RTVSPost2010PropOp53
 70
     0
102
RTVSPost2010Prop54
  1
strokes_ogs.tif
102
RTVSPost2010PropOp54
 70
     0
102
RTVSPost2010Prop55
280
     0
102
RTVSPost2010PropOp55
 70
     0
102
RTVSPost2010Prop56
140
1.0
102
RTVSPost2010PropOp56
 70
     0
102
RTVSPost2010Prop57
140
1.0
102
RTVSPost2010PropOp57
 70
     0
102
RTVSPropertyOp0
 70
     0
102
RTVSPropertyOp1
 70
     0
102
RTVSPropertyOp2
 70
     0
102
RTVSPropertyOp3
 70
     0
102
RTVSPropertyOp4
 70
     0
102
RTVSPropertyOp5
 70
     0
102
RTVSPropertyOp6
 70
     0
102
RTVSPropertyOp7
 70
     0
102
RTVSPropertyOp8
 70
     0
102
RTVSPropertyOp9
 70
     0
102
RTVSPropertyOp10
 70
     0
102
RTVSPropertyOp11
 70
     0
102
RTVSPropertyOp12
 70
     0
102
RTVSPropertyOp13
 70
     0
102
RTVSPropertyOp14
 70
     2
102
RTVSPropertyOp15
 70
     0
102
RTVSPropertyOp16
 70
     0
102
RTVSPropertyOp17
 70
     0
102
RTVSPropertyOp18
 70
     0
102
RTVSPropertyOp19
 70
     0
102
RTVSPropertyOp20
 70
     0
102
RTVSPropertyOp21
 70
     0
102
RTVSPropertyOp22
 70
     0
102
RTVSPropertyOp23
 70
     0
102
RTVSPropertyOp24
 70
     0
102
RTVSPropertyOp25
 70
     0
102
RTVSPropertyOp26
 70
     0
102
RTVSPropertyOp27
 70
     0
102
RTVSPropertyOp28
 70
     0
102
RTVSPropertyOp29
 70
     0
102
RTVSPropertyOp30
 70
     0
102
RTVSPropertyOp31
 70
     0
102
RTVSPropertyOp32
 70
     0
102
RTVSPropertyOp33
 70
     0
102
RTVSPropertyOp34
 70
     0
102
RTVSPropertyOp35
 70
     0
102
RTVSPropertyOp36
 70
     0
102
RTVSPropertyOp37
 70
     0
102
RTVSPropertyOp38
 70
     0
102
RTVSPropertyOp39
 70
     0
102
RTVSPropertyOp40
 70
     0
102
RTVSPropertyOp41
 70
     0
102
RTVSPropertyOp42
 70
     0
102
RTVSPropertyOp43
 70
     0
102
RTVSPropertyOp44
 70
     0
102
RTVSPropertyOp45
 70
     0
102
RTVSPropertyOp46
 70
     0
102
RTVSPropertyOp47
 70
     0
102
RTVSPropertyOp48
 70
     0
102
RTVSPropertyOp49
 70
     0
102
RTVSPropertyOp50
 70
     0
102
RTVSPropertyOp51
 70
     0
102
RTVSPropertyOp52
 70
     0
102
RTVSPropertyOp53
 70
     0
102
RTVSPropertyOp54
 70
     0
102
RTVSPropertyOp55
 70
     0
102
RTVSPropertyOp56
 70
     0
102
RTVSPropertyOp57
 70
     0
102
RTVSPropertyOp58
 70
     1
102
RTVSPropertyOp59
 70
     1
102
RTVSPropertyOp60
 70
     1
102
RTVSPropertyOp61
 70
     1
102
RTVSPropertyOp62
 70
     1
  0
XRECORD
  5
374
102
{ACAD_REACTORS
330
373
102
}
330
373
100
AcDbXrecord
280
     1
102
RTVSPost2010Prop28
280
     0
102
RTVSPost2010PropOp28
 70
     1
102
RTVSPost2010Prop29
280
     1
102
RTVSPost2010PropOp29
 70
     1
102
RTVSPost2010Prop30
280
     1
102
RTVSPost2010PropOp30
 70
     1
102
RTVSPost2010Prop31
280
     0
102
RTVSPost2010PropOp31
 70
     1
102
RTVSPost2010Prop32
280
     0
102
RTVSPost2010PropOp32
 70
     1
102
RTVSPost2010Prop33
280
     0
102
RTVSPost2010PropOp33
 70
     1
102
RTVSPost2010Prop34
280
     0
102
RTVSPost2010PropOp34
 70
     1
102
RTVSPost2010Prop35
280
     0
102
RTVSPost2010PropOp35
 70
     1
102
RTVSPost2010Prop36
280
     0
102
RTVSPost2010PropOp36
 70
     1
102
RTVSPost2010Prop37
 90
       50
102
RTVSPost2010PropOp37
 70
     1
102
RTVSPost2010Prop38
140
0.0
102
RTVSPost2010PropOp38
 70
     1
102
RTVSPost2010Prop39
140
1.0
102
RTVSPost2010PropOp39
 70
     1
102
RTVSPost2010Prop40
 90
        0
102
RTVSPost2010PropOp40
 70
     1
102
RTVSPost2010Prop41ColorIndex
 90
       18
102
RTVSPost2010Prop41ColorRGB
 90
        0
102
RTVSPost2010PropOp41
 70
     1
102
RTVSPost2010Prop42
 90
       50
102
RTVSPost2010PropOp42
 70
     1
102
RTVSPost2010Prop43
 90
        3
102
RTVSPost2010PropOp43
 70
     1
102
RTVSPost2010Prop44ColorIndex
 90
        5
102
RTVSPost2010Prop44ColorRGB
 90
      255
102
RTVSPost2010PropOp44
 70
     1
102
RTVSPost2010Prop45
280
     0
102
RTVSPost2010PropOp45
 70
     1
102
RTVSPost2010Prop46
 90
       50
102
RTVSPost2010PropOp46
 70
     1
102
RTVSPost2010Prop47
 90
       50
102
RTVSPost2010PropOp47
 70
     1
102
RTVSPost2010Prop48
 90
       50
102
RTVSPost2010PropOp48
 70
     1
102
RTVSPost2010Prop49
280
     0
102
RTVSPost2010PropOp49
 70
     1
102
RTVSPost2010Prop50
 90
       50
102
RTVSPost2010PropOp50
 70
     1
102
RTVSPost2010Prop51ColorIndex
 90
      256
102
RTVSPost2010Prop51ColorRGB
 90
-16777216
102
RTVSPost2010PropOp51
 70
     0
102
RTVSPost2010Prop52
140
1.0
102
RTVSPost2010PropOp52
 70
     0
102
RTVSPost2010Prop53
 90
        2
102
RTVSPost2010PropOp53
 70
     1
102
RTVSPost2010Prop54
  1
strokes_ogs.tif
102
RTVSPost2010PropOp54
 70
     1
102
RTVSPost2010Prop55
280
     0
102
RTVSPost2010PropOp55
 70
     1
102
RTVSPost2010Prop56
140
1.0
102
RTVSPost2010PropOp56
 70
     1
102
RTVSPost2010Prop57
140
1.0
102
RTVSPost2010PropOp57
 70
     1
102
RTVSPropertyOp0
 70
     1
102
RTVSPropertyOp1
 70
     1
102
RTVSPropertyOp2
 70
     1
102
RTVSPropertyOp3
 70
     1
102
RTVSPropertyOp4
 70
     1
102
RTVSPropertyOp5
 70
     1
102
RTVSPropertyOp6
 70
     1
102
RTVSPropertyOp7
 70
     1
102
RTVSPropertyOp8
 70
     1
102
RTVSPropertyOp9
 70
     1
102
RTVSPropertyOp10
 70
     1
102
RTVSPropertyOp11
 70
     1
102
RTVSPropertyOp12
 70
     1
102
RTVSPropertyOp13
 70
     1
102
RTVSPropertyOp14
 70
     1
102
RTVSPropertyOp15
 70
     1
102
RTVSPropertyOp16
 70
     1
102
RTVSPropertyOp17
 70
     1
102
RTVSPropertyOp18
 70
     1
102
RTVSPropertyOp19
 70
     1
102
RTVSPropertyOp20
 70
     1
102
RTVSPropertyOp21
 70
     1
102
RTVSPropertyOp22
 70
     1
102
RTVSPropertyOp23
 70
     1
102
RTVSPropertyOp24
 70
     1
102
RTVSPropertyOp25
 70
     1
102
RTVSPropertyOp26
 70
     1
102
RTVSPropertyOp27
 70
     1
102
RTVSPropertyOp28
 70
     1
102
RTVSPropertyOp29
 70
     1
102
RTVSPropertyOp30
 70
     1
102
RTVSPropertyOp31
 70
     1
102
RTVSPropertyOp32
 70
     1
102
RTVSPropertyOp33
 70
     1
102
RTVSPropertyOp34
 70
     1
102
RTVSPropertyOp35
 70
     1
102
RTVSPropertyOp36
 70
     1
102
RTVSPropertyOp37
 70
     1
102
RTVSPropertyOp38
 70
     1
102
RTVSPropertyOp39
 70
     1
102
RTVSPropertyOp40
 70
     1
102
RTVSPropertyOp41
 70
     1
102
RTVSPropertyOp42
 70
     1
102
RTVSPropertyOp43
 70
     1
102
RTVSPropertyOp44
 70
     1
102
RTVSPropertyOp45
 70
     1
102
RTVSPropertyOp46
 70
     1
102
RTVSPropertyOp47
 70
     1
102
RTVSPropertyOp48
 70
     1
102
RTVSPropertyOp49
 70
     1
102
RTVSPropertyOp50
 70
     1
102
RTVSPropertyOp51
 70
     0
102
RTVSPropertyOp52
 70
     0
102
RTVSPropertyOp53
 70
     1
102
RTVSPropertyOp54
 70
     1
102
RTVSPropertyOp55
 70
     1
102
RTVSPropertyOp56
 70
     1
102
RTVSPropertyOp57
 70
     1
102
RTVSPropertyOp58
 70
     1
102
RTVSPropertyOp59
 70
     1
102
RTVSPropertyOp60
 70
     1
102
RTVSPropertyOp61
 70
     1
102
RTVSPropertyOp62
 70
     1
  0
XRECORD
  5
392
102
{ACAD_REACTORS
330
391
102
}
330
391
100
AcDbXrecord
280
     1
102
RTVSPost2010Prop28
280
     0
102
RTVSPost2010PropOp28
 70
     1
102
RTVSPost2010Prop29
280
     1
102
RTVSPost2010PropOp29
 70
     1
102
RTVSPost2010Prop30
280
     1
102
RTVSPost2010PropOp30
 70
     1
102
RTVSPost2010Prop31
280
     0
102
RTVSPost2010PropOp31
 70
     1
102
RTVSPost2010Prop32
280
     0
102
RTVSPost2010PropOp32
 70
     1
102
RTVSPost2010Prop33
280
     0
102
RTVSPost2010PropOp33
 70
     1
102
RTVSPost2010Prop34
280
     0
102
RTVSPost2010PropOp34
 70
     1
102
RTVSPost2010Prop35
280
     0
102
RTVSPost2010PropOp35
 70
     1
102
RTVSPost2010Prop36
280
     0
102
RTVSPost2010PropOp36
 70
     1
102
RTVSPost2010Prop37
 90
       50
102
RTVSPost2010PropOp37
 70
     1
102
RTVSPost2010Prop38
140
0.0
102
RTVSPost2010PropOp38
 70
     1
102
RTVSPost2010Prop39
140
1.0
102
RTVSPost2010PropOp39
 70
     1
102
RTVSPost2010Prop40
 90
        0
102
RTVSPost2010PropOp40
 70
     1
102
RTVSPost2010Prop41ColorIndex
 90
       18
102
RTVSPost2010Prop41ColorRGB
 90
        0
102
RTVSPost2010PropOp41
 70
     1
102
RTVSPost2010Prop42
 90
       50
102
RTVSPost2010PropOp42
 70
     1
102
RTVSPost2010Prop43
 90
        3
102
RTVSPost2010PropOp43
 70
     1
102
RTVSPost2010Prop44ColorIndex
 90
        5
102
RTVSPost2010Prop44ColorRGB
 90
      255
102
RTVSPost2010PropOp44
 70
     1
102
RTVSPost2010Prop45
280
     0
102
RTVSPost2010PropOp45
 70
     1
102
RTVSPost2010Prop46
 90
       50
102
RTVSPost2010PropOp46
 70
     1
102
RTVSPost2010Prop47
 90
       50
102
RTVSPost2010PropOp47
 70
     1
102
RTVSPost2010Prop48
 90
       50
102
RTVSPost2010PropOp48
 70
     1
102
RTVSPost2010Prop49
280
     0
102
RTVSPost2010PropOp49
 70
     1
102
RTVSPost2010Prop50
 90
       50
102
RTVSPost2010PropOp50
 70
     1
102
RTVSPost2010Prop51ColorIndex
 90
      256
102
RTVSPost2010Prop51ColorRGB
 90
-16777216
102
RTVSPost2010PropOp51
 70
     0
102
RTVSPost2010Prop52
140
1.0
102
RTVSPost2010PropOp52
 70
     0
102
RTVSPost2010Prop53
 90
        2
102
RTVSPost2010PropOp53
 70
     1
102
RTVSPost2010Prop54
  1
strokes_ogs.tif
102
RTVSPost2010PropOp54
 70
     1
102
RTVSPost2010Prop55
280
     0
102
RTVSPost2010PropOp55
 70
     1
102
RTVSPost2010Prop56
140
1.0
102
RTVSPost2010PropOp56
 70
     1
102
RTVSPost2010Prop57
140
1.0
102
RTVSPost2010PropOp57
 70
     1
102
RTVSPropertyOp0
 70
     1
102
RTVSPropertyOp1
 70
     1
102
RTVSPropertyOp2
 70
     1
102
RTVSPropertyOp3
 70
     1
102
RTVSPropertyOp4
 70
     1
102
RTVSPropertyOp5
 70
     1
102
RTVSPropertyOp6
 70
     1
102
RTVSPropertyOp7
 70
     1
102
RTVSPropertyOp8
 70
     1
102
RTVSPropertyOp9
 70
     1
102
RTVSPropertyOp10
 70
     1
102
RTVSPropertyOp11
 70
     1
102
RTVSPropertyOp12
 70
     1
102
RTVSPropertyOp13
 70
     1
102
RTVSPropertyOp14
 70
     1
102
RTVSPropertyOp15
 70
     1
102
RTVSPropertyOp16
 70
     1
102
RTVSPropertyOp17
 70
     1
102
RTVSPropertyOp18
 70
     1
102
RTVSPropertyOp19
 70
     1
102
RTVSPropertyOp20
 70
     1
102
RTVSPropertyOp21
 70
     1
102
RTVSPropertyOp22
 70
     1
102
RTVSPropertyOp23
 70
     1
102
RTVSPropertyOp24
 70
     1
102
RTVSPropertyOp25
 70
     1
102
RTVSPropertyOp26
 70
     1
102
RTVSPropertyOp27
 70
     1
102
RTVSPropertyOp28
 70
     1
102
RTVSPropertyOp29
 70
     1
102
RTVSPropertyOp30
 70
     1
102
RTVSPropertyOp31
 70
     1
102
RTVSPropertyOp32
 70
     1
102
RTVSPropertyOp33
 70
     1
102
RTVSPropertyOp34
 70
     1
102
RTVSPropertyOp35
 70
     1
102
RTVSPropertyOp36
 70
     1
102
RTVSPropertyOp37
 70
     1
102
RTVSPropertyOp38
 70
     1
102
RTVSPropertyOp39
 70
     1
102
RTVSPropertyOp40
 70
     1
102
RTVSPropertyOp41
 70
     1
102
RTVSPropertyOp42
 70
     1
102
RTVSPropertyOp43
 70
     1
102
RTVSPropertyOp44
 70
     1
102
RTVSPropertyOp45
 70
     1
102
RTVSPropertyOp46
 70
     1
102
RTVSPropertyOp47
 70
     1
102
RTVSPropertyOp48
 70
     1
102
RTVSPropertyOp49
 70
     1
102
RTVSPropertyOp50
 70
     1
102
RTVSPropertyOp51
 70
     0
102
RTVSPropertyOp52
 70
     0
102
RTVSPropertyOp53
 70
     1
102
RTVSPropertyOp54
 70
     1
102
RTVSPropertyOp55
 70
     1
102
RTVSPropertyOp56
 70
     1
102
RTVSPropertyOp57
 70
     1
102
RTVSPropertyOp58
 70
     1
102
RTVSPropertyOp59
 70
     1
102
RTVSPropertyOp60
 70
     1
102
RTVSPropertyOp61
 70
     1
102
RTVSPropertyOp62
 70
     1
  0
XRECORD
  5
390
102
{ACAD_REACTORS
330
38F
102
}
330
38F
100
AcDbXrecord
280
     1
102
RTVSPost2010Prop28
280
     0
102
RTVSPost2010PropOp28
 70
     1
102
RTVSPost2010Prop29
280
     1
102
RTVSPost2010PropOp29
 70
     1
102
RTVSPost2010Prop30
280
     1
102
RTVSPost2010PropOp30
 70
     1
102
RTVSPost2010Prop31
280
     0
102
RTVSPost2010PropOp31
 70
     1
102
RTVSPost2010Prop32
280
     0
102
RTVSPost2010PropOp32
 70
     1
102
RTVSPost2010Prop33
280
     0
102
RTVSPost2010PropOp33
 70
     1
102
RTVSPost2010Prop34
280
     0
102
RTVSPost2010PropOp34
 70
     1
102
RTVSPost2010Prop35
280
     0
102
RTVSPost2010PropOp35
 70
     1
102
RTVSPost2010Prop36
280
     0
102
RTVSPost2010PropOp36
 70
     1
102
RTVSPost2010Prop37
 90
       50
102
RTVSPost2010PropOp37
 70
     1
102
RTVSPost2010Prop38
140
0.0
102
RTVSPost2010PropOp38
 70
     1
102
RTVSPost2010Prop39
140
1.0
102
RTVSPost2010PropOp39
 70
     1
102
RTVSPost2010Prop40
 90
        0
102
RTVSPost2010PropOp40
 70
     1
102
RTVSPost2010Prop41ColorIndex
 90
       18
102
RTVSPost2010Prop41ColorRGB
 90
        0
102
RTVSPost2010PropOp41
 70
     1
102
RTVSPost2010Prop42
 90
       50
102
RTVSPost2010PropOp42
 70
     1
102
RTVSPost2010Prop43
 90
        3
102
RTVSPost2010PropOp43
 70
     1
102
RTVSPost2010Prop44ColorIndex
 90
        5
102
RTVSPost2010Prop44ColorRGB
 90
      255
102
RTVSPost2010PropOp44
 70
     1
102
RTVSPost2010Prop45
280
     0
102
RTVSPost2010PropOp45
 70
     1
102
RTVSPost2010Prop46
 90
       50
102
RTVSPost2010PropOp46
 70
     1
102
RTVSPost2010Prop47
 90
       50
102
RTVSPost2010PropOp47
 70
     1
102
RTVSPost2010Prop48
 90
       50
102
RTVSPost2010PropOp48
 70
     1
102
RTVSPost2010Prop49
280
     0
102
RTVSPost2010PropOp49
 70
     1
102
RTVSPost2010Prop50
 90
       50
102
RTVSPost2010PropOp50
 70
     1
102
RTVSPost2010Prop51ColorIndex
 90
      256
102
RTVSPost2010Prop51ColorRGB
 90
-16777216
102
RTVSPost2010PropOp51
 70
     0
102
RTVSPost2010Prop52
140
1.0
102
RTVSPost2010PropOp52
 70
     0
102
RTVSPost2010Prop53
 90
        2
102
RTVSPost2010PropOp53
 70
     1
102
RTVSPost2010Prop54
  1
strokes_ogs.tif
102
RTVSPost2010PropOp54
 70
     1
102
RTVSPost2010Prop55
280
     0
102
RTVSPost2010PropOp55
 70
     1
102
RTVSPost2010Prop56
140
1.0
102
RTVSPost2010PropOp56
 70
     1
102
RTVSPost2010Prop57
140
1.0
102
RTVSPost2010PropOp57
 70
     1
102
RTVSPropertyOp0
 70
     1
102
RTVSPropertyOp1
 70
     1
102
RTVSPropertyOp2
 70
     1
102
RTVSPropertyOp3
 70
     1
102
RTVSPropertyOp4
 70
     1
102
RTVSPropertyOp5
 70
     1
102
RTVSPropertyOp6
 70
     1
102
RTVSPropertyOp7
 70
     1
102
RTVSPropertyOp8
 70
     1
102
RTVSPropertyOp9
 70
     1
102
RTVSPropertyOp10
 70
     1
102
RTVSPropertyOp11
 70
     1
102
RTVSPropertyOp12
 70
     1
102
RTVSPropertyOp13
 70
     1
102
RTVSPropertyOp14
 70
     1
102
RTVSPropertyOp15
 70
     1
102
RTVSPropertyOp16
 70
     1
102
RTVSPropertyOp17
 70
     1
102
RTVSPropertyOp18
 70
     1
102
RTVSPropertyOp19
 70
     1
102
RTVSPropertyOp20
 70
     1
102
RTVSPropertyOp21
 70
     1
102
RTVSPropertyOp22
 70
     1
102
RTVSPropertyOp23
 70
     1
102
RTVSPropertyOp24
 70
     1
102
RTVSPropertyOp25
 70
     1
102
RTVSPropertyOp26
 70
     1
102
RTVSPropertyOp27
 70
     1
102
RTVSPropertyOp28
 70
     1
102
RTVSPropertyOp29
 70
     1
102
RTVSPropertyOp30
 70
     1
102
RTVSPropertyOp31
 70
     1
102
RTVSPropertyOp32
 70
     1
102
RTVSPropertyOp33
 70
     1
102
RTVSPropertyOp34
 70
     1
102
RTVSPropertyOp35
 70
     1
102
RTVSPropertyOp36
 70
     1
102
RTVSPropertyOp37
 70
     1
102
RTVSPropertyOp38
 70
     1
102
RTVSPropertyOp39
 70
     1
102
RTVSPropertyOp40
 70
     1
102
RTVSPropertyOp41
 70
     1
102
RTVSPropertyOp42
 70
     1
102
RTVSPropertyOp43
 70
     1
102
RTVSPropertyOp44
 70
     1
102
RTVSPropertyOp45
 70
     1
102
RTVSPropertyOp46
 70
     1
102
RTVSPropertyOp47
 70
     1
102
RTVSPropertyOp48
 70
     1
102
RTVSPropertyOp49
 70
     1
102
RTVSPropertyOp50
 70
     1
102
RTVSPropertyOp51
 70
     0
102
RTVSPropertyOp52
 70
     0
102
RTVSPropertyOp53
 70
     1
102
RTVSPropertyOp54
 70
     1
102
RTVSPropertyOp55
 70
     1
102
RTVSPropertyOp56
 70
     1
102
RTVSPropertyOp57
 70
     1
102
RTVSPropertyOp58
 70
     1
102
RTVSPropertyOp59
 70
     1
102
RTVSPropertyOp60
 70
     1
102
RTVSPropertyOp61
 70
     1
102
RTVSPropertyOp62
 70
     1
  0
XRECORD
  5
38A
102
{ACAD_REACTORS
330
389
102
}
330
389
100
AcDbXrecord
280
     1
102
RTVSPost2010Prop28
280
     0
102
RTVSPost2010PropOp28
 70
     1
102
RTVSPost2010Prop29
280
     1
102
RTVSPost2010PropOp29
 70
     1
102
RTVSPost2010Prop30
280
     1
102
RTVSPost2010PropOp30
 70
     1
102
RTVSPost2010Prop31
280
     0
102
RTVSPost2010PropOp31
 70
     1
102
RTVSPost2010Prop32
280
     0
102
RTVSPost2010PropOp32
 70
     1
102
RTVSPost2010Prop33
280
     0
102
RTVSPost2010PropOp33
 70
     1
102
RTVSPost2010Prop34
280
     0
102
RTVSPost2010PropOp34
 70
     1
102
RTVSPost2010Prop35
280
     0
102
RTVSPost2010PropOp35
 70
     1
102
RTVSPost2010Prop36
280
     0
102
RTVSPost2010PropOp36
 70
     1
102
RTVSPost2010Prop37
 90
       50
102
RTVSPost2010PropOp37
 70
     1
102
RTVSPost2010Prop38
140
0.0
102
RTVSPost2010PropOp38
 70
     1
102
RTVSPost2010Prop39
140
1.0
102
RTVSPost2010PropOp39
 70
     1
102
RTVSPost2010Prop40
 90
        0
102
RTVSPost2010PropOp40
 70
     1
102
RTVSPost2010Prop41ColorIndex
 90
       18
102
RTVSPost2010Prop41ColorRGB
 90
        0
102
RTVSPost2010PropOp41
 70
     1
102
RTVSPost2010Prop42
 90
       50
102
RTVSPost2010PropOp42
 70
     1
102
RTVSPost2010Prop43
 90
        3
102
RTVSPost2010PropOp43
 70
     1
102
RTVSPost2010Prop44ColorIndex
 90
        5
102
RTVSPost2010Prop44ColorRGB
 90
      255
102
RTVSPost2010PropOp44
 70
     1
102
RTVSPost2010Prop45
280
     0
102
RTVSPost2010PropOp45
 70
     1
102
RTVSPost2010Prop46
 90
       50
102
RTVSPost2010PropOp46
 70
     1
102
RTVSPost2010Prop47
 90
       50
102
RTVSPost2010PropOp47
 70
     1
102
RTVSPost2010Prop48
 90
       50
102
RTVSPost2010PropOp48
 70
     1
102
RTVSPost2010Prop49
280
     0
102
RTVSPost2010PropOp49
 70
     1
102
RTVSPost2010Prop50
 90
       50
102
RTVSPost2010PropOp50
 70
     1
102
RTVSPost2010Prop51ColorIndex
 90
      256
102
RTVSPost2010Prop51ColorRGB
 90
-16777216
102
RTVSPost2010PropOp51
 70
     0
102
RTVSPost2010Prop52
140
1.0
102
RTVSPost2010PropOp52
 70
     0
102
RTVSPost2010Prop53
 90
        2
102
RTVSPost2010PropOp53
 70
     1
102
RTVSPost2010Prop54
  1
strokes_ogs.tif
102
RTVSPost2010PropOp54
 70
     1
102
RTVSPost2010Prop55
280
     0
102
RTVSPost2010PropOp55
 70
     1
102
RTVSPost2010Prop56
140
1.0
102
RTVSPost2010PropOp56
 70
     1
102
RTVSPost2010Prop57
140
1.0
102
RTVSPost2010PropOp57
 70
     1
102
RTVSPropertyOp0
 70
     1
102
RTVSPropertyOp1
 70
     1
102
RTVSPropertyOp2
 70
     1
102
RTVSPropertyOp3
 70
     1
102
RTVSPropertyOp4
 70
     1
102
RTVSPropertyOp5
 70
     1
102
RTVSPropertyOp6
 70
     1
102
RTVSPropertyOp7
 70
     1
102
RTVSPropertyOp8
 70
     1
102
RTVSPropertyOp9
 70
     1
102
RTVSPropertyOp10
 70
     1
102
RTVSPropertyOp11
 70
     1
102
RTVSPropertyOp12
 70
     1
102
RTVSPropertyOp13
 70
     1
102
RTVSPropertyOp14
 70
     1
102
RTVSPropertyOp15
 70
     1
102
RTVSPropertyOp16
 70
     1
102
RTVSPropertyOp17
 70
     1
102
RTVSPropertyOp18
 70
     1
102
RTVSPropertyOp19
 70
     1
102
RTVSPropertyOp20
 70
     1
102
RTVSPropertyOp21
 70
     1
102
RTVSPropertyOp22
 70
     1
102
RTVSPropertyOp23
 70
     1
102
RTVSPropertyOp24
 70
     1
102
RTVSPropertyOp25
 70
     1
102
RTVSPropertyOp26
 70
     1
102
RTVSPropertyOp27
 70
     1
102
RTVSPropertyOp28
 70
     1
102
RTVSPropertyOp29
 70
     1
102
RTVSPropertyOp30
 70
     1
102
RTVSPropertyOp31
 70
     1
102
RTVSPropertyOp32
 70
     1
102
RTVSPropertyOp33
 70
     1
102
RTVSPropertyOp34
 70
     1
102
RTVSPropertyOp35
 70
     1
102
RTVSPropertyOp36
 70
     1
102
RTVSPropertyOp37
 70
     1
102
RTVSPropertyOp38
 70
     1
102
RTVSPropertyOp39
 70
     1
102
RTVSPropertyOp40
 70
     1
102
RTVSPropertyOp41
 70
     1
102
RTVSPropertyOp42
 70
     1
102
RTVSPropertyOp43
 70
     1
102
RTVSPropertyOp44
 70
     1
102
RTVSPropertyOp45
 70
     1
102
RTVSPropertyOp46
 70
     1
102
RTVSPropertyOp47
 70
     1
102
RTVSPropertyOp48
 70
     1
102
RTVSPropertyOp49
 70
     1
102
RTVSPropertyOp50
 70
     1
102
RTVSPropertyOp51
 70
     0
102
RTVSPropertyOp52
 70
     0
102
RTVSPropertyOp53
 70
     1
102
RTVSPropertyOp54
 70
     1
102
RTVSPropertyOp55
 70
     1
102
RTVSPropertyOp56
 70
     1
102
RTVSPropertyOp57
 70
     1
102
RTVSPropertyOp58
 70
     1
102
RTVSPropertyOp59
 70
     1
102
RTVSPropertyOp60
 70
     1
102
RTVSPropertyOp61
 70
     1
102
RTVSPropertyOp62
 70
     1
  0
XRECORD
  5
38C
102
{ACAD_REACTORS
330
38B
102
}
330
38B
100
AcDbXrecord
280
     1
102
RTVSPost2010Prop28
280
     0
102
RTVSPost2010PropOp28
 70
     1
102
RTVSPost2010Prop29
280
     1
102
RTVSPost2010PropOp29
 70
     1
102
RTVSPost2010Prop30
280
     1
102
RTVSPost2010PropOp30
 70
     1
102
RTVSPost2010Prop31
280
     0
102
RTVSPost2010PropOp31
 70
     1
102
RTVSPost2010Prop32
280
     0
102
RTVSPost2010PropOp32
 70
     1
102
RTVSPost2010Prop33
280
     0
102
RTVSPost2010PropOp33
 70
     1
102
RTVSPost2010Prop34
280
     0
102
RTVSPost2010PropOp34
 70
     1
102
RTVSPost2010Prop35
280
     0
102
RTVSPost2010PropOp35
 70
     1
102
RTVSPost2010Prop36
280
     0
102
RTVSPost2010PropOp36
 70
     1
102
RTVSPost2010Prop37
 90
       50
102
RTVSPost2010PropOp37
 70
     1
102
RTVSPost2010Prop38
140
0.0
102
RTVSPost2010PropOp38
 70
     1
102
RTVSPost2010Prop39
140
1.0
102
RTVSPost2010PropOp39
 70
     1
102
RTVSPost2010Prop40
 90
        0
102
RTVSPost2010PropOp40
 70
     1
102
RTVSPost2010Prop41ColorIndex
 90
       18
102
RTVSPost2010Prop41ColorRGB
 90
        0
102
RTVSPost2010PropOp41
 70
     1
102
RTVSPost2010Prop42
 90
       50
102
RTVSPost2010PropOp42
 70
     1
102
RTVSPost2010Prop43
 90
        3
102
RTVSPost2010PropOp43
 70
     1
102
RTVSPost2010Prop44ColorIndex
 90
        5
102
RTVSPost2010Prop44ColorRGB
 90
      255
102
RTVSPost2010PropOp44
 70
     1
102
RTVSPost2010Prop45
280
     0
102
RTVSPost2010PropOp45
 70
     1
102
RTVSPost2010Prop46
 90
       50
102
RTVSPost2010PropOp46
 70
     1
102
RTVSPost2010Prop47
 90
       50
102
RTVSPost2010PropOp47
 70
     1
102
RTVSPost2010Prop48
 90
       50
102
RTVSPost2010PropOp48
 70
     1
102
RTVSPost2010Prop49
280
     0
102
RTVSPost2010PropOp49
 70
     1
102
RTVSPost2010Prop50
 90
       50
102
RTVSPost2010PropOp50
 70
     1
102
RTVSPost2010Prop51ColorIndex
 90
      256
102
RTVSPost2010Prop51ColorRGB
 90
-16777216
102
RTVSPost2010PropOp51
 70
     0
102
RTVSPost2010Prop52
140
1.0
102
RTVSPost2010PropOp52
 70
     0
102
RTVSPost2010Prop53
 90
        2
102
RTVSPost2010PropOp53
 70
     1
102
RTVSPost2010Prop54
  1
strokes_ogs.tif
102
RTVSPost2010PropOp54
 70
     1
102
RTVSPost2010Prop55
280
     0
102
RTVSPost2010PropOp55
 70
     1
102
RTVSPost2010Prop56
140
1.0
102
RTVSPost2010PropOp56
 70
     1
102
RTVSPost2010Prop57
140
1.0
102
RTVSPost2010PropOp57
 70
     1
102
RTVSPropertyOp0
 70
     1
102
RTVSPropertyOp1
 70
     1
102
RTVSPropertyOp2
 70
     1
102
RTVSPropertyOp3
 70
     1
102
RTVSPropertyOp4
 70
     1
102
RTVSPropertyOp5
 70
     1
102
RTVSPropertyOp6
 70
     1
102
RTVSPropertyOp7
 70
     1
102
RTVSPropertyOp8
 70
     1
102
RTVSPropertyOp9
 70
     1
102
RTVSPropertyOp10
 70
     1
102
RTVSPropertyOp11
 70
     1
102
RTVSPropertyOp12
 70
     1
102
RTVSPropertyOp13
 70
     1
102
RTVSPropertyOp14
 70
     1
102
RTVSPropertyOp15
 70
     1
102
RTVSPropertyOp16
 70
     1
102
RTVSPropertyOp17
 70
     1
102
RTVSPropertyOp18
 70
     1
102
RTVSPropertyOp19
 70
     1
102
RTVSPropertyOp20
 70
     1
102
RTVSPropertyOp21
 70
     1
102
RTVSPropertyOp22
 70
     1
102
RTVSPropertyOp23
 70
     1
102
RTVSPropertyOp24
 70
     1
102
RTVSPropertyOp25
 70
     1
102
RTVSPropertyOp26
 70
     1
102
RTVSPropertyOp27
 70
     1
102
RTVSPropertyOp28
 70
     1
102
RTVSPropertyOp29
 70
     1
102
RTVSPropertyOp30
 70
     1
102
RTVSPropertyOp31
 70
     1
102
RTVSPropertyOp32
 70
     1
102
RTVSPropertyOp33
 70
     1
102
RTVSPropertyOp34
 70
     1
102
RTVSPropertyOp35
 70
     1
102
RTVSPropertyOp36
 70
     1
102
RTVSPropertyOp37
 70
     1
102
RTVSPropertyOp38
 70
     1
102
RTVSPropertyOp39
 70
     1
102
RTVSPropertyOp40
 70
     1
102
RTVSPropertyOp41
 70
     1
102
RTVSPropertyOp42
 70
     1
102
RTVSPropertyOp43
 70
     1
102
RTVSPropertyOp44
 70
     1
102
RTVSPropertyOp45
 70
     1
102
RTVSPropertyOp46
 70
     1
102
RTVSPropertyOp47
 70
     1
102
RTVSPropertyOp48
 70
     1
102
RTVSPropertyOp49
 70
     1
102
RTVSPropertyOp50
 70
     1
102
RTVSPropertyOp51
 70
     0
102
RTVSPropertyOp52
 70
     0
102
RTVSPropertyOp53
 70
     1
102
RTVSPropertyOp54
 70
     1
102
RTVSPropertyOp55
 70
     1
102
RTVSPropertyOp56
 70
     1
102
RTVSPropertyOp57
 70
     1
102
RTVSPropertyOp58
 70
     1
102
RTVSPropertyOp59
 70
     1
102
RTVSPropertyOp60
 70
     1
102
RTVSPropertyOp61
 70
     1
102
RTVSPropertyOp62
 70
     1
  0
XRECORD
  5
37C
102
{ACAD_REACTORS
330
37B
102
}
330
37B
100
AcDbXrecord
280
     1
102
RTVSPost2010Prop28
280
     0
102
RTVSPost2010PropOp28
 70
     1
102
RTVSPost2010Prop29
280
     1
102
RTVSPost2010PropOp29
 70
     1
102
RTVSPost2010Prop30
280
     1
102
RTVSPost2010PropOp30
 70
     1
102
RTVSPost2010Prop31
280
     0
102
RTVSPost2010PropOp31
 70
     1
102
RTVSPost2010Prop32
280
     0
102
RTVSPost2010PropOp32
 70
     1
102
RTVSPost2010Prop33
280
     0
102
RTVSPost2010PropOp33
 70
     1
102
RTVSPost2010Prop34
280
     0
102
RTVSPost2010PropOp34
 70
     1
102
RTVSPost2010Prop35
280
     0
102
RTVSPost2010PropOp35
 70
     1
102
RTVSPost2010Prop36
280
     0
102
RTVSPost2010PropOp36
 70
     1
102
RTVSPost2010Prop37
 90
       50
102
RTVSPost2010PropOp37
 70
     1
102
RTVSPost2010Prop38
140
0.0
102
RTVSPost2010PropOp38
 70
     1
102
RTVSPost2010Prop39
140
1.0
102
RTVSPost2010PropOp39
 70
     1
102
RTVSPost2010Prop40
 90
        0
102
RTVSPost2010PropOp40
 70
     1
102
RTVSPost2010Prop41ColorIndex
 90
       18
102
RTVSPost2010Prop41ColorRGB
 90
        0
102
RTVSPost2010PropOp41
 70
     1
102
RTVSPost2010Prop42
 90
       50
102
RTVSPost2010PropOp42
 70
     1
102
RTVSPost2010Prop43
 90
        3
102
RTVSPost2010PropOp43
 70
     1
102
RTVSPost2010Prop44ColorIndex
 90
        5
102
RTVSPost2010Prop44ColorRGB
 90
      255
102
RTVSPost2010PropOp44
 70
     1
102
RTVSPost2010Prop45
280
     0
102
RTVSPost2010PropOp45
 70
     1
102
RTVSPost2010Prop46
 90
       50
102
RTVSPost2010PropOp46
 70
     1
102
RTVSPost2010Prop47
 90
       50
102
RTVSPost2010PropOp47
 70
     1
102
RTVSPost2010Prop48
 90
       50
102
RTVSPost2010PropOp48
 70
     1
102
RTVSPost2010Prop49
280
     0
102
RTVSPost2010PropOp49
 70
     1
102
RTVSPost2010Prop50
 90
       50
102
RTVSPost2010PropOp50
 70
     1
102
RTVSPost2010Prop51ColorIndex
 90
      256
102
RTVSPost2010Prop51ColorRGB
 90
-16777216
102
RTVSPost2010PropOp51
 70
     0
102
RTVSPost2010Prop52
140
1.0
102
RTVSPost2010PropOp52
 70
     0
102
RTVSPost2010Prop53
 90
        2
102
RTVSPost2010PropOp53
 70
     1
102
RTVSPost2010Prop54
  1
strokes_ogs.tif
102
RTVSPost2010PropOp54
 70
     1
102
RTVSPost2010Prop55
280
     0
102
RTVSPost2010PropOp55
 70
     1
102
RTVSPost2010Prop56
140
1.0
102
RTVSPost2010PropOp56
 70
     1
102
RTVSPost2010Prop57
140
1.0
102
RTVSPost2010PropOp57
 70
     1
102
RTVSPropertyOp0
 70
     1
102
RTVSPropertyOp1
 70
     1
102
RTVSPropertyOp2
 70
     1
102
RTVSPropertyOp3
 70
     1
102
RTVSPropertyOp4
 70
     1
102
RTVSPropertyOp5
 70
     1
102
RTVSPropertyOp6
 70
     1
102
RTVSPropertyOp7
 70
     1
102
RTVSPropertyOp8
 70
     1
102
RTVSPropertyOp9
 70
     1
102
RTVSPropertyOp10
 70
     1
102
RTVSPropertyOp11
 70
     1
102
RTVSPropertyOp12
 70
     1
102
RTVSPropertyOp13
 70
     1
102
RTVSPropertyOp14
 70
     1
102
RTVSPropertyOp15
 70
     1
102
RTVSPropertyOp16
 70
     1
102
RTVSPropertyOp17
 70
     1
102
RTVSPropertyOp18
 70
     1
102
RTVSPropertyOp19
 70
     1
102
RTVSPropertyOp20
 70
     1
102
RTVSPropertyOp21
 70
     1
102
RTVSPropertyOp22
 70
     1
102
RTVSPropertyOp23
 70
     1
102
RTVSPropertyOp24
 70
     1
102
RTVSPropertyOp25
 70
     1
102
RTVSPropertyOp26
 70
     1
102
RTVSPropertyOp27
 70
     1
102
RTVSPropertyOp28
 70
     1
102
RTVSPropertyOp29
 70
     1
102
RTVSPropertyOp30
 70
     1
102
RTVSPropertyOp31
 70
     1
102
RTVSPropertyOp32
 70
     1
102
RTVSPropertyOp33
 70
     1
102
RTVSPropertyOp34
 70
     1
102
RTVSPropertyOp35
 70
     1
102
RTVSPropertyOp36
 70
     1
102
RTVSPropertyOp37
 70
     1
102
RTVSPropertyOp38
 70
     1
102
RTVSPropertyOp39
 70
     1
102
RTVSPropertyOp40
 70
     1
102
RTVSPropertyOp41
 70
     1
102
RTVSPropertyOp42
 70
     1
102
RTVSPropertyOp43
 70
     1
102
RTVSPropertyOp44
 70
     1
102
RTVSPropertyOp45
 70
     1
102
RTVSPropertyOp46
 70
     1
102
RTVSPropertyOp47
 70
     1
102
RTVSPropertyOp48
 70
     1
102
RTVSPropertyOp49
 70
     1
102
RTVSPropertyOp50
 70
     1
102
RTVSPropertyOp51
 70
     0
102
RTVSPropertyOp52
 70
     0
102
RTVSPropertyOp53
 70
     1
102
RTVSPropertyOp54
 70
     1
102
RTVSPropertyOp55
 70
     1
102
RTVSPropertyOp56
 70
     1
102
RTVSPropertyOp57
 70
     1
102
RTVSPropertyOp58
 70
     1
102
RTVSPropertyOp59
 70
     1
102
RTVSPropertyOp60
 70
     1
102
RTVSPropertyOp61
 70
     1
102
RTVSPropertyOp62
 70
     1
  0
XRECORD
  5
36E
102
{ACAD_REACTORS
330
36D
102
}
330
36D
100
AcDbXrecord
280
     1
102
RTVSPost2010Prop28
280
     0
102
RTVSPost2010PropOp28
 70
     1
102
RTVSPost2010Prop29
280
     1
102
RTVSPost2010PropOp29
 70
     1
102
RTVSPost2010Prop30
280
     1
102
RTVSPost2010PropOp30
 70
     1
102
RTVSPost2010Prop31
280
     0
102
RTVSPost2010PropOp31
 70
     1
102
RTVSPost2010Prop32
280
     0
102
RTVSPost2010PropOp32
 70
     1
102
RTVSPost2010Prop33
280
     0
102
RTVSPost2010PropOp33
 70
     1
102
RTVSPost2010Prop34
280
     0
102
RTVSPost2010PropOp34
 70
     1
102
RTVSPost2010Prop35
280
     0
102
RTVSPost2010PropOp35
 70
     1
102
RTVSPost2010Prop36
280
     0
102
RTVSPost2010PropOp36
 70
     1
102
RTVSPost2010Prop37
 90
       50
102
RTVSPost2010PropOp37
 70
     1
102
RTVSPost2010Prop38
140
0.0
102
RTVSPost2010PropOp38
 70
     1
102
RTVSPost2010Prop39
140
1.0
102
RTVSPost2010PropOp39
 70
     1
102
RTVSPost2010Prop40
 90
        0
102
RTVSPost2010PropOp40
 70
     1
102
RTVSPost2010Prop41ColorIndex
 90
       18
102
RTVSPost2010Prop41ColorRGB
 90
        0
102
RTVSPost2010PropOp41
 70
     1
102
RTVSPost2010Prop42
 90
       50
102
RTVSPost2010PropOp42
 70
     1
102
RTVSPost2010Prop43
 90
        3
102
RTVSPost2010PropOp43
 70
     1
102
RTVSPost2010Prop44ColorIndex
 90
        5
102
RTVSPost2010Prop44ColorRGB
 90
      255
102
RTVSPost2010PropOp44
 70
     1
102
RTVSPost2010Prop45
280
     0
102
RTVSPost2010PropOp45
 70
     1
102
RTVSPost2010Prop46
 90
       50
102
RTVSPost2010PropOp46
 70
     1
102
RTVSPost2010Prop47
 90
       50
102
RTVSPost2010PropOp47
 70
     1
102
RTVSPost2010Prop48
 90
       50
102
RTVSPost2010PropOp48
 70
     1
102
RTVSPost2010Prop49
280
     0
102
RTVSPost2010PropOp49
 70
     1
102
RTVSPost2010Prop50
 90
       50
102
RTVSPost2010PropOp50
 70
     1
102
RTVSPost2010Prop51ColorIndex
 90
      256
102
RTVSPost2010Prop51ColorRGB
 90
-16777216
102
RTVSPost2010PropOp51
 70
     0
102
RTVSPost2010Prop52
140
1.0
102
RTVSPost2010PropOp52
 70
     0
102
RTVSPost2010Prop53
 90
        2
102
RTVSPost2010PropOp53
 70
     1
102
RTVSPost2010Prop54
  1
strokes_ogs.tif
102
RTVSPost2010PropOp54
 70
     1
102
RTVSPost2010Prop55
280
     0
102
RTVSPost2010PropOp55
 70
     1
102
RTVSPost2010Prop56
140
1.0
102
RTVSPost2010PropOp56
 70
     1
102
RTVSPost2010Prop57
140
1.0
102
RTVSPost2010PropOp57
 70
     1
102
RTVSPropertyOp0
 70
     1
102
RTVSPropertyOp1
 70
     1
102
RTVSPropertyOp2
 70
     1
102
RTVSPropertyOp3
 70
     1
102
RTVSPropertyOp4
 70
     1
102
RTVSPropertyOp5
 70
     1
102
RTVSPropertyOp6
 70
     1
102
RTVSPropertyOp7
 70
     1
102
RTVSPropertyOp8
 70
     1
102
RTVSPropertyOp9
 70
     1
102
RTVSPropertyOp10
 70
     1
102
RTVSPropertyOp11
 70
     1
102
RTVSPropertyOp12
 70
     1
102
RTVSPropertyOp13
 70
     1
102
RTVSPropertyOp14
 70
     1
102
RTVSPropertyOp15
 70
     1
102
RTVSPropertyOp16
 70
     1
102
RTVSPropertyOp17
 70
     1
102
RTVSPropertyOp18
 70
     1
102
RTVSPropertyOp19
 70
     1
102
RTVSPropertyOp20
 70
     1
102
RTVSPropertyOp21
 70
     1
102
RTVSPropertyOp22
 70
     1
102
RTVSPropertyOp23
 70
     1
102
RTVSPropertyOp24
 70
     1
102
RTVSPropertyOp25
 70
     1
102
RTVSPropertyOp26
 70
     1
102
RTVSPropertyOp27
 70
     1
102
RTVSPropertyOp28
 70
     1
102
RTVSPropertyOp29
 70
     1
102
RTVSPropertyOp30
 70
     1
102
RTVSPropertyOp31
 70
     1
102
RTVSPropertyOp32
 70
     1
102
RTVSPropertyOp33
 70
     1
102
RTVSPropertyOp34
 70
     1
102
RTVSPropertyOp35
 70
     1
102
RTVSPropertyOp36
 70
     1
102
RTVSPropertyOp37
 70
     1
102
RTVSPropertyOp38
 70
     1
102
RTVSPropertyOp39
 70
     1
102
RTVSPropertyOp40
 70
     1
102
RTVSPropertyOp41
 70
     1
102
RTVSPropertyOp42
 70
     1
102
RTVSPropertyOp43
 70
     1
102
RTVSPropertyOp44
 70
     1
102
RTVSPropertyOp45
 70
     1
102
RTVSPropertyOp46
 70
     1
102
RTVSPropertyOp47
 70
     1
102
RTVSPropertyOp48
 70
     1
102
RTVSPropertyOp49
 70
     1
102
RTVSPropertyOp50
 70
     1
102
RTVSPropertyOp51
 70
     0
102
RTVSPropertyOp52
 70
     0
102
RTVSPropertyOp53
 70
     1
102
RTVSPropertyOp54
 70
     1
102
RTVSPropertyOp55
 70
     1
102
RTVSPropertyOp56
 70
     1
102
RTVSPropertyOp57
 70
     1
102
RTVSPropertyOp58
 70
     1
102
RTVSPropertyOp59
 70
     1
102
RTVSPropertyOp60
 70
     1
102
RTVSPropertyOp61
 70
     1
102
RTVSPropertyOp62
 70
     1
  0
XRECORD
  5
38E
102
{ACAD_REACTORS
330
38D
102
}
330
38D
100
AcDbXrecord
280
     1
102
RTVSPost2010Prop28
280
     0
102
RTVSPost2010PropOp28
 70
     1
102
RTVSPost2010Prop29
280
     1
102
RTVSPost2010PropOp29
 70
     1
102
RTVSPost2010Prop30
280
     1
102
RTVSPost2010PropOp30
 70
     1
102
RTVSPost2010Prop31
280
     0
102
RTVSPost2010PropOp31
 70
     1
102
RTVSPost2010Prop32
280
     0
102
RTVSPost2010PropOp32
 70
     1
102
RTVSPost2010Prop33
280
     0
102
RTVSPost2010PropOp33
 70
     1
102
RTVSPost2010Prop34
280
     0
102
RTVSPost2010PropOp34
 70
     1
102
RTVSPost2010Prop35
280
     0
102
RTVSPost2010PropOp35
 70
     1
102
RTVSPost2010Prop36
280
     0
102
RTVSPost2010PropOp36
 70
     1
102
RTVSPost2010Prop37
 90
       50
102
RTVSPost2010PropOp37
 70
     1
102
RTVSPost2010Prop38
140
0.0
102
RTVSPost2010PropOp38
 70
     1
102
RTVSPost2010Prop39
140
1.0
102
RTVSPost2010PropOp39
 70
     1
102
RTVSPost2010Prop40
 90
        0
102
RTVSPost2010PropOp40
 70
     1
102
RTVSPost2010Prop41ColorIndex
 90
       18
102
RTVSPost2010Prop41ColorRGB
 90
        0
102
RTVSPost2010PropOp41
 70
     1
102
RTVSPost2010Prop42
 90
       50
102
RTVSPost2010PropOp42
 70
     1
102
RTVSPost2010Prop43
 90
        3
102
RTVSPost2010PropOp43
 70
     1
102
RTVSPost2010Prop44ColorIndex
 90
        5
102
RTVSPost2010Prop44ColorRGB
 90
      255
102
RTVSPost2010PropOp44
 70
     1
102
RTVSPost2010Prop45
280
     0
102
RTVSPost2010PropOp45
 70
     1
102
RTVSPost2010Prop46
 90
       50
102
RTVSPost2010PropOp46
 70
     1
102
RTVSPost2010Prop47
 90
       50
102
RTVSPost2010PropOp47
 70
     1
102
RTVSPost2010Prop48
 90
       50
102
RTVSPost2010PropOp48
 70
     1
102
RTVSPost2010Prop49
280
     0
102
RTVSPost2010PropOp49
 70
     1
102
RTVSPost2010Prop50
 90
       50
102
RTVSPost2010PropOp50
 70
     1
102
RTVSPost2010Prop51ColorIndex
 90
      256
102
RTVSPost2010Prop51ColorRGB
 90
-16777216
102
RTVSPost2010PropOp51
 70
     0
102
RTVSPost2010Prop52
140
1.0
102
RTVSPost2010PropOp52
 70
     0
102
RTVSPost2010Prop53
 90
        2
102
RTVSPost2010PropOp53
 70
     1
102
RTVSPost2010Prop54
  1
strokes_ogs.tif
102
RTVSPost2010PropOp54
 70
     1
102
RTVSPost2010Prop55
280
     0
102
RTVSPost2010PropOp55
 70
     1
102
RTVSPost2010Prop56
140
1.0
102
RTVSPost2010PropOp56
 70
     1
102
RTVSPost2010Prop57
140
1.0
102
RTVSPost2010PropOp57
 70
     1
102
RTVSPropertyOp0
 70
     1
102
RTVSPropertyOp1
 70
     1
102
RTVSPropertyOp2
 70
     1
102
RTVSPropertyOp3
 70
     1
102
RTVSPropertyOp4
 70
     1
102
RTVSPropertyOp5
 70
     1
102
RTVSPropertyOp6
 70
     1
102
RTVSPropertyOp7
 70
     1
102
RTVSPropertyOp8
 70
     1
102
RTVSPropertyOp9
 70
     1
102
RTVSPropertyOp10
 70
     1
102
RTVSPropertyOp11
 70
     1
102
RTVSPropertyOp12
 70
     1
102
RTVSPropertyOp13
 70
     1
102
RTVSPropertyOp14
 70
     1
102
RTVSPropertyOp15
 70
     1
102
RTVSPropertyOp16
 70
     1
102
RTVSPropertyOp17
 70
     1
102
RTVSPropertyOp18
 70
     1
102
RTVSPropertyOp19
 70
     1
102
RTVSPropertyOp20
 70
     1
102
RTVSPropertyOp21
 70
     1
102
RTVSPropertyOp22
 70
     1
102
RTVSPropertyOp23
 70
     1
102
RTVSPropertyOp24
 70
     1
102
RTVSPropertyOp25
 70
     1
102
RTVSPropertyOp26
 70
     1
102
RTVSPropertyOp27
 70
     1
102
RTVSPropertyOp28
 70
     1
102
RTVSPropertyOp29
 70
     1
102
RTVSPropertyOp30
 70
     1
102
RTVSPropertyOp31
 70
     1
102
RTVSPropertyOp32
 70
     1
102
RTVSPropertyOp33
 70
     1
102
RTVSPropertyOp34
 70
     1
102
RTVSPropertyOp35
 70
     1
102
RTVSPropertyOp36
 70
     1
102
RTVSPropertyOp37
 70
     1
102
RTVSPropertyOp38
 70
     1
102
RTVSPropertyOp39
 70
     1
102
RTVSPropertyOp40
 70
     1
102
RTVSPropertyOp41
 70
     1
102
RTVSPropertyOp42
 70
     1
102
RTVSPropertyOp43
 70
     1
102
RTVSPropertyOp44
 70
     1
102
RTVSPropertyOp45
 70
     1
102
RTVSPropertyOp46
 70
     1
102
RTVSPropertyOp47
 70
     1
102
RTVSPropertyOp48
 70
     1
102
RTVSPropertyOp49
 70
     1
102
RTVSPropertyOp50
 70
     1
102
RTVSPropertyOp51
 70
     0
102
RTVSPropertyOp52
 70
     0
102
RTVSPropertyOp53
 70
     1
102
RTVSPropertyOp54
 70
     1
102
RTVSPropertyOp55
 70
     1
102
RTVSPropertyOp56
 70
     1
102
RTVSPropertyOp57
 70
     1
102
RTVSPropertyOp58
 70
     1
102
RTVSPropertyOp59
 70
     1
102
RTVSPropertyOp60
 70
     1
102
RTVSPropertyOp61
 70
     1
102
RTVSPropertyOp62
 70
     1
  0
ENDSEC
  0
EOF
