  0
SECTION
  2
HEADER
  9
$ACADVER
  1
AC1018
  9
$ACADMAINTVER
 70
   104
  9
$DWGCODEPAGE
  3
ANSI_1250
  9
$LASTSAVEDBY
  1
pp0701
  9
$INSBASE
 10
0.0
 20
0.0
 30
0.0
  9
$EXTMIN
 10
217.3970533333334
 20
21.404126
 30
0.0
  9
$EXTMAX
 10
587.478648
 20
299.8593576666667
 30
0.0
  9
$LIMMIN
 10
-0.5
 20
-0.5
  9
$LIMMAX
 10
5.0
 20
5.0
  9
$ORTHOMODE
 70
     0
  9
$REGENMODE
 70
     1
  9
$FILLMODE
 70
     1
  9
$QTEXTMODE
 70
     0
  9
$MIRRTEXT
 70
     1
  9
$LTSCALE
 40
1.0
  9
$ATTMODE
 70
     1
  9
$TEXTSIZE
 40
0.2
  9
$TRACEWID
 40
0.05
  9
$TEXTSTYLE
  7
Standard
  9
$CLAYER
  8
0
  9
$CELTYPE
  6
ByLayer
  9
$CECOLOR
 62
   256
  9
$CELTSCALE
 40
1.0
  9
$DISPSILH
 70
     0
  9
$DIMSCALE
 40
1.0
  9
$DIMASZ
 40
0.18
  9
$DIMEXO
 40
0.0625
  9
$DIMDLI
 40
0.38
  9
$DIMRND
 40
0.0
  9
$DIMDLE
 40
0.0
  9
$DIMEXE
 40
0.18
  9
$DIMTP
 40
0.0
  9
$DIMTM
 40
0.0
  9
$DIMTXT
 40
0.18
  9
$DIMCEN
 40
0.09
  9
$DIMTSZ
 40
0.0
  9
$DIMTOL
 70
     0
  9
$DIMLIM
 70
     0
  9
$DIMTIH
 70
     1
  9
$DIMTOH
 70
     1
  9
$DIMSE1
 70
     0
  9
$DIMSE2
 70
     0
  9
$DIMTAD
 70
     0
  9
$DIMZIN
 70
     0
  9
$DIMBLK
  1

  9
$DIMASO
 70
     1
  9
$DIMSHO
 70
     1
  9
$DIMPOST
  1

  9
$DIMAPOST
  1

  9
$DIMALT
 70
     0
  9
$DIMALTD
 70
     2
  9
$DIMALTF
 40
25.4
  9
$DIMLFAC
 40
1.0
  9
$DIMTOFL
 70
     0
  9
$DIMTVP
 40
0.0
  9
$DIMTIX
 70
     0
  9
$DIMSOXD
 70
     0
  9
$DIMSAH
 70
     0
  9
$DIMBLK1
  1

  9
$DIMBLK2
  1

  9
$DIMSTYLE
  2
Standard
  9
$DIMCLRD
 70
     0
  9
$DIMCLRE
 70
     0
  9
$DIMCLRT
 70
     0
  9
$DIMTFAC
 40
1.0
  9
$DIMGAP
 40
0.09
  9
$DIMJUST
 70
     0
  9
$DIMSD1
 70
     0
  9
$DIMSD2
 70
     0
  9
$DIMTOLJ
 70
     1
  9
$DIMTZIN
 70
     0
  9
$DIMALTZ
 70
     0
  9
$DIMALTTZ
 70
     0
  9
$DIMUPT
 70
     0
  9
$DIMDEC
 70
     4
  9
$DIMTDEC
 70
     4
  9
$DIMALTU
 70
     2
  9
$DIMALTTD
 70
     2
  9
$DIMTXSTY
  7
Standard
  9
$DIMAUNIT
 70
     0
  9
$DIMADEC
 70
     0
  9
$DIMALTRND
 40
0.0
  9
$DIMAZIN
 70
     0
  9
$DIMDSEP
 70
    46
  9
$DIMATFIT
 70
     3
  9
$DIMFRAC
 70
     0
  9
$DIMLDRBLK
  1

  9
$DIMLUNIT
 70
     2
  9
$DIMLWD
 70
    -2
  9
$DIMLWE
 70
    -2
  9
$DIMTMOVE
 70
     0
  9
$LUNITS
 70
     2
  9
$LUPREC
 70
     4
  9
$SKETCHINC
 40
0.1
  9
$FILLETRAD
 40
0.5
  9
$AUNITS
 70
     0
  9
$AUPREC
 70
     0
  9
$MENU
  1
.
  9
$ELEVATION
 40
0.0
  9
$PELEVATION
 40
0.0
  9
$THICKNESS
 40
0.0
  9
$LIMCHECK
 70
     0
  9
$CHAMFERA
 40
0.0
  9
$CHAMFERB
 40
0.0
  9
$CHAMFERC
 40
0.0
  9
$CHAMFERD
 40
0.0
  9
$SKPOLY
 70
     0
  9
$TDCREATE
 40
2458859.574120371
  9
$TDUCREATE
 40
2458859.532455463
  9
$TDUPDATE
 40
2458859.577280092
  9
$TDUUPDATE
 40
2458859.535613426
  9
$TDINDWG
 40
0.0021296412
  9
$TDUSRTIMER
 40
0.0021296412
  9
$USRTIMER
 70
     1
  9
$ANGBASE
 50
0.0
  9
$ANGDIR
 70
     0
  9
$PDMODE
 70
     0
  9
$PDSIZE
 40
0.0
  9
$PLINEWID
 40
0.0
  9
$SPLFRAME
 70
     0
  9
$SPLINETYPE
 70
     6
  9
$SPLINESEGS
 70
     8
  9
$HANDSEED
  5
3F2
  9
$SURFTAB1
 70
     6
  9
$SURFTAB2
 70
     6
  9
$SURFTYPE
 70
     6
  9
$SURFU
 70
     6
  9
$SURFV
 70
     6
  9
$UCSBASE
  2

  9
$UCSNAME
  2

  9
$UCSORG
 10
249.444248
 20
244.434018
 30
0.0
  9
$UCSXDIR
 10
1.0
 20
0.0
 30
0.0
  9
$UCSYDIR
 10
0.0
 20
1.0
 30
0.0
  9
$UCSORTHOREF
  2

  9
$UCSORTHOVIEW
 70
     0
  9
$UCSORGTOP
 10
0.0
 20
0.0
 30
0.0
  9
$UCSORGBOTTOM
 10
0.0
 20
0.0
 30
0.0
  9
$UCSORGLEFT
 10
0.0
 20
0.0
 30
0.0
  9
$UCSORGRIGHT
 10
0.0
 20
0.0
 30
0.0
  9
$UCSORGFRONT
 10
0.0
 20
0.0
 30
0.0
  9
$UCSORGBACK
 10
0.0
 20
0.0
 30
0.0
  9
$PUCSBASE
  2

  9
$PUCSNAME
  2

  9
$PUCSORG
 10
0.0
 20
0.0
 30
0.0
  9
$PUCSXDIR
 10
1.0
 20
0.0
 30
0.0
  9
$PUCSYDIR
 10
0.0
 20
1.0
 30
0.0
  9
$PUCSORTHOREF
  2

  9
$PUCSORTHOVIEW
 70
     0
  9
$PUCSORGTOP
 10
0.0
 20
0.0
 30
0.0
  9
$PUCSORGBOTTOM
 10
0.0
 20
0.0
 30
0.0
  9
$PUCSORGLEFT
 10
0.0
 20
0.0
 30
0.0
  9
$PUCSORGRIGHT
 10
0.0
 20
0.0
 30
0.0
  9
$PUCSORGFRONT
 10
0.0
 20
0.0
 30
0.0
  9
$PUCSORGBACK
 10
0.0
 20
0.0
 30
0.0
  9
$USERI1
 70
     0
  9
$USERI2
 70
     0
  9
$USERI3
 70
     0
  9
$USERI4
 70
     0
  9
$USERI5
 70
     0
  9
$USERR1
 40
0.0
  9
$USERR2
 40
0.0
  9
$USERR3
 40
0.0
  9
$USERR4
 40
0.0
  9
$USERR5
 40
0.0
  9
$WORLDVIEW
 70
     1
  9
$SHADEDGE
 70
     3
  9
$SHADEDIF
 70
    70
  9
$TILEMODE
 70
     1
  9
$MAXACTVP
 70
    64
  9
$PINSBASE
 10
0.0
 20
0.0
 30
0.0
  9
$PLIMCHECK
 70
     0
  9
$PEXTMIN
 10
-0.5
 20
-0.5
 30
-0.5
  9
$PEXTMAX
 10
5.0
 20
5.0
 30
5.0
  9
$PLIMMIN
 10
-0.5
 20
-0.5
  9
$PLIMMAX
 10
5.0
 20
5.0
  9
$UNITMODE
 70
     0
  9
$VISRETAIN
 70
     1
  9
$PLINEGEN
 70
     0
  9
$PSLTSCALE
 70
     1
  9
$TREEDEPTH
 70
  3020
  9
$CMLSTYLE
  2
Standard
  9
$CMLJUST
 70
     0
  9
$CMLSCALE
 40
1.0
  9
$PROXYGRAPHICS
 70
     1
  9
$MEASUREMENT
 70
     1
  9
$CELWEIGHT
370
    13
  9
$ENDCAPS
280
     0
  9
$JOINSTYLE
280
     0
  9
$LWDISPLAY
290
     0
  9
$INSUNITS
 70
     4
  9
$HYPERLINKBASE
  1

  9
$STYLESHEET
  1

  9
$XEDIT
290
     1
  9
$CEPSNTYPE
380
     0
  9
$PSTYLEMODE
290
     1
  9
$FINGERPRINTGUID
  2
{6112CAD2-196C-4764-8761-A9553FC09234}
  9
$VERSIONGUID
  2
{C20E3C5A-E8E5-0E47-AF1A-3918DE018E86}
  9
$EXTNAMES
290
     1
  9
$PSVPSCALE
 40
0.0
  9
$OLESTARTUP
290
     0
  9
$SORTENTS
280
   127
  9
$INDEXCTL
280
     0
  9
$HIDETEXT
280
     1
  9
$XCLIPFRAME
290
     0
  9
$HALOGAP
280
     0
  9
$OBSCOLOR
 70
   257
  9
$OBSLTYPE
280
     0
  9
$INTERSECTIONDISPLAY
280
     0
  9
$INTERSECTIONCOLOR
 70
   257
  9
$DIMASSOC
280
     2
  9
$PROJECTNAME
  1

  0
ENDSEC
  0
SECTION
  2
CLASSES
  0
CLASS
  1
ACDBDICTIONARYWDFLT
  2
AcDbDictionaryWithDefault
  3
ObjectDBX Classes
 90
        0
 91
        1
280
     0
281
     0
  0
CLASS
  1
VISUALSTYLE
  2
AcDbVisualStyle
  3
ObjectDBX Classes
 90
     4095
 91
       24
280
     0
281
     0
  0
CLASS
  1
MATERIAL
  2
AcDbMaterial
  3
ObjectDBX Classes
 90
     1153
 91
        3
280
     0
281
     0
  0
CLASS
  1
SCALE
  2
AcDbScale
  3
ObjectDBX Classes
 90
     1153
 91
       33
280
     0
281
     0
  0
CLASS
  1
TABLESTYLE
  2
AcDbTableStyle
  3
ObjectDBX Classes
 90
     4095
 91
        1
280
     0
281
     0
  0
CLASS
  1
MLEADERSTYLE
  2
AcDbMLeaderStyle
  3
ACDB_MLEADERSTYLE_CLASS
 90
     4095
 91
        1
280
     0
281
     0
  0
CLASS
  1
SUN
  2
AcDbSun
  3
SCENEOE
 90
     1153
 91
        0
280
     0
281
     0
  0
CLASS
  1
IMAGEDEF
  2
AcDbRasterImageDef
  3
ISM
 90
        0
 91
        1
280
     0
281
     0
  0
CLASS
  1
IMAGE
  2
AcDbRasterImage
  3
ISM
 90
     2175
 91
        1
280
     0
281
     1
  0
CLASS
  1
IMAGEDEF_REACTOR
  2
AcDbRasterImageDefReactor
  3
ISM
 90
        1
 91
        1
280
     0
281
     0
  0
CLASS
  1
DIMASSOC
  2
AcDbDimAssoc
  3
"AcDbDimAssoc|Product Desc:     AcDim ARX App For Dimension|Company:          Autodesk, Inc.|WEB Address:      www.autodesk.com"
 90
        0
 91
        7
280
     0
281
     0
  0
CLASS
  1
DICTIONARYVAR
  2
AcDbDictionaryVar
  3
ObjectDBX Classes
 90
        0
 91
        8
280
     0
281
     0
  0
CLASS
  1
CELLSTYLEMAP
  2
AcDbCellStyleMap
  3
ObjectDBX Classes
 90
     1152
 91
        2
280
     0
281
     0
  0
CLASS
  1
ACDBSECTIONVIEWSTYLE
  2
AcDbSectionViewStyle
  3
ObjectDBX Classes
 90
     1025
 91
        1
280
     0
281
     0
  0
CLASS
  1
ACDBDETAILVIEWSTYLE
  2
AcDbDetailViewStyle
  3
ObjectDBX Classes
 90
     1025
 91
        1
280
     0
281
     0
  0
CLASS
  1
RASTERVARIABLES
  2
AcDbRasterVariables
  3
ISM
 90
        0
 91
        1
280
     0
281
     0
  0
CLASS
  1
SORTENTSTABLE
  2
AcDbSortentsTable
  3
ObjectDBX Classes
 90
        0
 91
        1
280
     0
281
     0
  0
ENDSEC
  0
SECTION
  2
TABLES
  0
TABLE
  2
VPORT
  5
8
330
0
100
AcDbSymbolTable
 70
    16
  0
VPORT
  5
29
330
8
100
AcDbSymbolTableRecord
100
AcDbViewportTableRecord
  2
*Active
 70
     0
 10
0.0
 20
0.0
 11
1.0
 21
1.0
 12
278.57326067021
 22
221.5817074381614
 13
0.0
 23
0.0
 14
0.5
 24
0.5
 15
0.5
 25
0.5
 16
0.0
 26
0.0
 36
1.0
 17
0.0
 27
0.0
 37
0.0
 40
202.8657859559744
 41
2.188141391106043
 42
50.0
 43
681.906494
 44
-681.906494
 50
0.0
 51
0.0
 71
     0
 72
   100
 73
     1
 74
     3
 75
     0
 76
     0
 77
     0
 78
     0
281
     0
 65
     1
110
249.444248
120
244.434018
130
0.0
111
1.0
121
0.0
131
0.0
112
0.0
122
1.0
132
0.0
 79
     0
146
0.0
1001
ACAD_NAV_VCDISPLAY
1070
     3
  0
VPORT
  5
2BC
330
8
100
AcDbSymbolTableRecord
100
AcDbViewportTableRecord
  2
L1
 70
     0
 10
0.0
 20
0.0
 11
1.0
 21
1.0
 12
401.9336449999999
 22
160.636328
 13
0.0
 23
0.0
 14
0.5
 24
0.5
 15
0.5
 25
0.5
 16
0.0
 26
0.0
 36
1.0
 17
0.0
 27
0.0
 37
0.0
 40
207.433333
 41
0.085602
 42
50.0
 43
681.906494
 44
-681.906494
 50
0.0
 51
0.0
 71
     0
 72
   100
 73
     1
 74
     3
 75
     0
 76
     0
 77
     0
 78
     0
281
     0
 65
     1
110
0.0
120
0.0
130
0.0
111
1.0
121
0.0
131
0.0
112
0.0
122
1.0
132
0.0
 79
     0
146
0.0
  0
VPORT
  5
2BD
330
8
100
AcDbSymbolTableRecord
100
AcDbViewportTableRecord
  2
L2
 70
     0
 10
0.0
 20
0.0
 11
0.5
 21
1.0
 12
0.0
 22
0.0
 13
0.0
 23
0.0
 14
0.5
 24
0.5
 15
0.5
 25
0.5
 16
0.0
 26
-1.0
 36
0.0
 17
0.0
 27
0.0
 37
0.0
 40
1478.660809
 41
0.012009
 42
50.0
 43
765.39502
 44
-765.39502
 50
0.0
 51
0.0
 71
     0
 72
   100
 73
     1
 74
     3
 75
     0
 76
     0
 77
     0
 78
     0
281
     0
 65
     1
110
0.0
120
0.0
130
0.0
111
1.0
121
0.0
131
0.0
112
0.0
122
1.0
132
0.0
 79
     0
146
0.0
  0
VPORT
  5
2BE
330
8
100
AcDbSymbolTableRecord
100
AcDbViewportTableRecord
  2
L2
 70
     0
 10
0.5
 20
0.0
 11
1.0
 21
1.0
 12
0.0
 22
0.0
 13
0.0
 23
0.0
 14
0.5
 24
0.5
 15
0.5
 25
0.5
 16
1.0
 26
0.0
 36
0.0
 17
0.0
 27
0.0
 37
0.0
 40
1478.660809
 41
0.012009
 42
50.0
 43
746.5698859999999
 44
-746.5698859999999
 50
0.0
 51
0.0
 71
     0
 72
   100
 73
     1
 74
     3
 75
     0
 76
     0
 77
     0
 78
     0
281
     0
 65
     1
110
0.0
120
0.0
130
0.0
111
1.0
121
0.0
131
0.0
112
0.0
122
1.0
132
0.0
 79
     0
146
0.0
  0
VPORT
  5
2BF
330
8
100
AcDbSymbolTableRecord
100
AcDbViewportTableRecord
  2
L3
 70
     0
 10
0.0
 20
0.5
 11
1.0
 21
1.0
 12
401.9336449999999
 22
160.636328
 13
0.0
 23
0.0
 14
0.5
 24
0.5
 15
0.5
 25
0.5
 16
0.0
 26
0.0
 36
1.0
 17
0.0
 27
0.0
 37
0.0
 40
207.433333
 41
0.085602
 42
50.0
 43
681.906494
 44
-681.906494
 50
0.0
 51
0.0
 71
     0
 72
   100
 73
     1
 74
     3
 75
     0
 76
     0
 77
     0
 78
     0
281
     0
 65
     1
110
0.0
120
0.0
130
0.0
111
1.0
121
0.0
131
0.0
112
0.0
122
1.0
132
0.0
 79
     0
146
0.0
  0
VPORT
  5
2C0
330
8
100
AcDbSymbolTableRecord
100
AcDbViewportTableRecord
  2
L3
 70
     0
 10
0.0
 20
0.0
 11
1.0
 21
0.5
 12
0.0
 22
0.0
 13
0.0
 23
0.0
 14
0.5
 24
0.5
 15
0.5
 25
0.5
 16
0.0
 26
-1.0
 36
0.0
 17
0.0
 27
0.0
 37
0.0
 40
1478.660809
 41
0.012009
 42
50.0
 43
765.39502
 44
-765.39502
 50
0.0
 51
0.0
 71
     0
 72
   100
 73
     1
 74
     3
 75
     0
 76
     0
 77
     0
 78
     0
281
     0
 65
     1
110
0.0
120
0.0
130
0.0
111
1.0
121
0.0
131
0.0
112
0.0
122
1.0
132
0.0
 79
     0
146
0.0
  0
VPORT
  5
2C1
330
8
100
AcDbSymbolTableRecord
100
AcDbViewportTableRecord
  2
L4
 70
     0
 10
0.0
 20
0.5
 11
0.5
 21
1.0
 12
401.9336449999999
 22
160.636328
 13
0.0
 23
0.0
 14
0.5
 24
0.5
 15
0.5
 25
0.5
 16
0.0
 26
0.0
 36
1.0
 17
0.0
 27
0.0
 37
0.0
 40
207.433333
 41
0.085602
 42
50.0
 43
681.906494
 44
-681.906494
 50
0.0
 51
0.0
 71
     0
 72
   100
 73
     1
 74
     3
 75
     0
 76
     0
 77
     0
 78
     0
281
     0
 65
     1
110
0.0
120
0.0
130
0.0
111
1.0
121
0.0
131
0.0
112
0.0
122
1.0
132
0.0
 79
     0
146
0.0
  0
VPORT
  5
2C2
330
8
100
AcDbSymbolTableRecord
100
AcDbViewportTableRecord
  2
L4
 70
     0
 10
0.0
 20
0.0
 11
0.5
 21
0.5
 12
0.0
 22
0.0
 13
0.0
 23
0.0
 14
0.5
 24
0.5
 15
0.5
 25
0.5
 16
0.0
 26
-1.0
 36
0.0
 17
0.0
 27
0.0
 37
0.0
 40
1478.660809
 41
0.012009
 42
50.0
 43
765.39502
 44
-765.39502
 50
0.0
 51
0.0
 71
     0
 72
   100
 73
     1
 74
     3
 75
     0
 76
     0
 77
     0
 78
     0
281
     0
 65
     1
110
0.0
120
0.0
130
0.0
111
1.0
121
0.0
131
0.0
112
0.0
122
1.0
132
0.0
 79
     0
146
0.0
  0
VPORT
  5
2C3
330
8
100
AcDbSymbolTableRecord
100
AcDbViewportTableRecord
  2
L4
 70
     0
 10
0.5
 20
0.0
 11
1.0
 21
0.5
 12
0.0
 22
0.0
 13
0.0
 23
0.0
 14
0.5
 24
0.5
 15
0.5
 25
0.5
 16
1.0
 26
0.0
 36
0.0
 17
0.0
 27
0.0
 37
0.0
 40
1478.660809
 41
0.012009
 42
50.0
 43
746.5698859999999
 44
-746.5698859999999
 50
0.0
 51
0.0
 71
     0
 72
   100
 73
     1
 74
     3
 75
     0
 76
     0
 77
     0
 78
     0
281
     0
 65
     1
110
0.0
120
0.0
130
0.0
111
1.0
121
0.0
131
0.0
112
0.0
122
1.0
132
0.0
 79
     0
146
0.0
  0
VPORT
  5
2C4
330
8
100
AcDbSymbolTableRecord
100
AcDbViewportTableRecord
  2
L4
 70
     0
 10
0.5
 20
0.5
 11
1.0
 21
1.0
 12
0.0
 22
0.0
 13
0.0
 23
0.0
 14
0.5
 24
0.5
 15
0.5
 25
0.5
 16
0.5773502691896259
 26
-0.5773502691896259
 36
0.5773502691896259
 17
0.0
 27
0.0
 37
0.0
 40
1453.705292
 41
0.012215
 42
50.0
 43
757.5245879999999
 44
-757.5245879999999
 50
0.0
 51
0.0
 71
     0
 72
   100
 73
     1
 74
     3
 75
     0
 76
     0
 77
     0
 78
     0
281
     0
 65
     1
110
0.0
120
0.0
130
0.0
111
1.0
121
0.0
131
0.0
112
0.0
122
1.0
132
0.0
 79
     0
146
0.0
  0
VPORT
  5
2C5
330
8
100
AcDbSymbolTableRecord
100
AcDbViewportTableRecord
  2
L6
 70
     0
 10
0.0
 20
0.5
 11
0.333333
 21
1.0
 12
0.0
 22
0.0
 13
0.0
 23
0.0
 14
0.5
 24
0.5
 15
0.5
 25
0.5
 16
0.7188730927569434
 26
-0.5850486126764433
 36
0.3754192287502549
 17
0.0
 27
0.0
 37
0.0
 40
1534.989881
 41
0.011568
 42
50.0
 43
794.5176169999999
 44
-794.5176169999999
 50
0.0
 51
0.0
 71
     0
 72
   100
 73
     1
 74
     3
 75
     0
 76
     0
 77
     0
 78
     0
281
     0
 65
     1
110
0.0
120
0.0
130
0.0
111
1.0
121
0.0
131
0.0
112
0.0
122
1.0
132
0.0
 79
     0
146
0.0
  0
VPORT
  5
2C6
330
8
100
AcDbSymbolTableRecord
100
AcDbViewportTableRecord
  2
L6
 70
     0
 10
0.0
 20
0.0
 11
0.333333
 21
0.5
 12
0.0
 22
0.0
 13
0.0
 23
0.0
 14
0.5
 24
0.5
 15
0.5
 25
0.5
 16
-1.0
 26
0.0
 36
0.0
 17
0.0
 27
0.0
 37
0.0
 40
1478.660809
 41
0.012009
 42
50.0
 43
746.5698859999999
 44
-746.5698859999999
 50
0.0
 51
0.0
 71
     0
 72
   100
 73
     1
 74
     3
 75
     0
 76
     0
 77
     0
 78
     0
281
     0
 65
     1
110
0.0
120
0.0
130
0.0
111
1.0
121
0.0
131
0.0
112
0.0
122
1.0
132
0.0
 79
     0
146
0.0
  0
VPORT
  5
2C7
330
8
100
AcDbSymbolTableRecord
100
AcDbViewportTableRecord
  2
L6
 70
     0
 10
0.333333
 20
0.5
 11
0.666667
 21
1.0
 12
401.9336449999999
 22
160.636328
 13
0.0
 23
0.0
 14
0.5
 24
0.5
 15
0.5
 25
0.5
 16
0.0
 26
0.0
 36
1.0
 17
0.0
 27
0.0
 37
0.0
 40
207.433333
 41
0.085602
 42
50.0
 43
681.906494
 44
-681.906494
 50
0.0
 51
0.0
 71
     0
 72
   100
 73
     1
 74
     3
 75
     0
 76
     0
 77
     0
 78
     0
281
     0
 65
     1
110
0.0
120
0.0
130
0.0
111
1.0
121
0.0
131
0.0
112
0.0
122
1.0
132
0.0
 79
     0
146
0.0
  0
VPORT
  5
2C8
330
8
100
AcDbSymbolTableRecord
100
AcDbViewportTableRecord
  2
L6
 70
     0
 10
0.333333
 20
0.0
 11
0.666667
 21
0.5
 12
0.0
 22
0.0
 13
0.0
 23
0.0
 14
0.5
 24
0.5
 15
0.5
 25
0.5
 16
0.0
 26
-1.0
 36
0.0
 17
0.0
 27
0.0
 37
0.0
 40
1478.660809
 41
0.012009
 42
50.0
 43
765.39502
 44
-765.39502
 50
0.0
 51
0.0
 71
     0
 72
   100
 73
     1
 74
     3
 75
     0
 76
     0
 77
     0
 78
     0
281
     0
 65
     1
110
0.0
120
0.0
130
0.0
111
1.0
121
0.0
131
0.0
112
0.0
122
1.0
132
0.0
 79
     0
146
0.0
  0
VPORT
  5
2C9
330
8
100
AcDbSymbolTableRecord
100
AcDbViewportTableRecord
  2
L6
 70
     0
 10
0.666667
 20
0.5
 11
1.0
 21
1.0
 12
0.0
 22
0.0
 13
0.0
 23
0.0
 14
0.5
 24
0.5
 15
0.5
 25
0.5
 16
0.5773502691896259
 26
-0.5773502691896259
 36
0.5773502691896259
 17
0.0
 27
0.0
 37
0.0
 40
1453.705292
 41
0.012215
 42
50.0
 43
757.5245879999999
 44
-757.5245879999999
 50
0.0
 51
0.0
 71
     0
 72
   100
 73
     1
 74
     3
 75
     0
 76
     0
 77
     0
 78
     0
281
     0
 65
     1
110
0.0
120
0.0
130
0.0
111
1.0
121
0.0
131
0.0
112
0.0
122
1.0
132
0.0
 79
     0
146
0.0
  0
VPORT
  5
2CA
330
8
100
AcDbSymbolTableRecord
100
AcDbViewportTableRecord
  2
L6
 70
     0
 10
0.666667
 20
0.0
 11
1.0
 21
0.5
 12
0.0
 22
0.0
 13
0.0
 23
0.0
 14
0.5
 24
0.5
 15
0.5
 25
0.5
 16
1.0
 26
0.0
 36
0.0
 17
0.0
 27
0.0
 37
0.0
 40
1478.660809
 41
0.012009
 42
50.0
 43
746.5698859999999
 44
-746.5698859999999
 50
0.0
 51
0.0
 71
     0
 72
   100
 73
     1
 74
     3
 75
     0
 76
     0
 77
     0
 78
     0
281
     0
 65
     1
110
0.0
120
0.0
130
0.0
111
1.0
121
0.0
131
0.0
112
0.0
122
1.0
132
0.0
 79
     0
146
0.0
  0
ENDTAB
  0
TABLE
  2
LTYPE
  5
5
330
0
100
AcDbSymbolTable
 70
     7
  0
LTYPE
  5
14
330
5
100
AcDbSymbolTableRecord
100
AcDbLinetypeTableRecord
  2
ByBlock
 70
     0
  3

 72
    65
 73
     0
 40
0.0
  0
LTYPE
  5
15
330
5
100
AcDbSymbolTableRecord
100
AcDbLinetypeTableRecord
  2
ByLayer
 70
     0
  3

 72
    65
 73
     0
 40
0.0
  0
LTYPE
  5
16
330
5
100
AcDbSymbolTableRecord
100
AcDbLinetypeTableRecord
  2
Continuous
 70
     0
  3
Solid line
 72
    65
 73
     0
 40
0.0
  0
LTYPE
  5
6E
330
5
100
AcDbSymbolTableRecord
100
AcDbLinetypeTableRecord
  2
CENTER
 70
     0
  3
____ _ ____ _ ____ _ ____
 72
    65
 73
     4
 40
47.4
 49
22.0
 74
     4
 75
     0
340
0
 46
0.0
 50
0.0
 44
0.0
 45
0.0
 49
-8.5
 74
     4
 75
     0
340
0
 46
0.0
 50
0.0
 44
0.0
 45
0.0
 49
8.5
 74
     4
 75
     0
340
0
 46
0.0
 50
0.0
 44
0.0
 45
0.0
 49
-8.5
 74
     4
 75
     0
340
0
 46
0.0
 50
0.0
 44
0.0
 45
0.0
  0
LTYPE
  5
6F
330
5
100
AcDbSymbolTableRecord
100
AcDbLinetypeTableRecord
  2
DASHDOT
 70
     0
  3
_._._._._._._._._._._._._._._._.
 72
    65
 73
     4
 40
70.0
 49
31.0
 74
     4
 75
     0
340
0
 46
0.0
 50
0.0
 44
0.0
 45
0.0
 49
-13.0
 74
     4
 75
     0
340
0
 46
0.0
 50
0.0
 44
0.0
 45
0.0
 49
13.0
 74
     4
 75
     0
340
0
 46
0.0
 50
0.0
 44
0.0
 45
0.0
 49
-13.0
 74
     4
 75
     0
340
0
 46
0.0
 50
0.0
 44
0.0
 45
0.0
  0
LTYPE
  5
70
330
5
100
AcDbSymbolTableRecord
100
AcDbLinetypeTableRecord
  2
DASHED
 70
     0
  3
__ __ __ __ __ __ __ __ __
 72
    65
 73
     2
 40
25.72
 49
12.86
 74
     4
 75
     0
340
0
 46
0.0
 50
0.0
 44
0.0
 45
0.0
 49
-12.86
 74
     4
 75
     0
340
0
 46
0.0
 50
0.0
 44
0.0
 45
0.0
  0
LTYPE
  5
71
330
5
100
AcDbSymbolTableRecord
100
AcDbLinetypeTableRecord
  2
DOT
 70
     0
  3
.........................
 72
    65
 73
     2
 40
10.0
 49
0.0
 74
     4
 75
     0
340
0
 46
0.0
 50
0.0
 44
0.0
 45
0.0
 49
-10.0
 74
     4
 75
     0
340
0
 46
0.0
 50
0.0
 44
0.0
 45
0.0
  0
LTYPE
  5
72
330
5
100
AcDbSymbolTableRecord
100
AcDbLinetypeTableRecord
  2
PHANTOM
 70
     0
  3
____ _ _ ____ _ _ _____ _ _ ____
 72
    65
 73
     6
 40
50.5
 49
18.0
 74
     4
 75
     0
340
0
 46
0.0
 50
0.0
 44
0.0
 45
0.0
 49
-6.5
 74
     4
 75
     0
340
0
 46
0.0
 50
0.0
 44
0.0
 45
0.0
 49
6.5
 74
     4
 75
     0
340
0
 46
0.0
 50
0.0
 44
0.0
 45
0.0
 49
-6.5
 74
     4
 75
     0
340
0
 46
0.0
 50
0.0
 44
0.0
 45
0.0
 49
6.5
 74
     4
 75
     0
340
0
 46
0.0
 50
0.0
 44
0.0
 45
0.0
 49
-6.5
 74
     4
 75
     0
340
0
 46
0.0
 50
0.0
 44
0.0
 45
0.0
  0
LTYPE
  5
37E
330
5
100
AcDbSymbolTableRecord
100
AcDbLinetypeTableRecord
  2
CENTER2
 70
     0
  3
Center (.5x) ___ _ ___ _ ___ _ ___ _ ___ _ ___
 72
    65
 73
     4
 40
1.125
 49
0.75
 74
     0
 49
-0.125
 74
     0
 49
0.125
 74
     0
 49
-0.125
 74
     0
  0
ENDTAB
  0
TABLE
  2
LAYER
  5
2
102
{ACAD_XDICTIONARY
360
3A9
102
}
330
0
100
AcDbSymbolTable
 70
    23
  0
LAYER
  5
10
102
{ACAD_XDICTIONARY
360
38A
102
}
330
2
100
AcDbSymbolTableRecord
100
AcDbLayerTableRecord
  2
0
 70
     0
 62
     7
  6
Continuous
370
    -3
390
F
  0
LAYER
  5
76
102
{ACAD_XDICTIONARY
360
38C
102
}
330
2
100
AcDbSymbolTableRecord
100
AcDbLayerTableRecord
  2
60
 70
     0
 62
     7
420
 16777215
  6
Continuous
370
    -3
390
F
  0
LAYER
  5
212
330
2
100
AcDbSymbolTableRecord
100
AcDbLayerTableRecord
  2
Defpoints
 70
     0
 62
     7
  6
Continuous
290
     0
370
    -3
390
F
  0
LAYER
  5
37B
102
{ACAD_XDICTIONARY
360
38E
102
}
330
2
100
AcDbSymbolTableRecord
100
AcDbLayerTableRecord
  2
1
 70
     0
 62
     4
  6
Continuous
370
    -3
390
F
  0
LAYER
  5
37C
102
{ACAD_XDICTIONARY
360
390
102
}
330
2
100
AcDbSymbolTableRecord
100
AcDbLayerTableRecord
  2
2
 70
     0
 62
     7
  6
Continuous
370
    -3
390
F
  0
LAYER
  5
37D
102
{ACAD_XDICTIONARY
360
392
102
}
330
2
100
AcDbSymbolTableRecord
100
AcDbLayerTableRecord
  2
4
 70
     0
 62
     2
  6
CENTER2
370
    -3
390
F
  0
LAYER
  5
380
102
{ACAD_XDICTIONARY
360
394
102
}
330
2
100
AcDbSymbolTableRecord
100
AcDbLayerTableRecord
  2
SK2
 70
     0
 62
     7
  6
Continuous
370
    -3
390
F
  0
LAYER
  5
381
102
{ACAD_XDICTIONARY
360
396
102
}
330
2
100
AcDbSymbolTableRecord
100
AcDbLayerTableRecord
  2
SK3
 70
     0
 62
     1
  6
DASHED
370
    -3
390
F
  0
LAYER
  5
382
102
{ACAD_XDICTIONARY
360
398
102
}
330
2
100
AcDbSymbolTableRecord
100
AcDbLayerTableRecord
  2
SK4
 70
     0
 62
     2
  6
CENTER2
370
    -3
390
F
  0
LAYER
  5
383
102
{ACAD_XDICTIONARY
360
39A
102
}
330
2
100
AcDbSymbolTableRecord
100
AcDbLayerTableRecord
  2
SK6
 70
     0
 62
     5
  6
Continuous
370
    -3
390
F
  0
LAYER
  5
384
102
{ACAD_XDICTIONARY
360
39C
102
}
330
2
100
AcDbSymbolTableRecord
100
AcDbLayerTableRecord
  2
CUT
 70
     0
 62
     1
  6
Continuous
370
    -3
390
F
  0
LAYER
  5
385
102
{ACAD_XDICTIONARY
360
39E
102
}
330
2
100
AcDbSymbolTableRecord
100
AcDbLayerTableRecord
  2
NOCUT
 70
     0
 62
     7
  6
Continuous
370
    -3
390
F
  0
LAYER
  5
386
102
{ACAD_XDICTIONARY
360
3A0
102
}
330
2
100
AcDbSymbolTableRecord
100
AcDbLayerTableRecord
  2
80
 70
     0
 62
     6
  6
Continuous
370
    -3
390
F
  0
LAYER
  5
387
102
{ACAD_XDICTIONARY
360
3A2
102
}
330
2
100
AcDbSymbolTableRecord
100
AcDbLayerTableRecord
  2
81
 70
     0
 62
     3
  6
Continuous
370
    -3
390
F
  0
LAYER
  5
388
102
{ACAD_XDICTIONARY
360
3A4
102
}
330
2
100
AcDbSymbolTableRecord
100
AcDbLayerTableRecord
  2
SK1
 70
     0
 62
     4
  6
Continuous
370
    -3
390
F
  0
ENDTAB
  0
TABLE
  2
STYLE
  5
3
330
0
100
AcDbSymbolTable
 70
     3
  0
STYLE
  5
11
330
3
100
AcDbSymbolTableRecord
100
AcDbTextStyleTableRecord
  2
Standard
 70
     0
 40
0.0
 41
1.0
 50
0.0
 71
     0
 42
0.2
  3
txt
  4

  0
STYLE
  5
20C
330
3
100
AcDbSymbolTableRecord
100
AcDbTextStyleTableRecord
  2
cesky
 70
     0
 40
0.0
 41
1.0
 50
0.0
 71
     0
 42
0.2
  3
simplex.shx
  4

  0
STYLE
  5
20D
330
3
100
AcDbSymbolTableRecord
100
AcDbTextStyleTableRecord
  2
DWGDirectTextStyle
 70
     0
 40
0.0
 41
1.0
 50
0.0
 71
     0
 42
0.2
  3
simplex
  4

  0
ENDTAB
  0
TABLE
  2
VIEW
  5
6
330
0
100
AcDbSymbolTable
 70
     1
  0
ENDTAB
  0
TABLE
  2
UCS
  5
7
330
0
100
AcDbSymbolTable
 70
     0
  0
ENDTAB
  0
TABLE
  2
APPID
  5
9
330
0
100
AcDbSymbolTable
 70
     7
  0
APPID
  5
12
330
9
100
AcDbSymbolTableRecord
100
AcDbRegAppTableRecord
  2
ACAD
 70
     0
  0
APPID
  5
20E
330
9
100
AcDbSymbolTableRecord
100
AcDbRegAppTableRecord
  2
ACAD_DSTYLE_DIMBREAK
 70
     0
  0
APPID
  5
2CB
330
9
100
AcDbSymbolTableRecord
100
AcDbRegAppTableRecord
  2
ACAD_DSTYLE_DIM_LINETYPE
 70
     0
  0
APPID
  5
2CC
330
9
100
AcDbSymbolTableRecord
100
AcDbRegAppTableRecord
  2
ACAD_DSTYLE_DIM_EXT1_LINETYPE
 70
     0
  0
APPID
  5
2CD
330
9
100
AcDbSymbolTableRecord
100
AcDbRegAppTableRecord
  2
ACAD_DSTYLE_DIM_EXT2_LINETYPE
 70
     0
  0
APPID
  5
30D
330
9
100
AcDbSymbolTableRecord
100
AcDbRegAppTableRecord
  2
ACAD_MLEADERVER
 70
     0
  0
APPID
  5
3B2
330
9
100
AcDbSymbolTableRecord
100
AcDbRegAppTableRecord
  2
ACAD_NAV_VCDISPLAY
 70
     0
  0
ENDTAB
  0
TABLE
  2
DIMSTYLE
  5
A
330
0
100
AcDbSymbolTable
 70
     1
100
AcDbDimStyleTable
 71
     0
  0
DIMSTYLE
105
27
330
A
100
AcDbSymbolTableRecord
100
AcDbDimStyleTableRecord
  2
Standard
 70
     0
340
11
1001
ACAD_DSTYLE_DIMBREAK
1070
   391
1040
6.349999999999999
  0
ENDTAB
  0
TABLE
  2
BLOCK_RECORD
  5
1
330
0
100
AcDbSymbolTable
 70
    15
  0
BLOCK_RECORD
  5
1F
102
{ACAD_XDICTIONARY
360
31E
102
}
330
1
100
AcDbSymbolTableRecord
100
AcDbBlockTableRecord
  2
*Model_Space
340
22
  0
BLOCK_RECORD
  5
1B
330
1
100
AcDbSymbolTableRecord
100
AcDbBlockTableRecord
  2
*Paper_Space
340
1E
  0
BLOCK_RECORD
  5
23
330
1
100
AcDbSymbolTableRecord
100
AcDbBlockTableRecord
  2
*Paper_Space0
340
26
  0
BLOCK_RECORD
  5
213
330
1
100
AcDbSymbolTableRecord
100
AcDbBlockTableRecord
  2
*D1
340
0
  0
BLOCK_RECORD
  5
21F
330
1
100
AcDbSymbolTableRecord
100
AcDbBlockTableRecord
  2
_U0
340
0
  0
BLOCK_RECORD
  5
22B
330
1
100
AcDbSymbolTableRecord
100
AcDbBlockTableRecord
  2
*D3
340
0
  0
BLOCK_RECORD
  5
239
330
1
100
AcDbSymbolTableRecord
100
AcDbBlockTableRecord
  2
_U1
340
0
  0
BLOCK_RECORD
  5
245
330
1
100
AcDbSymbolTableRecord
100
AcDbBlockTableRecord
  2
*D5
340
0
  0
BLOCK_RECORD
  5
252
330
1
100
AcDbSymbolTableRecord
100
AcDbBlockTableRecord
  2
_U2
340
0
  0
BLOCK_RECORD
  5
25E
330
1
100
AcDbSymbolTableRecord
100
AcDbBlockTableRecord
  2
*D7
340
0
  0
BLOCK_RECORD
  5
269
330
1
100
AcDbSymbolTableRecord
100
AcDbBlockTableRecord
  2
_U3
340
0
  0
BLOCK_RECORD
  5
274
330
1
100
AcDbSymbolTableRecord
100
AcDbBlockTableRecord
  2
*D9
340
0
  0
BLOCK_RECORD
  5
280
330
1
100
AcDbSymbolTableRecord
100
AcDbBlockTableRecord
  2
_U4
340
0
  0
BLOCK_RECORD
  5
28D
330
1
100
AcDbSymbolTableRecord
100
AcDbBlockTableRecord
  2
*D11
340
0
  0
BLOCK_RECORD
  5
299
330
1
100
AcDbSymbolTableRecord
100
AcDbBlockTableRecord
  2
_U5
340
0
  0
BLOCK_RECORD
  5
2A6
330
1
100
AcDbSymbolTableRecord
100
AcDbBlockTableRecord
  2
*D13
340
0
  0
BLOCK_RECORD
  5
2B3
330
1
100
AcDbSymbolTableRecord
100
AcDbBlockTableRecord
  2
_U6
340
0
  0
ENDTAB
  0
ENDSEC
  0
SECTION
  2
BLOCKS
  0
BLOCK
  5
20
330
1F
100
AcDbEntity
  8
0
100
AcDbBlockBegin
  2
*Model_Space
 70
     0
 10
0.0
 20
0.0
 30
0.0
  3
*Model_Space
  1

  0
ENDBLK
  5
21
330
1F
100
AcDbEntity
  8
0
100
AcDbBlockEnd
  0
BLOCK
  5
1C
330
1B
100
AcDbEntity
 67
     1
  8
0
100
AcDbBlockBegin
  2
*Paper_Space
 70
     0
 10
0.0
 20
0.0
 30
0.0
  3
*Paper_Space
  1

  0
ENDBLK
  5
1D
330
1B
100
AcDbEntity
 67
     1
  8
0
100
AcDbBlockEnd
  0
BLOCK
  5
24
330
23
100
AcDbEntity
 67
     1
  8
0
100
AcDbBlockBegin
  2
*Paper_Space0
 70
     0
 10
0.0
 20
0.0
 30
0.0
  3
*Paper_Space0
  1

  0
ENDBLK
  5
25
330
23
100
AcDbEntity
 67
     1
  8
0
100
AcDbBlockEnd
  0
BLOCK
  5
214
330
213
100
AcDbEntity
  8
0
100
AcDbBlockBegin
  2
*D1
 70
     1
 10
0.0
 20
0.0
 30
0.0
  3
*D1
  1

  0
LINE
  5
216
330
213
100
AcDbEntity
  8
0
 62
   254
370
    -2
100
AcDbLine
 10
289.444248
 20
284.4340180000001
 30
0.0
 11
289.444248
 21
296.3185240000001
 31
0.0
  0
LINE
  5
217
330
213
100
AcDbEntity
  8
0
 62
   254
370
    -2
100
AcDbLine
 10
249.444248
 20
263.4340180000001
 30
0.0
 11
249.444248
 21
296.3185240000001
 31
0.0
  0
LINE
  5
218
330
213
100
AcDbEntity
  8
0
 62
   254
370
    -2
100
AcDbLine
 10
285.944248
 20
295.318524
 30
0.0
 11
252.944248
 21
295.318524
 31
0.0
  0
SOLID
  5
219
330
213
100
AcDbEntity
  8
0
 62
   254
100
AcDbTrace
 10
285.944248
 20
294.735191
 30
0.0
 11
285.944248
 21
295.901858
 31
0.0
 12
289.444248
 22
295.318524
 32
0.0
 13
289.444248
 23
295.318524
 33
0.0
  0
SOLID
  5
21A
330
213
100
AcDbEntity
  8
0
 62
   254
100
AcDbTrace
 10
252.944248
 20
295.901858
 30
0.0
 11
252.944248
 21
294.735191
 31
0.0
 12
249.444248
 22
295.318524
 32
0.0
 13
249.444248
 23
295.318524
 33
0.0
  0
MTEXT
  5
21B
330
213
100
AcDbEntity
  8
0
 62
   254
370
    13
100
AcDbMText
 10
269.444248
 20
300.568524
 30
0.0
 40
3.5
 41
0.0
 71
     5
 72
     1
  1
\A1;40
  7
cesky
 73
     1
 44
1.0
  0
POINT
  5
21C
330
213
100
AcDbEntity
  8
Defpoints
 62
     0
100
AcDbPoint
 10
289.444248
 20
284.4340180000001
 30
0.0
  0
POINT
  5
21D
330
213
100
AcDbEntity
  8
Defpoints
 62
     0
100
AcDbPoint
 10
249.444248
 20
263.4340180000001
 30
0.0
  0
POINT
  5
21E
330
213
100
AcDbEntity
  8
Defpoints
 62
     0
100
AcDbPoint
 10
249.444248
 20
295.318524
 30
0.0
  0
ENDBLK
  5
215
330
213
100
AcDbEntity
  8
0
100
AcDbBlockEnd
  0
BLOCK
  5
226
330
21F
100
AcDbEntity
  8
0
100
AcDbBlockBegin
  2
_U0
 70
     0
 10
0.0
 20
0.0
 30
0.0
  3
_U0
  1

  0
ENDBLK
  5
227
330
21F
100
AcDbEntity
  8
0
100
AcDbBlockEnd
  0
BLOCK
  5
22C
330
22B
100
AcDbEntity
  8
0
100
AcDbBlockBegin
  2
*D3
 70
     1
 10
0.0
 20
0.0
 30
0.0
  3
*D3
  1

  0
LINE
  5
22E
330
22B
100
AcDbEntity
  8
0
 62
    95
370
    -2
100
AcDbLine
 10
249.444248
 20
225.434018
 30
0.0
 11
249.444248
 21
215.011173
 31
0.0
  0
LINE
  5
22F
330
22B
100
AcDbEntity
  8
0
 62
    95
370
    -2
100
AcDbLine
 10
255.744248
 20
244.434018
 30
0.0
 11
255.744248
 21
215.011173
 31
0.0
  0
LINE
  5
230
330
22B
100
AcDbEntity
  8
0
 62
    95
370
    -2
100
AcDbLine
 10
249.444248
 20
216.011173
 30
0.0
 11
228.110915
 21
216.011173
 31
0.0
  0
LINE
  5
231
330
22B
100
AcDbEntity
  8
0
 62
    95
370
    -2
100
AcDbLine
 10
245.944248
 20
216.011173
 30
0.0
 11
242.444248
 21
216.011173
 31
0.0
  0
LINE
  5
232
330
22B
100
AcDbEntity
  8
0
 62
    95
370
    -2
100
AcDbLine
 10
259.244248
 20
216.011173
 30
0.0
 11
262.744248
 21
216.011173
 31
0.0
  0
SOLID
  5
233
330
22B
100
AcDbEntity
  8
0
 62
    95
100
AcDbTrace
 10
245.944248
 20
215.42784
 30
0.0
 11
245.944248
 21
216.594506
 31
0.0
 12
249.444248
 22
216.011173
 32
0.0
 13
249.444248
 23
216.011173
 33
0.0
  0
SOLID
  5
234
330
22B
100
AcDbEntity
  8
0
 62
    95
100
AcDbTrace
 10
259.244248
 20
216.594506
 30
0.0
 11
259.244248
 21
215.42784
 31
0.0
 12
255.744248
 22
216.011173
 32
0.0
 13
255.744248
 23
216.011173
 33
0.0
  0
MTEXT
  5
235
330
22B
100
AcDbEntity
  8
0
 62
    95
370
    13
100
AcDbMText
 10
235.277582
 20
221.261173
 30
0.0
 40
3.5
 41
0.0
 71
     5
 72
     1
  1
\A1;6.3
  7
cesky
 73
     1
 44
1.0
  0
POINT
  5
236
330
22B
100
AcDbEntity
  8
Defpoints
 62
     0
100
AcDbPoint
 10
249.444248
 20
225.434018
 30
0.0
  0
POINT
  5
237
330
22B
100
AcDbEntity
  8
Defpoints
 62
     0
100
AcDbPoint
 10
255.744248
 20
244.434018
 30
0.0
  0
POINT
  5
238
330
22B
100
AcDbEntity
  8
Defpoints
 62
     0
100
AcDbPoint
 10
255.744248
 20
216.011173
 30
0.0
  0
ENDBLK
  5
22D
330
22B
100
AcDbEntity
  8
0
100
AcDbBlockEnd
  0
BLOCK
  5
240
330
239
100
AcDbEntity
  8
0
100
AcDbBlockBegin
  2
_U1
 70
     0
 10
0.0
 20
0.0
 30
0.0
  3
_U1
  1

  0
MTEXT
  5
23A
330
239
100
AcDbEntity
  8
60
  6
Continuous
 62
    95
440
 16777216
370
    13
100
AcDbMText
 10
236.604748
 20
215.88534
 30
0.0
 40
3.5
 41
0.0
 71
     7
 72
     5
  1
\W0.8874;6,3
  7
cesky
 73
     2
 44
0.8433729999999998
  0
LINE
  5
23B
330
239
100
AcDbEntity
  8
60
 62
    95
440
 16777216
370
    13
100
AcDbLine
 10
249.444248
 20
225.434018
 30
0.0
 11
249.444248
 21
215.011173
 31
0.0
  0
LINE
  5
23C
330
239
100
AcDbEntity
  8
60
 62
    95
440
 16777216
370
    13
100
AcDbLine
 10
255.744248
 20
244.434018
 30
0.0
 11
255.744248
 21
215.011173
 31
0.0
  0
LINE
  5
23D
330
239
100
AcDbEntity
  8
60
 62
    95
440
 16777216
370
    13
100
AcDbLine
 10
264.494248
 20
216.011173
 30
0.0
 11
236.419248
 21
216.011173
 31
0.0
  0
SOLID
  5
23E
330
239
100
AcDbEntity
  8
60
 62
    95
440
 16777216
370
    13
100
AcDbTrace
 10
249.444248
 20
216.011173
 30
0.0
 11
245.944251
 21
215.394029
 31
0.0
 12
245.944246
 22
216.628317
 32
0.0
 13
245.944246
 23
216.628317
 33
0.0
  0
SOLID
  5
23F
330
239
100
AcDbEntity
  8
60
 62
    95
440
 16777216
370
    13
100
AcDbTrace
 10
255.744248
 20
216.011173
 30
0.0
 11
259.244246
 21
216.628317
 31
0.0
 12
259.244251
 22
215.394029
 32
0.0
 13
259.244251
 23
215.394029
 33
0.0
  0
ENDBLK
  5
241
330
239
100
AcDbEntity
  8
0
100
AcDbBlockEnd
  0
BLOCK
  5
246
330
245
100
AcDbEntity
  8
0
100
AcDbBlockBegin
  2
*D5
 70
     1
 10
0.0
 20
0.0
 30
0.0
  3
*D5
  1

  0
LINE
  5
248
330
245
100
AcDbEntity
  8
0
 62
   254
370
    -2
100
AcDbLine
 10
289.444248
 20
286.4340180000001
 30
0.0
 11
289.444248
 21
288.653733
 31
0.0
  0
LINE
  5
249
330
245
100
AcDbEntity
  8
0
 62
   254
370
    -2
100
AcDbLine
 10
284.444862
 20
284.388506
 30
0.0
 11
284.444862
 21
288.653733
 31
0.0
  0
LINE
  5
24A
330
245
100
AcDbEntity
  8
0
 62
   254
370
    -2
100
AcDbLine
 10
292.944248
 20
287.653733
 30
0.0
 11
296.444248
 21
287.653733
 31
0.0
  0
LINE
  5
24B
330
245
100
AcDbEntity
  8
0
 62
   254
370
    -2
100
AcDbLine
 10
280.944862
 20
287.653733
 30
0.0
 11
277.444862
 21
287.653733
 31
0.0
  0
SOLID
  5
24C
330
245
100
AcDbEntity
  8
0
 62
   254
100
AcDbTrace
 10
292.944248
 20
288.237067
 30
0.0
 11
292.944248
 21
287.0704
 31
0.0
 12
289.444248
 22
287.653733
 32
0.0
 13
289.444248
 23
287.653733
 33
0.0
  0
SOLID
  5
24D
330
245
100
AcDbEntity
  8
0
 62
   254
100
AcDbTrace
 10
280.944862
 20
287.0704
 30
0.0
 11
280.944862
 21
288.237067
 31
0.0
 12
284.444862
 22
287.653733
 32
0.0
 13
284.444862
 23
287.653733
 33
0.0
  0
MTEXT
  5
24E
330
245
100
AcDbEntity
  8
0
 62
   254
370
    13
100
AcDbMText
 10
286.944555
 20
292.903733
 30
0.0
 40
3.5
 41
0.0
 71
     5
 72
     1
  1
\A1;5
  7
cesky
 73
     1
 44
1.0
  0
POINT
  5
24F
330
245
100
AcDbEntity
  8
Defpoints
 62
     0
100
AcDbPoint
 10
289.444248
 20
286.4340180000001
 30
0.0
  0
POINT
  5
250
330
245
100
AcDbEntity
  8
Defpoints
 62
     0
100
AcDbPoint
 10
284.444862
 20
284.388506
 30
0.0
  0
POINT
  5
251
330
245
100
AcDbEntity
  8
Defpoints
 62
     0
100
AcDbPoint
 10
284.444862
 20
287.653733
 30
0.0
  0
ENDBLK
  5
247
330
245
100
AcDbEntity
  8
0
100
AcDbBlockEnd
  0
BLOCK
  5
259
330
252
100
AcDbEntity
  8
0
100
AcDbBlockBegin
  2
_U2
 70
     0
 10
0.0
 20
0.0
 30
0.0
  3
_U2
  1

  0
MTEXT
  5
253
330
252
100
AcDbEntity
  8
60
  6
Continuous
 62
   254
440
 16777216
370
    13
100
AcDbMText
 10
286.392555
 20
287.5279
 30
0.0
 40
3.5
 41
0.0
 71
     7
 72
     5
  1
\W0.6094;5
  7
cesky
 73
     2
 44
0.8433729999999998
  0
LINE
  5
254
330
252
100
AcDbEntity
  8
60
 62
   254
440
 16777216
370
    13
100
AcDbLine
 10
289.444248
 20
286.4340180000001
 30
0.0
 11
289.444248
 21
288.653733
 31
0.0
  0
LINE
  5
255
330
252
100
AcDbEntity
  8
60
 62
   254
440
 16777216
370
    13
100
AcDbLine
 10
284.444862
 20
284.388506
 30
0.0
 11
284.444862
 21
288.653733
 31
0.0
  0
LINE
  5
256
330
252
100
AcDbEntity
  8
60
 62
   254
440
 16777216
370
    13
100
AcDbLine
 10
298.194248
 20
287.653733
 30
0.0
 11
275.694862
 21
287.653733
 31
0.0
  0
SOLID
  5
257
330
252
100
AcDbEntity
  8
60
 62
   254
440
 16777216
370
    13
100
AcDbTrace
 10
289.444248
 20
287.653733
 30
0.0
 11
292.944246
 21
288.270878
 31
0.0
 12
292.9442509999999
 22
287.036589
 32
0.0
 13
292.9442509999999
 23
287.036589
 33
0.0
  0
SOLID
  5
258
330
252
100
AcDbEntity
  8
60
 62
   254
440
 16777216
370
    13
100
AcDbTrace
 10
284.444862
 20
287.653733
 30
0.0
 11
280.944865
 21
287.036589
 31
0.0
 12
280.94486
 22
288.270878
 32
0.0
 13
280.94486
 23
288.270878
 33
0.0
  0
ENDBLK
  5
25A
330
252
100
AcDbEntity
  8
0
100
AcDbBlockEnd
  0
BLOCK
  5
25F
330
25E
100
AcDbEntity
  8
0
100
AcDbBlockBegin
  2
*D7
 70
     1
 10
0.0
 20
0.0
 30
0.0
  3
*D7
  1

  0
LINE
  5
261
330
25E
100
AcDbEntity
  8
0
 62
   254
370
    -2
100
AcDbLine
 10
281.744248
 20
244.434018
 30
0.0
 11
301.070778
 21
244.434018
 31
0.0
  0
LINE
  5
262
330
25E
100
AcDbEntity
  8
0
 62
   254
370
    -2
100
AcDbLine
 10
291.444248
 20
284.4340180000001
 30
0.0
 11
301.070778
 21
284.4340180000001
 31
0.0
  0
LINE
  5
263
330
25E
100
AcDbEntity
  8
0
 62
   254
370
    -2
100
AcDbLine
 10
300.0707779999999
 20
244.434018
 30
0.0
 11
300.0707779999999
 21
284.4340180000001
 31
0.0
  0
SOLID
  5
264
330
25E
100
AcDbEntity
  8
0
 62
   254
100
AcDbTrace
 10
300.654111
 20
280.934018
 30
0.0
 11
299.4874450000001
 21
280.934018
 31
0.0
 12
300.0707779999999
 22
284.4340180000001
 32
0.0
 13
300.0707779999999
 23
284.4340180000001
 33
0.0
  0
MTEXT
  5
265
330
25E
100
AcDbEntity
  8
0
 62
   254
370
    13
100
AcDbMText
 10
294.820778
 20
234.600685
 30
0.0
 40
3.5
 41
0.0
 71
     5
 72
     1
  1
\A1;80
  7
cesky
 11
0.0
 21
1.0
 31
0.0
 73
     1
 44
1.0
  0
POINT
  5
266
330
25E
100
AcDbEntity
  8
Defpoints
 62
     0
100
AcDbPoint
 10
281.744248
 20
244.434018
 30
0.0
  0
POINT
  5
267
330
25E
100
AcDbEntity
  8
Defpoints
 62
     0
100
AcDbPoint
 10
291.444248
 20
284.4340180000001
 30
0.0
  0
POINT
  5
268
330
25E
100
AcDbEntity
  8
Defpoints
 62
     0
100
AcDbPoint
 10
300.0707779999999
 20
284.4340180000001
 30
0.0
  0
ENDBLK
  5
260
330
25E
100
AcDbEntity
  8
0
100
AcDbBlockEnd
  0
BLOCK
  5
26F
330
269
100
AcDbEntity
  8
0
100
AcDbBlockBegin
  2
_U3
 70
     0
 10
0.0
 20
0.0
 30
0.0
  3
_U3
  1

  0
ENDBLK
  5
270
330
269
100
AcDbEntity
  8
0
100
AcDbBlockEnd
  0
BLOCK
  5
275
330
274
100
AcDbEntity
  8
0
100
AcDbBlockBegin
  2
*D9
 70
     1
 10
0.0
 20
0.0
 30
0.0
  3
*D9
  1

  0
LINE
  5
277
330
274
100
AcDbEntity
  8
0
 62
    95
370
    -2
100
AcDbLine
 10
257.944248
 20
255.434018
 30
0.0
 11
230.303559
 21
255.434018
 31
0.0
  0
LINE
  5
278
330
274
100
AcDbEntity
  8
0
 62
    95
370
    -2
100
AcDbLine
 10
259.130303
 20
233.434018
 30
0.0
 11
230.303559
 21
233.434018
 31
0.0
  0
LINE
  5
279
330
274
100
AcDbEntity
  8
0
 62
    95
370
    -2
100
AcDbLine
 10
231.303559
 20
251.934018
 30
0.0
 11
231.303559
 21
236.934018
 31
0.0
  0
SOLID
  5
27A
330
274
100
AcDbEntity
  8
0
 62
    95
100
AcDbTrace
 10
231.886892
 20
251.934018
 30
0.0
 11
230.720226
 21
251.934018
 31
0.0
 12
231.303559
 22
255.434018
 32
0.0
 13
231.303559
 23
255.434018
 33
0.0
  0
SOLID
  5
27B
330
274
100
AcDbEntity
  8
0
 62
    95
100
AcDbTrace
 10
230.720226
 20
236.934018
 30
0.0
 11
231.886892
 21
236.934018
 31
0.0
 12
231.303559
 22
233.434018
 32
0.0
 13
231.303559
 23
233.434018
 33
0.0
  0
MTEXT
  5
27C
330
274
100
AcDbEntity
  8
0
 62
    95
370
    13
100
AcDbMText
 10
226.053559
 20
244.434018
 30
0.0
 40
3.5
 41
0.0
 71
     5
 72
     1
  1
\A1;22
  7
cesky
 11
0.0
 21
1.0
 31
0.0
 73
     1
 44
1.0
  0
POINT
  5
27D
330
274
100
AcDbEntity
  8
Defpoints
 62
     0
100
AcDbPoint
 10
257.944248
 20
255.434018
 30
0.0
  0
POINT
  5
27E
330
274
100
AcDbEntity
  8
Defpoints
 62
     0
100
AcDbPoint
 10
259.130303
 20
233.434018
 30
0.0
  0
POINT
  5
27F
330
274
100
AcDbEntity
  8
Defpoints
 62
     0
100
AcDbPoint
 10
231.303559
 20
233.434018
 30
0.0
  0
ENDBLK
  5
276
330
274
100
AcDbEntity
  8
0
100
AcDbBlockEnd
  0
BLOCK
  5
288
330
280
100
AcDbEntity
  8
0
100
AcDbBlockBegin
  2
_U4
 70
     0
 10
0.0
 20
0.0
 30
0.0
  3
_U4
  1

  0
ENDBLK
  5
289
330
280
100
AcDbEntity
  8
0
100
AcDbBlockEnd
  0
BLOCK
  5
28E
330
28D
100
AcDbEntity
  8
0
100
AcDbBlockBegin
  2
*D11
 70
     1
 10
0.0
 20
0.0
 30
0.0
  3
*D11
  1

  0
LINE
  5
290
330
28D
100
AcDbEntity
  8
0
 62
    95
370
    -2
100
AcDbLine
 10
259.26993
 20
264.434018
 30
0.0
 11
221.251137
 21
264.434018
 31
0.0
  0
LINE
  5
291
330
28D
100
AcDbEntity
  8
0
 62
    95
370
    -2
100
AcDbLine
 10
258.578993
 20
224.434018
 30
0.0
 11
221.251137
 21
224.434018
 31
0.0
  0
LINE
  5
292
330
28D
100
AcDbEntity
  8
0
 62
    95
370
    -2
100
AcDbLine
 10
222.251137
 20
260.934018
 30
0.0
 11
222.251137
 21
227.934018
 31
0.0
  0
SOLID
  5
293
330
28D
100
AcDbEntity
  8
0
 62
    95
100
AcDbTrace
 10
222.83447
 20
260.934018
 30
0.0
 11
221.667804
 21
260.934018
 31
0.0
 12
222.251137
 22
264.434018
 32
0.0
 13
222.251137
 23
264.434018
 33
0.0
  0
SOLID
  5
294
330
28D
100
AcDbEntity
  8
0
 62
    95
100
AcDbTrace
 10
221.667804
 20
227.934018
 30
0.0
 11
222.83447
 21
227.934018
 31
0.0
 12
222.251137
 22
224.434018
 32
0.0
 13
222.251137
 23
224.434018
 33
0.0
  0
MTEXT
  5
295
330
28D
100
AcDbEntity
  8
0
 62
    95
370
    13
100
AcDbMText
 10
217.001137
 20
244.434018
 30
0.0
 40
3.5
 41
0.0
 71
     5
 72
     1
  1
\A1;40
  7
cesky
 11
0.0
 21
1.0
 31
0.0
 73
     1
 44
1.0
  0
POINT
  5
296
330
28D
100
AcDbEntity
  8
Defpoints
 62
     0
100
AcDbPoint
 10
259.26993
 20
264.434018
 30
0.0
  0
POINT
  5
297
330
28D
100
AcDbEntity
  8
Defpoints
 62
     0
100
AcDbPoint
 10
258.578993
 20
224.434018
 30
0.0
  0
POINT
  5
298
330
28D
100
AcDbEntity
  8
Defpoints
 62
     0
100
AcDbPoint
 10
222.251137
 20
224.434018
 30
0.0
  0
ENDBLK
  5
28F
330
28D
100
AcDbEntity
  8
0
100
AcDbBlockEnd
  0
BLOCK
  5
2A1
330
299
100
AcDbEntity
  8
0
100
AcDbBlockBegin
  2
_U5
 70
     0
 10
0.0
 20
0.0
 30
0.0
  3
_U5
  1

  0
ENDBLK
  5
2A2
330
299
100
AcDbEntity
  8
0
100
AcDbBlockEnd
  0
BLOCK
  5
2A7
330
2A6
100
AcDbEntity
  8
0
100
AcDbBlockBegin
  2
*D13
 70
     1
 10
0.0
 20
0.0
 30
0.0
  3
*D13
  1

  0
LINE
  5
2A9
330
2A6
100
AcDbEntity
  8
0
 62
    95
370
    -2
100
AcDbLine
 10
252.594248
 20
249.634018
 30
0.0
 11
240.443195
 21
249.634018
 31
0.0
  0
LINE
  5
2AA
330
2A6
100
AcDbEntity
  8
0
 62
    95
370
    -2
100
AcDbLine
 10
252.594248
 20
239.234018
 30
0.0
 11
240.443195
 21
239.234018
 31
0.0
  0
LINE
  5
2AB
330
2A6
100
AcDbEntity
  8
0
 62
    95
370
    -2
100
AcDbLine
 10
241.443195
 20
253.134018
 30
0.0
 11
241.443195
 21
256.634018
 31
0.0
  0
LINE
  5
2AC
330
2A6
100
AcDbEntity
  8
0
 62
    95
370
    -2
100
AcDbLine
 10
241.443195
 20
235.734018
 30
0.0
 11
241.443195
 21
232.234018
 31
0.0
  0
SOLID
  5
2AD
330
2A6
100
AcDbEntity
  8
0
 62
    95
100
AcDbTrace
 10
240.859861
 20
253.134018
 30
0.0
 11
242.026528
 21
253.134018
 31
0.0
 12
241.443195
 22
249.634018
 32
0.0
 13
241.443195
 23
249.634018
 33
0.0
  0
SOLID
  5
2AE
330
2A6
100
AcDbEntity
  8
0
 62
    95
100
AcDbTrace
 10
242.026528
 20
235.734018
 30
0.0
 11
240.859861
 21
235.734018
 31
0.0
 12
241.443195
 22
239.234018
 32
0.0
 13
241.443195
 23
239.234018
 33
0.0
  0
MTEXT
  5
2AF
330
2A6
100
AcDbEntity
  8
0
 62
    95
370
    13
100
AcDbMText
 10
236.193195
 20
244.434018
 30
0.0
 40
3.5
 41
0.0
 71
     5
 72
     1
  1
\A1;10.4
  7
cesky
 11
0.0
 21
1.0
 31
0.0
 73
     1
 44
1.0
  0
POINT
  5
2B0
330
2A6
100
AcDbEntity
  8
Defpoints
 62
     0
100
AcDbPoint
 10
252.594248
 20
249.634018
 30
0.0
  0
POINT
  5
2B1
330
2A6
100
AcDbEntity
  8
Defpoints
 62
     0
100
AcDbPoint
 10
252.594248
 20
239.234018
 30
0.0
  0
POINT
  5
2B2
330
2A6
100
AcDbEntity
  8
Defpoints
 62
     0
100
AcDbPoint
 10
241.443195
 20
239.234018
 30
0.0
  0
ENDBLK
  5
2A8
330
2A6
100
AcDbEntity
  8
0
100
AcDbBlockEnd
  0
BLOCK
  5
2BA
330
2B3
100
AcDbEntity
  8
0
100
AcDbBlockBegin
  2
_U6
 70
     0
 10
0.0
 20
0.0
 30
0.0
  3
_U6
  1

  0
MTEXT
  5
2B4
330
2B3
100
AcDbEntity
  8
60
  6
Continuous
 62
    95
440
 16777216
370
    13
100
AcDbMText
 10
241.912028
 20
240.066518
 30
0.0
 40
3.5
 41
0.0
 71
     7
 72
     5
  1
\W0.8876;10,4
  7
cesky
 11
0.0000000000000001
 21
1.0
 31
0.0
 73
     2
 44
0.8433729999999998
  0
LINE
  5
2B5
330
2B3
100
AcDbEntity
  8
60
 62
    95
440
 16777216
370
    13
100
AcDbLine
 10
250.444248
 20
249.634018
 30
0.0
 11
240.443195
 21
249.634018
 31
0.0
  0
LINE
  5
2B6
330
2B3
100
AcDbEntity
  8
60
 62
    95
440
 16777216
370
    13
100
AcDbLine
 10
250.444248
 20
239.234018
 30
0.0
 11
240.443195
 21
239.234018
 31
0.0
  0
LINE
  5
2B7
330
2B3
100
AcDbEntity
  8
60
 62
    95
440
 16777216
370
    13
100
AcDbLine
 10
241.443195
 20
249.634018
 30
0.0
 11
241.443195
 21
239.234018
 31
0.0
  0
SOLID
  5
2B8
330
2B3
100
AcDbEntity
  8
60
 62
    95
440
 16777216
370
    13
100
AcDbTrace
 10
241.443195
 20
249.634018
 30
0.0
 11
242.060339
 21
246.134021
 31
0.0
 12
240.82605
 22
246.134016
 32
0.0
 13
240.82605
 23
246.134016
 33
0.0
  0
SOLID
  5
2B9
330
2B3
100
AcDbEntity
  8
60
 62
    95
440
 16777216
370
    13
100
AcDbTrace
 10
241.443195
 20
239.234018
 30
0.0
 11
240.82605
 21
242.734016
 31
0.0
 12
242.060339
 22
242.734021
 32
0.0
 13
242.060339
 23
242.734021
 33
0.0
  0
ENDBLK
  5
2BB
330
2B3
100
AcDbEntity
  8
0
100
AcDbBlockEnd
  0
ENDSEC
  0
SECTION
  2
ENTITIES
  0
POINT
  5
73
102
{ACAD_REACTORS
330
389
102
}
330
1F
100
AcDbEntity
  8
80
100
AcDbPoint
 10
249.444248
 20
244.434018
 30
0.0
  0
POINT
  5
75
330
1F
100
AcDbEntity
  8
SK6
 60
     1
100
AcDbPoint
 10
255.744248
 20
244.434018
 30
0.0
  0
POINT
  5
77
330
1F
100
AcDbEntity
  8
SK6
 60
     1
100
AcDbPoint
 10
250.444248
 20
244.434018
 30
0.0
  0
POINT
  5
78
330
1F
100
AcDbEntity
  8
4
 60
     1
100
AcDbPoint
 10
250.444248
 20
244.434018
 30
0.0
  0
POINT
  5
7A
330
1F
100
AcDbEntity
  8
4
 60
     1
100
AcDbPoint
 10
281.744248
 20
244.434018
 30
0.0
  0
POINT
  5
7B
330
1F
100
AcDbEntity
  8
SK6
 60
     1
100
AcDbPoint
 10
249.444248
 20
225.434018
 30
0.0
  0
POINT
  5
7C
330
1F
100
AcDbEntity
  8
SK6
 60
     1
100
AcDbPoint
 10
255.744248
 20
244.434018
 30
0.0
  0
LINE
  5
7D
330
1F
100
AcDbEntity
  8
1
100
AcDbLine
 10
289.144249
 20
242.039501
 30
0.0
 11
289.156704
 21
242.318582
 31
0.0
  0
LINE
  5
7F
330
1F
100
AcDbEntity
  8
1
100
AcDbLine
 10
284.5155759999999
 20
222.58285
 30
0.0
 11
284.491842
 21
220.629195
 31
0.0
  0
LINE
  5
80
330
1F
100
AcDbEntity
  8
1
100
AcDbLine
 10
284.491842
 20
220.629195
 30
0.0
 11
284.470078
 21
218.537624
 31
0.0
  0
LINE
  5
81
330
1F
100
AcDbEntity
  8
1
100
AcDbLine
 10
284.452825
 20
216.33736
 30
0.0
 11
284.447912
 21
216.1706
 31
0.0
  0
LINE
  5
82
330
1F
100
AcDbEntity
  8
1
100
AcDbLine
 10
284.447912
 20
216.1706
 30
0.0
 11
284.447825
 21
216.162249
 31
0.0
  0
LINE
  5
83
330
1F
100
AcDbEntity
  8
1
100
AcDbLine
 10
284.447825
 20
216.162249
 30
0.0
 11
284.686148
 21
213.03583
 31
0.0
  0
LINE
  5
84
330
1F
100
AcDbEntity
  8
1
100
AcDbLine
 10
284.686148
 20
213.03583
 30
0.0
 11
284.744248
 21
212.310596
 31
0.0
  0
LINE
  5
85
330
1F
100
AcDbEntity
  8
1
100
AcDbLine
 10
289.341283
 20
215.15636
 30
0.0
 11
289.302383
 21
215.155675
 31
0.0
  0
LINE
  5
86
330
1F
100
AcDbEntity
  8
1
100
AcDbLine
 10
289.341644
 20
204.478004
 30
0.0
 11
286.8441180000001
 21
204.434013
 31
0.0
  0
LINE
  5
87
330
1F
100
AcDbEntity
  8
1
100
AcDbLine
 10
286.743344
 20
204.530106
 30
0.0
 11
286.505021
 21
205.513258
 31
0.0
  0
LINE
  5
88
330
1F
100
AcDbEntity
  8
1
100
AcDbLine
 10
286.743344
 20
204.530106
 30
0.0
 11
286.8441180000001
 21
204.434013
 31
0.0
  0
LINE
  5
89
330
1F
100
AcDbEntity
  8
1
100
AcDbLine
 10
286.8441180000001
 20
204.434013
 30
0.0
 11
286.863033
 21
204.494331
 31
0.0
  0
LINE
  5
8A
330
1F
100
AcDbEntity
  8
1
100
AcDbLine
 10
289.2740769999999
 20
204.536798
 30
0.0
 11
289.341644
 21
204.478004
 31
0.0
  0
LINE
  5
8B
330
1F
100
AcDbEntity
  8
1
100
AcDbLine
 10
289.341644
 20
204.478004
 30
0.0
 11
289.440672
 21
204.577616
 31
0.0
  0
LINE
  5
8C
330
1F
100
AcDbEntity
  8
1
100
AcDbLine
 10
286.505021
 20
205.513258
 30
0.0
 11
286.396242
 21
206.030369
 31
0.0
  0
LINE
  5
8D
330
1F
100
AcDbEntity
  8
1
100
AcDbLine
 10
286.863033
 20
204.494331
 30
0.0
 11
286.505021
 21
205.513258
 31
0.0
  0
LINE
  5
8E
330
1F
100
AcDbEntity
  8
1
100
AcDbLine
 10
289.2740769999999
 20
204.536798
 30
0.0
 11
286.863033
 21
204.494331
 31
0.0
  0
LINE
  5
8F
330
1F
100
AcDbEntity
  8
1
100
AcDbLine
 10
289.202349
 20
205.560768
 30
0.0
 11
289.2740769999999
 21
204.536798
 31
0.0
  0
LINE
  5
90
330
1F
100
AcDbEntity
  8
1
100
AcDbLine
 10
289.09357
 20
206.077879
 30
0.0
 11
286.396242
 21
206.030369
 31
0.0
  0
LINE
  5
91
330
1F
100
AcDbEntity
  8
1
100
AcDbLine
 10
286.273683
 20
206.659822
 30
0.0
 11
286.265564
 21
207.459166
 31
0.0
  0
LINE
  5
92
330
1F
100
AcDbEntity
  8
1
100
AcDbLine
 10
289.396655
 20
209.745331
 30
0.0
 11
289.418419
 21
207.305916
 31
0.0
  0
LINE
  5
93
330
1F
100
AcDbEntity
  8
1
100
AcDbLine
 10
289.341718
 20
215.154295
 30
0.0
 11
289.396655
 21
209.745331
 31
0.0
  0
LINE
  5
94
330
1F
100
AcDbEntity
  8
1
100
AcDbLine
 10
289.341283
 20
215.15636
 30
0.0
 11
289.341718
 21
215.154295
 31
0.0
  0
LINE
  5
95
330
1F
100
AcDbEntity
  8
1
100
AcDbLine
 10
289.328446
 20
215.139335
 30
0.0
 11
289.341283
 21
215.15636
 31
0.0
  0
LINE
  5
96
330
1F
100
AcDbEntity
  8
1
100
AcDbLine
 10
286.799478
 20
242.28177
 30
0.0
 11
286.699327
 21
243.300135
 31
0.0
  0
LINE
  5
97
330
1F
100
AcDbEntity
  8
1
100
AcDbLine
 10
289.210523
 20
242.380363
 30
0.0
 11
286.799478
 21
242.28177
 31
0.0
  0
LINE
  5
98
330
1F
100
AcDbEntity
  8
1
100
AcDbLine
 10
289.396655
 20
243.410435
 30
0.0
 11
289.210523
 21
242.380363
 31
0.0
  0
LINE
  5
99
330
1F
100
AcDbEntity
  8
1
100
AcDbLine
 10
288.984282
 20
254.79689
 30
0.0
 11
288.971445
 21
255.118156
 31
0.0
  0
LINE
  5
9A
330
1F
100
AcDbEntity
  8
1
100
AcDbLine
 10
288.971445
 20
255.118156
 30
0.0
 11
288.97101
 21
255.127888
 31
0.0
  0
LINE
  5
9B
330
1F
100
AcDbEntity
  8
1
100
AcDbLine
 10
286.273683
 20
255.017587
 30
0.0
 11
286.36922
 21
255.119444
 31
0.0
  0
LINE
  5
9C
330
1F
100
AcDbEntity
  8
1
100
AcDbLine
 10
288.971445
 20
255.118156
 30
0.0
 11
286.274117
 21
255.007856
 31
0.0
  0
LINE
  5
9D
330
1F
100
AcDbEntity
  8
1
100
AcDbLine
 10
288.866746
 20
255.221573
 30
0.0
 11
288.97101
 21
255.127888
 31
0.0
  0
LINE
  5
9E
330
1F
100
AcDbEntity
  8
1
100
AcDbLine
 10
288.866746
 20
255.221573
 30
0.0
 11
286.36922
 21
255.119444
 31
0.0
  0
LINE
  5
9F
330
1F
100
AcDbEntity
  8
1
100
AcDbLine
 10
289.418419
 20
243.928949
 30
0.0
 11
286.721091
 21
243.818649
 31
0.0
  0
LINE
  5
A0
330
1F
100
AcDbEntity
  8
1
100
AcDbLine
 10
286.692151
 20
243.17129
 30
0.0
 11
286.699327
 21
243.300135
 31
0.0
  0
LINE
  5
A1
330
1F
100
AcDbEntity
  8
1
100
AcDbLine
 10
286.699327
 20
243.300135
 30
0.0
 11
286.721091
 21
243.818649
 31
0.0
  0
LINE
  5
A2
330
1F
100
AcDbEntity
  8
1
100
AcDbLine
 10
286.736909
 20
244.464347
 30
0.0
 11
286.743257
 21
244.447565
 31
0.0
  0
LINE
  5
A3
330
1F
100
AcDbEntity
  8
1
100
AcDbLine
 10
286.286954
 20
254.68659
 30
0.0
 11
286.274117
 21
255.007856
 31
0.0
  0
LINE
  5
A4
330
1F
100
AcDbEntity
  8
1
100
AcDbLine
 10
286.274117
 20
255.007856
 30
0.0
 11
286.273683
 21
255.017587
 31
0.0
  0
LINE
  5
A5
330
1F
100
AcDbEntity
  8
1
100
AcDbLine
 10
286.273683
 20
255.017587
 30
0.0
 11
286.266367
 21
254.886246
 31
0.0
  0
LINE
  5
A6
330
1F
100
AcDbEntity
  8
1
100
AcDbLine
 10
289.202349
 20
249.964512
 30
0.0
 11
289.09357
 21
252.401896
 31
0.0
  0
LINE
  5
A7
330
1F
100
AcDbEntity
  8
1
100
AcDbLine
 10
289.09357
 20
252.401896
 30
0.0
 11
286.396242
 21
252.291596
 31
0.0
  0
LINE
  5
A8
330
1F
100
AcDbEntity
  8
1
100
AcDbLine
 10
286.505021
 20
249.854212
 30
0.0
 11
286.396242
 21
252.291596
 31
0.0
  0
LINE
  5
A9
330
1F
100
AcDbEntity
  8
1
100
AcDbLine
 10
289.202349
 20
249.964512
 30
0.0
 11
289.2740769999999
 21
245.144102
 31
0.0
  0
LINE
  5
AA
330
1F
100
AcDbEntity
  8
1
100
AcDbLine
 10
289.440672
 20
244.559935
 30
0.0
 11
289.202349
 21
249.964512
 31
0.0
  0
LINE
  5
AB
330
1F
100
AcDbEntity
  8
1
100
AcDbLine
 10
286.863033
 20
245.045508
 30
0.0
 11
286.505021
 21
249.854212
 31
0.0
  0
LINE
  5
AC
330
1F
100
AcDbEntity
  8
1
100
AcDbLine
 10
286.743344
 20
244.449635
 30
0.0
 11
286.505021
 21
249.854212
 31
0.0
  0
LINE
  5
AD
330
1F
100
AcDbEntity
  8
1
100
AcDbLine
 10
286.8441180000001
 20
244.474519
 30
0.0
 11
286.863033
 21
245.045508
 31
0.0
  0
LINE
  5
AE
330
1F
100
AcDbEntity
  8
1
100
AcDbLine
 10
289.2740769999999
 20
245.144102
 30
0.0
 11
289.341644
 21
244.576649
 31
0.0
  0
LINE
  5
AF
330
1F
100
AcDbEntity
  8
1
100
AcDbLine
 10
289.2740769999999
 20
245.144102
 30
0.0
 11
286.863033
 21
245.045508
 31
0.0
  0
LINE
  5
B0
330
1F
100
AcDbEntity
  8
1
100
AcDbLine
 10
289.341718
 20
273.713742
 30
0.0
 11
289.396655
 21
279.122706
 31
0.0
  0
LINE
  5
B1
330
1F
100
AcDbEntity
  8
1
100
AcDbLine
 10
286.736909
 20
284.006719
 30
0.0
 11
286.743257
 21
284.328191
 31
0.0
  0
LINE
  5
B2
330
1F
100
AcDbEntity
  8
1
100
AcDbLine
 10
286.743257
 20
284.328191
 30
0.0
 11
286.743344
 21
284.337931
 31
0.0
  0
LINE
  5
B3
330
1F
100
AcDbEntity
  8
1
100
AcDbLine
 10
286.743344
 20
284.337931
 30
0.0
 11
286.505021
 21
283.354779
 31
0.0
  0
LINE
  5
B4
330
1F
100
AcDbEntity
  8
1
100
AcDbLine
 10
286.505021
 20
283.354779
 30
0.0
 11
286.416317
 21
282.933099
 31
0.0
  0
LINE
  5
B5
330
1F
100
AcDbEntity
  8
1
100
AcDbLine
 10
289.396655
 20
279.122706
 30
0.0
 11
289.210523
 21
274.306657
 31
0.0
  0
LINE
  5
B6
330
1F
100
AcDbEntity
  8
1
100
AcDbLine
 10
289.396655
 20
279.122706
 30
0.0
 11
289.418419
 21
281.56212
 31
0.0
  0
LINE
  5
B7
330
1F
100
AcDbEntity
  8
1
100
AcDbLine
 10
289.418419
 20
281.56212
 30
0.0
 11
286.721091
 21
281.609631
 31
0.0
  0
LINE
  5
B8
330
1F
100
AcDbEntity
  8
1
100
AcDbLine
 10
286.713376
 20
280.744858
 30
0.0
 11
286.721091
 21
281.609631
 31
0.0
  0
LINE
  5
B9
330
1F
100
AcDbEntity
  8
1
100
AcDbLine
 10
289.210523
 20
274.306657
 30
0.0
 11
289.24618
 21
273.736244
 31
0.0
  0
LINE
  5
BA
330
1F
100
AcDbEntity
  8
1
100
AcDbLine
 10
289.210523
 20
274.306657
 30
0.0
 11
289.144219
 21
274.307825
 31
0.0
  0
LINE
  5
BB
330
1F
100
AcDbEntity
  8
1
100
AcDbLine
 10
289.341283
 20
273.711677
 30
0.0
 11
289.14421
 21
273.715148
 31
0.0
  0
LINE
  5
BC
330
1F
100
AcDbEntity
  8
1
100
AcDbLine
 10
289.341283
 20
273.711677
 30
0.0
 11
289.341718
 21
273.713742
 31
0.0
  0
LINE
  5
BD
330
1F
100
AcDbEntity
  8
1
100
AcDbLine
 10
289.24618
 20
273.736244
 30
0.0
 11
289.341718
 21
273.713742
 31
0.0
  0
LINE
  5
BE
330
1F
100
AcDbEntity
  8
1
100
AcDbLine
 10
289.24618
 20
273.736244
 30
0.0
 11
289.144211
 21
273.73804
 31
0.0
  0
LINE
  5
BF
330
1F
100
AcDbEntity
  8
1
100
AcDbLine
 10
284.447912
 20
272.522291
 30
0.0
 11
284.447825
 21
272.527714
 31
0.0
  0
LINE
  5
C0
330
1F
100
AcDbEntity
  8
1
100
AcDbLine
 10
284.447825
 20
272.527714
 30
0.0
 11
284.452826
 21
272.530674
 31
0.0
  0
LINE
  5
C1
330
1F
100
AcDbEntity
  8
1
100
AcDbLine
 10
284.45426
 20
272.283109
 30
0.0
 11
284.447912
 21
272.522291
 31
0.0
  0
LINE
  5
C2
330
1F
100
AcDbEntity
  8
1
100
AcDbLine
 10
284.453095
 20
272.522506
 30
0.0
 11
284.447912
 21
272.522291
 31
0.0
  0
LINE
  5
C3
330
1F
100
AcDbEntity
  8
1
100
AcDbLine
 10
289.440585
 20
244.310172
 30
0.0
 11
289.423727
 21
244.310861
 31
0.0
  0
LINE
  5
C4
330
1F
100
AcDbEntity
  8
1
100
AcDbLine
 10
289.202349
 20
238.9035240000001
 30
0.0
 11
289.144249
 21
237.601695
 31
0.0
  0
LINE
  5
C5
330
1F
100
AcDbEntity
  8
1
100
AcDbLine
 10
289.440672
 20
244.308102
 30
0.0
 11
289.202349
 21
238.9035240000001
 31
0.0
  0
LINE
  5
C6
330
1F
100
AcDbEntity
  8
1
100
AcDbLine
 10
289.440585
 20
244.310172
 30
0.0
 11
289.440672
 21
244.308102
 31
0.0
  0
LINE
  5
C7
330
1F
100
AcDbEntity
  8
1
100
AcDbLine
 10
289.434236
 20
244.29339
 30
0.0
 11
289.440585
 21
244.310172
 31
0.0
  0
LINE
  5
C8
330
1F
100
AcDbEntity
  8
1
100
AcDbLine
 10
289.144248
 20
271.845873
 30
0.0
 11
287.180182
 21
271.845873
 31
0.0
  0
LINE
  5
CA
330
1F
100
AcDbEntity
  8
1
100
AcDbLine
 10
287.180182
 20
271.845873
 30
0.0
 11
287.169039
 21
270.233571
 31
0.0
  0
LINE
  5
CB
330
1F
100
AcDbEntity
  8
1
100
AcDbLine
 10
289.144248
 20
270.233571
 30
0.0
 11
287.169039
 21
270.233571
 31
0.0
  0
LINE
  5
CC
330
1F
100
AcDbEntity
  8
1
100
AcDbLine
 10
289.144248
 20
241.759671
 30
0.0
 11
289.144248
 21
242.318146
 31
0.0
  0
LINE
  5
CD
330
1F
100
AcDbEntity
  8
1
100
AcDbLine
 10
289.144248
 20
251.266358
 30
0.0
 11
289.144248
 21
254.062471
 31
0.0
  0
LINE
  5
CE
330
1F
100
AcDbEntity
  8
1
100
AcDbLine
 10
287.871546
 20
241.707375
 30
0.0
 11
287.846648
 21
242.265085
 31
0.0
  0
LINE
  5
CF
330
1F
100
AcDbEntity
  8
1
100
AcDbLine
 10
288.870562
 20
241.748379
 30
0.0
 11
288.845671
 21
242.305947
 31
0.0
  0
LINE
  5
D0
330
1F
100
AcDbEntity
  8
1
100
AcDbLine
 10
289.144248
 20
241.759571
 30
0.0
 11
289.144248
 21
240.478122
 31
0.0
  0
LINE
  5
D1
330
1F
100
AcDbEntity
  8
1
100
AcDbLine
 10
289.144248
 20
241.759571
 30
0.0
 11
288.870562
 21
241.748379
 31
0.0
  0
LINE
  5
D2
330
1F
100
AcDbEntity
  8
1
100
AcDbLine
 10
285.438856
 20
226.359091
 30
0.0
 11
285.430351
 21
225.829611
 31
0.0
  0
LINE
  5
D3
330
1F
100
AcDbEntity
  8
1
100
AcDbLine
 10
284.744248
 20
261.495299
 30
0.0
 11
284.744248
 21
261.06058
 31
0.0
  0
LINE
  5
D4
330
1F
100
AcDbEntity
  8
1
100
AcDbLine
 10
289.144248
 20
261.06058
 30
0.0
 11
289.144248
 21
261.495299
 31
0.0
  0
LINE
  5
D5
330
1F
100
AcDbEntity
  8
1
100
AcDbLine
 10
284.744248
 20
237.865105
 30
0.0
 11
284.744248
 21
231.636675
 31
0.0
  0
LINE
  5
D6
330
1F
100
AcDbEntity
  8
1
100
AcDbLine
 10
289.144248
 20
231.636675
 30
0.0
 11
289.144248
 21
237.865105
 31
0.0
  0
LINE
  5
D7
330
1F
100
AcDbEntity
  8
1
100
AcDbLine
 10
284.744248
 20
231.636675
 30
0.0
 11
284.744248
 21
226.385933
 31
0.0
  0
LINE
  5
D8
330
1F
100
AcDbEntity
  8
1
100
AcDbLine
 10
289.144248
 20
231.636675
 30
0.0
 11
289.144248
 21
217.399962
 31
0.0
  0
LINE
  5
D9
330
1F
100
AcDbEntity
  8
1
100
AcDbLine
 10
289.144248
 20
217.399962
 30
0.0
 11
287.206974
 21
217.399962
 31
0.0
  0
LINE
  5
DA
330
1F
100
AcDbEntity
  8
1
100
AcDbLine
 10
284.744248
 20
231.636675
 30
0.0
 11
289.144248
 21
231.636675
 31
0.0
  0
LINE
  5
DB
330
1F
100
AcDbEntity
  8
1
100
AcDbLine
 10
289.144248
 20
254.062345
 30
0.0
 11
289.015047
 21
254.057062
 31
0.0
  0
LINE
  5
DC
330
1F
100
AcDbEntity
  8
1
100
AcDbLine
 10
289.144248
 20
254.062345
 30
0.0
 11
289.144248
 21
255.719096
 31
0.0
  0
LINE
  5
DD
330
1F
100
AcDbEntity
  8
1
100
AcDbLine
 10
286.719457
 20
243.824248
 30
0.0
 11
286.676779
 21
242.803696
 31
0.0
  0
LINE
  5
DE
330
1F
100
AcDbEntity
  8
1
100
AcDbLine
 10
284.744248
 20
243.824248
 30
0.0
 11
284.744248
 21
242.803696
 31
0.0
  0
LINE
  5
DF
330
1F
100
AcDbEntity
  8
1
100
AcDbLine
 10
289.144248
 20
261.06058
 30
0.0
 11
289.144248
 21
255.719096
 31
0.0
  0
LINE
  5
E0
330
1F
100
AcDbEntity
  8
1
100
AcDbLine
 10
284.744248
 20
261.06058
 30
0.0
 11
289.144248
 21
261.06058
 31
0.0
  0
LINE
  5
E1
330
1F
100
AcDbEntity
  8
1
100
AcDbLine
 10
284.744248
 20
261.06058
 30
0.0
 11
284.744248
 21
244.701162
 31
0.0
  0
LINE
  5
E2
330
1F
100
AcDbEntity
  8
1
100
AcDbLine
 10
286.708314
 20
244.701162
 30
0.0
 11
286.719457
 21
243.824248
 31
0.0
  0
LINE
  5
E3
330
1F
100
AcDbEntity
  8
1
100
AcDbLine
 10
286.708314
 20
244.701162
 30
0.0
 11
284.744248
 21
244.701162
 31
0.0
  0
LINE
  5
E4
330
1F
100
AcDbEntity
  8
1
100
AcDbLine
 10
284.744248
 20
244.701162
 30
0.0
 11
284.744248
 21
243.824248
 31
0.0
  0
LINE
  5
E5
330
1F
100
AcDbEntity
  8
1
100
AcDbLine
 10
286.719457
 20
243.824248
 30
0.0
 11
284.744248
 21
243.824248
 31
0.0
  0
LINE
  5
E6
330
1F
100
AcDbEntity
  8
1
100
AcDbLine
 10
289.24618
 20
242.322206
 30
0.0
 11
286.748654
 21
242.220076
 31
0.0
  0
LINE
  5
E7
330
1F
100
AcDbEntity
  8
1
100
AcDbLine
 10
289.341718
 20
242.424062
 30
0.0
 11
289.396655
 21
243.410435
 31
0.0
  0
LINE
  5
E8
330
1F
100
AcDbEntity
  8
1
100
AcDbLine
 10
289.210523
 20
242.380363
 30
0.0
 11
289.24618
 21
242.322206
 31
0.0
  0
LINE
  5
E9
330
1F
100
AcDbEntity
  8
1
100
AcDbLine
 10
289.24618
 20
242.322206
 30
0.0
 11
289.341718
 21
242.424062
 31
0.0
  0
LINE
  5
EA
330
1F
100
AcDbEntity
  8
1
100
AcDbLine
 10
286.677689
 20
242.283841
 30
0.0
 11
286.748654
 21
242.220076
 31
0.0
  0
LINE
  5
EB
330
1F
100
AcDbEntity
  8
1
100
AcDbLine
 10
286.748654
 20
242.220076
 30
0.0
 11
286.799478
 21
242.28177
 31
0.0
  0
LINE
  5
EC
330
1F
100
AcDbEntity
  8
1
100
AcDbLine
 10
289.396655
 20
243.410435
 30
0.0
 11
289.418419
 21
243.928949
 31
0.0
  0
LINE
  5
ED
330
1F
100
AcDbEntity
  8
1
100
AcDbLine
 10
287.644192
 20
261.764456
 30
0.0
 11
286.244305
 21
261.764456
 31
0.0
  0
LINE
  5
EE
330
1F
100
AcDbEntity
  8
1
100
AcDbLine
 10
286.690455
 20
241.721464
 30
0.0
 11
284.744248
 21
241.721464
 31
0.0
  0
LINE
  5
EF
330
1F
100
AcDbEntity
  8
1
100
AcDbLine
 10
289.144249
 20
216.139852
 30
0.0
 11
289.219158
 21
215.783748
 31
0.0
  0
LINE
  5
F0
330
1F
100
AcDbEntity
  8
1
100
AcDbLine
 10
288.984282
 20
206.722293
 30
0.0
 11
288.971445
 21
206.705268
 31
0.0
  0
LINE
  5
F1
330
1F
100
AcDbEntity
  8
1
100
AcDbLine
 10
289.202349
 20
205.560768
 30
0.0
 11
289.09357
 21
206.077879
 31
0.0
  0
LINE
  5
F2
330
1F
100
AcDbEntity
  8
1
100
AcDbLine
 10
289.440672
 20
204.577616
 30
0.0
 11
289.202349
 21
205.560768
 31
0.0
  0
LINE
  5
F3
330
1F
100
AcDbEntity
  8
1
100
AcDbLine
 10
289.440585
 20
204.587356
 30
0.0
 11
289.440672
 21
204.577616
 31
0.0
  0
LINE
  5
F4
330
1F
100
AcDbEntity
  8
1
100
AcDbLine
 10
289.434236
 20
204.908828
 30
0.0
 11
289.440585
 21
204.587356
 31
0.0
  0
LINE
  5
F5
330
1F
100
AcDbEntity
  8
1
100
AcDbLine
 10
286.404878
 20
207.252738
 30
0.0
 11
286.397014
 21
207.456216
 31
0.0
  0
LINE
  5
F6
330
1F
100
AcDbEntity
  8
1
100
AcDbLine
 10
286.273683
 20
206.659822
 30
0.0
 11
286.36922
 21
206.682325
 31
0.0
  0
LINE
  5
F7
330
1F
100
AcDbEntity
  8
1
100
AcDbLine
 10
286.274117
 20
206.657758
 30
0.0
 11
286.273683
 21
206.659822
 31
0.0
  0
LINE
  5
F8
330
1F
100
AcDbEntity
  8
1
100
AcDbLine
 10
288.971445
 20
206.705268
 30
0.0
 11
286.274117
 21
206.657758
 31
0.0
  0
LINE
  5
F9
330
1F
100
AcDbEntity
  8
1
100
AcDbLine
 10
288.971445
 20
206.705268
 30
0.0
 11
288.97101
 21
206.707332
 31
0.0
  0
LINE
  5
FA
330
1F
100
AcDbEntity
  8
1
100
AcDbLine
 10
286.36922
 20
206.682325
 30
0.0
 11
286.404878
 21
207.252738
 31
0.0
  0
LINE
  5
FB
330
1F
100
AcDbEntity
  8
1
100
AcDbLine
 10
288.866746
 20
206.726316
 30
0.0
 11
286.36922
 21
206.682325
 31
0.0
  0
LINE
  5
FC
330
1F
100
AcDbEntity
  8
1
100
AcDbLine
 10
288.815922
 20
207.295205
 30
0.0
 11
286.404878
 21
207.252738
 31
0.0
  0
LINE
  5
FD
330
1F
100
AcDbEntity
  8
1
100
AcDbLine
 10
288.82269
 20
207.621006
 30
0.0
 11
288.815922
 21
207.295205
 31
0.0
  0
LINE
  5
FE
330
1F
100
AcDbEntity
  8
1
100
AcDbLine
 10
288.815922
 20
207.295205
 30
0.0
 11
288.866746
 21
206.726316
 31
0.0
  0
LINE
  5
FF
330
1F
100
AcDbEntity
  8
1
100
AcDbLine
 10
288.866746
 20
206.726316
 30
0.0
 11
288.97101
 21
206.707332
 31
0.0
  0
LINE
  5
100
330
1F
100
AcDbEntity
  8
1
100
AcDbLine
 10
288.97101
 20
206.707332
 30
0.0
 11
288.961712
 21
207.6228
 31
0.0
  0
LINE
  5
101
330
1F
100
AcDbEntity
  8
1
100
AcDbLine
 10
284.744248
 20
216.273538
 30
0.0
 11
284.744248
 21
209.70928
 31
0.0
  0
LINE
  5
102
330
1F
100
AcDbEntity
  8
1
100
AcDbLine
 10
289.144248
 20
209.70928
 30
0.0
 11
289.144248
 21
217.39992
 31
0.0
  0
LINE
  5
103
330
1F
100
AcDbEntity
  8
1
100
AcDbLine
 10
284.744248
 20
209.70928
 30
0.0
 11
289.144248
 21
209.70928
 31
0.0
  0
LINE
  5
104
330
1F
100
AcDbEntity
  8
1
100
AcDbLine
 10
284.744248
 20
278.441615
 30
0.0
 11
284.744248
 21
276.557413
 31
0.0
  0
LINE
  5
105
330
1F
100
AcDbEntity
  8
1
100
AcDbLine
 10
284.744248
 20
263.658881
 30
0.0
 11
284.744248
 21
263.312086
 31
0.0
  0
LINE
  5
106
330
1F
100
AcDbEntity
  8
1
100
AcDbLine
 10
286.044786
 20
263.637486
 30
0.0
 11
286.016951
 21
263.290465
 31
0.0
  0
LINE
  5
107
330
1F
100
AcDbEntity
  8
1
100
AcDbLine
 10
285.045719
 20
263.653912
 30
0.0
 11
285.017934
 21
263.307519
 31
0.0
  0
LINE
  5
108
330
1F
100
AcDbEntity
  8
1
100
AcDbLine
 10
284.744248
 20
226.385828
 30
0.0
 11
284.744248
 21
226.12017
 31
0.0
  0
LINE
  5
109
330
1F
100
AcDbEntity
  8
1
100
AcDbLine
 10
284.744248
 20
262.84255
 30
0.0
 11
284.744248
 21
263.312024
 31
0.0
  0
LINE
  5
10A
330
1F
100
AcDbEntity
  8
1
100
AcDbLine
 10
285.017934
 20
263.307519
 30
0.0
 11
284.744248
 21
263.312024
 31
0.0
  0
LINE
  5
10B
330
1F
100
AcDbEntity
  8
1
100
AcDbLine
 10
289.144248
 20
266.123227
 30
0.0
 11
289.144248
 21
270.233571
 31
0.0
  0
LINE
  5
10C
330
1F
100
AcDbEntity
  8
1
100
AcDbLine
 10
287.169039
 20
270.233571
 30
0.0
 11
287.211718
 21
266.123227
 31
0.0
  0
LINE
  5
10D
330
1F
100
AcDbEntity
  8
1
100
AcDbLine
 10
289.144248
 20
270.233571
 30
0.0
 11
289.144248
 21
271.845873
 31
0.0
  0
LINE
  5
10E
330
1F
100
AcDbEntity
  8
1
100
AcDbLine
 10
284.758056
 20
226.385391
 30
0.0
 11
284.669338
 21
224.681532
 31
0.0
  0
LINE
  5
10F
330
1F
100
AcDbEntity
  8
1
100
AcDbLine
 10
284.560051
 20
222.532346
 30
0.0
 11
284.547213
 21
222.317215
 31
0.0
  0
LINE
  5
110
330
1F
100
AcDbEntity
  8
1
100
AcDbLine
 10
284.547213
 20
222.317215
 30
0.0
 11
284.546779
 21
222.3088740000001
 31
0.0
  0
LINE
  5
111
330
1F
100
AcDbEntity
  8
1
100
AcDbLine
 10
287.498152
 20
225.866518
 30
0.0
 11
287.483619
 21
225.657496
 31
0.0
  0
LINE
  5
112
330
1F
100
AcDbEntity
  8
1
100
AcDbLine
 10
287.614814
 20
225.207342
 30
0.0
 11
287.626552
 21
225.875497
 31
0.0
  0
LINE
  5
113
330
1F
100
AcDbEntity
  8
1
100
AcDbLine
 10
284.917052
 20
225.310589
 30
0.0
 11
284.917486
 21
225.31893
 31
0.0
  0
LINE
  5
114
330
1F
100
AcDbEntity
  8
1
100
AcDbLine
 10
287.61438
 20
225.199
 30
0.0
 11
284.917052
 21
225.310589
 31
0.0
  0
LINE
  5
115
330
1F
100
AcDbEntity
  8
1
100
AcDbLine
 10
287.61438
 20
225.199
 30
0.0
 11
287.614814
 21
225.207342
 31
0.0
  0
LINE
  5
116
330
1F
100
AcDbEntity
  8
1
100
AcDbLine
 10
287.519276
 20
225.295276
 30
0.0
 11
287.614814
 21
225.207342
 31
0.0
  0
LINE
  5
117
330
1F
100
AcDbEntity
  8
1
100
AcDbLine
 10
285.072575
 20
225.757241
 30
0.0
 11
285.049598
 21
226.374141
 31
0.0
  0
LINE
  5
118
330
1F
100
AcDbEntity
  8
1
100
AcDbLine
 10
284.917486
 20
225.31893
 30
0.0
 11
284.9361
 21
226.378529
 31
0.0
  0
LINE
  5
119
330
1F
100
AcDbEntity
  8
1
100
AcDbLine
 10
284.917486
 20
225.31893
 30
0.0
 11
285.021751
 21
225.398599
 31
0.0
  0
LINE
  5
11A
330
1F
100
AcDbEntity
  8
1
100
AcDbLine
 10
285.021751
 20
225.398599
 30
0.0
 11
285.072575
 21
225.757241
 31
0.0
  0
LINE
  5
11B
330
1F
100
AcDbEntity
  8
1
100
AcDbLine
 10
287.519276
 20
225.295276
 30
0.0
 11
285.021751
 21
225.398599
 31
0.0
  0
LINE
  5
11C
330
1F
100
AcDbEntity
  8
1
100
AcDbLine
 10
287.483619
 20
225.657496
 30
0.0
 11
287.519276
 21
225.295276
 31
0.0
  0
LINE
  5
11D
330
1F
100
AcDbEntity
  8
1
100
AcDbLine
 10
287.483619
 20
225.657496
 30
0.0
 11
285.072575
 21
225.757241
 31
0.0
  0
LINE
  5
11E
330
1F
100
AcDbEntity
  8
1
100
AcDbLine
 10
284.744248
 20
282.933092
 30
0.0
 11
284.744248
 21
281.529867
 31
0.0
  0
LINE
  5
11F
330
1F
100
AcDbEntity
  8
1
100
AcDbLine
 10
286.708314
 20
282.933092
 30
0.0
 11
286.719457
 21
281.529867
 31
0.0
  0
LINE
  5
120
330
1F
100
AcDbEntity
  8
1
100
AcDbLine
 10
286.708314
 20
282.933092
 30
0.0
 11
284.744248
 21
282.933092
 31
0.0
  0
LINE
  5
121
330
1F
100
AcDbEntity
  8
1
100
AcDbLine
 10
286.719457
 20
281.529867
 30
0.0
 11
286.712466
 21
280.744819
 31
0.0
  0
LINE
  5
122
330
1F
100
AcDbEntity
  8
1
100
AcDbLine
 10
286.719457
 20
281.529867
 30
0.0
 11
284.744248
 21
281.529867
 31
0.0
  0
LINE
  5
123
330
1F
100
AcDbEntity
  8
1
100
AcDbLine
 10
288.4566089999999
 20
207.61632
 30
0.0
 11
288.458146
 21
207.444643
 31
0.0
  0
LINE
  5
124
330
1F
100
AcDbEntity
  8
1
100
AcDbLine
 10
286.416313
 20
205.934945
 30
0.0
 11
284.744248
 21
205.934945
 31
0.0
  0
LINE
  5
125
330
1F
100
AcDbEntity
  8
1
100
AcDbLine
 10
250.444248
 20
264.434018
 30
0.0
 11
250.444248
 21
249.634018
 31
0.0
  0
LINE
  5
126
330
1F
100
AcDbEntity
  8
1
100
AcDbLine
 10
255.744248
 20
248.634018
 30
0.0
 11
255.744248
 21
240.234018
 31
0.0
  0
LINE
  5
127
330
1F
100
AcDbEntity
  8
1
100
AcDbLine
 10
249.444248
 20
238.234018
 30
0.0
 11
249.444248
 21
225.434018
 31
0.0
  0
LINE
  5
128
330
1F
100
AcDbEntity
  8
1
100
AcDbLine
 10
287.18917
 20
268.194442
 30
0.0
 11
287.167405
 21
270.286014
 31
0.0
  0
LINE
  5
129
330
1F
100
AcDbEntity
  8
1
100
AcDbLine
 10
287.196346
 20
267.603732
 30
0.0
 11
287.18917
 21
268.194442
 31
0.0
  0
LINE
  5
12A
330
1F
100
AcDbEntity
  8
1
100
AcDbLine
 10
287.614814
 20
278.628122
 30
0.0
 11
287.622129
 21
278.025965
 31
0.0
  0
LINE
  5
12B
330
1F
100
AcDbEntity
  8
1
100
AcDbLine
 10
287.61438
 20
278.622701
 30
0.0
 11
287.614814
 21
278.628122
 31
0.0
  0
LINE
  5
12C
330
1F
100
AcDbEntity
  8
1
100
AcDbLine
 10
287.601542
 20
278.3834930000001
 30
0.0
 11
287.61438
 21
278.622701
 31
0.0
  0
LINE
  5
12D
330
1F
100
AcDbEntity
  8
1
100
AcDbLine
 10
287.383476
 20
275.787808
 30
0.0
 11
287.492254
 21
277.145645
 31
0.0
  0
LINE
  5
12E
330
1F
100
AcDbEntity
  8
1
100
AcDbLine
 10
287.151588
 20
272.437589
 30
0.0
 11
287.145239
 21
272.653037
 31
0.0
  0
LINE
  5
12F
330
1F
100
AcDbEntity
  8
1
100
AcDbLine
 10
284.447825
 20
272.705788
 30
0.0
 11
284.546853
 21
272.788043
 31
0.0
  0
LINE
  5
130
330
1F
100
AcDbEntity
  8
1
100
AcDbLine
 10
284.447912
 20
272.697437
 30
0.0
 11
284.447825
 21
272.705788
 31
0.0
  0
LINE
  5
131
330
1F
100
AcDbEntity
  8
1
100
AcDbLine
 10
287.145239
 20
272.653037
 30
0.0
 11
284.447912
 21
272.697437
 31
0.0
  0
LINE
  5
132
330
1F
100
AcDbEntity
  8
1
100
AcDbLine
 10
287.145239
 20
272.653037
 30
0.0
 11
287.145152
 21
272.661388
 31
0.0
  0
LINE
  5
133
330
1F
100
AcDbEntity
  8
1
100
AcDbLine
 10
284.546853
 20
272.788043
 30
0.0
 11
284.614419
 21
273.147718
 31
0.0
  0
LINE
  5
134
330
1F
100
AcDbEntity
  8
1
100
AcDbLine
 10
287.044378
 20
272.7469319999999
 30
0.0
 11
284.546853
 21
272.788043
 31
0.0
  0
LINE
  5
135
330
1F
100
AcDbEntity
  8
1
100
AcDbLine
 10
287.025463
 20
273.108031
 30
0.0
 11
284.614419
 21
273.147718
 31
0.0
  0
LINE
  5
136
330
1F
100
AcDbEntity
  8
1
100
AcDbLine
 10
287.383476
 20
275.787808
 30
0.0
 11
287.025463
 21
273.108031
 31
0.0
  0
LINE
  5
137
330
1F
100
AcDbEntity
  8
1
100
AcDbLine
 10
287.025463
 20
273.108031
 30
0.0
 11
287.044378
 21
272.7469319999999
 31
0.0
  0
LINE
  5
138
330
1F
100
AcDbEntity
  8
1
100
AcDbLine
 10
287.044378
 20
272.7469319999999
 30
0.0
 11
287.145152
 21
272.661388
 31
0.0
  0
LINE
  5
139
330
1F
100
AcDbEntity
  8
1
100
AcDbLine
 10
287.145152
 20
272.661388
 30
0.0
 11
287.383476
 21
275.787808
 31
0.0
  0
LINE
  5
13A
330
1F
100
AcDbEntity
  8
1
100
AcDbLine
 10
289.144249
 20
272.728185
 30
0.0
 11
289.219158
 21
273.084289
 31
0.0
  0
LINE
  5
13B
330
1F
100
AcDbEntity
  8
1
100
AcDbLine
 10
289.434236
 20
283.959209
 30
0.0
 11
289.440585
 21
284.280681
 31
0.0
  0
LINE
  5
13C
330
1F
100
AcDbEntity
  8
1
100
AcDbLine
 10
289.440585
 20
284.280681
 30
0.0
 11
289.440672
 21
284.290421
 31
0.0
  0
LINE
  5
13D
330
1F
100
AcDbEntity
  8
1
100
AcDbLine
 10
286.743344
 20
284.337931
 30
0.0
 11
286.8441180000001
 21
284.434024
 31
0.0
  0
LINE
  5
13E
330
1F
100
AcDbEntity
  8
1
100
AcDbLine
 10
289.440585
 20
284.280681
 30
0.0
 11
286.743257
 21
284.328191
 31
0.0
  0
LINE
  5
13F
330
1F
100
AcDbEntity
  8
1
100
AcDbLine
 10
289.341644
 20
284.390033
 30
0.0
 11
289.440672
 21
284.290421
 31
0.0
  0
LINE
  5
140
330
1F
100
AcDbEntity
  8
1
100
AcDbLine
 10
289.341644
 20
284.390033
 30
0.0
 11
286.8441180000001
 21
284.434024
 31
0.0
  0
LINE
  5
141
330
1F
100
AcDbEntity
  8
1
100
AcDbLine
 10
289.219158
 20
273.084289
 30
0.0
 11
289.144223
 21
273.085609
 31
0.0
  0
LINE
  5
142
330
1F
100
AcDbEntity
  8
1
100
AcDbLine
 10
287.044378
 20
216.178382
 30
0.0
 11
284.546853
 21
216.281705
 31
0.0
  0
LINE
  5
143
330
1F
100
AcDbEntity
  8
1
100
AcDbLine
 10
287.145152
 20
216.228734
 30
0.0
 11
287.383476
 21
220.745541
 31
0.0
  0
LINE
  5
144
330
1F
100
AcDbEntity
  8
1
100
AcDbLine
 10
287.025463
 20
216.624783
 30
0.0
 11
287.044378
 21
216.178382
 31
0.0
  0
LINE
  5
145
330
1F
100
AcDbEntity
  8
1
100
AcDbLine
 10
287.044378
 20
216.178382
 30
0.0
 11
287.145152
 21
216.228734
 31
0.0
  0
LINE
  5
146
330
1F
100
AcDbEntity
  8
1
100
AcDbLine
 10
284.447825
 20
216.340323
 30
0.0
 11
284.546853
 21
216.281705
 31
0.0
  0
LINE
  5
147
330
1F
100
AcDbEntity
  8
1
100
AcDbLine
 10
284.546853
 20
216.281705
 30
0.0
 11
284.614419
 21
216.724528
 31
0.0
  0
LINE
  5
148
330
1F
100
AcDbEntity
  8
1
100
AcDbLine
 10
287.383476
 20
220.745541
 30
0.0
 11
287.492254
 21
222.834684
 31
0.0
  0
LINE
  5
149
330
1F
100
AcDbEntity
  8
1
100
AcDbLine
 10
284.614419
 20
216.724528
 30
0.0
 11
284.686148
 21
220.857129
 31
0.0
  0
LINE
  5
14A
330
1F
100
AcDbEntity
  8
1
100
AcDbLine
 10
287.025463
 20
216.624783
 30
0.0
 11
284.614419
 21
216.724528
 31
0.0
  0
LINE
  5
14B
330
1F
100
AcDbEntity
  8
1
100
AcDbLine
 10
287.383476
 20
220.745541
 30
0.0
 11
287.025463
 21
216.624783
 31
0.0
  0
LINE
  5
14C
330
1F
100
AcDbEntity
  8
1
100
AcDbLine
 10
287.492254
 20
222.834684
 30
0.0
 11
284.794927
 21
222.946273
 31
0.0
  0
LINE
  5
14D
330
1F
100
AcDbEntity
  8
1
100
AcDbLine
 10
287.601542
 20
224.98387
 30
0.0
 11
287.61438
 21
225.199
 31
0.0
  0
LINE
  5
14E
330
1F
100
AcDbEntity
  8
1
100
AcDbLine
 10
284.546779
 20
222.3088740000001
 30
0.0
 11
284.491842
 21
219.18163
 31
0.0
  0
LINE
  5
14F
330
1F
100
AcDbEntity
  8
1
100
AcDbLine
 10
284.491842
 20
219.18163
 30
0.0
 11
284.470078
 21
217.823348
 31
0.0
  0
LINE
  5
150
330
1F
100
AcDbEntity
  8
1
100
AcDbLine
 10
284.45426
 20
216.584928
 30
0.0
 11
284.447912
 21
216.345746
 31
0.0
  0
LINE
  5
151
330
1F
100
AcDbEntity
  8
1
100
AcDbLine
 10
284.447912
 20
216.345746
 30
0.0
 11
284.447825
 21
216.340323
 31
0.0
  0
LINE
  5
152
330
1F
100
AcDbEntity
  8
1
100
AcDbLine
 10
284.447825
 20
216.340323
 30
0.0
 11
284.686148
 21
220.857129
 31
0.0
  0
LINE
  5
153
330
1F
100
AcDbEntity
  8
1
100
AcDbLine
 10
284.686148
 20
220.857129
 30
0.0
 11
284.794927
 21
222.946273
 31
0.0
  0
LINE
  5
154
330
1F
100
AcDbEntity
  8
1
100
AcDbLine
 10
284.904214
 20
225.095459
 30
0.0
 11
284.917052
 21
225.310589
 31
0.0
  0
LINE
  5
155
330
1F
100
AcDbEntity
  8
1
100
AcDbLine
 10
286.743344
 20
244.449635
 30
0.0
 11
286.8441180000001
 21
244.474519
 31
0.0
  0
LINE
  5
156
330
1F
100
AcDbEntity
  8
1
100
AcDbLine
 10
286.743257
 20
244.447565
 30
0.0
 11
286.743344
 21
244.449635
 31
0.0
  0
LINE
  5
157
330
1F
100
AcDbEntity
  8
1
100
AcDbLine
 10
289.440585
 20
244.557865
 30
0.0
 11
286.743257
 21
244.447565
 31
0.0
  0
LINE
  5
158
330
1F
100
AcDbEntity
  8
1
100
AcDbLine
 10
289.440585
 20
244.557865
 30
0.0
 11
289.440672
 21
244.559935
 31
0.0
  0
LINE
  5
159
330
1F
100
AcDbEntity
  8
1
100
AcDbLine
 10
289.341644
 20
244.576649
 30
0.0
 11
289.440672
 21
244.559935
 31
0.0
  0
LINE
  5
15A
330
1F
100
AcDbEntity
  8
1
100
AcDbLine
 10
289.341644
 20
244.576649
 30
0.0
 11
286.8441180000001
 21
244.474519
 31
0.0
  0
LINE
  5
15B
330
1F
100
AcDbEntity
  8
1
100
AcDbLine
 10
284.917052
 20
278.6671
 30
0.0
 11
284.917486
 21
278.672521
 31
0.0
  0
LINE
  5
15C
330
1F
100
AcDbEntity
  8
1
100
AcDbLine
 10
284.917486
 20
278.672521
 30
0.0
 11
285.021751
 21
278.725344
 31
0.0
  0
LINE
  5
15D
330
1F
100
AcDbEntity
  8
1
100
AcDbLine
 10
287.519276
 20
278.684234
 30
0.0
 11
287.614814
 21
278.628122
 31
0.0
  0
LINE
  5
15E
330
1F
100
AcDbEntity
  8
1
100
AcDbLine
 10
287.519276
 20
278.684234
 30
0.0
 11
285.021751
 21
278.725344
 31
0.0
  0
LINE
  5
15F
330
1F
100
AcDbEntity
  8
1
100
AcDbLine
 10
284.904214
 20
278.427892
 30
0.0
 11
284.917052
 21
278.6671
 31
0.0
  0
LINE
  5
160
330
1F
100
AcDbEntity
  8
1
100
AcDbLine
 10
287.61438
 20
278.622701
 30
0.0
 11
284.917052
 21
278.6671
 31
0.0
  0
LINE
  5
161
330
1F
100
AcDbEntity
  8
1
100
AcDbLine
 10
287.139842
 20
263.619434
 30
0.0
 11
284.642317
 21
263.660544
 31
0.0
  0
LINE
  5
162
330
1F
100
AcDbEntity
  8
1
100
AcDbLine
 10
284.546779
 20
263.716656
 30
0.0
 11
284.491842
 21
268.238842
 31
0.0
  0
LINE
  5
163
330
1F
100
AcDbEntity
  8
1
100
AcDbLine
 10
284.546779
 20
263.716656
 30
0.0
 11
284.642317
 21
263.660544
 31
0.0
  0
LINE
  5
164
330
1F
100
AcDbEntity
  8
1
100
AcDbLine
 10
284.642317
 20
263.660544
 30
0.0
 11
284.677974
 21
264.10501
 31
0.0
  0
LINE
  5
165
330
1F
100
AcDbEntity
  8
1
100
AcDbLine
 10
287.089018
 20
264.065323
 30
0.0
 11
287.139842
 21
263.619434
 31
0.0
  0
LINE
  5
166
330
1F
100
AcDbEntity
  8
1
100
AcDbLine
 10
287.139842
 20
263.619434
 30
0.0
 11
287.18578
 21
263.642707
 31
0.0
  0
LINE
  5
167
330
1F
100
AcDbEntity
  8
1
100
AcDbLine
 10
284.491842
 20
268.238842
 30
0.0
 11
284.470078
 21
270.330413
 31
0.0
  0
LINE
  5
168
330
1F
100
AcDbEntity
  8
1
100
AcDbLine
 10
284.677974
 20
264.10501
 30
0.0
 11
284.491842
 21
268.238842
 31
0.0
  0
LINE
  5
169
330
1F
100
AcDbEntity
  8
1
100
AcDbLine
 10
287.089018
 20
264.065323
 30
0.0
 11
284.677974
 21
264.10501
 31
0.0
  0
LINE
  5
16A
330
1F
100
AcDbEntity
  8
1
100
AcDbLine
 10
287.18917
 20
268.194442
 30
0.0
 11
287.089018
 21
264.065323
 31
0.0
  0
LINE
  5
16B
330
1F
100
AcDbEntity
  8
1
100
AcDbLine
 10
284.686148
 20
275.832207
 30
0.0
 11
284.794927
 21
277.190045
 31
0.0
  0
LINE
  5
16C
330
1F
100
AcDbEntity
  8
1
100
AcDbLine
 10
287.492254
 20
277.145645
 30
0.0
 11
284.794927
 21
277.190045
 31
0.0
  0
LINE
  5
16D
330
1F
100
AcDbEntity
  8
1
100
AcDbLine
 10
287.167405
 20
270.286014
 30
0.0
 11
284.470078
 21
270.330413
 31
0.0
  0
LINE
  5
16E
330
1F
100
AcDbEntity
  8
1
100
AcDbLine
 10
284.614419
 20
273.147718
 30
0.0
 11
284.686148
 21
275.832207
 31
0.0
  0
LINE
  5
16F
330
1F
100
AcDbEntity
  8
1
100
AcDbLine
 10
284.447825
 20
272.705788
 30
0.0
 11
284.686148
 21
275.832207
 31
0.0
  0
LINE
  5
170
330
1F
100
AcDbEntity
  8
1
100
AcDbLine
 10
284.45426
 20
272.481989
 30
0.0
 11
284.447912
 21
272.697437
 31
0.0
  0
LINE
  5
171
330
1F
100
AcDbEntity
  8
1
100
AcDbLine
 10
289.144248
 20
209.70928
 30
0.0
 11
289.144248
 21
207.625093
 31
0.0
  0
LINE
  5
172
330
1F
100
AcDbEntity
  8
1
100
AcDbLine
 10
284.744248
 20
280.744871
 30
0.0
 11
289.144248
 21
280.744871
 31
0.0
  0
LINE
  5
173
330
1F
100
AcDbEntity
  8
1
100
AcDbLine
 10
284.744248
 20
280.744871
 30
0.0
 11
284.744248
 21
278.441615
 31
0.0
  0
LINE
  5
174
330
1F
100
AcDbEntity
  8
1
100
AcDbLine
 10
289.144248
 20
280.744871
 30
0.0
 11
289.144248
 21
271.845873
 31
0.0
  0
LINE
  5
175
330
1F
100
AcDbEntity
  8
1
100
AcDbLine
 10
284.744248
 20
209.70928
 30
0.0
 11
284.744248
 21
205.934945
 31
0.0
  0
LINE
  5
176
330
1F
100
AcDbEntity
  8
SK3
100
AcDbLine
 10
265.444248
 20
255.434018
 30
0.0
 11
265.444248
 21
233.434018
 31
0.0
  0
LINE
  5
177
330
1F
100
AcDbEntity
  8
SK3
100
AcDbLine
 10
265.444248
 20
255.434018
 30
0.0
 11
250.444248
 21
255.434018
 31
0.0
  0
LINE
  5
178
330
1F
100
AcDbEntity
  8
80
100
AcDbLine
 10
249.444248
 20
243.434445
 30
0.0
 11
249.444248
 21
245.433592
 31
0.0
  0
LINE
  5
179
330
1F
100
AcDbEntity
  8
80
100
AcDbLine
 10
248.444675
 20
244.434018
 30
0.0
 11
250.443822
 21
244.434018
 31
0.0
  0
LINE
  5
17A
330
1F
100
AcDbEntity
  8
1
100
AcDbLine
 10
284.744248
 20
281.529867
 30
0.0
 11
284.744248
 21
280.744819
 31
0.0
  0
LINE
  5
17B
330
1F
100
AcDbEntity
  8
1
100
AcDbLine
 10
249.444248
 20
263.4340180000001
 30
0.0
 11
249.444248
 21
250.634018
 31
0.0
  0
LINE
  5
17C
330
1F
100
AcDbEntity
  8
1
100
AcDbLine
 10
250.444248
 20
239.234018
 30
0.0
 11
250.444248
 21
224.434018
 31
0.0
  0
LINE
  5
17D
330
1F
100
AcDbEntity
  8
1
100
AcDbLine
 10
249.444248
 20
225.434018
 30
0.0
 11
250.444248
 21
224.434018
 31
0.0
  0
LINE
  5
17E
330
1F
100
AcDbEntity
  8
1
100
AcDbLine
 10
250.444248
 20
264.434018
 30
0.0
 11
249.444248
 21
263.4340180000001
 31
0.0
  0
LINE
  5
17F
330
1F
100
AcDbEntity
  8
1
100
AcDbLine
 10
281.744248
 20
264.434018
 30
0.0
 11
250.444248
 21
264.434018
 31
0.0
  0
LINE
  5
180
330
1F
100
AcDbEntity
  8
81
100
AcDbLine
 10
287.444248
 20
284.4340180000001
 30
0.0
 11
291.444248
 21
284.4340180000001
 31
0.0
  0
LINE
  5
181
330
1F
100
AcDbEntity
  8
1
100
AcDbLine
 10
250.444248
 20
224.434018
 30
0.0
 11
281.744248
 21
224.434018
 31
0.0
  0
LINE
  5
182
330
1F
100
AcDbEntity
  8
81
100
AcDbLine
 10
289.444248
 20
282.434018
 30
0.0
 11
289.444248
 21
286.4340180000001
 31
0.0
  0
LINE
  5
183
330
1F
100
AcDbEntity
  8
1
100
AcDbLine
 10
254.744248
 20
239.234018
 30
0.0
 11
250.444248
 21
239.234018
 31
0.0
  0
LINE
  5
184
330
1F
100
AcDbEntity
  8
1
100
AcDbLine
 10
250.444248
 20
249.634018
 30
0.0
 11
254.744248
 21
249.634018
 31
0.0
  0
LINE
  5
185
330
1F
100
AcDbEntity
  8
SK3
100
AcDbLine
 10
250.444248
 20
233.434018
 30
0.0
 11
265.444248
 21
233.434018
 31
0.0
  0
LINE
  5
186
330
1F
100
AcDbEntity
  8
NOCUT
100
AcDbLine
 10
289.144248
 20
282.934018
 30
0.0
 11
289.144248
 21
253.934018
 31
0.0
  0
LINE
  5
188
330
1F
100
AcDbEntity
  8
NOCUT
100
AcDbLine
 10
289.144248
 20
253.934018
 30
0.0
 11
288.644248
 21
253.434018
 31
0.0
  0
LINE
  5
189
330
1F
100
AcDbEntity
  8
NOCUT
100
AcDbLine
 10
288.644248
 20
253.434018
 30
0.0
 11
274.844248
 21
253.434018
 31
0.0
  0
LINE
  5
18A
330
1F
100
AcDbEntity
  8
NOCUT
100
AcDbLine
 10
274.444248
 20
253.034018
 30
0.0
 11
274.444248
 21
250.434018
 31
0.0
  0
LINE
  5
18B
330
1F
100
AcDbEntity
  8
NOCUT
100
AcDbLine
 10
274.444248
 20
250.434018
 30
0.0
 11
273.944248
 21
249.934018
 31
0.0
  0
LINE
  5
18C
330
1F
100
AcDbEntity
  8
NOCUT
100
AcDbLine
 10
273.944248
 20
249.934018
 30
0.0
 11
269.944248
 21
249.934018
 31
0.0
  0
LINE
  5
18D
330
1F
100
AcDbEntity
  8
NOCUT
100
AcDbLine
 10
269.944248
 20
249.934018
 30
0.0
 11
269.444248
 21
250.434018
 31
0.0
  0
LINE
  5
18E
330
1F
100
AcDbEntity
  8
NOCUT
100
AcDbLine
 10
269.444248
 20
250.434018
 30
0.0
 11
269.444248
 21
255.934018
 31
0.0
  0
LINE
  5
18F
330
1F
100
AcDbEntity
  8
NOCUT
100
AcDbLine
 10
269.444248
 20
255.934018
 30
0.0
 11
265.444248
 21
255.934018
 31
0.0
  0
LINE
  5
190
330
1F
100
AcDbEntity
  8
NOCUT
100
AcDbLine
 10
265.444248
 20
255.934018
 30
0.0
 11
265.444248
 21
255.434018
 31
0.0
  0
LINE
  5
191
330
1F
100
AcDbEntity
  8
NOCUT
100
AcDbLine
 10
265.444248
 20
255.434018
 30
0.0
 11
250.444248
 21
255.434018
 31
0.0
  0
LINE
  5
192
330
1F
100
AcDbEntity
  8
NOCUT
100
AcDbLine
 10
250.444248
 20
255.434018
 30
0.0
 11
249.444248
 21
256.434018
 31
0.0
  0
LINE
  5
193
330
1F
100
AcDbEntity
  8
NOCUT
100
AcDbLine
 10
249.444248
 20
256.434018
 30
0.0
 11
249.444248
 21
263.4340180000001
 31
0.0
  0
LINE
  5
194
330
1F
100
AcDbEntity
  8
NOCUT
100
AcDbLine
 10
249.444248
 20
263.4340180000001
 30
0.0
 11
250.444248
 21
264.434018
 31
0.0
  0
LINE
  5
195
330
1F
100
AcDbEntity
  8
NOCUT
100
AcDbLine
 10
284.744248
 20
282.934018
 30
0.0
 11
289.144248
 21
282.934018
 31
0.0
  0
LINE
  5
196
330
1F
100
AcDbEntity
  8
NOCUT
100
AcDbLine
 10
284.744248
 20
267.4340180000001
 30
0.0
 11
284.744248
 21
282.934018
 31
0.0
  0
LINE
  5
197
330
1F
100
AcDbEntity
  8
NOCUT
100
AcDbLine
 10
250.444248
 20
264.434018
 30
0.0
 11
281.744248
 21
264.434018
 31
0.0
  0
ARC
  5
19D
330
1F
100
AcDbEntity
  8
1
100
AcDbCircle
 10
281.744248
 20
221.434018
 30
0.0
 40
3.0
100
AcDbArc
 50
20.362499
 51
90.0
  0
ARC
  5
19E
330
1F
100
AcDbEntity
  8
1
100
AcDbCircle
 10
281.744248
 20
267.4340180000001
 30
0.0
 40
3.0
100
AcDbArc
 50
270.0
 51
337.483122
  0
ARC
  5
19F
330
1F
100
AcDbEntity
  8
NOCUT
100
AcDbCircle
 10
274.844248
 20
253.034018
 30
0.0
 40
0.4000000000000005
100
AcDbArc
 50
90.0
 51
180.0
  0
ARC
  5
1A0
330
1F
100
AcDbEntity
  8
NOCUT
100
AcDbCircle
 10
281.744248
 20
267.4340180000001
 30
0.0
 40
3.0
100
AcDbArc
 50
270.0
 51
360.0
  0
ELLIPSE
  5
1A1
330
1F
100
AcDbEntity
  8
1
100
AcDbEllipse
 10
284.782083
 20
217.674271
 30
0.0
 11
-0.0444372942652618
 21
2.699634295025603
 31
0.0
210
0.0
220
0.0
230
1.0
 40
0.041329
 41
2.115070263268553
 42
2.442090197541491
  0
ELLIPSE
  5
1A2
330
1F
100
AcDbEntity
  8
1
100
AcDbEllipse
 10
284.294775
 20
219.357825
 30
0.0
 11
-0.0658330285411286
 21
3.999458214852745
 31
0.0
210
0.0
220
0.0
230
1.0
 40
0.041329
 41
4.360700565012437
 42
4.505165203148839
  0
ELLIPSE
  5
1A3
330
1F
100
AcDbEntity
  8
1
100
AcDbEllipse
 10
284.294775
 20
219.357825
 30
0.0
 11
-0.0658330285411286
 21
3.999458214852745
 31
0.0
210
0.0
220
0.0
230
1.0
 40
0.041329
 41
4.197481691393418
 42
4.282931709222313
  0
ELLIPSE
  5
1A4
330
1F
100
AcDbEntity
  8
1
100
AcDbEllipse
 10
284.732133
 20
217.673448
 30
0.0
 11
-0.0445823960046812
 21
2.708449449919286
 31
0.0
210
0.0
220
0.0
230
1.0
 40
0.041329
 41
2.111830546153251
 42
2.863260506407456
  0
ELLIPSE
  5
1A5
330
1F
100
AcDbEntity
  8
1
100
AcDbEllipse
 10
289.106413
 20
210.929934
 30
0.0
 11
-0.0475498446974763
 21
2.699581266098364
 31
0.0
210
0.0
220
0.0
230
1.0
 40
0.040852
 41
3.362577715077264
 42
5.555605914220368
  0
ELLIPSE
  5
1A6
330
1F
100
AcDbEntity
  8
1
100
AcDbEllipse
 10
286.365826
 20
202.680999
 30
0.0
 11
-0.0704442143666316
 21
3.999379653479058
 31
0.0
210
0.0
220
0.0
230
1.0
 40
0.040852
 41
5.704310748260816
 42
6.177677649431327
  0
ELLIPSE
  5
1A7
330
1F
100
AcDbEntity
  8
1
100
AcDbEllipse
 10
289.063154
 20
254.588398
 30
0.0
 11
-0.1634331262529365
 21
3.996659807044278
 31
0.0
210
0.0
220
0.0
230
1.0
 40
0.017596
 41
1.51788638282633
 42
2.148951328265195
  0
ELLIPSE
  5
1A8
330
1F
100
AcDbEntity
  8
1
100
AcDbEllipse
 10
289.593722
 20
240.583428
 30
0.0
 11
-0.1634331262529365
 21
3.996659807044278
 31
0.0
210
0.0
220
0.0
230
1.0
 40
0.017596
 41
0.1064145210496656
 42
0.5781550014703427
  0
ELLIPSE
  5
1A9
330
1F
100
AcDbEntity
  8
1
100
AcDbEllipse
 10
286.896394
 20
240.473128
 30
0.0
 11
-0.1634331262529365
 21
3.996659807044278
 31
0.0
210
0.0
220
0.0
230
1.0
 40
0.017596
 41
6.230275363210928
 42
6.861340308650013
  0
ELLIPSE
  5
1AA
330
1F
100
AcDbEntity
  8
1
100
AcDbEllipse
 10
286.365826
 20
254.478098
 30
0.0
 11
-0.1634331262529365
 21
3.996659807044278
 31
0.0
210
0.0
220
0.0
230
1.0
 40
0.017596
 41
1.517886382826318
 42
2.148951328265304
  0
ELLIPSE
  5
1AB
330
1F
100
AcDbEntity
  8
1
100
AcDbEllipse
 10
286.896394
 20
283.795211
 30
0.0
 11
0.0704442143666295
 21
3.999379653479058
 31
0.0
210
0.0
220
0.0
230
1.0
 40
0.040852
 41
1.518605940274686
 42
2.14967088571365
  0
ELLIPSE
  5
1AC
330
1F
100
AcDbEntity
  8
1
100
AcDbEllipse
 10
284.294775
 20
274.9557680000001
 30
0.0
 11
-0.1653391350234322
 21
3.996581410459408
 31
0.0
210
0.0
220
0.0
230
1.0
 40
0.016444
 41
3.65581985619778
 42
3.979201077712378
  0
ELLIPSE
  5
1AD
330
1F
100
AcDbEntity
  8
1
100
AcDbEllipse
 10
289.106413
 20
240.094104
 30
0.0
 11
0.1103173602207315
 21
2.697745369754886
 31
0.0
210
0.0
220
0.0
230
0.9999999999999998
 40
0.017596
 41
4.627788664613243
 42
5.684246976706589
  0
ELLIPSE
  5
1AE
330
1F
100
AcDbEntity
  8
1
100
AcDbEllipse
 10
289.593722
 20
248.284609
 30
0.0
 11
0.1634331262529356
 21
3.996659807044278
 31
0.0
210
0.0
220
0.0
230
1.0
 40
0.017596
 41
2.871120832766695
 42
3.194502597558448
  0
ELLIPSE
  5
1AF
330
1F
100
AcDbEntity
  8
1
100
AcDbEllipse
 10
289.156364
 20
240.092062
 30
0.0
 11
0.1106775810919806
 21
2.706554356713573
 31
0.0
210
0.0
220
0.0
230
1.0
 40
0.017596
 41
4.205244772091451
 42
5.701820749196572
  0
ELLIPSE
  5
1B0
330
1F
100
AcDbEntity
  8
1
100
AcDbEllipse
 10
289.156364
 20
240.092062
 30
0.0
 11
0.1106775810919806
 21
2.706554356713573
 31
0.0
210
0.0
220
0.0
230
1.0
 40
0.017596
 41
0.6038012282432799
 42
1.265106429794797
  0
ELLIPSE
  5
1B1
330
1F
100
AcDbEntity
  8
1
100
AcDbEllipse
 10
288.896647
 20
242.374222
 30
0.0
 11
-0.1225748446897024
 21
2.997494855283209
 31
0.0
210
0.0
220
0.0
230
1.0
 40
0.017596
 41
1.780412988238244
 42
2.256341503154311
  0
ELLIPSE
  5
1B2
330
1F
100
AcDbEntity
  8
1
100
AcDbEllipse
 10
252.187861
 20
244.480688
 30
0.0
 11
-485.2602610771443
 21
-32.38546622873168
 31
0.0
210
0.0
220
0.0
230
0.9999999999999998
 40
0.043129
 41
1.638539686467354
 42
1.641030194885305
  0
ELLIPSE
  5
1B3
330
1F
100
AcDbEntity
  8
1
100
AcDbEllipse
 10
287.847373
 20
244.434018
 30
0.0
 11
-1.593180977408006
 21
-38.49999110586262
 31
0.0
210
0.0
220
0.0
230
1.0
 40
0.016432
 41
1.061012686005103
 42
1.068511292122058
  0
ELLIPSE
  5
1B4
330
1F
100
AcDbEntity
  8
1
100
AcDbEllipse
 10
285.645193
 20
244.433982
 30
0.0
 11
-1.593179545430976
 21
-38.49994370792605
 31
0.0
210
0.0
220
0.0
230
1.0
 40
0.016432
 41
1.067134831445969
 42
1.08275474211972
  0
ELLIPSE
  5
1B5
330
1F
100
AcDbEntity
  8
1
100
AcDbEllipse
 10
286.041124
 20
244.434018
 30
0.0
 11
-1.574845870915853
 21
38.49999003680028
 31
0.0
210
0.0
220
0.0
230
0.9999999999999998
 40
0.017584
 41
4.718608539316013
 42
4.994102826192631
  0
ELLIPSE
  5
1B6
330
1F
100
AcDbEntity
  8
1
100
AcDbEllipse
 10
321.582401
 20
244.443597
 30
0.0
 11
-484.4328494494201
 21
37.65161241768036
 31
0.0
210
0.0
220
0.0
230
0.9999999999999998
 40
0.016407
 41
4.785793344305888
 42
4.786657072448216
  0
ELLIPSE
  5
1B7
330
1F
100
AcDbEntity
  8
1
100
AcDbEllipse
 10
288.2433029999999
 20
244.434003
 30
0.0
 11
-1.57484678629461
 21
38.50001888846987
 31
0.0
210
0.0
220
0.0
230
1.0
 40
0.017584
 41
4.995211691398603
 42
5.008346058333371
  0
ELLIPSE
  5
1B8
330
1F
100
AcDbEntity
  8
1
100
AcDbEllipse
 10
289.249574
 20
219.133119
 30
0.0
 11
-0.0704442143666316
 21
3.999379653479058
 31
0.0
210
0.0
220
0.0
230
1.0
 40
0.040852
 41
2.562718094671021
 42
3.193783040109957
  0
ELLIPSE
  5
1B9
330
1F
100
AcDbEntity
  8
1
100
AcDbEllipse
 10
289.063154
 20
202.728509
 30
0.0
 11
-0.0704442143666316
 21
3.999379653479058
 31
0.0
210
0.0
220
0.0
230
1.0
 40
0.040852
 41
5.704310748260778
 42
6.335375693699753
  0
ELLIPSE
  5
1BA
330
1F
100
AcDbEntity
  8
1
100
AcDbEllipse
 10
289.593722
 20
205.120336
 30
0.0
 11
-0.0704442143666316
 21
3.999379653479058
 31
0.0
210
0.0
220
0.0
230
1.0
 40
0.040852
 41
0.9919217678761327
 42
1.622986713315091
  0
ELLIPSE
  5
1BB
330
1F
100
AcDbEntity
  8
1
100
AcDbEllipse
 10
289.156364
 20
210.930814
 30
0.0
 11
-0.0477051098928219
 21
2.708396247835924
 31
0.0
210
0.0
220
0.0
230
1.0
 40
0.040852
 41
2.633826589171067
 42
5.97677499938349
  0
ELLIPSE
  5
1BC
330
1F
100
AcDbEntity
  8
1
100
AcDbEllipse
 10
284.99185
 20
265.824622
 30
0.0
 11
-0.0493747714058502
 21
-2.99959366113956
 31
0.0
210
0.0
220
0.0
230
0.9999999999999998
 40
0.041329
 41
0.0998336023469
 42
0.5757621172629165
  0
ELLIPSE
  5
1BD
330
1F
100
AcDbEntity
  8
1
100
AcDbEllipse
 10
252.23113
 20
244.391434
 30
0.0
 11
-484.957245534144
 21
-21.07923076840772
 31
0.0
210
0.0
220
0.0
230
1.0
 40
0.066538
 41
4.636428302454453
 42
4.636458168856586
  0
ELLIPSE
  5
1BE
330
1F
100
AcDbEntity
  8
1
100
AcDbEllipse
 10
287.847373
 20
244.434018
 30
0.0
 11
-0.6348147719737108
 21
-38.49999104492431
 31
0.0
210
0.0
220
0.0
230
0.9999999999999998
 40
0.041359
 41
3.645239635473136
 42
3.920733922335538
  0
ELLIPSE
  5
1BF
330
1F
100
AcDbEntity
  8
1
100
AcDbEllipse
 10
284.638922
 20
225.503804
 30
0.0
 11
0.1653391350234314
 21
3.996581410459408
 31
0.0
210
0.0
220
0.0
230
0.9999999999999998
 40
0.016444
 41
3.874780556261992
 42
4.505845501700991
  0
ELLIPSE
  5
1C0
330
1F
100
AcDbEntity
  8
1
100
AcDbEllipse
 10
284.732133
 20
223.813902
 30
0.0
 11
0.1119683380217116
 21
2.706501266225874
 31
0.0
210
0.0
220
0.0
230
0.9999999999999998
 40
0.016444
 41
0.3208211950889814
 42
0.9949873501913364
  0
ELLIPSE
  5
1C1
330
1F
100
AcDbEntity
  8
1
100
AcDbEllipse
 10
284.732133
 20
223.813902
 30
0.0
 11
0.1119683380217116
 21
2.706501266225874
 31
0.0
210
0.0
220
0.0
230
0.9999999999999998
 40
0.016444
 41
0.9949873501913364
 42
5.962336433601563
  0
ELLIPSE
  5
1C2
330
1F
100
AcDbEntity
  8
1
100
AcDbEllipse
 10
286.041124
 20
244.434018
 30
0.0
 11
-0.679266065441423
 21
38.49998998586953
 31
0.0
210
0.0
220
0.0
230
1.0
 40
0.04088
 41
2.858438265187521
 42
2.865936846927343
  0
ELLIPSE
  5
1C3
330
1F
100
AcDbEntity
  8
1
100
AcDbEllipse
 10
321.580501
 20
244.398925
 30
0.0
 11
-484.4200600974901
 21
8.050728347288346
 31
0.0
210
0.0
220
0.0
230
1.0
 40
0.077645
 41
1.499095879696201
 42
1.501590693861191
  0
ELLIPSE
  5
1C4
330
1F
100
AcDbEntity
  8
1
100
AcDbEllipse
 10
220.938684
 20
245.778365
 30
0.0
 11
-913.1995050418206
 21
-8.021671334688432
 31
0.0
210
0.0
220
0.0
230
1.0
 40
0.042739
 41
1.643328662455457
 42
1.644425676969309
  0
ELLIPSE
  5
1C5
330
1F
100
AcDbEntity
  8
1
100
AcDbEllipse
 10
288.243302
 20
244.434296
 30
0.0
 11
-0.6792677166496798
 21
38.500268145578
 31
0.0
210
0.0
220
0.0
230
1.0
 40
0.04088
 41
2.844196295118508
 42
2.859816131203923
  0
ELLIPSE
  5
1C6
330
1F
100
AcDbEntity
  8
1
100
AcDbEllipse
 10
287.522671
 20
281.060098
 30
0.0
 11
0.0658330285411315
 21
3.999458214852745
 31
0.0
210
0.0
220
0.0
230
1.0
 40
0.041329
 41
3.348816430825686
 42
3.979881376264593
  0
ELLIPSE
  5
1C7
330
1F
100
AcDbEntity
  8
1
100
AcDbEllipse
 10
286.992103
 20
269.465812
 30
0.0
 11
0.0658330285411315
 21
3.999458214852745
 31
0.0
210
0.0
220
0.0
230
1.0
 40
0.041329
 41
4.919612757620559
 42
5.550677703059553
  0
ELLIPSE
  5
1C8
330
1F
100
AcDbEntity
  8
1
100
AcDbEllipse
 10
289.593722
 20
283.747701
 30
0.0
 11
0.0704442143666295
 21
3.999379653479058
 31
0.0
210
0.0
220
0.0
230
1.0
 40
0.040852
 41
1.518605940274684
 42
2.14967088571365
  0
ELLIPSE
  5
1C9
330
1F
100
AcDbEntity
  8
1
100
AcDbEllipse
 10
289.249574
 20
269.734918
 30
0.0
 11
0.0704442143666295
 21
3.999379653479058
 31
0.0
210
0.0
220
0.0
230
1.0
 40
0.040852
 41
0.1055076577481948
 42
0.578874558918761
  0
ELLIPSE
  5
1CA
330
1F
100
AcDbEntity
  8
1
100
AcDbEllipse
 10
284.782083
 20
223.811836
 30
0.0
 11
0.1116039161408162
 21
2.6976924520601
 31
0.0
210
0.0
220
0.0
230
1.0
 40
0.016444
 41
0.5944343257794042
 42
0.9949875234431518
  0
ELLIPSE
  5
1CB
330
1F
100
AcDbEntity
  8
1
100
AcDbEllipse
 10
284.782083
 20
223.811836
 30
0.0
 11
0.1116039161408162
 21
2.6976924520601
 31
0.0
210
0.0
220
0.0
230
1.0
 40
0.016444
 41
0.9949870818951831
 42
2.547130345552238
  0
ELLIPSE
  5
1CC
330
1F
100
AcDbEntity
  8
1
100
AcDbEllipse
 10
287.522671
 20
222.012412
 30
0.0
 11
0.1653391350234314
 21
3.996581410459408
 31
0.0
210
0.0
220
0.0
230
0.9999999999999998
 40
0.016444
 41
0.7331879026721982
 42
1.364252848111197
  0
ELLIPSE
  5
1CD
330
1F
100
AcDbEntity
  8
1
100
AcDbEllipse
 10
284.294775
 20
213.912269
 30
0.0
 11
0.1653391350234314
 21
3.996581410459408
 31
0.0
210
0.0
220
0.0
230
0.9999999999999998
 40
0.016444
 41
5.445576883056945
 42
6.076641828495827
  0
ELLIPSE
  5
1CE
330
1F
100
AcDbEntity
  8
1
100
AcDbEllipse
 10
284.825343
 20
222.124
 30
0.0
 11
0.1653391350234314
 21
3.996581410459408
 31
0.0
210
0.0
220
0.0
230
0.9999999999999998
 40
0.016444
 41
0.7331879026721987
 42
1.364252848111197
  0
ELLIPSE
  5
1CF
330
1F
100
AcDbEntity
  8
1
100
AcDbEllipse
 10
284.825343
 20
281.104498
 30
0.0
 11
0.0658330285411315
 21
3.999458214852745
 31
0.0
210
0.0
220
0.0
230
1.0
 40
0.041329
 41
3.348816430825644
 42
3.979881376264619
  0
ELLIPSE
  5
1D0
330
1F
100
AcDbEntity
  8
1
100
AcDbEllipse
 10
284.294775
 20
269.510212
 30
0.0
 11
0.0658330285411315
 21
3.999458214852745
 31
0.0
210
0.0
220
0.0
230
1.0
 40
0.041329
 41
4.919612757620567
 42
5.550677703059522
  0
SPLINE
  5
1D1
330
1F
100
AcDbEntity
  8
1
100
AcDbSpline
210
0.0
220
0.0
230
1.0
 70
     8
 71
     3
 72
    21
 73
    17
 74
     0
 42
0.000000001
 43
0.0000000001
 40
0.0
 40
0.0
 40
0.0
 40
0.0
 40
0.0625000000000004
 40
0.0625000000000004
 40
0.1250000000000008
 40
0.1250000000000008
 40
0.2500000000000009
 40
0.2500000000000009
 40
0.5000000000000002
 40
0.5000000000000002
 40
0.7499999999999996
 40
0.7499999999999996
 40
0.8124999999999996
 40
0.8124999999999996
 40
0.8749999999999994
 40
1.0
 40
1.0
 40
1.0
 40
1.0
 10
287.9303390987268
 20
240.458597273642
 30
0.0
 10
287.9292861196422
 20
240.4813782202121
 30
0.0
 10
287.9282173818507
 20
240.5045137435481
 30
0.0
 10
287.926036439171
 20
240.551165911937
 30
0.0
 10
287.9249236895832
 20
240.5746941339614
 30
0.0
 10
287.9214715802191
 20
240.6458757252169
 30
0.0
 10
287.9189800472529
 20
240.6941239610712
 30
0.0
 10
287.9112167178672
 20
240.8412203368779
 30
0.0
 10
287.9057537431237
 20
240.9424163362559
 30
0.0
 10
287.8954163250095
 20
241.1510919409506
 30
0.0
 10
287.8905441163157
 20
241.2585709381568
 30
0.0
 10
287.8846677437486
 20
241.3969843892427
 30
0.0
 10
287.8835004036857
 20
241.4248513341926
 30
0.0
 10
287.8811712642545
 20
241.4807537006679
 30
0.0
 10
287.8776809422408
 20
241.5649437457231
 30
0.0
 10
287.8741011767279
 20
241.6501368860778
 30
0.0
 10
287.8715458990175
 20
241.7073752559481
 30
0.0
  0
SPLINE
  5
1D2
330
1F
100
AcDbEntity
  8
1
100
AcDbSpline
210
0.0
220
0.0
230
1.0
 70
     8
 71
     3
 72
    33
 73
    29
 74
     0
 42
0.000000001
 43
0.0000000001
 40
0.0
 40
0.0
 40
0.0
 40
0.0
 40
0.1250000000000033
 40
0.1250000000000033
 40
0.2500000000000067
 40
0.2500000000000067
 40
0.2812500000000063
 40
0.2812500000000063
 40
0.312500000000006
 40
0.3750000000000032
 40
0.3750000000000032
 40
0.5
 40
0.5
 40
0.5312499999999987
 40
0.5312499999999987
 40
0.5624999999999976
 40
0.5624999999999976
 40
0.6249999999999972
 40
0.6249999999999972
 40
0.7499999999999964
 40
0.7499999999999964
 40
0.8124999999999966
 40
0.8124999999999966
 40
0.8437499999999969
 40
0.8437499999999969
 40
0.8749999999999975
 40
0.8749999999999975
 40
1.0
 40
1.0
 40
1.0
 40
1.0
 10
286.6767785418785
 20
242.8036964694773
 30
0.0
 10
286.6754199729139
 20
242.7712097670666
 30
0.0
 10
286.6746066617615
 20
242.72733805749
 30
0.0
 10
286.6740250827901
 20
242.6177740874496
 30
0.0
 10
286.6742568993153
 20
242.552080065876
 30
0.0
 10
286.6752193126463
 20
242.4559177301991
 30
0.0
 10
286.6754462013251
 20
242.4359346888995
 30
0.0
 10
286.6759658427185
 20
242.394764673529
 30
0.0
 10
286.6768428786755
 20
242.3312739479245
 30
0.0
 10
286.6780074080547
 20
242.2626691166653
 30
0.0
 10
286.6807126097019
 20
242.1187683985366
 30
0.0
 10
286.6830153826522
 20
242.0139526459376
 30
0.0
 10
286.6865280715611
 20
241.8716510205284
 30
0.0
 10
286.6872624973636
 20
241.8426234521831
 30
0.0
 10
286.6887961103508
 20
241.7834163011296
 30
0.0
 10
286.6895966018987
 20
241.7531908321782
 30
0.0
 10
286.6920753932166
 20
241.6615429857177
 30
0.0
 10
286.6938362132706
 20
241.5989372481353
 30
0.0
 10
286.6994353734878
 20
241.406712326443
 30
0.0
 10
286.7035885840457
 20
241.2727108978927
 30
0.0
 10
286.7104508964299
 20
241.0629059126193
 30
0.0
 10
286.7128442058403
 20
240.9914974326654
 30
0.0
 10
286.7165975713609
 20
240.8821105551439
 30
0.0
 10
286.7178734906858
 20
240.8453425206414
 30
0.0
 10
286.7204580932604
 20
240.771671557855
 30
0.0
 10
286.7217691195676
 20
240.7347001244489
 30
0.0
 10
286.7284165918123
 20
240.549172522608
 30
0.0
 10
286.7340284260804
 20
240.3986169118241
 30
0.0
 10
286.7399311361412
 20
240.2459494127979
 30
0.0
  0
SPLINE
  5
1D3
330
1F
100
AcDbEntity
  8
1
100
AcDbSpline
210
0.0
220
0.0
230
1.0
 70
    24
 71
     3
 72
    55
 73
    51
 74
     0
 42
0.000000001
 43
0.0000000001
 40
0.0
 40
0.0
 40
0.0
 40
0.0
 40
0.0624999999999938
 40
0.0624999999999938
 40
0.1249999999999876
 40
0.1249999999999876
 40
0.156249999999986
 40
0.156249999999986
 40
0.1718749999999853
 40
0.1718749999999853
 40
0.1874999999999845
 40
0.1874999999999845
 40
0.2499999999999829
 40
0.3124999999999812
 40
0.3124999999999812
 40
0.3281249999999813
 40
0.3281249999999813
 40
0.3437499999999814
 40
0.3749999999999826
 40
0.3749999999999826
 40
0.4374999999999839
 40
0.4374999999999839
 40
0.4687499999999841
 40
0.4687499999999841
 40
0.4999999999999843
 40
0.4999999999999843
 40
0.5624999999999849
 40
0.6249999999999854
 40
0.6249999999999854
 40
0.6406249999999857
 40
0.6406249999999857
 40
0.6562499999999859
 40
0.6562499999999859
 40
0.6874999999999868
 40
0.6874999999999868
 40
0.7499999999999887
 40
0.7499999999999887
 40
0.7812499999999896
 40
0.7812499999999896
 40
0.7968749999999903
 40
0.7968749999999903
 40
0.8124999999999909
 40
0.8124999999999909
 40
0.8749999999999937
 40
0.8749999999999937
 40
0.9374999999999968
 40
0.9374999999999968
 40
0.9687499999999984
 40
0.9687499999999984
 40
1.0
 40
1.0
 40
1.0
 40
1.0
 10
284.7442482849924
 20
242.8036964694773
 30
0.0
 10
284.7442482849924
 20
242.7761933930086
 30
0.0
 10
284.7442482849924
 20
242.7405168708629
 30
0.0
 10
284.7442482849924
 20
242.6534710974057
 30
0.0
 10
284.7442482849924
 20
242.6020997979532
 30
0.0
 10
284.7442482849924
 20
242.5131440481319
 30
0.0
 10
284.7442482849924
 20
242.4815028371578
 30
0.0
 10
284.7442482849924
 20
242.4309822109703
 30
0.0
 10
284.7442482849924
 20
242.4136306230641
 30
0.0
 10
284.7442482849924
 20
242.3781651746611
 30
0.0
 10
284.7442482849924
 20
242.3600202867813
 30
0.0
 10
284.7442482849924
 20
242.2672613306922
 30
0.0
 10
284.7442482849924
 20
242.1058774897241
 30
0.0
 10
284.7442482849924
 20
241.9190427741344
 30
0.0
 10
284.7442482849924
 20
241.7940553909358
 30
0.0
 10
284.7442482849924
 20
241.7685967164806
 30
0.0
 10
284.7442482849924
 20
241.71713947
 30
0.0
 10
284.7442482849924
 20
241.6391381071138
 30
0.0
 10
284.7442482849924
 20
241.5587270995613
 30
0.0
 10
284.7442482849924
 20
241.3947495000446
 30
0.0
 10
284.7442482849924
 20
241.2812368262063
 30
0.0
 10
284.7442482849924
 20
241.1046593698478
 30
0.0
 10
284.7442482849924
 20
241.0447455271512
 30
0.0
 10
284.7442482849924
 20
240.9227644037501
 30
0.0
 10
284.7442482849924
 20
240.8605231015437
 30
0.0
 10
284.7442482849924
 20
240.6731593152993
 30
0.0
 10
284.7442482849924
 20
240.4202393072212
 30
0.0
 10
284.7442482849924
 20
240.1612818958255
 30
0.0
 10
284.7442482849924
 20
239.9975004767904
 30
0.0
 10
284.7442482849924
 20
239.9646471501486
 30
0.0
 10
284.7442482849924
 20
239.8987436237772
 30
0.0
 10
284.7442482849924
 20
239.8657076289506
 30
0.0
 10
284.7442482849924
 20
239.7670417728386
 30
0.0
 10
284.7442482849924
 20
239.7016086911658
 30
0.0
 10
284.7442482849924
 20
239.5063192675149
 30
0.0
 10
284.7442482849924
 20
239.3774685599424
 30
0.0
 10
284.7442482849924
 20
239.1861946608935
 30
0.0
 10
284.7442482849924
 20
239.1227714415592
 30
0.0
 10
284.7442482849924
 20
239.0281470635404
 30
0.0
 10
284.7442482849924
 20
238.9966907484989
 30
0.0
 10
284.7442482849924
 20
238.9339506645468
 30
0.0
 10
284.7442482849924
 20
238.9026107839517
 30
0.0
 10
284.7442482849924
 20
238.7473237339858
 30
0.0
 10
284.7442482849924
 20
238.6272620113025
 30
0.0
 10
284.7442482849924
 20
238.395183056922
 30
0.0
 10
284.7442482849924
 20
238.2831665092552
 30
0.0
 10
284.7442482849924
 20
238.1212727809975
 30
0.0
 10
284.7442482849924
 20
238.0683017284978
 30
0.0
 10
284.7442482849924
 20
237.9645979198072
 30
0.0
 10
284.7442482849924
 20
237.9141496708996
 30
0.0
 10
284.7442482849924
 20
237.865105369933
 30
0.0
  0
SPLINE
  5
1D4
330
1F
100
AcDbEntity
  8
1
100
AcDbSpline
210
0.0
220
0.0
230
1.0
 70
    24
 71
     3
 72
    27
 73
    23
 74
     0
 42
0.000000001
 43
0.0000000001
 40
0.0
 40
0.0
 40
0.0
 40
0.0
 40
0.1250000000000002
 40
0.1250000000000002
 40
0.2500000000000003
 40
0.2500000000000003
 40
0.3124999999999995
 40
0.3124999999999995
 40
0.3437499999999991
 40
0.3437499999999991
 40
0.3749999999999987
 40
0.3749999999999987
 40
0.4999999999999993
 40
0.4999999999999993
 40
0.625
 40
0.625
 40
0.6875000000000002
 40
0.6875000000000002
 40
0.7500000000000006
 40
0.7500000000000006
 40
0.8750000000000001
 40
1.0
 40
1.0
 40
1.0
 40
1.0
 10
289.1442482849924
 20
237.865105369933
 30
0.0
 10
289.1442482849924
 20
237.9529089583213
 30
0.0
 10
289.1442482849924
 20
238.044498478407
 30
0.0
 10
289.1442482849924
 20
238.2349613827052
 30
0.0
 10
289.1442482849925
 20
238.3338356814632
 30
0.0
 10
289.1442482849924
 20
238.4876258724591
 30
0.0
 10
289.1442482849924
 20
238.5398046884338
 30
0.0
 10
289.1442482849924
 20
238.6194692896778
 30
0.0
 10
289.1442482849924
 20
238.6462570397862
 30
0.0
 10
289.1442482849924
 20
238.7003041076308
 30
0.0
 10
289.1442482849924
 20
238.7275989969395
 30
0.0
 10
289.1442482849925
 20
238.8644043786636
 30
0.0
 10
289.1442482849924
 20
238.9754329298306
 30
0.0
 10
289.1442482849925
 20
239.2005533108739
 30
0.0
 10
289.1442482849924
 20
239.3146454192323
 30
0.0
 10
289.1442482849925
 20
239.488098753107
 30
0.0
 10
289.1442482849925
 20
239.5463033601667
 30
0.0
 10
289.1442482849925
 20
239.6635012973946
 30
0.0
 10
289.1442482849925
 20
239.7226466354606
 30
0.0
 10
289.1442482849924
 20
239.8990711462598
 30
0.0
 10
289.1442482849924
 20
240.1327750329487
 30
0.0
 10
289.1442482849925
 20
240.3635075363323
 30
0.0
 10
289.1442482849924
 20
240.4781216471069
 30
0.0
  0
SPLINE
  5
1D5
330
1F
100
AcDbEntity
  8
1
100
AcDbSpline
210
0.0
220
0.0
230
1.0
 70
     8
 71
     3
 72
     8
 73
     4
 74
     0
 42
0.000000001
 43
0.0000000001
 40
0.0
 40
0.0
 40
0.0
 40
0.0
 40
1.0
 40
1.0
 40
1.0
 40
1.0
 10
288.9334199405285
 20
240.4748532783439
 30
0.0
 10
289.0036961015043
 20
240.4759400005664
 30
0.0
 10
289.0739722163471
 20
240.477029463976
 30
0.0
 10
289.1442482849924
 20
240.4781216471071
 30
0.0
  0
SPLINE
  5
1D6
330
1F
100
AcDbEntity
  8
1
100
AcDbSpline
210
0.0
220
0.0
230
1.0
 70
     8
 71
     3
 72
     8
 73
     4
 74
     0
 42
0.000000001
 43
0.0000000001
 40
0.0
 40
0.0
 40
0.0
 40
0.0
 40
1.0
 40
1.0
 40
1.0
 40
1.0
 10
288.9334199405285
 20
240.4748532783439
 30
0.0
 10
288.5990607030576
 20
240.4693762502677
 30
0.0
 10
288.2647004208865
 20
240.4639568597649
 30
0.0
 10
287.9303390987268
 20
240.458597273642
 30
0.0
  0
SPLINE
  5
1D7
330
1F
100
AcDbEntity
  8
1
100
AcDbSpline
210
0.0
220
0.0
230
1.0
 70
     8
 71
     3
 72
     8
 73
     4
 74
     0
 42
0.000000001
 43
0.0000000001
 40
0.0
 40
0.0
 40
0.0
 40
0.0
 40
1.0
 40
1.0
 40
1.0
 40
1.0
 10
287.9303390987268
 20
240.458597273642
 30
0.0
 10
287.5332506027948
 20
240.3897107295979
 30
0.0
 10
287.1364343073842
 20
240.3188562926883
 30
0.0
 10
286.7399311361412
 20
240.2459494127979
 30
0.0
  0
SPLINE
  5
1D8
330
1F
100
AcDbEntity
  8
1
100
AcDbSpline
210
0.0
220
0.0
230
1.0
 70
    12
 71
     2
 72
     6
 73
     3
 74
     0
 42
0.000000001
 43
0.0000000001
 40
0.0
 40
0.0
 40
0.0
 40
1.0
 40
1.0
 40
1.0
 10
285.4569405290108
 20
226.3583501682901
 30
0.0
 41
0.5000000371644918
 10
285.100581544815
 20
226.3721384250342
 30
0.0
 41
0.4999999628355083
 10
284.7442482849924
 20
226.3859326251526
 30
0.0
 41
0.5000000371644918
  0
SPLINE
  5
1D9
330
1F
100
AcDbEntity
  8
1
100
AcDbSpline
210
0.0
220
0.0
230
1.0
 70
    12
 71
     2
 72
     6
 73
     3
 74
     0
 42
0.000000001
 43
0.0000000001
 40
0.0
 40
0.0
 40
0.0
 40
1.0
 40
1.0
 40
1.0
 10
286.4294425715698
 20
225.7919798532161
 30
0.0
 41
0.5000000695125469
 10
285.9298766098231
 20
225.8107894040316
 30
0.0
 41
0.4999999304874533
 10
285.4303509746682
 20
225.8296105680431
 30
0.0
 41
0.5000000695125469
  0
SPLINE
  5
1DA
330
1F
100
AcDbEntity
  8
1
100
AcDbSpline
210
0.0
220
0.0
230
1.0
 70
    12
 71
     2
 72
     6
 73
     3
 74
     0
 42
0.000000001
 43
0.0000000001
 40
0.0
 40
0.0
 40
0.0
 40
1.0
 40
1.0
 40
1.0
 10
289.1442482849923
 20
255.7190964475105
 30
0.0
 41
0.4999999512550528
 10
288.7879150250594
 20
255.7041659688795
 30
0.0
 41
0.5000000487449473
 10
288.4315560409739
 20
255.6892317817228
 30
0.0
 41
0.4999999512550528
  0
SPLINE
  5
1DB
330
1F
100
AcDbEntity
  8
1
100
AcDbSpline
210
0.0
220
0.0
230
1.0
 70
    12
 71
     2
 72
     6
 73
     3
 74
     0
 42
0.000000001
 43
0.0000000001
 40
0.0
 40
0.0
 40
0.0
 40
1.0
 40
1.0
 40
1.0
 10
289.1442482849923
 20
207.6250927059022
 30
0.0
 41
0.4999999513296491
 10
288.7879150250594
 20
207.6205152396376
 30
0.0
 41
0.5000000486703509
 10
288.4315560409739
 20
207.6159498871114
 30
0.0
 41
0.4999999513296491
  0
SPLINE
  5
1DC
330
1F
100
AcDbEntity
  8
1
100
AcDbSpline
210
0.0
220
0.0
230
1.0
 70
     8
 71
     3
 72
    21
 73
    17
 74
     0
 42
0.000000001
 43
0.0000000001
 40
0.0
 40
0.0
 40
0.0
 40
0.0
 40
0.0624999999999971
 40
0.0624999999999971
 40
0.1249999999999943
 40
0.1249999999999943
 40
0.2499999999999959
 40
0.2499999999999959
 40
0.4999999999999976
 40
0.4999999999999976
 40
0.7499999999999992
 40
0.7499999999999992
 40
0.8124999999999996
 40
0.8124999999999996
 40
0.8749999999999998
 40
1.0
 40
1.0
 40
1.0
 40
1.0
 10
285.9581574712581
 20
262.8259297270654
 30
0.0
 10
285.9592104503428
 20
262.8291374733582
 30
0.0
 10
285.9602791881341
 20
262.8327830357402
 30
0.0
 10
285.962460130814
 20
262.8409000246876
 30
0.0
 10
285.9635728804017
 20
262.8453716617504
 30
0.0
 10
285.9670249897659
 20
262.8600097292176
 30
0.0
 10
285.9695165227321
 20
262.8713976108878
 30
0.0
 10
285.9772798521178
 20
262.9103696685325
 30
0.0
 10
285.9827428268613
 20
262.9427481655242
 30
0.0
 10
285.9930802449754
 20
263.0202648255326
 30
0.0
 10
285.9979524536692
 20
263.065401604905
 30
0.0
 10
286.0038288262363
 20
263.1300873135995
 30
0.0
 10
286.0049961662992
 20
263.1434306585433
 30
0.0
 10
286.0073253057304
 20
263.1708343665406
 30
0.0
 10
286.0108156277441
 20
263.2130546692121
 30
0.0
 10
286.014395393257
 20
263.2586089956187
 30
0.0
 10
286.0169506709675
 20
263.2904650222049
 30
0.0
  0
SPLINE
  5
1DD
330
1F
100
AcDbEntity
  8
1
100
AcDbSpline
210
0.0
220
0.0
230
1.0
 70
    24
 71
     3
 72
    32
 73
    28
 74
     0
 42
0.000000001
 43
0.0000000001
 40
0.0
 40
0.0
 40
0.0
 40
0.0
 40
0.1250000000000021
 40
0.1250000000000021
 40
0.1875000000000029
 40
0.1875000000000029
 40
0.2187500000000019
 40
0.2187500000000019
 40
0.2500000000000011
 40
0.2500000000000011
 40
0.3750000000000022
 40
0.5000000000000034
 40
0.5000000000000034
 40
0.5625000000000048
 40
0.5625000000000048
 40
0.5937500000000055
 40
0.5937500000000055
 40
0.6250000000000063
 40
0.6250000000000063
 40
0.7500000000000009
 40
0.8749999999999957
 40
0.8749999999999957
 40
0.906249999999996
 40
0.906249999999996
 40
0.937499999999996
 40
0.937499999999996
 40
1.0
 40
1.0
 40
1.0
 40
1.0
 10
284.7442482849924
 20
262.8425499111283
 30
0.0
 10
284.7442482849924
 20
262.7452004520608
 30
0.0
 10
284.7442482849924
 20
262.6517035372351
 30
0.0
 10
284.7442482849924
 20
262.5173073183785
 30
0.0
 10
284.7442482849924
 20
262.4734858743552
 30
0.0
 10
284.7442482849924
 20
262.4092517067392
 30
0.0
 10
284.7442482849924
 20
262.388056361681
 30
0.0
 10
284.7442482849924
 20
262.3464012028662
 30
0.0
 10
284.7442482849924
 20
262.3259300224591
 30
0.0
 10
284.7442482849924
 20
262.2253337407112
 30
0.0
 10
284.7442482849924
 20
262.0756043332166
 30
0.0
 10
284.7442482849924
 20
261.9477876824934
 30
0.0
 10
284.7442482849924
 20
261.8602816307816
 30
0.0
 10
284.7442482849924
 20
261.8325091744857
 30
0.0
 10
284.7442482849924
 20
261.7929958763156
 30
0.0
 10
284.7442482849924
 20
261.7802166641564
 30
0.0
 10
284.7442482849924
 20
261.7555265573769
 30
0.0
 10
284.7442482849924
 20
261.743600892558
 30
0.0
 10
284.7442482849924
 20
261.6860457323457
 30
0.0
 10
284.7442482849924
 20
261.6071830206113
 30
0.0
 10
284.7442482849924
 20
261.5542596624589
 30
0.0
 10
284.7442482849924
 20
261.5294648055305
 30
0.0
 10
284.7442482849924
 20
261.5249212909282
 30
0.0
 10
284.7442482849924
 20
261.5166751397674
 30
0.0
 10
284.7442482849924
 20
261.5129694993752
 30
0.0
 10
284.7442482849924
 20
261.5031610717323
 30
0.0
 10
284.7442482849924
 20
261.4983601373875
 30
0.0
 10
284.7442482849924
 20
261.4952986200929
 30
0.0
  0
SPLINE
  5
1DE
330
1F
100
AcDbEntity
  8
1
100
AcDbSpline
210
0.0
220
0.0
230
1.0
 70
    24
 71
     3
 72
    60
 73
    56
 74
     0
 42
0.000000001
 43
0.0000000001
 40
0.0
 40
0.0
 40
0.0
 40
0.0
 40
0.0624999999999994
 40
0.0624999999999994
 40
0.1249999999999989
 40
0.1249999999999989
 40
0.1562499999999984
 40
0.1562499999999984
 40
0.1718749999999976
 40
0.1718749999999976
 40
0.1874999999999969
 40
0.1874999999999969
 40
0.2499999999999932
 40
0.2499999999999932
 40
0.3124999999999896
 40
0.3124999999999896
 40
0.3281249999999892
 40
0.3281249999999892
 40
0.3437499999999888
 40
0.3749999999999904
 40
0.3749999999999904
 40
0.4374999999999936
 40
0.4374999999999936
 40
0.4687499999999952
 40
0.4687499999999952
 40
0.484374999999996
 40
0.484374999999996
 40
0.4999999999999968
 40
0.4999999999999968
 40
0.5625000000000013
 40
0.6250000000000058
 40
0.6250000000000058
 40
0.6406250000000057
 40
0.6406250000000057
 40
0.6562500000000055
 40
0.6562500000000055
 40
0.6875000000000055
 40
0.6875000000000055
 40
0.7500000000000055
 40
0.7500000000000055
 40
0.7812500000000055
 40
0.7812500000000055
 40
0.7968750000000055
 40
0.7968750000000055
 40
0.8125000000000055
 40
0.8125000000000055
 40
0.8750000000000044
 40
0.8750000000000044
 40
0.9375000000000033
 40
0.9375000000000033
 40
0.9531250000000024
 40
0.9531250000000024
 40
0.9687500000000012
 40
0.9687500000000012
 40
1.0
 40
1.0
 40
1.0
 40
1.0
 10
289.1442482849924
 20
261.4952986200929
 30
0.0
 10
289.1442482849925
 20
261.5021446005191
 30
0.0
 10
289.1442482849925
 20
261.5175953913776
 30
0.0
 10
289.1442482849925
 20
261.5650221564059
 30
0.0
 10
289.1442482849925
 20
261.5970002478293
 30
0.0
 10
289.1442482849924
 20
261.6575016820971
 30
0.0
 10
289.1442482849925
 20
261.6797643780579
 30
0.0
 10
289.1442482849924
 20
261.7163813224789
 30
0.0
 10
289.1442482849925
 20
261.7291218768273
 30
0.0
 10
289.1442482849925
 20
261.7554876922626
 30
0.0
 10
289.1442482849924
 20
261.7691351584061
 30
0.0
 10
289.1442482849925
 20
261.8396657041533
 30
0.0
 10
289.1442482849924
 20
261.9033989984236
 30
0.0
 10
289.1442482849925
 20
262.0452127207948
 30
0.0
 10
289.1442482849925
 20
262.1232922787773
 30
0.0
 10
289.1442482849925
 20
262.2301559733946
 30
0.0
 10
289.1442482849924
 20
262.2520345033741
 30
0.0
 10
289.1442482849924
 20
262.2964521217392
 30
0.0
 10
289.1442482849924
 20
262.3641106640846
 30
0.0
 10
289.1442482849924
 20
262.4348190693805
 30
0.0
 10
289.1442482849925
 20
262.5802302556941
 30
0.0
 10
289.1442482849924
 20
262.6824801897124
 30
0.0
 10
289.1442482849925
 20
262.8438421251217
 30
0.0
 10
289.1442482849924
 20
262.898964768471
 30
0.0
 10
289.1442482849925
 20
262.9836938306997
 30
0.0
 10
289.1442482849924
 20
263.012306847549
 30
0.0
 10
289.1442482849925
 20
263.0700994685739
 30
0.0
 10
289.1442482849925
 20
263.0991790874205
 30
0.0
 10
289.1442482849925
 20
263.2454801786188
 30
0.0
 10
289.1442482849924
 20
263.4853176629447
 30
0.0
 10
289.1442482849924
 20
263.7363639267439
 30
0.0
 10
289.1442482849924
 20
263.8968581395782
 30
0.0
 10
289.1442482849924
 20
263.9291372241033
 30
0.0
 10
289.1442482849925
 20
263.9940610939297
 30
0.0
 10
289.1442482849925
 20
264.0266474569578
 30
0.0
 10
289.1442482849925
 20
264.1242561151487
 30
0.0
 10
289.1442482849924
 20
264.1893317505374
 30
0.0
 10
289.1442482849925
 20
264.3845680401453
 30
0.0
 10
289.1442482849924
 20
264.5147380389402
 30
0.0
 10
289.1442482849925
 20
264.7100116558571
 30
0.0
 10
289.1442482849924
 20
264.7751059743856
 30
0.0
 10
289.1442482849924
 20
264.872752200678
 30
0.0
 10
289.1442482849925
 20
264.9053017348351
 30
0.0
 10
289.1442482849924
 20
264.9704024085534
 30
0.0
 10
289.1442482849925
 20
265.0030012569194
 30
0.0
 10
289.1442482849925
 20
265.1648758657448
 30
0.0
 10
289.1442482849924
 20
265.2915005966448
 30
0.0
 10
289.1442482849925
 20
265.5391948261442
 30
0.0
 10
289.1442482849924
 20
265.6602639047553
 30
0.0
 10
289.1442482849924
 20
265.8080685090699
 30
0.0
 10
289.1442482849925
 20
265.8374521345565
 30
0.0
 10
289.1442482849925
 20
265.8958603930561
 30
0.0
 10
289.1442482849924
 20
265.9249090884989
 30
0.0
 10
289.1442482849925
 20
266.0113404512912
 30
0.0
 10
289.1442482849924
 20
266.0678431375114
 30
0.0
 10
289.1442482849924
 20
266.1232269366061
 30
0.0
  0
SPLINE
  5
1DF
330
1F
100
AcDbEntity
  8
1
100
AcDbSpline
210
0.0
220
0.0
230
1.0
 70
     8
 71
     3
 72
    34
 73
    30
 74
     0
 42
0.000000001
 43
0.0000000001
 40
0.0
 40
0.0
 40
0.0
 40
0.0
 40
0.1250000000000071
 40
0.1250000000000071
 40
0.2500000000000142
 40
0.2500000000000142
 40
0.2812500000000146
 40
0.2812500000000146
 40
0.312500000000015
 40
0.312500000000015
 40
0.3750000000000181
 40
0.3750000000000181
 40
0.5000000000000214
 40
0.5000000000000214
 40
0.5312500000000217
 40
0.5312500000000217
 40
0.5625000000000218
 40
0.5625000000000218
 40
0.6250000000000189
 40
0.6250000000000189
 40
0.7500000000000124
 40
0.7500000000000124
 40
0.812500000000009
 40
0.812500000000009
 40
0.8437500000000074
 40
0.8437500000000074
 40
0.875000000000006
 40
0.875000000000006
 40
1.0
 40
1.0
 40
1.0
 40
1.0
 10
287.2117180281064
 20
266.1232269366061
 30
0.0
 10
287.2130765970711
 20
265.9923843753998
 30
0.0
 10
287.2138899082234
 20
265.8566908494603
 30
0.0
 10
287.2144714871948
 20
265.5760064189087
 30
0.0
 10
287.2142396706697
 20
265.4310147639166
 30
0.0
 10
287.2132772573386
 20
265.2437909326511
 30
0.0
 10
287.2130503686598
 20
265.2059644975081
 30
0.0
 10
287.2125307272665
 20
265.1301280231962
 30
0.0
 10
287.2122384058863
 20
265.0921566260413
 30
0.0
 10
287.2112655148497
 20
264.9780855309941
 30
0.0
 10
287.2104891619302
 20
264.9018291644537
 30
0.0
 10
287.2077839602831
 20
264.6724448237549
 30
0.0
 10
287.2054811873327
 20
264.5187052374985
 30
0.0
 10
287.2019684984238
 20
264.3254933832918
 30
0.0
 10
287.2012340726213
 20
264.2867988545584
 30
0.0
 10
287.1997004596341
 20
264.2093038696267
 30
0.0
 10
287.1988999680863
 20
264.1704480024897
 30
0.0
 10
287.1964211767683
 20
264.0547026293185
 30
0.0
 10
287.1946603567143
 20
263.9783465054931
 30
0.0
 10
287.1890611964971
 20
263.7516395354427
 30
0.0
 10
287.1849079859392
 20
263.603636448201
 30
0.0
 10
287.1780456735552
 20
263.3863478829788
 30
0.0
 10
287.1756523641447
 20
263.3147077711786
 30
0.0
 10
287.171898998624
 20
263.20846596863
 30
0.0
 10
287.1706230792991
 20
263.1733294240117
 30
0.0
 10
287.1680384767246
 20
263.1040548151352
 30
0.0
 10
287.1667274504174
 20
263.0698499126244
 30
0.0
 10
287.1600799781727
 20
262.9009577502895
 30
0.0
 10
287.1544681439045
 20
262.772629813196
 30
0.0
 10
287.1485654338438
 20
262.6510188384147
 30
0.0
  0
SPLINE
  5
1E0
330
1F
100
AcDbEntity
  8
1
100
AcDbSpline
210
0.0
220
0.0
230
1.0
 70
     8
 71
     3
 72
     8
 73
     4
 74
     0
 42
0.000000001
 43
0.0000000001
 40
0.0
 40
0.0
 40
0.0
 40
0.0
 40
1.0
 40
1.0
 40
1.0
 40
1.0
 10
285.9581574712581
 20
262.8259297270654
 30
0.0
 10
286.3552459671901
 20
262.7674583867354
 30
0.0
 10
286.7520622626006
 20
262.709094570239
 30
0.0
 10
287.1485654338438
 20
262.6510188384147
 30
0.0
  0
SPLINE
  5
1E1
330
1F
100
AcDbEntity
  8
1
100
AcDbSpline
210
0.0
220
0.0
230
1.0
 70
     8
 71
     3
 72
     8
 73
     4
 74
     0
 42
0.000000001
 43
0.0000000001
 40
0.0
 40
0.0
 40
0.0
 40
0.0
 40
1.0
 40
1.0
 40
1.0
 40
1.0
 10
284.9550766294564
 20
262.8397610363855
 30
0.0
 10
285.2894358669274
 20
262.8350897774208
 30
0.0
 10
285.6237961490984
 20
262.8304789781357
 30
0.0
 10
285.9581574712581
 20
262.8259297270654
 30
0.0
  0
SPLINE
  5
1E2
330
1F
100
AcDbEntity
  8
1
100
AcDbSpline
210
0.0
220
0.0
230
1.0
 70
     8
 71
     3
 72
     8
 73
     4
 74
     0
 42
0.000000001
 43
0.0000000001
 40
0.0
 40
0.0
 40
0.0
 40
0.0
 40
1.0
 40
1.0
 40
1.0
 40
1.0
 10
284.9550766294564
 20
262.8397610363855
 30
0.0
 10
284.8848004684806
 20
262.8406878822685
 30
0.0
 10
284.8145243536379
 20
262.8416175109438
 30
0.0
 10
284.7442482849924
 20
262.8425499111284
 30
0.0
  0
SPLINE
  5
1E3
330
1F
100
AcDbEntity
  8
1
100
AcDbSpline
210
0.0
220
0.0
230
1.0
 70
    12
 71
     2
 72
     6
 73
     3
 74
     0
 42
0.000000001
 43
0.0000000001
 40
0.0
 40
0.0
 40
0.0
 40
1.0
 40
1.0
 40
1.0
 10
284.9047773997059
 20
278.4383161034522
 30
0.0
 41
0.4999999853116919
 10
284.8245121952068
 20
278.439965652015
 30
0.0
 41
0.4999999732697309
 10
284.7442482849923
 20
278.4416146331506
 30
0.0
 41
0.4999999513553722
  0
SPLINE
  5
203
330
1F
100
AcDbEntity
  8
1
100
AcDbSpline
210
0.0
220
0.0
230
1.0
 70
    24
 71
     3
 72
     8
 73
     4
 74
     0
 42
0.000000001
 43
0.0000000001
 40
0.0
 40
0.0
 40
0.0
 40
0.0
 40
1.0
 40
1.0
 40
1.0
 40
1.0
 10
249.4442482849925
 20
238.2340184530482
 30
0.0
 10
249.7716943194436
 20
238.5614644874994
 30
0.0
 10
250.1052466591024
 20
238.8950168271582
 30
0.0
 10
250.4442482849925
 20
239.2340184530482
 30
0.0
  0
SPLINE
  5
204
330
1F
100
AcDbEntity
  8
1
100
AcDbSpline
210
0.0
220
0.0
230
1.0
 70
    24
 71
     3
 72
     8
 73
     4
 74
     0
 42
0.000000001
 43
0.0000000001
 40
0.0
 40
0.0
 40
0.0
 40
0.0
 40
1.0
 40
1.0
 40
1.0
 40
1.0
 10
250.4442482849925
 20
249.6340184530482
 30
0.0
 10
250.1052466591024
 20
249.9730200789382
 30
0.0
 10
249.7716943194436
 20
250.306572418597
 30
0.0
 10
249.4442482849925
 20
250.6340184530482
 30
0.0
  0
SPLINE
  5
205
330
1F
100
AcDbEntity
  8
1
100
AcDbSpline
210
0.0
220
0.0
230
1.0
 70
     8
 71
     3
 72
    35
 73
    31
 74
     0
 42
0.000000001
 43
0.0000000001
 40
0.0
 40
0.0
 40
0.0
 40
0.0
 40
0.1249999999999979
 40
0.1249999999999979
 40
0.1874999999999976
 40
0.1874999999999976
 40
0.2499999999999972
 40
0.2499999999999972
 40
0.3749999999999986
 40
0.3749999999999986
 40
0.4375000000000007
 40
0.4375000000000007
 40
0.4687500000000023
 40
0.4687500000000023
 40
0.5000000000000038
 40
0.5000000000000038
 40
0.6250000000000045
 40
0.6250000000000045
 40
0.6562500000000041
 40
0.6562500000000041
 40
0.6875000000000038
 40
0.6875000000000038
 40
0.7500000000000034
 40
0.7500000000000034
 40
0.8750000000000021
 40
0.8750000000000021
 40
0.9062500000000014
 40
0.9062500000000014
 40
0.9375000000000007
 40
1.0
 40
1.0
 40
1.0
 40
1.0
 10
255.7442482849925
 20
240.2340184530482
 30
0.0
 10
255.7442482849925
 20
240.1685573165621
 30
0.0
 10
255.7378830751067
 20
240.1042276590878
 30
0.0
 10
255.7192162479719
 20
240.0093489007179
 30
0.0
 10
255.7114628954686
 20
239.9779938147556
 30
0.0
 10
255.6928323442175
 20
239.9158345428401
 30
0.0
 10
255.6818860282024
 20
239.8848883573809
 30
0.0
 10
255.6449116581155
 20
239.7946655958995
 30
0.0
 10
255.6147280825932
 20
239.7375678694949
 30
0.0
 10
255.5612204564904
 20
239.6564320647188
 30
0.0
 10
255.5420029292987
 20
239.6301438081843
 30
0.0
 10
255.5110199933548
 20
239.5918888617191
 30
0.0
 10
255.5003573879582
 20
239.5793684715612
 30
0.0
 10
255.4785414793174
 20
239.5549889407171
 30
0.0
 10
255.4673636651578
 20
239.5430991091769
 30
0.0
 10
255.4101408835442
 20
239.4851303896722
 30
0.0
 10
255.3601338932793
 20
239.4434494627588
 30
0.0
 10
255.2921956868297
 20
239.3973445049052
 30
0.0
 10
255.2783340887839
 20
239.3884260731678
 30
0.0
 10
255.2500488833091
 20
239.3712091615672
 30
0.0
 10
255.2356418672515
 20
239.3629241424592
 30
0.0
 10
255.192076764264
 20
239.3392886303328
 30
0.0
 10
255.1624160814414
 20
239.3250552663802
 30
0.0
 10
255.0716136403945
 20
239.286840831427
 30
0.0
 10
255.0086701168134
 20
239.2672991636303
 30
0.0
 10
254.9268129508121
 20
239.2506826960969
 30
0.0
 10
254.9103364773689
 20
239.2477664847924
 30
0.0
 10
254.8773512677176
 20
239.2427758850937
 30
0.0
 10
254.8277440934583
 20
239.2365375270711
 30
0.0
 10
254.7777511447433
 20
239.2340184530482
 30
0.0
 10
254.7442482849925
 20
239.2340184530482
 30
0.0
  0
SPLINE
  5
206
330
1F
100
AcDbEntity
  8
1
100
AcDbSpline
210
0.0
220
0.0
230
1.0
 70
     8
 71
     3
 72
    32
 73
    28
 74
     0
 42
0.000000001
 43
0.0000000001
 40
0.0
 40
0.0
 40
0.0
 40
0.0
 40
0.1249999999999985
 40
0.1249999999999985
 40
0.1874999999999986
 40
0.1874999999999986
 40
0.2187499999999994
 40
0.2187499999999994
 40
0.2500000000000002
 40
0.2500000000000002
 40
0.3750000000000003
 40
0.3750000000000003
 40
0.4062500000000007
 40
0.4062500000000007
 40
0.4375000000000011
 40
0.4375000000000011
 40
0.5000000000000017
 40
0.5000000000000017
 40
0.6250000000000017
 40
0.6250000000000017
 40
0.7500000000000016
 40
0.7500000000000016
 40
0.8125000000000019
 40
0.8125000000000019
 40
0.8750000000000021
 40
0.8750000000000021
 40
1.0
 40
1.0
 40
1.0
 40
1.0
 10
254.7442482849925
 20
249.6340184530482
 30
0.0
 10
254.8112184715624
 20
249.6340184530482
 30
0.0
 10
254.877003954183
 20
249.6273591300464
 30
0.0
 10
254.9739862773941
 20
249.6078294700929
 30
0.0
 10
255.0060289195944
 20
249.5997172355618
 30
0.0
 10
255.0536567571899
 20
249.5850926915452
 30
0.0
 10
255.0695040558861
 20
249.5797905877956
 30
0.0
 10
255.1007544934631
 20
249.5684592327053
 30
0.0
 10
255.1161709348546
 20
249.5624287910387
 30
0.0
 10
255.1922326902552
 20
249.530492313978
 30
0.0
 10
255.2498461878534
 20
249.4992855717401
 30
0.0
 10
255.3178840732638
 20
249.4532935955025
 30
0.0
 10
255.331290871234
 20
249.4437427927706
 30
0.0
 10
255.3576971168095
 20
249.4239254318389
 30
0.0
 10
255.3706693360334
 20
249.4136763270295
 30
0.0
 10
255.4085665101571
 20
249.3821897103864
 30
0.0
 10
255.4326074671118
 20
249.360116743246
 30
0.0
 10
255.5011747604052
 20
249.2907456973155
 30
0.0
 10
255.5422061645193
 20
249.2402857999908
 30
0.0
 10
255.6145202973167
 20
249.1309324275277
 30
0.0
 10
255.6447174821741
 20
249.0736989733781
 30
0.0
 10
255.6814972722181
 20
248.9841688060428
 30
0.0
 10
255.6923271148446
 20
248.9537075653608
 30
0.0
 10
255.7110711845002
 20
248.8915220008539
 30
0.0
 10
255.7189890315209
 20
248.859711048377
 30
0.0
 10
255.7378885296009
 20
248.7640405527491
 30
0.0
 10
255.7442482849925
 20
248.6994461701825
 30
0.0
 10
255.7442482849925
 20
248.6340184530482
 30
0.0
  0
LINE
  5
209
330
1F
100
AcDbEntity
  8
SK4
100
AcDbLine
 10
291.244248
 20
244.434018
 30
0.0
 11
250.044248
 21
244.434018
 31
0.0
  0
LINE
  5
20A
330
1F
100
AcDbEntity
  8
4
100
AcDbLine
 10
245.444248
 20
244.434018
 30
0.0
 11
290.744248
 21
244.434018
 31
0.0
  0
MTEXT
  5
20B
330
1F
100
AcDbEntity
  8
SK6
100
AcDbMText
 10
253.943367
 20
134.434013
 30
0.0
 40
3.5
 41
0.0
 71
     7
 72
     5
  1
\W0.7396;80A04R-S90SN11N5\P\P\P\P\P\P\P\P\P\P\P 
  7
cesky
 73
     1
 44
0.8433729999999998
  0
MTEXT
  5
320
330
1F
100
AcDbEntity
  8
2
100
AcDbMText
 10
267.629748
 20
295.192691
 30
0.0
 40
3.5
 41
0.0
 71
     7
 72
     5
  1
\W0.7045;40
  7
cesky
 73
     2
 44
0.8433729999999998
  0
LINE
  5
321
330
1F
100
AcDbEntity
  8
2
100
AcDbLine
 10
289.444248
 20
286.4340180000001
 30
0.0
 11
289.444248
 21
296.3185240000001
 31
0.0
  0
LINE
  5
322
330
1F
100
AcDbEntity
  8
2
100
AcDbLine
 10
249.444248
 20
263.4340180000001
 30
0.0
 11
249.444248
 21
296.3185240000001
 31
0.0
  0
LINE
  5
323
330
1F
100
AcDbEntity
  8
2
100
AcDbLine
 10
289.444248
 20
295.318524
 30
0.0
 11
249.444248
 21
295.318524
 31
0.0
  0
SOLID
  5
324
330
1F
100
AcDbEntity
  8
2
100
AcDbTrace
 10
289.444248
 20
295.318524
 30
0.0
 11
285.944251
 21
294.70138
 31
0.0
 12
285.944246
 22
295.935669
 32
0.0
 13
285.944246
 23
295.935669
 33
0.0
  0
SOLID
  5
325
330
1F
100
AcDbEntity
  8
2
100
AcDbTrace
 10
249.444248
 20
295.318524
 30
0.0
 11
252.944246
 21
295.935669
 31
0.0
 12
252.944251
 22
294.70138
 32
0.0
 13
252.944251
 23
294.70138
 33
0.0
  0
MTEXT
  5
326
330
1F
100
AcDbEntity
  8
2
100
AcDbMText
 10
286.392555
 20
287.5279
 30
0.0
 40
3.5
 41
0.0
 71
     7
 72
     5
  1
\W0.6094;5
  7
cesky
 73
     2
 44
0.8433729999999998
  0
LINE
  5
327
330
1F
100
AcDbEntity
  8
2
100
AcDbLine
 10
289.444248
 20
286.4340180000001
 30
0.0
 11
289.444248
 21
288.653733
 31
0.0
  0
LINE
  5
328
330
1F
100
AcDbEntity
  8
2
100
AcDbLine
 10
284.444862
 20
284.388506
 30
0.0
 11
284.444862
 21
288.653733
 31
0.0
  0
LINE
  5
329
330
1F
100
AcDbEntity
  8
2
100
AcDbLine
 10
298.194248
 20
287.653733
 30
0.0
 11
275.694862
 21
287.653733
 31
0.0
  0
SOLID
  5
32A
330
1F
100
AcDbEntity
  8
2
100
AcDbTrace
 10
289.444248
 20
287.653733
 30
0.0
 11
292.944246
 21
288.270878
 31
0.0
 12
292.9442509999999
 22
287.036589
 32
0.0
 13
292.9442509999999
 23
287.036589
 33
0.0
  0
SOLID
  5
32B
330
1F
100
AcDbEntity
  8
2
100
AcDbTrace
 10
284.444862
 20
287.653733
 30
0.0
 11
280.944865
 21
287.036589
 31
0.0
 12
280.94486
 22
288.270878
 32
0.0
 13
280.94486
 23
288.270878
 33
0.0
  0
MTEXT
  5
32C
330
1F
100
AcDbEntity
  8
2
100
AcDbMText
 10
299.883361
 20
240.940543
 30
0.0
 40
3.5
 41
0.0
 71
     7
 72
     5
  1
\W0.7045;80
  7
cesky
 11
0.0000000000000001
 21
1.0
 31
0.0
 73
     2
 44
0.8433729999999998
  0
MTEXT
  5
32D
330
1F
100
AcDbEntity
  8
2
100
AcDbMText
 10
299.883361
 20
234.203043
 30
0.0
 40
3.5
 41
0.0
 71
     7
 72
     5
  1
\W3.0115;\H2.63;%%c\H3.50;
  7
cesky
 11
0.0000000000000001
 21
1.0
 31
0.0
 73
     2
 44
0.8433729999999998
  0
LINE
  5
32E
330
1F
100
AcDbEntity
  8
2
100
AcDbLine
 10
291.444248
 20
284.4340180000001
 30
0.0
 11
301.070778
 21
284.4340180000001
 31
0.0
  0
LINE
  5
32F
330
1F
100
AcDbEntity
  8
2
100
AcDbLine
 10
300.0707779999999
 20
284.4340180000001
 30
0.0
 11
300.0707779999999
 21
234.045543
 31
0.0
  0
SOLID
  5
330
330
1F
100
AcDbEntity
  8
2
100
AcDbTrace
 10
300.0707779999999
 20
284.4340180000001
 30
0.0
 11
300.687922
 21
280.934021
 31
0.0
 12
299.453634
 22
280.9340160000001
 32
0.0
 13
299.453634
 23
280.9340160000001
 33
0.0
  0
MTEXT
  5
331
330
1F
100
AcDbEntity
  8
SK2
100
AcDbMText
 10
236.604748
 20
215.88534
 30
0.0
 40
3.5
 41
0.0
 71
     7
 72
     5
  1
\W0.8874;6,3
  7
cesky
 73
     2
 44
0.8433729999999998
  0
LINE
  5
332
330
1F
100
AcDbEntity
  8
SK2
100
AcDbLine
 10
249.444248
 20
225.434018
 30
0.0
 11
249.444248
 21
215.011173
 31
0.0
  0
LINE
  5
333
330
1F
100
AcDbEntity
  8
SK2
100
AcDbLine
 10
255.744248
 20
244.434018
 30
0.0
 11
255.744248
 21
215.011173
 31
0.0
  0
LINE
  5
334
330
1F
100
AcDbEntity
  8
SK2
100
AcDbLine
 10
264.494248
 20
216.011173
 30
0.0
 11
236.419248
 21
216.011173
 31
0.0
  0
SOLID
  5
335
330
1F
100
AcDbEntity
  8
SK2
100
AcDbTrace
 10
249.444248
 20
216.011173
 30
0.0
 11
245.944251
 21
215.394029
 31
0.0
 12
245.944246
 22
216.628317
 32
0.0
 13
245.944246
 23
216.628317
 33
0.0
  0
SOLID
  5
336
330
1F
100
AcDbEntity
  8
SK2
100
AcDbTrace
 10
255.744248
 20
216.011173
 30
0.0
 11
259.244246
 21
216.628317
 31
0.0
 12
259.244251
 22
215.394029
 32
0.0
 13
259.244251
 23
215.394029
 33
0.0
  0
MTEXT
  5
337
330
1F
100
AcDbEntity
  8
SK2
100
AcDbMText
 10
231.116142
 20
245.960268
 30
0.0
 40
3.5
 41
0.0
 71
     7
 72
     5
  1
\W0.7045;22
  7
cesky
 11
0.0000000000000001
 21
1.0
 31
0.0
 73
     2
 44
0.8433729999999998
  0
MTEXT
  5
338
330
1F
100
AcDbEntity
  8
SK2
100
AcDbMText
 10
231.116142
 20
239.222768
 30
0.0
 40
3.5
 41
0.0
 71
     7
 72
     5
  1
\W3.0115;\H2.63;%%c\H3.50;
  7
cesky
 11
0.0000000000000001
 21
1.0
 31
0.0
 73
     2
 44
0.8433729999999998
  0
LINE
  5
339
330
1F
100
AcDbEntity
  8
SK2
100
AcDbLine
 10
250.444248
 20
255.434018
 30
0.0
 11
230.303559
 21
255.434018
 31
0.0
  0
LINE
  5
33A
330
1F
100
AcDbEntity
  8
SK2
100
AcDbLine
 10
250.444248
 20
233.434018
 30
0.0
 11
230.303559
 21
233.434018
 31
0.0
  0
LINE
  5
33B
330
1F
100
AcDbEntity
  8
SK2
100
AcDbLine
 10
231.303559
 20
255.434018
 30
0.0
 11
231.303559
 21
233.434018
 31
0.0
  0
SOLID
  5
33C
330
1F
100
AcDbEntity
  8
SK2
100
AcDbTrace
 10
231.303559
 20
255.434018
 30
0.0
 11
231.920703
 21
251.934021
 31
0.0
 12
230.686415
 22
251.934016
 32
0.0
 13
230.686415
 23
251.934016
 33
0.0
  0
SOLID
  5
33D
330
1F
100
AcDbEntity
  8
SK2
100
AcDbTrace
 10
231.303559
 20
233.434018
 30
0.0
 11
230.686415
 21
236.934016
 31
0.0
 12
231.920703
 22
236.934021
 32
0.0
 13
231.920703
 23
236.934021
 33
0.0
  0
MTEXT
  5
33E
330
1F
100
AcDbEntity
  8
SK2
100
AcDbMText
 10
222.06372
 20
245.960268
 30
0.0
 40
3.5
 41
0.0
 71
     7
 72
     5
  1
\W0.7045;40
  7
cesky
 11
0.0000000000000001
 21
1.0
 31
0.0
 73
     2
 44
0.8433729999999998
  0
MTEXT
  5
33F
330
1F
100
AcDbEntity
  8
SK2
100
AcDbMText
 10
222.06372
 20
239.222768
 30
0.0
 40
3.5
 41
0.0
 71
     7
 72
     5
  1
\W3.0115;\H2.63;%%c\H3.50;
  7
cesky
 11
0.0000000000000001
 21
1.0
 31
0.0
 73
     2
 44
0.8433729999999998
  0
LINE
  5
340
330
1F
100
AcDbEntity
  8
SK2
100
AcDbLine
 10
250.444248
 20
264.434018
 30
0.0
 11
221.251137
 21
264.434018
 31
0.0
  0
LINE
  5
341
330
1F
100
AcDbEntity
  8
SK2
100
AcDbLine
 10
250.444248
 20
224.434018
 30
0.0
 11
221.251137
 21
224.434018
 31
0.0
  0
LINE
  5
342
330
1F
100
AcDbEntity
  8
SK2
100
AcDbLine
 10
222.251137
 20
264.434018
 30
0.0
 11
222.251137
 21
224.434018
 31
0.0
  0
SOLID
  5
343
330
1F
100
AcDbEntity
  8
SK2
100
AcDbTrace
 10
222.251137
 20
264.434018
 30
0.0
 11
222.868281
 21
260.934021
 31
0.0
 12
221.633992
 22
260.934016
 32
0.0
 13
221.633992
 23
260.934016
 33
0.0
  0
SOLID
  5
344
330
1F
100
AcDbEntity
  8
SK2
100
AcDbTrace
 10
222.251137
 20
224.434018
 30
0.0
 11
221.633992
 21
227.934016
 31
0.0
 12
222.868281
 22
227.934021
 32
0.0
 13
222.868281
 23
227.934021
 33
0.0
  0
MTEXT
  5
345
330
1F
100
AcDbEntity
  8
SK2
100
AcDbMText
 10
241.912028
 20
240.066518
 30
0.0
 40
3.5
 41
0.0
 71
     7
 72
     5
  1
\W0.8876;10,4
  7
cesky
 11
0.0000000000000001
 21
1.0
 31
0.0
 73
     2
 44
0.8433729999999998
  0
LINE
  5
346
330
1F
100
AcDbEntity
  8
SK2
100
AcDbLine
 10
250.444248
 20
249.634018
 30
0.0
 11
240.443195
 21
249.634018
 31
0.0
  0
LINE
  5
347
330
1F
100
AcDbEntity
  8
SK2
100
AcDbLine
 10
250.444248
 20
239.234018
 30
0.0
 11
240.443195
 21
239.234018
 31
0.0
  0
LINE
  5
348
330
1F
100
AcDbEntity
  8
SK2
100
AcDbLine
 10
241.443195
 20
249.634018
 30
0.0
 11
241.443195
 21
239.234018
 31
0.0
  0
SOLID
  5
349
330
1F
100
AcDbEntity
  8
SK2
100
AcDbTrace
 10
241.443195
 20
249.634018
 30
0.0
 11
242.060339
 21
246.134021
 31
0.0
 12
240.82605
 22
246.134016
 32
0.0
 13
240.82605
 23
246.134016
 33
0.0
  0
SOLID
  5
34A
330
1F
100
AcDbEntity
  8
SK2
100
AcDbTrace
 10
241.443195
 20
239.234018
 30
0.0
 11
240.82605
 21
242.734016
 31
0.0
 12
242.060339
 22
242.734021
 32
0.0
 13
242.060339
 23
242.734021
 33
0.0
  0
LINE
  5
34B
330
1F
100
AcDbEntity
  8
CUT
100
AcDbLine
 10
284.491841818017
 20
279.1378040697756
 30
0.0
 11
284.470077770408
 21
281.5655556022472
 31
0.0
  0
LINE
  5
34C
330
1F
100
AcDbEntity
  8
CUT
100
AcDbLine
 10
284.546852646229
 20
284.39028758634
 30
0.0
 11
286.9442482849919
 21
284.4322901128897
 31
0.0
  0
LINE
  5
34E
330
1F
100
AcDbEntity
  8
CUT
100
AcDbLine
 10
289.4405850301772
 20
284.2808737005218
 30
0.0
 11
289.4406719261985
 21
284.2906198470525
 31
0.0
  0
LINE
  5
34F
330
1F
100
AcDbEntity
  8
CUT
100
AcDbLine
 10
289.3417176005925
 20
273.7826489951226
 30
0.0
 11
289.396654751968
 21
279.1378040697756
 31
0.0
  0
LINE
  5
350
330
1F
100
AcDbEntity
  8
CUT
100
AcDbLine
 10
284.4479115398077
 20
284.2808737005219
 30
0.0
 11
284.4478246437865
 21
284.2906198470525
 31
0.0
  0
LINE
  5
356
330
1F
100
AcDbEntity
  8
CUT
100
AcDbLine
 10
286.9442482849932
 20
273.8596047594076
 30
0.0
 11
284.6423165418725
 21
273.8122448458146
 31
0.0
  0
LINE
  5
35C
330
1F
100
AcDbEntity
  8
CUT
100
AcDbLine
 10
289.396654751968
 20
279.1378040697757
 30
0.0
 11
289.418418799577
 21
281.5655556022472
 31
0.0
  0
LINE
  5
35D
330
1F
100
AcDbEntity
  8
CUT
100
AcDbLine
 10
289.341643923756
 20
284.39028758634
 30
0.0
 11
286.9442482849927
 21
284.4322901128897
 31
0.0
  0
LINE
  5
363
330
1F
100
AcDbEntity
  8
CUT
100
AcDbLine
 10
286.9442482849929
 20
273.8596047594076
 30
0.0
 11
289.2461800281125
 21
273.8122448458146
 31
0.0
  0
LINE
  5
364
330
1F
100
AcDbEntity
  8
CUT
100
AcDbLine
 10
289.434236425234
 20
283.9594593758177
 30
0.0
 11
289.4405850301772
 21
284.2808737005218
 31
0.0
  0
LINE
  5
365
330
1F
100
AcDbEntity
  8
CUT
100
AcDbLine
 10
284.5467789693925
 20
273.7826489951226
 30
0.0
 11
284.491841818017
 21
279.1378040697756
 31
0.0
  0
LINE
  5
366
330
1F
100
AcDbEntity
  8
CUT
100
AcDbLine
 10
284.4542601447509
 20
283.9594593758177
 30
0.0
 11
284.4479115398077
 21
284.2808737005218
 31
0.0
  0
LINE
  5
367
330
1F
100
AcDbEntity
  8
CUT
100
AcDbLine
 10
289.4406719261985
 20
284.2906198470525
 30
0.0
 11
289.341643923756
 21
284.39028758634
 31
0.0
  0
LINE
  5
369
330
1F
100
AcDbEntity
  8
CUT
100
AcDbLine
 10
284.4478246437865
 20
284.2906198470525
 30
0.0
 11
284.546852646229
 21
284.39028758634
 31
0.0
  0
LINE
  5
373
330
1F
100
AcDbEntity
  8
CUT
100
AcDbLine
 10
284.6423165418725
 20
273.8122448458146
 30
0.0
 11
284.6423165418725
 21
273.8122448458146
 31
0.0
  0
ARC
  5
374
330
1F
100
AcDbEntity
  8
CUT
100
AcDbCircle
 10
275.499907946207
 20
303.1556099622081
 30
0.0
 40
30.73461747417855
100
AcDbArc
 50
287.1188306346815
 51
287.3052828609194
  0
LINE
  5
375
330
1F
100
AcDbEntity
  8
CUT
100
AcDbLine
 10
289.2461800281125
 20
273.8122448458146
 30
0.0
 11
289.2461800281125
 21
273.8122448458146
 31
0.0
  0
ARC
  5
376
330
1F
100
AcDbEntity
  8
CUT
100
AcDbCircle
 10
298.3885886428284
 20
303.1556100236694
 30
0.0
 40
30.73461753852445
100
AcDbArc
 50
252.6947171392567
 51
252.881169365104
  0
ARC
  5
377
330
1F
100
AcDbEntity
  8
CUT
100
AcDbCircle
 10
366.0818402024334
 20
282.1982086326194
 30
0.0
 40
76.66603179406625
100
AcDbArc
 50
179.3546068388076
 51
180.4728138276998
  0
ARC
  5
378
330
1F
100
AcDbEntity
  8
CUT
100
AcDbCircle
 10
385.4409173876371
 20
282.0598275390004
 30
0.0
 40
96.02547261290657
100
AcDbArc
 50
178.8664675702788
 51
179.4021546672962
  0
ARC
  5
379
330
1F
100
AcDbEntity
  8
CUT
100
AcDbCircle
 10
207.8066563684442
 20
282.1982086326149
 30
0.0
 40
76.6660317931738
100
AcDbArc
 50
359.527186172298
 51
0.6453931612032538
  0
ARC
  5
37A
330
1F
100
AcDbEntity
  8
CUT
100
AcDbCircle
 10
188.4475791966522
 20
282.0598275392165
 30
0.0
 40
96.02547259860084
100
AcDbArc
 50
0.5978453326639418
 51
1.133532429761124
  0
ENDSEC
  0
SECTION
  2
OBJECTS
  0
DICTIONARY
  5
C
330
0
100
AcDbDictionary
281
     1
  3
ACAD_CIP_PREVIOUS_PRODUCT_INFO
350
31D
  3
ACAD_COLOR
350
317
  3
ACAD_DETAILVIEWSTYLE
350
313
  3
ACAD_GROUP
350
D
  3
ACAD_IMAGE_DICT
350
198
  3
ACAD_IMAGE_VARS
350
31C
  3
ACAD_LAYOUT
350
1A
  3
ACAD_MATERIAL
350
43
  3
ACAD_MLEADERSTYLE
350
6B
  3
ACAD_MLINESTYLE
350
17
  3
ACAD_PLOTSETTINGS
350
19
  3
ACAD_PLOTSTYLENAME
350
E
  3
ACAD_SCALELIST
350
47
  3
ACAD_SECTIONVIEWSTYLE
350
314
  3
ACAD_TABLESTYLE
350
69
  3
ACAD_VISUALSTYLE
350
2A
  3
ACDB_RECOMPOSE_DATA
350
3B4
  3
AcDbVariableDictionary
350
2D0
  3
AcDsDecomposeData
350
3BA
  0
DICTIONARY
  5
3A9
330
2
100
AcDbDictionary
280
     1
281
     1
  3
ACAD_LAYERSTATES
360
3AA
  0
DICTIONARY
  5
38A
330
10
100
AcDbDictionary
280
     1
281
     1
  3
ADSK_XREC_LAYER_RECONCILED
360
38B
  0
DICTIONARY
  5
38C
330
76
100
AcDbDictionary
280
     1
281
     1
  3
ADSK_XREC_LAYER_RECONCILED
360
38D
  0
DICTIONARY
  5
38E
330
37B
100
AcDbDictionary
280
     1
281
     1
  3
ADSK_XREC_LAYER_RECONCILED
360
38F
  0
DICTIONARY
  5
390
330
37C
100
AcDbDictionary
280
     1
281
     1
  3
ADSK_XREC_LAYER_RECONCILED
360
391
  0
DICTIONARY
  5
392
330
37D
100
AcDbDictionary
280
     1
281
     1
  3
ADSK_XREC_LAYER_RECONCILED
360
393
  0
DICTIONARY
  5
394
330
380
100
AcDbDictionary
280
     1
281
     1
  3
ADSK_XREC_LAYER_RECONCILED
360
395
  0
DICTIONARY
  5
396
330
381
100
AcDbDictionary
280
     1
281
     1
  3
ADSK_XREC_LAYER_RECONCILED
360
397
  0
DICTIONARY
  5
398
330
382
100
AcDbDictionary
280
     1
281
     1
  3
ADSK_XREC_LAYER_RECONCILED
360
399
  0
DICTIONARY
  5
39A
330
383
100
AcDbDictionary
280
     1
281
     1
  3
ADSK_XREC_LAYER_RECONCILED
360
39B
  0
DICTIONARY
  5
39C
330
384
100
AcDbDictionary
280
     1
281
     1
  3
ADSK_XREC_LAYER_RECONCILED
360
39D
  0
DICTIONARY
  5
39E
330
385
100
AcDbDictionary
280
     1
281
     1
  3
ADSK_XREC_LAYER_RECONCILED
360
39F
  0
DICTIONARY
  5
3A0
330
386
100
AcDbDictionary
280
     1
281
     1
  3
ADSK_XREC_LAYER_RECONCILED
360
3A1
  0
DICTIONARY
  5
3A2
330
387
100
AcDbDictionary
280
     1
281
     1
  3
ADSK_XREC_LAYER_RECONCILED
360
3A3
  0
DICTIONARY
  5
3A4
330
388
100
AcDbDictionary
280
     1
281
     1
  3
ADSK_XREC_LAYER_RECONCILED
360
3A5
  0
DICTIONARY
  5
31E
330
1F
100
AcDbDictionary
280
     1
281
     1
  3
ACAD_SORTENTS
360
31F
  0
XRECORD
  5
31D
102
{ACAD_REACTORS
330
C
102
}
330
C
100
AcDbXrecord
280
     1
300
ACD
300
2019
300

  0
DICTIONARY
  5
317
102
{ACAD_REACTORS
330
C
102
}
330
C
100
AcDbDictionary
281
     1
  0
DICTIONARY
  5
313
102
{ACAD_REACTORS
330
C
102
}
330
C
100
AcDbDictionary
281
     1
  3
Metric50
350
319
  0
DICTIONARY
  5
D
102
{ACAD_REACTORS
330
C
102
}
330
C
100
AcDbDictionary
281
     1
  3
NULOVY_BOD
350
389
  0
DICTIONARY
  5
198
102
{ACAD_REACTORS
330
C
102
}
330
C
100
AcDbDictionary
281
     1
  3
80A04R_S90SN11N5_2D_DormerPramet_jpg
350
199
  0
RASTERVARIABLES
  5
31C
102
{ACAD_REACTORS
330
C
102
}
330
C
100
AcDbRasterVariables
 90
        0
 70
     1
 71
     1
 72
     1
  0
DICTIONARY
  5
1A
102
{ACAD_REACTORS
330
C
102
}
330
C
100
AcDbDictionary
281
     1
  3
Layout1
350
1E
  3
Layout2
350
26
  3
Model
350
22
  0
DICTIONARY
  5
43
102
{ACAD_REACTORS
330
C
102
}
330
C
100
AcDbDictionary
281
     1
  3
ByBlock
350
45
  3
ByLayer
350
44
  3
Global
350
46
  0
DICTIONARY
  5
6B
102
{ACAD_REACTORS
330
C
102
}
330
C
100
AcDbDictionary
281
     1
  3
Standard
350
6C
  0
DICTIONARY
  5
17
102
{ACAD_REACTORS
330
C
102
}
330
C
100
AcDbDictionary
281
     1
  3
Standard
350
18
  0
DICTIONARY
  5
19
102
{ACAD_REACTORS
330
C
102
}
330
C
100
AcDbDictionary
281
     1
  0
ACDBDICTIONARYWDFLT
  5
E
102
{ACAD_REACTORS
330
C
102
}
330
C
100
AcDbDictionary
281
     1
  3
Normal
350
F
100
AcDbDictionaryWithDefault
340
F
  0
DICTIONARY
  5
47
102
{ACAD_REACTORS
330
C
102
}
330
C
100
AcDbDictionary
281
     1
  3
A0
350
48
  3
A1
350
49
  3
A2
350
4A
  3
A3
350
4B
  3
A4
350
4C
  3
A5
350
4D
  3
A6
350
4E
  3
A7
350
4F
  3
A8
350
50
  3
A9
350
51
  3
B0
350
52
  3
B1
350
53
  3
B2
350
54
  3
B3
350
55
  3
B4
350
56
  3
B5
350
57
  3
B6
350
58
  3
B7
350
59
  3
B8
350
5A
  3
B9
350
5B
  3
C0
350
5C
  3
C1
350
5D
  3
C2
350
5E
  3
C3
350
5F
  3
C4
350
60
  3
C5
350
61
  3
C6
350
62
  3
C7
350
63
  3
C8
350
64
  3
C9
350
65
  3
D0
350
66
  3
D1
350
67
  3
D2
350
68
  0
DICTIONARY
  5
314
102
{ACAD_REACTORS
330
C
102
}
330
C
100
AcDbDictionary
281
     1
  3
Metric50
350
318
  0
DICTIONARY
  5
69
102
{ACAD_REACTORS
330
C
102
}
330
C
100
AcDbDictionary
281
     1
  3
Standard
350
6A
  0
DICTIONARY
  5
2A
102
{ACAD_REACTORS
330
C
102
}
330
C
100
AcDbDictionary
281
     1
  3
2dWireframe
350
2F
  3
Basic
350
32
  3
Brighten
350
36
  3
ColorChange
350
3A
  3
Conceptual
350
34
  3
Dim
350
35
  3
EdgeColorOff
350
3D
  3
Facepattern
350
39
  3
Flat
350
2B
  3
FlatWithEdges
350
2C
  3
Gouraud
350
2D
  3
GouraudWithEdges
350
2E
  3
Hidden
350
31
  3
JitterOff
350
3B
  3
Linepattern
350
38
  3
OverhangOff
350
3C
  3
Realistic
350
33
  3
Shaded
350
42
  3
Shaded with edges
350
41
  3
Shades of Gray
350
3E
  3
Sketchy
350
3F
  3
Thicken
350
37
  3
Wireframe
350
30
  3
X-Ray
350
40
  0
XRECORD
  5
3B4
102
{ACAD_REACTORS
330
C
102
}
330
C
100
AcDbXrecord
280
     1
 90
        1
330
6A
  0
DICTIONARY
  5
2D0
102
{ACAD_REACTORS
330
C
102
}
330
C
100
AcDbDictionary
281
     1
  3
CANNOSCALE
350
2D1
  3
CMLEADERSTYLE
350
312
  3
CTABLESTYLE
350
311
  3
CVIEWDETAILSTYLE
350
3AF
  3
CVIEWSECTIONSTYLE
350
3B0
  3
MSLTSCALE
350
2D2
  3
XCLIPFRAME
350
3B1
  0
DICTIONARY
  5
3BA
102
{ACAD_REACTORS
330
C
102
}
330
C
100
AcDbDictionary
281
     1
  3
AcDsRecords
350
3BC
  3
AcDsSchemas
350
3BB
1001
ACAD
1070
     2
  0
DICTIONARY
  5
3AA
102
{ACAD_REACTORS
330
3A9
102
}
330
3A9
100
AcDbDictionary
281
     1
  0
XRECORD
  5
38B
102
{ACAD_REACTORS
330
38A
102
}
330
38A
100
AcDbXrecord
280
     1
290
     1
  0
XRECORD
  5
38D
102
{ACAD_REACTORS
330
38C
102
}
330
38C
100
AcDbXrecord
280
     1
290
     1
  0
XRECORD
  5
38F
102
{ACAD_REACTORS
330
38E
102
}
330
38E
100
AcDbXrecord
280
     1
290
     1
  0
XRECORD
  5
391
102
{ACAD_REACTORS
330
390
102
}
330
390
100
AcDbXrecord
280
     1
290
     1
  0
XRECORD
  5
393
102
{ACAD_REACTORS
330
392
102
}
330
392
100
AcDbXrecord
280
     1
290
     1
  0
XRECORD
  5
395
102
{ACAD_REACTORS
330
394
102
}
330
394
100
AcDbXrecord
280
     1
290
     1
  0
XRECORD
  5
397
102
{ACAD_REACTORS
330
396
102
}
330
396
100
AcDbXrecord
280
     1
290
     1
  0
XRECORD
  5
399
102
{ACAD_REACTORS
330
398
102
}
330
398
100
AcDbXrecord
280
     1
290
     1
  0
XRECORD
  5
39B
102
{ACAD_REACTORS
330
39A
102
}
330
39A
100
AcDbXrecord
280
     1
290
     1
  0
XRECORD
  5
39D
102
{ACAD_REACTORS
330
39C
102
}
330
39C
100
AcDbXrecord
280
     1
290
     1
  0
XRECORD
  5
39F
102
{ACAD_REACTORS
330
39E
102
}
330
39E
100
AcDbXrecord
280
     1
290
     1
  0
XRECORD
  5
3A1
102
{ACAD_REACTORS
330
3A0
102
}
330
3A0
100
AcDbXrecord
280
     1
290
     1
  0
XRECORD
  5
3A3
102
{ACAD_REACTORS
330
3A2
102
}
330
3A2
100
AcDbXrecord
280
     1
290
     1
  0
XRECORD
  5
3A5
102
{ACAD_REACTORS
330
3A4
102
}
330
3A4
100
AcDbXrecord
280
     1
290
     1
  0
SORTENTSTABLE
  5
31F
102
{ACAD_REACTORS
330
31E
102
}
330
31E
100
AcDbSortentsTable
330
1F
331
320
  5
228
331
321
  5
271
331
322
  5
28A
331
323
  5
2A3
331
324
  5
320
331
325
  5
321
331
326
  5
329
331
327
  5
32A
331
328
  5
32B
331
329
  5
32C
331
32A
  5
32D
331
32B
  5
331
331
32C
  5
332
331
32D
  5
333
331
32E
  5
334
331
32F
  5
335
331
330
  5
336
331
331
  5
323
331
332
  5
324
331
333
  5
325
331
334
  5
326
331
335
  5
327
331
336
  5
328
331
356
  5
35D
331
35C
  5
369
331
35D
  5
36A
331
363
  5
373
331
364
  5
374
331
365
  5
375
331
366
  5
376
331
367
  5
377
331
369
  5
379
331
373
  5
366
331
374
  5
367
331
375
  5
36B
331
376
  5
36C
331
377
  5
36E
331
378
  5
36F
331
379
  5
371
331
37A
  5
372
  0
ACDBDETAILVIEWSTYLE
  5
319
102
{ACAD_XDICTIONARY
360
3F0
102
}
102
{ACAD_REACTORS
330
313
102
}
330
313
100
AcDbModelDocViewStyle
 70
     0
  3
Metric50
290
     0
100
AcDbDetailViewStyle
 70
     0
 71
     0
 90
        3
 71
     1
340
11
 62
   256
 40
5.0
340
0
 62
   256
 40
5.0
300

 40
0.0
280
     1
 71
     2
340
16
 90
       25
 62
   256
 71
     3
340
11
 62
   256
 40
5.0
 90
        0
 40
15.0
 90
        1
300
%<\AcVar ViewDetailId>% (%<\AcVar ViewScale \f "%sn">%)
 71
     4
340
16
 90
       25
 62
   256
340
16
 90
       25
 62
   256
280
     0
  0
GROUP
  5
389
102
{ACAD_REACTORS
330
D
102
}
330
D
100
AcDbGroup
300

 70
     0
 71
     1
340
73
  0
IMAGEDEF
  5
199
102
{ACAD_REACTORS
330
198
330
19C
102
}
330
198
100
AcDbRasterImageDef
 90
        0
  1
C:\Users\pp0701\Desktop\zakaznik data\80A04R_S90SN11N5_2D_DormerPramet.jpg
 10
2089.0
 20
531.0
 11
0.0004786979415989
 21
0.0004786979415989
280
     1
281
     0
  0
LAYOUT
  5
1E
102
{ACAD_REACTORS
330
1A
102
}
330
1A
100
AcDbPlotSettings
  1

  2
none_device
  4

  6

 40
0.0
 41
0.0
 42
0.0
 43
0.0
 44
0.0
 45
0.0
 46
0.0
 47
0.0
 48
0.0
 49
0.0
140
0.0
141
0.0
142
1.0
143
1.0
 70
   688
 72
     0
 73
     0
 74
     5
  7

 75
    16
147
1.0
 76
     0
 77
     2
 78
   300
148
0.0
149
0.0
100
AcDbLayout
  1
Layout1
 70
     1
 71
     1
 10
-0.5
 20
-0.5
 11
5.0
 21
5.0
 12
0.0
 22
0.0
 32
0.0
 14
-0.5
 24
-0.5
 34
-0.5
 15
5.0
 25
5.0
 35
5.0
146
0.0
 13
0.0
 23
0.0
 33
0.0
 16
1.0
 26
0.0
 36
0.0
 17
0.0
 27
1.0
 37
0.0
 76
     0
330
1B
  0
LAYOUT
  5
26
102
{ACAD_REACTORS
330
1A
102
}
330
1A
100
AcDbPlotSettings
  1

  2
none_device
  4

  6

 40
0.0
 41
0.0
 42
0.0
 43
0.0
 44
0.0
 45
0.0
 46
0.0
 47
0.0
 48
0.0
 49
0.0
140
0.0
141
0.0
142
1.0
143
1.0
 70
   688
 72
     0
 73
     0
 74
     5
  7

 75
    16
147
1.0
 76
     0
 77
     2
 78
   300
148
0.0
149
0.0
100
AcDbLayout
  1
Layout2
 70
     1
 71
     2
 10
0.0
 20
0.0
 11
0.0
 21
0.0
 12
0.0
 22
0.0
 32
0.0
 14
0.0
 24
0.0
 34
0.0
 15
0.0
 25
0.0
 35
0.0
146
0.0
 13
0.0
 23
0.0
 33
0.0
 16
1.0
 26
0.0
 36
0.0
 17
0.0
 27
1.0
 37
0.0
 76
     0
330
23
  0
LAYOUT
  5
22
102
{ACAD_REACTORS
330
1A
102
}
330
1A
100
AcDbPlotSettings
  1

  2
none_device
  4
Letter_(8.50_x_11.00_Inches)
  6

 40
6.349999999999999
 41
6.349999999999999
 42
6.350005
 43
6.350005
 44
215.9
 45
279.4
 46
0.0
 47
0.0
 48
0.0
 49
0.0
140
0.0
141
0.0
142
1.0
143
1.0
 70
  1712
 72
     0
 73
     0
 74
     0
  7

 75
     0
147
1.0
 76
     0
 77
     2
 78
   300
148
0.0
149
0.0
100
AcDbLayout
  1
Model
 70
     1
 71
     0
 10
-0.5
 20
-0.5
 11
5.0
 21
5.0
 12
0.0
 22
0.0
 32
0.0
 14
-0.5
 24
-0.5
 34
-0.5
 15
5.0
 25
5.0
 35
5.0
146
0.0
 13
0.0
 23
0.0
 33
0.0
 16
1.0
 26
0.0
 36
0.0
 17
0.0
 27
1.0
 37
0.0
 76
     0
330
1F
331
29
  0
MATERIAL
  5
45
102
{ACAD_XDICTIONARY
360
306
102
}
102
{ACAD_REACTORS
330
43
102
}
330
43
100
AcDbMaterial
  1
ByBlock
  0
MATERIAL
  5
44
102
{ACAD_XDICTIONARY
360
304
102
}
102
{ACAD_REACTORS
330
43
102
}
330
43
100
AcDbMaterial
  1
ByLayer
  0
MATERIAL
  5
46
102
{ACAD_XDICTIONARY
360
308
102
}
102
{ACAD_REACTORS
330
43
102
}
330
43
100
AcDbMaterial
  1
Global
  0
MLEADERSTYLE
  5
6C
102
{ACAD_REACTORS
330
6B
102
}
330
6B
100
AcDbMLeaderStyle
170
     2
171
     1
172
     0
 90
        2
 40
0.0
 41
0.0
173
     1
 91
-1056964608
340
14
 92
       -2
290
     1
 42
0.09
291
     1
 43
0.36
  3
Standard
 44
0.18
300

342
11
174
     1
178
     6
175
     1
176
     0
 93
-1056964608
 45
0.18
292
     0
297
     0
 46
0.18
 94
-1056964608
 47
1.0
 49
1.0
140
1.0
293
     1
141
0.0
294
     1
177
     0
142
1.0
295
     0
296
     0
143
0.125
1001
ACAD_MLEADERVER
1070
     2
  0
MLINESTYLE
  5
18
102
{ACAD_REACTORS
330
17
102
}
330
17
100
AcDbMlineStyle
  2
STANDARD
 70
     0
  3

 62
   256
 51
90.0
 52
90.0
 71
     2
 49
0.5
 62
   256
  6
BYLAYER
 49
-0.5
 62
   256
  6
BYLAYER
  0
ACDBPLACEHOLDER
  5
F
102
{ACAD_REACTORS
330
E
102
}
330
E
  0
SCALE
  5
48
102
{ACAD_REACTORS
330
47
102
}
330
47
100
AcDbScale
 70
     0
300
1:1
140
1.0
141
1.0
290
     1
  0
SCALE
  5
49
102
{ACAD_REACTORS
330
47
102
}
330
47
100
AcDbScale
 70
     0
300
1:2
140
1.0
141
2.0
290
     0
  0
SCALE
  5
4A
102
{ACAD_REACTORS
330
47
102
}
330
47
100
AcDbScale
 70
     0
300
1:4
140
1.0
141
4.0
290
     0
  0
SCALE
  5
4B
102
{ACAD_REACTORS
330
47
102
}
330
47
100
AcDbScale
 70
     0
300
1:5
140
1.0
141
5.0
290
     0
  0
SCALE
  5
4C
102
{ACAD_REACTORS
330
47
102
}
330
47
100
AcDbScale
 70
     0
300
1:8
140
1.0
141
8.0
290
     0
  0
SCALE
  5
4D
102
{ACAD_REACTORS
330
47
102
}
330
47
100
AcDbScale
 70
     0
300
1:10
140
1.0
141
10.0
290
     0
  0
SCALE
  5
4E
102
{ACAD_REACTORS
330
47
102
}
330
47
100
AcDbScale
 70
     0
300
1:16
140
1.0
141
16.0
290
     0
  0
SCALE
  5
4F
102
{ACAD_REACTORS
330
47
102
}
330
47
100
AcDbScale
 70
     0
300
1:20
140
1.0
141
20.0
290
     0
  0
SCALE
  5
50
102
{ACAD_REACTORS
330
47
102
}
330
47
100
AcDbScale
 70
     0
300
1:30
140
1.0
141
30.0
290
     0
  0
SCALE
  5
51
102
{ACAD_REACTORS
330
47
102
}
330
47
100
AcDbScale
 70
     0
300
1:40
140
1.0
141
40.0
290
     0
  0
SCALE
  5
52
102
{ACAD_REACTORS
330
47
102
}
330
47
100
AcDbScale
 70
     0
300
1:50
140
1.0
141
50.0
290
     0
  0
SCALE
  5
53
102
{ACAD_REACTORS
330
47
102
}
330
47
100
AcDbScale
 70
     0
300
1:100
140
1.0
141
100.0
290
     0
  0
SCALE
  5
54
102
{ACAD_REACTORS
330
47
102
}
330
47
100
AcDbScale
 70
     0
300
2:1
140
2.0
141
1.0
290
     0
  0
SCALE
  5
55
102
{ACAD_REACTORS
330
47
102
}
330
47
100
AcDbScale
 70
     0
300
4:1
140
4.0
141
1.0
290
     0
  0
SCALE
  5
56
102
{ACAD_REACTORS
330
47
102
}
330
47
100
AcDbScale
 70
     0
300
8:1
140
8.0
141
1.0
290
     0
  0
SCALE
  5
57
102
{ACAD_REACTORS
330
47
102
}
330
47
100
AcDbScale
 70
     0
300
10:1
140
10.0
141
1.0
290
     0
  0
SCALE
  5
58
102
{ACAD_REACTORS
330
47
102
}
330
47
100
AcDbScale
 70
     0
300
100:1
140
100.0
141
1.0
290
     0
  0
SCALE
  5
59
102
{ACAD_REACTORS
330
47
102
}
330
47
100
AcDbScale
 70
     0
300
1/128" = 1'-0"
140
0.007812
141
12.0
290
     0
  0
SCALE
  5
5A
102
{ACAD_REACTORS
330
47
102
}
330
47
100
AcDbScale
 70
     0
300
1/64" = 1'-0"
140
0.015625
141
12.0
290
     0
  0
SCALE
  5
5B
102
{ACAD_REACTORS
330
47
102
}
330
47
100
AcDbScale
 70
     0
300
1/32" = 1'-0"
140
0.03125
141
12.0
290
     0
  0
SCALE
  5
5C
102
{ACAD_REACTORS
330
47
102
}
330
47
100
AcDbScale
 70
     0
300
1/16" = 1'-0"
140
0.0625
141
12.0
290
     0
  0
SCALE
  5
5D
102
{ACAD_REACTORS
330
47
102
}
330
47
100
AcDbScale
 70
     0
300
3/32" = 1'-0"
140
0.09375
141
12.0
290
     0
  0
SCALE
  5
5E
102
{ACAD_REACTORS
330
47
102
}
330
47
100
AcDbScale
 70
     0
300
1/8" = 1'-0"
140
0.125
141
12.0
290
     0
  0
SCALE
  5
5F
102
{ACAD_REACTORS
330
47
102
}
330
47
100
AcDbScale
 70
     0
300
3/16" = 1'-0"
140
0.1875
141
12.0
290
     0
  0
SCALE
  5
60
102
{ACAD_REACTORS
330
47
102
}
330
47
100
AcDbScale
 70
     0
300
1/4" = 1'-0"
140
0.25
141
12.0
290
     0
  0
SCALE
  5
61
102
{ACAD_REACTORS
330
47
102
}
330
47
100
AcDbScale
 70
     0
300
3/8" = 1'-0"
140
0.375
141
12.0
290
     0
  0
SCALE
  5
62
102
{ACAD_REACTORS
330
47
102
}
330
47
100
AcDbScale
 70
     0
300
1/2" = 1'-0"
140
0.5
141
12.0
290
     0
  0
SCALE
  5
63
102
{ACAD_REACTORS
330
47
102
}
330
47
100
AcDbScale
 70
     0
300
3/4" = 1'-0"
140
0.75
141
12.0
290
     0
  0
SCALE
  5
64
102
{ACAD_REACTORS
330
47
102
}
330
47
100
AcDbScale
 70
     0
300
1" = 1'-0"
140
1.0
141
12.0
290
     0
  0
SCALE
  5
65
102
{ACAD_REACTORS
330
47
102
}
330
47
100
AcDbScale
 70
     0
300
1-1/2" = 1'-0"
140
1.5
141
12.0
290
     0
  0
SCALE
  5
66
102
{ACAD_REACTORS
330
47
102
}
330
47
100
AcDbScale
 70
     0
300
3" = 1'-0"
140
3.0
141
12.0
290
     0
  0
SCALE
  5
67
102
{ACAD_REACTORS
330
47
102
}
330
47
100
AcDbScale
 70
     0
300
6" = 1'-0"
140
6.0
141
12.0
290
     0
  0
SCALE
  5
68
102
{ACAD_REACTORS
330
47
102
}
330
47
100
AcDbScale
 70
     0
300
1'-0" = 1'-0"
140
12.0
141
12.0
290
     0
  0
ACDBSECTIONVIEWSTYLE
  5
318
102
{ACAD_XDICTIONARY
360
3EE
102
}
102
{ACAD_REACTORS
330
314
102
}
330
314
100
AcDbModelDocViewStyle
 70
     0
  3
Metric50
290
     0
100
AcDbSectionViewStyle
 70
     0
 71
     0
 90
      102
 71
     1
340
11
 62
   256
 40
5.0
340
0
340
0
 62
   256
 40
5.0
300
I, O, Q, S, X, Z
 40
10.0
 90
        0
 40
2.5
 90
        0
 71
     2
340
16
 90
       25
 62
   256
340
16
 90
       50
 62
   256
 40
5.0
 40
2.5
 40
5.0
 71
     3
340
11
 62
   256
 40
5.0
 90
        0
 40
15.0
 90
        1
300
%<\AcVar ViewSectionStartId>%-%<\AcVar ViewSectionEndId>% (%<\AcVar ViewScale \f "%sn">%)
 71
     4
 62
   256
 62
   257
300
ANSI31
 40
1.0
 90
        0
290
     0
290
     0
 90
        6
 40
0.0
 40
1.570796326794896
 40
0.2617993877991494
 40
1.308996938995747
 40
-0.2617993877991494
 40
1.832595714594046
  0
TABLESTYLE
  5
6A
102
{ACAD_XDICTIONARY
360
30A
102
}
102
{ACAD_REACTORS
330
69
102
}
330
69
100
AcDbTableStyle
  3
Standard
 70
     0
 71
     0
 40
0.06
 41
0.06
280
     0
281
     0
  7
Standard
140
0.18
170
     2
 62
     0
 63
     7
283
     0
274
    -2
284
     1
 64
     0
275
    -2
285
     1
 65
     0
276
    -2
286
     1
 66
     0
277
    -2
287
     1
 67
     0
278
    -2
288
     1
 68
     0
279
    -2
289
     1
 69
     0
  7
Standard
140
0.25
170
     5
 62
     0
 63
     7
283
     0
274
    -2
284
     1
 64
     0
275
    -2
285
     1
 65
     0
276
    -2
286
     1
 66
     0
277
    -2
287
     1
 67
     0
278
    -2
288
     1
 68
     0
279
    -2
289
     1
 69
     0
  7
Standard
140
0.18
170
     5
 62
     0
 63
     7
283
     0
274
    -2
284
     1
 64
     0
275
    -2
285
     1
 65
     0
276
    -2
286
     1
 66
     0
277
    -2
287
     1
 67
     0
278
    -2
288
     1
 68
     0
279
    -2
289
     1
 69
     0
  0
VISUALSTYLE
  5
2F
102
{ACAD_XDICTIONARY
360
3C5
102
}
102
{ACAD_REACTORS
330
2A
102
}
330
2A
100
AcDbVisualStyle
  2

 70
     4
 71
     0
 72
     2
 73
     0
 90
        0
 40
-0.6
 41
-30.0
 62
     5
 63
     7
421
 16777215
 74
     1
 91
        4
 64
     7
 65
   257
 75
     1
175
     1
 42
1.0
 92
        0
 66
   257
 43
1.0
 76
     1
 77
     6
 78
     2
 67
     7
 79
     5
170
     0
171
     0
290
     0
174
     0
 93
        1
 44
0.0
173
     0
291
     0
 45
0.0
1001
ACAD
1000
AcDbSavedByObjectVersion
1070
     0
  0
VISUALSTYLE
  5
32
102
{ACAD_XDICTIONARY
360
3CB
102
}
102
{ACAD_REACTORS
330
2A
102
}
330
2A
100
AcDbVisualStyle
  2

 70
     7
 71
     1
 72
     0
 73
     1
 90
        0
 40
-0.6
 41
-30.0
 62
     5
 63
     7
421
 16777215
 74
     0
 91
        4
 64
     7
 65
   257
 75
     1
175
     1
 42
1.0
 92
        8
 66
     7
 43
1.0
 76
     1
 77
     6
 78
     2
 67
     7
 79
     5
170
     0
171
     0
290
     0
174
     0
 93
        1
 44
0.0
173
     0
291
     1
 45
0.0
1001
ACAD
1000
AcDbSavedByObjectVersion
1070
     0
  0
VISUALSTYLE
  5
36
102
{ACAD_XDICTIONARY
360
3D3
102
}
102
{ACAD_REACTORS
330
2A
102
}
330
2A
100
AcDbVisualStyle
  2

 70
    12
 71
     2
 72
     2
 73
     0
 90
        0
 40
-0.6
 41
-30.0
 62
     5
 63
     7
421
 16777215
 74
     1
 91
        4
 64
     7
 65
   257
 75
     1
175
     1
 42
1.0
 92
        8
 66
     7
 43
1.0
 76
     1
 77
     6
 78
     2
 67
     7
 79
     5
170
     0
171
     0
290
     0
174
     0
 93
        1
 44
50.0
173
     0
291
     1
 45
0.0
1001
ACAD
1000
AcDbSavedByObjectVersion
1070
     0
  0
VISUALSTYLE
  5
3A
102
{ACAD_XDICTIONARY
360
3DB
102
}
102
{ACAD_REACTORS
330
2A
102
}
330
2A
100
AcDbVisualStyle
  2

 70
    16
 71
     2
 72
     2
 73
     3
 90
        0
 40
-0.6
 41
-30.0
 62
     5
 63
     8
421
  8421504
 74
     1
 91
        4
 64
     7
 65
   257
 75
     1
175
     1
 42
1.0
 92
        8
 66
     8
424
  8421504
 43
1.0
 76
     1
 77
     6
 78
     2
 67
     7
 79
     5
170
     0
171
     0
290
     0
174
     0
 93
        1
 44
0.0
173
     0
291
     1
 45
0.0
1001
ACAD
1000
AcDbSavedByObjectVersion
1070
     0
  0
VISUALSTYLE
  5
34
102
{ACAD_XDICTIONARY
360
3CF
102
}
102
{ACAD_REACTORS
330
2A
102
}
330
2A
100
AcDbVisualStyle
  2

 70
     9
 71
     3
 72
     2
 73
     0
 90
        0
 40
-0.6
 41
-30.0
 62
     5
 63
     7
421
 16777215
 74
     2
 91
        2
 64
     7
 65
   257
 75
     1
175
     1
 42
179.0
 92
        8
 66
     7
 43
1.0
 76
     1
 77
     6
 78
     2
 67
     7
 79
     3
170
     0
171
     0
290
     0
174
     0
 93
        1
 44
0.0
173
     0
291
     0
 45
0.0
1001
ACAD
1000
AcDbSavedByObjectVersion
1070
     0
  0
VISUALSTYLE
  5
35
102
{ACAD_XDICTIONARY
360
3D1
102
}
102
{ACAD_REACTORS
330
2A
102
}
330
2A
100
AcDbVisualStyle
  2

 70
    11
 71
     2
 72
     2
 73
     0
 90
        0
 40
-0.6
 41
-30.0
 62
     5
 63
     7
421
 16777215
 74
     1
 91
        4
 64
     7
 65
   257
 75
     1
175
     1
 42
1.0
 92
        8
 66
     7
 43
1.0
 76
     1
 77
     6
 78
     2
 67
     7
 79
     5
170
     0
171
     0
290
     0
174
     0
 93
        1
 44
-50.0
173
     0
291
     1
 45
0.0
1001
ACAD
1000
AcDbSavedByObjectVersion
1070
     0
  0
VISUALSTYLE
  5
3D
102
{ACAD_XDICTIONARY
360
3E1
102
}
102
{ACAD_REACTORS
330
2A
102
}
330
2A
100
AcDbVisualStyle
  2

 70
    22
 71
     2
 72
     2
 73
     0
 90
        0
 40
-0.6
 41
-30.0
 62
     5
 63
     7
421
 16777215
 74
     1
 91
        4
 64
     7
 65
   257
 75
     1
175
     1
 42
1.0
 92
        8
 66
     7
 43
1.0
 76
     1
 77
     6
 78
     2
 67
     7
 79
     5
170
     0
171
     0
290
     0
174
     0
 93
        1
 44
0.0
173
     0
291
     1
 45
0.0
1001
ACAD
1000
AcDbSavedByObjectVersion
1070
     0
  0
VISUALSTYLE
  5
39
102
{ACAD_XDICTIONARY
360
3D9
102
}
102
{ACAD_REACTORS
330
2A
102
}
330
2A
100
AcDbVisualStyle
  2

 70
    15
 71
     2
 72
     2
 73
     0
 90
        0
 40
-0.6
 41
-30.0
 62
     5
 63
     7
421
 16777215
 74
     1
 91
        4
 64
     7
 65
   257
 75
     1
175
     1
 42
1.0
 92
        8
 66
     7
 43
1.0
 76
     1
 77
     6
 78
     2
 67
     7
 79
     5
170
     0
171
     0
290
     0
174
     0
 93
        1
 44
0.0
173
     0
291
     1
 45
0.0
1001
ACAD
1000
AcDbSavedByObjectVersion
1070
     0
  0
VISUALSTYLE
  5
2B
102
{ACAD_XDICTIONARY
360
3BD
102
}
102
{ACAD_REACTORS
330
2A
102
}
330
2A
100
AcDbVisualStyle
  2

 70
     0
 71
     2
 72
     1
 73
     1
 90
        2
 40
-0.6
 41
30.0
 62
     5
 63
     7
421
 16777215
 74
     0
 91
        0
 64
     7
 65
   257
 75
     1
175
     1
 42
1.0
 92
        8
 66
     7
 43
1.0
 76
     1
 77
     6
 78
     2
 67
     7
 79
     5
170
     0
171
     0
290
     0
174
     0
 93
       13
 44
0.0
173
     0
291
     1
 45
0.0
1001
ACAD
1000
AcDbSavedByObjectVersion
1070
     0
  0
VISUALSTYLE
  5
2C
102
{ACAD_XDICTIONARY
360
3BF
102
}
102
{ACAD_REACTORS
330
2A
102
}
330
2A
100
AcDbVisualStyle
  2

 70
     1
 71
     2
 72
     1
 73
     1
 90
        2
 40
-0.6
 41
30.0
 62
     5
 63
     7
421
 16777215
 74
     1
 91
        0
 64
     7
 65
   257
 75
     1
175
     1
 42
1.0
 92
        0
 66
   257
 43
1.0
 76
     1
 77
     6
 78
     2
 67
     7
 79
     5
170
     0
171
     0
290
     0
174
     0
 93
       13
 44
0.0
173
     0
291
     1
 45
0.0
1001
ACAD
1000
AcDbSavedByObjectVersion
1070
     0
  0
VISUALSTYLE
  5
2D
102
{ACAD_XDICTIONARY
360
3C1
102
}
102
{ACAD_REACTORS
330
2A
102
}
330
2A
100
AcDbVisualStyle
  2

 70
     2
 71
     2
 72
     2
 73
     1
 90
        2
 40
-0.6
 41
30.0
 62
     5
 63
     7
421
 16777215
 74
     0
 91
        0
 64
     7
 65
   257
 75
     1
175
     1
 42
1.0
 92
        0
 66
     7
 43
1.0
 76
     1
 77
     6
 78
     2
 67
     7
 79
     5
170
     0
171
     0
290
     0
174
     0
 93
       13
 44
0.0
173
     0
291
     1
 45
0.0
1001
ACAD
1000
AcDbSavedByObjectVersion
1070
     0
  0
VISUALSTYLE
  5
2E
102
{ACAD_XDICTIONARY
360
3C3
102
}
102
{ACAD_REACTORS
330
2A
102
}
330
2A
100
AcDbVisualStyle
  2

 70
     3
 71
     2
 72
     2
 73
     1
 90
        2
 40
-0.6
 41
30.0
 62
     5
 63
     7
421
 16777215
 74
     1
 91
        0
 64
     7
 65
   257
 75
     1
175
     1
 42
1.0
 92
        0
 66
   257
 43
1.0
 76
     1
 77
     6
 78
     2
 67
     7
 79
     5
170
     0
171
     0
290
     0
174
     0
 93
       13
 44
0.0
173
     0
291
     1
 45
0.0
1001
ACAD
1000
AcDbSavedByObjectVersion
1070
     0
  0
VISUALSTYLE
  5
31
102
{ACAD_XDICTIONARY
360
3C9
102
}
102
{ACAD_REACTORS
330
2A
102
}
330
2A
100
AcDbVisualStyle
  2

 70
     6
 71
     1
 72
     2
 73
     2
 90
        0
 40
-0.6
 41
-30.0
 62
     5
 63
     7
421
 16777215
 74
     2
 91
        2
 64
     7
 65
   257
 75
     2
175
     1
 42
40.0
 92
        0
 66
   257
 43
1.0
 76
     1
 77
     6
 78
     2
 67
     7
 79
     3
170
     0
171
     0
290
     0
174
     0
 93
        1
 44
0.0
173
     0
291
     0
 45
0.0
1001
ACAD
1000
AcDbSavedByObjectVersion
1070
     0
  0
VISUALSTYLE
  5
3B
102
{ACAD_XDICTIONARY
360
3DD
102
}
102
{ACAD_REACTORS
330
2A
102
}
330
2A
100
AcDbVisualStyle
  2

 70
    20
 71
     2
 72
     2
 73
     0
 90
        0
 40
-0.6
 41
-30.0
 62
     5
 63
     7
421
 16777215
 74
     1
 91
        4
 64
     7
 65
   257
 75
     1
175
     1
 42
1.0
 92
       10
 66
     7
 43
1.0
 76
     1
 77
     6
 78
     2
 67
     7
 79
     5
170
     0
171
     0
290
     0
174
     0
 93
        1
 44
0.0
173
     0
291
     1
 45
0.0
1001
ACAD
1000
AcDbSavedByObjectVersion
1070
     0
  0
VISUALSTYLE
  5
38
102
{ACAD_XDICTIONARY
360
3D7
102
}
102
{ACAD_REACTORS
330
2A
102
}
330
2A
100
AcDbVisualStyle
  2

 70
    14
 71
     2
 72
     2
 73
     0
 90
        0
 40
-0.6
 41
-30.0
 62
     5
 63
     7
421
 16777215
 74
     1
 91
        4
 64
     7
 65
   257
 75
     7
175
     7
 42
1.0
 92
        8
 66
     7
 43
1.0
 76
     1
 77
     6
 78
     2
 67
     7
 79
     5
170
     0
171
     0
290
     0
174
     0
 93
        1
 44
0.0
173
     0
291
     1
 45
0.0
1001
ACAD
1000
AcDbSavedByObjectVersion
1070
     0
  0
VISUALSTYLE
  5
3C
102
{ACAD_XDICTIONARY
360
3DF
102
}
102
{ACAD_REACTORS
330
2A
102
}
330
2A
100
AcDbVisualStyle
  2

 70
    21
 71
     2
 72
     2
 73
     0
 90
        0
 40
-0.6
 41
-30.0
 62
     5
 63
     7
421
 16777215
 74
     1
 91
        4
 64
     7
 65
   257
 75
     1
175
     1
 42
1.0
 92
        9
 66
     7
 43
1.0
 76
     1
 77
     6
 78
     2
 67
     7
 79
     5
170
     0
171
     0
290
     0
174
     0
 93
        1
 44
0.0
173
     0
291
     1
 45
0.0
1001
ACAD
1000
AcDbSavedByObjectVersion
1070
     0
  0
VISUALSTYLE
  5
33
102
{ACAD_XDICTIONARY
360
3CD
102
}
102
{ACAD_REACTORS
330
2A
102
}
330
2A
100
AcDbVisualStyle
  2

 70
     8
 71
     2
 72
     3
 73
     0
 90
        2
 40
-0.6
 41
30.0
 62
     5
 63
     7
421
 16777215
 74
     0
 91
        0
 64
     7
 65
   257
 75
     1
175
     1
 42
1.0
 92
        8
 66
   257
 43
1.0
 76
     1
 77
     6
 78
     2
 67
     7
 79
     3
170
     0
171
     0
290
     0
174
     0
 93
       13
 44
0.0
173
     0
291
     0
 45
0.0
1001
ACAD
1000
AcDbSavedByObjectVersion
1070
     0
  0
VISUALSTYLE
  5
42
102
{ACAD_XDICTIONARY
360
3EB
102
}
102
{ACAD_REACTORS
330
2A
102
}
330
2A
100
AcDbVisualStyle
  2

 70
    27
 71
     2
 72
     2
 73
     1
 90
        2
 40
-0.6
 41
30.0
 62
     5
 63
     7
421
 16777215
 74
     0
 91
        4
 64
     7
 65
   257
 75
     1
175
     1
 42
1.0
 92
        8
 66
   257
 43
1.0
 76
     1
 77
     6
 78
     2
 67
     8
425
  7895160
 79
     3
170
     0
171
     0
290
     0
174
     0
 93
        5
 44
0.0
173
     0
291
     0
 45
0.0
1001
ACAD
1000
AcDbSavedByObjectVersion
1070
     0
  0
VISUALSTYLE
  5
41
102
{ACAD_XDICTIONARY
360
3E9
102
}
102
{ACAD_REACTORS
330
2A
102
}
330
2A
100
AcDbVisualStyle
  2

 70
    26
 71
     2
 72
     2
 73
     1
 90
        2
 40
-0.6
 41
30.0
 62
     5
 63
     7
421
 16777215
 74
     1
 91
       10
 64
     7
 65
   257
 75
     2
175
     1
 42
1.0
 92
        8
 66
   257
 43
1.0
 76
     1
 77
     6
 78
     2
 67
     7
 79
     3
170
     0
171
     0
290
     0
174
     0
 93
        5
 44
0.0
173
     0
291
     0
 45
0.0
1001
ACAD
1000
AcDbSavedByObjectVersion
1070
     0
  0
VISUALSTYLE
  5
3E
102
{ACAD_XDICTIONARY
360
3E3
102
}
102
{ACAD_REACTORS
330
2A
102
}
330
2A
100
AcDbVisualStyle
  2

 70
    23
 71
     2
 72
     2
 73
     3
 90
        0
 40
-0.6
 41
-30.0
 62
     5
 63
     7
421
 16777215
 74
     2
 91
        2
 64
     7
 65
     7
 75
     1
175
     1
 42
40.0
 92
        8
 66
     7
 43
1.0
 76
     1
 77
     6
 78
     2
 67
     7
 79
     3
170
     0
171
     0
290
     0
174
     0
 93
        1
 44
0.0
173
     0
291
     0
 45
0.0
1001
ACAD
1000
AcDbSavedByObjectVersion
1070
     0
  0
VISUALSTYLE
  5
3F
102
{ACAD_XDICTIONARY
360
3E5
102
}
102
{ACAD_REACTORS
330
2A
102
}
330
2A
100
AcDbVisualStyle
  2

 70
    24
 71
     1
 72
     2
 73
     2
 90
        0
 40
-0.6
 41
-30.0
 62
     5
 63
     7
421
 16777215
 74
     2
 91
        2
 64
     7
 65
     7
 75
     1
175
     1
 42
40.0
 92
       11
 66
     7
 43
1.0
 76
     1
 77
     6
 78
     2
 67
     7
 79
     6
170
     0
171
     0
290
     0
174
     0
 93
        1
 44
0.0
173
     0
291
     0
 45
0.0
1001
ACAD
1000
AcDbSavedByObjectVersion
1070
     0
  0
VISUALSTYLE
  5
37
102
{ACAD_XDICTIONARY
360
3D5
102
}
102
{ACAD_REACTORS
330
2A
102
}
330
2A
100
AcDbVisualStyle
  2

 70
    13
 71
     2
 72
     2
 73
     0
 90
        0
 40
-0.6
 41
-30.0
 62
     5
 63
     7
421
 16777215
 74
     1
 91
        4
 64
     7
 65
   257
 75
     1
175
     1
 42
1.0
 92
       12
 66
     7
 43
1.0
 76
     1
 77
     6
 78
     2
 67
     7
 79
     5
170
     0
171
     0
290
     0
174
     0
 93
        1
 44
0.0
173
     0
291
     1
 45
0.0
1001
ACAD
1000
AcDbSavedByObjectVersion
1070
     0
  0
VISUALSTYLE
  5
30
102
{ACAD_XDICTIONARY
360
3C7
102
}
102
{ACAD_REACTORS
330
2A
102
}
330
2A
100
AcDbVisualStyle
  2

 70
     5
 71
     0
 72
     2
 73
     0
 90
        0
 40
-0.6
 41
-30.0
 62
     5
 63
     7
421
 16777215
 74
     1
 91
        4
 64
     7
 65
   257
 75
     1
175
     1
 42
1.0
 92
        0
 66
   257
 43
1.0
 76
     1
 77
     6
 78
     2
 67
     7
 79
     3
170
     0
171
     0
290
     0
174
     0
 93
        1
 44
0.0
173
     0
291
     0
 45
0.0
1001
ACAD
1000
AcDbSavedByObjectVersion
1070
     0
  0
VISUALSTYLE
  5
40
102
{ACAD_XDICTIONARY
360
3E7
102
}
102
{ACAD_REACTORS
330
2A
102
}
330
2A
100
AcDbVisualStyle
  2

 70
    25
 71
     2
 72
     2
 73
     1
 90
        1
 40
0.5
 41
-30.0
 62
     5
 63
     7
421
 16777215
 74
     1
 91
        0
 64
     7
 65
   257
 75
     1
175
     1
 42
1.0
 92
        8
 66
     7
 43
1.0
 76
     1
 77
     6
 78
     2
 67
     7
 79
     3
170
     0
171
     0
290
     0
174
     0
 93
       13
 44
0.0
173
     0
291
     0
 45
0.0
1001
ACAD
1000
AcDbSavedByObjectVersion
1070
     0
  0
DICTIONARYVAR
  5
2D1
102
{ACAD_REACTORS
330
2D0
102
}
330
2D0
100
DictionaryVariables
280
     0
  1
1:1
  0
DICTIONARYVAR
  5
312
102
{ACAD_REACTORS
330
2D0
102
}
330
2D0
100
DictionaryVariables
280
     0
  1
STANDARD
  0
DICTIONARYVAR
  5
311
102
{ACAD_REACTORS
330
2D0
102
}
330
2D0
100
DictionaryVariables
280
     0
  1
STANDARD
  0
DICTIONARYVAR
  5
3AF
102
{ACAD_REACTORS
330
2D0
102
}
330
2D0
100
DictionaryVariables
280
     0
  1
Metric50
  0
DICTIONARYVAR
  5
3B0
102
{ACAD_REACTORS
330
2D0
102
}
330
2D0
100
DictionaryVariables
280
     0
  1
Metric50
  0
DICTIONARYVAR
  5
2D2
102
{ACAD_REACTORS
330
2D0
102
}
330
2D0
100
DictionaryVariables
280
     0
  1
1
  0
DICTIONARYVAR
  5
3B1
102
{ACAD_REACTORS
330
2D0
102
}
330
2D0
100
DictionaryVariables
280
     0
  1
2
  0
DICTIONARY
  5
3BC
102
{ACAD_REACTORS
330
3BA
102
}
330
3BA
100
AcDbDictionary
281
     1
  0
DICTIONARY
  5
3BB
102
{ACAD_REACTORS
330
3BA
102
}
330
3BA
100
AcDbDictionary
281
     1
  3
2123247154896
350
3B5
  3
2123247154912
350
3B6
  3
2123247154928
350
3B7
  3
2123247154944
350
3B8
  3
2123247154960
350
3B9
  0
DICTIONARY
  5
3F0
330
319
100
AcDbDictionary
280
     1
281
     1
  3
ACAD_XREC_ROUNDTRIP
360
3F1
  0
DICTIONARY
  5
306
330
45
100
AcDbDictionary
280
     1
281
     1
  3
ACAD_XREC_ROUNDTRIP
360
307
  0
DICTIONARY
  5
304
330
44
100
AcDbDictionary
280
     1
281
     1
  3
ACAD_XREC_ROUNDTRIP
360
305
  0
DICTIONARY
  5
308
330
46
100
AcDbDictionary
280
     1
281
     1
  3
ACAD_XREC_ROUNDTRIP
360
309
  0
DICTIONARY
  5
3EE
330
318
100
AcDbDictionary
280
     1
281
     1
  3
ACAD_XREC_ROUNDTRIP
360
3EF
  0
DICTIONARY
  5
30A
330
6A
100
AcDbDictionary
280
     1
281
     1
  3
ACAD_ROUNDTRIP_2008_TABLESTYLE_CELLSTYLEMAP
360
3B3
  3
ACAD_XREC_ROUNDTRIP
360
3ED
  0
DICTIONARY
  5
3C5
330
2F
100
AcDbDictionary
280
     1
281
     1
  3
ACAD_XREC_ROUNDTRIP
360
3C6
  0
DICTIONARY
  5
3CB
330
32
100
AcDbDictionary
280
     1
281
     1
  3
ACAD_XREC_ROUNDTRIP
360
3CC
  0
DICTIONARY
  5
3D3
330
36
100
AcDbDictionary
280
     1
281
     1
  3
ACAD_XREC_ROUNDTRIP
360
3D4
  0
DICTIONARY
  5
3DB
330
3A
100
AcDbDictionary
280
     1
281
     1
  3
ACAD_XREC_ROUNDTRIP
360
3DC
  0
DICTIONARY
  5
3CF
330
34
100
AcDbDictionary
280
     1
281
     1
  3
ACAD_XREC_ROUNDTRIP
360
3D0
  0
DICTIONARY
  5
3D1
330
35
100
AcDbDictionary
280
     1
281
     1
  3
ACAD_XREC_ROUNDTRIP
360
3D2
  0
DICTIONARY
  5
3E1
330
3D
100
AcDbDictionary
280
     1
281
     1
  3
ACAD_XREC_ROUNDTRIP
360
3E2
  0
DICTIONARY
  5
3D9
330
39
100
AcDbDictionary
280
     1
281
     1
  3
ACAD_XREC_ROUNDTRIP
360
3DA
  0
DICTIONARY
  5
3BD
330
2B
100
AcDbDictionary
280
     1
281
     1
  3
ACAD_XREC_ROUNDTRIP
360
3BE
  0
DICTIONARY
  5
3BF
330
2C
100
AcDbDictionary
280
     1
281
     1
  3
ACAD_XREC_ROUNDTRIP
360
3C0
  0
DICTIONARY
  5
3C1
330
2D
100
AcDbDictionary
280
     1
281
     1
  3
ACAD_XREC_ROUNDTRIP
360
3C2
  0
DICTIONARY
  5
3C3
330
2E
100
AcDbDictionary
280
     1
281
     1
  3
ACAD_XREC_ROUNDTRIP
360
3C4
  0
DICTIONARY
  5
3C9
330
31
100
AcDbDictionary
280
     1
281
     1
  3
ACAD_XREC_ROUNDTRIP
360
3CA
  0
DICTIONARY
  5
3DD
330
3B
100
AcDbDictionary
280
     1
281
     1
  3
ACAD_XREC_ROUNDTRIP
360
3DE
  0
DICTIONARY
  5
3D7
330
38
100
AcDbDictionary
280
     1
281
     1
  3
ACAD_XREC_ROUNDTRIP
360
3D8
  0
DICTIONARY
  5
3DF
330
3C
100
AcDbDictionary
280
     1
281
     1
  3
ACAD_XREC_ROUNDTRIP
360
3E0
  0
DICTIONARY
  5
3CD
330
33
100
AcDbDictionary
280
     1
281
     1
  3
ACAD_XREC_ROUNDTRIP
360
3CE
  0
DICTIONARY
  5
3EB
330
42
100
AcDbDictionary
280
     1
281
     1
  3
ACAD_XREC_ROUNDTRIP
360
3EC
  0
DICTIONARY
  5
3E9
330
41
100
AcDbDictionary
280
     1
281
     1
  3
ACAD_XREC_ROUNDTRIP
360
3EA
  0
DICTIONARY
  5
3E3
330
3E
100
AcDbDictionary
280
     1
281
     1
  3
ACAD_XREC_ROUNDTRIP
360
3E4
  0
DICTIONARY
  5
3E5
330
3F
100
AcDbDictionary
280
     1
281
     1
  3
ACAD_XREC_ROUNDTRIP
360
3E6
  0
DICTIONARY
  5
3D5
330
37
100
AcDbDictionary
280
     1
281
     1
  3
ACAD_XREC_ROUNDTRIP
360
3D6
  0
DICTIONARY
  5
3C7
330
30
100
AcDbDictionary
280
     1
281
     1
  3
ACAD_XREC_ROUNDTRIP
360
3C8
  0
DICTIONARY
  5
3E7
330
40
100
AcDbDictionary
280
     1
281
     1
  3
ACAD_XREC_ROUNDTRIP
360
3E8
  0
XRECORD
  5
3B5
102
{ACAD_REACTORS
330
3BB
102
}
330
3BB
100
AcDbXrecord
280
     1
  1
AcDb_Thumbnail_Schema
102
{ATTRRECORD
341
3B6
  2
AcDbDs::TreatedAsObjectData
280
     1
291
     1
102
ATTRRECORD}
102
{ATTRRECORD
341
3B7
  2
AcDbDs::Legacy
280
     1
291
     1
102
ATTRRECORD}
  2
AcDbDs::ID
280
    10
 91
        8
102
{ATTRRECORD
341
3B8
  2
AcDs:Indexable
280
     1
291
     1
102
ATTRRECORD}
102
{ATTRRECORD
341
3B9
  2
AcDbDs::HandleAttribute
280
     7
282
     1
102
ATTRRECORD}
  2
Thumbnail_Data
280
    15
 91
        0
  0
XRECORD
  5
3B6
102
{ACAD_REACTORS
330
3BB
102
}
330
3BB
100
AcDbXrecord
280
     1
  1
AcDbDs::TreatedAsObjectDataSchema
  2
AcDbDs::TreatedAsObjectData
280
     1
 91
        0
  0
XRECORD
  5
3B7
102
{ACAD_REACTORS
330
3BB
102
}
330
3BB
100
AcDbXrecord
280
     1
  1
AcDbDs::LegacySchema
  2
AcDbDs::Legacy
280
     1
 91
        0
  0
XRECORD
  5
3B8
102
{ACAD_REACTORS
330
3BB
102
}
330
3BB
100
AcDbXrecord
280
     1
  1
AcDbDs::IndexedPropertySchema
  2
AcDs:Indexable
280
     1
 91
        0
  0
XRECORD
  5
3B9
102
{ACAD_REACTORS
330
3BB
102
}
330
3BB
100
AcDbXrecord
280
     1
  1
AcDbDs::HandleAttributeSchema
  2
AcDbDs::HandleAttribute
280
     7
 91
        1
284
     1
  0
XRECORD
  5
3F1
102
{ACAD_REACTORS
330
3F0
102
}
330
3F0
100
AcDbXrecord
280
     1
102
DISPLAYNAME
  1
Metric50
102
FLAGS
 90
        0
  0
XRECORD
  5
307
102
{ACAD_REACTORS
330
306
102
}
330
306
100
AcDbXrecord
280
     1
102
MATERIAL
148
0.0
149
0.0
149
0.0
 93
        0
 94
      127
282
     0
 72
     1
 77
     1
171
     1
175
     1
179
     1
273
     0
  0
XRECORD
  5
305
102
{ACAD_REACTORS
330
304
102
}
330
304
100
AcDbXrecord
280
     1
102
MATERIAL
148
0.0
149
0.0
149
0.0
 93
        0
 94
      127
282
     0
 72
     1
 77
     1
171
     1
175
     1
179
     1
273
     0
  0
XRECORD
  5
309
102
{ACAD_REACTORS
330
308
102
}
330
308
100
AcDbXrecord
280
     1
102
MATERIAL
148
0.0
149
0.0
149
0.0
 93
        0
 94
      127
282
     0
 72
     1
 77
     1
171
     1
175
     1
179
     1
273
     0
  0
XRECORD
  5
3EF
102
{ACAD_REACTORS
330
3EE
102
}
330
3EE
100
AcDbXrecord
280
     1
102
DISPLAYNAME
  1
Metric50
102
FLAGS
 90
        0
  0
CELLSTYLEMAP
  5
3B3
102
{ACAD_REACTORS
330
30A
102
}
330
30A
100
AcDbCellStyleMap
 90
        3
300
CELLSTYLE
  1
TABLEFORMAT_BEGIN
 90
        5
170
     1
 91
        0
 92
    32768
 62
   257
 93
        1
300
CONTENTFORMAT
  1
CONTENTFORMAT_BEGIN
 90
        0
 91
        0
 92
        4
 93
        0
300

 40
0.0
140
1.0
 94
        5
 62
     0
340
11
144
0.25
309
CONTENTFORMAT_END
171
     1
301
MARGIN
  1
CELLMARGIN_BEGIN
 40
0.06
 40
0.06
 40
0.06
 40
0.06
 40
0.18
 40
0.18
309
CELLMARGIN_END
 94
        6
 95
        1
302
GRIDFORMAT
  1
GRIDFORMAT_BEGIN
 90
        0
 91
        1
 62
     0
 92
       -2
340
14
 93
        0
 40
0.045
309
GRIDFORMAT_END
 95
        2
302
GRIDFORMAT
  1
GRIDFORMAT_BEGIN
 90
        0
 91
        1
 62
     0
 92
       -2
340
14
 93
        0
 40
0.045
309
GRIDFORMAT_END
 95
        4
302
GRIDFORMAT
  1
GRIDFORMAT_BEGIN
 90
        0
 91
        1
 62
     0
 92
       -2
340
14
 93
        0
 40
0.045
309
GRIDFORMAT_END
 95
        8
302
GRIDFORMAT
  1
GRIDFORMAT_BEGIN
 90
        0
 91
        1
 62
     0
 92
       -2
340
14
 93
        0
 40
0.045
309
GRIDFORMAT_END
 95
       16
302
GRIDFORMAT
  1
GRIDFORMAT_BEGIN
 90
        0
 91
        1
 62
     0
 92
       -2
340
14
 93
        0
 40
0.045
309
GRIDFORMAT_END
 95
       32
302
GRIDFORMAT
  1
GRIDFORMAT_BEGIN
 90
        0
 91
        1
 62
     0
 92
       -2
340
14
 93
        0
 40
0.045
309
GRIDFORMAT_END
309
TABLEFORMAT_END
  1
CELLSTYLE_BEGIN
 90
        1
 91
        1
300
_TITLE
309
CELLSTYLE_END
300
CELLSTYLE
  1
TABLEFORMAT_BEGIN
 90
        5
170
     1
 91
        0
 92
        0
 62
   257
 93
        1
300
CONTENTFORMAT
  1
CONTENTFORMAT_BEGIN
 90
        0
 91
        0
 92
        4
 93
        0
300

 40
0.0
140
1.0
 94
        5
 62
     0
340
11
144
0.18
309
CONTENTFORMAT_END
171
     1
301
MARGIN
  1
CELLMARGIN_BEGIN
 40
0.06
 40
0.06
 40
0.06
 40
0.06
 40
0.18
 40
0.18
309
CELLMARGIN_END
 94
        6
 95
        1
302
GRIDFORMAT
  1
GRIDFORMAT_BEGIN
 90
        0
 91
        1
 62
     0
 92
       -2
340
14
 93
        0
 40
0.045
309
GRIDFORMAT_END
 95
        2
302
GRIDFORMAT
  1
GRIDFORMAT_BEGIN
 90
        0
 91
        1
 62
     0
 92
       -2
340
14
 93
        0
 40
0.045
309
GRIDFORMAT_END
 95
        4
302
GRIDFORMAT
  1
GRIDFORMAT_BEGIN
 90
        0
 91
        1
 62
     0
 92
       -2
340
14
 93
        0
 40
0.045
309
GRIDFORMAT_END
 95
        8
302
GRIDFORMAT
  1
GRIDFORMAT_BEGIN
 90
        0
 91
        1
 62
     0
 92
       -2
340
14
 93
        0
 40
0.045
309
GRIDFORMAT_END
 95
       16
302
GRIDFORMAT
  1
GRIDFORMAT_BEGIN
 90
        0
 91
        1
 62
     0
 92
       -2
340
14
 93
        0
 40
0.045
309
GRIDFORMAT_END
 95
       32
302
GRIDFORMAT
  1
GRIDFORMAT_BEGIN
 90
        0
 91
        1
 62
     0
 92
       -2
340
14
 93
        0
 40
0.045
309
GRIDFORMAT_END
309
TABLEFORMAT_END
  1
CELLSTYLE_BEGIN
 90
        2
 91
        1
300
_HEADER
309
CELLSTYLE_END
300
CELLSTYLE
  1
TABLEFORMAT_BEGIN
 90
        5
170
     1
 91
        0
 92
        0
 62
   257
 93
        1
300
CONTENTFORMAT
  1
CONTENTFORMAT_BEGIN
 90
        0
 91
        0
 92
        4
 93
        0
300

 40
0.0
140
1.0
 94
        2
 62
     0
340
11
144
0.18
309
CONTENTFORMAT_END
171
     1
301
MARGIN
  1
CELLMARGIN_BEGIN
 40
0.06
 40
0.06
 40
0.06
 40
0.06
 40
0.18
 40
0.18
309
CELLMARGIN_END
 94
        6
 95
        1
302
GRIDFORMAT
  1
GRIDFORMAT_BEGIN
 90
        0
 91
        1
 62
     0
 92
       -2
340
14
 93
        0
 40
0.045
309
GRIDFORMAT_END
 95
        2
302
GRIDFORMAT
  1
GRIDFORMAT_BEGIN
 90
        0
 91
        1
 62
     0
 92
       -2
340
14
 93
        0
 40
0.045
309
GRIDFORMAT_END
 95
        4
302
GRIDFORMAT
  1
GRIDFORMAT_BEGIN
 90
        0
 91
        1
 62
     0
 92
       -2
340
14
 93
        0
 40
0.045
309
GRIDFORMAT_END
 95
        8
302
GRIDFORMAT
  1
GRIDFORMAT_BEGIN
 90
        0
 91
        1
 62
     0
 92
       -2
340
14
 93
        0
 40
0.045
309
GRIDFORMAT_END
 95
       16
302
GRIDFORMAT
  1
GRIDFORMAT_BEGIN
 90
        0
 91
        1
 62
     0
 92
       -2
340
14
 93
        0
 40
0.045
309
GRIDFORMAT_END
 95
       32
302
GRIDFORMAT
  1
GRIDFORMAT_BEGIN
 90
        0
 91
        1
 62
     0
 92
       -2
340
14
 93
        0
 40
0.045
309
GRIDFORMAT_END
309
TABLEFORMAT_END
  1
CELLSTYLE_BEGIN
 90
        3
 91
        2
300
_DATA
309
CELLSTYLE_END
  0
XRECORD
  5
3ED
102
{ACAD_REACTORS
330
30A
102
}
330
30A
100
AcDbXrecord
280
     1
102
ACAD_ROUNDTRIP_PRE2007_TABLESTYLE
 90
        4
 91
        0
  1

 92
        4
 93
        0
  2

 94
        4
 95
        0
  3

  0
XRECORD
  5
3C6
102
{ACAD_REACTORS
330
3C5
102
}
330
3C5
100
AcDbXrecord
280
     1
102
RTVSPost2010Prop28
280
     1
102
RTVSPost2010PropOp28
 70
     1
102
RTVSPost2010Prop29
280
     1
102
RTVSPost2010PropOp29
 70
     1
102
RTVSPost2010Prop30
280
     0
102
RTVSPost2010PropOp30
 70
     1
102
RTVSPost2010Prop31
280
     0
102
RTVSPost2010PropOp31
 70
     1
102
RTVSPost2010Prop32
280
     0
102
RTVSPost2010PropOp32
 70
     1
102
RTVSPost2010Prop33
280
     0
102
RTVSPost2010PropOp33
 70
     1
102
RTVSPost2010Prop34
280
     0
102
RTVSPost2010PropOp34
 70
     1
102
RTVSPost2010Prop35
280
     0
102
RTVSPost2010PropOp35
 70
     1
102
RTVSPost2010Prop36
280
     0
102
RTVSPost2010PropOp36
 70
     1
102
RTVSPost2010Prop37
 90
       50
102
RTVSPost2010PropOp37
 70
     1
102
RTVSPost2010Prop38
140
0.0
102
RTVSPost2010PropOp38
 70
     1
102
RTVSPost2010Prop39
140
1.0
102
RTVSPost2010PropOp39
 70
     1
102
RTVSPost2010Prop40
 90
        0
102
RTVSPost2010PropOp40
 70
     1
102
RTVSPost2010Prop41ColorIndex
 90
       18
102
RTVSPost2010Prop41ColorRGB
 90
        0
102
RTVSPost2010PropOp41
 70
     1
102
RTVSPost2010Prop42
 90
       50
102
RTVSPost2010PropOp42
 70
     1
102
RTVSPost2010Prop43
 90
        3
102
RTVSPost2010PropOp43
 70
     1
102
RTVSPost2010Prop44ColorIndex
 90
        5
102
RTVSPost2010Prop44ColorRGB
 90
      255
102
RTVSPost2010PropOp44
 70
     1
102
RTVSPost2010Prop45
280
     0
102
RTVSPost2010PropOp45
 70
     1
102
RTVSPost2010Prop46
 90
       50
102
RTVSPost2010PropOp46
 70
     1
102
RTVSPost2010Prop47
 90
       50
102
RTVSPost2010PropOp47
 70
     1
102
RTVSPost2010Prop48
 90
       50
102
RTVSPost2010PropOp48
 70
     1
102
RTVSPost2010Prop49
280
     0
102
RTVSPost2010PropOp49
 70
     1
102
RTVSPost2010Prop50
 90
       50
102
RTVSPost2010PropOp50
 70
     1
102
RTVSPost2010Prop51ColorIndex
 90
      256
102
RTVSPost2010Prop51ColorRGB
 90
-16777216
102
RTVSPost2010PropOp51
 70
     0
102
RTVSPost2010Prop52
140
1.0
102
RTVSPost2010PropOp52
 70
     0
102
RTVSPost2010Prop53
 90
        2
102
RTVSPost2010PropOp53
 70
     1
102
RTVSPost2010Prop54
  1
strokes_ogs.tif
102
RTVSPost2010PropOp54
 70
     1
102
RTVSPost2010Prop55
280
     0
102
RTVSPost2010PropOp55
 70
     1
102
RTVSPost2010Prop56
140
1.0
102
RTVSPost2010PropOp56
 70
     1
102
RTVSPost2010Prop57
140
1.0
102
RTVSPost2010PropOp57
 70
     1
102
RTVSPropertyOp0
 70
     1
102
RTVSPropertyOp1
 70
     1
102
RTVSPropertyOp2
 70
     1
102
RTVSPropertyOp3
 70
     1
102
RTVSPropertyOp4
 70
     1
102
RTVSPropertyOp5
 70
     1
102
RTVSPropertyOp6
 70
     1
102
RTVSPropertyOp7
 70
     1
102
RTVSPropertyOp8
 70
     1
102
RTVSPropertyOp9
 70
     1
102
RTVSPropertyOp10
 70
     1
102
RTVSPropertyOp11
 70
     1
102
RTVSPropertyOp12
 70
     1
102
RTVSPropertyOp13
 70
     1
102
RTVSPropertyOp14
 70
     1
102
RTVSPropertyOp15
 70
     1
102
RTVSPropertyOp16
 70
     1
102
RTVSPropertyOp17
 70
     1
102
RTVSPropertyOp18
 70
     1
102
RTVSPropertyOp19
 70
     1
102
RTVSPropertyOp20
 70
     1
102
RTVSPropertyOp21
 70
     1
102
RTVSPropertyOp22
 70
     1
102
RTVSPropertyOp23
 70
     1
102
RTVSPropertyOp24
 70
     1
102
RTVSPropertyOp25
 70
     1
102
RTVSPropertyOp26
 70
     1
102
RTVSPropertyOp27
 70
     1
102
RTVSPropertyOp28
 70
     1
102
RTVSPropertyOp29
 70
     1
102
RTVSPropertyOp30
 70
     1
102
RTVSPropertyOp31
 70
     1
102
RTVSPropertyOp32
 70
     1
102
RTVSPropertyOp33
 70
     1
102
RTVSPropertyOp34
 70
     1
102
RTVSPropertyOp35
 70
     1
102
RTVSPropertyOp36
 70
     1
102
RTVSPropertyOp37
 70
     1
102
RTVSPropertyOp38
 70
     1
102
RTVSPropertyOp39
 70
     1
102
RTVSPropertyOp40
 70
     1
102
RTVSPropertyOp41
 70
     1
102
RTVSPropertyOp42
 70
     1
102
RTVSPropertyOp43
 70
     1
102
RTVSPropertyOp44
 70
     1
102
RTVSPropertyOp45
 70
     1
102
RTVSPropertyOp46
 70
     1
102
RTVSPropertyOp47
 70
     1
102
RTVSPropertyOp48
 70
     1
102
RTVSPropertyOp49
 70
     1
102
RTVSPropertyOp50
 70
     1
102
RTVSPropertyOp51
 70
     0
102
RTVSPropertyOp52
 70
     0
102
RTVSPropertyOp53
 70
     1
102
RTVSPropertyOp54
 70
     1
102
RTVSPropertyOp55
 70
     1
102
RTVSPropertyOp56
 70
     1
102
RTVSPropertyOp57
 70
     1
102
RTVSPropertyOp58
 70
     1
102
RTVSPropertyOp59
 70
     1
102
RTVSPropertyOp60
 70
     1
102
RTVSPropertyOp61
 70
     1
102
RTVSPropertyOp62
 70
     1
  0
XRECORD
  5
3CC
102
{ACAD_REACTORS
330
3CB
102
}
330
3CB
100
AcDbXrecord
280
     1
102
RTVSPost2010Prop28
280
     0
102
RTVSPost2010PropOp28
 70
     1
102
RTVSPost2010Prop29
280
     1
102
RTVSPost2010PropOp29
 70
     1
102
RTVSPost2010Prop30
280
     1
102
RTVSPost2010PropOp30
 70
     1
102
RTVSPost2010Prop31
280
     0
102
RTVSPost2010PropOp31
 70
     1
102
RTVSPost2010Prop32
280
     0
102
RTVSPost2010PropOp32
 70
     1
102
RTVSPost2010Prop33
280
     0
102
RTVSPost2010PropOp33
 70
     1
102
RTVSPost2010Prop34
280
     0
102
RTVSPost2010PropOp34
 70
     1
102
RTVSPost2010Prop35
280
     0
102
RTVSPost2010PropOp35
 70
     1
102
RTVSPost2010Prop36
280
     0
102
RTVSPost2010PropOp36
 70
     1
102
RTVSPost2010Prop37
 90
       50
102
RTVSPost2010PropOp37
 70
     1
102
RTVSPost2010Prop38
140
0.0
102
RTVSPost2010PropOp38
 70
     1
102
RTVSPost2010Prop39
140
1.0
102
RTVSPost2010PropOp39
 70
     1
102
RTVSPost2010Prop40
 90
        0
102
RTVSPost2010PropOp40
 70
     1
102
RTVSPost2010Prop41ColorIndex
 90
       18
102
RTVSPost2010Prop41ColorRGB
 90
        0
102
RTVSPost2010PropOp41
 70
     1
102
RTVSPost2010Prop42
 90
       50
102
RTVSPost2010PropOp42
 70
     1
102
RTVSPost2010Prop43
 90
        3
102
RTVSPost2010PropOp43
 70
     1
102
RTVSPost2010Prop44ColorIndex
 90
        5
102
RTVSPost2010Prop44ColorRGB
 90
      255
102
RTVSPost2010PropOp44
 70
     1
102
RTVSPost2010Prop45
280
     0
102
RTVSPost2010PropOp45
 70
     1
102
RTVSPost2010Prop46
 90
       50
102
RTVSPost2010PropOp46
 70
     1
102
RTVSPost2010Prop47
 90
       50
102
RTVSPost2010PropOp47
 70
     1
102
RTVSPost2010Prop48
 90
       50
102
RTVSPost2010PropOp48
 70
     1
102
RTVSPost2010Prop49
280
     0
102
RTVSPost2010PropOp49
 70
     1
102
RTVSPost2010Prop50
 90
       50
102
RTVSPost2010PropOp50
 70
     1
102
RTVSPost2010Prop51ColorIndex
 90
      256
102
RTVSPost2010Prop51ColorRGB
 90
-16777216
102
RTVSPost2010PropOp51
 70
     0
102
RTVSPost2010Prop52
140
1.0
102
RTVSPost2010PropOp52
 70
     0
102
RTVSPost2010Prop53
 90
        2
102
RTVSPost2010PropOp53
 70
     1
102
RTVSPost2010Prop54
  1
strokes_ogs.tif
102
RTVSPost2010PropOp54
 70
     1
102
RTVSPost2010Prop55
280
     0
102
RTVSPost2010PropOp55
 70
     1
102
RTVSPost2010Prop56
140
1.0
102
RTVSPost2010PropOp56
 70
     1
102
RTVSPost2010Prop57
140
1.0
102
RTVSPost2010PropOp57
 70
     1
102
RTVSPropertyOp0
 70
     1
102
RTVSPropertyOp1
 70
     1
102
RTVSPropertyOp2
 70
     1
102
RTVSPropertyOp3
 70
     1
102
RTVSPropertyOp4
 70
     1
102
RTVSPropertyOp5
 70
     1
102
RTVSPropertyOp6
 70
     1
102
RTVSPropertyOp7
 70
     1
102
RTVSPropertyOp8
 70
     1
102
RTVSPropertyOp9
 70
     1
102
RTVSPropertyOp10
 70
     1
102
RTVSPropertyOp11
 70
     1
102
RTVSPropertyOp12
 70
     1
102
RTVSPropertyOp13
 70
     1
102
RTVSPropertyOp14
 70
     1
102
RTVSPropertyOp15
 70
     1
102
RTVSPropertyOp16
 70
     1
102
RTVSPropertyOp17
 70
     1
102
RTVSPropertyOp18
 70
     1
102
RTVSPropertyOp19
 70
     1
102
RTVSPropertyOp20
 70
     1
102
RTVSPropertyOp21
 70
     1
102
RTVSPropertyOp22
 70
     1
102
RTVSPropertyOp23
 70
     1
102
RTVSPropertyOp24
 70
     1
102
RTVSPropertyOp25
 70
     1
102
RTVSPropertyOp26
 70
     1
102
RTVSPropertyOp27
 70
     1
102
RTVSPropertyOp28
 70
     1
102
RTVSPropertyOp29
 70
     1
102
RTVSPropertyOp30
 70
     1
102
RTVSPropertyOp31
 70
     1
102
RTVSPropertyOp32
 70
     1
102
RTVSPropertyOp33
 70
     1
102
RTVSPropertyOp34
 70
     1
102
RTVSPropertyOp35
 70
     1
102
RTVSPropertyOp36
 70
     1
102
RTVSPropertyOp37
 70
     1
102
RTVSPropertyOp38
 70
     1
102
RTVSPropertyOp39
 70
     1
102
RTVSPropertyOp40
 70
     1
102
RTVSPropertyOp41
 70
     1
102
RTVSPropertyOp42
 70
     1
102
RTVSPropertyOp43
 70
     1
102
RTVSPropertyOp44
 70
     1
102
RTVSPropertyOp45
 70
     1
102
RTVSPropertyOp46
 70
     1
102
RTVSPropertyOp47
 70
     1
102
RTVSPropertyOp48
 70
     1
102
RTVSPropertyOp49
 70
     1
102
RTVSPropertyOp50
 70
     1
102
RTVSPropertyOp51
 70
     0
102
RTVSPropertyOp52
 70
     0
102
RTVSPropertyOp53
 70
     1
102
RTVSPropertyOp54
 70
     1
102
RTVSPropertyOp55
 70
     1
102
RTVSPropertyOp56
 70
     1
102
RTVSPropertyOp57
 70
     1
102
RTVSPropertyOp58
 70
     1
102
RTVSPropertyOp59
 70
     1
102
RTVSPropertyOp60
 70
     1
102
RTVSPropertyOp61
 70
     1
102
RTVSPropertyOp62
 70
     1
  0
XRECORD
  5
3D4
102
{ACAD_REACTORS
330
3D3
102
}
330
3D3
100
AcDbXrecord
280
     1
102
RTVSPost2010Prop28
280
     0
102
RTVSPost2010PropOp28
 70
     1
102
RTVSPost2010Prop29
280
     1
102
RTVSPost2010PropOp29
 70
     1
102
RTVSPost2010Prop30
280
     1
102
RTVSPost2010PropOp30
 70
     1
102
RTVSPost2010Prop31
280
     0
102
RTVSPost2010PropOp31
 70
     1
102
RTVSPost2010Prop32
280
     0
102
RTVSPost2010PropOp32
 70
     1
102
RTVSPost2010Prop33
280
     0
102
RTVSPost2010PropOp33
 70
     1
102
RTVSPost2010Prop34
280
     0
102
RTVSPost2010PropOp34
 70
     1
102
RTVSPost2010Prop35
280
     0
102
RTVSPost2010PropOp35
 70
     1
102
RTVSPost2010Prop36
280
     0
102
RTVSPost2010PropOp36
 70
     1
102
RTVSPost2010Prop37
 90
       50
102
RTVSPost2010PropOp37
 70
     1
102
RTVSPost2010Prop38
140
0.0
102
RTVSPost2010PropOp38
 70
     1
102
RTVSPost2010Prop39
140
1.0
102
RTVSPost2010PropOp39
 70
     1
102
RTVSPost2010Prop40
 90
        0
102
RTVSPost2010PropOp40
 70
     1
102
RTVSPost2010Prop41ColorIndex
 90
       18
102
RTVSPost2010Prop41ColorRGB
 90
        0
102
RTVSPost2010PropOp41
 70
     1
102
RTVSPost2010Prop42
 90
       50
102
RTVSPost2010PropOp42
 70
     1
102
RTVSPost2010Prop43
 90
        3
102
RTVSPost2010PropOp43
 70
     1
102
RTVSPost2010Prop44ColorIndex
 90
        5
102
RTVSPost2010Prop44ColorRGB
 90
      255
102
RTVSPost2010PropOp44
 70
     1
102
RTVSPost2010Prop45
280
     0
102
RTVSPost2010PropOp45
 70
     1
102
RTVSPost2010Prop46
 90
       50
102
RTVSPost2010PropOp46
 70
     1
102
RTVSPost2010Prop47
 90
       50
102
RTVSPost2010PropOp47
 70
     1
102
RTVSPost2010Prop48
 90
       50
102
RTVSPost2010PropOp48
 70
     1
102
RTVSPost2010Prop49
280
     0
102
RTVSPost2010PropOp49
 70
     1
102
RTVSPost2010Prop50
 90
       50
102
RTVSPost2010PropOp50
 70
     1
102
RTVSPost2010Prop51ColorIndex
 90
      256
102
RTVSPost2010Prop51ColorRGB
 90
-16777216
102
RTVSPost2010PropOp51
 70
     0
102
RTVSPost2010Prop52
140
1.0
102
RTVSPost2010PropOp52
 70
     0
102
RTVSPost2010Prop53
 90
        2
102
RTVSPost2010PropOp53
 70
     1
102
RTVSPost2010Prop54
  1
strokes_ogs.tif
102
RTVSPost2010PropOp54
 70
     1
102
RTVSPost2010Prop55
280
     0
102
RTVSPost2010PropOp55
 70
     1
102
RTVSPost2010Prop56
140
1.0
102
RTVSPost2010PropOp56
 70
     1
102
RTVSPost2010Prop57
140
1.0
102
RTVSPost2010PropOp57
 70
     1
102
RTVSPropertyOp0
 70
     1
102
RTVSPropertyOp1
 70
     1
102
RTVSPropertyOp2
 70
     1
102
RTVSPropertyOp3
 70
     1
102
RTVSPropertyOp4
 70
     1
102
RTVSPropertyOp5
 70
     1
102
RTVSPropertyOp6
 70
     1
102
RTVSPropertyOp7
 70
     1
102
RTVSPropertyOp8
 70
     1
102
RTVSPropertyOp9
 70
     1
102
RTVSPropertyOp10
 70
     1
102
RTVSPropertyOp11
 70
     1
102
RTVSPropertyOp12
 70
     1
102
RTVSPropertyOp13
 70
     1
102
RTVSPropertyOp14
 70
     1
102
RTVSPropertyOp15
 70
     1
102
RTVSPropertyOp16
 70
     1
102
RTVSPropertyOp17
 70
     1
102
RTVSPropertyOp18
 70
     1
102
RTVSPropertyOp19
 70
     1
102
RTVSPropertyOp20
 70
     1
102
RTVSPropertyOp21
 70
     1
102
RTVSPropertyOp22
 70
     1
102
RTVSPropertyOp23
 70
     1
102
RTVSPropertyOp24
 70
     1
102
RTVSPropertyOp25
 70
     1
102
RTVSPropertyOp26
 70
     1
102
RTVSPropertyOp27
 70
     1
102
RTVSPropertyOp28
 70
     1
102
RTVSPropertyOp29
 70
     1
102
RTVSPropertyOp30
 70
     1
102
RTVSPropertyOp31
 70
     1
102
RTVSPropertyOp32
 70
     1
102
RTVSPropertyOp33
 70
     1
102
RTVSPropertyOp34
 70
     1
102
RTVSPropertyOp35
 70
     1
102
RTVSPropertyOp36
 70
     1
102
RTVSPropertyOp37
 70
     1
102
RTVSPropertyOp38
 70
     1
102
RTVSPropertyOp39
 70
     1
102
RTVSPropertyOp40
 70
     1
102
RTVSPropertyOp41
 70
     1
102
RTVSPropertyOp42
 70
     1
102
RTVSPropertyOp43
 70
     1
102
RTVSPropertyOp44
 70
     1
102
RTVSPropertyOp45
 70
     1
102
RTVSPropertyOp46
 70
     1
102
RTVSPropertyOp47
 70
     1
102
RTVSPropertyOp48
 70
     1
102
RTVSPropertyOp49
 70
     1
102
RTVSPropertyOp50
 70
     1
102
RTVSPropertyOp51
 70
     0
102
RTVSPropertyOp52
 70
     0
102
RTVSPropertyOp53
 70
     1
102
RTVSPropertyOp54
 70
     1
102
RTVSPropertyOp55
 70
     1
102
RTVSPropertyOp56
 70
     1
102
RTVSPropertyOp57
 70
     1
102
RTVSPropertyOp58
 70
     1
102
RTVSPropertyOp59
 70
     1
102
RTVSPropertyOp60
 70
     1
102
RTVSPropertyOp61
 70
     1
102
RTVSPropertyOp62
 70
     1
  0
XRECORD
  5
3DC
102
{ACAD_REACTORS
330
3DB
102
}
330
3DB
100
AcDbXrecord
280
     1
102
RTVSPost2010Prop28
280
     0
102
RTVSPost2010PropOp28
 70
     1
102
RTVSPost2010Prop29
280
     1
102
RTVSPost2010PropOp29
 70
     1
102
RTVSPost2010Prop30
280
     1
102
RTVSPost2010PropOp30
 70
     1
102
RTVSPost2010Prop31
280
     0
102
RTVSPost2010PropOp31
 70
     1
102
RTVSPost2010Prop32
280
     0
102
RTVSPost2010PropOp32
 70
     1
102
RTVSPost2010Prop33
280
     0
102
RTVSPost2010PropOp33
 70
     1
102
RTVSPost2010Prop34
280
     0
102
RTVSPost2010PropOp34
 70
     1
102
RTVSPost2010Prop35
280
     0
102
RTVSPost2010PropOp35
 70
     1
102
RTVSPost2010Prop36
280
     0
102
RTVSPost2010PropOp36
 70
     1
102
RTVSPost2010Prop37
 90
       50
102
RTVSPost2010PropOp37
 70
     1
102
RTVSPost2010Prop38
140
0.0
102
RTVSPost2010PropOp38
 70
     1
102
RTVSPost2010Prop39
140
1.0
102
RTVSPost2010PropOp39
 70
     1
102
RTVSPost2010Prop40
 90
        0
102
RTVSPost2010PropOp40
 70
     1
102
RTVSPost2010Prop41ColorIndex
 90
       18
102
RTVSPost2010Prop41ColorRGB
 90
        0
102
RTVSPost2010PropOp41
 70
     1
102
RTVSPost2010Prop42
 90
       50
102
RTVSPost2010PropOp42
 70
     1
102
RTVSPost2010Prop43
 90
        3
102
RTVSPost2010PropOp43
 70
     1
102
RTVSPost2010Prop44ColorIndex
 90
        5
102
RTVSPost2010Prop44ColorRGB
 90
      255
102
RTVSPost2010PropOp44
 70
     1
102
RTVSPost2010Prop45
280
     0
102
RTVSPost2010PropOp45
 70
     1
102
RTVSPost2010Prop46
 90
       50
102
RTVSPost2010PropOp46
 70
     1
102
RTVSPost2010Prop47
 90
       50
102
RTVSPost2010PropOp47
 70
     1
102
RTVSPost2010Prop48
 90
       50
102
RTVSPost2010PropOp48
 70
     1
102
RTVSPost2010Prop49
280
     0
102
RTVSPost2010PropOp49
 70
     1
102
RTVSPost2010Prop50
 90
       50
102
RTVSPost2010PropOp50
 70
     1
102
RTVSPost2010Prop51ColorIndex
 90
      256
102
RTVSPost2010Prop51ColorRGB
 90
-16777216
102
RTVSPost2010PropOp51
 70
     0
102
RTVSPost2010Prop52
140
1.0
102
RTVSPost2010PropOp52
 70
     0
102
RTVSPost2010Prop53
 90
        2
102
RTVSPost2010PropOp53
 70
     1
102
RTVSPost2010Prop54
  1
strokes_ogs.tif
102
RTVSPost2010PropOp54
 70
     1
102
RTVSPost2010Prop55
280
     0
102
RTVSPost2010PropOp55
 70
     1
102
RTVSPost2010Prop56
140
1.0
102
RTVSPost2010PropOp56
 70
     1
102
RTVSPost2010Prop57
140
1.0
102
RTVSPost2010PropOp57
 70
     1
102
RTVSPropertyOp0
 70
     1
102
RTVSPropertyOp1
 70
     1
102
RTVSPropertyOp2
 70
     1
102
RTVSPropertyOp3
 70
     1
102
RTVSPropertyOp4
 70
     1
102
RTVSPropertyOp5
 70
     1
102
RTVSPropertyOp6
 70
     1
102
RTVSPropertyOp7
 70
     1
102
RTVSPropertyOp8
 70
     1
102
RTVSPropertyOp9
 70
     1
102
RTVSPropertyOp10
 70
     1
102
RTVSPropertyOp11
 70
     1
102
RTVSPropertyOp12
 70
     1
102
RTVSPropertyOp13
 70
     1
102
RTVSPropertyOp14
 70
     1
102
RTVSPropertyOp15
 70
     1
102
RTVSPropertyOp16
 70
     1
102
RTVSPropertyOp17
 70
     1
102
RTVSPropertyOp18
 70
     1
102
RTVSPropertyOp19
 70
     1
102
RTVSPropertyOp20
 70
     1
102
RTVSPropertyOp21
 70
     1
102
RTVSPropertyOp22
 70
     1
102
RTVSPropertyOp23
 70
     1
102
RTVSPropertyOp24
 70
     1
102
RTVSPropertyOp25
 70
     1
102
RTVSPropertyOp26
 70
     1
102
RTVSPropertyOp27
 70
     1
102
RTVSPropertyOp28
 70
     1
102
RTVSPropertyOp29
 70
     1
102
RTVSPropertyOp30
 70
     1
102
RTVSPropertyOp31
 70
     1
102
RTVSPropertyOp32
 70
     1
102
RTVSPropertyOp33
 70
     1
102
RTVSPropertyOp34
 70
     1
102
RTVSPropertyOp35
 70
     1
102
RTVSPropertyOp36
 70
     1
102
RTVSPropertyOp37
 70
     1
102
RTVSPropertyOp38
 70
     1
102
RTVSPropertyOp39
 70
     1
102
RTVSPropertyOp40
 70
     1
102
RTVSPropertyOp41
 70
     1
102
RTVSPropertyOp42
 70
     1
102
RTVSPropertyOp43
 70
     1
102
RTVSPropertyOp44
 70
     1
102
RTVSPropertyOp45
 70
     1
102
RTVSPropertyOp46
 70
     1
102
RTVSPropertyOp47
 70
     1
102
RTVSPropertyOp48
 70
     1
102
RTVSPropertyOp49
 70
     1
102
RTVSPropertyOp50
 70
     1
102
RTVSPropertyOp51
 70
     0
102
RTVSPropertyOp52
 70
     0
102
RTVSPropertyOp53
 70
     1
102
RTVSPropertyOp54
 70
     1
102
RTVSPropertyOp55
 70
     1
102
RTVSPropertyOp56
 70
     1
102
RTVSPropertyOp57
 70
     1
102
RTVSPropertyOp58
 70
     1
102
RTVSPropertyOp59
 70
     1
102
RTVSPropertyOp60
 70
     1
102
RTVSPropertyOp61
 70
     1
102
RTVSPropertyOp62
 70
     1
  0
XRECORD
  5
3D0
102
{ACAD_REACTORS
330
3CF
102
}
330
3CF
100
AcDbXrecord
280
     1
102
RTVSPost2010Prop28
280
     0
102
RTVSPost2010PropOp28
 70
     1
102
RTVSPost2010Prop29
280
     1
102
RTVSPost2010PropOp29
 70
     1
102
RTVSPost2010Prop30
280
     1
102
RTVSPost2010PropOp30
 70
     1
102
RTVSPost2010Prop31
280
     0
102
RTVSPost2010PropOp31
 70
     1
102
RTVSPost2010Prop32
280
     0
102
RTVSPost2010PropOp32
 70
     1
102
RTVSPost2010Prop33
280
     0
102
RTVSPost2010PropOp33
 70
     1
102
RTVSPost2010Prop34
280
     0
102
RTVSPost2010PropOp34
 70
     1
102
RTVSPost2010Prop35
280
     0
102
RTVSPost2010PropOp35
 70
     1
102
RTVSPost2010Prop36
280
     0
102
RTVSPost2010PropOp36
 70
     1
102
RTVSPost2010Prop37
 90
       50
102
RTVSPost2010PropOp37
 70
     1
102
RTVSPost2010Prop38
140
0.0
102
RTVSPost2010PropOp38
 70
     1
102
RTVSPost2010Prop39
140
1.0
102
RTVSPost2010PropOp39
 70
     1
102
RTVSPost2010Prop40
 90
        0
102
RTVSPost2010PropOp40
 70
     1
102
RTVSPost2010Prop41ColorIndex
 90
       18
102
RTVSPost2010Prop41ColorRGB
 90
        0
102
RTVSPost2010PropOp41
 70
     1
102
RTVSPost2010Prop42
 90
       50
102
RTVSPost2010PropOp42
 70
     1
102
RTVSPost2010Prop43
 90
        3
102
RTVSPost2010PropOp43
 70
     1
102
RTVSPost2010Prop44ColorIndex
 90
        5
102
RTVSPost2010Prop44ColorRGB
 90
      255
102
RTVSPost2010PropOp44
 70
     1
102
RTVSPost2010Prop45
280
     0
102
RTVSPost2010PropOp45
 70
     1
102
RTVSPost2010Prop46
 90
       50
102
RTVSPost2010PropOp46
 70
     1
102
RTVSPost2010Prop47
 90
       50
102
RTVSPost2010PropOp47
 70
     1
102
RTVSPost2010Prop48
 90
       50
102
RTVSPost2010PropOp48
 70
     1
102
RTVSPost2010Prop49
280
     0
102
RTVSPost2010PropOp49
 70
     1
102
RTVSPost2010Prop50
 90
       50
102
RTVSPost2010PropOp50
 70
     1
102
RTVSPost2010Prop51ColorIndex
 90
      256
102
RTVSPost2010Prop51ColorRGB
 90
-16777216
102
RTVSPost2010PropOp51
 70
     0
102
RTVSPost2010Prop52
140
1.0
102
RTVSPost2010PropOp52
 70
     0
102
RTVSPost2010Prop53
 90
        2
102
RTVSPost2010PropOp53
 70
     1
102
RTVSPost2010Prop54
  1
strokes_ogs.tif
102
RTVSPost2010PropOp54
 70
     1
102
RTVSPost2010Prop55
280
     0
102
RTVSPost2010PropOp55
 70
     1
102
RTVSPost2010Prop56
140
1.0
102
RTVSPost2010PropOp56
 70
     1
102
RTVSPost2010Prop57
140
1.0
102
RTVSPost2010PropOp57
 70
     1
102
RTVSPropertyOp0
 70
     1
102
RTVSPropertyOp1
 70
     1
102
RTVSPropertyOp2
 70
     1
102
RTVSPropertyOp3
 70
     1
102
RTVSPropertyOp4
 70
     1
102
RTVSPropertyOp5
 70
     1
102
RTVSPropertyOp6
 70
     1
102
RTVSPropertyOp7
 70
     1
102
RTVSPropertyOp8
 70
     1
102
RTVSPropertyOp9
 70
     1
102
RTVSPropertyOp10
 70
     1
102
RTVSPropertyOp11
 70
     1
102
RTVSPropertyOp12
 70
     1
102
RTVSPropertyOp13
 70
     1
102
RTVSPropertyOp14
 70
     1
102
RTVSPropertyOp15
 70
     1
102
RTVSPropertyOp16
 70
     1
102
RTVSPropertyOp17
 70
     1
102
RTVSPropertyOp18
 70
     1
102
RTVSPropertyOp19
 70
     1
102
RTVSPropertyOp20
 70
     1
102
RTVSPropertyOp21
 70
     1
102
RTVSPropertyOp22
 70
     1
102
RTVSPropertyOp23
 70
     1
102
RTVSPropertyOp24
 70
     1
102
RTVSPropertyOp25
 70
     1
102
RTVSPropertyOp26
 70
     1
102
RTVSPropertyOp27
 70
     1
102
RTVSPropertyOp28
 70
     1
102
RTVSPropertyOp29
 70
     1
102
RTVSPropertyOp30
 70
     1
102
RTVSPropertyOp31
 70
     1
102
RTVSPropertyOp32
 70
     1
102
RTVSPropertyOp33
 70
     1
102
RTVSPropertyOp34
 70
     1
102
RTVSPropertyOp35
 70
     1
102
RTVSPropertyOp36
 70
     1
102
RTVSPropertyOp37
 70
     1
102
RTVSPropertyOp38
 70
     1
102
RTVSPropertyOp39
 70
     1
102
RTVSPropertyOp40
 70
     1
102
RTVSPropertyOp41
 70
     1
102
RTVSPropertyOp42
 70
     1
102
RTVSPropertyOp43
 70
     1
102
RTVSPropertyOp44
 70
     1
102
RTVSPropertyOp45
 70
     1
102
RTVSPropertyOp46
 70
     1
102
RTVSPropertyOp47
 70
     1
102
RTVSPropertyOp48
 70
     1
102
RTVSPropertyOp49
 70
     1
102
RTVSPropertyOp50
 70
     1
102
RTVSPropertyOp51
 70
     0
102
RTVSPropertyOp52
 70
     0
102
RTVSPropertyOp53
 70
     1
102
RTVSPropertyOp54
 70
     1
102
RTVSPropertyOp55
 70
     1
102
RTVSPropertyOp56
 70
     1
102
RTVSPropertyOp57
 70
     1
102
RTVSPropertyOp58
 70
     1
102
RTVSPropertyOp59
 70
     1
102
RTVSPropertyOp60
 70
     1
102
RTVSPropertyOp61
 70
     1
102
RTVSPropertyOp62
 70
     1
  0
XRECORD
  5
3D2
102
{ACAD_REACTORS
330
3D1
102
}
330
3D1
100
AcDbXrecord
280
     1
102
RTVSPost2010Prop28
280
     0
102
RTVSPost2010PropOp28
 70
     1
102
RTVSPost2010Prop29
280
     1
102
RTVSPost2010PropOp29
 70
     1
102
RTVSPost2010Prop30
280
     1
102
RTVSPost2010PropOp30
 70
     1
102
RTVSPost2010Prop31
280
     0
102
RTVSPost2010PropOp31
 70
     1
102
RTVSPost2010Prop32
280
     0
102
RTVSPost2010PropOp32
 70
     1
102
RTVSPost2010Prop33
280
     0
102
RTVSPost2010PropOp33
 70
     1
102
RTVSPost2010Prop34
280
     0
102
RTVSPost2010PropOp34
 70
     1
102
RTVSPost2010Prop35
280
     0
102
RTVSPost2010PropOp35
 70
     1
102
RTVSPost2010Prop36
280
     0
102
RTVSPost2010PropOp36
 70
     1
102
RTVSPost2010Prop37
 90
       50
102
RTVSPost2010PropOp37
 70
     1
102
RTVSPost2010Prop38
140
0.0
102
RTVSPost2010PropOp38
 70
     1
102
RTVSPost2010Prop39
140
1.0
102
RTVSPost2010PropOp39
 70
     1
102
RTVSPost2010Prop40
 90
        0
102
RTVSPost2010PropOp40
 70
     1
102
RTVSPost2010Prop41ColorIndex
 90
       18
102
RTVSPost2010Prop41ColorRGB
 90
        0
102
RTVSPost2010PropOp41
 70
     1
102
RTVSPost2010Prop42
 90
       50
102
RTVSPost2010PropOp42
 70
     1
102
RTVSPost2010Prop43
 90
        3
102
RTVSPost2010PropOp43
 70
     1
102
RTVSPost2010Prop44ColorIndex
 90
        5
102
RTVSPost2010Prop44ColorRGB
 90
      255
102
RTVSPost2010PropOp44
 70
     1
102
RTVSPost2010Prop45
280
     0
102
RTVSPost2010PropOp45
 70
     1
102
RTVSPost2010Prop46
 90
       50
102
RTVSPost2010PropOp46
 70
     1
102
RTVSPost2010Prop47
 90
       50
102
RTVSPost2010PropOp47
 70
     1
102
RTVSPost2010Prop48
 90
       50
102
RTVSPost2010PropOp48
 70
     1
102
RTVSPost2010Prop49
280
     0
102
RTVSPost2010PropOp49
 70
     1
102
RTVSPost2010Prop50
 90
       50
102
RTVSPost2010PropOp50
 70
     1
102
RTVSPost2010Prop51ColorIndex
 90
      256
102
RTVSPost2010Prop51ColorRGB
 90
-16777216
102
RTVSPost2010PropOp51
 70
     0
102
RTVSPost2010Prop52
140
1.0
102
RTVSPost2010PropOp52
 70
     0
102
RTVSPost2010Prop53
 90
        2
102
RTVSPost2010PropOp53
 70
     1
102
RTVSPost2010Prop54
  1
strokes_ogs.tif
102
RTVSPost2010PropOp54
 70
     1
102
RTVSPost2010Prop55
280
     0
102
RTVSPost2010PropOp55
 70
     1
102
RTVSPost2010Prop56
140
1.0
102
RTVSPost2010PropOp56
 70
     1
102
RTVSPost2010Prop57
140
1.0
102
RTVSPost2010PropOp57
 70
     1
102
RTVSPropertyOp0
 70
     1
102
RTVSPropertyOp1
 70
     1
102
RTVSPropertyOp2
 70
     1
102
RTVSPropertyOp3
 70
     1
102
RTVSPropertyOp4
 70
     1
102
RTVSPropertyOp5
 70
     1
102
RTVSPropertyOp6
 70
     1
102
RTVSPropertyOp7
 70
     1
102
RTVSPropertyOp8
 70
     1
102
RTVSPropertyOp9
 70
     1
102
RTVSPropertyOp10
 70
     1
102
RTVSPropertyOp11
 70
     1
102
RTVSPropertyOp12
 70
     1
102
RTVSPropertyOp13
 70
     1
102
RTVSPropertyOp14
 70
     1
102
RTVSPropertyOp15
 70
     1
102
RTVSPropertyOp16
 70
     1
102
RTVSPropertyOp17
 70
     1
102
RTVSPropertyOp18
 70
     1
102
RTVSPropertyOp19
 70
     1
102
RTVSPropertyOp20
 70
     1
102
RTVSPropertyOp21
 70
     1
102
RTVSPropertyOp22
 70
     1
102
RTVSPropertyOp23
 70
     1
102
RTVSPropertyOp24
 70
     1
102
RTVSPropertyOp25
 70
     1
102
RTVSPropertyOp26
 70
     1
102
RTVSPropertyOp27
 70
     1
102
RTVSPropertyOp28
 70
     1
102
RTVSPropertyOp29
 70
     1
102
RTVSPropertyOp30
 70
     1
102
RTVSPropertyOp31
 70
     1
102
RTVSPropertyOp32
 70
     1
102
RTVSPropertyOp33
 70
     1
102
RTVSPropertyOp34
 70
     1
102
RTVSPropertyOp35
 70
     1
102
RTVSPropertyOp36
 70
     1
102
RTVSPropertyOp37
 70
     1
102
RTVSPropertyOp38
 70
     1
102
RTVSPropertyOp39
 70
     1
102
RTVSPropertyOp40
 70
     1
102
RTVSPropertyOp41
 70
     1
102
RTVSPropertyOp42
 70
     1
102
RTVSPropertyOp43
 70
     1
102
RTVSPropertyOp44
 70
     1
102
RTVSPropertyOp45
 70
     1
102
RTVSPropertyOp46
 70
     1
102
RTVSPropertyOp47
 70
     1
102
RTVSPropertyOp48
 70
     1
102
RTVSPropertyOp49
 70
     1
102
RTVSPropertyOp50
 70
     1
102
RTVSPropertyOp51
 70
     0
102
RTVSPropertyOp52
 70
     0
102
RTVSPropertyOp53
 70
     1
102
RTVSPropertyOp54
 70
     1
102
RTVSPropertyOp55
 70
     1
102
RTVSPropertyOp56
 70
     1
102
RTVSPropertyOp57
 70
     1
102
RTVSPropertyOp58
 70
     1
102
RTVSPropertyOp59
 70
     1
102
RTVSPropertyOp60
 70
     1
102
RTVSPropertyOp61
 70
     1
102
RTVSPropertyOp62
 70
     1
  0
XRECORD
  5
3E2
102
{ACAD_REACTORS
330
3E1
102
}
330
3E1
100
AcDbXrecord
280
     1
102
RTVSPost2010Prop28
280
     0
102
RTVSPost2010PropOp28
 70
     0
102
RTVSPost2010Prop29
280
     1
102
RTVSPost2010PropOp29
 70
     0
102
RTVSPost2010Prop30
280
     1
102
RTVSPost2010PropOp30
 70
     0
102
RTVSPost2010Prop31
280
     0
102
RTVSPost2010PropOp31
 70
     0
102
RTVSPost2010Prop32
280
     0
102
RTVSPost2010PropOp32
 70
     0
102
RTVSPost2010Prop33
280
     0
102
RTVSPost2010PropOp33
 70
     0
102
RTVSPost2010Prop34
280
     0
102
RTVSPost2010PropOp34
 70
     0
102
RTVSPost2010Prop35
280
     0
102
RTVSPost2010PropOp35
 70
     0
102
RTVSPost2010Prop36
280
     0
102
RTVSPost2010PropOp36
 70
     0
102
RTVSPost2010Prop37
 90
       50
102
RTVSPost2010PropOp37
 70
     0
102
RTVSPost2010Prop38
140
0.0
102
RTVSPost2010PropOp38
 70
     0
102
RTVSPost2010Prop39
140
1.0
102
RTVSPost2010PropOp39
 70
     0
102
RTVSPost2010Prop40
 90
        0
102
RTVSPost2010PropOp40
 70
     0
102
RTVSPost2010Prop41ColorIndex
 90
       18
102
RTVSPost2010Prop41ColorRGB
 90
        0
102
RTVSPost2010PropOp41
 70
     0
102
RTVSPost2010Prop42
 90
       50
102
RTVSPost2010PropOp42
 70
     0
102
RTVSPost2010Prop43
 90
        3
102
RTVSPost2010PropOp43
 70
     0
102
RTVSPost2010Prop44ColorIndex
 90
        5
102
RTVSPost2010Prop44ColorRGB
 90
      255
102
RTVSPost2010PropOp44
 70
     0
102
RTVSPost2010Prop45
280
     0
102
RTVSPost2010PropOp45
 70
     0
102
RTVSPost2010Prop46
 90
       50
102
RTVSPost2010PropOp46
 70
     0
102
RTVSPost2010Prop47
 90
       50
102
RTVSPost2010PropOp47
 70
     0
102
RTVSPost2010Prop48
 90
       50
102
RTVSPost2010PropOp48
 70
     0
102
RTVSPost2010Prop49
280
     0
102
RTVSPost2010PropOp49
 70
     0
102
RTVSPost2010Prop50
 90
       50
102
RTVSPost2010PropOp50
 70
     0
102
RTVSPost2010Prop51ColorIndex
 90
      256
102
RTVSPost2010Prop51ColorRGB
 90
-16777216
102
RTVSPost2010PropOp51
 70
     0
102
RTVSPost2010Prop52
140
1.0
102
RTVSPost2010PropOp52
 70
     0
102
RTVSPost2010Prop53
 90
        2
102
RTVSPost2010PropOp53
 70
     0
102
RTVSPost2010Prop54
  1
strokes_ogs.tif
102
RTVSPost2010PropOp54
 70
     0
102
RTVSPost2010Prop55
280
     0
102
RTVSPost2010PropOp55
 70
     0
102
RTVSPost2010Prop56
140
1.0
102
RTVSPost2010PropOp56
 70
     0
102
RTVSPost2010Prop57
140
1.0
102
RTVSPost2010PropOp57
 70
     0
102
RTVSPropertyOp0
 70
     0
102
RTVSPropertyOp1
 70
     0
102
RTVSPropertyOp2
 70
     0
102
RTVSPropertyOp3
 70
     0
102
RTVSPropertyOp4
 70
     0
102
RTVSPropertyOp5
 70
     0
102
RTVSPropertyOp6
 70
     0
102
RTVSPropertyOp7
 70
     0
102
RTVSPropertyOp8
 70
     0
102
RTVSPropertyOp9
 70
     0
102
RTVSPropertyOp10
 70
     0
102
RTVSPropertyOp11
 70
     0
102
RTVSPropertyOp12
 70
     0
102
RTVSPropertyOp13
 70
     0
102
RTVSPropertyOp14
 70
     2
102
RTVSPropertyOp15
 70
     0
102
RTVSPropertyOp16
 70
     0
102
RTVSPropertyOp17
 70
     0
102
RTVSPropertyOp18
 70
     0
102
RTVSPropertyOp19
 70
     0
102
RTVSPropertyOp20
 70
     0
102
RTVSPropertyOp21
 70
     0
102
RTVSPropertyOp22
 70
     0
102
RTVSPropertyOp23
 70
     0
102
RTVSPropertyOp24
 70
     0
102
RTVSPropertyOp25
 70
     0
102
RTVSPropertyOp26
 70
     0
102
RTVSPropertyOp27
 70
     0
102
RTVSPropertyOp28
 70
     0
102
RTVSPropertyOp29
 70
     0
102
RTVSPropertyOp30
 70
     0
102
RTVSPropertyOp31
 70
     0
102
RTVSPropertyOp32
 70
     0
102
RTVSPropertyOp33
 70
     0
102
RTVSPropertyOp34
 70
     0
102
RTVSPropertyOp35
 70
     0
102
RTVSPropertyOp36
 70
     0
102
RTVSPropertyOp37
 70
     0
102
RTVSPropertyOp38
 70
     0
102
RTVSPropertyOp39
 70
     0
102
RTVSPropertyOp40
 70
     0
102
RTVSPropertyOp41
 70
     0
102
RTVSPropertyOp42
 70
     0
102
RTVSPropertyOp43
 70
     0
102
RTVSPropertyOp44
 70
     0
102
RTVSPropertyOp45
 70
     0
102
RTVSPropertyOp46
 70
     0
102
RTVSPropertyOp47
 70
     0
102
RTVSPropertyOp48
 70
     0
102
RTVSPropertyOp49
 70
     0
102
RTVSPropertyOp50
 70
     0
102
RTVSPropertyOp51
 70
     0
102
RTVSPropertyOp52
 70
     0
102
RTVSPropertyOp53
 70
     0
102
RTVSPropertyOp54
 70
     0
102
RTVSPropertyOp55
 70
     0
102
RTVSPropertyOp56
 70
     0
102
RTVSPropertyOp57
 70
     0
102
RTVSPropertyOp58
 70
     1
102
RTVSPropertyOp59
 70
     1
102
RTVSPropertyOp60
 70
     1
102
RTVSPropertyOp61
 70
     1
102
RTVSPropertyOp62
 70
     1
  0
XRECORD
  5
3DA
102
{ACAD_REACTORS
330
3D9
102
}
330
3D9
100
AcDbXrecord
280
     1
102
RTVSPost2010Prop28
280
     0
102
RTVSPost2010PropOp28
 70
     1
102
RTVSPost2010Prop29
280
     1
102
RTVSPost2010PropOp29
 70
     1
102
RTVSPost2010Prop30
280
     1
102
RTVSPost2010PropOp30
 70
     1
102
RTVSPost2010Prop31
280
     0
102
RTVSPost2010PropOp31
 70
     1
102
RTVSPost2010Prop32
280
     0
102
RTVSPost2010PropOp32
 70
     1
102
RTVSPost2010Prop33
280
     0
102
RTVSPost2010PropOp33
 70
     1
102
RTVSPost2010Prop34
280
     0
102
RTVSPost2010PropOp34
 70
     1
102
RTVSPost2010Prop35
280
     0
102
RTVSPost2010PropOp35
 70
     1
102
RTVSPost2010Prop36
280
     0
102
RTVSPost2010PropOp36
 70
     1
102
RTVSPost2010Prop37
 90
       50
102
RTVSPost2010PropOp37
 70
     1
102
RTVSPost2010Prop38
140
0.0
102
RTVSPost2010PropOp38
 70
     1
102
RTVSPost2010Prop39
140
1.0
102
RTVSPost2010PropOp39
 70
     1
102
RTVSPost2010Prop40
 90
        0
102
RTVSPost2010PropOp40
 70
     1
102
RTVSPost2010Prop41ColorIndex
 90
       18
102
RTVSPost2010Prop41ColorRGB
 90
        0
102
RTVSPost2010PropOp41
 70
     1
102
RTVSPost2010Prop42
 90
       50
102
RTVSPost2010PropOp42
 70
     1
102
RTVSPost2010Prop43
 90
        3
102
RTVSPost2010PropOp43
 70
     1
102
RTVSPost2010Prop44ColorIndex
 90
        5
102
RTVSPost2010Prop44ColorRGB
 90
      255
102
RTVSPost2010PropOp44
 70
     1
102
RTVSPost2010Prop45
280
     0
102
RTVSPost2010PropOp45
 70
     1
102
RTVSPost2010Prop46
 90
       50
102
RTVSPost2010PropOp46
 70
     1
102
RTVSPost2010Prop47
 90
       50
102
RTVSPost2010PropOp47
 70
     1
102
RTVSPost2010Prop48
 90
       50
102
RTVSPost2010PropOp48
 70
     1
102
RTVSPost2010Prop49
280
     0
102
RTVSPost2010PropOp49
 70
     1
102
RTVSPost2010Prop50
 90
       50
102
RTVSPost2010PropOp50
 70
     1
102
RTVSPost2010Prop51ColorIndex
 90
      256
102
RTVSPost2010Prop51ColorRGB
 90
-16777216
102
RTVSPost2010PropOp51
 70
     0
102
RTVSPost2010Prop52
140
1.0
102
RTVSPost2010PropOp52
 70
     0
102
RTVSPost2010Prop53
 90
        2
102
RTVSPost2010PropOp53
 70
     1
102
RTVSPost2010Prop54
  1
strokes_ogs.tif
102
RTVSPost2010PropOp54
 70
     1
102
RTVSPost2010Prop55
280
     0
102
RTVSPost2010PropOp55
 70
     1
102
RTVSPost2010Prop56
140
1.0
102
RTVSPost2010PropOp56
 70
     1
102
RTVSPost2010Prop57
140
1.0
102
RTVSPost2010PropOp57
 70
     1
102
RTVSPropertyOp0
 70
     1
102
RTVSPropertyOp1
 70
     1
102
RTVSPropertyOp2
 70
     1
102
RTVSPropertyOp3
 70
     1
102
RTVSPropertyOp4
 70
     1
102
RTVSPropertyOp5
 70
     1
102
RTVSPropertyOp6
 70
     1
102
RTVSPropertyOp7
 70
     1
102
RTVSPropertyOp8
 70
     1
102
RTVSPropertyOp9
 70
     1
102
RTVSPropertyOp10
 70
     1
102
RTVSPropertyOp11
 70
     1
102
RTVSPropertyOp12
 70
     1
102
RTVSPropertyOp13
 70
     1
102
RTVSPropertyOp14
 70
     1
102
RTVSPropertyOp15
 70
     1
102
RTVSPropertyOp16
 70
     1
102
RTVSPropertyOp17
 70
     1
102
RTVSPropertyOp18
 70
     1
102
RTVSPropertyOp19
 70
     1
102
RTVSPropertyOp20
 70
     1
102
RTVSPropertyOp21
 70
     1
102
RTVSPropertyOp22
 70
     1
102
RTVSPropertyOp23
 70
     1
102
RTVSPropertyOp24
 70
     1
102
RTVSPropertyOp25
 70
     1
102
RTVSPropertyOp26
 70
     1
102
RTVSPropertyOp27
 70
     1
102
RTVSPropertyOp28
 70
     1
102
RTVSPropertyOp29
 70
     1
102
RTVSPropertyOp30
 70
     1
102
RTVSPropertyOp31
 70
     1
102
RTVSPropertyOp32
 70
     1
102
RTVSPropertyOp33
 70
     1
102
RTVSPropertyOp34
 70
     1
102
RTVSPropertyOp35
 70
     1
102
RTVSPropertyOp36
 70
     1
102
RTVSPropertyOp37
 70
     1
102
RTVSPropertyOp38
 70
     1
102
RTVSPropertyOp39
 70
     1
102
RTVSPropertyOp40
 70
     1
102
RTVSPropertyOp41
 70
     1
102
RTVSPropertyOp42
 70
     1
102
RTVSPropertyOp43
 70
     1
102
RTVSPropertyOp44
 70
     1
102
RTVSPropertyOp45
 70
     1
102
RTVSPropertyOp46
 70
     1
102
RTVSPropertyOp47
 70
     1
102
RTVSPropertyOp48
 70
     1
102
RTVSPropertyOp49
 70
     1
102
RTVSPropertyOp50
 70
     1
102
RTVSPropertyOp51
 70
     0
102
RTVSPropertyOp52
 70
     0
102
RTVSPropertyOp53
 70
     1
102
RTVSPropertyOp54
 70
     1
102
RTVSPropertyOp55
 70
     1
102
RTVSPropertyOp56
 70
     1
102
RTVSPropertyOp57
 70
     1
102
RTVSPropertyOp58
 70
     1
102
RTVSPropertyOp59
 70
     1
102
RTVSPropertyOp60
 70
     1
102
RTVSPropertyOp61
 70
     1
102
RTVSPropertyOp62
 70
     1
  0
XRECORD
  5
3BE
102
{ACAD_REACTORS
330
3BD
102
}
330
3BD
100
AcDbXrecord
280
     1
102
RTVSPost2010Prop28
280
     0
102
RTVSPost2010PropOp28
 70
     1
102
RTVSPost2010Prop29
280
     1
102
RTVSPost2010PropOp29
 70
     1
102
RTVSPost2010Prop30
280
     1
102
RTVSPost2010PropOp30
 70
     1
102
RTVSPost2010Prop31
280
     0
102
RTVSPost2010PropOp31
 70
     1
102
RTVSPost2010Prop32
280
     0
102
RTVSPost2010PropOp32
 70
     1
102
RTVSPost2010Prop33
280
     0
102
RTVSPost2010PropOp33
 70
     1
102
RTVSPost2010Prop34
280
     0
102
RTVSPost2010PropOp34
 70
     1
102
RTVSPost2010Prop35
280
     0
102
RTVSPost2010PropOp35
 70
     1
102
RTVSPost2010Prop36
280
     0
102
RTVSPost2010PropOp36
 70
     1
102
RTVSPost2010Prop37
 90
       50
102
RTVSPost2010PropOp37
 70
     1
102
RTVSPost2010Prop38
140
0.0
102
RTVSPost2010PropOp38
 70
     1
102
RTVSPost2010Prop39
140
1.0
102
RTVSPost2010PropOp39
 70
     1
102
RTVSPost2010Prop40
 90
        0
102
RTVSPost2010PropOp40
 70
     1
102
RTVSPost2010Prop41ColorIndex
 90
       18
102
RTVSPost2010Prop41ColorRGB
 90
        0
102
RTVSPost2010PropOp41
 70
     1
102
RTVSPost2010Prop42
 90
       50
102
RTVSPost2010PropOp42
 70
     1
102
RTVSPost2010Prop43
 90
        3
102
RTVSPost2010PropOp43
 70
     1
102
RTVSPost2010Prop44ColorIndex
 90
        5
102
RTVSPost2010Prop44ColorRGB
 90
      255
102
RTVSPost2010PropOp44
 70
     1
102
RTVSPost2010Prop45
280
     0
102
RTVSPost2010PropOp45
 70
     1
102
RTVSPost2010Prop46
 90
       50
102
RTVSPost2010PropOp46
 70
     1
102
RTVSPost2010Prop47
 90
       50
102
RTVSPost2010PropOp47
 70
     1
102
RTVSPost2010Prop48
 90
       50
102
RTVSPost2010PropOp48
 70
     1
102
RTVSPost2010Prop49
280
     0
102
RTVSPost2010PropOp49
 70
     1
102
RTVSPost2010Prop50
 90
       50
102
RTVSPost2010PropOp50
 70
     1
102
RTVSPost2010Prop51ColorIndex
 90
      256
102
RTVSPost2010Prop51ColorRGB
 90
-16777216
102
RTVSPost2010PropOp51
 70
     0
102
RTVSPost2010Prop52
140
1.0
102
RTVSPost2010PropOp52
 70
     0
102
RTVSPost2010Prop53
 90
        2
102
RTVSPost2010PropOp53
 70
     1
102
RTVSPost2010Prop54
  1
strokes_ogs.tif
102
RTVSPost2010PropOp54
 70
     1
102
RTVSPost2010Prop55
280
     0
102
RTVSPost2010PropOp55
 70
     1
102
RTVSPost2010Prop56
140
1.0
102
RTVSPost2010PropOp56
 70
     1
102
RTVSPost2010Prop57
140
1.0
102
RTVSPost2010PropOp57
 70
     1
102
RTVSPropertyOp0
 70
     1
102
RTVSPropertyOp1
 70
     1
102
RTVSPropertyOp2
 70
     1
102
RTVSPropertyOp3
 70
     1
102
RTVSPropertyOp4
 70
     1
102
RTVSPropertyOp5
 70
     1
102
RTVSPropertyOp6
 70
     1
102
RTVSPropertyOp7
 70
     1
102
RTVSPropertyOp8
 70
     1
102
RTVSPropertyOp9
 70
     1
102
RTVSPropertyOp10
 70
     1
102
RTVSPropertyOp11
 70
     1
102
RTVSPropertyOp12
 70
     1
102
RTVSPropertyOp13
 70
     1
102
RTVSPropertyOp14
 70
     1
102
RTVSPropertyOp15
 70
     1
102
RTVSPropertyOp16
 70
     1
102
RTVSPropertyOp17
 70
     1
102
RTVSPropertyOp18
 70
     1
102
RTVSPropertyOp19
 70
     1
102
RTVSPropertyOp20
 70
     1
102
RTVSPropertyOp21
 70
     1
102
RTVSPropertyOp22
 70
     1
102
RTVSPropertyOp23
 70
     1
102
RTVSPropertyOp24
 70
     1
102
RTVSPropertyOp25
 70
     1
102
RTVSPropertyOp26
 70
     1
102
RTVSPropertyOp27
 70
     1
102
RTVSPropertyOp28
 70
     1
102
RTVSPropertyOp29
 70
     1
102
RTVSPropertyOp30
 70
     1
102
RTVSPropertyOp31
 70
     1
102
RTVSPropertyOp32
 70
     1
102
RTVSPropertyOp33
 70
     1
102
RTVSPropertyOp34
 70
     1
102
RTVSPropertyOp35
 70
     1
102
RTVSPropertyOp36
 70
     1
102
RTVSPropertyOp37
 70
     1
102
RTVSPropertyOp38
 70
     1
102
RTVSPropertyOp39
 70
     1
102
RTVSPropertyOp40
 70
     1
102
RTVSPropertyOp41
 70
     1
102
RTVSPropertyOp42
 70
     1
102
RTVSPropertyOp43
 70
     1
102
RTVSPropertyOp44
 70
     1
102
RTVSPropertyOp45
 70
     1
102
RTVSPropertyOp46
 70
     1
102
RTVSPropertyOp47
 70
     1
102
RTVSPropertyOp48
 70
     1
102
RTVSPropertyOp49
 70
     1
102
RTVSPropertyOp50
 70
     1
102
RTVSPropertyOp51
 70
     0
102
RTVSPropertyOp52
 70
     0
102
RTVSPropertyOp53
 70
     1
102
RTVSPropertyOp54
 70
     1
102
RTVSPropertyOp55
 70
     1
102
RTVSPropertyOp56
 70
     1
102
RTVSPropertyOp57
 70
     1
102
RTVSPropertyOp58
 70
     1
102
RTVSPropertyOp59
 70
     1
102
RTVSPropertyOp60
 70
     1
102
RTVSPropertyOp61
 70
     1
102
RTVSPropertyOp62
 70
     1
  0
XRECORD
  5
3C0
102
{ACAD_REACTORS
330
3BF
102
}
330
3BF
100
AcDbXrecord
280
     1
102
RTVSPost2010Prop28
280
     0
102
RTVSPost2010PropOp28
 70
     1
102
RTVSPost2010Prop29
280
     1
102
RTVSPost2010PropOp29
 70
     1
102
RTVSPost2010Prop30
280
     1
102
RTVSPost2010PropOp30
 70
     1
102
RTVSPost2010Prop31
280
     0
102
RTVSPost2010PropOp31
 70
     1
102
RTVSPost2010Prop32
280
     0
102
RTVSPost2010PropOp32
 70
     1
102
RTVSPost2010Prop33
280
     0
102
RTVSPost2010PropOp33
 70
     1
102
RTVSPost2010Prop34
280
     0
102
RTVSPost2010PropOp34
 70
     1
102
RTVSPost2010Prop35
280
     0
102
RTVSPost2010PropOp35
 70
     1
102
RTVSPost2010Prop36
280
     0
102
RTVSPost2010PropOp36
 70
     1
102
RTVSPost2010Prop37
 90
       50
102
RTVSPost2010PropOp37
 70
     1
102
RTVSPost2010Prop38
140
0.0
102
RTVSPost2010PropOp38
 70
     1
102
RTVSPost2010Prop39
140
1.0
102
RTVSPost2010PropOp39
 70
     1
102
RTVSPost2010Prop40
 90
        0
102
RTVSPost2010PropOp40
 70
     1
102
RTVSPost2010Prop41ColorIndex
 90
       18
102
RTVSPost2010Prop41ColorRGB
 90
        0
102
RTVSPost2010PropOp41
 70
     1
102
RTVSPost2010Prop42
 90
       50
102
RTVSPost2010PropOp42
 70
     1
102
RTVSPost2010Prop43
 90
        3
102
RTVSPost2010PropOp43
 70
     1
102
RTVSPost2010Prop44ColorIndex
 90
        5
102
RTVSPost2010Prop44ColorRGB
 90
      255
102
RTVSPost2010PropOp44
 70
     1
102
RTVSPost2010Prop45
280
     0
102
RTVSPost2010PropOp45
 70
     1
102
RTVSPost2010Prop46
 90
       50
102
RTVSPost2010PropOp46
 70
     1
102
RTVSPost2010Prop47
 90
       50
102
RTVSPost2010PropOp47
 70
     1
102
RTVSPost2010Prop48
 90
       50
102
RTVSPost2010PropOp48
 70
     1
102
RTVSPost2010Prop49
280
     0
102
RTVSPost2010PropOp49
 70
     1
102
RTVSPost2010Prop50
 90
       50
102
RTVSPost2010PropOp50
 70
     1
102
RTVSPost2010Prop51ColorIndex
 90
      256
102
RTVSPost2010Prop51ColorRGB
 90
-16777216
102
RTVSPost2010PropOp51
 70
     0
102
RTVSPost2010Prop52
140
1.0
102
RTVSPost2010PropOp52
 70
     0
102
RTVSPost2010Prop53
 90
        2
102
RTVSPost2010PropOp53
 70
     1
102
RTVSPost2010Prop54
  1
strokes_ogs.tif
102
RTVSPost2010PropOp54
 70
     1
102
RTVSPost2010Prop55
280
     0
102
RTVSPost2010PropOp55
 70
     1
102
RTVSPost2010Prop56
140
1.0
102
RTVSPost2010PropOp56
 70
     1
102
RTVSPost2010Prop57
140
1.0
102
RTVSPost2010PropOp57
 70
     1
102
RTVSPropertyOp0
 70
     1
102
RTVSPropertyOp1
 70
     1
102
RTVSPropertyOp2
 70
     1
102
RTVSPropertyOp3
 70
     1
102
RTVSPropertyOp4
 70
     1
102
RTVSPropertyOp5
 70
     1
102
RTVSPropertyOp6
 70
     1
102
RTVSPropertyOp7
 70
     1
102
RTVSPropertyOp8
 70
     1
102
RTVSPropertyOp9
 70
     1
102
RTVSPropertyOp10
 70
     1
102
RTVSPropertyOp11
 70
     1
102
RTVSPropertyOp12
 70
     1
102
RTVSPropertyOp13
 70
     1
102
RTVSPropertyOp14
 70
     1
102
RTVSPropertyOp15
 70
     1
102
RTVSPropertyOp16
 70
     1
102
RTVSPropertyOp17
 70
     1
102
RTVSPropertyOp18
 70
     1
102
RTVSPropertyOp19
 70
     1
102
RTVSPropertyOp20
 70
     1
102
RTVSPropertyOp21
 70
     1
102
RTVSPropertyOp22
 70
     1
102
RTVSPropertyOp23
 70
     1
102
RTVSPropertyOp24
 70
     1
102
RTVSPropertyOp25
 70
     1
102
RTVSPropertyOp26
 70
     1
102
RTVSPropertyOp27
 70
     1
102
RTVSPropertyOp28
 70
     1
102
RTVSPropertyOp29
 70
     1
102
RTVSPropertyOp30
 70
     1
102
RTVSPropertyOp31
 70
     1
102
RTVSPropertyOp32
 70
     1
102
RTVSPropertyOp33
 70
     1
102
RTVSPropertyOp34
 70
     1
102
RTVSPropertyOp35
 70
     1
102
RTVSPropertyOp36
 70
     1
102
RTVSPropertyOp37
 70
     1
102
RTVSPropertyOp38
 70
     1
102
RTVSPropertyOp39
 70
     1
102
RTVSPropertyOp40
 70
     1
102
RTVSPropertyOp41
 70
     1
102
RTVSPropertyOp42
 70
     1
102
RTVSPropertyOp43
 70
     1
102
RTVSPropertyOp44
 70
     1
102
RTVSPropertyOp45
 70
     1
102
RTVSPropertyOp46
 70
     1
102
RTVSPropertyOp47
 70
     1
102
RTVSPropertyOp48
 70
     1
102
RTVSPropertyOp49
 70
     1
102
RTVSPropertyOp50
 70
     1
102
RTVSPropertyOp51
 70
     0
102
RTVSPropertyOp52
 70
     0
102
RTVSPropertyOp53
 70
     1
102
RTVSPropertyOp54
 70
     1
102
RTVSPropertyOp55
 70
     1
102
RTVSPropertyOp56
 70
     1
102
RTVSPropertyOp57
 70
     1
102
RTVSPropertyOp58
 70
     1
102
RTVSPropertyOp59
 70
     1
102
RTVSPropertyOp60
 70
     1
102
RTVSPropertyOp61
 70
     1
102
RTVSPropertyOp62
 70
     1
  0
XRECORD
  5
3C2
102
{ACAD_REACTORS
330
3C1
102
}
330
3C1
100
AcDbXrecord
280
     1
102
RTVSPost2010Prop28
280
     0
102
RTVSPost2010PropOp28
 70
     1
102
RTVSPost2010Prop29
280
     1
102
RTVSPost2010PropOp29
 70
     1
102
RTVSPost2010Prop30
280
     1
102
RTVSPost2010PropOp30
 70
     1
102
RTVSPost2010Prop31
280
     0
102
RTVSPost2010PropOp31
 70
     1
102
RTVSPost2010Prop32
280
     0
102
RTVSPost2010PropOp32
 70
     1
102
RTVSPost2010Prop33
280
     0
102
RTVSPost2010PropOp33
 70
     1
102
RTVSPost2010Prop34
280
     0
102
RTVSPost2010PropOp34
 70
     1
102
RTVSPost2010Prop35
280
     0
102
RTVSPost2010PropOp35
 70
     1
102
RTVSPost2010Prop36
280
     0
102
RTVSPost2010PropOp36
 70
     1
102
RTVSPost2010Prop37
 90
       50
102
RTVSPost2010PropOp37
 70
     1
102
RTVSPost2010Prop38
140
0.0
102
RTVSPost2010PropOp38
 70
     1
102
RTVSPost2010Prop39
140
1.0
102
RTVSPost2010PropOp39
 70
     1
102
RTVSPost2010Prop40
 90
        0
102
RTVSPost2010PropOp40
 70
     1
102
RTVSPost2010Prop41ColorIndex
 90
       18
102
RTVSPost2010Prop41ColorRGB
 90
        0
102
RTVSPost2010PropOp41
 70
     1
102
RTVSPost2010Prop42
 90
       50
102
RTVSPost2010PropOp42
 70
     1
102
RTVSPost2010Prop43
 90
        3
102
RTVSPost2010PropOp43
 70
     1
102
RTVSPost2010Prop44ColorIndex
 90
        5
102
RTVSPost2010Prop44ColorRGB
 90
      255
102
RTVSPost2010PropOp44
 70
     1
102
RTVSPost2010Prop45
280
     0
102
RTVSPost2010PropOp45
 70
     1
102
RTVSPost2010Prop46
 90
       50
102
RTVSPost2010PropOp46
 70
     1
102
RTVSPost2010Prop47
 90
       50
102
RTVSPost2010PropOp47
 70
     1
102
RTVSPost2010Prop48
 90
       50
102
RTVSPost2010PropOp48
 70
     1
102
RTVSPost2010Prop49
280
     0
102
RTVSPost2010PropOp49
 70
     1
102
RTVSPost2010Prop50
 90
       50
102
RTVSPost2010PropOp50
 70
     1
102
RTVSPost2010Prop51ColorIndex
 90
      256
102
RTVSPost2010Prop51ColorRGB
 90
-16777216
102
RTVSPost2010PropOp51
 70
     0
102
RTVSPost2010Prop52
140
1.0
102
RTVSPost2010PropOp52
 70
     0
102
RTVSPost2010Prop53
 90
        2
102
RTVSPost2010PropOp53
 70
     1
102
RTVSPost2010Prop54
  1
strokes_ogs.tif
102
RTVSPost2010PropOp54
 70
     1
102
RTVSPost2010Prop55
280
     0
102
RTVSPost2010PropOp55
 70
     1
102
RTVSPost2010Prop56
140
1.0
102
RTVSPost2010PropOp56
 70
     1
102
RTVSPost2010Prop57
140
1.0
102
RTVSPost2010PropOp57
 70
     1
102
RTVSPropertyOp0
 70
     1
102
RTVSPropertyOp1
 70
     1
102
RTVSPropertyOp2
 70
     1
102
RTVSPropertyOp3
 70
     1
102
RTVSPropertyOp4
 70
     1
102
RTVSPropertyOp5
 70
     1
102
RTVSPropertyOp6
 70
     1
102
RTVSPropertyOp7
 70
     1
102
RTVSPropertyOp8
 70
     1
102
RTVSPropertyOp9
 70
     1
102
RTVSPropertyOp10
 70
     1
102
RTVSPropertyOp11
 70
     1
102
RTVSPropertyOp12
 70
     1
102
RTVSPropertyOp13
 70
     1
102
RTVSPropertyOp14
 70
     1
102
RTVSPropertyOp15
 70
     1
102
RTVSPropertyOp16
 70
     1
102
RTVSPropertyOp17
 70
     1
102
RTVSPropertyOp18
 70
     1
102
RTVSPropertyOp19
 70
     1
102
RTVSPropertyOp20
 70
     1
102
RTVSPropertyOp21
 70
     1
102
RTVSPropertyOp22
 70
     1
102
RTVSPropertyOp23
 70
     1
102
RTVSPropertyOp24
 70
     1
102
RTVSPropertyOp25
 70
     1
102
RTVSPropertyOp26
 70
     1
102
RTVSPropertyOp27
 70
     1
102
RTVSPropertyOp28
 70
     1
102
RTVSPropertyOp29
 70
     1
102
RTVSPropertyOp30
 70
     1
102
RTVSPropertyOp31
 70
     1
102
RTVSPropertyOp32
 70
     1
102
RTVSPropertyOp33
 70
     1
102
RTVSPropertyOp34
 70
     1
102
RTVSPropertyOp35
 70
     1
102
RTVSPropertyOp36
 70
     1
102
RTVSPropertyOp37
 70
     1
102
RTVSPropertyOp38
 70
     1
102
RTVSPropertyOp39
 70
     1
102
RTVSPropertyOp40
 70
     1
102
RTVSPropertyOp41
 70
     1
102
RTVSPropertyOp42
 70
     1
102
RTVSPropertyOp43
 70
     1
102
RTVSPropertyOp44
 70
     1
102
RTVSPropertyOp45
 70
     1
102
RTVSPropertyOp46
 70
     1
102
RTVSPropertyOp47
 70
     1
102
RTVSPropertyOp48
 70
     1
102
RTVSPropertyOp49
 70
     1
102
RTVSPropertyOp50
 70
     1
102
RTVSPropertyOp51
 70
     0
102
RTVSPropertyOp52
 70
     0
102
RTVSPropertyOp53
 70
     1
102
RTVSPropertyOp54
 70
     1
102
RTVSPropertyOp55
 70
     1
102
RTVSPropertyOp56
 70
     1
102
RTVSPropertyOp57
 70
     1
102
RTVSPropertyOp58
 70
     1
102
RTVSPropertyOp59
 70
     1
102
RTVSPropertyOp60
 70
     1
102
RTVSPropertyOp61
 70
     1
102
RTVSPropertyOp62
 70
     1
  0
XRECORD
  5
3C4
102
{ACAD_REACTORS
330
3C3
102
}
330
3C3
100
AcDbXrecord
280
     1
102
RTVSPost2010Prop28
280
     0
102
RTVSPost2010PropOp28
 70
     1
102
RTVSPost2010Prop29
280
     1
102
RTVSPost2010PropOp29
 70
     1
102
RTVSPost2010Prop30
280
     1
102
RTVSPost2010PropOp30
 70
     1
102
RTVSPost2010Prop31
280
     0
102
RTVSPost2010PropOp31
 70
     1
102
RTVSPost2010Prop32
280
     0
102
RTVSPost2010PropOp32
 70
     1
102
RTVSPost2010Prop33
280
     0
102
RTVSPost2010PropOp33
 70
     1
102
RTVSPost2010Prop34
280
     0
102
RTVSPost2010PropOp34
 70
     1
102
RTVSPost2010Prop35
280
     0
102
RTVSPost2010PropOp35
 70
     1
102
RTVSPost2010Prop36
280
     0
102
RTVSPost2010PropOp36
 70
     1
102
RTVSPost2010Prop37
 90
       50
102
RTVSPost2010PropOp37
 70
     1
102
RTVSPost2010Prop38
140
0.0
102
RTVSPost2010PropOp38
 70
     1
102
RTVSPost2010Prop39
140
1.0
102
RTVSPost2010PropOp39
 70
     1
102
RTVSPost2010Prop40
 90
        0
102
RTVSPost2010PropOp40
 70
     1
102
RTVSPost2010Prop41ColorIndex
 90
       18
102
RTVSPost2010Prop41ColorRGB
 90
        0
102
RTVSPost2010PropOp41
 70
     1
102
RTVSPost2010Prop42
 90
       50
102
RTVSPost2010PropOp42
 70
     1
102
RTVSPost2010Prop43
 90
        3
102
RTVSPost2010PropOp43
 70
     1
102
RTVSPost2010Prop44ColorIndex
 90
        5
102
RTVSPost2010Prop44ColorRGB
 90
      255
102
RTVSPost2010PropOp44
 70
     1
102
RTVSPost2010Prop45
280
     0
102
RTVSPost2010PropOp45
 70
     1
102
RTVSPost2010Prop46
 90
       50
102
RTVSPost2010PropOp46
 70
     1
102
RTVSPost2010Prop47
 90
       50
102
RTVSPost2010PropOp47
 70
     1
102
RTVSPost2010Prop48
 90
       50
102
RTVSPost2010PropOp48
 70
     1
102
RTVSPost2010Prop49
280
     0
102
RTVSPost2010PropOp49
 70
     1
102
RTVSPost2010Prop50
 90
       50
102
RTVSPost2010PropOp50
 70
     1
102
RTVSPost2010Prop51ColorIndex
 90
      256
102
RTVSPost2010Prop51ColorRGB
 90
-16777216
102
RTVSPost2010PropOp51
 70
     0
102
RTVSPost2010Prop52
140
1.0
102
RTVSPost2010PropOp52
 70
     0
102
RTVSPost2010Prop53
 90
        2
102
RTVSPost2010PropOp53
 70
     1
102
RTVSPost2010Prop54
  1
strokes_ogs.tif
102
RTVSPost2010PropOp54
 70
     1
102
RTVSPost2010Prop55
280
     0
102
RTVSPost2010PropOp55
 70
     1
102
RTVSPost2010Prop56
140
1.0
102
RTVSPost2010PropOp56
 70
     1
102
RTVSPost2010Prop57
140
1.0
102
RTVSPost2010PropOp57
 70
     1
102
RTVSPropertyOp0
 70
     1
102
RTVSPropertyOp1
 70
     1
102
RTVSPropertyOp2
 70
     1
102
RTVSPropertyOp3
 70
     1
102
RTVSPropertyOp4
 70
     1
102
RTVSPropertyOp5
 70
     1
102
RTVSPropertyOp6
 70
     1
102
RTVSPropertyOp7
 70
     1
102
RTVSPropertyOp8
 70
     1
102
RTVSPropertyOp9
 70
     1
102
RTVSPropertyOp10
 70
     1
102
RTVSPropertyOp11
 70
     1
102
RTVSPropertyOp12
 70
     1
102
RTVSPropertyOp13
 70
     1
102
RTVSPropertyOp14
 70
     1
102
RTVSPropertyOp15
 70
     1
102
RTVSPropertyOp16
 70
     1
102
RTVSPropertyOp17
 70
     1
102
RTVSPropertyOp18
 70
     1
102
RTVSPropertyOp19
 70
     1
102
RTVSPropertyOp20
 70
     1
102
RTVSPropertyOp21
 70
     1
102
RTVSPropertyOp22
 70
     1
102
RTVSPropertyOp23
 70
     1
102
RTVSPropertyOp24
 70
     1
102
RTVSPropertyOp25
 70
     1
102
RTVSPropertyOp26
 70
     1
102
RTVSPropertyOp27
 70
     1
102
RTVSPropertyOp28
 70
     1
102
RTVSPropertyOp29
 70
     1
102
RTVSPropertyOp30
 70
     1
102
RTVSPropertyOp31
 70
     1
102
RTVSPropertyOp32
 70
     1
102
RTVSPropertyOp33
 70
     1
102
RTVSPropertyOp34
 70
     1
102
RTVSPropertyOp35
 70
     1
102
RTVSPropertyOp36
 70
     1
102
RTVSPropertyOp37
 70
     1
102
RTVSPropertyOp38
 70
     1
102
RTVSPropertyOp39
 70
     1
102
RTVSPropertyOp40
 70
     1
102
RTVSPropertyOp41
 70
     1
102
RTVSPropertyOp42
 70
     1
102
RTVSPropertyOp43
 70
     1
102
RTVSPropertyOp44
 70
     1
102
RTVSPropertyOp45
 70
     1
102
RTVSPropertyOp46
 70
     1
102
RTVSPropertyOp47
 70
     1
102
RTVSPropertyOp48
 70
     1
102
RTVSPropertyOp49
 70
     1
102
RTVSPropertyOp50
 70
     1
102
RTVSPropertyOp51
 70
     0
102
RTVSPropertyOp52
 70
     0
102
RTVSPropertyOp53
 70
     1
102
RTVSPropertyOp54
 70
     1
102
RTVSPropertyOp55
 70
     1
102
RTVSPropertyOp56
 70
     1
102
RTVSPropertyOp57
 70
     1
102
RTVSPropertyOp58
 70
     1
102
RTVSPropertyOp59
 70
     1
102
RTVSPropertyOp60
 70
     1
102
RTVSPropertyOp61
 70
     1
102
RTVSPropertyOp62
 70
     1
  0
XRECORD
  5
3CA
102
{ACAD_REACTORS
330
3C9
102
}
330
3C9
100
AcDbXrecord
280
     1
102
RTVSPost2010Prop28
280
     0
102
RTVSPost2010PropOp28
 70
     1
102
RTVSPost2010Prop29
280
     1
102
RTVSPost2010PropOp29
 70
     1
102
RTVSPost2010Prop30
280
     1
102
RTVSPost2010PropOp30
 70
     1
102
RTVSPost2010Prop31
280
     0
102
RTVSPost2010PropOp31
 70
     1
102
RTVSPost2010Prop32
280
     0
102
RTVSPost2010PropOp32
 70
     1
102
RTVSPost2010Prop33
280
     0
102
RTVSPost2010PropOp33
 70
     1
102
RTVSPost2010Prop34
280
     0
102
RTVSPost2010PropOp34
 70
     1
102
RTVSPost2010Prop35
280
     0
102
RTVSPost2010PropOp35
 70
     1
102
RTVSPost2010Prop36
280
     0
102
RTVSPost2010PropOp36
 70
     1
102
RTVSPost2010Prop37
 90
       50
102
RTVSPost2010PropOp37
 70
     1
102
RTVSPost2010Prop38
140
0.0
102
RTVSPost2010PropOp38
 70
     1
102
RTVSPost2010Prop39
140
1.0
102
RTVSPost2010PropOp39
 70
     1
102
RTVSPost2010Prop40
 90
        0
102
RTVSPost2010PropOp40
 70
     1
102
RTVSPost2010Prop41ColorIndex
 90
       18
102
RTVSPost2010Prop41ColorRGB
 90
        0
102
RTVSPost2010PropOp41
 70
     1
102
RTVSPost2010Prop42
 90
       50
102
RTVSPost2010PropOp42
 70
     1
102
RTVSPost2010Prop43
 90
        3
102
RTVSPost2010PropOp43
 70
     1
102
RTVSPost2010Prop44ColorIndex
 90
        5
102
RTVSPost2010Prop44ColorRGB
 90
      255
102
RTVSPost2010PropOp44
 70
     1
102
RTVSPost2010Prop45
280
     0
102
RTVSPost2010PropOp45
 70
     1
102
RTVSPost2010Prop46
 90
       50
102
RTVSPost2010PropOp46
 70
     1
102
RTVSPost2010Prop47
 90
       50
102
RTVSPost2010PropOp47
 70
     1
102
RTVSPost2010Prop48
 90
       50
102
RTVSPost2010PropOp48
 70
     1
102
RTVSPost2010Prop49
280
     0
102
RTVSPost2010PropOp49
 70
     1
102
RTVSPost2010Prop50
 90
       50
102
RTVSPost2010PropOp50
 70
     1
102
RTVSPost2010Prop51ColorIndex
 90
      256
102
RTVSPost2010Prop51ColorRGB
 90
-16777216
102
RTVSPost2010PropOp51
 70
     0
102
RTVSPost2010Prop52
140
1.0
102
RTVSPost2010PropOp52
 70
     0
102
RTVSPost2010Prop53
 90
        2
102
RTVSPost2010PropOp53
 70
     1
102
RTVSPost2010Prop54
  1
strokes_ogs.tif
102
RTVSPost2010PropOp54
 70
     1
102
RTVSPost2010Prop55
280
     0
102
RTVSPost2010PropOp55
 70
     1
102
RTVSPost2010Prop56
140
1.0
102
RTVSPost2010PropOp56
 70
     1
102
RTVSPost2010Prop57
140
1.0
102
RTVSPost2010PropOp57
 70
     1
102
RTVSPropertyOp0
 70
     1
102
RTVSPropertyOp1
 70
     1
102
RTVSPropertyOp2
 70
     1
102
RTVSPropertyOp3
 70
     1
102
RTVSPropertyOp4
 70
     1
102
RTVSPropertyOp5
 70
     1
102
RTVSPropertyOp6
 70
     1
102
RTVSPropertyOp7
 70
     1
102
RTVSPropertyOp8
 70
     1
102
RTVSPropertyOp9
 70
     1
102
RTVSPropertyOp10
 70
     1
102
RTVSPropertyOp11
 70
     1
102
RTVSPropertyOp12
 70
     1
102
RTVSPropertyOp13
 70
     1
102
RTVSPropertyOp14
 70
     1
102
RTVSPropertyOp15
 70
     1
102
RTVSPropertyOp16
 70
     1
102
RTVSPropertyOp17
 70
     1
102
RTVSPropertyOp18
 70
     1
102
RTVSPropertyOp19
 70
     1
102
RTVSPropertyOp20
 70
     1
102
RTVSPropertyOp21
 70
     1
102
RTVSPropertyOp22
 70
     1
102
RTVSPropertyOp23
 70
     1
102
RTVSPropertyOp24
 70
     1
102
RTVSPropertyOp25
 70
     1
102
RTVSPropertyOp26
 70
     1
102
RTVSPropertyOp27
 70
     1
102
RTVSPropertyOp28
 70
     1
102
RTVSPropertyOp29
 70
     1
102
RTVSPropertyOp30
 70
     1
102
RTVSPropertyOp31
 70
     1
102
RTVSPropertyOp32
 70
     1
102
RTVSPropertyOp33
 70
     1
102
RTVSPropertyOp34
 70
     1
102
RTVSPropertyOp35
 70
     1
102
RTVSPropertyOp36
 70
     1
102
RTVSPropertyOp37
 70
     1
102
RTVSPropertyOp38
 70
     1
102
RTVSPropertyOp39
 70
     1
102
RTVSPropertyOp40
 70
     1
102
RTVSPropertyOp41
 70
     1
102
RTVSPropertyOp42
 70
     1
102
RTVSPropertyOp43
 70
     1
102
RTVSPropertyOp44
 70
     1
102
RTVSPropertyOp45
 70
     1
102
RTVSPropertyOp46
 70
     1
102
RTVSPropertyOp47
 70
     1
102
RTVSPropertyOp48
 70
     1
102
RTVSPropertyOp49
 70
     1
102
RTVSPropertyOp50
 70
     1
102
RTVSPropertyOp51
 70
     0
102
RTVSPropertyOp52
 70
     0
102
RTVSPropertyOp53
 70
     1
102
RTVSPropertyOp54
 70
     1
102
RTVSPropertyOp55
 70
     1
102
RTVSPropertyOp56
 70
     1
102
RTVSPropertyOp57
 70
     1
102
RTVSPropertyOp58
 70
     1
102
RTVSPropertyOp59
 70
     1
102
RTVSPropertyOp60
 70
     1
102
RTVSPropertyOp61
 70
     1
102
RTVSPropertyOp62
 70
     1
  0
XRECORD
  5
3DE
102
{ACAD_REACTORS
330
3DD
102
}
330
3DD
100
AcDbXrecord
280
     1
102
RTVSPost2010Prop28
280
     0
102
RTVSPost2010PropOp28
 70
     0
102
RTVSPost2010Prop29
280
     1
102
RTVSPost2010PropOp29
 70
     0
102
RTVSPost2010Prop30
280
     1
102
RTVSPost2010PropOp30
 70
     0
102
RTVSPost2010Prop31
280
     0
102
RTVSPost2010PropOp31
 70
     0
102
RTVSPost2010Prop32
280
     0
102
RTVSPost2010PropOp32
 70
     0
102
RTVSPost2010Prop33
280
     0
102
RTVSPost2010PropOp33
 70
     0
102
RTVSPost2010Prop34
280
     0
102
RTVSPost2010PropOp34
 70
     0
102
RTVSPost2010Prop35
280
     0
102
RTVSPost2010PropOp35
 70
     0
102
RTVSPost2010Prop36
280
     0
102
RTVSPost2010PropOp36
 70
     0
102
RTVSPost2010Prop37
 90
       50
102
RTVSPost2010PropOp37
 70
     0
102
RTVSPost2010Prop38
140
0.0
102
RTVSPost2010PropOp38
 70
     0
102
RTVSPost2010Prop39
140
1.0
102
RTVSPost2010PropOp39
 70
     0
102
RTVSPost2010Prop40
 90
        0
102
RTVSPost2010PropOp40
 70
     0
102
RTVSPost2010Prop41ColorIndex
 90
       18
102
RTVSPost2010Prop41ColorRGB
 90
        0
102
RTVSPost2010PropOp41
 70
     0
102
RTVSPost2010Prop42
 90
       50
102
RTVSPost2010PropOp42
 70
     0
102
RTVSPost2010Prop43
 90
        3
102
RTVSPost2010PropOp43
 70
     0
102
RTVSPost2010Prop44ColorIndex
 90
        5
102
RTVSPost2010Prop44ColorRGB
 90
      255
102
RTVSPost2010PropOp44
 70
     0
102
RTVSPost2010Prop45
280
     0
102
RTVSPost2010PropOp45
 70
     0
102
RTVSPost2010Prop46
 90
       50
102
RTVSPost2010PropOp46
 70
     0
102
RTVSPost2010Prop47
 90
       50
102
RTVSPost2010PropOp47
 70
     0
102
RTVSPost2010Prop48
 90
       50
102
RTVSPost2010PropOp48
 70
     0
102
RTVSPost2010Prop49
280
     0
102
RTVSPost2010PropOp49
 70
     0
102
RTVSPost2010Prop50
 90
       50
102
RTVSPost2010PropOp50
 70
     0
102
RTVSPost2010Prop51ColorIndex
 90
      256
102
RTVSPost2010Prop51ColorRGB
 90
-16777216
102
RTVSPost2010PropOp51
 70
     0
102
RTVSPost2010Prop52
140
1.0
102
RTVSPost2010PropOp52
 70
     0
102
RTVSPost2010Prop53
 90
        2
102
RTVSPost2010PropOp53
 70
     0
102
RTVSPost2010Prop54
  1
strokes_ogs.tif
102
RTVSPost2010PropOp54
 70
     0
102
RTVSPost2010Prop55
280
     0
102
RTVSPost2010PropOp55
 70
     0
102
RTVSPost2010Prop56
140
1.0
102
RTVSPost2010PropOp56
 70
     0
102
RTVSPost2010Prop57
140
1.0
102
RTVSPost2010PropOp57
 70
     0
102
RTVSPropertyOp0
 70
     0
102
RTVSPropertyOp1
 70
     0
102
RTVSPropertyOp2
 70
     0
102
RTVSPropertyOp3
 70
     0
102
RTVSPropertyOp4
 70
     0
102
RTVSPropertyOp5
 70
     0
102
RTVSPropertyOp6
 70
     0
102
RTVSPropertyOp7
 70
     0
102
RTVSPropertyOp8
 70
     0
102
RTVSPropertyOp9
 70
     0
102
RTVSPropertyOp10
 70
     0
102
RTVSPropertyOp11
 70
     0
102
RTVSPropertyOp12
 70
     0
102
RTVSPropertyOp13
 70
     0
102
RTVSPropertyOp14
 70
     2
102
RTVSPropertyOp15
 70
     0
102
RTVSPropertyOp16
 70
     0
102
RTVSPropertyOp17
 70
     0
102
RTVSPropertyOp18
 70
     0
102
RTVSPropertyOp19
 70
     0
102
RTVSPropertyOp20
 70
     0
102
RTVSPropertyOp21
 70
     0
102
RTVSPropertyOp22
 70
     0
102
RTVSPropertyOp23
 70
     0
102
RTVSPropertyOp24
 70
     0
102
RTVSPropertyOp25
 70
     0
102
RTVSPropertyOp26
 70
     0
102
RTVSPropertyOp27
 70
     0
102
RTVSPropertyOp28
 70
     0
102
RTVSPropertyOp29
 70
     0
102
RTVSPropertyOp30
 70
     0
102
RTVSPropertyOp31
 70
     0
102
RTVSPropertyOp32
 70
     0
102
RTVSPropertyOp33
 70
     0
102
RTVSPropertyOp34
 70
     0
102
RTVSPropertyOp35
 70
     0
102
RTVSPropertyOp36
 70
     0
102
RTVSPropertyOp37
 70
     0
102
RTVSPropertyOp38
 70
     0
102
RTVSPropertyOp39
 70
     0
102
RTVSPropertyOp40
 70
     0
102
RTVSPropertyOp41
 70
     0
102
RTVSPropertyOp42
 70
     0
102
RTVSPropertyOp43
 70
     0
102
RTVSPropertyOp44
 70
     0
102
RTVSPropertyOp45
 70
     0
102
RTVSPropertyOp46
 70
     0
102
RTVSPropertyOp47
 70
     0
102
RTVSPropertyOp48
 70
     0
102
RTVSPropertyOp49
 70
     0
102
RTVSPropertyOp50
 70
     0
102
RTVSPropertyOp51
 70
     0
102
RTVSPropertyOp52
 70
     0
102
RTVSPropertyOp53
 70
     0
102
RTVSPropertyOp54
 70
     0
102
RTVSPropertyOp55
 70
     0
102
RTVSPropertyOp56
 70
     0
102
RTVSPropertyOp57
 70
     0
102
RTVSPropertyOp58
 70
     1
102
RTVSPropertyOp59
 70
     1
102
RTVSPropertyOp60
 70
     1
102
RTVSPropertyOp61
 70
     1
102
RTVSPropertyOp62
 70
     1
  0
XRECORD
  5
3D8
102
{ACAD_REACTORS
330
3D7
102
}
330
3D7
100
AcDbXrecord
280
     1
102
RTVSPost2010Prop28
280
     0
102
RTVSPost2010PropOp28
 70
     1
102
RTVSPost2010Prop29
280
     1
102
RTVSPost2010PropOp29
 70
     1
102
RTVSPost2010Prop30
280
     1
102
RTVSPost2010PropOp30
 70
     1
102
RTVSPost2010Prop31
280
     0
102
RTVSPost2010PropOp31
 70
     1
102
RTVSPost2010Prop32
280
     0
102
RTVSPost2010PropOp32
 70
     1
102
RTVSPost2010Prop33
280
     0
102
RTVSPost2010PropOp33
 70
     1
102
RTVSPost2010Prop34
280
     0
102
RTVSPost2010PropOp34
 70
     1
102
RTVSPost2010Prop35
280
     0
102
RTVSPost2010PropOp35
 70
     1
102
RTVSPost2010Prop36
280
     0
102
RTVSPost2010PropOp36
 70
     1
102
RTVSPost2010Prop37
 90
       50
102
RTVSPost2010PropOp37
 70
     1
102
RTVSPost2010Prop38
140
0.0
102
RTVSPost2010PropOp38
 70
     1
102
RTVSPost2010Prop39
140
1.0
102
RTVSPost2010PropOp39
 70
     1
102
RTVSPost2010Prop40
 90
        0
102
RTVSPost2010PropOp40
 70
     1
102
RTVSPost2010Prop41ColorIndex
 90
       18
102
RTVSPost2010Prop41ColorRGB
 90
        0
102
RTVSPost2010PropOp41
 70
     1
102
RTVSPost2010Prop42
 90
       50
102
RTVSPost2010PropOp42
 70
     1
102
RTVSPost2010Prop43
 90
        3
102
RTVSPost2010PropOp43
 70
     1
102
RTVSPost2010Prop44ColorIndex
 90
        5
102
RTVSPost2010Prop44ColorRGB
 90
      255
102
RTVSPost2010PropOp44
 70
     1
102
RTVSPost2010Prop45
280
     0
102
RTVSPost2010PropOp45
 70
     1
102
RTVSPost2010Prop46
 90
       50
102
RTVSPost2010PropOp46
 70
     1
102
RTVSPost2010Prop47
 90
       50
102
RTVSPost2010PropOp47
 70
     1
102
RTVSPost2010Prop48
 90
       50
102
RTVSPost2010PropOp48
 70
     1
102
RTVSPost2010Prop49
280
     0
102
RTVSPost2010PropOp49
 70
     1
102
RTVSPost2010Prop50
 90
       50
102
RTVSPost2010PropOp50
 70
     1
102
RTVSPost2010Prop51ColorIndex
 90
      256
102
RTVSPost2010Prop51ColorRGB
 90
-16777216
102
RTVSPost2010PropOp51
 70
     0
102
RTVSPost2010Prop52
140
1.0
102
RTVSPost2010PropOp52
 70
     0
102
RTVSPost2010Prop53
 90
        2
102
RTVSPost2010PropOp53
 70
     1
102
RTVSPost2010Prop54
  1
strokes_ogs.tif
102
RTVSPost2010PropOp54
 70
     1
102
RTVSPost2010Prop55
280
     0
102
RTVSPost2010PropOp55
 70
     1
102
RTVSPost2010Prop56
140
1.0
102
RTVSPost2010PropOp56
 70
     1
102
RTVSPost2010Prop57
140
1.0
102
RTVSPost2010PropOp57
 70
     1
102
RTVSPropertyOp0
 70
     1
102
RTVSPropertyOp1
 70
     1
102
RTVSPropertyOp2
 70
     1
102
RTVSPropertyOp3
 70
     1
102
RTVSPropertyOp4
 70
     1
102
RTVSPropertyOp5
 70
     1
102
RTVSPropertyOp6
 70
     1
102
RTVSPropertyOp7
 70
     1
102
RTVSPropertyOp8
 70
     1
102
RTVSPropertyOp9
 70
     1
102
RTVSPropertyOp10
 70
     1
102
RTVSPropertyOp11
 70
     1
102
RTVSPropertyOp12
 70
     1
102
RTVSPropertyOp13
 70
     1
102
RTVSPropertyOp14
 70
     1
102
RTVSPropertyOp15
 70
     1
102
RTVSPropertyOp16
 70
     1
102
RTVSPropertyOp17
 70
     1
102
RTVSPropertyOp18
 70
     1
102
RTVSPropertyOp19
 70
     1
102
RTVSPropertyOp20
 70
     1
102
RTVSPropertyOp21
 70
     1
102
RTVSPropertyOp22
 70
     1
102
RTVSPropertyOp23
 70
     1
102
RTVSPropertyOp24
 70
     1
102
RTVSPropertyOp25
 70
     1
102
RTVSPropertyOp26
 70
     1
102
RTVSPropertyOp27
 70
     1
102
RTVSPropertyOp28
 70
     1
102
RTVSPropertyOp29
 70
     1
102
RTVSPropertyOp30
 70
     1
102
RTVSPropertyOp31
 70
     1
102
RTVSPropertyOp32
 70
     1
102
RTVSPropertyOp33
 70
     1
102
RTVSPropertyOp34
 70
     1
102
RTVSPropertyOp35
 70
     1
102
RTVSPropertyOp36
 70
     1
102
RTVSPropertyOp37
 70
     1
102
RTVSPropertyOp38
 70
     1
102
RTVSPropertyOp39
 70
     1
102
RTVSPropertyOp40
 70
     1
102
RTVSPropertyOp41
 70
     1
102
RTVSPropertyOp42
 70
     1
102
RTVSPropertyOp43
 70
     1
102
RTVSPropertyOp44
 70
     1
102
RTVSPropertyOp45
 70
     1
102
RTVSPropertyOp46
 70
     1
102
RTVSPropertyOp47
 70
     1
102
RTVSPropertyOp48
 70
     1
102
RTVSPropertyOp49
 70
     1
102
RTVSPropertyOp50
 70
     1
102
RTVSPropertyOp51
 70
     0
102
RTVSPropertyOp52
 70
     0
102
RTVSPropertyOp53
 70
     1
102
RTVSPropertyOp54
 70
     1
102
RTVSPropertyOp55
 70
     1
102
RTVSPropertyOp56
 70
     1
102
RTVSPropertyOp57
 70
     1
102
RTVSPropertyOp58
 70
     1
102
RTVSPropertyOp59
 70
     1
102
RTVSPropertyOp60
 70
     1
102
RTVSPropertyOp61
 70
     1
102
RTVSPropertyOp62
 70
     1
  0
XRECORD
  5
3E0
102
{ACAD_REACTORS
330
3DF
102
}
330
3DF
100
AcDbXrecord
280
     1
102
RTVSPost2010Prop28
280
     0
102
RTVSPost2010PropOp28
 70
     0
102
RTVSPost2010Prop29
280
     1
102
RTVSPost2010PropOp29
 70
     0
102
RTVSPost2010Prop30
280
     1
102
RTVSPost2010PropOp30
 70
     0
102
RTVSPost2010Prop31
280
     0
102
RTVSPost2010PropOp31
 70
     0
102
RTVSPost2010Prop32
280
     0
102
RTVSPost2010PropOp32
 70
     0
102
RTVSPost2010Prop33
280
     0
102
RTVSPost2010PropOp33
 70
     0
102
RTVSPost2010Prop34
280
     0
102
RTVSPost2010PropOp34
 70
     0
102
RTVSPost2010Prop35
280
     0
102
RTVSPost2010PropOp35
 70
     0
102
RTVSPost2010Prop36
280
     0
102
RTVSPost2010PropOp36
 70
     0
102
RTVSPost2010Prop37
 90
       50
102
RTVSPost2010PropOp37
 70
     0
102
RTVSPost2010Prop38
140
0.0
102
RTVSPost2010PropOp38
 70
     0
102
RTVSPost2010Prop39
140
1.0
102
RTVSPost2010PropOp39
 70
     0
102
RTVSPost2010Prop40
 90
        0
102
RTVSPost2010PropOp40
 70
     0
102
RTVSPost2010Prop41ColorIndex
 90
       18
102
RTVSPost2010Prop41ColorRGB
 90
        0
102
RTVSPost2010PropOp41
 70
     0
102
RTVSPost2010Prop42
 90
       50
102
RTVSPost2010PropOp42
 70
     0
102
RTVSPost2010Prop43
 90
        3
102
RTVSPost2010PropOp43
 70
     0
102
RTVSPost2010Prop44ColorIndex
 90
        5
102
RTVSPost2010Prop44ColorRGB
 90
      255
102
RTVSPost2010PropOp44
 70
     0
102
RTVSPost2010Prop45
280
     0
102
RTVSPost2010PropOp45
 70
     0
102
RTVSPost2010Prop46
 90
       50
102
RTVSPost2010PropOp46
 70
     0
102
RTVSPost2010Prop47
 90
       50
102
RTVSPost2010PropOp47
 70
     0
102
RTVSPost2010Prop48
 90
       50
102
RTVSPost2010PropOp48
 70
     0
102
RTVSPost2010Prop49
280
     0
102
RTVSPost2010PropOp49
 70
     0
102
RTVSPost2010Prop50
 90
       50
102
RTVSPost2010PropOp50
 70
     0
102
RTVSPost2010Prop51ColorIndex
 90
      256
102
RTVSPost2010Prop51ColorRGB
 90
-16777216
102
RTVSPost2010PropOp51
 70
     0
102
RTVSPost2010Prop52
140
1.0
102
RTVSPost2010PropOp52
 70
     0
102
RTVSPost2010Prop53
 90
        2
102
RTVSPost2010PropOp53
 70
     0
102
RTVSPost2010Prop54
  1
strokes_ogs.tif
102
RTVSPost2010PropOp54
 70
     0
102
RTVSPost2010Prop55
280
     0
102
RTVSPost2010PropOp55
 70
     0
102
RTVSPost2010Prop56
140
1.0
102
RTVSPost2010PropOp56
 70
     0
102
RTVSPost2010Prop57
140
1.0
102
RTVSPost2010PropOp57
 70
     0
102
RTVSPropertyOp0
 70
     0
102
RTVSPropertyOp1
 70
     0
102
RTVSPropertyOp2
 70
     0
102
RTVSPropertyOp3
 70
     0
102
RTVSPropertyOp4
 70
     0
102
RTVSPropertyOp5
 70
     0
102
RTVSPropertyOp6
 70
     0
102
RTVSPropertyOp7
 70
     0
102
RTVSPropertyOp8
 70
     0
102
RTVSPropertyOp9
 70
     0
102
RTVSPropertyOp10
 70
     0
102
RTVSPropertyOp11
 70
     0
102
RTVSPropertyOp12
 70
     0
102
RTVSPropertyOp13
 70
     0
102
RTVSPropertyOp14
 70
     2
102
RTVSPropertyOp15
 70
     0
102
RTVSPropertyOp16
 70
     0
102
RTVSPropertyOp17
 70
     0
102
RTVSPropertyOp18
 70
     0
102
RTVSPropertyOp19
 70
     0
102
RTVSPropertyOp20
 70
     0
102
RTVSPropertyOp21
 70
     0
102
RTVSPropertyOp22
 70
     0
102
RTVSPropertyOp23
 70
     0
102
RTVSPropertyOp24
 70
     0
102
RTVSPropertyOp25
 70
     0
102
RTVSPropertyOp26
 70
     0
102
RTVSPropertyOp27
 70
     0
102
RTVSPropertyOp28
 70
     0
102
RTVSPropertyOp29
 70
     0
102
RTVSPropertyOp30
 70
     0
102
RTVSPropertyOp31
 70
     0
102
RTVSPropertyOp32
 70
     0
102
RTVSPropertyOp33
 70
     0
102
RTVSPropertyOp34
 70
     0
102
RTVSPropertyOp35
 70
     0
102
RTVSPropertyOp36
 70
     0
102
RTVSPropertyOp37
 70
     0
102
RTVSPropertyOp38
 70
     0
102
RTVSPropertyOp39
 70
     0
102
RTVSPropertyOp40
 70
     0
102
RTVSPropertyOp41
 70
     0
102
RTVSPropertyOp42
 70
     0
102
RTVSPropertyOp43
 70
     0
102
RTVSPropertyOp44
 70
     0
102
RTVSPropertyOp45
 70
     0
102
RTVSPropertyOp46
 70
     0
102
RTVSPropertyOp47
 70
     0
102
RTVSPropertyOp48
 70
     0
102
RTVSPropertyOp49
 70
     0
102
RTVSPropertyOp50
 70
     0
102
RTVSPropertyOp51
 70
     0
102
RTVSPropertyOp52
 70
     0
102
RTVSPropertyOp53
 70
     0
102
RTVSPropertyOp54
 70
     0
102
RTVSPropertyOp55
 70
     0
102
RTVSPropertyOp56
 70
     0
102
RTVSPropertyOp57
 70
     0
102
RTVSPropertyOp58
 70
     1
102
RTVSPropertyOp59
 70
     1
102
RTVSPropertyOp60
 70
     1
102
RTVSPropertyOp61
 70
     1
102
RTVSPropertyOp62
 70
     1
  0
XRECORD
  5
3CE
102
{ACAD_REACTORS
330
3CD
102
}
330
3CD
100
AcDbXrecord
280
     1
102
RTVSPost2010Prop28
280
     0
102
RTVSPost2010PropOp28
 70
     1
102
RTVSPost2010Prop29
280
     1
102
RTVSPost2010PropOp29
 70
     1
102
RTVSPost2010Prop30
280
     1
102
RTVSPost2010PropOp30
 70
     1
102
RTVSPost2010Prop31
280
     0
102
RTVSPost2010PropOp31
 70
     1
102
RTVSPost2010Prop32
280
     0
102
RTVSPost2010PropOp32
 70
     1
102
RTVSPost2010Prop33
280
     0
102
RTVSPost2010PropOp33
 70
     1
102
RTVSPost2010Prop34
280
     0
102
RTVSPost2010PropOp34
 70
     1
102
RTVSPost2010Prop35
280
     0
102
RTVSPost2010PropOp35
 70
     1
102
RTVSPost2010Prop36
280
     0
102
RTVSPost2010PropOp36
 70
     1
102
RTVSPost2010Prop37
 90
       50
102
RTVSPost2010PropOp37
 70
     1
102
RTVSPost2010Prop38
140
0.0
102
RTVSPost2010PropOp38
 70
     1
102
RTVSPost2010Prop39
140
1.0
102
RTVSPost2010PropOp39
 70
     1
102
RTVSPost2010Prop40
 90
        0
102
RTVSPost2010PropOp40
 70
     1
102
RTVSPost2010Prop41ColorIndex
 90
       18
102
RTVSPost2010Prop41ColorRGB
 90
        0
102
RTVSPost2010PropOp41
 70
     1
102
RTVSPost2010Prop42
 90
       50
102
RTVSPost2010PropOp42
 70
     1
102
RTVSPost2010Prop43
 90
        3
102
RTVSPost2010PropOp43
 70
     1
102
RTVSPost2010Prop44ColorIndex
 90
        5
102
RTVSPost2010Prop44ColorRGB
 90
      255
102
RTVSPost2010PropOp44
 70
     1
102
RTVSPost2010Prop45
280
     0
102
RTVSPost2010PropOp45
 70
     1
102
RTVSPost2010Prop46
 90
       50
102
RTVSPost2010PropOp46
 70
     1
102
RTVSPost2010Prop47
 90
       50
102
RTVSPost2010PropOp47
 70
     1
102
RTVSPost2010Prop48
 90
       50
102
RTVSPost2010PropOp48
 70
     1
102
RTVSPost2010Prop49
280
     0
102
RTVSPost2010PropOp49
 70
     1
102
RTVSPost2010Prop50
 90
       50
102
RTVSPost2010PropOp50
 70
     1
102
RTVSPost2010Prop51ColorIndex
 90
      256
102
RTVSPost2010Prop51ColorRGB
 90
-16777216
102
RTVSPost2010PropOp51
 70
     0
102
RTVSPost2010Prop52
140
1.0
102
RTVSPost2010PropOp52
 70
     0
102
RTVSPost2010Prop53
 90
        2
102
RTVSPost2010PropOp53
 70
     1
102
RTVSPost2010Prop54
  1
strokes_ogs.tif
102
RTVSPost2010PropOp54
 70
     1
102
RTVSPost2010Prop55
280
     0
102
RTVSPost2010PropOp55
 70
     1
102
RTVSPost2010Prop56
140
1.0
102
RTVSPost2010PropOp56
 70
     1
102
RTVSPost2010Prop57
140
1.0
102
RTVSPost2010PropOp57
 70
     1
102
RTVSPropertyOp0
 70
     1
102
RTVSPropertyOp1
 70
     1
102
RTVSPropertyOp2
 70
     1
102
RTVSPropertyOp3
 70
     1
102
RTVSPropertyOp4
 70
     1
102
RTVSPropertyOp5
 70
     1
102
RTVSPropertyOp6
 70
     1
102
RTVSPropertyOp7
 70
     1
102
RTVSPropertyOp8
 70
     1
102
RTVSPropertyOp9
 70
     1
102
RTVSPropertyOp10
 70
     1
102
RTVSPropertyOp11
 70
     1
102
RTVSPropertyOp12
 70
     1
102
RTVSPropertyOp13
 70
     1
102
RTVSPropertyOp14
 70
     1
102
RTVSPropertyOp15
 70
     1
102
RTVSPropertyOp16
 70
     1
102
RTVSPropertyOp17
 70
     1
102
RTVSPropertyOp18
 70
     1
102
RTVSPropertyOp19
 70
     1
102
RTVSPropertyOp20
 70
     1
102
RTVSPropertyOp21
 70
     1
102
RTVSPropertyOp22
 70
     1
102
RTVSPropertyOp23
 70
     1
102
RTVSPropertyOp24
 70
     1
102
RTVSPropertyOp25
 70
     1
102
RTVSPropertyOp26
 70
     1
102
RTVSPropertyOp27
 70
     1
102
RTVSPropertyOp28
 70
     1
102
RTVSPropertyOp29
 70
     1
102
RTVSPropertyOp30
 70
     1
102
RTVSPropertyOp31
 70
     1
102
RTVSPropertyOp32
 70
     1
102
RTVSPropertyOp33
 70
     1
102
RTVSPropertyOp34
 70
     1
102
RTVSPropertyOp35
 70
     1
102
RTVSPropertyOp36
 70
     1
102
RTVSPropertyOp37
 70
     1
102
RTVSPropertyOp38
 70
     1
102
RTVSPropertyOp39
 70
     1
102
RTVSPropertyOp40
 70
     1
102
RTVSPropertyOp41
 70
     1
102
RTVSPropertyOp42
 70
     1
102
RTVSPropertyOp43
 70
     1
102
RTVSPropertyOp44
 70
     1
102
RTVSPropertyOp45
 70
     1
102
RTVSPropertyOp46
 70
     1
102
RTVSPropertyOp47
 70
     1
102
RTVSPropertyOp48
 70
     1
102
RTVSPropertyOp49
 70
     1
102
RTVSPropertyOp50
 70
     1
102
RTVSPropertyOp51
 70
     0
102
RTVSPropertyOp52
 70
     0
102
RTVSPropertyOp53
 70
     1
102
RTVSPropertyOp54
 70
     1
102
RTVSPropertyOp55
 70
     1
102
RTVSPropertyOp56
 70
     1
102
RTVSPropertyOp57
 70
     1
102
RTVSPropertyOp58
 70
     1
102
RTVSPropertyOp59
 70
     1
102
RTVSPropertyOp60
 70
     1
102
RTVSPropertyOp61
 70
     1
102
RTVSPropertyOp62
 70
     1
  0
XRECORD
  5
3EC
102
{ACAD_REACTORS
330
3EB
102
}
330
3EB
100
AcDbXrecord
280
     1
102
RTVSPost2010Prop28
280
     0
102
RTVSPost2010PropOp28
 70
     1
102
RTVSPost2010Prop29
280
     1
102
RTVSPost2010PropOp29
 70
     1
102
RTVSPost2010Prop30
280
     1
102
RTVSPost2010PropOp30
 70
     1
102
RTVSPost2010Prop31
280
     0
102
RTVSPost2010PropOp31
 70
     1
102
RTVSPost2010Prop32
280
     0
102
RTVSPost2010PropOp32
 70
     1
102
RTVSPost2010Prop33
280
     0
102
RTVSPost2010PropOp33
 70
     1
102
RTVSPost2010Prop34
280
     0
102
RTVSPost2010PropOp34
 70
     1
102
RTVSPost2010Prop35
280
     0
102
RTVSPost2010PropOp35
 70
     1
102
RTVSPost2010Prop36
280
     0
102
RTVSPost2010PropOp36
 70
     1
102
RTVSPost2010Prop37
 90
       50
102
RTVSPost2010PropOp37
 70
     1
102
RTVSPost2010Prop38
140
0.0
102
RTVSPost2010PropOp38
 70
     1
102
RTVSPost2010Prop39
140
1.0
102
RTVSPost2010PropOp39
 70
     1
102
RTVSPost2010Prop40
 90
        0
102
RTVSPost2010PropOp40
 70
     1
102
RTVSPost2010Prop41ColorIndex
 90
       18
102
RTVSPost2010Prop41ColorRGB
 90
        0
102
RTVSPost2010PropOp41
 70
     1
102
RTVSPost2010Prop42
 90
       50
102
RTVSPost2010PropOp42
 70
     1
102
RTVSPost2010Prop43
 90
        3
102
RTVSPost2010PropOp43
 70
     1
102
RTVSPost2010Prop44ColorIndex
 90
        5
102
RTVSPost2010Prop44ColorRGB
 90
      255
102
RTVSPost2010PropOp44
 70
     1
102
RTVSPost2010Prop45
280
     0
102
RTVSPost2010PropOp45
 70
     1
102
RTVSPost2010Prop46
 90
       50
102
RTVSPost2010PropOp46
 70
     1
102
RTVSPost2010Prop47
 90
       50
102
RTVSPost2010PropOp47
 70
     1
102
RTVSPost2010Prop48
 90
       50
102
RTVSPost2010PropOp48
 70
     1
102
RTVSPost2010Prop49
280
     0
102
RTVSPost2010PropOp49
 70
     1
102
RTVSPost2010Prop50
 90
       50
102
RTVSPost2010PropOp50
 70
     1
102
RTVSPost2010Prop51ColorIndex
 90
      256
102
RTVSPost2010Prop51ColorRGB
 90
-16777216
102
RTVSPost2010PropOp51
 70
     0
102
RTVSPost2010Prop52
140
1.0
102
RTVSPost2010PropOp52
 70
     0
102
RTVSPost2010Prop53
 90
        2
102
RTVSPost2010PropOp53
 70
     1
102
RTVSPost2010Prop54
  1
strokes_ogs.tif
102
RTVSPost2010PropOp54
 70
     1
102
RTVSPost2010Prop55
280
     0
102
RTVSPost2010PropOp55
 70
     1
102
RTVSPost2010Prop56
140
1.0
102
RTVSPost2010PropOp56
 70
     1
102
RTVSPost2010Prop57
140
1.0
102
RTVSPost2010PropOp57
 70
     1
102
RTVSPropertyOp0
 70
     1
102
RTVSPropertyOp1
 70
     1
102
RTVSPropertyOp2
 70
     1
102
RTVSPropertyOp3
 70
     1
102
RTVSPropertyOp4
 70
     1
102
RTVSPropertyOp5
 70
     1
102
RTVSPropertyOp6
 70
     1
102
RTVSPropertyOp7
 70
     1
102
RTVSPropertyOp8
 70
     1
102
RTVSPropertyOp9
 70
     1
102
RTVSPropertyOp10
 70
     1
102
RTVSPropertyOp11
 70
     1
102
RTVSPropertyOp12
 70
     1
102
RTVSPropertyOp13
 70
     1
102
RTVSPropertyOp14
 70
     1
102
RTVSPropertyOp15
 70
     1
102
RTVSPropertyOp16
 70
     1
102
RTVSPropertyOp17
 70
     1
102
RTVSPropertyOp18
 70
     1
102
RTVSPropertyOp19
 70
     1
102
RTVSPropertyOp20
 70
     1
102
RTVSPropertyOp21
 70
     1
102
RTVSPropertyOp22
 70
     1
102
RTVSPropertyOp23
 70
     1
102
RTVSPropertyOp24
 70
     1
102
RTVSPropertyOp25
 70
     1
102
RTVSPropertyOp26
 70
     1
102
RTVSPropertyOp27
 70
     1
102
RTVSPropertyOp28
 70
     1
102
RTVSPropertyOp29
 70
     1
102
RTVSPropertyOp30
 70
     1
102
RTVSPropertyOp31
 70
     1
102
RTVSPropertyOp32
 70
     1
102
RTVSPropertyOp33
 70
     1
102
RTVSPropertyOp34
 70
     1
102
RTVSPropertyOp35
 70
     1
102
RTVSPropertyOp36
 70
     1
102
RTVSPropertyOp37
 70
     1
102
RTVSPropertyOp38
 70
     1
102
RTVSPropertyOp39
 70
     1
102
RTVSPropertyOp40
 70
     1
102
RTVSPropertyOp41
 70
     1
102
RTVSPropertyOp42
 70
     1
102
RTVSPropertyOp43
 70
     1
102
RTVSPropertyOp44
 70
     1
102
RTVSPropertyOp45
 70
     1
102
RTVSPropertyOp46
 70
     1
102
RTVSPropertyOp47
 70
     1
102
RTVSPropertyOp48
 70
     1
102
RTVSPropertyOp49
 70
     1
102
RTVSPropertyOp50
 70
     1
102
RTVSPropertyOp51
 70
     0
102
RTVSPropertyOp52
 70
     0
102
RTVSPropertyOp53
 70
     1
102
RTVSPropertyOp54
 70
     1
102
RTVSPropertyOp55
 70
     1
102
RTVSPropertyOp56
 70
     1
102
RTVSPropertyOp57
 70
     1
102
RTVSPropertyOp58
 70
     1
102
RTVSPropertyOp59
 70
     1
102
RTVSPropertyOp60
 70
     1
102
RTVSPropertyOp61
 70
     1
102
RTVSPropertyOp62
 70
     1
  0
XRECORD
  5
3EA
102
{ACAD_REACTORS
330
3E9
102
}
330
3E9
100
AcDbXrecord
280
     1
102
RTVSPost2010Prop28
280
     0
102
RTVSPost2010PropOp28
 70
     1
102
RTVSPost2010Prop29
280
     1
102
RTVSPost2010PropOp29
 70
     1
102
RTVSPost2010Prop30
280
     1
102
RTVSPost2010PropOp30
 70
     1
102
RTVSPost2010Prop31
280
     0
102
RTVSPost2010PropOp31
 70
     1
102
RTVSPost2010Prop32
280
     0
102
RTVSPost2010PropOp32
 70
     1
102
RTVSPost2010Prop33
280
     0
102
RTVSPost2010PropOp33
 70
     1
102
RTVSPost2010Prop34
280
     0
102
RTVSPost2010PropOp34
 70
     1
102
RTVSPost2010Prop35
280
     0
102
RTVSPost2010PropOp35
 70
     1
102
RTVSPost2010Prop36
280
     0
102
RTVSPost2010PropOp36
 70
     1
102
RTVSPost2010Prop37
 90
       50
102
RTVSPost2010PropOp37
 70
     1
102
RTVSPost2010Prop38
140
0.0
102
RTVSPost2010PropOp38
 70
     1
102
RTVSPost2010Prop39
140
1.0
102
RTVSPost2010PropOp39
 70
     1
102
RTVSPost2010Prop40
 90
        0
102
RTVSPost2010PropOp40
 70
     1
102
RTVSPost2010Prop41ColorIndex
 90
       18
102
RTVSPost2010Prop41ColorRGB
 90
        0
102
RTVSPost2010PropOp41
 70
     1
102
RTVSPost2010Prop42
 90
       50
102
RTVSPost2010PropOp42
 70
     1
102
RTVSPost2010Prop43
 90
        3
102
RTVSPost2010PropOp43
 70
     1
102
RTVSPost2010Prop44ColorIndex
 90
        5
102
RTVSPost2010Prop44ColorRGB
 90
      255
102
RTVSPost2010PropOp44
 70
     1
102
RTVSPost2010Prop45
280
     0
102
RTVSPost2010PropOp45
 70
     1
102
RTVSPost2010Prop46
 90
       50
102
RTVSPost2010PropOp46
 70
     1
102
RTVSPost2010Prop47
 90
       50
102
RTVSPost2010PropOp47
 70
     1
102
RTVSPost2010Prop48
 90
       50
102
RTVSPost2010PropOp48
 70
     1
102
RTVSPost2010Prop49
280
     0
102
RTVSPost2010PropOp49
 70
     1
102
RTVSPost2010Prop50
 90
       50
102
RTVSPost2010PropOp50
 70
     1
102
RTVSPost2010Prop51ColorIndex
 90
      256
102
RTVSPost2010Prop51ColorRGB
 90
-16777216
102
RTVSPost2010PropOp51
 70
     0
102
RTVSPost2010Prop52
140
1.0
102
RTVSPost2010PropOp52
 70
     0
102
RTVSPost2010Prop53
 90
        2
102
RTVSPost2010PropOp53
 70
     1
102
RTVSPost2010Prop54
  1
strokes_ogs.tif
102
RTVSPost2010PropOp54
 70
     1
102
RTVSPost2010Prop55
280
     0
102
RTVSPost2010PropOp55
 70
     1
102
RTVSPost2010Prop56
140
1.0
102
RTVSPost2010PropOp56
 70
     1
102
RTVSPost2010Prop57
140
1.0
102
RTVSPost2010PropOp57
 70
     1
102
RTVSPropertyOp0
 70
     1
102
RTVSPropertyOp1
 70
     1
102
RTVSPropertyOp2
 70
     1
102
RTVSPropertyOp3
 70
     1
102
RTVSPropertyOp4
 70
     1
102
RTVSPropertyOp5
 70
     1
102
RTVSPropertyOp6
 70
     1
102
RTVSPropertyOp7
 70
     1
102
RTVSPropertyOp8
 70
     1
102
RTVSPropertyOp9
 70
     1
102
RTVSPropertyOp10
 70
     1
102
RTVSPropertyOp11
 70
     1
102
RTVSPropertyOp12
 70
     1
102
RTVSPropertyOp13
 70
     1
102
RTVSPropertyOp14
 70
     1
102
RTVSPropertyOp15
 70
     1
102
RTVSPropertyOp16
 70
     1
102
RTVSPropertyOp17
 70
     1
102
RTVSPropertyOp18
 70
     1
102
RTVSPropertyOp19
 70
     1
102
RTVSPropertyOp20
 70
     1
102
RTVSPropertyOp21
 70
     1
102
RTVSPropertyOp22
 70
     1
102
RTVSPropertyOp23
 70
     1
102
RTVSPropertyOp24
 70
     1
102
RTVSPropertyOp25
 70
     1
102
RTVSPropertyOp26
 70
     1
102
RTVSPropertyOp27
 70
     1
102
RTVSPropertyOp28
 70
     1
102
RTVSPropertyOp29
 70
     1
102
RTVSPropertyOp30
 70
     1
102
RTVSPropertyOp31
 70
     1
102
RTVSPropertyOp32
 70
     1
102
RTVSPropertyOp33
 70
     1
102
RTVSPropertyOp34
 70
     1
102
RTVSPropertyOp35
 70
     1
102
RTVSPropertyOp36
 70
     1
102
RTVSPropertyOp37
 70
     1
102
RTVSPropertyOp38
 70
     1
102
RTVSPropertyOp39
 70
     1
102
RTVSPropertyOp40
 70
     1
102
RTVSPropertyOp41
 70
     1
102
RTVSPropertyOp42
 70
     1
102
RTVSPropertyOp43
 70
     1
102
RTVSPropertyOp44
 70
     1
102
RTVSPropertyOp45
 70
     1
102
RTVSPropertyOp46
 70
     1
102
RTVSPropertyOp47
 70
     1
102
RTVSPropertyOp48
 70
     1
102
RTVSPropertyOp49
 70
     1
102
RTVSPropertyOp50
 70
     1
102
RTVSPropertyOp51
 70
     0
102
RTVSPropertyOp52
 70
     0
102
RTVSPropertyOp53
 70
     1
102
RTVSPropertyOp54
 70
     1
102
RTVSPropertyOp55
 70
     1
102
RTVSPropertyOp56
 70
     1
102
RTVSPropertyOp57
 70
     1
102
RTVSPropertyOp58
 70
     1
102
RTVSPropertyOp59
 70
     1
102
RTVSPropertyOp60
 70
     1
102
RTVSPropertyOp61
 70
     1
102
RTVSPropertyOp62
 70
     1
  0
XRECORD
  5
3E4
102
{ACAD_REACTORS
330
3E3
102
}
330
3E3
100
AcDbXrecord
280
     1
102
RTVSPost2010Prop28
280
     0
102
RTVSPost2010PropOp28
 70
     1
102
RTVSPost2010Prop29
280
     1
102
RTVSPost2010PropOp29
 70
     1
102
RTVSPost2010Prop30
280
     1
102
RTVSPost2010PropOp30
 70
     1
102
RTVSPost2010Prop31
280
     0
102
RTVSPost2010PropOp31
 70
     1
102
RTVSPost2010Prop32
280
     0
102
RTVSPost2010PropOp32
 70
     1
102
RTVSPost2010Prop33
280
     0
102
RTVSPost2010PropOp33
 70
     1
102
RTVSPost2010Prop34
280
     0
102
RTVSPost2010PropOp34
 70
     1
102
RTVSPost2010Prop35
280
     0
102
RTVSPost2010PropOp35
 70
     1
102
RTVSPost2010Prop36
280
     0
102
RTVSPost2010PropOp36
 70
     1
102
RTVSPost2010Prop37
 90
       50
102
RTVSPost2010PropOp37
 70
     1
102
RTVSPost2010Prop38
140
0.0
102
RTVSPost2010PropOp38
 70
     1
102
RTVSPost2010Prop39
140
1.0
102
RTVSPost2010PropOp39
 70
     1
102
RTVSPost2010Prop40
 90
        0
102
RTVSPost2010PropOp40
 70
     1
102
RTVSPost2010Prop41ColorIndex
 90
       18
102
RTVSPost2010Prop41ColorRGB
 90
        0
102
RTVSPost2010PropOp41
 70
     1
102
RTVSPost2010Prop42
 90
       50
102
RTVSPost2010PropOp42
 70
     1
102
RTVSPost2010Prop43
 90
        3
102
RTVSPost2010PropOp43
 70
     1
102
RTVSPost2010Prop44ColorIndex
 90
        5
102
RTVSPost2010Prop44ColorRGB
 90
      255
102
RTVSPost2010PropOp44
 70
     1
102
RTVSPost2010Prop45
280
     0
102
RTVSPost2010PropOp45
 70
     1
102
RTVSPost2010Prop46
 90
       50
102
RTVSPost2010PropOp46
 70
     1
102
RTVSPost2010Prop47
 90
       50
102
RTVSPost2010PropOp47
 70
     1
102
RTVSPost2010Prop48
 90
       50
102
RTVSPost2010PropOp48
 70
     1
102
RTVSPost2010Prop49
280
     0
102
RTVSPost2010PropOp49
 70
     1
102
RTVSPost2010Prop50
 90
       50
102
RTVSPost2010PropOp50
 70
     1
102
RTVSPost2010Prop51ColorIndex
 90
      256
102
RTVSPost2010Prop51ColorRGB
 90
-16777216
102
RTVSPost2010PropOp51
 70
     0
102
RTVSPost2010Prop52
140
1.0
102
RTVSPost2010PropOp52
 70
     0
102
RTVSPost2010Prop53
 90
        2
102
RTVSPost2010PropOp53
 70
     1
102
RTVSPost2010Prop54
  1
strokes_ogs.tif
102
RTVSPost2010PropOp54
 70
     1
102
RTVSPost2010Prop55
280
     0
102
RTVSPost2010PropOp55
 70
     1
102
RTVSPost2010Prop56
140
1.0
102
RTVSPost2010PropOp56
 70
     1
102
RTVSPost2010Prop57
140
1.0
102
RTVSPost2010PropOp57
 70
     1
102
RTVSPropertyOp0
 70
     1
102
RTVSPropertyOp1
 70
     1
102
RTVSPropertyOp2
 70
     1
102
RTVSPropertyOp3
 70
     1
102
RTVSPropertyOp4
 70
     1
102
RTVSPropertyOp5
 70
     1
102
RTVSPropertyOp6
 70
     1
102
RTVSPropertyOp7
 70
     1
102
RTVSPropertyOp8
 70
     1
102
RTVSPropertyOp9
 70
     1
102
RTVSPropertyOp10
 70
     1
102
RTVSPropertyOp11
 70
     1
102
RTVSPropertyOp12
 70
     1
102
RTVSPropertyOp13
 70
     1
102
RTVSPropertyOp14
 70
     1
102
RTVSPropertyOp15
 70
     1
102
RTVSPropertyOp16
 70
     1
102
RTVSPropertyOp17
 70
     1
102
RTVSPropertyOp18
 70
     1
102
RTVSPropertyOp19
 70
     1
102
RTVSPropertyOp20
 70
     1
102
RTVSPropertyOp21
 70
     1
102
RTVSPropertyOp22
 70
     1
102
RTVSPropertyOp23
 70
     1
102
RTVSPropertyOp24
 70
     1
102
RTVSPropertyOp25
 70
     1
102
RTVSPropertyOp26
 70
     1
102
RTVSPropertyOp27
 70
     1
102
RTVSPropertyOp28
 70
     1
102
RTVSPropertyOp29
 70
     1
102
RTVSPropertyOp30
 70
     1
102
RTVSPropertyOp31
 70
     1
102
RTVSPropertyOp32
 70
     1
102
RTVSPropertyOp33
 70
     1
102
RTVSPropertyOp34
 70
     1
102
RTVSPropertyOp35
 70
     1
102
RTVSPropertyOp36
 70
     1
102
RTVSPropertyOp37
 70
     1
102
RTVSPropertyOp38
 70
     1
102
RTVSPropertyOp39
 70
     1
102
RTVSPropertyOp40
 70
     1
102
RTVSPropertyOp41
 70
     1
102
RTVSPropertyOp42
 70
     1
102
RTVSPropertyOp43
 70
     1
102
RTVSPropertyOp44
 70
     1
102
RTVSPropertyOp45
 70
     1
102
RTVSPropertyOp46
 70
     1
102
RTVSPropertyOp47
 70
     1
102
RTVSPropertyOp48
 70
     1
102
RTVSPropertyOp49
 70
     1
102
RTVSPropertyOp50
 70
     1
102
RTVSPropertyOp51
 70
     0
102
RTVSPropertyOp52
 70
     0
102
RTVSPropertyOp53
 70
     1
102
RTVSPropertyOp54
 70
     1
102
RTVSPropertyOp55
 70
     1
102
RTVSPropertyOp56
 70
     1
102
RTVSPropertyOp57
 70
     1
102
RTVSPropertyOp58
 70
     1
102
RTVSPropertyOp59
 70
     1
102
RTVSPropertyOp60
 70
     1
102
RTVSPropertyOp61
 70
     1
102
RTVSPropertyOp62
 70
     1
  0
XRECORD
  5
3E6
102
{ACAD_REACTORS
330
3E5
102
}
330
3E5
100
AcDbXrecord
280
     1
102
RTVSPost2010Prop28
280
     0
102
RTVSPost2010PropOp28
 70
     1
102
RTVSPost2010Prop29
280
     1
102
RTVSPost2010PropOp29
 70
     1
102
RTVSPost2010Prop30
280
     1
102
RTVSPost2010PropOp30
 70
     1
102
RTVSPost2010Prop31
280
     0
102
RTVSPost2010PropOp31
 70
     1
102
RTVSPost2010Prop32
280
     0
102
RTVSPost2010PropOp32
 70
     1
102
RTVSPost2010Prop33
280
     0
102
RTVSPost2010PropOp33
 70
     1
102
RTVSPost2010Prop34
280
     0
102
RTVSPost2010PropOp34
 70
     1
102
RTVSPost2010Prop35
280
     0
102
RTVSPost2010PropOp35
 70
     1
102
RTVSPost2010Prop36
280
     0
102
RTVSPost2010PropOp36
 70
     1
102
RTVSPost2010Prop37
 90
       50
102
RTVSPost2010PropOp37
 70
     1
102
RTVSPost2010Prop38
140
0.0
102
RTVSPost2010PropOp38
 70
     1
102
RTVSPost2010Prop39
140
1.0
102
RTVSPost2010PropOp39
 70
     1
102
RTVSPost2010Prop40
 90
        0
102
RTVSPost2010PropOp40
 70
     1
102
RTVSPost2010Prop41ColorIndex
 90
       18
102
RTVSPost2010Prop41ColorRGB
 90
        0
102
RTVSPost2010PropOp41
 70
     1
102
RTVSPost2010Prop42
 90
       50
102
RTVSPost2010PropOp42
 70
     1
102
RTVSPost2010Prop43
 90
        3
102
RTVSPost2010PropOp43
 70
     1
102
RTVSPost2010Prop44ColorIndex
 90
        5
102
RTVSPost2010Prop44ColorRGB
 90
      255
102
RTVSPost2010PropOp44
 70
     1
102
RTVSPost2010Prop45
280
     0
102
RTVSPost2010PropOp45
 70
     1
102
RTVSPost2010Prop46
 90
       50
102
RTVSPost2010PropOp46
 70
     1
102
RTVSPost2010Prop47
 90
       50
102
RTVSPost2010PropOp47
 70
     1
102
RTVSPost2010Prop48
 90
       50
102
RTVSPost2010PropOp48
 70
     1
102
RTVSPost2010Prop49
280
     0
102
RTVSPost2010PropOp49
 70
     1
102
RTVSPost2010Prop50
 90
       50
102
RTVSPost2010PropOp50
 70
     1
102
RTVSPost2010Prop51ColorIndex
 90
      256
102
RTVSPost2010Prop51ColorRGB
 90
-16777216
102
RTVSPost2010PropOp51
 70
     0
102
RTVSPost2010Prop52
140
1.0
102
RTVSPost2010PropOp52
 70
     0
102
RTVSPost2010Prop53
 90
        2
102
RTVSPost2010PropOp53
 70
     1
102
RTVSPost2010Prop54
  1
strokes_ogs.tif
102
RTVSPost2010PropOp54
 70
     1
102
RTVSPost2010Prop55
280
     0
102
RTVSPost2010PropOp55
 70
     1
102
RTVSPost2010Prop56
140
1.0
102
RTVSPost2010PropOp56
 70
     1
102
RTVSPost2010Prop57
140
1.0
102
RTVSPost2010PropOp57
 70
     1
102
RTVSPropertyOp0
 70
     1
102
RTVSPropertyOp1
 70
     1
102
RTVSPropertyOp2
 70
     1
102
RTVSPropertyOp3
 70
     1
102
RTVSPropertyOp4
 70
     1
102
RTVSPropertyOp5
 70
     1
102
RTVSPropertyOp6
 70
     1
102
RTVSPropertyOp7
 70
     1
102
RTVSPropertyOp8
 70
     1
102
RTVSPropertyOp9
 70
     1
102
RTVSPropertyOp10
 70
     1
102
RTVSPropertyOp11
 70
     1
102
RTVSPropertyOp12
 70
     1
102
RTVSPropertyOp13
 70
     1
102
RTVSPropertyOp14
 70
     1
102
RTVSPropertyOp15
 70
     1
102
RTVSPropertyOp16
 70
     1
102
RTVSPropertyOp17
 70
     1
102
RTVSPropertyOp18
 70
     1
102
RTVSPropertyOp19
 70
     1
102
RTVSPropertyOp20
 70
     1
102
RTVSPropertyOp21
 70
     1
102
RTVSPropertyOp22
 70
     1
102
RTVSPropertyOp23
 70
     1
102
RTVSPropertyOp24
 70
     1
102
RTVSPropertyOp25
 70
     1
102
RTVSPropertyOp26
 70
     1
102
RTVSPropertyOp27
 70
     1
102
RTVSPropertyOp28
 70
     1
102
RTVSPropertyOp29
 70
     1
102
RTVSPropertyOp30
 70
     1
102
RTVSPropertyOp31
 70
     1
102
RTVSPropertyOp32
 70
     1
102
RTVSPropertyOp33
 70
     1
102
RTVSPropertyOp34
 70
     1
102
RTVSPropertyOp35
 70
     1
102
RTVSPropertyOp36
 70
     1
102
RTVSPropertyOp37
 70
     1
102
RTVSPropertyOp38
 70
     1
102
RTVSPropertyOp39
 70
     1
102
RTVSPropertyOp40
 70
     1
102
RTVSPropertyOp41
 70
     1
102
RTVSPropertyOp42
 70
     1
102
RTVSPropertyOp43
 70
     1
102
RTVSPropertyOp44
 70
     1
102
RTVSPropertyOp45
 70
     1
102
RTVSPropertyOp46
 70
     1
102
RTVSPropertyOp47
 70
     1
102
RTVSPropertyOp48
 70
     1
102
RTVSPropertyOp49
 70
     1
102
RTVSPropertyOp50
 70
     1
102
RTVSPropertyOp51
 70
     0
102
RTVSPropertyOp52
 70
     0
102
RTVSPropertyOp53
 70
     1
102
RTVSPropertyOp54
 70
     1
102
RTVSPropertyOp55
 70
     1
102
RTVSPropertyOp56
 70
     1
102
RTVSPropertyOp57
 70
     1
102
RTVSPropertyOp58
 70
     1
102
RTVSPropertyOp59
 70
     1
102
RTVSPropertyOp60
 70
     1
102
RTVSPropertyOp61
 70
     1
102
RTVSPropertyOp62
 70
     1
  0
XRECORD
  5
3D6
102
{ACAD_REACTORS
330
3D5
102
}
330
3D5
100
AcDbXrecord
280
     1
102
RTVSPost2010Prop28
280
     0
102
RTVSPost2010PropOp28
 70
     1
102
RTVSPost2010Prop29
280
     1
102
RTVSPost2010PropOp29
 70
     1
102
RTVSPost2010Prop30
280
     1
102
RTVSPost2010PropOp30
 70
     1
102
RTVSPost2010Prop31
280
     0
102
RTVSPost2010PropOp31
 70
     1
102
RTVSPost2010Prop32
280
     0
102
RTVSPost2010PropOp32
 70
     1
102
RTVSPost2010Prop33
280
     0
102
RTVSPost2010PropOp33
 70
     1
102
RTVSPost2010Prop34
280
     0
102
RTVSPost2010PropOp34
 70
     1
102
RTVSPost2010Prop35
280
     0
102
RTVSPost2010PropOp35
 70
     1
102
RTVSPost2010Prop36
280
     0
102
RTVSPost2010PropOp36
 70
     1
102
RTVSPost2010Prop37
 90
       50
102
RTVSPost2010PropOp37
 70
     1
102
RTVSPost2010Prop38
140
0.0
102
RTVSPost2010PropOp38
 70
     1
102
RTVSPost2010Prop39
140
1.0
102
RTVSPost2010PropOp39
 70
     1
102
RTVSPost2010Prop40
 90
        0
102
RTVSPost2010PropOp40
 70
     1
102
RTVSPost2010Prop41ColorIndex
 90
       18
102
RTVSPost2010Prop41ColorRGB
 90
        0
102
RTVSPost2010PropOp41
 70
     1
102
RTVSPost2010Prop42
 90
       50
102
RTVSPost2010PropOp42
 70
     1
102
RTVSPost2010Prop43
 90
        3
102
RTVSPost2010PropOp43
 70
     1
102
RTVSPost2010Prop44ColorIndex
 90
        5
102
RTVSPost2010Prop44ColorRGB
 90
      255
102
RTVSPost2010PropOp44
 70
     1
102
RTVSPost2010Prop45
280
     0
102
RTVSPost2010PropOp45
 70
     1
102
RTVSPost2010Prop46
 90
       50
102
RTVSPost2010PropOp46
 70
     1
102
RTVSPost2010Prop47
 90
       50
102
RTVSPost2010PropOp47
 70
     1
102
RTVSPost2010Prop48
 90
       50
102
RTVSPost2010PropOp48
 70
     1
102
RTVSPost2010Prop49
280
     0
102
RTVSPost2010PropOp49
 70
     1
102
RTVSPost2010Prop50
 90
       50
102
RTVSPost2010PropOp50
 70
     1
102
RTVSPost2010Prop51ColorIndex
 90
      256
102
RTVSPost2010Prop51ColorRGB
 90
-16777216
102
RTVSPost2010PropOp51
 70
     0
102
RTVSPost2010Prop52
140
1.0
102
RTVSPost2010PropOp52
 70
     0
102
RTVSPost2010Prop53
 90
        2
102
RTVSPost2010PropOp53
 70
     1
102
RTVSPost2010Prop54
  1
strokes_ogs.tif
102
RTVSPost2010PropOp54
 70
     1
102
RTVSPost2010Prop55
280
     0
102
RTVSPost2010PropOp55
 70
     1
102
RTVSPost2010Prop56
140
1.0
102
RTVSPost2010PropOp56
 70
     1
102
RTVSPost2010Prop57
140
1.0
102
RTVSPost2010PropOp57
 70
     1
102
RTVSPropertyOp0
 70
     1
102
RTVSPropertyOp1
 70
     1
102
RTVSPropertyOp2
 70
     1
102
RTVSPropertyOp3
 70
     1
102
RTVSPropertyOp4
 70
     1
102
RTVSPropertyOp5
 70
     1
102
RTVSPropertyOp6
 70
     1
102
RTVSPropertyOp7
 70
     1
102
RTVSPropertyOp8
 70
     1
102
RTVSPropertyOp9
 70
     1
102
RTVSPropertyOp10
 70
     1
102
RTVSPropertyOp11
 70
     1
102
RTVSPropertyOp12
 70
     1
102
RTVSPropertyOp13
 70
     1
102
RTVSPropertyOp14
 70
     1
102
RTVSPropertyOp15
 70
     1
102
RTVSPropertyOp16
 70
     1
102
RTVSPropertyOp17
 70
     1
102
RTVSPropertyOp18
 70
     1
102
RTVSPropertyOp19
 70
     1
102
RTVSPropertyOp20
 70
     1
102
RTVSPropertyOp21
 70
     1
102
RTVSPropertyOp22
 70
     1
102
RTVSPropertyOp23
 70
     1
102
RTVSPropertyOp24
 70
     1
102
RTVSPropertyOp25
 70
     1
102
RTVSPropertyOp26
 70
     1
102
RTVSPropertyOp27
 70
     1
102
RTVSPropertyOp28
 70
     1
102
RTVSPropertyOp29
 70
     1
102
RTVSPropertyOp30
 70
     1
102
RTVSPropertyOp31
 70
     1
102
RTVSPropertyOp32
 70
     1
102
RTVSPropertyOp33
 70
     1
102
RTVSPropertyOp34
 70
     1
102
RTVSPropertyOp35
 70
     1
102
RTVSPropertyOp36
 70
     1
102
RTVSPropertyOp37
 70
     1
102
RTVSPropertyOp38
 70
     1
102
RTVSPropertyOp39
 70
     1
102
RTVSPropertyOp40
 70
     1
102
RTVSPropertyOp41
 70
     1
102
RTVSPropertyOp42
 70
     1
102
RTVSPropertyOp43
 70
     1
102
RTVSPropertyOp44
 70
     1
102
RTVSPropertyOp45
 70
     1
102
RTVSPropertyOp46
 70
     1
102
RTVSPropertyOp47
 70
     1
102
RTVSPropertyOp48
 70
     1
102
RTVSPropertyOp49
 70
     1
102
RTVSPropertyOp50
 70
     1
102
RTVSPropertyOp51
 70
     0
102
RTVSPropertyOp52
 70
     0
102
RTVSPropertyOp53
 70
     1
102
RTVSPropertyOp54
 70
     1
102
RTVSPropertyOp55
 70
     1
102
RTVSPropertyOp56
 70
     1
102
RTVSPropertyOp57
 70
     1
102
RTVSPropertyOp58
 70
     1
102
RTVSPropertyOp59
 70
     1
102
RTVSPropertyOp60
 70
     1
102
RTVSPropertyOp61
 70
     1
102
RTVSPropertyOp62
 70
     1
  0
XRECORD
  5
3C8
102
{ACAD_REACTORS
330
3C7
102
}
330
3C7
100
AcDbXrecord
280
     1
102
RTVSPost2010Prop28
280
     0
102
RTVSPost2010PropOp28
 70
     1
102
RTVSPost2010Prop29
280
     1
102
RTVSPost2010PropOp29
 70
     1
102
RTVSPost2010Prop30
280
     1
102
RTVSPost2010PropOp30
 70
     1
102
RTVSPost2010Prop31
280
     0
102
RTVSPost2010PropOp31
 70
     1
102
RTVSPost2010Prop32
280
     0
102
RTVSPost2010PropOp32
 70
     1
102
RTVSPost2010Prop33
280
     0
102
RTVSPost2010PropOp33
 70
     1
102
RTVSPost2010Prop34
280
     0
102
RTVSPost2010PropOp34
 70
     1
102
RTVSPost2010Prop35
280
     0
102
RTVSPost2010PropOp35
 70
     1
102
RTVSPost2010Prop36
280
     0
102
RTVSPost2010PropOp36
 70
     1
102
RTVSPost2010Prop37
 90
       50
102
RTVSPost2010PropOp37
 70
     1
102
RTVSPost2010Prop38
140
0.0
102
RTVSPost2010PropOp38
 70
     1
102
RTVSPost2010Prop39
140
1.0
102
RTVSPost2010PropOp39
 70
     1
102
RTVSPost2010Prop40
 90
        0
102
RTVSPost2010PropOp40
 70
     1
102
RTVSPost2010Prop41ColorIndex
 90
       18
102
RTVSPost2010Prop41ColorRGB
 90
        0
102
RTVSPost2010PropOp41
 70
     1
102
RTVSPost2010Prop42
 90
       50
102
RTVSPost2010PropOp42
 70
     1
102
RTVSPost2010Prop43
 90
        3
102
RTVSPost2010PropOp43
 70
     1
102
RTVSPost2010Prop44ColorIndex
 90
        5
102
RTVSPost2010Prop44ColorRGB
 90
      255
102
RTVSPost2010PropOp44
 70
     1
102
RTVSPost2010Prop45
280
     0
102
RTVSPost2010PropOp45
 70
     1
102
RTVSPost2010Prop46
 90
       50
102
RTVSPost2010PropOp46
 70
     1
102
RTVSPost2010Prop47
 90
       50
102
RTVSPost2010PropOp47
 70
     1
102
RTVSPost2010Prop48
 90
       50
102
RTVSPost2010PropOp48
 70
     1
102
RTVSPost2010Prop49
280
     0
102
RTVSPost2010PropOp49
 70
     1
102
RTVSPost2010Prop50
 90
       50
102
RTVSPost2010PropOp50
 70
     1
102
RTVSPost2010Prop51ColorIndex
 90
      256
102
RTVSPost2010Prop51ColorRGB
 90
-16777216
102
RTVSPost2010PropOp51
 70
     0
102
RTVSPost2010Prop52
140
1.0
102
RTVSPost2010PropOp52
 70
     0
102
RTVSPost2010Prop53
 90
        2
102
RTVSPost2010PropOp53
 70
     1
102
RTVSPost2010Prop54
  1
strokes_ogs.tif
102
RTVSPost2010PropOp54
 70
     1
102
RTVSPost2010Prop55
280
     0
102
RTVSPost2010PropOp55
 70
     1
102
RTVSPost2010Prop56
140
1.0
102
RTVSPost2010PropOp56
 70
     1
102
RTVSPost2010Prop57
140
1.0
102
RTVSPost2010PropOp57
 70
     1
102
RTVSPropertyOp0
 70
     1
102
RTVSPropertyOp1
 70
     1
102
RTVSPropertyOp2
 70
     1
102
RTVSPropertyOp3
 70
     1
102
RTVSPropertyOp4
 70
     1
102
RTVSPropertyOp5
 70
     1
102
RTVSPropertyOp6
 70
     1
102
RTVSPropertyOp7
 70
     1
102
RTVSPropertyOp8
 70
     1
102
RTVSPropertyOp9
 70
     1
102
RTVSPropertyOp10
 70
     1
102
RTVSPropertyOp11
 70
     1
102
RTVSPropertyOp12
 70
     1
102
RTVSPropertyOp13
 70
     1
102
RTVSPropertyOp14
 70
     1
102
RTVSPropertyOp15
 70
     1
102
RTVSPropertyOp16
 70
     1
102
RTVSPropertyOp17
 70
     1
102
RTVSPropertyOp18
 70
     1
102
RTVSPropertyOp19
 70
     1
102
RTVSPropertyOp20
 70
     1
102
RTVSPropertyOp21
 70
     1
102
RTVSPropertyOp22
 70
     1
102
RTVSPropertyOp23
 70
     1
102
RTVSPropertyOp24
 70
     1
102
RTVSPropertyOp25
 70
     1
102
RTVSPropertyOp26
 70
     1
102
RTVSPropertyOp27
 70
     1
102
RTVSPropertyOp28
 70
     1
102
RTVSPropertyOp29
 70
     1
102
RTVSPropertyOp30
 70
     1
102
RTVSPropertyOp31
 70
     1
102
RTVSPropertyOp32
 70
     1
102
RTVSPropertyOp33
 70
     1
102
RTVSPropertyOp34
 70
     1
102
RTVSPropertyOp35
 70
     1
102
RTVSPropertyOp36
 70
     1
102
RTVSPropertyOp37
 70
     1
102
RTVSPropertyOp38
 70
     1
102
RTVSPropertyOp39
 70
     1
102
RTVSPropertyOp40
 70
     1
102
RTVSPropertyOp41
 70
     1
102
RTVSPropertyOp42
 70
     1
102
RTVSPropertyOp43
 70
     1
102
RTVSPropertyOp44
 70
     1
102
RTVSPropertyOp45
 70
     1
102
RTVSPropertyOp46
 70
     1
102
RTVSPropertyOp47
 70
     1
102
RTVSPropertyOp48
 70
     1
102
RTVSPropertyOp49
 70
     1
102
RTVSPropertyOp50
 70
     1
102
RTVSPropertyOp51
 70
     0
102
RTVSPropertyOp52
 70
     0
102
RTVSPropertyOp53
 70
     1
102
RTVSPropertyOp54
 70
     1
102
RTVSPropertyOp55
 70
     1
102
RTVSPropertyOp56
 70
     1
102
RTVSPropertyOp57
 70
     1
102
RTVSPropertyOp58
 70
     1
102
RTVSPropertyOp59
 70
     1
102
RTVSPropertyOp60
 70
     1
102
RTVSPropertyOp61
 70
     1
102
RTVSPropertyOp62
 70
     1
  0
XRECORD
  5
3E8
102
{ACAD_REACTORS
330
3E7
102
}
330
3E7
100
AcDbXrecord
280
     1
102
RTVSPost2010Prop28
280
     0
102
RTVSPost2010PropOp28
 70
     1
102
RTVSPost2010Prop29
280
     1
102
RTVSPost2010PropOp29
 70
     1
102
RTVSPost2010Prop30
280
     1
102
RTVSPost2010PropOp30
 70
     1
102
RTVSPost2010Prop31
280
     0
102
RTVSPost2010PropOp31
 70
     1
102
RTVSPost2010Prop32
280
     0
102
RTVSPost2010PropOp32
 70
     1
102
RTVSPost2010Prop33
280
     0
102
RTVSPost2010PropOp33
 70
     1
102
RTVSPost2010Prop34
280
     0
102
RTVSPost2010PropOp34
 70
     1
102
RTVSPost2010Prop35
280
     0
102
RTVSPost2010PropOp35
 70
     1
102
RTVSPost2010Prop36
280
     0
102
RTVSPost2010PropOp36
 70
     1
102
RTVSPost2010Prop37
 90
       50
102
RTVSPost2010PropOp37
 70
     1
102
RTVSPost2010Prop38
140
0.0
102
RTVSPost2010PropOp38
 70
     1
102
RTVSPost2010Prop39
140
1.0
102
RTVSPost2010PropOp39
 70
     1
102
RTVSPost2010Prop40
 90
        0
102
RTVSPost2010PropOp40
 70
     1
102
RTVSPost2010Prop41ColorIndex
 90
       18
102
RTVSPost2010Prop41ColorRGB
 90
        0
102
RTVSPost2010PropOp41
 70
     1
102
RTVSPost2010Prop42
 90
       50
102
RTVSPost2010PropOp42
 70
     1
102
RTVSPost2010Prop43
 90
        3
102
RTVSPost2010PropOp43
 70
     1
102
RTVSPost2010Prop44ColorIndex
 90
        5
102
RTVSPost2010Prop44ColorRGB
 90
      255
102
RTVSPost2010PropOp44
 70
     1
102
RTVSPost2010Prop45
280
     0
102
RTVSPost2010PropOp45
 70
     1
102
RTVSPost2010Prop46
 90
       50
102
RTVSPost2010PropOp46
 70
     1
102
RTVSPost2010Prop47
 90
       50
102
RTVSPost2010PropOp47
 70
     1
102
RTVSPost2010Prop48
 90
       50
102
RTVSPost2010PropOp48
 70
     1
102
RTVSPost2010Prop49
280
     0
102
RTVSPost2010PropOp49
 70
     1
102
RTVSPost2010Prop50
 90
       50
102
RTVSPost2010PropOp50
 70
     1
102
RTVSPost2010Prop51ColorIndex
 90
      256
102
RTVSPost2010Prop51ColorRGB
 90
-16777216
102
RTVSPost2010PropOp51
 70
     0
102
RTVSPost2010Prop52
140
1.0
102
RTVSPost2010PropOp52
 70
     0
102
RTVSPost2010Prop53
 90
        2
102
RTVSPost2010PropOp53
 70
     1
102
RTVSPost2010Prop54
  1
strokes_ogs.tif
102
RTVSPost2010PropOp54
 70
     1
102
RTVSPost2010Prop55
280
     0
102
RTVSPost2010PropOp55
 70
     1
102
RTVSPost2010Prop56
140
1.0
102
RTVSPost2010PropOp56
 70
     1
102
RTVSPost2010Prop57
140
1.0
102
RTVSPost2010PropOp57
 70
     1
102
RTVSPropertyOp0
 70
     1
102
RTVSPropertyOp1
 70
     1
102
RTVSPropertyOp2
 70
     1
102
RTVSPropertyOp3
 70
     1
102
RTVSPropertyOp4
 70
     1
102
RTVSPropertyOp5
 70
     1
102
RTVSPropertyOp6
 70
     1
102
RTVSPropertyOp7
 70
     1
102
RTVSPropertyOp8
 70
     1
102
RTVSPropertyOp9
 70
     1
102
RTVSPropertyOp10
 70
     1
102
RTVSPropertyOp11
 70
     1
102
RTVSPropertyOp12
 70
     1
102
RTVSPropertyOp13
 70
     1
102
RTVSPropertyOp14
 70
     1
102
RTVSPropertyOp15
 70
     1
102
RTVSPropertyOp16
 70
     1
102
RTVSPropertyOp17
 70
     1
102
RTVSPropertyOp18
 70
     1
102
RTVSPropertyOp19
 70
     1
102
RTVSPropertyOp20
 70
     1
102
RTVSPropertyOp21
 70
     1
102
RTVSPropertyOp22
 70
     1
102
RTVSPropertyOp23
 70
     1
102
RTVSPropertyOp24
 70
     1
102
RTVSPropertyOp25
 70
     1
102
RTVSPropertyOp26
 70
     1
102
RTVSPropertyOp27
 70
     1
102
RTVSPropertyOp28
 70
     1
102
RTVSPropertyOp29
 70
     1
102
RTVSPropertyOp30
 70
     1
102
RTVSPropertyOp31
 70
     1
102
RTVSPropertyOp32
 70
     1
102
RTVSPropertyOp33
 70
     1
102
RTVSPropertyOp34
 70
     1
102
RTVSPropertyOp35
 70
     1
102
RTVSPropertyOp36
 70
     1
102
RTVSPropertyOp37
 70
     1
102
RTVSPropertyOp38
 70
     1
102
RTVSPropertyOp39
 70
     1
102
RTVSPropertyOp40
 70
     1
102
RTVSPropertyOp41
 70
     1
102
RTVSPropertyOp42
 70
     1
102
RTVSPropertyOp43
 70
     1
102
RTVSPropertyOp44
 70
     1
102
RTVSPropertyOp45
 70
     1
102
RTVSPropertyOp46
 70
     1
102
RTVSPropertyOp47
 70
     1
102
RTVSPropertyOp48
 70
     1
102
RTVSPropertyOp49
 70
     1
102
RTVSPropertyOp50
 70
     1
102
RTVSPropertyOp51
 70
     0
102
RTVSPropertyOp52
 70
     0
102
RTVSPropertyOp53
 70
     1
102
RTVSPropertyOp54
 70
     1
102
RTVSPropertyOp55
 70
     1
102
RTVSPropertyOp56
 70
     1
102
RTVSPropertyOp57
 70
     1
102
RTVSPropertyOp58
 70
     1
102
RTVSPropertyOp59
 70
     1
102
RTVSPropertyOp60
 70
     1
102
RTVSPropertyOp61
 70
     1
102
RTVSPropertyOp62
 70
     1
  0
ENDSEC
  0
EOF
