  0
SECTION
  2
HEADER
  9
$ACADVER
  1
AC1018
  9
$ACADMAINTVER
 70
   104
  9
$DWGCODEPAGE
  3
ANSI_1250
  9
$LASTSAVEDBY
  1
wq7085
  9
$INSBASE
 10
0.0
 20
0.0
 30
0.0
  9
$EXTMIN
 10
185.2894053333333
 20
122.034924
 30
0.0
  9
$EXTMAX
 10
415.1300029999999
 20
347.6965206666667
 30
0.0
  9
$LIMMIN
 10
-0.5
 20
-0.5
  9
$LIMMAX
 10
5.0
 20
5.0
  9
$ORTHOMODE
 70
     0
  9
$REGENMODE
 70
     1
  9
$FILLMODE
 70
     1
  9
$QTEXTMODE
 70
     0
  9
$MIRRTEXT
 70
     1
  9
$LTSCALE
 40
1.0
  9
$ATTMODE
 70
     1
  9
$TEXTSIZE
 40
0.2
  9
$TRACEWID
 40
0.05
  9
$TEXTSTYLE
  7
Standard
  9
$CLAYER
  8
0
  9
$CELTYPE
  6
ByLayer
  9
$CECOLOR
 62
   256
  9
$CELTSCALE
 40
1.0
  9
$DISPSILH
 70
     0
  9
$DIMSCALE
 40
1.0
  9
$DIMASZ
 40
0.18
  9
$DIMEXO
 40
0.0625
  9
$DIMDLI
 40
0.38
  9
$DIMRND
 40
0.0
  9
$DIMDLE
 40
0.0
  9
$DIMEXE
 40
0.18
  9
$DIMTP
 40
0.0
  9
$DIMTM
 40
0.0
  9
$DIMTXT
 40
0.18
  9
$DIMCEN
 40
0.09
  9
$DIMTSZ
 40
0.0
  9
$DIMTOL
 70
     0
  9
$DIMLIM
 70
     0
  9
$DIMTIH
 70
     1
  9
$DIMTOH
 70
     1
  9
$DIMSE1
 70
     0
  9
$DIMSE2
 70
     0
  9
$DIMTAD
 70
     0
  9
$DIMZIN
 70
     0
  9
$DIMBLK
  1

  9
$DIMASO
 70
     1
  9
$DIMSHO
 70
     1
  9
$DIMPOST
  1

  9
$DIMAPOST
  1

  9
$DIMALT
 70
     0
  9
$DIMALTD
 70
     2
  9
$DIMALTF
 40
25.4
  9
$DIMLFAC
 40
1.0
  9
$DIMTOFL
 70
     0
  9
$DIMTVP
 40
0.0
  9
$DIMTIX
 70
     0
  9
$DIMSOXD
 70
     0
  9
$DIMSAH
 70
     0
  9
$DIMBLK1
  1

  9
$DIMBLK2
  1

  9
$DIMSTYLE
  2
Standard
  9
$DIMCLRD
 70
     0
  9
$DIMCLRE
 70
     0
  9
$DIMCLRT
 70
     0
  9
$DIMTFAC
 40
1.0
  9
$DIMGAP
 40
0.09
  9
$DIMJUST
 70
     0
  9
$DIMSD1
 70
     0
  9
$DIMSD2
 70
     0
  9
$DIMTOLJ
 70
     1
  9
$DIMTZIN
 70
     0
  9
$DIMALTZ
 70
     0
  9
$DIMALTTZ
 70
     0
  9
$DIMUPT
 70
     0
  9
$DIMDEC
 70
     4
  9
$DIMTDEC
 70
     4
  9
$DIMALTU
 70
     2
  9
$DIMALTTD
 70
     2
  9
$DIMTXSTY
  7
Standard
  9
$DIMAUNIT
 70
     0
  9
$DIMADEC
 70
     0
  9
$DIMALTRND
 40
0.0
  9
$DIMAZIN
 70
     0
  9
$DIMDSEP
 70
    46
  9
$DIMATFIT
 70
     3
  9
$DIMFRAC
 70
     0
  9
$DIMLDRBLK
  1

  9
$DIMLUNIT
 70
     2
  9
$DIMLWD
 70
    -2
  9
$DIMLWE
 70
    -2
  9
$DIMTMOVE
 70
     0
  9
$LUNITS
 70
     2
  9
$LUPREC
 70
     4
  9
$SKETCHINC
 40
0.1
  9
$FILLETRAD
 40
0.5
  9
$AUNITS
 70
     0
  9
$AUPREC
 70
     0
  9
$MENU
  1
.
  9
$ELEVATION
 40
0.0
  9
$PELEVATION
 40
0.0
  9
$THICKNESS
 40
0.0
  9
$LIMCHECK
 70
     0
  9
$CHAMFERA
 40
0.0
  9
$CHAMFERB
 40
0.0
  9
$CHAMFERC
 40
0.0
  9
$CHAMFERD
 40
0.0
  9
$SKPOLY
 70
     0
  9
$TDCREATE
 40
2459094.515393519
  9
$TDUCREATE
 40
2459094.432061389
  9
$TDUPDATE
 40
2459094.515914352
  9
$TDUUPDATE
 40
2459094.432581019
  9
$TDINDWG
 40
0.0004166782
  9
$TDUSRTIMER
 40
0.0004166782
  9
$USRTIMER
 70
     1
  9
$ANGBASE
 50
0.0
  9
$ANGDIR
 70
     0
  9
$PDMODE
 70
     0
  9
$PDSIZE
 40
0.0
  9
$PLINEWID
 40
0.0
  9
$SPLFRAME
 70
     0
  9
$SPLINETYPE
 70
     6
  9
$SPLINESEGS
 70
     8
  9
$HANDSEED
  5
39C
  9
$SURFTAB1
 70
     6
  9
$SURFTAB2
 70
     6
  9
$SURFTYPE
 70
     6
  9
$SURFU
 70
     6
  9
$SURFV
 70
     6
  9
$UCSBASE
  2

  9
$UCSNAME
  2

  9
$UCSORG
 10
274.404842
 20
288.907994
 30
0.0
  9
$UCSXDIR
 10
1.0
 20
0.0
 30
0.0
  9
$UCSYDIR
 10
0.0
 20
1.0
 30
0.0
  9
$UCSORTHOREF
  2

  9
$UCSORTHOVIEW
 70
     0
  9
$UCSORGTOP
 10
0.0
 20
0.0
 30
0.0
  9
$UCSORGBOTTOM
 10
0.0
 20
0.0
 30
0.0
  9
$UCSORGLEFT
 10
0.0
 20
0.0
 30
0.0
  9
$UCSORGRIGHT
 10
0.0
 20
0.0
 30
0.0
  9
$UCSORGFRONT
 10
0.0
 20
0.0
 30
0.0
  9
$UCSORGBACK
 10
0.0
 20
0.0
 30
0.0
  9
$PUCSBASE
  2

  9
$PUCSNAME
  2

  9
$PUCSORG
 10
0.0
 20
0.0
 30
0.0
  9
$PUCSXDIR
 10
1.0
 20
0.0
 30
0.0
  9
$PUCSYDIR
 10
0.0
 20
1.0
 30
0.0
  9
$PUCSORTHOREF
  2

  9
$PUCSORTHOVIEW
 70
     0
  9
$PUCSORGTOP
 10
0.0
 20
0.0
 30
0.0
  9
$PUCSORGBOTTOM
 10
0.0
 20
0.0
 30
0.0
  9
$PUCSORGLEFT
 10
0.0
 20
0.0
 30
0.0
  9
$PUCSORGRIGHT
 10
0.0
 20
0.0
 30
0.0
  9
$PUCSORGFRONT
 10
0.0
 20
0.0
 30
0.0
  9
$PUCSORGBACK
 10
0.0
 20
0.0
 30
0.0
  9
$USERI1
 70
     0
  9
$USERI2
 70
     0
  9
$USERI3
 70
     0
  9
$USERI4
 70
     0
  9
$USERI5
 70
     0
  9
$USERR1
 40
0.0
  9
$USERR2
 40
0.0
  9
$USERR3
 40
0.0
  9
$USERR4
 40
0.0
  9
$USERR5
 40
0.0
  9
$WORLDVIEW
 70
     1
  9
$SHADEDGE
 70
     3
  9
$SHADEDIF
 70
    70
  9
$TILEMODE
 70
     1
  9
$MAXACTVP
 70
    64
  9
$PINSBASE
 10
0.0
 20
0.0
 30
0.0
  9
$PLIMCHECK
 70
     0
  9
$PEXTMIN
 10
-0.5
 20
-0.5
 30
-0.5
  9
$PEXTMAX
 10
5.0
 20
5.0
 30
5.0
  9
$PLIMMIN
 10
-0.5
 20
-0.5
  9
$PLIMMAX
 10
5.0
 20
5.0
  9
$UNITMODE
 70
     0
  9
$VISRETAIN
 70
     1
  9
$PLINEGEN
 70
     0
  9
$PSLTSCALE
 70
     1
  9
$TREEDEPTH
 70
  3020
  9
$CMLSTYLE
  2
Standard
  9
$CMLJUST
 70
     0
  9
$CMLSCALE
 40
1.0
  9
$PROXYGRAPHICS
 70
     1
  9
$MEASUREMENT
 70
     1
  9
$CELWEIGHT
370
    13
  9
$ENDCAPS
280
     0
  9
$JOINSTYLE
280
     0
  9
$LWDISPLAY
290
     0
  9
$INSUNITS
 70
     4
  9
$HYPERLINKBASE
  1

  9
$STYLESHEET
  1

  9
$XEDIT
290
     1
  9
$CEPSNTYPE
380
     0
  9
$PSTYLEMODE
290
     1
  9
$FINGERPRINTGUID
  2
{EB6ABF2C-58AD-4EC0-9304-4FE951BFCB78}
  9
$VERSIONGUID
  2
{086E98C3-260A-854D-BED5-44D3DD6C84B3}
  9
$EXTNAMES
290
     1
  9
$PSVPSCALE
 40
0.0
  9
$OLESTARTUP
290
     0
  9
$SORTENTS
280
   127
  9
$INDEXCTL
280
     0
  9
$HIDETEXT
280
     1
  9
$XCLIPFRAME
290
     0
  9
$HALOGAP
280
     0
  9
$OBSCOLOR
 70
   257
  9
$OBSLTYPE
280
     0
  9
$INTERSECTIONDISPLAY
280
     0
  9
$INTERSECTIONCOLOR
 70
   257
  9
$DIMASSOC
280
     2
  9
$PROJECTNAME
  1

  0
ENDSEC
  0
SECTION
  2
CLASSES
  0
CLASS
  1
ACDBDICTIONARYWDFLT
  2
AcDbDictionaryWithDefault
  3
ObjectDBX Classes
 90
        0
 91
        1
280
     0
281
     0
  0
CLASS
  1
VISUALSTYLE
  2
AcDbVisualStyle
  3
ObjectDBX Classes
 90
     4095
 91
       24
280
     0
281
     0
  0
CLASS
  1
MATERIAL
  2
AcDbMaterial
  3
ObjectDBX Classes
 90
     1153
 91
        3
280
     0
281
     0
  0
CLASS
  1
SCALE
  2
AcDbScale
  3
ObjectDBX Classes
 90
     1153
 91
       33
280
     0
281
     0
  0
CLASS
  1
TABLESTYLE
  2
AcDbTableStyle
  3
ObjectDBX Classes
 90
     4095
 91
        1
280
     0
281
     0
  0
CLASS
  1
MLEADERSTYLE
  2
AcDbMLeaderStyle
  3
ACDB_MLEADERSTYLE_CLASS
 90
     4095
 91
        1
280
     0
281
     0
  0
CLASS
  1
SUN
  2
AcDbSun
  3
SCENEOE
 90
     1153
 91
        0
280
     0
281
     0
  0
CLASS
  1
DIMASSOC
  2
AcDbDimAssoc
  3
"AcDbDimAssoc|Product Desc:     AcDim ARX App For Dimension|Company:          Autodesk, Inc.|WEB Address:      www.autodesk.com"
 90
        0
 91
        7
280
     0
281
     0
  0
CLASS
  1
DICTIONARYVAR
  2
AcDbDictionaryVar
  3
ObjectDBX Classes
 90
        0
 91
        8
280
     0
281
     0
  0
CLASS
  1
CELLSTYLEMAP
  2
AcDbCellStyleMap
  3
ObjectDBX Classes
 90
     1152
 91
        2
280
     0
281
     0
  0
CLASS
  1
ACDBSECTIONVIEWSTYLE
  2
AcDbSectionViewStyle
  3
ObjectDBX Classes
 90
     1025
 91
        1
280
     0
281
     0
  0
CLASS
  1
ACDBDETAILVIEWSTYLE
  2
AcDbDetailViewStyle
  3
ObjectDBX Classes
 90
     1025
 91
        1
280
     0
281
     0
  0
CLASS
  1
SORTENTSTABLE
  2
AcDbSortentsTable
  3
ObjectDBX Classes
 90
        0
 91
        1
280
     0
281
     0
  0
ENDSEC
  0
SECTION
  2
TABLES
  0
TABLE
  2
VPORT
  5
8
330
0
100
AcDbSymbolTable
 70
    16
  0
VPORT
  5
29
330
8
100
AcDbSymbolTableRecord
100
AcDbViewportTableRecord
  2
*Active
 70
     0
 10
0.0
 20
0.0
 11
1.0
 21
1.0
 12
299.8673657033084
 22
284.7896457748592
 13
0.0
 23
0.0
 14
0.5
 24
0.5
 15
0.5
 25
0.5
 16
0.0
 26
0.0
 36
1.0
 17
0.0
 27
0.0
 37
0.0
 40
204.6620050325635
 41
2.292712066905615
 42
50.0
 43
410.743812
 44
-410.743812
 50
0.0
 51
0.0
 71
     0
 72
   100
 73
     1
 74
     3
 75
     0
 76
     0
 77
     0
 78
     0
281
     0
 65
     1
110
274.404842
120
288.907994
130
0.0
111
1.0
121
0.0
131
0.0
112
0.0
122
1.0
132
0.0
 79
     0
146
0.0
1001
ACAD_NAV_VCDISPLAY
1070
     3
  0
VPORT
  5
2A0
330
8
100
AcDbSymbolTableRecord
100
AcDbViewportTableRecord
  2
L1
 70
     0
 10
0.0
 20
0.0
 11
1.0
 21
1.0
 12
299.705498
 22
234.744981
 13
0.0
 23
0.0
 14
0.5
 24
0.5
 15
0.5
 25
0.5
 16
0.0
 26
0.0
 36
1.0
 17
0.0
 27
0.0
 37
0.0
 40
207.433333
 41
0.085602
 42
50.0
 43
410.743812
 44
-410.743812
 50
0.0
 51
0.0
 71
     0
 72
   100
 73
     1
 74
     3
 75
     0
 76
     0
 77
     0
 78
     0
281
     0
 65
     1
110
0.0
120
0.0
130
0.0
111
1.0
121
0.0
131
0.0
112
0.0
122
1.0
132
0.0
 79
     0
146
0.0
  0
VPORT
  5
2A1
330
8
100
AcDbSymbolTableRecord
100
AcDbViewportTableRecord
  2
L2
 70
     0
 10
0.0
 20
0.0
 11
0.5
 21
1.0
 12
0.0
 22
0.0
 13
0.0
 23
0.0
 14
0.5
 24
0.5
 15
0.5
 25
0.5
 16
0.0
 26
-1.0
 36
0.0
 17
0.0
 27
0.0
 37
0.0
 40
1316.18997
 41
0.013491
 42
50.0
 43
678.00864
 44
-678.00864
 50
0.0
 51
0.0
 71
     0
 72
   100
 73
     1
 74
     3
 75
     0
 76
     0
 77
     0
 78
     0
281
     0
 65
     1
110
0.0
120
0.0
130
0.0
111
1.0
121
0.0
131
0.0
112
0.0
122
1.0
132
0.0
 79
     0
146
0.0
  0
VPORT
  5
2A2
330
8
100
AcDbSymbolTableRecord
100
AcDbViewportTableRecord
  2
L2
 70
     0
 10
0.5
 20
0.0
 11
1.0
 21
1.0
 12
0.0
 22
0.0
 13
0.0
 23
0.0
 14
0.5
 24
0.5
 15
0.5
 25
0.5
 16
1.0
 26
0.0
 36
0.0
 17
0.0
 27
0.0
 37
0.0
 40
1316.18997
 41
0.013491
 42
50.0
 43
666.2177989999999
 44
-666.2177989999999
 50
0.0
 51
0.0
 71
     0
 72
   100
 73
     1
 74
     3
 75
     0
 76
     0
 77
     0
 78
     0
281
     0
 65
     1
110
0.0
120
0.0
130
0.0
111
1.0
121
0.0
131
0.0
112
0.0
122
1.0
132
0.0
 79
     0
146
0.0
  0
VPORT
  5
2A3
330
8
100
AcDbSymbolTableRecord
100
AcDbViewportTableRecord
  2
L3
 70
     0
 10
0.0
 20
0.5
 11
1.0
 21
1.0
 12
299.705498
 22
234.744981
 13
0.0
 23
0.0
 14
0.5
 24
0.5
 15
0.5
 25
0.5
 16
0.0
 26
0.0
 36
1.0
 17
0.0
 27
0.0
 37
0.0
 40
207.433333
 41
0.085602
 42
50.0
 43
410.743812
 44
-410.743812
 50
0.0
 51
0.0
 71
     0
 72
   100
 73
     1
 74
     3
 75
     0
 76
     0
 77
     0
 78
     0
281
     0
 65
     1
110
0.0
120
0.0
130
0.0
111
1.0
121
0.0
131
0.0
112
0.0
122
1.0
132
0.0
 79
     0
146
0.0
  0
VPORT
  5
2A4
330
8
100
AcDbSymbolTableRecord
100
AcDbViewportTableRecord
  2
L3
 70
     0
 10
0.0
 20
0.0
 11
1.0
 21
0.5
 12
0.0
 22
0.0
 13
0.0
 23
0.0
 14
0.5
 24
0.5
 15
0.5
 25
0.5
 16
0.0
 26
-1.0
 36
0.0
 17
0.0
 27
0.0
 37
0.0
 40
1316.18997
 41
0.013491
 42
50.0
 43
678.00864
 44
-678.00864
 50
0.0
 51
0.0
 71
     0
 72
   100
 73
     1
 74
     3
 75
     0
 76
     0
 77
     0
 78
     0
281
     0
 65
     1
110
0.0
120
0.0
130
0.0
111
1.0
121
0.0
131
0.0
112
0.0
122
1.0
132
0.0
 79
     0
146
0.0
  0
VPORT
  5
2A5
330
8
100
AcDbSymbolTableRecord
100
AcDbViewportTableRecord
  2
L4
 70
     0
 10
0.0
 20
0.5
 11
0.5
 21
1.0
 12
299.705498
 22
234.744981
 13
0.0
 23
0.0
 14
0.5
 24
0.5
 15
0.5
 25
0.5
 16
0.0
 26
0.0
 36
1.0
 17
0.0
 27
0.0
 37
0.0
 40
207.433333
 41
0.085602
 42
50.0
 43
410.743812
 44
-410.743812
 50
0.0
 51
0.0
 71
     0
 72
   100
 73
     1
 74
     3
 75
     0
 76
     0
 77
     0
 78
     0
281
     0
 65
     1
110
0.0
120
0.0
130
0.0
111
1.0
121
0.0
131
0.0
112
0.0
122
1.0
132
0.0
 79
     0
146
0.0
  0
VPORT
  5
2A6
330
8
100
AcDbSymbolTableRecord
100
AcDbViewportTableRecord
  2
L4
 70
     0
 10
0.0
 20
0.0
 11
0.5
 21
0.5
 12
0.0
 22
0.0
 13
0.0
 23
0.0
 14
0.5
 24
0.5
 15
0.5
 25
0.5
 16
0.0
 26
-1.0
 36
0.0
 17
0.0
 27
0.0
 37
0.0
 40
1316.18997
 41
0.013491
 42
50.0
 43
678.00864
 44
-678.00864
 50
0.0
 51
0.0
 71
     0
 72
   100
 73
     1
 74
     3
 75
     0
 76
     0
 77
     0
 78
     0
281
     0
 65
     1
110
0.0
120
0.0
130
0.0
111
1.0
121
0.0
131
0.0
112
0.0
122
1.0
132
0.0
 79
     0
146
0.0
  0
VPORT
  5
2A7
330
8
100
AcDbSymbolTableRecord
100
AcDbViewportTableRecord
  2
L4
 70
     0
 10
0.5
 20
0.0
 11
1.0
 21
0.5
 12
0.0
 22
0.0
 13
0.0
 23
0.0
 14
0.5
 24
0.5
 15
0.5
 25
0.5
 16
1.0
 26
0.0
 36
0.0
 17
0.0
 27
0.0
 37
0.0
 40
1316.18997
 41
0.013491
 42
50.0
 43
666.2177989999999
 44
-666.2177989999999
 50
0.0
 51
0.0
 71
     0
 72
   100
 73
     1
 74
     3
 75
     0
 76
     0
 77
     0
 78
     0
281
     0
 65
     1
110
0.0
120
0.0
130
0.0
111
1.0
121
0.0
131
0.0
112
0.0
122
1.0
132
0.0
 79
     0
146
0.0
  0
VPORT
  5
2A8
330
8
100
AcDbSymbolTableRecord
100
AcDbViewportTableRecord
  2
L4
 70
     0
 10
0.5
 20
0.5
 11
1.0
 21
1.0
 12
0.0
 22
0.0
 13
0.0
 23
0.0
 14
0.5
 24
0.5
 15
0.5
 25
0.5
 16
0.5773502691896259
 26
-0.5773502691896259
 36
0.5773502691896259
 17
0.0
 27
0.0
 37
0.0
 40
1292.532264
 41
0.013738
 42
50.0
 43
673.245608
 44
-673.245608
 50
0.0
 51
0.0
 71
     0
 72
   100
 73
     1
 74
     3
 75
     0
 76
     0
 77
     0
 78
     0
281
     0
 65
     1
110
0.0
120
0.0
130
0.0
111
1.0
121
0.0
131
0.0
112
0.0
122
1.0
132
0.0
 79
     0
146
0.0
  0
VPORT
  5
2A9
330
8
100
AcDbSymbolTableRecord
100
AcDbViewportTableRecord
  2
L6
 70
     0
 10
0.0
 20
0.5
 11
0.333333
 21
1.0
 12
0.0
 22
0.0
 13
0.0
 23
0.0
 14
0.5
 24
0.5
 15
0.5
 25
0.5
 16
0.7188730927569434
 26
-0.5850486126764433
 36
0.3754192287502549
 17
0.0
 27
0.0
 37
0.0
 40
1364.064247
 41
0.013018
 42
50.0
 43
706.2613849999999
 44
-706.2613849999999
 50
0.0
 51
0.0
 71
     0
 72
   100
 73
     1
 74
     3
 75
     0
 76
     0
 77
     0
 78
     0
281
     0
 65
     1
110
0.0
120
0.0
130
0.0
111
1.0
121
0.0
131
0.0
112
0.0
122
1.0
132
0.0
 79
     0
146
0.0
  0
VPORT
  5
2AA
330
8
100
AcDbSymbolTableRecord
100
AcDbViewportTableRecord
  2
L6
 70
     0
 10
0.0
 20
0.0
 11
0.333333
 21
0.5
 12
0.0
 22
0.0
 13
0.0
 23
0.0
 14
0.5
 24
0.5
 15
0.5
 25
0.5
 16
-1.0
 26
0.0
 36
0.0
 17
0.0
 27
0.0
 37
0.0
 40
1316.18997
 41
0.013491
 42
50.0
 43
666.2177989999999
 44
-666.2177989999999
 50
0.0
 51
0.0
 71
     0
 72
   100
 73
     1
 74
     3
 75
     0
 76
     0
 77
     0
 78
     0
281
     0
 65
     1
110
0.0
120
0.0
130
0.0
111
1.0
121
0.0
131
0.0
112
0.0
122
1.0
132
0.0
 79
     0
146
0.0
  0
VPORT
  5
2AB
330
8
100
AcDbSymbolTableRecord
100
AcDbViewportTableRecord
  2
L6
 70
     0
 10
0.333333
 20
0.5
 11
0.666667
 21
1.0
 12
299.705498
 22
234.744981
 13
0.0
 23
0.0
 14
0.5
 24
0.5
 15
0.5
 25
0.5
 16
0.0
 26
0.0
 36
1.0
 17
0.0
 27
0.0
 37
0.0
 40
207.433333
 41
0.085602
 42
50.0
 43
410.743812
 44
-410.743812
 50
0.0
 51
0.0
 71
     0
 72
   100
 73
     1
 74
     3
 75
     0
 76
     0
 77
     0
 78
     0
281
     0
 65
     1
110
0.0
120
0.0
130
0.0
111
1.0
121
0.0
131
0.0
112
0.0
122
1.0
132
0.0
 79
     0
146
0.0
  0
VPORT
  5
2AC
330
8
100
AcDbSymbolTableRecord
100
AcDbViewportTableRecord
  2
L6
 70
     0
 10
0.333333
 20
0.0
 11
0.666667
 21
0.5
 12
0.0
 22
0.0
 13
0.0
 23
0.0
 14
0.5
 24
0.5
 15
0.5
 25
0.5
 16
0.0
 26
-1.0
 36
0.0
 17
0.0
 27
0.0
 37
0.0
 40
1316.18997
 41
0.013491
 42
50.0
 43
678.00864
 44
-678.00864
 50
0.0
 51
0.0
 71
     0
 72
   100
 73
     1
 74
     3
 75
     0
 76
     0
 77
     0
 78
     0
281
     0
 65
     1
110
0.0
120
0.0
130
0.0
111
1.0
121
0.0
131
0.0
112
0.0
122
1.0
132
0.0
 79
     0
146
0.0
  0
VPORT
  5
2AD
330
8
100
AcDbSymbolTableRecord
100
AcDbViewportTableRecord
  2
L6
 70
     0
 10
0.666667
 20
0.5
 11
1.0
 21
1.0
 12
0.0
 22
0.0
 13
0.0
 23
0.0
 14
0.5
 24
0.5
 15
0.5
 25
0.5
 16
0.5773502691896259
 26
-0.5773502691896259
 36
0.5773502691896259
 17
0.0
 27
0.0
 37
0.0
 40
1292.532264
 41
0.013738
 42
50.0
 43
673.245608
 44
-673.245608
 50
0.0
 51
0.0
 71
     0
 72
   100
 73
     1
 74
     3
 75
     0
 76
     0
 77
     0
 78
     0
281
     0
 65
     1
110
0.0
120
0.0
130
0.0
111
1.0
121
0.0
131
0.0
112
0.0
122
1.0
132
0.0
 79
     0
146
0.0
  0
VPORT
  5
2AE
330
8
100
AcDbSymbolTableRecord
100
AcDbViewportTableRecord
  2
L6
 70
     0
 10
0.666667
 20
0.0
 11
1.0
 21
0.5
 12
0.0
 22
0.0
 13
0.0
 23
0.0
 14
0.5
 24
0.5
 15
0.5
 25
0.5
 16
1.0
 26
0.0
 36
0.0
 17
0.0
 27
0.0
 37
0.0
 40
1316.18997
 41
0.013491
 42
50.0
 43
666.2177989999999
 44
-666.2177989999999
 50
0.0
 51
0.0
 71
     0
 72
   100
 73
     1
 74
     3
 75
     0
 76
     0
 77
     0
 78
     0
281
     0
 65
     1
110
0.0
120
0.0
130
0.0
111
1.0
121
0.0
131
0.0
112
0.0
122
1.0
132
0.0
 79
     0
146
0.0
  0
ENDTAB
  0
TABLE
  2
LTYPE
  5
5
330
0
100
AcDbSymbolTable
 70
     7
  0
LTYPE
  5
14
330
5
100
AcDbSymbolTableRecord
100
AcDbLinetypeTableRecord
  2
ByBlock
 70
     0
  3

 72
    65
 73
     0
 40
0.0
  0
LTYPE
  5
15
330
5
100
AcDbSymbolTableRecord
100
AcDbLinetypeTableRecord
  2
ByLayer
 70
     0
  3

 72
    65
 73
     0
 40
0.0
  0
LTYPE
  5
16
330
5
100
AcDbSymbolTableRecord
100
AcDbLinetypeTableRecord
  2
Continuous
 70
     0
  3
Solid line
 72
    65
 73
     0
 40
0.0
  0
LTYPE
  5
6E
330
5
100
AcDbSymbolTableRecord
100
AcDbLinetypeTableRecord
  2
CENTER
 70
     0
  3
____ _ ____ _ ____ _ ____
 72
    65
 73
     4
 40
47.4
 49
22.0
 74
     4
 75
     0
340
0
 46
0.0
 50
0.0
 44
0.0
 45
0.0
 49
-8.5
 74
     4
 75
     0
340
0
 46
0.0
 50
0.0
 44
0.0
 45
0.0
 49
8.5
 74
     4
 75
     0
340
0
 46
0.0
 50
0.0
 44
0.0
 45
0.0
 49
-8.5
 74
     4
 75
     0
340
0
 46
0.0
 50
0.0
 44
0.0
 45
0.0
  0
LTYPE
  5
6F
330
5
100
AcDbSymbolTableRecord
100
AcDbLinetypeTableRecord
  2
DASHDOT
 70
     0
  3
_._._._._._._._._._._._._._._._.
 72
    65
 73
     4
 40
70.0
 49
31.0
 74
     4
 75
     0
340
0
 46
0.0
 50
0.0
 44
0.0
 45
0.0
 49
-13.0
 74
     4
 75
     0
340
0
 46
0.0
 50
0.0
 44
0.0
 45
0.0
 49
13.0
 74
     4
 75
     0
340
0
 46
0.0
 50
0.0
 44
0.0
 45
0.0
 49
-13.0
 74
     4
 75
     0
340
0
 46
0.0
 50
0.0
 44
0.0
 45
0.0
  0
LTYPE
  5
70
330
5
100
AcDbSymbolTableRecord
100
AcDbLinetypeTableRecord
  2
DASHED
 70
     0
  3
__ __ __ __ __ __ __ __ __
 72
    65
 73
     2
 40
25.72
 49
12.86
 74
     4
 75
     0
340
0
 46
0.0
 50
0.0
 44
0.0
 45
0.0
 49
-12.86
 74
     4
 75
     0
340
0
 46
0.0
 50
0.0
 44
0.0
 45
0.0
  0
LTYPE
  5
71
330
5
100
AcDbSymbolTableRecord
100
AcDbLinetypeTableRecord
  2
DOT
 70
     0
  3
.........................
 72
    65
 73
     2
 40
10.0
 49
0.0
 74
     4
 75
     0
340
0
 46
0.0
 50
0.0
 44
0.0
 45
0.0
 49
-10.0
 74
     4
 75
     0
340
0
 46
0.0
 50
0.0
 44
0.0
 45
0.0
  0
LTYPE
  5
72
330
5
100
AcDbSymbolTableRecord
100
AcDbLinetypeTableRecord
  2
PHANTOM
 70
     0
  3
____ _ _ ____ _ _ _____ _ _ ____
 72
    65
 73
     6
 40
50.5
 49
18.0
 74
     4
 75
     0
340
0
 46
0.0
 50
0.0
 44
0.0
 45
0.0
 49
-6.5
 74
     4
 75
     0
340
0
 46
0.0
 50
0.0
 44
0.0
 45
0.0
 49
6.5
 74
     4
 75
     0
340
0
 46
0.0
 50
0.0
 44
0.0
 45
0.0
 49
-6.5
 74
     4
 75
     0
340
0
 46
0.0
 50
0.0
 44
0.0
 45
0.0
 49
6.5
 74
     4
 75
     0
340
0
 46
0.0
 50
0.0
 44
0.0
 45
0.0
 49
-6.5
 74
     4
 75
     0
340
0
 46
0.0
 50
0.0
 44
0.0
 45
0.0
  0
LTYPE
  5
33E
330
5
100
AcDbSymbolTableRecord
100
AcDbLinetypeTableRecord
  2
CENTER2
 70
     0
  3
Center (.5x) ___ _ ___ _ ___ _ ___ _ ___ _ ___
 72
    65
 73
     4
 40
1.125
 49
0.75
 74
     0
 49
-0.125
 74
     0
 49
0.125
 74
     0
 49
-0.125
 74
     0
  0
ENDTAB
  0
TABLE
  2
LAYER
  5
2
330
0
100
AcDbSymbolTable
 70
    22
  0
LAYER
  5
10
102
{ACAD_XDICTIONARY
360
349
102
}
330
2
100
AcDbSymbolTableRecord
100
AcDbLayerTableRecord
  2
0
 70
     0
 62
     7
  6
Continuous
370
    -3
390
F
  0
LAYER
  5
1FA
330
2
100
AcDbSymbolTableRecord
100
AcDbLayerTableRecord
  2
Defpoints
 70
     0
 62
     7
  6
Continuous
290
     0
370
    -3
390
F
  0
LAYER
  5
33B
102
{ACAD_XDICTIONARY
360
34B
102
}
330
2
100
AcDbSymbolTableRecord
100
AcDbLayerTableRecord
  2
1
 70
     0
 62
     4
  6
Continuous
370
    -3
390
F
  0
LAYER
  5
33C
102
{ACAD_XDICTIONARY
360
34D
102
}
330
2
100
AcDbSymbolTableRecord
100
AcDbLayerTableRecord
  2
2
 70
     0
 62
     7
  6
Continuous
370
    -3
390
F
  0
LAYER
  5
33D
102
{ACAD_XDICTIONARY
360
34F
102
}
330
2
100
AcDbSymbolTableRecord
100
AcDbLayerTableRecord
  2
4
 70
     0
 62
     2
  6
CENTER2
370
    -3
390
F
  0
LAYER
  5
33F
102
{ACAD_XDICTIONARY
360
351
102
}
330
2
100
AcDbSymbolTableRecord
100
AcDbLayerTableRecord
  2
SK1
 70
     0
 62
     4
  6
Continuous
370
    -3
390
F
  0
LAYER
  5
340
102
{ACAD_XDICTIONARY
360
353
102
}
330
2
100
AcDbSymbolTableRecord
100
AcDbLayerTableRecord
  2
SK2
 70
     0
 62
     7
  6
Continuous
370
    -3
390
F
  0
LAYER
  5
342
102
{ACAD_XDICTIONARY
360
355
102
}
330
2
100
AcDbSymbolTableRecord
100
AcDbLayerTableRecord
  2
SK4
 70
     0
 62
     2
  6
CENTER2
370
    -3
390
F
  0
LAYER
  5
343
102
{ACAD_XDICTIONARY
360
357
102
}
330
2
100
AcDbSymbolTableRecord
100
AcDbLayerTableRecord
  2
SK6
 70
     0
 62
     5
  6
Continuous
370
    -3
390
F
  0
LAYER
  5
344
102
{ACAD_XDICTIONARY
360
359
102
}
330
2
100
AcDbSymbolTableRecord
100
AcDbLayerTableRecord
  2
CUT
 70
     0
 62
     1
  6
Continuous
370
    -3
390
F
  0
LAYER
  5
345
102
{ACAD_XDICTIONARY
360
35B
102
}
330
2
100
AcDbSymbolTableRecord
100
AcDbLayerTableRecord
  2
NOCUT
 70
     0
 62
     7
  6
Continuous
370
    -3
390
F
  0
LAYER
  5
346
102
{ACAD_XDICTIONARY
360
35D
102
}
330
2
100
AcDbSymbolTableRecord
100
AcDbLayerTableRecord
  2
80
 70
     0
 62
     6
  6
Continuous
370
    -3
390
F
  0
LAYER
  5
347
102
{ACAD_XDICTIONARY
360
35F
102
}
330
2
100
AcDbSymbolTableRecord
100
AcDbLayerTableRecord
  2
81
 70
     0
 62
     3
  6
Continuous
370
    -3
390
F
  0
ENDTAB
  0
TABLE
  2
STYLE
  5
3
330
0
100
AcDbSymbolTable
 70
     3
  0
STYLE
  5
11
330
3
100
AcDbSymbolTableRecord
100
AcDbTextStyleTableRecord
  2
Standard
 70
     0
 40
0.0
 41
1.0
 50
0.0
 71
     0
 42
0.2
  3
txt
  4

  0
STYLE
  5
1EE
330
3
100
AcDbSymbolTableRecord
100
AcDbTextStyleTableRecord
  2
cesky
 70
     0
 40
0.0
 41
1.0
 50
0.0
 71
     0
 42
0.2
  3
simplex.shx
  4

  0
STYLE
  5
1EF
330
3
100
AcDbSymbolTableRecord
100
AcDbTextStyleTableRecord
  2
DWGDirectTextStyle
 70
     0
 40
0.0
 41
1.0
 50
0.0
 71
     0
 42
0.2
  3
simplex
  4

  0
ENDTAB
  0
TABLE
  2
VIEW
  5
6
330
0
100
AcDbSymbolTable
 70
     0
  0
ENDTAB
  0
TABLE
  2
UCS
  5
7
330
0
100
AcDbSymbolTable
 70
     0
  0
ENDTAB
  0
TABLE
  2
APPID
  5
9
330
0
100
AcDbSymbolTable
 70
     7
  0
APPID
  5
12
330
9
100
AcDbSymbolTableRecord
100
AcDbRegAppTableRecord
  2
ACAD
 70
     0
  0
APPID
  5
1F6
330
9
100
AcDbSymbolTableRecord
100
AcDbRegAppTableRecord
  2
ACAD_DSTYLE_DIMBREAK
 70
     0
  0
APPID
  5
2AF
330
9
100
AcDbSymbolTableRecord
100
AcDbRegAppTableRecord
  2
ACAD_DSTYLE_DIM_LINETYPE
 70
     0
  0
APPID
  5
2B0
330
9
100
AcDbSymbolTableRecord
100
AcDbRegAppTableRecord
  2
ACAD_DSTYLE_DIM_EXT1_LINETYPE
 70
     0
  0
APPID
  5
2B1
330
9
100
AcDbSymbolTableRecord
100
AcDbRegAppTableRecord
  2
ACAD_DSTYLE_DIM_EXT2_LINETYPE
 70
     0
  0
APPID
  5
2F1
330
9
100
AcDbSymbolTableRecord
100
AcDbRegAppTableRecord
  2
ACAD_MLEADERVER
 70
     0
  0
APPID
  5
364
330
9
100
AcDbSymbolTableRecord
100
AcDbRegAppTableRecord
  2
ACAD_NAV_VCDISPLAY
 70
     0
  0
ENDTAB
  0
TABLE
  2
DIMSTYLE
  5
A
330
0
100
AcDbSymbolTable
 70
     1
100
AcDbDimStyleTable
 71
     0
  0
DIMSTYLE
105
27
330
A
100
AcDbSymbolTableRecord
100
AcDbDimStyleTableRecord
  2
Standard
 70
     0
340
11
1001
ACAD_DSTYLE_DIMBREAK
1070
   391
1040
6.349999999999999
  0
ENDTAB
  0
TABLE
  2
BLOCK_RECORD
  5
1
330
0
100
AcDbSymbolTable
 70
    16
  0
BLOCK_RECORD
  5
1F
102
{ACAD_XDICTIONARY
360
301
102
}
330
1
100
AcDbSymbolTableRecord
100
AcDbBlockTableRecord
  2
*Model_Space
340
22
  0
BLOCK_RECORD
  5
1B
330
1
100
AcDbSymbolTableRecord
100
AcDbBlockTableRecord
  2
*Paper_Space
340
1E
  0
BLOCK_RECORD
  5
23
330
1
100
AcDbSymbolTableRecord
100
AcDbBlockTableRecord
  2
*Paper_Space0
340
26
  0
BLOCK_RECORD
  5
1F1
330
1
100
AcDbSymbolTableRecord
100
AcDbBlockTableRecord
  2
ASSORTED_DRAFT1
340
0
  0
BLOCK_RECORD
  5
1FB
330
1
100
AcDbSymbolTableRecord
100
AcDbBlockTableRecord
  2
*D2
340
0
  0
BLOCK_RECORD
  5
206
330
1
100
AcDbSymbolTableRecord
100
AcDbBlockTableRecord
  2
_U0
340
0
  0
BLOCK_RECORD
  5
211
330
1
100
AcDbSymbolTableRecord
100
AcDbBlockTableRecord
  2
*D4
340
0
  0
BLOCK_RECORD
  5
21D
330
1
100
AcDbSymbolTableRecord
100
AcDbBlockTableRecord
  2
_U1
340
0
  0
BLOCK_RECORD
  5
22A
330
1
100
AcDbSymbolTableRecord
100
AcDbBlockTableRecord
  2
*D6
340
0
  0
BLOCK_RECORD
  5
236
330
1
100
AcDbSymbolTableRecord
100
AcDbBlockTableRecord
  2
_U2
340
0
  0
BLOCK_RECORD
  5
243
330
1
100
AcDbSymbolTableRecord
100
AcDbBlockTableRecord
  2
*D8
340
0
  0
BLOCK_RECORD
  5
24F
330
1
100
AcDbSymbolTableRecord
100
AcDbBlockTableRecord
  2
_U3
340
0
  0
BLOCK_RECORD
  5
25B
330
1
100
AcDbSymbolTableRecord
100
AcDbBlockTableRecord
  2
*D10
340
0
  0
BLOCK_RECORD
  5
267
330
1
100
AcDbSymbolTableRecord
100
AcDbBlockTableRecord
  2
_U4
340
0
  0
BLOCK_RECORD
  5
273
330
1
100
AcDbSymbolTableRecord
100
AcDbBlockTableRecord
  2
*D12
340
0
  0
BLOCK_RECORD
  5
27F
330
1
100
AcDbSymbolTableRecord
100
AcDbBlockTableRecord
  2
_U5
340
0
  0
BLOCK_RECORD
  5
28B
330
1
100
AcDbSymbolTableRecord
100
AcDbBlockTableRecord
  2
*D14
340
0
  0
BLOCK_RECORD
  5
297
330
1
100
AcDbSymbolTableRecord
100
AcDbBlockTableRecord
  2
_U6
340
0
  0
ENDTAB
  0
ENDSEC
  0
SECTION
  2
BLOCKS
  0
BLOCK
  5
20
330
1F
100
AcDbEntity
  8
0
100
AcDbBlockBegin
  2
*Model_Space
 70
     0
 10
0.0
 20
0.0
 30
0.0
  3
*Model_Space
  1

  0
ENDBLK
  5
21
330
1F
100
AcDbEntity
  8
0
100
AcDbBlockEnd
  0
BLOCK
  5
1C
330
1B
100
AcDbEntity
 67
     1
  8
0
100
AcDbBlockBegin
  2
*Paper_Space
 70
     0
 10
0.0
 20
0.0
 30
0.0
  3
*Paper_Space
  1

  0
ENDBLK
  5
1D
330
1B
100
AcDbEntity
 67
     1
  8
0
100
AcDbBlockEnd
  0
BLOCK
  5
24
330
23
100
AcDbEntity
 67
     1
  8
0
100
AcDbBlockBegin
  2
*Paper_Space0
 70
     0
 10
0.0
 20
0.0
 30
0.0
  3
*Paper_Space0
  1

  0
ENDBLK
  5
25
330
23
100
AcDbEntity
 67
     1
  8
0
100
AcDbBlockEnd
  0
BLOCK
  5
1F4
330
1F1
100
AcDbEntity
  8
0
100
AcDbBlockBegin
  2
ASSORTED_DRAFT1
 70
     0
 10
0.0
 20
0.0
 30
0.0
  3
ASSORTED_DRAFT1
  1

  0
SOLID
  5
1F2
330
1F1
100
AcDbEntity
  8
0
 62
   254
370
    13
100
AcDbTrace
 10
270.185042
 20
161.034924
 30
0.0
 11
265.185046
 21
159.92645
 31
0.0
 12
265.1850379999999
 22
162.143397
 32
0.0
 13
270.185042
 23
161.034924
 33
0.0
  0
ENDBLK
  5
1F5
330
1F1
100
AcDbEntity
  8
0
100
AcDbBlockEnd
  0
BLOCK
  5
1FC
330
1FB
100
AcDbEntity
  8
0
100
AcDbBlockBegin
  2
*D2
 70
     1
 10
0.0
 20
0.0
 30
0.0
  3
*D2
  1

  0
LINE
  5
1FE
330
1FB
100
AcDbEntity
  8
0
 62
   254
370
    -2
100
AcDbLine
 10
293.703832
 20
288.907994
 30
0.0
 11
415.1300029999999
 21
288.907994
 31
0.0
  0
LINE
  5
1FF
330
1FB
100
AcDbEntity
  8
0
 62
   254
370
    -2
100
AcDbLine
 10
330.83929
 20
298.407994
 30
0.0
 11
415.1300029999999
 21
298.407994
 31
0.0
  0
LINE
  5
200
330
1FB
100
AcDbEntity
  8
0
 62
   254
370
    -2
100
AcDbLine
 10
414.130003
 20
301.907994
 30
0.0
 11
414.130003
 21
305.407994
 31
0.0
  0
SOLID
  5
201
330
1FB
100
AcDbEntity
  8
0
 62
   254
100
AcDbTrace
 10
413.54667
 20
301.907994
 30
0.0
 11
414.713337
 21
301.907994
 31
0.0
 12
414.130003
 22
298.407994
 32
0.0
 13
414.130003
 23
298.407994
 33
0.0
  0
MTEXT
  5
202
330
1FB
100
AcDbEntity
  8
0
 62
   254
370
    13
100
AcDbMText
 10
408.8800029999999
 20
275.991327
 30
0.0
 40
3.5
 41
0.0
 71
     5
 72
     1
  1
\A1;19
  7
cesky
 11
0.0
 21
1.0
 31
0.0
 73
     1
 44
1.0
  0
POINT
  5
203
330
1FB
100
AcDbEntity
  8
Defpoints
 62
     0
100
AcDbPoint
 10
293.703832
 20
288.907994
 30
0.0
  0
POINT
  5
204
330
1FB
100
AcDbEntity
  8
Defpoints
 62
     0
100
AcDbPoint
 10
330.83929
 20
298.407994
 30
0.0
  0
POINT
  5
205
330
1FB
100
AcDbEntity
  8
Defpoints
 62
     0
100
AcDbPoint
 10
414.130003
 20
298.407994
 30
0.0
  0
ENDBLK
  5
1FD
330
1FB
100
AcDbEntity
  8
0
100
AcDbBlockEnd
  0
BLOCK
  5
20C
330
206
100
AcDbEntity
  8
0
100
AcDbBlockBegin
  2
_U0
 70
     0
 10
0.0
 20
0.0
 30
0.0
  3
_U0
  1

  0
ENDBLK
  5
20D
330
206
100
AcDbEntity
  8
0
100
AcDbBlockEnd
  0
BLOCK
  5
212
330
211
100
AcDbEntity
  8
0
100
AcDbBlockBegin
  2
*D4
 70
     1
 10
0.0
 20
0.0
 30
0.0
  3
*D4
  1

  0
LINE
  5
214
330
211
100
AcDbEntity
  8
0
 62
    95
370
    -2
100
AcDbLine
 10
220.404842
 20
301.407994
 30
0.0
 11
204.955296
 21
301.407994
 31
0.0
  0
LINE
  5
215
330
211
100
AcDbEntity
  8
0
 62
    95
370
    -2
100
AcDbLine
 10
220.404842
 20
276.407994
 30
0.0
 11
204.955296
 21
276.407994
 31
0.0
  0
LINE
  5
216
330
211
100
AcDbEntity
  8
0
 62
    95
370
    -2
100
AcDbLine
 10
205.955296
 20
297.907994
 30
0.0
 11
205.955296
 21
279.907994
 31
0.0
  0
SOLID
  5
217
330
211
100
AcDbEntity
  8
0
 62
    95
100
AcDbTrace
 10
206.53863
 20
297.907994
 30
0.0
 11
205.371963
 21
297.907994
 31
0.0
 12
205.955296
 22
301.407994
 32
0.0
 13
205.955296
 23
301.407994
 33
0.0
  0
SOLID
  5
218
330
211
100
AcDbEntity
  8
0
 62
    95
100
AcDbTrace
 10
205.371963
 20
279.907994
 30
0.0
 11
206.53863
 21
279.907994
 31
0.0
 12
205.955296
 22
276.407994
 32
0.0
 13
205.955296
 23
276.407994
 33
0.0
  0
MTEXT
  5
219
330
211
100
AcDbEntity
  8
0
 62
    95
370
    13
100
AcDbMText
 10
200.705296
 20
288.907994
 30
0.0
 40
3.5
 41
0.0
 71
     5
 72
     1
  1
\A1;25
  7
cesky
 11
0.0
 21
1.0
 31
0.0
 73
     1
 44
1.0
  0
POINT
  5
21A
330
211
100
AcDbEntity
  8
Defpoints
 62
     0
100
AcDbPoint
 10
220.404842
 20
301.407994
 30
0.0
  0
POINT
  5
21B
330
211
100
AcDbEntity
  8
Defpoints
 62
     0
100
AcDbPoint
 10
220.404842
 20
276.407994
 30
0.0
  0
POINT
  5
21C
330
211
100
AcDbEntity
  8
Defpoints
 62
     0
100
AcDbPoint
 10
205.955296
 20
276.407994
 30
0.0
  0
ENDBLK
  5
213
330
211
100
AcDbEntity
  8
0
100
AcDbBlockEnd
  0
BLOCK
  5
225
330
21D
100
AcDbEntity
  8
0
100
AcDbBlockBegin
  2
_U1
 70
     0
 10
0.0
 20
0.0
 30
0.0
  3
_U1
  1

  0
ENDBLK
  5
226
330
21D
100
AcDbEntity
  8
0
100
AcDbBlockEnd
  0
BLOCK
  5
22B
330
22A
100
AcDbEntity
  8
0
100
AcDbBlockBegin
  2
*D6
 70
     1
 10
0.0
 20
0.0
 30
0.0
  3
*D6
  1

  0
LINE
  5
22D
330
22A
100
AcDbEntity
  8
0
 62
    95
370
    -2
100
AcDbLine
 10
277.154842
 20
306.407994
 30
0.0
 11
189.143489
 21
306.407994
 31
0.0
  0
LINE
  5
22E
330
22A
100
AcDbEntity
  8
0
 62
    95
370
    -2
100
AcDbLine
 10
277.154842
 20
271.407994
 30
0.0
 11
189.143489
 21
271.407994
 31
0.0
  0
LINE
  5
22F
330
22A
100
AcDbEntity
  8
0
 62
    95
370
    -2
100
AcDbLine
 10
190.143489
 20
302.907994
 30
0.0
 11
190.143489
 21
274.907994
 31
0.0
  0
SOLID
  5
230
330
22A
100
AcDbEntity
  8
0
 62
    95
100
AcDbTrace
 10
190.726823
 20
302.907994
 30
0.0
 11
189.560156
 21
302.907994
 31
0.0
 12
190.143489
 22
306.407994
 32
0.0
 13
190.143489
 23
306.407994
 33
0.0
  0
SOLID
  5
231
330
22A
100
AcDbEntity
  8
0
 62
    95
100
AcDbTrace
 10
189.560156
 20
274.907994
 30
0.0
 11
190.726823
 21
274.907994
 31
0.0
 12
190.143489
 22
271.407994
 32
0.0
 13
190.143489
 23
271.407994
 33
0.0
  0
MTEXT
  5
232
330
22A
100
AcDbEntity
  8
0
 62
    95
370
    13
100
AcDbMText
 10
184.893489
 20
288.907994
 30
0.0
 40
3.5
 41
0.0
 71
     5
 72
     1
  1
\A1;35
  7
cesky
 11
0.0
 21
1.0
 31
0.0
 73
     1
 44
1.0
  0
POINT
  5
233
330
22A
100
AcDbEntity
  8
Defpoints
 62
     0
100
AcDbPoint
 10
277.154842
 20
306.407994
 30
0.0
  0
POINT
  5
234
330
22A
100
AcDbEntity
  8
Defpoints
 62
     0
100
AcDbPoint
 10
277.154842
 20
271.407994
 30
0.0
  0
POINT
  5
235
330
22A
100
AcDbEntity
  8
Defpoints
 62
     0
100
AcDbPoint
 10
190.143489
 20
271.407994
 30
0.0
  0
ENDBLK
  5
22C
330
22A
100
AcDbEntity
  8
0
100
AcDbBlockEnd
  0
BLOCK
  5
23E
330
236
100
AcDbEntity
  8
0
100
AcDbBlockBegin
  2
_U2
 70
     0
 10
0.0
 20
0.0
 30
0.0
  3
_U2
  1

  0
ENDBLK
  5
23F
330
236
100
AcDbEntity
  8
0
100
AcDbBlockEnd
  0
BLOCK
  5
244
330
243
100
AcDbEntity
  8
0
100
AcDbBlockBegin
  2
*D8
 70
     1
 10
0.0
 20
0.0
 30
0.0
  3
*D8
  1

  0
LINE
  5
246
330
243
100
AcDbEntity
  8
0
 62
   254
370
    -2
100
AcDbLine
 10
394.404842
 20
300.407994
 30
0.0
 11
394.404842
 21
344.155687
 31
0.0
  0
LINE
  5
247
330
243
100
AcDbEntity
  8
0
 62
   254
370
    -2
100
AcDbLine
 10
218.404842
 20
299.407994
 30
0.0
 11
218.404842
 21
344.155687
 31
0.0
  0
LINE
  5
248
330
243
100
AcDbEntity
  8
0
 62
   254
370
    -2
100
AcDbLine
 10
390.904842
 20
343.155687
 30
0.0
 11
221.904842
 21
343.155687
 31
0.0
  0
SOLID
  5
249
330
243
100
AcDbEntity
  8
0
 62
   254
100
AcDbTrace
 10
390.904842
 20
342.572354
 30
0.0
 11
390.904842
 21
343.739021
 31
0.0
 12
394.404842
 22
343.155687
 32
0.0
 13
394.404842
 23
343.155687
 33
0.0
  0
SOLID
  5
24A
330
243
100
AcDbEntity
  8
0
 62
   254
100
AcDbTrace
 10
221.904842
 20
343.739021
 30
0.0
 11
221.904842
 21
342.572354
 31
0.0
 12
218.404842
 22
343.155687
 32
0.0
 13
218.404842
 23
343.155687
 33
0.0
  0
MTEXT
  5
24B
330
243
100
AcDbEntity
  8
0
 62
   254
370
    13
100
AcDbMText
 10
306.404842
 20
348.405687
 30
0.0
 40
3.5
 41
0.0
 71
     5
 72
     1
  1
\A1;176
  7
cesky
 73
     1
 44
1.0
  0
POINT
  5
24C
330
243
100
AcDbEntity
  8
Defpoints
 62
     0
100
AcDbPoint
 10
394.404842
 20
300.407994
 30
0.0
  0
POINT
  5
24D
330
243
100
AcDbEntity
  8
Defpoints
 62
     0
100
AcDbPoint
 10
218.404842
 20
299.407994
 30
0.0
  0
POINT
  5
24E
330
243
100
AcDbEntity
  8
Defpoints
 62
     0
100
AcDbPoint
 10
218.404842
 20
343.155687
 30
0.0
  0
ENDBLK
  5
245
330
243
100
AcDbEntity
  8
0
100
AcDbBlockEnd
  0
BLOCK
  5
256
330
24F
100
AcDbEntity
  8
0
100
AcDbBlockBegin
  2
_U3
 70
     0
 10
0.0
 20
0.0
 30
0.0
  3
_U3
  1

  0
ENDBLK
  5
257
330
24F
100
AcDbEntity
  8
0
100
AcDbBlockEnd
  0
BLOCK
  5
25C
330
25B
100
AcDbEntity
  8
0
100
AcDbBlockBegin
  2
*D10
 70
     1
 10
0.0
 20
0.0
 30
0.0
  3
*D10
  1

  0
LINE
  5
25E
330
25B
100
AcDbEntity
  8
0
 62
   254
370
    -2
100
AcDbLine
 10
274.404842
 20
288.907994
 30
0.0
 11
274.404842
 21
330.17035
 31
0.0
  0
LINE
  5
25F
330
25B
100
AcDbEntity
  8
0
 62
   254
370
    -2
100
AcDbLine
 10
218.404842
 20
294.157994
 30
0.0
 11
218.404842
 21
330.17035
 31
0.0
  0
LINE
  5
260
330
25B
100
AcDbEntity
  8
0
 62
   254
370
    -2
100
AcDbLine
 10
270.904842
 20
329.17035
 30
0.0
 11
221.904842
 21
329.17035
 31
0.0
  0
SOLID
  5
261
330
25B
100
AcDbEntity
  8
0
 62
   254
100
AcDbTrace
 10
270.904842
 20
328.587017
 30
0.0
 11
270.904842
 21
329.753684
 31
0.0
 12
274.404842
 22
329.17035
 32
0.0
 13
274.404842
 23
329.17035
 33
0.0
  0
SOLID
  5
262
330
25B
100
AcDbEntity
  8
0
 62
   254
100
AcDbTrace
 10
221.904842
 20
329.753684
 30
0.0
 11
221.904842
 21
328.587017
 31
0.0
 12
218.404842
 22
329.17035
 32
0.0
 13
218.404842
 23
329.17035
 33
0.0
  0
MTEXT
  5
263
330
25B
100
AcDbEntity
  8
0
 62
   254
370
    13
100
AcDbMText
 10
246.404842
 20
334.42035
 30
0.0
 40
3.5
 41
0.0
 71
     5
 72
     1
  1
\A1;56
  7
cesky
 73
     1
 44
1.0
  0
POINT
  5
264
330
25B
100
AcDbEntity
  8
Defpoints
 62
     0
100
AcDbPoint
 10
274.404842
 20
288.907994
 30
0.0
  0
POINT
  5
265
330
25B
100
AcDbEntity
  8
Defpoints
 62
     0
100
AcDbPoint
 10
218.404842
 20
294.157994
 30
0.0
  0
POINT
  5
266
330
25B
100
AcDbEntity
  8
Defpoints
 62
     0
100
AcDbPoint
 10
218.404842
 20
329.17035
 30
0.0
  0
ENDBLK
  5
25D
330
25B
100
AcDbEntity
  8
0
100
AcDbBlockEnd
  0
BLOCK
  5
26E
330
267
100
AcDbEntity
  8
0
100
AcDbBlockBegin
  2
_U4
 70
     0
 10
0.0
 20
0.0
 30
0.0
  3
_U4
  1

  0
ENDBLK
  5
26F
330
267
100
AcDbEntity
  8
0
100
AcDbBlockEnd
  0
BLOCK
  5
274
330
273
100
AcDbEntity
  8
0
100
AcDbBlockBegin
  2
*D12
 70
     1
 10
0.0
 20
0.0
 30
0.0
  3
*D12
  1

  0
LINE
  5
276
330
273
100
AcDbEntity
  8
0
 62
   254
370
    -2
100
AcDbLine
 10
394.404842
 20
298.407994
 30
0.0
 11
394.404842
 21
315.595905
 31
0.0
  0
LINE
  5
277
330
273
100
AcDbEntity
  8
0
 62
   254
370
    -2
100
AcDbLine
 10
293.930613
 20
297.93605
 30
0.0
 11
293.930613
 21
315.595905
 31
0.0
  0
LINE
  5
278
330
273
100
AcDbEntity
  8
0
 62
   254
370
    -2
100
AcDbLine
 10
390.904842
 20
314.595905
 30
0.0
 11
297.430613
 21
314.595905
 31
0.0
  0
SOLID
  5
279
330
273
100
AcDbEntity
  8
0
 62
   254
100
AcDbTrace
 10
390.904842
 20
314.012571
 30
0.0
 11
390.904842
 21
315.179238
 31
0.0
 12
394.404842
 22
314.595905
 32
0.0
 13
394.404842
 23
314.595905
 33
0.0
  0
SOLID
  5
27A
330
273
100
AcDbEntity
  8
0
 62
   254
100
AcDbTrace
 10
297.430613
 20
315.179238
 30
0.0
 11
297.430613
 21
314.012571
 31
0.0
 12
293.930613
 22
314.595905
 32
0.0
 13
293.930613
 23
314.595905
 33
0.0
  0
MTEXT
  5
27B
330
273
100
AcDbEntity
  8
0
 62
   254
370
    13
100
AcDbMText
 10
344.167727
 20
319.845905
 30
0.0
 40
3.5
 41
0.0
 71
     5
 72
     1
  1
\A1;100.5
  7
cesky
 73
     1
 44
1.0
  0
POINT
  5
27C
330
273
100
AcDbEntity
  8
Defpoints
 62
     0
100
AcDbPoint
 10
394.404842
 20
298.407994
 30
0.0
  0
POINT
  5
27D
330
273
100
AcDbEntity
  8
Defpoints
 62
     0
100
AcDbPoint
 10
293.930613
 20
297.93605
 30
0.0
  0
POINT
  5
27E
330
273
100
AcDbEntity
  8
Defpoints
 62
     0
100
AcDbPoint
 10
293.930613
 20
314.595905
 30
0.0
  0
ENDBLK
  5
275
330
273
100
AcDbEntity
  8
0
100
AcDbBlockEnd
  0
BLOCK
  5
286
330
27F
100
AcDbEntity
  8
0
100
AcDbBlockBegin
  2
_U5
 70
     0
 10
0.0
 20
0.0
 30
0.0
  3
_U5
  1

  0
ENDBLK
  5
287
330
27F
100
AcDbEntity
  8
0
100
AcDbBlockEnd
  0
BLOCK
  5
28C
330
28B
100
AcDbEntity
  8
0
100
AcDbBlockBegin
  2
*D14
 70
     1
 10
0.0
 20
0.0
 30
0.0
  3
*D14
  1

  0
LINE
  5
28E
330
28B
100
AcDbEntity
  8
0
 62
   254
370
    -2
100
AcDbLine
 10
394.404842
 20
298.407994
 30
0.0
 11
394.404842
 21
330.17035
 31
0.0
  0
LINE
  5
28F
330
28B
100
AcDbEntity
  8
0
 62
   254
370
    -2
100
AcDbLine
 10
274.404842
 20
288.907994
 30
0.0
 11
274.404842
 21
330.17035
 31
0.0
  0
LINE
  5
290
330
28B
100
AcDbEntity
  8
0
 62
   254
370
    -2
100
AcDbLine
 10
390.904842
 20
329.17035
 30
0.0
 11
277.904842
 21
329.17035
 31
0.0
  0
SOLID
  5
291
330
28B
100
AcDbEntity
  8
0
 62
   254
100
AcDbTrace
 10
390.904842
 20
328.587017
 30
0.0
 11
390.904842
 21
329.753684
 31
0.0
 12
394.404842
 22
329.17035
 32
0.0
 13
394.404842
 23
329.17035
 33
0.0
  0
SOLID
  5
292
330
28B
100
AcDbEntity
  8
0
 62
   254
100
AcDbTrace
 10
277.904842
 20
329.753684
 30
0.0
 11
277.904842
 21
328.587017
 31
0.0
 12
274.404842
 22
329.17035
 32
0.0
 13
274.404842
 23
329.17035
 33
0.0
  0
MTEXT
  5
293
330
28B
100
AcDbEntity
  8
0
 62
   254
370
    13
100
AcDbMText
 10
334.404842
 20
334.42035
 30
0.0
 40
3.5
 41
0.0
 71
     5
 72
     1
  1
\A1;120
  7
cesky
 73
     1
 44
1.0
  0
POINT
  5
294
330
28B
100
AcDbEntity
  8
Defpoints
 62
     0
100
AcDbPoint
 10
394.404842
 20
298.407994
 30
0.0
  0
POINT
  5
295
330
28B
100
AcDbEntity
  8
Defpoints
 62
     0
100
AcDbPoint
 10
274.404842
 20
288.907994
 30
0.0
  0
POINT
  5
296
330
28B
100
AcDbEntity
  8
Defpoints
 62
     0
100
AcDbPoint
 10
274.404842
 20
329.17035
 30
0.0
  0
ENDBLK
  5
28D
330
28B
100
AcDbEntity
  8
0
100
AcDbBlockEnd
  0
BLOCK
  5
29E
330
297
100
AcDbEntity
  8
0
100
AcDbBlockBegin
  2
_U6
 70
     0
 10
0.0
 20
0.0
 30
0.0
  3
_U6
  1

  0
ENDBLK
  5
29F
330
297
100
AcDbEntity
  8
0
100
AcDbBlockEnd
  0
ENDSEC
  0
SECTION
  2
ENTITIES
  0
POINT
  5
73
102
{ACAD_REACTORS
330
348
102
}
330
1F
100
AcDbEntity
  8
80
100
AcDbPoint
 10
274.404842
 20
288.907994
 30
0.0
  0
POINT
  5
76
330
1F
100
AcDbEntity
  8
4
 60
     1
100
AcDbPoint
 10
293.703832
 20
288.907994
 30
0.0
  0
POINT
  5
78
330
1F
100
AcDbEntity
  8
4
 60
     1
100
AcDbPoint
 10
394.073506
 20
288.907994
 30
0.0
  0
POINT
  5
79
330
1F
100
AcDbEntity
  8
SK4
 60
     1
100
AcDbPoint
 10
220.404842
 20
288.907994
 30
0.0
  0
POINT
  5
7A
330
1F
100
AcDbEntity
  8
SK4
 60
     1
100
AcDbPoint
 10
274.404842
 20
288.907994
 30
0.0
  0
POINT
  5
7B
330
1F
100
AcDbEntity
  8
SK6
 60
     1
100
AcDbPoint
 10
274.404842
 20
288.907994
 30
0.0
  0
POINT
  5
7C
330
1F
100
AcDbEntity
  8
SK6
 60
     1
100
AcDbPoint
 10
293.930613
 20
297.93605
 30
0.0
  0
LINE
  5
7D
330
1F
100
AcDbEntity
  8
1
100
AcDbLine
 10
287.904842
 20
297.665404
 30
0.0
 11
287.904842
 21
286.658449
 31
0.0
  0
LINE
  5
7F
330
1F
100
AcDbEntity
  8
1
100
AcDbLine
 10
388.425106
 20
297.791961
 30
0.0
 11
388.423946
 21
297.8186990000001
 31
0.0
  0
LINE
  5
80
330
1F
100
AcDbEntity
  8
1
100
AcDbLine
 10
393.537084
 20
292.039991
 30
0.0
 11
389.494097
 21
291.863792
 31
0.0
  0
LINE
  5
81
330
1F
100
AcDbEntity
  8
1
100
AcDbLine
 10
393.537084
 20
292.039991
 30
0.0
 11
392.557668
 21
290.408085
 31
0.0
  0
LINE
  5
82
330
1F
100
AcDbEntity
  8
1
100
AcDbLine
 10
393.345495
 20
283.272397
 30
0.0
 11
393.237486
 21
283.274126
 31
0.0
  0
LINE
  5
83
330
1F
100
AcDbEntity
  8
1
100
AcDbLine
 10
393.227186
 20
283.574329
 30
0.0
 11
393.456301
 21
285.732994
 31
0.0
  0
LINE
  5
84
330
1F
100
AcDbEntity
  8
1
100
AcDbLine
 10
393.456301
 20
285.732994
 30
0.0
 11
393.456301
 21
288.962739
 31
0.0
  0
LINE
  5
85
330
1F
100
AcDbEntity
  8
1
100
AcDbLine
 10
393.498463
 20
289.262049
 30
0.0
 11
393.606656
 21
289.26016
 31
0.0
  0
LINE
  5
86
330
1F
100
AcDbEntity
  8
1
100
AcDbLine
 10
393.537084
 20
292.039991
 30
0.0
 11
393.553476
 21
292.048062
 31
0.0
  0
LINE
  5
87
330
1F
100
AcDbEntity
  8
1
100
AcDbLine
 10
393.661488
 20
292.5397249999999
 30
0.0
 11
389.99812
 21
292.3800700000001
 31
0.0
  0
LINE
  5
88
330
1F
100
AcDbEntity
  8
1
100
AcDbLine
 10
389.99282
 20
292.360757
 30
0.0
 11
389.99812
 21
292.3800700000001
 31
0.0
  0
LINE
  5
89
330
1F
100
AcDbEntity
  8
1
100
AcDbLine
 10
393.606656
 20
289.26016
 30
0.0
 11
393.76268
 21
289.47159
 31
0.0
  0
LINE
  5
8A
330
1F
100
AcDbEntity
  8
1
100
AcDbLine
 10
393.76268
 20
289.7102
 30
0.0
 11
393.76268
 21
289.47159
 31
0.0
  0
LINE
  5
8B
330
1F
100
AcDbEntity
  8
1
100
AcDbLine
 10
393.76268
 20
289.7102
 30
0.0
 11
393.804842
 21
289.709464
 31
0.0
  0
LINE
  5
8C
330
1F
100
AcDbEntity
  8
1
100
AcDbLine
 10
283.804337
 20
302.008499
 30
0.0
 11
279.404842
 21
306.407994
 31
0.0
  0
LINE
  5
8D
330
1F
100
AcDbEntity
  8
SK1
100
AcDbLine
 10
218.404842
 20
278.407994
 30
0.0
 11
220.404842
 21
276.407994
 31
0.0
  0
LINE
  5
8E
330
1F
100
AcDbEntity
  8
SK1
100
AcDbLine
 10
220.404842
 20
301.407994
 30
0.0
 11
218.404842
 21
299.407994
 31
0.0
  0
LINE
  5
8F
330
1F
100
AcDbEntity
  8
SK1
100
AcDbLine
 10
274.404842
 20
301.407994
 30
0.0
 11
220.404842
 21
301.407994
 31
0.0
  0
LINE
  5
90
330
1F
100
AcDbEntity
  8
1
100
AcDbLine
 10
274.904842
 20
271.407994
 30
0.0
 11
274.404842
 21
271.907994
 31
0.0
  0
LINE
  5
91
330
1F
100
AcDbEntity
  8
1
100
AcDbLine
 10
274.404842
 20
305.907994
 30
0.0
 11
274.904842
 21
306.407994
 31
0.0
  0
LINE
  5
92
330
1F
100
AcDbEntity
  8
1
100
AcDbLine
 10
279.404842
 20
306.407994
 30
0.0
 11
274.904842
 21
306.407994
 31
0.0
  0
LINE
  5
96
330
1F
100
AcDbEntity
  8
80
100
AcDbLine
 10
275.404416
 20
288.907994
 30
0.0
 11
273.405268
 21
288.907994
 31
0.0
  0
LINE
  5
97
330
1F
100
AcDbEntity
  8
1
100
AcDbLine
 10
392.621296
 20
285.732994
 30
0.0
 11
392.90019
 21
285.732994
 31
0.0
  0
LINE
  5
98
330
1F
100
AcDbEntity
  8
1
100
AcDbLine
 10
279.404842
 20
306.407994
 30
0.0
 11
279.404842
 21
278.892572
 31
0.0
  0
LINE
  5
99
330
1F
100
AcDbEntity
  8
1
100
AcDbLine
 10
279.404842
 20
271.407994
 30
0.0
 11
279.404842
 21
273.91809
 31
0.0
  0
LINE
  5
9B
330
1F
100
AcDbEntity
  8
1
100
AcDbLine
 10
393.952041
 20
297.903444
 30
0.0
 11
394.16591
 21
293.135456
 31
0.0
  0
LINE
  5
9D
330
1F
100
AcDbEntity
  8
1
100
AcDbLine
 10
388.7716
 20
298.064181
 30
0.0
 11
393.548281
 21
298.272356
 31
0.0
  0
LINE
  5
9E
330
1F
100
AcDbEntity
  8
1
100
AcDbLine
 10
388.616314
 20
292.893597
 30
0.0
 11
388.402446
 21
297.661585
 31
0.0
  0
LINE
  5
9F
330
1F
100
AcDbEntity
  8
1
100
AcDbLine
 10
393.796755
 20
292.73286
 30
0.0
 11
389.020074
 21
292.524685
 31
0.0
  0
LINE
  5
A0
330
1F
100
AcDbEntity
  8
1
100
AcDbLine
 10
389.51643
 20
293.463952
 30
0.0
 11
389.35096
 21
297.152961
 31
0.0
  0
LINE
  5
A1
330
1F
100
AcDbEntity
  8
1
100
AcDbLine
 10
393.212165
 20
293.625018
 30
0.0
 11
389.51643
 21
293.463952
 31
0.0
  0
LINE
  5
A2
330
1F
100
AcDbEntity
  8
1
100
AcDbLine
 10
393.046695
 20
297.314027
 30
0.0
 11
393.212165
 21
293.625018
 31
0.0
  0
LINE
  5
A3
330
1F
100
AcDbEntity
  8
1
100
AcDbLine
 10
389.35096
 20
297.152961
 30
0.0
 11
393.046695
 21
297.314027
 31
0.0
  0
LINE
  5
A4
330
1F
100
AcDbEntity
  8
1
100
AcDbLine
 10
390.694386
 20
295.974412
 30
0.0
 11
390.713801
 21
296.045164
 31
0.0
  0
LINE
  5
A6
330
1F
100
AcDbEntity
  8
1
100
AcDbLine
 10
391.941872
 20
295.7822680000001
 30
0.0
 11
391.922495
 21
295.711656
 31
0.0
  0
LINE
  5
A7
330
1F
100
AcDbEntity
  8
1
100
AcDbLine
 10
390.697421
 20
295.994544
 30
0.0
 11
390.716734
 21
296.064926
 31
0.0
  0
LINE
  5
A8
330
1F
100
AcDbEntity
  8
1
100
AcDbLine
 10
390.233432
 20
295.303985
 30
0.0
 11
390.214692
 21
295.23569
 31
0.0
  0
LINE
  5
A9
330
1F
100
AcDbEntity
  8
1
100
AcDbLine
 10
390.304749
 20
295.29214
 30
0.0
 11
390.285566
 21
295.222232
 31
0.0
  0
LINE
  5
AA
330
1F
100
AcDbEntity
  8
1
100
AcDbLine
 10
392.047915
 20
294.831255
 30
0.0
 11
392.066637
 21
294.899479
 31
0.0
  0
LINE
  5
AB
330
1F
100
AcDbEntity
  8
1
100
AcDbLine
 10
391.9733779999999
 20
294.84878
 30
0.0
 11
391.992572
 21
294.918725
 31
0.0
  0
LINE
  5
AC
330
1F
100
AcDbEntity
  8
1
100
AcDbLine
 10
390.776795
 20
294.521735
 30
0.0
 11
390.757749
 21
294.452327
 31
0.0
  0
LINE
  5
AD
330
1F
100
AcDbEntity
  8
1
100
AcDbLine
 10
391.220893
 20
294.356186
 30
0.0
 11
391.239985
 21
294.425757
 31
0.0
  0
LINE
  5
AE
330
1F
100
AcDbEntity
  8
1
100
AcDbLine
 10
389.725863
 20
295.726201
 30
0.0
 11
389.71288
 21
295.678888
 31
0.0
  0
LINE
  5
AF
330
1F
100
AcDbEntity
  8
1
100
AcDbLine
 10
392.654149
 20
294.871772
 30
0.0
 11
392.667132
 21
294.919084
 31
0.0
  0
LINE
  5
B0
330
1F
100
AcDbEntity
  8
1
100
AcDbLine
 10
390.460398
 20
294.89853
 30
0.0
 11
390.458488
 21
294.889861
 31
0.0
  0
LINE
  5
B1
330
1F
100
AcDbEntity
  8
1
100
AcDbLine
 10
390.439115
 20
294.819258
 30
0.0
 11
390.458492
 21
294.889869
 31
0.0
  0
LINE
  5
B2
330
1F
100
AcDbEntity
  8
1
100
AcDbLine
 10
391.689986
 20
294.457595
 30
0.0
 11
391.683922
 21
294.450942
 31
0.0
  0
LINE
  5
B3
330
1F
100
AcDbEntity
  8
1
100
AcDbLine
 10
391.667225
 20
294.556502
 30
0.0
 11
391.68664
 21
294.627253
 31
0.0
  0
LINE
  5
B4
330
1F
100
AcDbEntity
  8
1
100
AcDbLine
 10
393.385166
 20
284.543518
 30
0.0
 11
393.396015
 21
285.165023
 31
0.0
  0
LINE
  5
B5
330
1F
100
AcDbEntity
  8
1
100
AcDbLine
 10
393.965845
 20
284.377011
 30
0.0
 11
393.385166
 21
284.543518
 31
0.0
  0
LINE
  5
B6
330
1F
100
AcDbEntity
  8
1
100
AcDbLine
 10
394.033869
 20
288.27408
 30
0.0
 11
393.965845
 21
284.377011
 31
0.0
  0
LINE
  5
B7
330
1F
100
AcDbEntity
  8
1
100
AcDbLine
 10
394.033869
 20
288.27408
 30
0.0
 11
393.456305
 21
288.130077
 31
0.0
  0
LINE
  5
B8
330
1F
100
AcDbEntity
  8
1
100
AcDbLine
 10
393.723078
 20
288.834761
 30
0.0
 11
394.033869
 21
288.27408
 31
0.0
  0
LINE
  5
B9
330
1F
100
AcDbEntity
  8
1
100
AcDbLine
 10
393.723078
 20
288.834761
 30
0.0
 11
393.456305
 21
288.577141
 31
0.0
  0
LINE
  5
BA
330
1F
100
AcDbEntity
  8
1
100
AcDbLine
 10
393.456547
 20
288.994909
 30
0.0
 11
393.723078
 21
288.834761
 31
0.0
  0
LINE
  5
BB
330
1F
100
AcDbEntity
  8
1
100
AcDbLine
 10
393.618968
 20
292.518789
 30
0.0
 11
389.99282
 21
292.360757
 31
0.0
  0
LINE
  5
BC
330
1F
100
AcDbEntity
  8
1
100
AcDbLine
 10
388.485333
 20
297.907994
 30
0.0
 11
374.858004
 21
297.907994
 31
0.0
  0
LINE
  5
BD
330
1F
100
AcDbEntity
  8
1
100
AcDbLine
 10
393.915211
 20
283.57604
 30
0.0
 11
393.35108
 21
283.263337
 31
0.0
  0
LINE
  5
BE
330
1F
100
AcDbEntity
  8
1
100
AcDbLine
 10
393.997974
 20
289.100225
 30
0.0
 11
394.404667
 21
288.36653
 31
0.0
  0
LINE
  5
BF
330
1F
100
AcDbEntity
  8
1
100
AcDbLine
 10
393.723078
 20
288.834761
 30
0.0
 11
393.997974
 21
289.100225
 31
0.0
  0
LINE
  5
C0
330
1F
100
AcDbEntity
  8
1
100
AcDbLine
 10
393.645102
 20
289.312252
 30
0.0
 11
393.997974
 21
289.100225
 31
0.0
  0
LINE
  5
C1
330
1F
100
AcDbEntity
  8
1
100
AcDbLine
 10
393.649747
 20
283.850936
 30
0.0
 11
393.915211
 21
283.57604
 31
0.0
  0
LINE
  5
C2
330
1F
100
AcDbEntity
  8
1
100
AcDbLine
 10
394.333191
 20
284.271676
 30
0.0
 11
393.915211
 21
283.57604
 31
0.0
  0
LINE
  5
C3
330
1F
100
AcDbEntity
  8
1
100
AcDbLine
 10
394.033869
 20
288.27408
 30
0.0
 11
394.404667
 21
288.36653
 31
0.0
  0
LINE
  5
C4
330
1F
100
AcDbEntity
  8
1
100
AcDbLine
 10
393.965845
 20
284.377011
 30
0.0
 11
394.333191
 21
284.271676
 31
0.0
  0
LINE
  5
C5
330
1F
100
AcDbEntity
  8
1
100
AcDbLine
 10
394.404667
 20
288.36653
 30
0.0
 11
394.333191
 21
284.271676
 31
0.0
  0
LINE
  5
C6
330
1F
100
AcDbEntity
  8
1
100
AcDbLine
 10
393.318229
 20
284.432116
 30
0.0
 11
393.385166
 21
284.543518
 31
0.0
  0
LINE
  5
C7
330
1F
100
AcDbEntity
  8
1
100
AcDbLine
 10
393.965845
 20
284.377011
 30
0.0
 11
393.649747
 21
283.850936
 31
0.0
  0
LINE
  5
C8
330
1F
100
AcDbEntity
  8
1
100
AcDbLine
 10
393.649747
 20
283.850936
 30
0.0
 11
393.295482
 21
284.217789
 31
0.0
  0
LINE
  5
C9
330
1F
100
AcDbEntity
  8
1
100
AcDbLine
 10
393.649747
 20
283.850936
 30
0.0
 11
393.2319700000001
 21
283.619358
 31
0.0
  0
LINE
  5
CA
330
1F
100
AcDbEntity
  8
81
100
AcDbLine
 10
392.404842
 20
298.407994
 30
0.0
 11
396.404842
 21
298.407994
 31
0.0
  0
LINE
  5
CB
330
1F
100
AcDbEntity
  8
81
100
AcDbLine
 10
394.404842
 20
300.407994
 30
0.0
 11
394.404842
 21
296.407994
 31
0.0
  0
LINE
  5
CC
330
1F
100
AcDbEntity
  8
SK1
100
AcDbLine
 10
220.404842
 20
276.407994
 30
0.0
 11
274.404842
 21
276.407994
 31
0.0
  0
LINE
  5
CD
330
1F
100
AcDbEntity
  8
80
100
AcDbLine
 10
274.404842
 20
287.90842
 30
0.0
 11
274.404842
 21
289.907567
 31
0.0
  0
LINE
  5
CE
330
1F
100
AcDbEntity
  8
1
100
AcDbLine
 10
274.904842
 20
271.407994
 30
0.0
 11
279.404842
 21
271.407994
 31
0.0
  0
LINE
  5
CF
330
1F
100
AcDbEntity
  8
1
100
AcDbLine
 10
393.804842
 20
292.734568
 30
0.0
 11
393.804842
 21
289.709464
 31
0.0
  0
LINE
  5
D0
330
1F
100
AcDbEntity
  8
1
100
AcDbLine
 10
393.661488
 20
292.5397249999999
 30
0.0
 11
393.659818
 21
292.726891
 31
0.0
  0
LINE
  5
D1
330
1F
100
AcDbEntity
  8
1
100
AcDbLine
 10
393.661488
 20
292.5397249999999
 30
0.0
 11
393.618968
 21
292.518789
 31
0.0
  0
LINE
  5
D2
330
1F
100
AcDbEntity
  8
1
100
AcDbLine
 10
393.186593
 20
279.907994
 30
0.0
 11
393.495373
 21
282.817247
 31
0.0
  0
LINE
  5
D3
330
1F
100
AcDbEntity
  8
1
100
AcDbLine
 10
393.495373
 20
282.817247
 30
0.0
 11
393.453282
 21
282.81792
 31
0.0
  0
LINE
  5
D4
330
1F
100
AcDbEntity
  8
1
100
AcDbLine
 10
393.478564
 20
283.056121
 30
0.0
 11
393.453282
 21
282.81792
 31
0.0
  0
LINE
  5
D5
330
1F
100
AcDbEntity
  8
1
100
AcDbLine
 10
393.478564
 20
283.056121
 30
0.0
 11
393.345495
 21
283.272397
 31
0.0
  0
LINE
  5
D6
330
1F
100
AcDbEntity
  8
1
100
AcDbLine
 10
393.22555
 20
285.732994
 30
0.0
 11
393.456301
 21
285.732994
 31
0.0
  0
LINE
  5
D7
330
1F
100
AcDbEntity
  8
SK1
100
AcDbLine
 10
220.404842
 20
301.407994
 30
0.0
 11
220.404842
 21
276.407994
 31
0.0
  0
LINE
  5
D8
330
1F
100
AcDbEntity
  8
SK1
100
AcDbLine
 10
218.404842
 20
299.407994
 30
0.0
 11
218.404842
 21
278.407994
 31
0.0
  0
LINE
  5
D9
330
1F
100
AcDbEntity
  8
1
100
AcDbLine
 10
388.371476
 20
293.856176
 30
0.0
 11
388.366245
 21
293.837114
 31
0.0
  0
LINE
  5
DA
330
1F
100
AcDbEntity
  8
1
100
AcDbLine
 10
388.371476
 20
293.856176
 30
0.0
 11
388.199495
 21
297.81925
 31
0.0
  0
LINE
  5
DB
330
1F
100
AcDbEntity
  8
1
100
AcDbLine
 10
388.195485
 20
297.772055
 30
0.0
 11
388.366245
 21
293.837114
 31
0.0
  0
LINE
  5
DC
330
1F
100
AcDbEntity
  8
1
100
AcDbLine
 10
393.186593
 20
279.907994
 30
0.0
 11
375.792736
 21
279.907994
 31
0.0
  0
LINE
  5
DD
330
1F
100
AcDbEntity
  8
1
100
AcDbLine
 10
274.904842
 20
271.407994
 30
0.0
 11
274.904842
 21
288.907994
 31
0.0
  0
LINE
  5
DE
330
1F
100
AcDbEntity
  8
1
100
AcDbLine
 10
274.904842
 20
288.907994
 30
0.0
 11
274.904842
 21
306.407994
 31
0.0
  0
LINE
  5
DF
330
1F
100
AcDbEntity
  8
1
100
AcDbLine
 10
279.404842
 20
271.407994
 30
0.0
 11
283.804337
 21
275.807488
 31
0.0
  0
LINE
  5
E0
330
1F
100
AcDbEntity
  8
1
100
AcDbLine
 10
274.404842
 20
305.907994
 30
0.0
 11
274.404842
 21
288.907994
 31
0.0
  0
LINE
  5
E1
330
1F
100
AcDbEntity
  8
1
100
AcDbLine
 10
274.404842
 20
288.907994
 30
0.0
 11
274.404842
 21
271.907994
 31
0.0
  0
LINE
  5
123
330
1F
100
AcDbEntity
  8
NOCUT
100
AcDbLine
 10
274.404842
 20
301.407994
 30
0.0
 11
220.404842
 21
301.407994
 31
0.0
  0
LINE
  5
124
330
1F
100
AcDbEntity
  8
NOCUT
100
AcDbLine
 10
274.404842
 20
301.407994
 30
0.0
 11
274.404842
 21
305.907994
 31
0.0
  0
LINE
  5
125
330
1F
100
AcDbEntity
  8
NOCUT
100
AcDbLine
 10
274.404842
 20
305.907994
 30
0.0
 11
274.904842
 21
306.407994
 31
0.0
  0
LINE
  5
126
330
1F
100
AcDbEntity
  8
NOCUT
100
AcDbLine
 10
279.404842
 20
306.407994
 30
0.0
 11
283.804337
 21
302.008499
 31
0.0
  0
LINE
  5
127
330
1F
100
AcDbEntity
  8
NOCUT
100
AcDbLine
 10
293.703832
 20
297.907994
 30
0.0
 11
393.587585
 21
297.907994
 31
0.0
  0
LINE
  5
128
330
1F
100
AcDbEntity
  8
NOCUT
100
AcDbLine
 10
393.587585
 20
297.907994
 30
0.0
 11
393.804842
 21
292.970999
 31
0.0
  0
LINE
  5
129
330
1F
100
AcDbEntity
  8
NOCUT
100
AcDbLine
 10
393.804842
 20
292.970999
 30
0.0
 11
393.804842
 21
288.907994
 31
0.0
  0
LINE
  5
12A
330
1F
100
AcDbEntity
  8
NOCUT
100
AcDbLine
 10
393.804842
 20
288.907994
 30
0.0
 11
218.404842
 21
288.907994
 31
0.0
  0
LINE
  5
12B
330
1F
100
AcDbEntity
  8
NOCUT
100
AcDbLine
 10
218.404842
 20
299.407994
 30
0.0
 11
218.404842
 21
288.907994
 31
0.0
  0
LINE
  5
12C
330
1F
100
AcDbEntity
  8
NOCUT
100
AcDbLine
 10
218.404842
 20
299.407994
 30
0.0
 11
220.404842
 21
301.407994
 31
0.0
  0
LINE
  5
12D
330
1F
100
AcDbEntity
  8
NOCUT
100
AcDbLine
 10
279.404842
 20
306.407994
 30
0.0
 11
274.904842
 21
306.407994
 31
0.0
  0
ARC
  5
136
330
1F
100
AcDbEntity
  8
1
100
AcDbCircle
 10
391.096261
 20
286.481244
 30
0.0
 40
1.1
100
AcDbArc
 50
75.0
 51
345.0
  0
CIRCLE
  5
137
330
1F
100
AcDbEntity
  8
1
100
AcDbCircle
 10
391.096261
 20
286.481244
 30
0.0
 40
0.7000000000000009
  0
ARC
  5
138
330
1F
100
AcDbEntity
  8
1
100
AcDbCircle
 10
293.703832
 20
265.907994
 30
0.0
 40
14.0
100
AcDbArc
 50
100.674242
 51
135.0
  0
ARC
  5
139
330
1F
100
AcDbEntity
  8
1
100
AcDbCircle
 10
293.703832
 20
311.907994
 30
0.0
 40
14.0
100
AcDbArc
 50
225.0
 51
253.50407
  0
ARC
  5
148
330
1F
100
AcDbEntity
  8
NOCUT
100
AcDbCircle
 10
293.703832
 20
311.907994
 30
0.0
 40
14.0
100
AcDbArc
 50
225.0
 51
270.0
  0
ELLIPSE
  5
149
330
1F
100
AcDbEntity
  8
1
100
AcDbEllipse
 10
319.548102
 20
288.907993
 30
0.0
 11
191.5442729295115
 21
8.776911366460847
 31
0.0
210
0.0
220
0.0
230
1.0
 40
0.010397
 41
5.086034868780004
 42
5.102966337106754
  0
ELLIPSE
  5
14A
330
1F
100
AcDbEntity
  8
1
100
AcDbEllipse
 10
393.269277
 20
283.573655
 30
0.0
 11
0.0323262014608665
 21
0.2994966855038391
 31
0.0
210
0.0
220
0.0
230
1.0
 40
0.139171
 41
1.583568179242604
 42
3.154364506043301
  0
ELLIPSE
  5
14B
330
1F
100
AcDbEntity
  8
1
100
AcDbEllipse
 10
393.498463
 20
288.962003
 30
0.0
 11
0.0001054973293668
 21
-0.3000466005998635
 31
0.0
210
0.0
220
0.0
230
0.9999999999999998
 40
0.140519
 41
3.139090475969682
 42
4.709886802763049
  0
ELLIPSE
  5
14C
330
1F
100
AcDbEntity
  8
1
100
AcDbEllipse
 10
312.78924
 20
288.907994
 30
0.0
 11
42.33115163736484
 21
-5.818375458823736
 31
0.0
210
0.0
220
0.0
230
0.9999999999999998
 40
0.162205
 41
4.267077517090848
 42
4.400939338297272
  0
ELLIPSE
  5
14D
330
1F
100
AcDbEntity
  8
1
100
AcDbEllipse
 10
389.149809
 20
293.079702
 30
0.0
 11
-1.060785514030279
 21
0.2910912111753228
 31
0.0
210
0.0
220
0.0
230
1.0
 40
0.9978269999999998
 41
2.718955385789528
 42
2.930079961731069
  0
ELLIPSE
  5
14E
330
1F
100
AcDbEntity
  8
1
100
AcDbEllipse
 10
391.293767
 20
295.433467
 30
0.0
 11
1.54459922123492
 21
-0.4238550132358629
 31
0.0
210
0.0
220
0.0
230
1.0
 40
0.997827
 41
2.224844408222397
 42
3.265693403316227
  0
ELLIPSE
  5
14F
330
1F
100
AcDbEntity
  8
1
100
AcDbEllipse
 10
391.293767
 20
295.433467
 30
0.0
 11
1.54459922123492
 21
-0.4238550132358629
 31
0.0
210
0.0
220
0.0
230
1.0
 40
0.997827
 41
5.478356421100787
 42
6.283185307179585
  0
ELLIPSE
  5
150
330
1F
100
AcDbEntity
  8
1
100
AcDbEllipse
 10
391.293767
 20
295.433467
 30
0.0
 11
1.54459922123492
 21
-0.4238550132358629
 31
0.0
210
0.0
220
0.0
230
1.0
 40
0.997827
 41
0.0
 42
0.9167640769397447
  0
ELLIPSE
  5
151
330
1F
100
AcDbEntity
  8
1
100
AcDbEllipse
 10
389.060122
 20
292.937367
 30
0.0
 11
0.7632216829634187
 21
0.8338409725637689
 31
0.0
210
0.0
220
0.0
230
1.0
 40
0.021277
 41
0.9069138762546138
 42
1.529282364195809
  0
ELLIPSE
  5
152
330
1F
100
AcDbEntity
  8
1
100
AcDbEllipse
 10
391.284439
 20
295.399474
 30
0.0
 11
1.571637835781267
 21
-0.4312747064280287
 31
0.0
210
0.0
220
0.0
230
1.0
 40
0.997827
 41
1.882803588244629
 42
3.477652611534006
  0
ELLIPSE
  5
153
330
1F
100
AcDbEntity
  8
1
100
AcDbEllipse
 10
391.284439
 20
295.399474
 30
0.0
 11
1.571637835781267
 21
-0.4312747064280287
 31
0.0
210
0.0
220
0.0
230
1.0
 40
0.997827
 41
5.119135137676748
 42
6.283185307179585
  0
ELLIPSE
  5
154
330
1F
100
AcDbEntity
  8
1
100
AcDbEllipse
 10
391.284439
 20
295.399474
 30
0.0
 11
1.571637835781267
 21
-0.4312747064280287
 31
0.0
210
0.0
220
0.0
230
1.0
 40
0.997827
 41
0.0
 42
1.882804025753219
  0
ELLIPSE
  5
155
330
1F
100
AcDbEntity
  8
1
100
AcDbEllipse
 10
391.281562
 20
295.38899
 30
0.0
 11
-1.663504556092938
 21
0.4564839447976656
 31
0.0
210
0.0
220
0.0
230
1.0
 40
0.997827
 41
0.0
 42
6.283185307179585
  0
ELLIPSE
  5
156
330
1F
100
AcDbEntity
  8
1
100
AcDbEllipse
 10
393.68752
 20
293.139035
 30
0.0
 11
0.8343704908250821
 21
-0.763706355529899
 31
0.0
210
0.0
220
0.0
230
1.0
 40
0.041485
 41
1.592043364094748
 42
2.214411852514497
  0
ELLIPSE
  5
157
330
1F
100
AcDbEntity
  8
1
100
AcDbEllipse
 10
388.852938
 20
297.556343
 30
0.0
 11
0.8343704907221191
 21
-0.7637063554223284
 31
0.0
210
0.0
220
0.0
230
1.0
 40
0.041485
 41
0.9696748753857338
 42
1.592043363879595
  0
ELLIPSE
  5
158
330
1F
100
AcDbEntity
  8
1
100
AcDbEllipse
 10
393.480336
 20
297.758012
 30
0.0
 11
0.7632216823966176
 21
0.8338409719151623
 31
0.0
210
0.0
220
0.0
230
1.0
 40
0.021277
 41
1.529282365013639
 42
2.151650853382524
  0
ELLIPSE
  5
159
330
1F
100
AcDbEntity
  8
1
100
AcDbEllipse
 10
391.183514
 20
295.27533
 30
0.0
 11
1.47063446263289
 21
-0.4035582700385011
 31
0.0
210
0.0
220
0.0
230
1.0
 40
0.997827
 41
0.0
 42
6.283185307179585
  0
ELLIPSE
  5
15A
330
1F
100
AcDbEntity
  8
1
100
AcDbEllipse
 10
390.8304310000001
 20
294.409793
 30
0.0
 11
-0.0812215991863761
 21
0.0222881000617472
 31
0.0
210
0.0
220
0.0
230
0.9999999999999998
 40
0.997827
 41
5.232565764202215
 42
6.071593956379981
  0
ELLIPSE
  5
15B
330
1F
100
AcDbEntity
  8
1
100
AcDbEllipse
 10
390.680952
 20
294.487417
 30
0.0
 11
-0.0812215991863761
 21
0.0222881000617473
 31
0.0
210
0.0
220
0.0
230
0.9999999999999998
 40
0.997827
 41
1.567374335014374
 42
2.930001302790058
  0
ELLIPSE
  5
15C
330
1F
100
AcDbEntity
  8
1
100
AcDbEllipse
 10
390.77392
 20
294.821712
 30
0.0
 11
-0.4165624072204004
 21
0.1143093057400417
 31
0.0
210
0.0
220
0.0
230
1.0
 40
0.997827
 41
0.6274368413780699
 42
1.567374335014162
  0
ELLIPSE
  5
15D
330
1F
100
AcDbEntity
  8
1
100
AcDbEllipse
 10
390.448545
 20
294.699765
 30
0.0
 11
-0.0812215991863759
 21
0.0222881000617472
 31
0.0
210
0.0
220
0.0
230
1.0
 40
0.997827
 41
5.547995180781911
 42
6.910622148557632
  0
ELLIPSE
  5
15E
330
1F
100
AcDbEntity
  8
1
100
AcDbEllipse
 10
390.357894
 20
294.841546
 30
0.0
 11
-0.0812215991863759
 21
0.0222881000617472
 31
0.0
210
0.0
220
0.0
230
1.0
 40
0.997827
 41
2.406402527191828
 42
3.245430719369551
  0
ELLIPSE
  5
15F
330
1F
100
AcDbEntity
  8
1
100
AcDbEllipse
 10
390.014842
 20
294.898389
 30
0.0
 11
-0.4165624072204003
 21
0.1143093057400417
 31
0.0
210
0.0
220
0.0
230
0.9999999999999998
 40
0.997827
 41
3.245430719369553
 42
4.185368213005669
  0
ELLIPSE
  5
160
330
1F
100
AcDbEntity
  8
1
100
AcDbEllipse
 10
390.262867
 20
295.141314
 30
0.0
 11
-0.0812215991863761
 21
0.0222881000617472
 31
0.0
210
0.0
220
0.0
230
0.9999999999999998
 40
0.997827
 41
4.185368213005701
 42
5.024396405183523
  0
ELLIPSE
  5
161
330
1F
100
AcDbEntity
  8
1
100
AcDbEllipse
 10
390.255334
 20
295.309262
 30
0.0
 11
-0.0812215991863761
 21
0.0222881000617473
 31
0.0
210
0.0
220
0.0
230
0.9999999999999998
 40
0.997827
 41
0.5201767838176239
 42
1.882803751593569
  0
ELLIPSE
  5
162
330
1F
100
AcDbEntity
  8
1
100
AcDbEllipse
 10
390.591957
 20
295.395726
 30
0.0
 11
-0.4165624072204004
 21
0.1143093057400417
 31
0.0
210
0.0
220
0.0
230
1.0
 40
0.997827
 41
5.863424597361026
 42
6.80336209099715
  0
ELLIPSE
  5
163
330
1F
100
AcDbEntity
  8
1
100
AcDbEllipse
 10
390.32315
 20
295.616127
 30
0.0
 11
-0.0812215991863759
 21
0.0222881000617472
 31
0.0
210
0.0
220
0.0
230
1.0
 40
0.997827
 41
4.500797629585178
 42
5.863424597360987
  0
ELLIPSE
  5
164
330
1F
100
AcDbEntity
  8
1
100
AcDbEllipse
 10
390.4007529999999
 20
295.76524
 30
0.0
 11
-0.0812215991863759
 21
0.0222881000617472
 31
0.0
210
0.0
220
0.0
230
1.0
 40
0.997827
 41
1.359204975995057
 42
2.198233168172913
  0
ELLIPSE
  5
165
330
1F
100
AcDbEntity
  8
1
100
AcDbEllipse
 10
390.278216
 20
296.090143
 30
0.0
 11
-0.4165624072204003
 21
0.1143093057400417
 31
0.0
210
0.0
220
0.0
230
0.9999999999999998
 40
0.997827
 41
2.198233168172941
 42
3.13817066180906
  0
ELLIPSE
  5
166
330
1F
100
AcDbEntity
  8
1
100
AcDbEllipse
 10
390.613241
 20
295.996978
 30
0.0
 11
-0.0812215991863761
 21
0.0222881000617472
 31
0.0
210
0.0
220
0.0
230
0.9999999999999998
 40
0.997827
 41
3.138170661808993
 42
3.977198853986603
  0
ELLIPSE
  5
167
330
1F
100
AcDbEntity
  8
1
100
AcDbEllipse
 10
390.755187
 20
296.087302
 30
0.0
 11
-0.0812215991863761
 21
0.0222881000617473
 31
0.0
210
0.0
220
0.0
230
0.9999999999999998
 40
0.997827
 41
5.756164539800802
 42
7.118791507576384
  0
ELLIPSE
  5
168
330
1F
100
AcDbEntity
  8
1
100
AcDbEllipse
 10
390.998842
 20
295.839471
 30
0.0
 11
-0.4165624072204004
 21
0.1143093057400417
 31
0.0
210
0.0
220
0.0
230
1.0
 40
0.997827
 41
4.816227046164443
 42
5.756164539800575
  0
ELLIPSE
  5
169
330
1F
100
AcDbEntity
  8
1
100
AcDbEllipse
 10
391.05541
 20
296.181818
 30
0.0
 11
-0.0812215991863759
 21
0.0222881000617472
 31
0.0
210
0.0
220
0.0
230
1.0
 40
0.997827
 41
3.453600078388478
 42
4.816227046164226
  0
ELLIPSE
  5
16A
330
1F
100
AcDbEntity
  8
1
100
AcDbEllipse
 10
391.223664
 20
296.189151
 30
0.0
 11
-0.0812215991863759
 21
0.0222881000617472
 31
0.0
210
0.0
220
0.0
230
1.0
 40
0.997827
 41
0.3120074247987384
 42
1.151035616976421
  0
ELLIPSE
  5
16B
330
1F
100
AcDbEntity
  8
1
100
AcDbEllipse
 10
391.44418
 20
296.457212
 30
0.0
 11
-0.4165624072204003
 21
0.1143093057400417
 31
0.0
210
0.0
220
0.0
230
0.9999999999999998
 40
0.997827
 41
1.15103561697637
 42
2.090973110612502
  0
ELLIPSE
  5
16C
330
1F
100
AcDbEntity
  8
1
100
AcDbEllipse
 10
391.531179
 20
296.121121
 30
0.0
 11
-0.0812215991863761
 21
0.0222881000617472
 31
0.0
210
0.0
220
0.0
230
0.9999999999999998
 40
0.997827
 41
2.090973110612464
 42
2.930001302790234
  0
ELLIPSE
  5
16D
330
1F
100
AcDbEntity
  8
1
100
AcDbEllipse
 10
388.930338
 20
304.465098
 30
0.0
 11
-12.1508158879832
 21
3.334317509826429
 31
0.0
210
0.0
220
0.0
230
1.0
 40
0.997827
 41
1.595022776032893
 42
1.8822362672072
  0
ELLIPSE
  5
16E
330
1F
100
AcDbEntity
  8
1
100
AcDbEllipse
 10
391.196498
 20
295.322642
 30
0.0
 11
-1.470634462632885
 21
0.4035582700385157
 31
0.0
210
0.0
220
0.0
230
1.0
 40
0.997827
 41
3.141600481407113
 42
6.283095275476759
  0
ELLIPSE
  5
16F
330
1F
100
AcDbEntity
  8
1
100
AcDbEllipse
 10
388.248824
 20
290.883986
 30
0.0
 11
-2.810666157956251
 21
-0.135434914309228
 31
0.0
210
0.0
220
0.0
230
1.0
 40
0.221492
 41
2.039213051097668
 42
4.237793082658313
  0
ELLIPSE
  5
170
330
1F
100
AcDbEntity
  8
1
100
AcDbEllipse
 10
391.680658
 20
296.043497
 30
0.0
 11
-0.0812215991863761
 21
0.0222881000617473
 31
0.0
210
0.0
220
0.0
230
0.9999999999999998
 40
0.997827
 41
4.708966988603829
 42
6.071593956379981
  0
ELLIPSE
  5
171
330
1F
100
AcDbEntity
  8
1
100
AcDbEllipse
 10
391.58769
 20
295.709202
 30
0.0
 11
-0.4165624072204004
 21
0.1143093057400417
 31
0.0
210
0.0
220
0.0
230
1.0
 40
0.997827
 41
3.76902949496785
 42
4.708966988603922
  0
ELLIPSE
  5
172
330
1F
100
AcDbEntity
  8
1
100
AcDbEllipse
 10
391.913066
 20
295.831149
 30
0.0
 11
-0.0812215991863759
 21
0.0222881000617472
 31
0.0
210
0.0
220
0.0
230
1.0
 40
0.997827
 41
2.406402527191991
 42
3.769029494967839
  0
ELLIPSE
  5
173
330
1F
100
AcDbEntity
  8
1
100
AcDbEllipse
 10
392.003717
 20
295.689368
 30
0.0
 11
-0.0812215991863759
 21
0.0222881000617472
 31
0.0
210
0.0
220
0.0
230
1.0
 40
0.997827
 41
5.547995180781621
 42
6.387023372959191
  0
ELLIPSE
  5
174
330
1F
100
AcDbEntity
  8
1
100
AcDbEllipse
 10
392.346769
 20
295.632526
 30
0.0
 11
-0.4165624072204003
 21
0.1143093057400417
 31
0.0
210
0.0
220
0.0
230
0.9999999999999998
 40
0.997827
 41
0.1038380657797602
 42
1.043775559415885
  0
ELLIPSE
  5
175
330
1F
100
AcDbEntity
  8
1
100
AcDbEllipse
 10
392.098744
 20
295.3896
 30
0.0
 11
-0.0812215991863761
 21
0.0222881000617472
 31
0.0
210
0.0
220
0.0
230
0.9999999999999998
 40
0.997827
 41
1.043775559415847
 42
1.882803751593543
  0
ELLIPSE
  5
176
330
1F
100
AcDbEntity
  8
1
100
AcDbEllipse
 10
392.106277
 20
295.221652
 30
0.0
 11
-0.0812215991863761
 21
0.0222881000617473
 31
0.0
210
0.0
220
0.0
230
0.9999999999999998
 40
0.997827
 41
3.661769437407259
 42
5.024396405183174
  0
ELLIPSE
  5
177
330
1F
100
AcDbEntity
  8
1
100
AcDbEllipse
 10
391.769653
 20
295.135189
 30
0.0
 11
-0.4165624072204004
 21
0.1143093057400417
 31
0.0
210
0.0
220
0.0
230
1.0
 40
0.997827
 41
2.721831943771277
 42
3.66176943740737
  0
ELLIPSE
  5
178
330
1F
100
AcDbEntity
  8
1
100
AcDbEllipse
 10
392.038461
 20
294.914788
 30
0.0
 11
-0.0812215991863759
 21
0.0222881000617472
 31
0.0
210
0.0
220
0.0
230
1.0
 40
0.997827
 41
1.359204975995404
 42
2.721831943771348
  0
ELLIPSE
  5
179
330
1F
100
AcDbEntity
  8
1
100
AcDbEllipse
 10
391.960858
 20
294.7656740000001
 30
0.0
 11
-0.0812215991863759
 21
0.0222881000617472
 31
0.0
210
0.0
220
0.0
230
1.0
 40
0.997827
 41
4.500797629585161
 42
5.339825821762843
  0
ELLIPSE
  5
17A
330
1F
100
AcDbEntity
  8
1
100
AcDbEllipse
 10
392.083394
 20
294.440771
 30
0.0
 11
-0.4165624072204003
 21
0.1143093057400417
 31
0.0
210
0.0
220
0.0
230
0.9999999999999998
 40
0.997827
 41
5.33982582176277
 42
6.279763315398853
  0
ELLIPSE
  5
17B
330
1F
100
AcDbEntity
  8
1
100
AcDbEllipse
 10
391.74837
 20
294.5339370000001
 30
0.0
 11
-0.0812215991863761
 21
0.0222881000617472
 31
0.0
210
0.0
220
0.0
230
0.9999999999999998
 40
0.997827
 41
6.279763315398956
 42
7.118791507576704
  0
ELLIPSE
  5
17C
330
1F
100
AcDbEntity
  8
1
100
AcDbEllipse
 10
391.606424
 20
294.443612
 30
0.0
 11
-0.0812215991863761
 21
0.0222881000617473
 31
0.0
210
0.0
220
0.0
230
0.9999999999999998
 40
0.997827
 41
2.614571886210852
 42
3.977198853986853
  0
ELLIPSE
  5
17D
330
1F
100
AcDbEntity
  8
1
100
AcDbEllipse
 10
391.362768
 20
294.691444
 30
0.0
 11
-0.4165624072204004
 21
0.1143093057400417
 31
0.0
210
0.0
220
0.0
230
1.0
 40
0.997827
 41
1.674634392574681
 42
2.61457188621077
  0
ELLIPSE
  5
17E
330
1F
100
AcDbEntity
  8
1
100
AcDbEllipse
 10
391.3062
 20
294.349096
 30
0.0
 11
-0.0812215991863759
 21
0.0222881000617472
 31
0.0
210
0.0
220
0.0
230
1.0
 40
0.997827
 41
0.3120074247987902
 42
1.67463439257461
  0
ELLIPSE
  5
17F
330
1F
100
AcDbEntity
  8
1
100
AcDbEllipse
 10
391.137946
 20
294.341763
 30
0.0
 11
-0.0812215991863759
 21
0.0222881000617472
 31
0.0
210
0.0
220
0.0
230
1.0
 40
0.997827
 41
3.453600078388422
 42
4.292628270566334
  0
ELLIPSE
  5
180
330
1F
100
AcDbEntity
  8
1
100
AcDbEllipse
 10
390.917431
 20
294.073702
 30
0.0
 11
-0.4165624072204003
 21
0.1143093057400417
 31
0.0
210
0.0
220
0.0
230
0.9999999999999998
 40
0.997827
 41
4.292628270566109
 42
5.232565764202266
  0
ELLIPSE
  5
181
330
1F
100
AcDbEntity
  8
1
100
AcDbEllipse
 10
391.180805
 20
295.2654569999999
 30
0.0
 11
1.109003037395294
 21
-0.3043226298650991
 31
0.0
210
0.0
220
0.0
230
0.9999999999999998
 40
0.9978270000000001
 41
0.0
 42
6.283185307179585
  0
ELLIPSE
  5
182
330
1F
100
AcDbEntity
  8
1
100
AcDbEllipse
 10
393.549019
 20
292.547357
 30
0.0
 11
0.0003732720692139
 21
0.5004812366902466
 31
0.0
210
0.0
220
0.0
230
0.9999999999999998
 40
0.140034
 41
3.210561104237501
 42
4.65538201287494
  0
ELLIPSE
  5
183
330
1F
100
AcDbEntity
  8
1
100
AcDbEllipse
 10
394.141827
 20
288.907994
 30
0.0
 11
0.9741489247820037
 21
8.998982146896082
 31
0.0
210
0.0
220
0.0
230
1.0
 40
0.138944
 41
1.946374157577663
 42
3.156632395651114
  0
ELLIPSE
  5
184
330
1F
100
AcDbEntity
  8
1
100
AcDbEllipse
 10
393.804842
 20
288.907994
 30
0.0
 11
0.0
 21
9.000000000259019
 31
0.0
210
0.0
220
0.0
230
1.0
 40
0.140541
 41
1.403337957145256
 42
1.931334415505924
  0
ELLIPSE
  5
185
330
1F
100
AcDbEntity
  8
1
100
AcDbEllipse
 10
389.189563
 20
293.224572
 30
0.0
 11
-1.060785514030277
 21
0.2910912111753228
 31
0.0
210
0.0
220
0.0
230
0.9999999999999998
 40
0.9978269999999998
 41
0.0774676296084701
 42
1.882803739923188
  0
ELLIPSE
  5
186
330
1F
100
AcDbEntity
  8
1
100
AcDbEllipse
 10
389.189563
 20
293.224572
 30
0.0
 11
-1.060785514030277
 21
0.2910912111753228
 31
0.0
210
0.0
220
0.0
230
0.9999999999999998
 40
0.9978269999999998
 41
1.88280373992319
 42
2.771874276542295
  0
ELLIPSE
  5
187
330
1F
100
AcDbEntity
  8
1
100
AcDbEllipse
 10
389.149809
 20
293.079702
 30
0.0
 11
-1.060785514030279
 21
0.2910912111753228
 31
0.0
210
0.0
220
0.0
230
1.0
 40
0.9978269999999998
 41
5.539000928792026
 42
5.765867137185897
  0
ELLIPSE
  5
188
330
1F
100
AcDbEntity
  8
1
100
AcDbEllipse
 10
389.144578
 20
293.06064
 30
0.0
 11
1.060785514030281
 21
-0.2910912111753121
 31
0.0
210
0.0
220
0.0
230
0.9999999999999998
 40
0.9978269999999998
 41
2.624274483596086
 42
4.045683361626501
  0
ELLIPSE
  5
189
330
1F
100
AcDbEntity
  8
1
100
AcDbEllipse
 10
388.600318
 20
288.907972
 30
0.0
 11
0.3793024143526751
 21
-9.000018403738851
 31
0.0
210
0.0
220
0.0
230
0.9999999999999998
 40
0.020121
 41
3.281291019021355
 42
3.314770008965853
  0
ELLIPSE
  5
18A
330
1F
100
AcDbEntity
  8
1
100
AcDbEllipse
 10
331.31599
 20
288.907915
 30
0.0
 11
516.1014036810063
 21
-0.5721073977492321
 31
0.0
210
0.0
220
0.0
230
0.9999999999999998
 40
0.017403
 41
1.460381363877458
 42
1.467376516784032
  0
SPLINE
  5
190
330
1F
100
AcDbEntity
  8
1
100
AcDbSpline
210
0.0
220
0.0
230
1.0
 70
     8
 71
     3
 72
    32
 73
    28
 74
     0
 42
0.000000001
 43
0.0000000001
 40
0.0
 40
0.0
 40
0.0
 40
0.0
 40
0.1250000000000009
 40
0.1250000000000009
 40
0.2500000000000017
 40
0.2500000000000017
 40
0.3750000000000026
 40
0.3750000000000026
 40
0.4375000000000032
 40
0.4375000000000032
 40
0.4687500000000037
 40
0.4843750000000038
 40
0.4843750000000038
 40
0.500000000000004
 40
0.500000000000004
 40
0.6250000000000029
 40
0.6250000000000029
 40
0.7500000000000019
 40
0.7500000000000019
 40
0.8125000000000008
 40
0.8125000000000008
 40
0.8437500000000003
 40
0.8593749999999996
 40
0.8593749999999996
 40
0.8749999999999989
 40
0.8749999999999989
 40
1.0
 40
1.0
 40
1.0
 40
1.0
 10
283.8043368819074
 20
283.1133095666004
 30
0.0
 10
284.0776971682682
 20
283.3234123642021
 30
0.0
 10
284.3609917962249
 20
283.5220525533308
 30
0.0
 10
284.9474225678953
 20
283.8961406092278
 30
0.0
 10
285.2505569054863
 20
284.0715933630124
 30
0.0
 10
285.8772456193021
 20
284.3982778783101
 30
0.0
 10
286.2007953752572
 20
284.549519725087
 30
0.0
 10
286.7023930877513
 20
284.756709150452
 30
0.0
 10
286.8723103961079
 20
284.8224848177119
 30
0.0
 10
287.1314443555489
 20
284.9159337571951
 30
0.0
 10
287.2620765220024
 20
284.9613534882345
 30
0.0
 10
287.3943470659166
 20
285.004752013465
 30
0.0
 10
287.4828965247634
 20
285.0332272367642
 30
0.0
 10
287.5273865561042
 20
285.0472456045234
 30
0.0
 10
287.9284823692669
 20
285.1710125836457
 30
0.0
 10
288.2907093843713
 20
285.2643261652559
 30
0.0
 10
289.0266742946233
 20
285.4155401989519
 30
0.0
 10
289.4004156641221
 20
285.4734468844957
 30
0.0
 10
289.9698877478284
 20
285.5311123430423
 30
0.0
 10
290.1611895602378
 20
285.5454559273878
 30
0.0
 10
290.4503916744427
 20
285.5592057750653
 30
0.0
 10
290.5955550915741
 20
285.5641380463544
 30
0.0
 10
290.7415679556001
 20
285.5660607062547
 30
0.0
 10
290.8390992431089
 20
285.566662244139
 30
0.0
 10
290.8879978949552
 20
285.5666224936004
 30
0.0
 10
291.327990102159
 20
285.5631613083033
 30
0.0
 10
291.717674102744
 20
285.5380785223588
 30
0.0
 10
292.1054537212733
 20
285.4903842307813
 30
0.0
  0
SPLINE
  5
191
330
1F
100
AcDbEntity
  8
1
100
AcDbSpline
210
0.0
220
0.0
230
1.0
 70
     8
 71
     3
 72
    19
 73
    15
 74
     0
 42
0.000000001
 43
0.0000000001
 40
0.0
 40
0.0
 40
0.0
 40
0.0
 40
0.2499999999999818
 40
0.2499999999999818
 40
0.3125000000000119
 40
0.3125000000000119
 40
0.3750000000000422
 40
0.5000000000000546
 40
0.5000000000000546
 40
0.7500000000000277
 40
0.7500000000000277
 40
0.8750000000000138
 40
0.8750000000000138
 40
1.0
 40
1.0
 40
1.0
 40
1.0
 10
389.9928201486402
 20
292.360756547865
 30
0.0
 10
389.9587215390401
 20
292.3193351477011
 30
0.0
 10
389.9220339467197
 20
292.2806614332584
 30
0.0
 10
389.8729568126098
 20
292.2355653488779
 30
0.0
 10
389.8629861537729
 20
292.2267174885777
 30
0.0
 10
389.8429060283309
 20
292.2095018060345
 30
0.0
 10
389.8125086602295
 20
292.1843350202323
 30
0.0
 10
389.7812755180641
 20
292.1610498363935
 30
0.0
 10
389.7176534901085
 20
292.1168288713639
 30
0.0
 10
389.6737156990669
 20
292.0904616934071
 30
0.0
 10
389.6051041303219
 20
292.0553404379073
 30
0.0
 10
389.5817283841816
 20
292.0443559867353
 30
0.0
 10
389.5342220712751
 20
292.0240167461262
 30
0.0
 10
389.5100991468007
 20
292.0146594017338
 30
0.0
 10
389.485524615292
 20
292.0061234894742
 30
0.0
  0
SPLINE
  5
192
330
1F
100
AcDbEntity
  8
1
100
AcDbSpline
210
0.0
220
0.0
230
1.0
 70
     8
 71
     3
 72
    18
 73
    14
 74
     0
 42
0.000000001
 43
0.0000000001
 40
0.0
 40
0.0
 40
0.0
 40
0.0
 40
0.1249999999999961
 40
0.1249999999999961
 40
0.1874999999999941
 40
0.1874999999999941
 40
0.2499999999999922
 40
0.2499999999999922
 40
0.4999999999999948
 40
0.4999999999999948
 40
0.7499999999999974
 40
0.7499999999999974
 40
1.0
 40
1.0
 40
1.0
 40
1.0
 10
385.5707497836694
 20
292.2961002182848
 30
0.0
 10
385.7294730674982
 20
292.253172791345
 30
0.0
 10
385.88911379699
 20
292.2132688023222
 30
0.0
 10
386.1299562589722
 20
292.1579742271216
 30
0.0
 10
386.2104673759732
 20
292.1403031478805
 30
0.0
 10
386.3719518994806
 20
292.1064888376246
 30
0.0
 10
386.4529598947529
 20
292.0903391101099
 30
0.0
 10
386.8587748433776
 20
292.0135045334387
 30
0.0
 10
387.1844415730864
 20
291.96480854279
 30
0.0
 10
387.8377682846869
 20
291.8925623464249
 30
0.0
 10
388.1654283217251
 20
291.8690125984425
 30
0.0
 10
388.8227435035287
 20
291.8471225881713
 30
0.0
 10
389.152398583821
 20
291.8487813881366
 30
0.0
 10
389.4830711126204
 20
291.8633091004309
 30
0.0
  0
SPLINE
  5
193
330
1F
100
AcDbEntity
  8
1
100
AcDbSpline
210
0.0
220
0.0
230
1.0
 70
     8
 71
     3
 72
    11
 73
     7
 74
     0
 42
0.000000001
 43
0.0000000001
 40
0.0
 40
0.0
 40
0.0
 40
0.0
 40
0.25
 40
0.5
 40
0.75
 40
1.0
 40
1.0
 40
1.0
 40
1.0
 10
386.9538471716924
 20
290.4201850746016
 30
0.0
 10
387.1674262323926
 20
290.3823936044905
 30
0.0
 10
387.5959418007299
 20
290.3189840557807
 30
0.0
 10
388.2427279120793
 20
290.2600551677559
 30
0.0
 10
388.8935188175533
 20
290.2373646398428
 30
0.0
 10
389.3300788929735
 20
290.2466970300396
 30
0.0
 10
389.5490506192372
 20
290.2576253346276
 30
0.0
  0
SPLINE
  5
194
330
1F
100
AcDbEntity
  8
1
100
AcDbSpline
210
0.0
220
0.0
230
1.0
 70
     8
 71
     3
 72
     8
 73
     4
 74
     0
 42
0.000000001
 43
0.0000000001
 40
0.0
 40
0.0
 40
0.0
 40
0.0
 40
1.0
 40
1.0
 40
1.0
 40
1.0
 10
389.4830711126204
 20
291.8633091004309
 30
0.0
 10
389.4867457324087
 20
291.86347054057
 30
0.0
 10
389.4904210746787
 20
291.863631365199
 30
0.0
 10
389.4940971402832
 20
291.8637915735909
 30
0.0
  0
SPLINE
  5
195
330
1F
100
AcDbEntity
  8
1
100
AcDbSpline
210
0.0
220
0.0
230
1.0
 70
     8
 71
     3
 72
     8
 73
     4
 74
     0
 42
0.000000001
 43
0.0000000001
 40
0.0
 40
0.0
 40
0.0
 40
0.0
 40
1.0
 40
1.0
 40
1.0
 40
1.0
 10
388.0548419452959
 20
290.3123909227465
 30
0.0
 10
387.6840063539859
 20
290.3349637921525
 30
0.0
 10
387.317234310788
 20
290.3705975444866
 30
0.0
 10
386.9538471716995
 20
290.4201850745997
 30
0.0
  0
SPLINE
  5
196
330
1F
100
AcDbEntity
  8
1
100
AcDbSpline
210
0.0
220
0.0
230
1.0
 70
     8
 71
     3
 72
    42
 73
    38
 74
     0
 42
0.000000001
 43
0.0000000001
 40
0.0
 40
0.0
 40
0.0
 40
0.0
 40
0.1250000000000472
 40
0.1250000000000472
 40
0.1562500000000662
 40
0.1562500000000662
 40
0.1875000000000851
 40
0.1875000000000851
 40
0.2500000000000939
 40
0.2500000000000939
 40
0.3125000000001028
 40
0.3125000000001028
 40
0.3437500000000928
 40
0.3437500000000928
 40
0.3750000000000827
 40
0.3750000000000827
 40
0.4375000000000626
 40
0.4375000000000626
 40
0.5000000000000422
 40
0.5000000000000422
 40
0.5625000000000222
 40
0.5625000000000222
 40
0.6250000000000018
 40
0.6250000000000018
 40
0.7499999999999859
 40
0.7499999999999859
 40
0.7812499999999819
 40
0.7812499999999819
 40
0.8124999999999781
 40
0.8124999999999781
 40
0.8749999999999918
 40
0.8749999999999918
 40
0.937500000000006
 40
0.937500000000006
 40
0.968750000000003
 40
0.968750000000003
 40
1.0
 40
1.0
 40
1.0
 40
1.0
 10
389.4855246152914
 20
292.006123489474
 30
0.0
 10
389.431485984508
 20
291.9873532837905
 30
0.0
 10
389.3761658048069
 20
291.97278672062
 30
0.0
 10
389.3045095279883
 20
291.9602376619971
 30
0.0
 10
389.2900508089766
 20
291.9580146779012
 30
0.0
 10
389.2608482518574
 20
291.9541692880552
 30
0.0
 10
389.2460441479416
 20
291.9525424661645
 30
0.0
 10
389.2016941732678
 20
291.9486566866123
 30
0.0
 10
389.1722256895569
 20
291.9473802913777
 30
0.0
 10
389.1134895827875
 20
291.9474045446231
 30
0.0
 10
389.0842217800405
 20
291.9487048178922
 30
0.0
 10
389.0404542202002
 20
291.9525606374136
 30
0.0
 10
389.0258373049714
 20
291.9541707912065
 30
0.0
 10
388.9969212047482
 20
291.957986002149
 30
0.0
 10
388.9826327969329
 20
291.960186568362
 30
0.0
 10
388.9402112593515
 20
291.9676229843662
 30
0.0
 10
388.9125188907897
 20
291.9736900785508
 30
0.0
 10
388.8580328942209
 20
291.9879048101416
 30
0.0
 10
388.8312399096041
 20
291.9960534051199
 30
0.0
 10
388.7783587862738
 20
292.0143945930547
 30
0.0
 10
388.7522236365729
 20
292.0246086838682
 30
0.0
 10
388.700736723765
 20
292.0470298865991
 30
0.0
 10
388.6755303993634
 20
292.0591692777225
 30
0.0
 10
388.6013193788028
 20
292.0983703449023
 30
0.0
 10
388.5537081226138
 20
292.1281844730406
 30
0.0
 10
388.4961868239329
 20
292.1704838245818
 30
0.0
 10
388.4847834650692
 20
292.1791977500765
 30
0.0
 10
388.4621745717513
 20
292.197155495181
 30
0.0
 10
388.450963108367
 20
292.2064062696064
 30
0.0
 10
388.4179207647251
 20
292.234726770871
 30
0.0
 10
388.3965810585473
 20
292.2544399273943
 30
0.0
 10
388.3552565733685
 20
292.2955772766713
 30
0.0
 10
388.3352718481713
 20
292.3170010470972
 30
0.0
 10
388.3063171614403
 20
292.3504927133152
 30
0.0
 10
388.2968362300449
 20
292.3618830457733
 30
0.0
 10
388.2782194666027
 20
292.3851351601196
 30
0.0
 10
388.269131615766
 20
292.3969393737877
 30
0.0
 10
388.260327432281
 20
292.4088304833182
 30
0.0
  0
SPLINE
  5
197
330
1F
100
AcDbEntity
  8
1
100
AcDbSpline
210
0.0
220
0.0
230
1.0
 70
     8
 71
     3
 72
     8
 73
     4
 74
     0
 42
0.000000001
 43
0.0000000001
 40
0.0
 40
0.0
 40
0.0
 40
0.0
 40
1.0
 40
1.0
 40
1.0
 40
1.0
 10
385.7717046974131
 20
295.6133009181045
 30
0.0
 10
385.3553717259427
 20
296.3216519101854
 30
0.0
 10
384.9672693408438
 20
297.0450630504902
 30
0.0
 10
384.6059066788131
 20
297.7827389964256
 30
0.0
  0
SPLINE
  5
198
330
1F
100
AcDbEntity
  8
1
100
AcDbSpline
210
0.0
220
0.0
230
1.0
 70
     8
 71
     3
 72
    44
 73
    40
 74
     0
 42
0.000000001
 43
0.0000000001
 40
0.0
 40
0.0
 40
0.0
 40
0.0
 40
0.0449599859158143
 40
0.0449599859158143
 40
0.0899199718316287
 40
0.0899199718316287
 40
0.134879957747443
 40
0.134879957747443
 40
0.1798399436632573
 40
0.1798399436632573
 40
0.2247999295790717
 40
0.2247999295790717
 40
0.269759915494886
 40
0.269759915494886
 40
0.3147199014107003
 40
0.3147199014107003
 40
0.3596798873265147
 40
0.3596798873265147
 40
0.449599859158144
 40
0.449599859158144
 40
0.5395198309897732
 40
0.5395198309897732
 40
0.6294398028214026
 40
0.6294398028214026
 40
0.6743997887372173
 40
0.6743997887372173
 40
0.7193597746530319
 40
0.7193597746530319
 40
0.7643197605688466
 40
0.7643197605688466
 40
0.8092797464846611
 40
0.8092797464846611
 40
0.8542397324004758
 40
0.8542397324004758
 40
0.8991997183162904
 40
0.8991997183162904
 40
0.9891196901479196
 40
0.9891196901479196
 40
1.0
 40
1.0
 40
1.0
 40
1.0
 10
384.6059066788131
 20
297.7827389964257
 30
0.0
 10
383.7230418783032
 20
297.8111359453098
 30
0.0
 10
382.8385238073212
 20
297.8330633297649
 30
0.0
 10
381.0663649911205
 20
297.8672750489304
 30
0.0
 10
380.1787244043435
 20
297.8795594815513
 30
0.0
 10
378.4006103402252
 20
297.8971602551571
 30
0.0
 10
377.5101371015896
 20
297.9024763074839
 30
0.0
 10
375.7267473080665
 20
297.9081955122813
 30
0.0
 10
374.8338310629067
 20
297.9085978898254
 30
0.0
 10
373.0460363564196
 20
297.9059410676939
 30
0.0
 10
372.1515644077163
 20
297.9028817177079
 30
0.0
 10
370.3618220891246
 20
297.8941844943035
 30
0.0
 10
369.4665483825291
 20
297.8885456175311
 30
0.0
 10
367.6755763986353
 20
297.8750209612202
 30
0.0
 10
366.779878400995
 20
297.8671350853369
 30
0.0
 10
364.9884821320813
 20
297.8489178034291
 30
0.0
 10
364.0927868825309
 20
297.8385648416838
 30
0.0
 10
361.4057724665821
 20
297.8036553595769
 30
0.0
 10
359.6145001952808
 20
297.7752608931922
 30
0.0
 10
356.0326017779061
 20
297.7071136184279
 30
0.0
 10
354.2419726876078
 20
297.6673501745523
 30
0.0
 10
350.6614719354767
 20
297.5750606461889
 30
0.0
 10
348.8715903574787
 20
297.5225620533803
 30
0.0
 10
346.1874162043709
 20
297.432910445634
 30
0.0
 10
345.2927805977351
 20
297.4012033981483
 30
0.0
 10
343.5039161182857
 20
297.3337514832445
 30
0.0
 10
342.6096912723416
 20
297.2979708788333
 30
0.0
 10
340.8216441071477
 20
297.2220648378383
 30
0.0
 10
339.9278187411813
 20
297.1819474387428
 30
0.0
 10
338.1405136611633
 20
297.0972932733888
 30
0.0
 10
337.2470346276338
 20
297.05275253565
 30
0.0
 10
335.4603360141525
 20
296.9593355404555
 30
0.0
 10
334.5671167320787
 20
296.9104558170066
 30
0.0
 10
332.7807992736256
 20
296.80874077584
 30
0.0
 10
331.8876927945483
 20
296.7559389615828
 30
0.0
 10
329.2083435888015
 20
296.5924058388138
 30
0.0
 10
327.4220896961651
 20
296.4764381252402
 30
0.0
 10
325.4193097973458
 20
296.3405214435656
 30
0.0
 10
325.2031261164133
 20
296.3257738657111
 30
0.0
 10
324.9869368592515
 20
296.3109528810112
 30
0.0
  0
SPLINE
  5
199
330
1F
100
AcDbEntity
  8
1
100
AcDbSpline
210
0.0
220
0.0
230
1.0
 70
    28
 71
     4
 72
    10
 73
     5
 74
     0
 42
0.000000001
 43
0.0000000001
 40
0.0
 40
0.0
 40
0.0
 40
0.0
 40
0.0
 40
1.0
 40
1.0
 40
1.0
 40
1.0
 40
1.0
 10
297.9048419452959
 20
284.3561168540381
 30
0.0
 41
1.001414888924597
 10
297.9048419452957
 20
283.3470611941709
 30
0.0
 41
1.00045477773371
 10
297.9048419452959
 20
282.1534263525721
 30
0.0
 41
0.9926829254137695
 10
297.9048419452957
 20
281.0020258256912
 30
0.0
 41
0.9982639948512082
 10
297.9048419452957
 20
280.0783348540364
 30
0.0
 41
1.000699243837789
  0
SPLINE
  5
19A
330
1F
100
AcDbEntity
  8
1
100
AcDbSpline
210
0.0
220
0.0
230
1.0
 70
     8
 71
     3
 72
    58
 73
    54
 74
     0
 42
0.000000001
 43
0.0000000001
 40
0.0
 40
0.0
 40
0.0
 40
0.0
 40
0.0625000000000006
 40
0.0625000000000006
 40
0.1250000000000012
 40
0.1250000000000012
 40
0.1875000000000018
 40
0.1875000000000018
 40
0.2500000000000024
 40
0.2500000000000024
 40
0.312500000000003
 40
0.312500000000003
 40
0.3437500000000032
 40
0.3437500000000032
 40
0.3750000000000033
 40
0.3750000000000033
 40
0.4062500000000037
 40
0.4062500000000037
 40
0.4218750000000038
 40
0.4218750000000038
 40
0.4375000000000039
 40
0.4375000000000039
 40
0.4687500000000043
 40
0.4687500000000043
 40
0.5000000000000044
 40
0.5000000000000044
 40
0.5312500000000052
 40
0.5312500000000052
 40
0.5625000000000058
 40
0.5625000000000058
 40
0.5781250000000059
 40
0.5781250000000059
 40
0.5937500000000059
 40
0.5937500000000059
 40
0.6250000000000055
 40
0.6250000000000055
 40
0.6562500000000052
 40
0.6562500000000052
 40
0.6875000000000048
 40
0.6875000000000048
 40
0.7187500000000045
 40
0.7187500000000045
 40
0.750000000000004
 40
0.750000000000004
 40
0.8125000000000028
 40
0.8125000000000028
 40
0.8750000000000014
 40
0.8750000000000014
 40
0.9062500000000012
 40
0.9062500000000012
 40
0.9375000000000007
 40
0.9375000000000007
 40
1.0
 40
1.0
 40
1.0
 40
1.0
 10
298.9189642401291
 20
284.1549752822052
 30
0.0
 10
300.52274495385
 20
284.008178512456
 30
0.0
 10
302.1271390719216
 20
283.8693183032054
 30
0.0
 10
305.3367846452101
 20
283.6034518964514
 30
0.0
 10
306.9420346481945
 20
283.4764253446739
 30
0.0
 10
310.1527865117349
 20
283.228972829652
 30
0.0
 10
311.7582484858898
 20
283.1085198536932
 30
0.0
 10
314.9683359598385
 20
282.868523845498
 30
0.0
 10
316.5729767960918
 20
282.7489398861481
 30
0.0
 10
319.7804594647732
 20
282.5055589800828
 30
0.0
 10
321.3832951536533
 20
282.3817151179209
 30
0.0
 10
323.785478635617
 20
282.1903689816525
 30
0.0
 10
324.5858623585412
 20
282.1256762364874
 30
0.0
 10
326.1858435114834
 20
281.9943715364913
 30
0.0
 10
326.9854406645288
 20
281.9277582067229
 30
0.0
 10
328.5837737143609
 20
281.7927649775606
 30
0.0
 10
329.3825093092697
 20
281.7243840045037
 30
0.0
 10
330.5799347774008
 20
281.6208202802696
 30
0.0
 10
330.9789638939124
 20
281.5861360372386
 30
0.0
 10
331.7767952322509
 20
281.5165265994226
 30
0.0
 10
332.1756092443559
 20
281.4815999167661
 30
0.0
 10
333.3714522831075
 20
281.3766417909275
 30
0.0
 10
334.1679732163707
 20
281.3065013107408
 30
0.0
 10
335.7602776331657
 20
281.169055209827
 30
0.0
 10
336.5560616991053
 20
281.1017482087158
 30
0.0
 10
338.1474758211158
 20
280.9721706737814
 30
0.0
 10
338.9431060469893
 20
280.9098956382296
 30
0.0
 10
340.5346870710085
 20
280.7916985333929
 30
0.0
 10
341.3306371823582
 20
280.7357694007476
 30
0.0
 10
342.5250816733828
 20
280.6570963789938
 30
0.0
 10
342.9233156534303
 20
280.6317373181096
 30
0.0
 10
343.7199951066005
 20
280.5827799228763
 30
0.0
 10
344.1184438278976
 20
280.5591887974395
 30
0.0
 10
345.3141068556056
 20
280.4909353680814
 30
0.0
 10
346.1116316637273
 20
280.4487753652352
 30
0.0
 10
347.7074707442889
 20
280.3704824889678
 30
0.0
 10
348.505785904661
 20
280.3343543063594
 30
0.0
 10
350.1032277482218
 20
280.267658659719
 30
0.0
 10
350.9023551990824
 20
280.2370942196
 30
0.0
 10
352.501481467147
 20
280.1811225477205
 30
0.0
 10
353.3014808646842
 20
280.1557169329136
 30
0.0
 10
354.9024282375802
 20
280.1096538602628
 30
0.0
 10
355.7032730056154
 20
280.089000220077
 30
0.0
 10
358.1065509472058
 20
280.0335058776217
 30
0.0
 10
359.7099231304003
 20
280.0051412889472
 30
0.0
 10
362.9195419896998
 20
279.9615977838615
 30
0.0
 10
364.5257911909967
 20
279.9464029400869
 30
0.0
 10
366.937623072383
 20
279.9302474732869
 30
0.0
 10
367.7419615736125
 20
279.9259486165329
 30
0.0
 10
369.3512134431149
 20
279.9189337631782
 30
0.0
 10
370.1561268335137
 20
279.9162189842184
 30
0.0
 10
372.5714004980207
 20
279.9098849765206
 30
0.0
 10
374.1821659406718
 20
279.9079935137005
 30
0.0
 10
375.7927362691992
 20
279.9079935137005
 30
0.0
  0
SPLINE
  5
19B
330
1F
100
AcDbEntity
  8
1
100
AcDbSpline
210
0.0
220
0.0
230
1.0
 70
     8
 71
     3
 72
    60
 73
    56
 74
     0
 42
0.000000001
 43
0.0000000001
 40
0.0
 40
0.0
 40
0.0
 40
0.0
 40
0.0624999999999992
 40
0.0624999999999992
 40
0.0937499999999989
 40
0.0937499999999989
 40
0.1249999999999986
 40
0.1249999999999986
 40
0.1874999999999977
 40
0.1874999999999977
 40
0.2499999999999968
 40
0.2499999999999968
 40
0.3124999999999959
 40
0.3124999999999959
 40
0.374999999999995
 40
0.374999999999995
 40
0.3906249999999949
 40
0.3906249999999949
 40
0.4062499999999948
 40
0.4062499999999948
 40
0.4374999999999946
 40
0.4374999999999946
 40
0.4687499999999951
 40
0.4687499999999951
 40
0.4999999999999953
 40
0.4999999999999953
 40
0.5624999999999956
 40
0.5624999999999956
 40
0.5937499999999957
 40
0.5937499999999957
 40
0.624999999999996
 40
0.624999999999996
 40
0.656249999999996
 40
0.656249999999996
 40
0.6874999999999963
 40
0.6874999999999963
 40
0.7499999999999965
 40
0.7499999999999965
 40
0.7812499999999968
 40
0.7812499999999968
 40
0.8124999999999971
 40
0.8124999999999971
 40
0.8437499999999975
 40
0.8437499999999975
 40
0.8749999999999978
 40
0.8749999999999978
 40
0.9062499999999984
 40
0.9062499999999984
 40
0.9374999999999987
 40
0.9374999999999987
 40
0.9687499999999992
 40
0.9687499999999992
 40
0.9843749999999996
 40
0.9843749999999996
 40
1.0
 40
1.0
 40
1.0
 40
1.0
 10
297.9048419452957
 20
297.5501277588734
 30
0.0
 10
299.7652563980438
 20
297.5054029657915
 30
0.0
 10
301.6247205987078
 20
297.4538293542388
 30
0.0
 10
304.412612599496
 20
297.3642986238031
 30
0.0
 10
305.3416937282154
 20
297.3324296265159
 30
0.0
 10
307.1994591188653
 20
297.2643856775778
 30
0.0
 10
308.1281503180364
 20
297.2282096477277
 30
0.0
 10
310.9134403378037
 20
297.1129487661844
 30
0.0
 10
312.7693336599157
 20
297.0270748177983
 30
0.0
 10
316.4797365440677
 20
296.8368567043067
 30
0.0
 10
318.3342486386902
 20
296.7325041497072
 30
0.0
 10
322.0426209347707
 20
296.5067145920991
 30
0.0
 10
323.89648567711
 20
296.3852890172656
 30
0.0
 10
327.6043683068041
 20
296.1285492641759
 30
0.0
 10
329.4582753253716
 20
295.9932733367033
 30
0.0
 10
331.7759903916382
 20
295.8182443472132
 30
0.0
 10
332.2395516124811
 20
295.7829447514649
 30
0.0
 10
333.166719009012
 20
295.7118182209875
 30
0.0
 10
333.6303232183462
 20
295.6759810703381
 30
0.0
 10
335.0211678821703
 20
295.5674992470503
 30
0.0
 10
335.9484512049781
 20
295.4938727931301
 30
0.0
 10
337.8028991606927
 20
295.3434513385216
 30
0.0
 10
338.7300711156832
 20
295.2666552462672
 30
0.0
 10
340.5842797915662
 20
295.1096599718819
 30
0.0
 10
341.5113170806879
 20
295.0294624319004
 30
0.0
 10
344.2922632075729
 20
294.7839016455143
 30
0.0
 10
346.1459911799928
 20
294.613428267635
 30
0.0
 10
348.9268527693067
 20
294.3515525102821
 30
0.0
 10
349.8538481204853
 20
294.2632209327946
 30
0.0
 10
351.7079697188395
 20
294.0848511147731
 30
0.0
 10
352.6350956392585
 20
293.994811618979
 30
0.0
 10
354.4894955532841
 20
293.8132050404207
 30
0.0
 10
355.4167719006259
 20
293.7216368285927
 30
0.0
 10
357.2713259928146
 20
293.5370077382896
 30
0.0
 10
358.1986215803731
 20
293.4439448767776
 30
0.0
 10
360.98053453019
 20
293.1623310660585
 30
0.0
 10
362.8351875173191
 20
292.9714433510977
 30
0.0
 10
365.6169596344191
 20
292.6782780710378
 30
0.0
 10
366.5441845252202
 20
292.5794311513488
 30
0.0
 10
368.3984494429977
 20
292.3784944950593
 30
0.0
 10
369.3254825815956
 20
292.2763490731201
 30
0.0
 10
371.1793054588812
 20
292.0682397430663
 30
0.0
 10
372.1060970007761
 20
291.9622588951504
 30
0.0
 10
373.959421285319
 20
291.7472489080729
 30
0.0
 10
374.8859670164647
 20
291.6381970453207
 30
0.0
 10
376.7391626585076
 20
291.4196131539417
 30
0.0
 10
377.6658106569065
 20
291.3100618054859
 30
0.0
 10
379.5198336195767
 20
291.0954971308459
 30
0.0
 10
380.4472438473831
 20
290.9904696658974
 30
0.0
 10
382.3031466705251
 20
290.7929585973148
 30
0.0
 10
383.2316841312385
 20
290.7004679209128
 30
0.0
 10
384.6260782577407
 20
290.5794284958474
 30
0.0
 10
385.091142927939
 20
290.5420554621534
 30
0.0
 10
386.0219481277692
 20
290.4749326445191
 30
0.0
 10
386.4876885802829
 20
290.4451822108243
 30
0.0
 10
386.9538471717186
 20
290.4201850745971
 30
0.0
  0
SPLINE
  5
19C
330
1F
100
AcDbEntity
  8
1
100
AcDbSpline
210
0.0
220
0.0
230
1.0
 70
     8
 71
     3
 72
    45
 73
    41
 74
     0
 42
0.000000001
 43
0.0000000001
 40
0.0
 40
0.0
 40
0.0
 40
0.0
 40
0.1249999999999922
 40
0.1249999999999922
 40
0.2499999999999844
 40
0.2499999999999844
 40
0.3124999999999803
 40
0.3124999999999803
 40
0.3749999999999762
 40
0.3749999999999762
 40
0.4374999999999722
 40
0.4374999999999722
 40
0.499999999999968
 40
0.499999999999968
 40
0.5624999999999638
 40
0.5624999999999638
 40
0.6249999999999597
 40
0.6249999999999597
 40
0.640624999999965
 40
0.640624999999965
 40
0.6562499999999702
 40
0.6562499999999702
 40
0.687499999999973
 40
0.687499999999973
 40
0.7499999999999793
 40
0.7499999999999793
 40
0.7656249999999807
 40
0.7656249999999807
 40
0.7812499999999822
 40
0.8124999999999847
 40
0.8437499999999873
 40
0.8593749999999886
 40
0.8593749999999886
 40
0.8749999999999895
 40
0.8749999999999895
 40
0.9374999999999948
 40
0.9374999999999948
 40
0.9687499999999975
 40
0.9687499999999975
 40
1.0
 40
1.0
 40
1.0
 40
1.0
 10
384.1141656040169
 20
293.3929871504632
 30
0.0
 10
384.2326048610507
 20
293.4462622082909
 30
0.0
 10
384.3497177848939
 20
293.5023142241097
 30
0.0
 10
384.5806423295792
 20
293.6213302291591
 30
0.0
 10
384.6944622901207
 20
293.6842767574717
 30
0.0
 10
384.8619571351609
 20
293.7854699045693
 30
0.0
 10
384.917316015853
 20
293.8203864051958
 30
0.0
 10
385.0262150217801
 20
293.8925283125612
 30
0.0
 10
385.0797929307619
 20
293.9297708548586
 30
0.0
 10
385.1849034891279
 20
294.0070051585938
 30
0.0
 10
385.2364378803393
 20
294.0469945786839
 30
0.0
 10
385.3370480088221
 20
294.1302783188781
 30
0.0
 10
385.3861994725066
 20
294.1736528972783
 30
0.0
 10
385.4805238398913
 20
294.2635698319943
 30
0.0
 10
385.5258033961879
 20
294.3101847659507
 30
0.0
 10
385.6117247120613
 20
294.4074952901697
 30
0.0
 10
385.6523756238397
 20
294.4581828276886
 30
0.0
 10
385.6994681504232
 20
294.5248163438863
 30
0.0
 10
385.7086990345533
 20
294.5383081293028
 30
0.0
 10
385.7267574363618
 20
294.5656466100108
 30
0.0
 10
385.7355961511812
 20
294.5795127439812
 30
0.0
 10
385.7613035868945
 20
294.6214248805827
 30
0.0
 10
385.7774067099134
 20
294.6498419599615
 30
0.0
 10
385.8222787459869
 20
294.7366726377662
 30
0.0
 10
385.8476461860087
 20
294.7966491983677
 30
0.0
 10
385.8721414834912
 20
294.8749347021486
 30
0.0
 10
385.8766853654656
 20
294.8907974927058
 30
0.0
 10
385.8849132605426
 20
294.9225398478154
 30
0.0
 10
385.8959979996634
 20
294.9702650952884
 30
0.0
 10
385.9080789968156
 20
295.0503753505659
 30
0.0
 10
385.9113000041652
 20
295.131272965094
 30
0.0
 10
385.9090690327303
 20
295.1801815376176
 30
0.0
 10
385.9066339517708
 20
295.2128714776575
 30
0.0
 10
385.9049337528361
 20
295.2293157243977
 30
0.0
 10
385.8941391847609
 20
295.3108385091934
 30
0.0
 10
385.8782415029447
 20
295.3739953483662
 30
0.0
 10
385.8449231033063
 20
295.4660419337372
 30
0.0
 10
385.8322106777068
 20
295.496322034865
 30
0.0
 10
385.8039069688682
 20
295.5558311690924
 30
0.0
 10
385.7884083436743
 20
295.5848812244226
 30
0.0
 10
385.7717046851692
 20
295.6133009125196
 30
0.0
  0
SPLINE
  5
19D
330
1F
100
AcDbEntity
  8
1
100
AcDbSpline
210
0.0
220
0.0
230
1.0
 70
     8
 71
     3
 72
    32
 73
    28
 74
     0
 42
0.000000001
 43
0.0000000001
 40
0.0
 40
0.0
 40
0.0
 40
0.0
 40
0.062500000000001
 40
0.062500000000001
 40
0.125000000000002
 40
0.125000000000002
 40
0.187500000000003
 40
0.187500000000003
 40
0.250000000000004
 40
0.250000000000004
 40
0.3750000000000059
 40
0.3750000000000059
 40
0.4062500000000064
 40
0.4218750000000063
 40
0.4375000000000063
 40
0.4375000000000063
 40
0.5000000000000055
 40
0.5000000000000055
 40
0.625000000000004
 40
0.625000000000004
 40
0.7500000000000025
 40
0.7500000000000025
 40
0.8750000000000008
 40
0.8750000000000008
 40
0.9375000000000003
 40
0.9375000000000003
 40
1.0
 40
1.0
 40
1.0
 40
1.0
 10
293.7038318185192
 20
279.9325493746084
 30
0.0
 10
293.4635288199252
 20
279.9273697823207
 30
0.0
 10
293.225684262071
 20
279.9165356039189
 30
0.0
 10
292.7543681300074
 20
279.8848392334178
 30
0.0
 10
292.5208973242483
 20
279.8639756748627
 30
0.0
 10
292.0579059233333
 20
279.8132222673014
 30
0.0
 10
291.8283858502331
 20
279.7833312688641
 30
0.0
 10
291.3729731551551
 20
279.7152859201181
 30
0.0
 10
291.1470809191807
 20
279.6771305523347
 30
0.0
 10
290.4744914034018
 20
279.5511040229871
 30
0.0
 10
290.0328482309287
 20
279.4517458917873
 30
0.0
 10
289.4886034377052
 20
279.3098877249959
 30
0.0
 10
289.3259196173898
 20
279.2659969822369
 30
0.0
 10
289.1101781931197
 20
279.2048333240404
 30
0.0
 10
289.0026981377289
 20
279.1733724318169
 30
0.0
 10
288.7349309663354
 20
279.0937594433898
 30
0.0
 10
288.5233374174886
 20
279.0268955157125
 30
0.0
 10
287.89623739141
 20
278.8170425436001
 30
0.0
 10
287.4883814946095
 20
278.6648262756767
 30
0.0
 10
286.6930276445881
 20
278.336131298884
 30
0.0
 10
286.3055394510669
 20
278.1596430814457
 30
0.0
 10
285.5517358202135
 20
277.7817564947882
 30
0.0
 10
285.1854232321335
 20
277.5803572990262
 30
0.0
 10
284.6529395777793
 20
277.2584686944617
 30
0.0
 10
284.4781361112653
 20
277.1477624918094
 30
0.0
 10
284.135894093897
 20
276.9204704293525
 30
0.0
 10
283.968302989726
 20
276.8038011159616
 30
0.0
 10
283.8043368819074
 20
276.6840298264249
 30
0.0
  0
SPLINE
  5
19E
330
1F
100
AcDbEntity
  8
1
100
AcDbSpline
210
0.0
220
0.0
230
1.0
 70
     8
 71
     3
 72
    57
 73
    53
 74
     0
 42
0.000000001
 43
0.0000000001
 40
0.0
 40
0.0
 40
0.0
 40
0.0
 40
0.0625000000000005
 40
0.0625000000000005
 40
0.1250000000000011
 40
0.1250000000000011
 40
0.1875000000000016
 40
0.1875000000000016
 40
0.2031250000000019
 40
0.2031250000000019
 40
0.2187500000000022
 40
0.2187500000000022
 40
0.2500000000000025
 40
0.2500000000000025
 40
0.3125000000000037
 40
0.3125000000000037
 40
0.3750000000000048
 40
0.3750000000000048
 40
0.4062500000000055
 40
0.4062500000000055
 40
0.4218750000000055
 40
0.4218750000000055
 40
0.4375000000000056
 40
0.4375000000000056
 40
0.500000000000005
 40
0.5625000000000045
 40
0.5625000000000045
 40
0.5937500000000039
 40
0.5937500000000039
 40
0.609375000000004
 40
0.609375000000004
 40
0.6250000000000039
 40
0.6250000000000039
 40
0.6875000000000039
 40
0.6875000000000039
 40
0.7500000000000038
 40
0.7500000000000038
 40
0.7656250000000038
 40
0.7656250000000038
 40
0.7812500000000037
 40
0.7812500000000037
 40
0.812500000000003
 40
0.812500000000003
 40
0.8750000000000019
 40
0.8750000000000019
 40
0.9375000000000007
 40
0.9375000000000007
 40
0.9531250000000005
 40
0.9531250000000005
 40
0.9687500000000003
 40
0.9687500000000003
 40
1.0
 40
1.0
 40
1.0
 40
1.0
 10
279.4048419452959
 20
278.8925721248643
 30
0.0
 10
279.2730124235819
 20
278.7974402023841
 30
0.0
 10
279.1477492300479
 20
278.6985506436473
 30
0.0
 10
278.910215728824
 20
278.4937539455431
 30
0.0
 10
278.7979450532442
 20
278.3878462113241
 30
0.0
 10
278.5866769358566
 20
278.1692695183474
 30
0.0
 10
278.4876766515446
 20
278.0566012571187
 30
0.0
 10
278.3726866181786
 20
277.9115511092199
 30
0.0
 10
278.3501279106461
 20
277.8823297090985
 30
0.0
 10
278.3059062542514
 20
277.8234617868072
 30
0.0
 10
278.2843370594775
 20
277.7939396675253
 30
0.0
 10
278.2212901363416
 20
277.705180802031
 30
0.0
 10
278.1814517379077
 20
277.6457249357887
 30
0.0
 10
278.0684733473007
 20
277.4665818153481
 30
0.0
 10
278.0018524056825
 20
277.3461230861704
 30
0.0
 10
277.8862090803503
 20
277.1034380102686
 30
0.0
 10
277.8371840048559
 20
276.9812115702971
 30
0.0
 10
277.7774461012311
 20
276.7966683274828
 30
0.0
 10
277.7598383352129
 20
276.7349523237244
 30
0.0
 10
277.7370095649987
 20
276.642081758454
 30
0.0
 10
277.7300213667008
 20
276.6111663909717
 30
0.0
 10
277.7173291301417
 20
276.5496426059067
 30
0.0
 10
277.7116164701046
 20
276.5189995314424
 30
0.0
 10
277.6861916091951
 20
276.3663776326396
 30
0.0
 10
277.665546008877
 20
276.125979952269
 30
0.0
 10
277.6843416391314
 20
275.8931594112115
 30
0.0
 10
277.7134818525773
 20
275.7213870438794
 30
0.0
 10
277.7257075480118
 20
275.6646035126972
 30
0.0
 10
277.7478943270738
 20
275.5801400689297
 30
0.0
 10
277.7559228297403
 20
275.5521465493434
 30
0.0
 10
277.7731506790821
 20
275.4967599432163
 30
0.0
 10
277.7823607410862
 20
275.4693249105978
 30
0.0
 10
277.8313479835339
 20
275.3334130977706
 30
0.0
 10
277.8799105899699
 20
275.228718855685
 30
0.0
 10
277.9950867274961
 20
275.026812781199
 30
0.0
 10
278.0617024328963
 20
274.9296023335022
 30
0.0
 10
278.1561984362532
 20
274.8125035658749
 30
0.0
 10
278.1756603597121
 20
274.789304881052
 30
0.0
 10
278.2157138281796
 20
274.7433444202475
 30
0.0
 10
278.2363357463357
 20
274.720551390929
 30
0.0
 10
278.2995943168433
 20
274.6531456542588
 30
0.0
 10
278.3436553091771
 20
274.6094568787817
 30
0.0
 10
278.4813163831539
 20
274.481918168755
 30
0.0
 10
278.580379581673
 20
274.4015868801929
 30
0.0
 10
278.7924869758951
 20
274.2494062538474
 30
0.0
 10
278.9055330553653
 20
274.1775590757294
 30
0.0
 10
279.055496439049
 20
274.0926524241839
 30
0.0
 10
279.0859229740896
 20
274.0759167778014
 30
0.0
 10
279.1476459169975
 20
274.0429290159176
 30
0.0
 10
279.1789534946027
 20
274.0266719625213
 30
0.0
 10
279.2739020180152
 20
273.9787551502948
 30
0.0
 10
279.3386538393356
 20
273.9479017875826
 30
0.0
 10
279.4048419453165
 20
273.9180899010644
 30
0.0
  0
SPLINE
  5
1A5
330
1F
100
AcDbEntity
  8
1
100
AcDbSpline
210
0.0
220
0.0
230
1.0
 70
     8
 71
     3
 72
    21
 73
    17
 74
     0
 42
0.000000001
 43
0.0000000001
 40
0.0
 40
0.0
 40
0.0
 40
0.0
 40
0.1250000000000005
 40
0.1250000000000005
 40
0.250000000000001
 40
0.250000000000001
 40
0.3750000000000011
 40
0.3750000000000011
 40
0.500000000000001
 40
0.500000000000001
 40
0.6250000000000009
 40
0.6250000000000009
 40
0.7500000000000007
 40
0.8750000000000003
 40
0.8750000000000003
 40
1.0
 40
1.0
 40
1.0
 40
1.0
 10
279.404841945308
 20
273.918089901079
 30
0.0
 10
279.5799671566335
 20
273.9938691537037
 30
0.0
 10
279.7570259492786
 20
274.0785780304928
 30
0.0
 10
280.1141497417685
 20
274.2614087716451
 30
0.0
 10
280.294218846304
 20
274.3595573601442
 30
0.0
 10
280.6566855688185
 20
274.5662206257985
 30
0.0
 10
280.8390850322547
 20
274.6747477683597
 30
0.0
 10
281.2056197017628
 20
274.8998745979073
 30
0.0
 10
281.3897556978758
 20
275.0164804131351
 30
0.0
 10
281.7592197919757
 20
275.2559702202551
 30
0.0
 10
281.9445480885412
 20
275.3788571426958
 30
0.0
 10
282.3158889272036
 20
275.6294882283237
 30
0.0
 10
282.6879141043061
 20
275.8849786954328
 30
0.0
 10
283.0603632729589
 20
276.147975623855
 30
0.0
 10
283.4326001721926
 20
276.413919353485
 30
0.0
 10
283.6186118044592
 20
276.5483643994581
 30
0.0
 10
283.8043368819074
 20
276.6840298264248
 30
0.0
  0
SPLINE
  5
1A6
330
1F
100
AcDbEntity
  8
1
100
AcDbSpline
210
0.0
220
0.0
230
1.0
 70
     8
 71
     3
 72
    21
 73
    17
 74
     0
 42
0.000000001
 43
0.0000000001
 40
0.0
 40
0.0
 40
0.0
 40
0.0
 40
0.1250000000000002
 40
0.2500000000000003
 40
0.2500000000000003
 40
0.3750000000000005
 40
0.3750000000000005
 40
0.5000000000000004
 40
0.5000000000000004
 40
0.6250000000000002
 40
0.6250000000000002
 40
0.7500000000000001
 40
0.7500000000000001
 40
0.875
 40
0.875
 40
1.0
 40
1.0
 40
1.0
 40
1.0
 10
283.8043368819074
 20
283.1133095666004
 30
0.0
 10
283.6127979225452
 20
282.9660940666918
 30
0.0
 10
283.2312930555136
 20
282.6666604257044
 30
0.0
 10
282.8532264536376
 20
282.3560797611634
 30
0.0
 10
282.4770485850055
 20
282.0392280760703
 30
0.0
 10
282.2899040992392
 20
281.8776673573816
 30
0.0
 10
281.9176929506714
 20
281.547441513946
 30
0.0
 10
281.7326261953477
 20
281.3787778390296
 30
0.0
 10
281.3647787405533
 20
281.0333466851793
 30
0.0
 10
281.1819977013311
 20
280.8565819879557
 30
0.0
 10
280.8189552012647
 20
280.4937222888469
 30
0.0
 10
280.6386930004819
 20
280.3076324529515
 30
0.0
 10
280.2809624541344
 20
279.9245546426085
 30
0.0
 10
280.1034926093875
 20
279.7275766120312
 30
0.0
 10
279.7516936377673
 20
279.3205982324689
 30
0.0
 10
279.5773613091425
 20
279.1106187732813
 30
0.0
 10
279.4048419452959
 20
278.8925721248643
 30
0.0
  0
SPLINE
  5
1A7
330
1F
100
AcDbEntity
  8
1
100
AcDbSpline
210
0.0
220
0.0
230
1.0
 70
     8
 71
     3
 72
    10
 73
     6
 74
     0
 42
0.000000001
 43
0.0000000001
 40
0.0
 40
0.0
 40
0.0
 40
0.0
 40
0.5
 40
0.5
 40
1.0
 40
1.0
 40
1.0
 40
1.0
 10
296.8703448545872
 20
280.0507477474479
 30
0.0
 10
297.0398686184554
 20
280.0595063140479
 30
0.0
 10
297.210841033138
 20
280.0664543822576
 30
0.0
 10
297.5556619859681
 20
280.0758682208768
 30
0.0
 10
297.7295103050712
 20
280.0783348540364
 30
0.0
 10
297.9048419452957
 20
280.0783348540364
 30
0.0
  0
SPLINE
  5
1A8
330
1F
100
AcDbEntity
  8
1
100
AcDbSpline
210
0.0
220
0.0
230
1.0
 70
     8
 71
     3
 72
    26
 73
    22
 74
     0
 42
0.000000001
 43
0.0000000001
 40
0.0
 40
0.0
 40
0.0
 40
0.0
 40
0.0531933101634649
 40
0.0531933101634649
 40
0.1392666456031498
 40
0.1392666456031498
 40
0.2253399810428347
 40
0.2253399810428347
 40
0.3114133164825196
 40
0.3114133164825196
 40
0.3974866519222046
 40
0.3974866519222046
 40
0.4835599873618894
 40
0.4835599873618894
 40
0.5696333228015743
 40
0.5696333228015743
 40
0.6557066582412592
 40
0.6557066582412592
 40
0.8278533291206295
 40
0.8278533291206295
 40
1.0
 40
1.0
 40
1.0
 40
1.0
 10
331.6087156602971
 20
281.5288057461163
 30
0.0
 10
331.0133425443371
 20
281.4800861513332
 30
0.0
 10
330.4176500635758
 20
281.4335854592327
 30
0.0
 10
328.8575872421327
 20
281.3169113653032
 30
0.0
 10
327.8928434276783
 20
281.2498616316847
 30
0.0
 10
325.9624765028283
 20
281.1239189604584
 30
0.0
 10
324.9968535937412
 20
281.0650286438249
 30
0.0
 10
323.0649214315072
 20
280.9539132495653
 30
0.0
 10
322.0986122837567
 20
280.9016905936326
 30
0.0
 10
320.1654645249779
 20
280.8028096370949
 30
0.0
 10
319.1986259715737
 20
280.7561535036519
 30
0.0
 10
317.2645379085438
 20
280.6676265420681
 30
0.0
 10
316.2972884161769
 20
280.6257577251097
 30
0.0
 10
314.3624574855727
 20
280.5462859502057
 30
0.0
 10
313.3948898965918
 20
280.5086856269947
 30
0.0
 10
311.459616650847
 20
280.4374366931795
 30
0.0
 10
310.491891653087
 20
280.4037893064514
 30
0.0
 10
307.5884498422781
 20
280.3085018902949
 30
0.0
 10
305.6524753957102
 20
280.2525119573784
 30
0.0
 10
301.7795324590493
 20
280.1548752561283
 30
0.0
 10
299.8425525514917
 20
280.113270464121
 30
0.0
 10
297.9048419452957
 20
280.0783348540364
 30
0.0
  0
SPLINE
  5
1A9
330
1F
100
AcDbEntity
  8
1
100
AcDbSpline
210
0.0
220
0.0
230
1.0
 70
     8
 71
     3
 72
    14
 73
    10
 74
     0
 42
0.000000001
 43
0.0000000001
 40
0.0
 40
0.0
 40
0.0
 40
0.0
 40
0.25
 40
0.25
 40
0.5
 40
0.5
 40
0.75
 40
0.75
 40
1.0
 40
1.0
 40
1.0
 40
1.0
 10
293.7038318185192
 20
279.9325493746084
 30
0.0
 10
293.9681005820118
 20
279.938245535111
 30
0.0
 10
294.2321778330121
 20
279.9449754635091
 30
0.0
 10
294.7599943330334
 20
279.9605757416796
 30
0.0
 10
295.0237336583168
 20
279.969448706959
 30
0.0
 10
295.5510927418112
 20
279.9893091426779
 30
0.0
 10
295.8147135566633
 20
280.0002985298279
 30
0.0
 10
296.3422120559337
 20
280.0241910946297
 30
0.0
 10
296.606091477749
 20
280.0370949075892
 30
0.0
 10
296.8703448545868
 20
280.0507477474478
 30
0.0
  0
SPLINE
  5
1AA
330
1F
100
AcDbEntity
  8
1
100
AcDbSpline
210
0.0
220
0.0
230
1.0
 70
     8
 71
     3
 72
    29
 73
    25
 74
     0
 42
0.000000001
 43
0.0000000001
 40
0.0
 40
0.0
 40
0.0
 40
0.0
 40
0.1250000000000074
 40
0.1250000000000074
 40
0.1875000000000069
 40
0.1875000000000069
 40
0.2500000000000064
 40
0.2500000000000064
 40
0.3750000000000053
 40
0.3750000000000053
 40
0.4375000000000048
 40
0.4375000000000048
 40
0.5000000000000043
 40
0.5000000000000043
 40
0.6250000000000031
 40
0.6250000000000031
 40
0.6875000000000026
 40
0.6875000000000026
 40
0.7500000000000022
 40
0.8125000000000015
 40
0.8125000000000015
 40
0.875000000000001
 40
0.875000000000001
 40
1.0
 40
1.0
 40
1.0
 40
1.0
 10
393.9520414969022
 20
297.9034443014291
 30
0.0
 10
393.9509006198335
 20
297.9288790705508
 30
0.0
 10
393.9471927280055
 20
297.9537607066823
 30
0.0
 10
393.9380150608667
 20
297.9903040323139
 30
0.0
 10
393.9343482123482
 20
298.0023542113171
 30
0.0
 10
393.9257813050907
 20
298.0261888407163
 30
0.0
 10
393.9208681346689
 20
298.0379816562275
 30
0.0
 10
393.9046023352428
 20
298.0721990537197
 30
0.0
 10
393.8916539766453
 20
298.0937392888861
 30
0.0
 10
393.8691208996153
 20
298.1241705067759
 30
0.0
 10
393.8610426602774
 20
298.134046593858
 30
0.0
 10
393.844037938449
 20
298.1528893550962
 30
0.0
 10
393.8351390904592
 20
298.1618368106541
 30
0.0
 10
393.8072861339228
 20
298.1872969055469
 30
0.0
 10
393.7871871100147
 20
298.2024410158276
 30
0.0
 10
393.7546651739438
 20
298.2223202316789
 30
0.0
 10
393.743473791521
 20
298.2284330557213
 30
0.0
 10
393.7207661646028
 20
298.2394477160148
 30
0.0
 10
393.6976297514293
 20
298.2493167890018
 30
0.0
 10
393.6736413526233
 20
298.2569096138249
 30
0.0
 10
393.6492168771016
 20
298.2633373734349
 30
0.0
 10
393.6367269066987
 20
298.2659769876302
 30
0.0
 10
393.599053812925
 20
298.2719813010283
 30
0.0
 10
393.5737596402557
 20
298.2734662907201
 30
0.0
 10
393.5482811885852
 20
298.272355902003
 30
0.0
  0
SPLINE
  5
1AB
330
1F
100
AcDbEntity
  8
1
100
AcDbSpline
210
0.0
220
0.0
230
1.0
 70
     8
 71
     3
 72
    29
 73
    25
 74
     0
 42
0.000000001
 43
0.0000000001
 40
0.0
 40
0.0
 40
0.0
 40
0.0
 40
0.1250000000000824
 40
0.1250000000000824
 40
0.1875000000000902
 40
0.1875000000000902
 40
0.250000000000098
 40
0.250000000000098
 40
0.3750000000000479
 40
0.3750000000000479
 40
0.4375000000000254
 40
0.4375000000000254
 40
0.5000000000000029
 40
0.5000000000000029
 40
0.6250000000000043
 40
0.6250000000000043
 40
0.6875000000000052
 40
0.6875000000000052
 40
0.7500000000000057
 40
0.8125000000000063
 40
0.8125000000000063
 40
0.8750000000000071
 40
0.8750000000000071
 40
1.0
 40
1.0
 40
1.0
 40
1.0
 10
388.7716001328016
 20
298.0641810561198
 30
0.0
 10
388.7461189899572
 20
298.0630705501172
 30
0.0
 10
388.7211948662336
 20
298.0593972112071
 30
0.0
 10
388.684593283115
 20
298.0502772638916
 30
0.0
 10
388.6725246048173
 20
298.0466306451808
 30
0.0
 10
388.648654843751
 20
298.038106206527
 30
0.0
 10
388.6368453947566
 20
298.0332153086856
 30
0.0
 10
388.6025819661064
 20
298.0170178894984
 30
0.0
 10
388.5810157613811
 20
298.0041176380111
 30
0.0
 10
388.5505525624024
 20
297.9816604467453
 30
0.0
 10
388.5406669460437
 20
297.9736082652262
 30
0.0
 10
388.5218077714035
 20
297.9566562341201
 30
0.0
 10
388.5128534370358
 20
297.9477839460658
 30
0.0
 10
388.4873765787016
 20
297.920011295174
 30
0.0
 10
388.4722264182721
 20
297.8999666365908
 30
0.0
 10
388.4523460760488
 20
297.8675275329656
 30
0.0
 10
388.4462342279229
 20
297.8563638464278
 30
0.0
 10
388.4352241483796
 20
297.8337108736956
 30
0.0
 10
388.4253622779472
 20
297.8106286438986
 30
0.0
 10
388.4177818651257
 20
297.7866934929843
 30
0.0
 10
388.4113691838987
 20
297.7623217865401
 30
0.0
 10
388.4087384928781
 20
297.7498580819748
 30
0.0
 10
388.4027647605872
 20
297.7122620396707
 30
0.0
 10
388.4013050728992
 20
297.6870167731159
 30
0.0
 10
388.4024458294748
 20
297.6615846902704
 30
0.0
  0
SPLINE
  5
1AC
330
1F
100
AcDbEntity
  8
1
100
AcDbSpline
210
0.0
220
0.0
230
1.0
 70
     8
 71
     3
 72
    29
 73
    25
 74
     0
 42
0.000000001
 43
0.0000000001
 40
0.0
 40
0.0
 40
0.0
 40
0.0
 40
0.1250000000000177
 40
0.1250000000000177
 40
0.1875000000000181
 40
0.1875000000000181
 40
0.2500000000000185
 40
0.2500000000000185
 40
0.3750000000000488
 40
0.3750000000000488
 40
0.4375000000000641
 40
0.4375000000000641
 40
0.5000000000000792
 40
0.5000000000000792
 40
0.6250000000000587
 40
0.6250000000000587
 40
0.6875000000000489
 40
0.6875000000000489
 40
0.7500000000000392
 40
0.8125000000000294
 40
0.8125000000000294
 40
0.8750000000000198
 40
0.8750000000000198
 40
1.0
 40
1.0
 40
1.0
 40
1.0
 10
388.6163140187451
 20
292.8935968270799
 30
0.0
 10
388.6174548958137
 20
292.8681620579581
 30
0.0
 10
388.6211627876416
 20
292.8432804218268
 30
0.0
 10
388.6303404547803
 20
292.8067370961951
 30
0.0
 10
388.6340073032989
 20
292.7946869171919
 30
0.0
 10
388.6425742105565
 20
292.7708522877928
 30
0.0
 10
388.6474873809782
 20
292.7590594722816
 30
0.0
 10
388.6637531804043
 20
292.7248420747893
 30
0.0
 10
388.6767015390017
 20
292.703301839623
 30
0.0
 10
388.6992346160318
 20
292.6728706217332
 30
0.0
 10
388.7073128553698
 20
292.662994534651
 30
0.0
 10
388.7243175771981
 20
292.6441517734128
 30
0.0
 10
388.7332164251881
 20
292.635204317855
 30
0.0
 10
388.7610693817244
 20
292.6097442229622
 30
0.0
 10
388.7811684056326
 20
292.5946001126815
 30
0.0
 10
388.8136903417034
 20
292.5747208968301
 30
0.0
 10
388.8248817241263
 20
292.5686080727878
 30
0.0
 10
388.8475893510443
 20
292.5575934124941
 30
0.0
 10
388.8707257823971
 20
292.5477243880774
 30
0.0
 10
388.894714163024
 20
292.5401315146842
 30
0.0
 10
388.9191386385455
 20
292.5337037550742
 30
0.0
 10
388.9316286089485
 20
292.5310641408789
 30
0.0
 10
388.9693017027221
 20
292.5250598274808
 30
0.0
 10
388.9945958753916
 20
292.5235748377889
 30
0.0
 10
389.020074327062
 20
292.5246852265061
 30
0.0
  0
SPLINE
  5
1AD
330
1F
100
AcDbEntity
  8
1
100
AcDbSpline
210
0.0
220
0.0
230
1.0
 70
     8
 71
     3
 72
    29
 73
    25
 74
     0
 42
0.000000001
 43
0.0000000001
 40
0.0
 40
0.0
 40
0.0
 40
0.0
 40
0.125000000000106
 40
0.125000000000106
 40
0.1875000000001259
 40
0.1875000000001259
 40
0.2500000000001457
 40
0.2500000000001457
 40
0.3750000000001225
 40
0.3750000000001225
 40
0.4375000000001103
 40
0.4375000000001103
 40
0.5000000000000979
 40
0.5000000000000979
 40
0.6250000000000736
 40
0.6250000000000736
 40
0.6875000000000612
 40
0.6875000000000612
 40
0.7500000000000491
 40
0.8125000000000365
 40
0.8125000000000365
 40
0.8750000000000245
 40
0.8750000000000245
 40
1.0
 40
1.0
 40
1.0
 40
1.0
 10
393.7967553828456
 20
292.7328600723893
 30
0.0
 10
393.82223652569
 20
292.7339705783918
 30
0.0
 10
393.8471606494135
 20
292.737643917302
 30
0.0
 10
393.8837622325321
 20
292.7467638646175
 30
0.0
 10
393.8958309108299
 20
292.7504104833283
 30
0.0
 10
393.9197006718961
 20
292.7589349219821
 30
0.0
 10
393.9315101208907
 20
292.7638258198235
 30
0.0
 10
393.9657735495408
 20
292.7800232390107
 30
0.0
 10
393.987339754266
 20
292.792923490498
 30
0.0
 10
394.0178029532447
 20
292.8153806817637
 30
0.0
 10
394.0276885696036
 20
292.8234328632828
 30
0.0
 10
394.0465477442436
 20
292.8403848943889
 30
0.0
 10
394.0555020786114
 20
292.8492571824433
 30
0.0
 10
394.0809789369457
 20
292.877029833335
 30
0.0
 10
394.0961290973752
 20
292.8970744919183
 30
0.0
 10
394.1160094395984
 20
292.9295135955436
 30
0.0
 10
394.1221212877244
 20
292.9406772820813
 30
0.0
 10
394.1331313672677
 20
292.9633302548135
 30
0.0
 10
394.1429931890187
 20
292.9864125028099
 30
0.0
 10
394.1505736505216
 20
293.0103476355247
 30
0.0
 10
394.1569863317487
 20
293.0347193419688
 30
0.0
 10
394.1596170227692
 20
293.0471830465343
 30
0.0
 10
394.1655907550601
 20
293.0847790888383
 30
0.0
 10
394.1670504427481
 20
293.1100243553931
 30
0.0
 10
394.1659096861724
 20
293.1354564382386
 30
0.0
  0
SPLINE
  5
1AE
330
1F
100
AcDbEntity
  8
1
100
AcDbSpline
210
0.0
220
0.0
230
1.0
 70
     8
 71
     3
 72
    20
 73
    16
 74
     0
 42
0.000000001
 43
0.0000000001
 40
0.0
 40
0.0
 40
0.0
 40
0.0
 40
0.2500000000001812
 40
0.2500000000001812
 40
0.375000000000151
 40
0.375000000000151
 40
0.5000000000001208
 40
0.5000000000001208
 40
0.6250000000000906
 40
0.6250000000000906
 40
0.7500000000000604
 40
0.7500000000000604
 40
0.8750000000000301
 40
0.8750000000000301
 40
1.0
 40
1.0
 40
1.0
 40
1.0
 10
390.7747119458477
 20
294.5179180419375
 30
0.0
 10
390.770316185244
 20
294.5093687312449
 30
0.0
 10
390.7646789163892
 20
294.5017610851138
 30
0.0
 10
390.7543652180907
 20
294.4917626714229
 30
0.0
 10
390.7506155488147
 20
294.488686588138
 30
0.0
 10
390.7427351906467
 20
294.4832541474951
 30
0.0
 10
390.7385746733021
 20
294.480866399876
 30
0.0
 10
390.7297935561161
 20
294.4767792265082
 30
0.0
 10
390.725195693176
 20
294.4750993529583
 30
0.0
 10
390.7158519003967
 20
294.4725718239249
 30
0.0
 10
390.711069640413
 20
294.4717056615513
 30
0.0
 10
390.7012724185353
 20
294.4708162964678
 30
0.0
 10
390.6963372135611
 20
294.4708060163133
 30
0.0
 10
390.6865834036986
 20
294.4716487712447
 30
0.0
 10
390.6817352239407
 20
294.4724984875918
 30
0.0
 10
390.6769179283547
 20
294.4738044290843
 30
0.0
  0
SPLINE
  5
1AF
330
1F
100
AcDbEntity
  8
1
100
AcDbSpline
210
0.0
220
0.0
230
1.0
 70
     8
 71
     3
 72
    18
 73
    14
 74
     0
 42
0.000000001
 43
0.0000000001
 40
0.0
 40
0.0
 40
0.0
 40
0.0
 40
0.1249999999999497
 40
0.1249999999999497
 40
0.2499999999998994
 40
0.2499999999998994
 40
0.3749999999998491
 40
0.3749999999998491
 40
0.4999999999997989
 40
0.4999999999997989
 40
0.7499999999998995
 40
0.7499999999998995
 40
1.0
 40
1.0
 40
1.0
 40
1.0
 10
391.3109822407952
 20
294.333532907857
 30
0.0
 10
391.3060663484316
 20
294.3343801737384
 30
0.0
 10
391.3013072241774
 20
294.3356555694641
 30
0.0
 10
391.2920867969802
 20
294.3390180843136
 30
0.0
 10
391.2875842894822
 20
294.3411325601432
 30
0.0
 10
391.2791367343365
 20
294.3460489798147
 30
0.0
 10
391.2751866703528
 20
294.3488407603656
 30
0.0
 10
391.2678093716818
 20
294.3550596369562
 30
0.0
 10
391.2643538473174
 20
294.3585229807972
 30
0.0
 10
391.2550288445501
 20
294.36962230611
 30
0.0
 10
391.2501895608165
 20
294.3779002120467
 30
0.0
 10
391.2433390967501
 20
294.3958508090453
 30
0.0
 10
391.2414544965249
 20
294.4051416497181
 30
0.0
 10
391.2410933430786
 20
294.4147423438607
 30
0.0
  0
SPLINE
  5
1B0
330
1F
100
AcDbEntity
  8
1
100
AcDbSpline
210
0.0
220
0.0
230
1.0
 70
     8
 71
     3
 72
    14
 73
    10
 74
     0
 42
0.000000001
 43
0.0000000001
 40
0.0
 40
0.0
 40
0.0
 40
0.0
 40
0.25
 40
0.25
 40
0.5
 40
0.5
 40
0.75
 40
0.75
 40
1.0
 40
1.0
 40
1.0
 40
1.0
 10
390.7747119458477
 20
294.5179180419375
 30
0.0
 10
390.7774476732736
 20
294.5232387556532
 30
0.0
 10
390.7807287564334
 20
294.5282757495055
 30
0.0
 10
390.7882038213265
 20
294.5375345826122
 30
0.0
 10
390.7923724890835
 20
294.5417416035843
 30
0.0
 10
390.8015859773412
 20
294.5493000810765
 30
0.0
 10
390.8066586194848
 20
294.5526490882485
 30
0.0
 10
390.8172767528916
 20
294.5581488041117
 30
0.0
 10
390.8228702223007
 20
294.5603476410446
 30
0.0
 10
390.8287744297176
 20
294.5619482067343
 30
0.0
  0
SPLINE
  5
1B1
330
1F
100
AcDbEntity
  8
1
100
AcDbSpline
210
0.0
220
0.0
230
1.0
 70
     8
 71
     3
 72
    13
 73
     9
 74
     0
 42
0.000000001
 43
0.0000000001
 40
0.0
 40
0.0
 40
0.0
 40
0.0
 40
0.45187496932793
 40
0.45187496932793
 40
0.6778124539918934
 40
0.6778124539918934
 40
0.9037499386558566
 40
1.0
 40
1.0
 40
1.0
 40
1.0
 10
390.1922843015098
 20
295.3556755970698
 30
0.0
 10
390.1837148312368
 20
295.3883412649961
 30
0.0
 10
390.1791209663246
 20
295.4215695592368
 30
0.0
 10
390.1781634861785
 20
295.4722417244575
 30
0.0
 10
390.1788606775618
 20
295.4892953021034
 30
0.0
 10
390.182229267647
 20
295.5228378728823
 30
0.0
 10
390.1860288089482
 20
295.5465036197112
 30
0.0
 10
390.1917993636312
 20
295.5698164536882
 30
0.0
 10
390.1937014549653
 20
295.5767490109033
 30
0.0
  0
SPLINE
  5
1B2
330
1F
100
AcDbEntity
  8
1
100
AcDbSpline
210
0.0
220
0.0
230
1.0
 70
     8
 71
     3
 72
    14
 73
    10
 74
     0
 42
0.000000001
 43
0.0000000001
 40
0.0
 40
0.0
 40
0.0
 40
0.0
 40
0.1606062494540286
 40
0.1606062494540286
 40
0.3005052078783886
 40
0.3005052078783886
 40
0.4404041663027484
 40
0.4404041663027484
 40
1.0
 40
1.0
 40
1.0
 40
1.0
 10
392.2045285343813
 20
295.0876128888445
 30
0.0
 10
392.2019692342507
 20
295.0782848815947
 30
0.0
 10
392.1990888344591
 20
295.0690236479331
 30
0.0
 10
392.1930881444216
 20
295.051822388219
 30
0.0
 10
392.1900414291396
 20
295.0438603981766
 30
0.0
 10
392.1835328025888
 20
295.0282559389418
 30
0.0
 10
392.1800620443888
 20
295.0205859263532
 30
0.0
 10
392.1616474083799
 20
294.9828842324529
 30
0.0
 10
392.1435641976703
 20
294.9547708214597
 30
0.0
 10
392.1220507971865
 20
294.9287610449476
 30
0.0
  0
SPLINE
  5
1B3
330
1F
100
AcDbEntity
  8
1
100
AcDbSpline
210
0.0
220
0.0
230
1.0
 70
     8
 71
     3
 72
    14
 73
    10
 74
     0
 42
0.000000001
 43
0.0000000001
 40
0.0
 40
0.0
 40
0.0
 40
0.0
 40
0.25
 40
0.25
 40
0.5
 40
0.5
 40
0.75
 40
0.75
 40
1.0
 40
1.0
 40
1.0
 40
1.0
 10
390.7032339167873
 20
296.1114527148949
 30
0.0
 10
390.7064233734354
 20
296.1066579225542
 30
0.0
 10
390.7090945419811
 20
296.1015337667688
 30
0.0
 10
390.7132770785951
 20
296.0908929541891
 30
0.0
 10
390.714788615618
 20
296.0854043391648
 30
0.0
 10
390.7166360881779
 20
296.0740830691199
 30
0.0
 10
390.7169558818633
 20
296.0682282693107
 30
0.0
 10
390.7163292096519
 20
296.056674464404
 30
0.0
 10
390.7153998689797
 20
296.0509123881121
 30
0.0
 10
390.7138008692454
 20
296.045163903661
 30
0.0
  0
SPLINE
  5
1B4
330
1F
100
AcDbEntity
  8
1
100
AcDbSpline
210
0.0
220
0.0
230
1.0
 70
     8
 71
     3
 72
    14
 73
    10
 74
     0
 42
0.000000001
 43
0.0000000001
 40
0.0
 40
0.0
 40
0.0
 40
0.0
 40
0.1472266773761295
 40
0.1472266773761295
 40
0.4314844515840864
 40
0.4314844515840864
 40
0.7157422257920432
 40
0.7157422257920432
 40
1.0
 40
1.0
 40
1.0
 40
1.0
 10
391.9418765580184
 20
295.782279051644
 30
0.0
 10
391.9426866427079
 20
295.7852293241586
 30
0.0
 10
391.9436569284044
 20
295.7881121526609
 30
0.0
 10
391.9469276121309
 20
295.7962854004364
 30
0.0
 10
391.9496205605261
 20
295.8013479803053
 30
0.0
 10
391.956055646354
 20
295.8108505429296
 30
0.0
 10
391.9598039897016
 20
295.8152684556271
 30
0.0
 10
391.9680138555667
 20
295.8230969068875
 30
0.0
 10
391.9725103931149
 20
295.8265645514659
 30
0.0
 10
391.9774115897267
 20
295.8295714656424
 30
0.0
  0
SPLINE
  5
1B5
330
1F
100
AcDbEntity
  8
1
100
AcDbSpline
210
0.0
220
0.0
230
1.0
 70
     8
 71
     3
 72
    10
 73
     6
 74
     0
 42
0.000000001
 43
0.0000000001
 40
0.0
 40
0.0
 40
0.0
 40
0.0
 40
0.8381791245773738
 40
0.8381791245773738
 40
1.0
 40
1.0
 40
1.0
 40
1.0
 10
390.7032339167873
 20
296.1114527148949
 30
0.0
 10
390.6981091340211
 20
296.1191569328438
 30
0.0
 10
390.6944180474913
 20
296.1274732643595
 30
0.0
 10
390.6917239418092
 20
296.1381213149044
 30
0.0
 10
390.6913442807548
 20
296.1398657880014
 30
0.0
 10
390.6910224944949
 20
296.1416230083869
 30
0.0
  0
SPLINE
  5
1B6
330
1F
100
AcDbEntity
  8
1
100
AcDbSpline
210
0.0
220
0.0
230
1.0
 70
     8
 71
     3
 72
     8
 73
     4
 74
     0
 42
0.000000001
 43
0.0000000001
 40
0.0
 40
0.0
 40
0.0
 40
0.0
 40
1.0
 40
1.0
 40
1.0
 40
1.0
 10
391.9950691479682
 20
295.8442232751332
 30
0.0
 10
391.9899127000766
 20
295.8385102076027
 30
0.0
 10
391.9840242318674
 20
295.8336283621459
 30
0.0
 10
391.9774115897267
 20
295.8295714656424
 30
0.0
  0
SPLINE
  5
1B7
330
1F
100
AcDbEntity
  8
1
100
AcDbSpline
210
0.0
220
0.0
230
1.0
 70
     8
 71
     3
 72
    14
 73
    10
 74
     0
 42
0.000000001
 43
0.0000000001
 40
0.0
 40
0.0
 40
0.0
 40
0.0
 40
0.25
 40
0.25
 40
0.5
 40
0.5
 40
0.75
 40
0.75
 40
1.0
 40
1.0
 40
1.0
 40
1.0
 10
391.2107712325274
 20
294.4774405762262
 30
0.0
 10
391.2154456112854
 20
294.4734971045674
 30
0.0
 10
391.2196642147712
 20
294.4690527132948
 30
0.0
 10
391.2269578562614
 20
294.4595507868621
 30
0.0
 10
391.2300597391134
 20
294.4544834176383
 30
0.0
 10
391.2352056791204
 20
294.4437310904925
 30
0.0
 10
391.2372280954085
 20
294.4380503584678
 30
0.0
 10
391.2400430514178
 20
294.4265755802366
 30
0.0
 10
391.2408684761343
 20
294.4207200765247
 30
0.0
 10
391.2410933430784
 20
294.4147423438607
 30
0.0
  0
SPLINE
  5
1B8
330
1F
100
AcDbEntity
  8
1
100
AcDbSpline
210
0.0
220
0.0
230
1.0
 70
     8
 71
     3
 72
    19
 73
    15
 74
     0
 42
0.000000001
 43
0.0000000001
 40
0.0
 40
0.0
 40
0.0
 40
0.0
 40
0.2500000000000453
 40
0.2500000000000453
 40
0.3750000000000249
 40
0.3750000000000249
 40
0.5000000000000045
 40
0.6249999999999841
 40
0.6249999999999841
 40
0.6874999999999762
 40
0.6874999999999762
 40
0.7499999999999685
 40
0.7499999999999685
 40
1.0
 40
1.0
 40
1.0
 40
1.0
 10
390.6769179283547
 20
294.4738044290843
 30
0.0
 10
390.6440845958907
 20
294.482705359168
 30
0.0
 10
390.6128023018299
 20
294.4953390111987
 30
0.0
 10
390.5681974197734
 20
294.5198538949192
 30
0.0
 10
390.5537080440482
 20
294.5289891971473
 30
0.0
 10
390.5262322844516
 20
294.5486907428983
 30
0.0
 10
390.5000663813825
 20
294.5699180601439
 30
0.0
 10
390.4764910144261
 20
294.5941627193571
 30
0.0
 10
390.4598106981203
 20
294.6135124610743
 30
0.0
 10
390.4544151329853
 20
294.6201642871522
 30
0.0
 10
390.4441054831972
 20
294.6336780358221
 30
0.0
 10
390.4391719098318
 20
294.6405614488004
 30
0.0
 10
390.415588665989
 20
294.6755987856722
 30
0.0
 10
390.4001484048778
 20
294.705588160277
 30
0.0
 10
390.3882198909222
 20
294.7375848276968
 30
0.0
  0
SPLINE
  5
1B9
330
1F
100
AcDbEntity
  8
1
100
AcDbSpline
210
0.0
220
0.0
230
1.0
 70
     8
 71
     3
 72
    20
 73
    16
 74
     0
 42
0.000000001
 43
0.0000000001
 40
0.0
 40
0.0
 40
0.0
 40
0.0
 40
0.1250000000000867
 40
0.1250000000000867
 40
0.2500000000001734
 40
0.3125000000001662
 40
0.3125000000001662
 40
0.3750000000001591
 40
0.3750000000001591
 40
0.5000000000001453
 40
0.6250000000001317
 40
0.6250000000001317
 40
0.750000000000118
 40
0.750000000000118
 40
1.0
 40
1.0
 40
1.0
 40
1.0
 10
390.8287744297171
 20
294.5619482067344
 30
0.0
 10
390.845083703078
 20
294.566369471355
 30
0.0
 10
390.8616939668198
 20
294.5698329576192
 30
0.0
 10
390.8950469669648
 20
294.5747401739677
 30
0.0
 10
390.9202501740933
 20
294.5769336647982
 30
0.0
 10
390.9457537265513
 20
294.576842287091
 30
0.0
 10
390.9628259774894
 20
294.5762568288997
 30
0.0
 10
390.9714298841026
 20
294.5756983544147
 30
0.0
 10
390.9970390379582
 20
294.5732403400561
 30
0.0
 10
391.03068549686
 20
294.5679000575529
 30
0.0
 10
391.0633599151167
 20
294.5585435189343
 30
0.0
 10
391.0955417419053
 20
294.5471508571972
 30
0.0
 10
391.1114313135834
 20
294.5403960677392
 30
0.0
 10
391.1569611001657
 20
294.5176925074624
 30
0.0
 10
391.1849772023732
 20
294.499201334638
 30
0.0
 10
391.2107712325274
 20
294.4774405762262
 30
0.0
  0
SPLINE
  5
1BA
330
1F
100
AcDbEntity
  8
1
100
AcDbSpline
210
0.0
220
0.0
230
1.0
 70
     8
 71
     3
 72
    19
 73
    15
 74
     0
 42
0.000000001
 43
0.0000000001
 40
0.0
 40
0.0
 40
0.0
 40
0.0
 40
0.2499999999999819
 40
0.2499999999999819
 40
0.3750000000000183
 40
0.3750000000000183
 40
0.5000000000000547
 40
0.6250000000000908
 40
0.6250000000000908
 40
0.6875000000000585
 40
0.6875000000000585
 40
0.7500000000000262
 40
0.7500000000000262
 40
1.0
 40
1.0
 40
1.0
 40
1.0
 10
391.6839220741584
 20
294.450941796802
 30
0.0
 10
391.6595995433177
 20
294.4269634157406
 30
0.0
 10
391.6328674763578
 20
294.4062102276999
 30
0.0
 10
391.5891760412077
 20
294.379892426262
 30
0.0
 10
391.5739783178245
 20
294.3719335147138
 30
0.0
 10
391.5431192357108
 20
294.3580390185053
 30
0.0
 10
391.5116170935675
 20
294.3460482075231
 30
0.0
 10
391.4788430919871
 20
294.3378221416001
 30
0.0
 10
391.453771069863
 20
294.3331076689772
 30
0.0
 10
391.44532407992
 20
294.3317804550588
 30
0.0
 10
391.4284945842235
 20
294.3296491730988
 30
0.0
 10
391.4200837560115
 20
294.3288390343913
 30
0.0
 10
391.3780490161869
 20
294.3260408745108
 30
0.0
 10
391.3444822785941
 20
294.3277590957075
 30
0.0
 10
391.3109822407952
 20
294.333532907857
 30
0.0
  0
SPLINE
  5
1BB
330
1F
100
AcDbEntity
  8
1
100
AcDbSpline
210
0.0
220
0.0
230
1.0
 70
     8
 71
     3
 72
    10
 73
     6
 74
     0
 42
0.000000001
 43
0.0000000001
 40
0.0
 40
0.0
 40
0.0
 40
0.0
 40
0.9632776534738944
 40
0.9632776534738944
 40
1.0
 40
1.0
 40
1.0
 40
1.0
 10
390.3882198909222
 20
294.7375848276968
 30
0.0
 10
390.3864694583288
 20
294.7422801325554
 30
0.0
 10
390.3851627830578
 20
294.7470599940435
 30
0.0
 10
390.3842431491946
 20
294.7521051360539
 30
0.0
 10
390.3842099935297
 20
294.7522905940537
 30
0.0
 10
390.3841774538389
 20
294.7524762297803
 30
0.0
  0
SPLINE
  5
1BC
330
1F
100
AcDbEntity
  8
1
100
AcDbSpline
210
0.0
220
0.0
230
1.0
 70
     8
 71
     3
 72
    20
 73
    16
 74
     0
 42
0.000000001
 43
0.0000000001
 40
0.0
 40
0.0
 40
0.0
 40
0.0
 40
0.1249999999999989
 40
0.1249999999999989
 40
0.2499999999999978
 40
0.3124999999999998
 40
0.3124999999999998
 40
0.3750000000000019
 40
0.3750000000000019
 40
0.5000000000000002
 40
0.6249999999999987
 40
0.6249999999999987
 40
0.7499999999999969
 40
0.7499999999999969
 40
1.0
 40
1.0
 40
1.0
 40
1.0
 10
390.3423550325405
 20
295.2709034394705
 30
0.0
 10
390.3541789939479
 20
295.2591962832983
 30
0.0
 10
390.3653397412895
 20
295.2467337731278
 30
0.0
 10
390.3860174746867
 20
295.2206435295091
 30
0.0
 10
390.4003607424339
 20
295.2001399115259
 30
0.0
 10
390.4129230355149
 20
295.1781849854821
 30
0.0
 10
390.4208898422382
 20
295.1632140553528
 30
0.0
 10
390.4246825784726
 20
295.1555313864304
 30
0.0
 10
390.4353006145744
 20
295.13224709238
 30
0.0
 10
390.4474706816253
 20
295.1005500797967
 30
0.0
 10
390.4557737210496
 20
295.0675838345682
 30
0.0
 10
390.4621154047518
 20
295.03397482284
 30
0.0
 10
390.4642938651382
 20
295.0167887888707
 30
0.0
 10
390.4677083328627
 20
294.9657945075838
 30
0.0
 10
390.465991790233
 20
294.9320541241588
 30
0.0
 10
390.460397898609
 20
294.8985300175408
 30
0.0
  0
SPLINE
  5
1BD
330
1F
100
AcDbEntity
  8
1
100
AcDbSpline
210
0.0
220
0.0
230
1.0
 70
     8
 71
     3
 72
    14
 73
    10
 74
     0
 42
0.000000001
 43
0.0000000001
 40
0.0
 40
0.0
 40
0.0
 40
0.0
 40
0.25
 40
0.25
 40
0.5
 40
0.5
 40
0.75
 40
0.75
 40
1.0
 40
1.0
 40
1.0
 40
1.0
 10
390.2781203788757
 20
295.2946007405769
 30
0.0
 10
390.2840080481862
 20
295.2949911709954
 30
0.0
 10
390.289923329415
 20
295.2947686403571
 30
0.0
 10
390.301508019591
 20
295.2931226232013
 30
0.0
 10
390.3071530996192
 20
295.2917131732956
 30
0.0
 10
390.3181466761409
 20
295.2877032739177
 30
0.0
 10
390.3235061193973
 20
295.2850780217779
 30
0.0
 10
390.3334374954845
 20
295.2788055946517
 30
0.0
 10
390.3380742341622
 20
295.2751419491735
 30
0.0
 10
390.3423550325406
 20
295.2709034394701
 30
0.0
  0
SPLINE
  5
1BE
330
1F
100
AcDbEntity
  8
1
100
AcDbSpline
210
0.0
220
0.0
230
1.0
 70
     8
 71
     3
 72
    20
 73
    16
 74
     0
 42
0.000000001
 43
0.0000000001
 40
0.0
 40
0.0
 40
0.0
 40
0.0
 40
0.249999999999996
 40
0.249999999999996
 40
0.3749999999999967
 40
0.3749999999999967
 40
0.4999999999999973
 40
0.4999999999999973
 40
0.6249999999999979
 40
0.6249999999999979
 40
0.7499999999999987
 40
0.7499999999999987
 40
0.8749999999999992
 40
0.8749999999999992
 40
1.0
 40
1.0
 40
1.0
 40
1.0
 10
390.2781203788757
 20
295.2946007405769
 30
0.0
 10
390.2686607321101
 20
295.293973440766
 30
0.0
 10
390.2593912072224
 20
295.2948932830315
 30
0.0
 10
390.2457754138242
 20
295.2985903706503
 30
0.0
 10
390.2413016036377
 20
295.3002218029515
 30
0.0
 10
390.2327806729074
 20
295.3041805273352
 30
0.0
 10
390.2286919406627
 20
295.3065172567428
 30
0.0
 10
390.2208753782971
 20
295.3119378469575
 30
0.0
 10
390.2171751382799
 20
295.31501252084
 30
0.0
 10
390.2104126335818
 20
295.3217153509204
 30
0.0
 10
390.2073165815843
 20
295.325365159036
 30
0.0
 10
390.2017299885689
 20
295.3332959538806
 30
0.0
 10
390.1992895248565
 20
295.3375157267917
 30
0.0
 10
390.1952041001612
 20
295.3462973102712
 30
0.0
 10
390.1935416121089
 20
295.3508828981981
 30
0.0
 10
390.1922843015098
 20
295.3556755970698
 30
0.0
  0
SPLINE
  5
1BF
330
1F
100
AcDbEntity
  8
1
100
AcDbSpline
210
0.0
220
0.0
230
1.0
 70
     8
 71
     3
 72
    20
 73
    16
 74
     0
 42
0.000000001
 43
0.0000000001
 40
0.0
 40
0.0
 40
0.0
 40
0.0
 40
0.125
 40
0.125
 40
0.25
 40
0.3125
 40
0.3125
 40
0.375
 40
0.375
 40
0.5
 40
0.625
 40
0.625
 40
0.75
 40
0.75
 40
1.0
 40
1.0
 40
1.0
 40
1.0
 10
391.6866396635993
 20
294.627253438189
 30
0.0
 10
391.6911935402493
 20
294.6436315860234
 30
0.0
 10
391.6967054003919
 20
294.6597841408208
 30
0.0
 10
391.7094892457815
 20
294.6911766029779
 30
0.0
 10
391.7204189437072
 20
294.714127851864
 30
0.0
 10
391.7334105986376
 20
294.7361756636663
 30
0.0
 10
391.742545071958
 20
294.750667490852
 30
0.0
 10
391.7473685242359
 20
294.757836737591
 30
0.0
 10
391.7623894381134
 20
294.77877045747
 30
0.0
 10
391.7838854347797
 20
294.8051981595852
 30
0.0
 10
391.8082369953647
 20
294.8287359541305
 30
0.0
 10
391.8340375402594
 20
294.8508091825792
 30
0.0
 10
391.8477190053549
 20
294.861132042639
 30
0.0
 10
391.8897202080684
 20
294.8890057390652
 30
0.0
 10
391.9193429137987
 20
294.9038548340568
 30
0.0
 10
391.9505936003408
 20
294.9151192296105
 30
0.0
  0
SPLINE
  5
1C0
330
1F
100
AcDbEntity
  8
1
100
AcDbSpline
210
0.0
220
0.0
230
1.0
 70
     8
 71
     3
 72
    14
 73
    10
 74
     0
 42
0.000000001
 43
0.0000000001
 40
0.0
 40
0.0
 40
0.0
 40
0.0
 40
0.25
 40
0.25
 40
0.5
 40
0.5
 40
0.75
 40
0.75
 40
1.0
 40
1.0
 40
1.0
 40
1.0
 10
391.9505936003408
 20
294.9151192296105
 30
0.0
 10
391.956256778926
 20
294.9171605378419
 30
0.0
 10
391.9621150048737
 20
294.9185537688444
 30
0.0
 10
391.9737777227815
 20
294.9200408886244
 30
0.0
 10
391.9796048116214
 20
294.9201531360833
 30
0.0
 10
391.9912543150259
 20
294.9191499890182
 30
0.0
 10
391.9970605759972
 20
294.9180183276858
 30
0.0
 10
392.0081574393027
 20
294.914634691403
 30
0.0
 10
392.0135161664612
 20
294.9123799002512
 30
0.0
 10
392.0186794490459
 20
294.9095437932475
 30
0.0
  0
SPLINE
  5
1C1
330
1F
100
AcDbEntity
  8
1
100
AcDbSpline
210
0.0
220
0.0
230
1.0
 70
     8
 71
     3
 72
    18
 73
    14
 74
     0
 42
0.000000001
 43
0.0000000001
 40
0.0
 40
0.0
 40
0.0
 40
0.0
 40
0.125
 40
0.125
 40
0.25
 40
0.25
 40
0.375
 40
0.375
 40
0.5
 40
0.5
 40
0.75
 40
0.75
 40
1.0
 40
1.0
 40
1.0
 40
1.0
 10
392.1220507971865
 20
294.9287610449476
 30
0.0
 10
392.1188937465245
 20
294.9249441596432
 30
0.0
 10
392.1154518986993
 20
294.9214794470091
 30
0.0
 10
392.1080287255788
 20
294.9152183842222
 30
0.0
 10
392.1040038227521
 20
294.9124004091278
 30
0.0
 10
392.0956510397696
 20
294.907595201202
 30
0.0
 10
392.0913280399842
 20
294.9055977109669
 30
0.0
 10
392.0824038040761
 20
294.9023760631137
 30
0.0
 10
392.0777574990036
 20
294.9011458345283
 30
0.0
 10
392.0637410136209
 20
294.8987151850826
 30
0.0
 10
392.0543353292321
 20
294.898729568395
 30
0.0
 10
392.0357604544901
 20
294.9019084750854
 30
0.0
 10
392.0269719195563
 20
294.9049888742967
 30
0.0
 10
392.0186794490459
 20
294.9095437932475
 30
0.0
  0
SPLINE
  5
1C2
330
1F
100
AcDbEntity
  8
1
100
AcDbSpline
210
0.0
220
0.0
230
1.0
 70
     8
 71
     3
 72
   102
 73
    98
 74
     0
 42
0.000000001
 43
0.0000000001
 40
0.0
 40
0.0
 40
0.0
 40
0.0
 40
0.0156249999999997
 40
0.0156249999999997
 40
0.0312499999999995
 40
0.0312499999999995
 40
0.0624999999999987
 40
0.0624999999999987
 40
0.0781249999999983
 40
0.0781249999999983
 40
0.0937499999999978
 40
0.0937499999999978
 40
0.1093749999999974
 40
0.1093749999999974
 40
0.1249999999999969
 40
0.1406249999999965
 40
0.1406249999999965
 40
0.1562499999999961
 40
0.1562499999999961
 40
0.1718749999999956
 40
0.1718749999999956
 40
0.1874999999999952
 40
0.1874999999999952
 40
0.2187499999999944
 40
0.2187499999999944
 40
0.2343749999999939
 40
0.2343749999999939
 40
0.2499999999999933
 40
0.2499999999999933
 40
0.2656249999999927
 40
0.2656249999999927
 40
0.2812499999999921
 40
0.2812499999999921
 40
0.3124999999999912
 40
0.3124999999999912
 40
0.328124999999991
 40
0.328124999999991
 40
0.3437499999999908
 40
0.3437499999999908
 40
0.3749999999999909
 40
0.3749999999999909
 40
0.406249999999991
 40
0.406249999999991
 40
0.421874999999991
 40
0.421874999999991
 40
0.437499999999991
 40
0.437499999999991
 40
0.4687499999999908
 40
0.4687499999999908
 40
0.4843749999999908
 40
0.4843749999999908
 40
0.4999999999999908
 40
0.4999999999999908
 40
0.5312499999999908
 40
0.5312499999999908
 40
0.5468749999999903
 40
0.5468749999999903
 40
0.5624999999999896
 40
0.5624999999999896
 40
0.5937499999999889
 40
0.5937499999999889
 40
0.6093749999999889
 40
0.6093749999999889
 40
0.6249999999999888
 40
0.6249999999999888
 40
0.656249999999989
 40
0.656249999999989
 40
0.6874999999999893
 40
0.6874999999999893
 40
0.7031249999999901
 40
0.7031249999999901
 40
0.7187499999999907
 40
0.7343749999999915
 40
0.7343749999999915
 40
0.7499999999999921
 40
0.7499999999999921
 40
0.7656249999999929
 40
0.7656249999999929
 40
0.7812499999999937
 40
0.7812499999999937
 40
0.8124999999999952
 40
0.8124999999999952
 40
0.8437499999999968
 40
0.8437499999999968
 40
0.8593749999999973
 40
0.8593749999999973
 40
0.8749999999999978
 40
0.8749999999999978
 40
0.9062499999999984
 40
0.9062499999999984
 40
0.9218749999999987
 40
0.9218749999999987
 40
0.9374999999999989
 40
0.9374999999999989
 40
0.9687499999999994
 40
0.9687499999999994
 40
1.0
 40
1.0
 40
1.0
 40
1.0
 10
392.9001896775492
 20
285.7329935137008
 30
0.0
 10
392.8953894145927
 20
285.7078027668895
 30
0.0
 10
392.8906580886112
 20
285.6821255095819
 30
0.0
 10
392.8813336726514
 20
285.6297954188477
 30
0.0
 10
392.8767333252055
 20
285.603098600307
 30
0.0
 10
392.8631966688499
 20
285.5218467401448
 30
0.0
 10
392.8545511635244
 20
285.4663144346564
 30
0.0
 10
392.8421538425337
 20
285.3809602376603
 30
0.0
 10
392.8381207006498
 20
285.3521870411801
 30
0.0
 10
392.8303054257952
 20
285.2943761560138
 30
0.0
 10
392.8265157636521
 20
285.2652874151265
 30
0.0
 10
392.8191728007139
 20
285.2067426985153
 30
0.0
 10
392.8156134028997
 20
285.1772331468126
 30
0.0
 10
392.8087671958177
 20
285.118127065917
 30
0.0
 10
392.8021980600117
 20
285.058983401274
 30
0.0
 10
392.7961800613081
 20
284.9997649768145
 30
0.0
 10
392.7904398012487
 20
284.9405088780813
 30
0.0
 10
392.7877146352432
 20
284.9109198382701
 30
0.0
 10
392.7825808348243
 20
284.8521275177138
 30
0.0
 10
392.7801677114337
 20
284.8228784626646
 30
0.0
 10
392.7756492160577
 20
284.7646747522124
 30
0.0
 10
392.7735404146689
 20
284.7356664999908
 30
0.0
 10
392.7677148494912
 20
284.6495911304928
 30
0.0
 10
392.7644918816387
 20
284.5934415438721
 30
0.0
 10
392.7606488104176
 20
284.5110686524503
 30
0.0
 10
392.759538286562
 20
284.4840149968354
 30
0.0
 10
392.7576619066077
 20
284.4308787946379
 30
0.0
 10
392.7568947522134
 20
284.4047687340443
 30
0.0
 10
392.7557024431065
 20
284.3534645024311
 30
0.0
 10
392.7552772294609
 20
284.3282302885648
 30
0.0
 10
392.7547750902602
 20
284.2790059255987
 30
0.0
 10
392.754696983054
 20
284.2549889817531
 30
0.0
 10
392.7549779966798
 20
284.1847116393896
 30
0.0
 10
392.7558581775273
 20
284.1401115531364
 30
0.0
 10
392.7581899990279
 20
284.0776471919546
 30
0.0
 10
392.7591355936116
 20
284.0575327081376
 30
0.0
 10
392.761363408181
 20
284.0187176127071
 30
0.0
 10
392.7626478644663
 20
283.9999974723204
 30
0.0
 10
392.7669802751197
 20
283.9463390713548
 30
0.0
 10
392.7705128664529
 20
283.9137523705391
 30
0.0
 10
392.7788511846834
 20
283.8550749212298
 30
0.0
 10
392.7836179074532
 20
283.8292483123388
 30
0.0
 10
392.7916553809329
 20
283.7957239338057
 30
0.0
 10
392.7944851673176
 20
283.7854195116594
 30
0.0
 10
392.8004010337622
 20
283.7667001468867
 30
0.0
 10
392.8034915925012
 20
283.7582641183333
 30
0.0
 10
392.8131591608533
 20
283.7357131739592
 30
0.0
 10
392.8201557394658
 20
283.7243394226883
 30
0.0
 10
392.8312998682373
 20
283.7130342244345
 30
0.0
 10
392.8351265838964
 20
283.7102127167799
 30
0.0
 10
392.8430040066677
 20
283.7064633101367
 30
0.0
 10
392.8470614581643
 20
283.7055359224708
 30
0.0
 10
392.8595240983235
 20
283.7056273483032
 30
0.0
 10
392.8681912720124
 20
283.7094931612541
 30
0.0
 10
392.8817290602166
 20
283.7209875850872
 30
0.0
 10
392.8863331234103
 20
283.7257771422371
 30
0.0
 10
392.8956558943104
 20
283.7371975387092
 30
0.0
 10
392.9003825261788
 20
283.7438339035617
 30
0.0
 10
392.9147579752026
 20
283.7665188600507
 30
0.0
 10
392.9246265121129
 20
283.7854060508339
 30
0.0
 10
392.9396216883449
 20
283.8189455096109
 30
0.0
 10
392.9446592243652
 20
283.8310033751536
 30
0.0
 10
392.9548130150712
 20
283.8568848610528
 30
0.0
 10
392.9599366514327
 20
283.8707315266936
 30
0.0
 10
392.9753240190057
 20
283.9146610176228
 30
0.0
 10
392.9856298641756
 20
283.9471797223975
 30
0.0
 10
393.0063378004253
 20
284.018752894914
 30
0.0
 10
393.0166426927904
 20
284.0574759245783
 30
0.0
 10
393.0319926922535
 20
284.1198380580413
 30
0.0
 10
393.0371022200491
 20
284.1413875796712
 30
0.0
 10
393.0472267292844
 20
284.1856810214064
 30
0.0
 10
393.0572631475024
 20
284.2311887538714
 30
0.0
 10
393.0671236360623
 20
284.2791215889116
 30
0.0
 10
393.0768951260414
 20
284.3282812249937
 30
0.0
 10
393.0817211730653
 20
284.353399973278
 30
0.0
 10
393.0912202062783
 20
284.404532880734
 30
0.0
 10
393.0958985983832
 20
284.4305741047979
 30
0.0
 10
393.1051124458948
 20
284.4836106840982
 30
0.0
 10
393.1096558863813
 20
284.5106566886316
 30
0.0
 10
393.1229871727861
 20
284.5927457099402
 30
0.0
 10
393.13148818554
 20
284.6487831202916
 30
0.0
 10
393.1477102923436
 20
284.7635041296357
 30
0.0
 10
393.1553563611584
 20
284.8216654253779
 30
0.0
 10
393.1660946575598
 20
284.9098409704775
 30
0.0
 10
393.1695592498569
 20
284.9394534978598
 30
0.0
 10
393.176200654418
 20
284.9986290280244
 30
0.0
 10
393.1793815729839
 20
285.0282216742662
 30
0.0
 10
393.188506325624
 20
285.1170142093949
 30
0.0
 10
393.1940453212799
 20
285.1764000386774
 30
0.0
 10
393.2013979756993
 20
285.2642705340556
 30
0.0
 10
393.2036940833019
 20
285.2934000378739
 30
0.0
 10
393.2079758591317
 20
285.3513368042838
 30
0.0
 10
393.2099633280823
 20
285.3801793213576
 30
0.0
 10
393.2154162257037
 20
285.4656047825747
 30
0.0
 10
393.2183908416492
 20
285.5213103403268
 30
0.0
 10
393.223002540659
 20
285.6299825906127
 30
0.0
 10
393.2246182957752
 20
285.6824258280873
 30
0.0
 10
393.2255502766563
 20
285.7329935136989
 30
0.0
  0
SPLINE
  5
1C3
330
1F
100
AcDbEntity
  8
1
100
AcDbSpline
210
0.0
220
0.0
230
1.0
 70
     8
 71
     3
 72
    52
 73
    48
 74
     0
 42
0.000000001
 43
0.0000000001
 40
0.0
 40
0.0
 40
0.0
 40
0.0
 40
0.0625000000000009
 40
0.0625000000000009
 40
0.0937500000000012
 40
0.0937500000000012
 40
0.1250000000000015
 40
0.1250000000000015
 40
0.1875000000000002
 40
0.1875000000000002
 40
0.21875
 40
0.21875
 40
0.2499999999999998
 40
0.2499999999999998
 40
0.3124999999999989
 40
0.3124999999999989
 40
0.3749999999999979
 40
0.3749999999999979
 40
0.4062499999999979
 40
0.4062499999999979
 40
0.4374999999999979
 40
0.4374999999999979
 40
0.4999999999999973
 40
0.4999999999999973
 40
0.5312499999999964
 40
0.5312499999999964
 40
0.5624999999999955
 40
0.5624999999999955
 40
0.6249999999999938
 40
0.6249999999999938
 40
0.656249999999994
 40
0.656249999999994
 40
0.6874999999999942
 40
0.6874999999999942
 40
0.7499999999999966
 40
0.7499999999999966
 40
0.7812499999999968
 40
0.7812499999999968
 40
0.8124999999999969
 40
0.8124999999999969
 40
0.8749999999999978
 40
0.8749999999999978
 40
0.9374999999999987
 40
0.9374999999999987
 40
0.9687499999999994
 40
0.9687499999999994
 40
1.0
 40
1.0
 40
1.0
 40
1.0
 10
393.2255502766565
 20
285.7329935136989
 30
0.0
 10
393.2212386169842
 20
285.7825187337822
 30
0.0
 10
393.2165057088553
 20
285.8298615245693
 30
0.0
 10
393.2087939877744
 20
285.8975210108114
 30
0.0
 10
393.206115978125
 20
285.9195521304747
 30
0.0
 10
393.2005850106833
 20
285.9622457332709
 30
0.0
 10
393.1977301863626
 20
285.9829293347696
 30
0.0
 10
393.1888993672943
 20
286.0430029787028
 30
0.0
 10
393.1826379351426
 20
286.080511187489
 30
0.0
 10
393.172824724593
 20
286.1321446375605
 30
0.0
 10
393.1694806656572
 20
286.1486068588116
 30
0.0
 10
393.1626464772369
 20
286.1800324890623
 30
0.0
 10
393.1591506363417
 20
286.1950169635285
 30
0.0
 10
393.1485017476935
 20
286.2374618731052
 30
0.0
 10
393.1411799826725
 20
286.2624758896785
 30
0.0
 10
393.126090065766
 20
286.3059184577756
 30
0.0
 10
393.1183809955771
 20
286.3241691616764
 30
0.0
 10
393.1066063990405
 20
286.3462801530888
 30
0.0
 10
393.1026345536021
 20
286.3527873852681
 30
0.0
 10
393.0946817062599
 20
286.3639416091215
 30
0.0
 10
393.0906980484829
 20
286.3685990135888
 30
0.0
 10
393.0787257635283
 20
286.3798617754455
 30
0.0
 10
393.0707159086117
 20
286.383768345964
 30
0.0
 10
393.0586586254282
 20
286.3842248648544
 30
0.0
 10
393.0546324265961
 20
286.3834738157359
 30
0.0
 10
393.0465655583926
 20
286.3801320066332
 30
0.0
 10
393.0425148307419
 20
286.3775315554005
 30
0.0
 10
393.0304198504623
 20
286.3669598960252
 30
0.0
 10
393.0224531911127
 20
286.3562699661098
 30
0.0
 10
393.0106489237155
 20
286.3347443154847
 30
0.0
 10
393.0067370359806
 20
286.3266435693615
 30
0.0
 10
392.9990179171998
 20
286.3087110247862
 30
0.0
 10
392.9952036766639
 20
286.2988678872312
 30
0.0
 10
392.9838971018286
 20
286.2667041984554
 30
0.0
 10
392.9765239184309
 20
286.2416702847966
 30
0.0
 10
392.9658901622773
 20
286.199299541356
 30
0.0
 10
392.9624109884297
 20
286.1843585689099
 30
0.0
 10
392.9555843312678
 20
286.1528310015188
 30
0.0
 10
392.9522322547354
 20
286.136217067725
 30
0.0
 10
392.942442115261
 20
286.0842207012638
 30
0.0
 10
392.9362510336634
 20
286.0466228381885
 30
0.0
 10
392.9245476597608
 20
285.9654949130304
 30
0.0
 10
392.919092358024
 20
285.92235321691
 30
0.0
 10
392.9115181149184
 20
285.8539042019529
 30
0.0
 10
392.9090904324268
 20
285.8304142934167
 30
0.0
 10
392.904468684039
 20
285.7824589928503
 30
0.0
 10
392.9022721844665
 20
285.7579773887034
 30
0.0
 10
392.9001896775492
 20
285.7329935137008
 30
0.0
  0
SPLINE
  5
1C4
330
1F
100
AcDbEntity
  8
1
100
AcDbSpline
210
0.0
220
0.0
230
1.0
 70
     8
 71
     3
 72
    14
 73
    10
 74
     0
 42
0.000000001
 43
0.0000000001
 40
0.0
 40
0.0
 40
0.0
 40
0.0
 40
0.2500000000000108
 40
0.2500000000000108
 40
0.3750000000000107
 40
0.3750000000000107
 40
0.5000000000000107
 40
0.5000000000000107
 40
1.0
 40
1.0
 40
1.0
 40
1.0
 10
297.9048419453392
 20
297.5501277588734
 30
0.0
 10
297.8253146206997
 20
297.5501277588732
 30
0.0
 10
297.7456321887834
 20
297.5507473533597
 30
0.0
 10
297.6258723337954
 20
297.5526130836223
 30
0.0
 10
297.5859129971232
 20
297.5533909682422
 30
0.0
 10
297.5059147487812
 20
297.5552588380131
 30
0.0
 10
297.4658346529004
 20
297.5563503057355
 30
0.0
 10
297.2660376779203
 20
297.5625595006876
 30
0.0
 10
297.1077421700691
 20
297.5699424689083
 30
0.0
 10
296.9509626077515
 20
297.579472717023
 30
0.0
  0
SPLINE
  5
1C5
330
1F
100
AcDbEntity
  8
1
100
AcDbSpline
210
0.0
220
0.0
230
1.0
 70
     8
 71
     3
 72
    12
 73
     8
 74
     0
 42
0.000000001
 43
0.0000000001
 40
0.0
 40
0.0
 40
0.0
 40
0.0
 40
0.4999999999999984
 40
0.4999999999999984
 40
0.7499999999999992
 40
0.7499999999999992
 40
1.0
 40
1.0
 40
1.0
 40
1.0
 10
296.9509626077516
 20
297.579472717023
 30
0.0
 10
296.4044228202526
 20
297.6126955408555
 30
0.0
 10
295.8612246665975
 20
297.6469081207758
 30
0.0
 10
295.0498911979952
 20
297.6960161175923
 30
0.0
 10
294.7800264734531
 20
297.7120269514321
 30
0.0
 10
294.2412513643434
 20
297.7428528514823
 30
0.0
 10
293.9723405252773
 20
297.7576682507311
 30
0.0
 10
293.7038318185449
 20
297.7716940375911
 30
0.0
  0
SPLINE
  5
1C6
330
1F
100
AcDbEntity
  8
1
100
AcDbSpline
210
0.0
220
0.0
230
1.0
 70
     8
 71
     3
 72
    13
 73
     9
 74
     0
 42
0.000000001
 43
0.0000000001
 40
0.0
 40
0.0
 40
0.0
 40
0.0
 40
0.25
 40
0.25
 40
0.5
 40
0.5
 40
0.75
 40
1.0
 40
1.0
 40
1.0
 40
1.0
 10
389.5065571558192
 20
291.4996134237815
 30
0.0
 10
389.3920326553871
 20
291.5070861936141
 30
0.0
 10
389.2757345384302
 20
291.5146328126892
 30
0.0
 10
389.0399142076701
 20
291.5304120118617
 30
0.0
 10
388.9203904598596
 20
291.538642644534
 30
0.0
 10
388.6782876956274
 20
291.556190532093
 30
0.0
 10
388.4331284950432
 20
291.5748228752946
 30
0.0
 10
388.1819595824522
 20
291.5962540739818
 30
0.0
 10
388.0548419458412
 20
291.6077939433328
 30
0.0
  0
SPLINE
  5
1C7
330
1F
100
AcDbEntity
  8
1
100
AcDbSpline
210
0.0
220
0.0
230
1.0
 70
     8
 71
     3
 72
    14
 73
    10
 74
     0
 42
0.000000001
 43
0.0000000001
 40
0.0
 40
0.0
 40
0.0
 40
0.0
 40
0.25
 40
0.25
 40
0.5
 40
0.5
 40
0.75
 40
0.75
 40
1.0
 40
1.0
 40
1.0
 40
1.0
 10
388.0548419458734
 20
290.3123909227177
 30
0.0
 10
388.1856968199346
 20
290.3058520536718
 30
0.0
 10
388.3148720563302
 20
290.3027684133103
 30
0.0
 10
388.5699402876771
 20
290.3031254571494
 30
0.0
 10
388.6958331305445
 20
290.3065670272405
 30
0.0
 10
388.9442818794652
 20
290.319716499155
 30
0.0
 10
389.0668384684983
 20
290.329424614052
 30
0.0
 10
389.3084225117776
 20
290.3549579053833
 30
0.0
 10
389.4274518153243
 20
290.3707825669373
 30
0.0
 10
389.5445336046008
 20
290.3896474840463
 30
0.0
  0
SPLINE
  5
1C8
330
1F
100
AcDbEntity
  8
1
100
AcDbSpline
210
0.0
220
0.0
230
1.0
 70
    24
 71
     3
 72
    22
 73
    18
 74
     0
 42
0.000000001
 43
0.0000000001
 40
0.0
 40
0.0
 40
0.0
 40
0.0
 40
0.1254581618591254
 40
0.1254581618591254
 40
0.2509163237182508
 40
0.2509163237182508
 40
0.3763744855773763
 40
0.3763744855773763
 40
0.5018326474365017
 40
0.5018326474365017
 40
0.6272908092956272
 40
0.6272908092956272
 40
0.7527489711547526
 40
0.7527489711547526
 40
0.8782071330138778
 40
0.8782071330138778
 40
1.0
 40
1.0
 40
1.0
 40
1.0
 10
388.0548419458412
 20
291.6077939433328
 30
0.0
 10
388.0548419458637
 20
291.4116784221603
 30
0.0
 10
388.0548419458838
 20
291.2291048306126
 30
0.0
 10
388.0548419459192
 20
290.8955079634623
 30
0.0
 10
388.0548419459344
 20
290.7444880360213
 30
0.0
 10
388.0548419459594
 20
290.4776997253512
 30
0.0
 10
388.0548419459693
 20
290.3619340197561
 30
0.0
 10
388.0548419459834
 20
290.1684915852735
 30
0.0
 10
388.0548419459877
 20
290.0908167978803
 30
0.0
 10
388.0548419459906
 20
289.9754603087282
 30
0.0
 10
388.0548419459892
 20
289.9377797647502
 30
0.0
 10
388.0548419459807
 20
289.9033358899383
 30
0.0
 10
388.0548419459736
 20
289.9065729048018
 30
0.0
 10
388.054841945954
 20
289.9538856491555
 30
0.0
 10
388.0548419459414
 20
289.997960903789
 30
0.0
 10
388.0548419459116
 20
290.124002463314
 30
0.0
 10
388.0548419458945
 20
290.2048229411837
 30
0.0
 10
388.0548419458751
 20
290.3034391789361
 30
0.0
  0
SPLINE
  5
1C9
330
1F
100
AcDbEntity
  8
1
100
AcDbSpline
210
0.0
220
0.0
230
1.0
 70
     8
 71
     3
 72
    14
 73
    10
 74
     0
 42
0.000000001
 43
0.0000000001
 40
0.0
 40
0.0
 40
0.0
 40
0.0
 40
0.25
 40
0.25
 40
0.5
 40
0.5
 40
0.75
 40
0.75
 40
1.0
 40
1.0
 40
1.0
 40
1.0
 10
385.5707497836694
 20
292.2961002182848
 30
0.0
 10
385.7732880584986
 20
292.2180914315769
 30
0.0
 10
385.9765753962436
 20
292.1451687261213
 30
0.0
 10
386.3851370525856
 20
292.009490441724
 30
0.0
 10
386.5904100610272
 20
291.9467340757656
 30
0.0
 10
387.0035337190321
 20
291.8315871425236
 30
0.0
 10
387.2113828732043
 20
291.7791951118525
 30
0.0
 10
387.6303957083024
 20
291.6852130849524
 30
0.0
 10
387.8415578563627
 20
291.6436209049597
 30
0.0
 10
388.0548419452961
 20
291.6077939433824
 30
0.0
  0
SPLINE
  5
1CA
330
1F
100
AcDbEntity
  8
1
100
AcDbSpline
210
0.0
220
0.0
230
1.0
 70
     8
 71
     3
 72
     8
 73
     4
 74
     0
 42
0.000000001
 43
0.0000000001
 40
0.0
 40
0.0
 40
0.0
 40
0.0
 40
1.0
 40
1.0
 40
1.0
 40
1.0
 10
385.5707497836694
 20
292.2961002182848
 30
0.0
 10
385.3208411609694
 20
292.3716023592349
 30
0.0
 10
385.073316436392
 20
292.4547951002898
 30
0.0
 10
384.8278428147478
 20
292.5457482766513
 30
0.0
  0
SPLINE
  5
1CB
330
1F
100
AcDbEntity
  8
1
100
AcDbSpline
210
0.0
220
0.0
230
1.0
 70
     8
 71
     3
 72
    46
 73
    42
 74
     0
 42
0.000000001
 43
0.0000000001
 40
0.0
 40
0.0
 40
0.0
 40
0.0
 40
0.2499999999999972
 40
0.2499999999999972
 40
0.3750000000000078
 40
0.3750000000000078
 40
0.4375000000000132
 40
0.4375000000000132
 40
0.5000000000000185
 40
0.5000000000000185
 40
0.5625000000000238
 40
0.5625000000000238
 40
0.6250000000000289
 40
0.6250000000000289
 40
0.6875000000000343
 40
0.6875000000000343
 40
0.7500000000000397
 40
0.7500000000000397
 40
0.7812500000000479
 40
0.7812500000000479
 40
0.8125000000000561
 40
0.8125000000000561
 40
0.8281250000000571
 40
0.8281250000000571
 40
0.8437500000000584
 40
0.8437500000000584
 40
0.8593750000000595
 40
0.8593750000000595
 40
0.8750000000000605
 40
0.8750000000000605
 40
0.9062500000000611
 40
0.9062500000000611
 40
0.9218750000000552
 40
0.9218750000000552
 40
0.937500000000049
 40
0.937500000000049
 40
0.9531250000000428
 40
0.9531250000000428
 40
0.9687500000000365
 40
0.9687500000000365
 40
1.0
 40
1.0
 40
1.0
 40
1.0
 10
384.827842814748
 20
292.5457482766513
 30
0.0
 10
384.7225386214489
 20
292.5847657107878
 30
0.0
 10
384.6205913731722
 20
292.6292715792686
 30
0.0
 10
384.4738525218365
 20
292.7064797524094
 30
0.0
 10
384.425978042867
 20
292.7339716651312
 30
0.0
 10
384.3560560198586
 20
292.7784433554905
 30
0.0
 10
384.3330654612627
 20
292.7938093478601
 30
0.0
 10
384.2878105141472
 20
292.8257885790948
 30
0.0
 10
384.2655113672319
 20
292.8424304237478
 30
0.0
 10
384.2221036388684
 20
292.8769293044958
 30
0.0
 10
384.2009623206944
 20
292.8948038071717
 30
0.0
 10
384.1600397815664
 20
292.9320623365546
 30
0.0
 10
384.1402132945066
 20
292.9514870892851
 30
0.0
 10
384.1025058299932
 20
292.9920700577196
 30
0.0
 10
384.0846933571985
 20
293.0131339766851
 30
0.0
 10
384.0518936482042
 20
293.0573409168655
 30
0.0
 10
384.0368739122537
 20
293.0804609808862
 30
0.0
 10
384.0176492298251
 20
293.1175462605675
 30
0.0
 10
384.0117933784032
 20
293.1303605059589
 30
0.0
 10
384.0018494556405
 20
293.1564576629236
 30
0.0
 10
383.9977212639623
 20
293.1697963520477
 30
0.0
 10
383.9932405677578
 20
293.1903861919629
 30
0.0
 10
383.9920345381214
 20
293.1973471827496
 30
0.0
 10
383.990316038244
 20
293.2115034731596
 30
0.0
 10
383.9898130108667
 20
293.218654881112
 30
0.0
 10
383.9896352087777
 20
293.2329178101724
 30
0.0
 10
383.989956388316
 20
293.2400573460469
 30
0.0
 10
383.9915378034917
 20
293.2543534253305
 30
0.0
 10
383.9928134963214
 20
293.2615663209905
 30
0.0
 10
383.9981639491344
 20
293.2827902235483
 30
0.0
 10
384.0036917036628
 20
293.2962591798573
 30
0.0
 10
384.0150475675616
 20
293.3153921717261
 30
0.0
 10
384.0193587191329
 20
293.3215916502407
 30
0.0
 10
384.0286742521583
 20
293.3332412339744
 30
0.0
 10
384.0337091210495
 20
293.338749179384
 30
0.0
 10
384.0444532870453
 20
293.3491978877927
 30
0.0
 10
384.0501972182378
 20
293.354163203499
 30
0.0
 10
384.0620775889303
 20
293.3634198159694
 30
0.0
 10
384.0682171875799
 20
293.3677224000335
 30
0.0
 10
384.0871348911139
 20
293.3798152186412
 30
0.0
 10
384.1004070590616
 20
293.3867984314821
 30
0.0
 10
384.1141656040169
 20
293.3929871504632
 30
0.0
  0
SPLINE
  5
1CC
330
1F
100
AcDbEntity
  8
1
100
AcDbSpline
210
0.0
220
0.0
230
1.0
 70
     8
 71
     3
 72
    14
 73
    10
 74
     0
 42
0.000000001
 43
0.0000000001
 40
0.0
 40
0.0
 40
0.0
 40
0.0
 40
0.3043176565537246
 40
0.3043176565537246
 40
0.4782382424152936
 40
0.6521588282768624
 40
0.8260794141384312
 40
0.8260794141384312
 40
1.0
 40
1.0
 40
1.0
 40
1.0
 10
289.7264184651893
 20
298.4848665234105
 30
0.0
 10
290.1101293074038
 20
298.3710546684595
 30
0.0
 10
290.4992800638867
 20
298.2680284842986
 30
0.0
 10
291.120033021298
 20
298.1250995102553
 30
0.0
 10
291.5753670472079
 20
298.0290740394311
 30
0.0
 10
292.2705731464873
 20
297.9111056837869
 30
0.0
 10
292.7427576884678
 20
297.8517608981381
 30
0.0
 10
293.2196535075085
 20
297.8032482198161
 30
0.0
 10
293.4604564069177
 20
297.784406964825
 30
0.0
 10
293.7038318185449
 20
297.7716940375911
 30
0.0
  0
SPLINE
  5
1CD
330
1F
100
AcDbEntity
  8
1
100
AcDbSpline
210
0.0
220
0.0
230
1.0
 70
     8
 71
     3
 72
     8
 73
     4
 74
     0
 42
0.000000001
 43
0.0000000001
 40
0.0
 40
0.0
 40
0.0
 40
0.0
 40
1.0
 40
1.0
 40
1.0
 40
1.0
 10
292.1054537212733
 20
285.4903842307813
 30
0.0
 10
292.6381583050178
 20
285.4248651407422
 30
0.0
 10
293.1709533580216
 20
285.3332211869131
 30
0.0
 10
293.7038318185191
 20
285.2174915996262
 30
0.0
  0
SPLINE
  5
1CE
330
1F
100
AcDbEntity
  8
1
100
AcDbSpline
210
0.0
220
0.0
230
1.0
 70
     9
 71
     3
 72
   121
 73
   117
 74
     0
 42
0.000000001
 43
0.0000000001
 40
0.0
 40
0.0
 40
0.0
 40
0.0
 40
0.0312500000000246
 40
0.0312500000000246
 40
0.0468750000000333
 40
0.0468750000000333
 40
0.0546875000000376
 40
0.0546875000000376
 40
0.0625000000000419
 40
0.0625000000000419
 40
0.0937500000000594
 40
0.0937500000000594
 40
0.1015625000000637
 40
0.1015625000000637
 40
0.1093750000000679
 40
0.1093750000000679
 40
0.1250000000000821
 40
0.1250000000000821
 40
0.1562500000001106
 40
0.1562500000001106
 40
0.1875000000001389
 40
0.1875000000001389
 40
0.2031250000001532
 40
0.2031250000001532
 40
0.2109375000001594
 40
0.2109375000001594
 40
0.2187500000001656
 40
0.2187500000001656
 40
0.250000000000194
 40
0.250000000000194
 40
0.2578125000002012
 40
0.2578125000002012
 40
0.2656250000002083
 40
0.2656250000002083
 40
0.2812500000002229
 40
0.2812500000002229
 40
0.3125000000002523
 40
0.3125000000002523
 40
0.3281250000002656
 40
0.3281250000002656
 40
0.343750000000279
 40
0.343750000000279
 40
0.3750000000003096
 40
0.3750000000003096
 40
0.3828125000003161
 40
0.3828125000003161
 40
0.3906250000003225
 40
0.4062500000003352
 40
0.4218750000003479
 40
0.4218750000003479
 40
0.429687500000351
 40
0.429687500000351
 40
0.4375000000003541
 40
0.4375000000003541
 40
0.4687500000003462
 40
0.4687500000003462
 40
0.4843750000003383
 40
0.4843750000003383
 40
0.4921875000003383
 40
0.4921875000003383
 40
0.500000000000338
 40
0.500000000000338
 40
0.5312500000003225
 40
0.5312500000003225
 40
0.5390625000003132
 40
0.5390625000003132
 40
0.5468750000003039
 40
0.5625000000002853
 40
0.5781250000002668
 40
0.5781250000002668
 40
0.5937500000002483
 40
0.5937500000002483
 40
0.6250000000002112
 40
0.6250000000002112
 40
0.6328125000002022
 40
0.6328125000002022
 40
0.6406250000001931
 40
0.6406250000001931
 40
0.6562500000001795
 40
0.6562500000001795
 40
0.6875000000001564
 40
0.6875000000001564
 40
0.695312500000152
 40
0.695312500000152
 40
0.7031250000001478
 40
0.7187500000001408
 40
0.734375000000134
 40
0.734375000000134
 40
0.7421875000001307
 40
0.7421875000001307
 40
0.7500000000001274
 40
0.7500000000001274
 40
0.7812500000001141
 40
0.7812500000001141
 40
0.7968750000001066
 40
0.7968750000001066
 40
0.8125000000000992
 40
0.8125000000000992
 40
0.8437500000000872
 40
0.8437500000000872
 40
0.8593750000000792
 40
0.8593750000000792
 40
0.8750000000000712
 40
0.8750000000000712
 40
0.90625000000005
 40
0.90625000000005
 40
0.9218750000000392
 40
0.9218750000000392
 40
0.9375000000000285
 40
0.9531250000000179
 40
0.9531250000000179
 40
0.9609375000000161
 40
0.9609375000000161
 40
0.9687500000000143
 40
0.9687500000000143
 40
1.0
 40
1.0
 40
1.0
 40
1.0
 10
391.1115316100778
 20
287.3561106208127
 30
0.0
 10
391.1705068622625
 20
287.3550812039567
 30
0.0
 10
391.2283537519952
 20
287.3481672864416
 30
0.0
 10
391.3135015912292
 20
287.3293455051179
 30
0.0
 10
391.3416116655612
 20
287.3216522001417
 30
0.0
 10
391.3833577594184
 20
287.307932982737
 30
0.0
 10
391.3972426572756
 20
287.3029799584598
 30
0.0
 10
391.4246239836187
 20
287.2924268914351
 30
0.0
 10
391.4381250420823
 20
287.2868281975698
 30
0.0
 10
391.5047012337243
 20
287.2572578837193
 30
0.0
 10
391.5550161817955
 20
287.2286011671524
 30
0.0
 10
391.6142476557246
 20
287.1865987435961
 30
0.0
 10
391.625909155215
 20
287.1778863631978
 30
0.0
 10
391.6488561874891
 20
287.1598280420171
 30
0.0
 10
391.660133436792
 20
287.1504852825728
 30
0.0
 10
391.6930225801778
 20
287.1218265209247
 30
0.0
 10
391.7138254430773
 20
287.1017811314256
 30
0.0
 10
391.7729650121216
 20
287.038923733309
 30
0.0
 10
391.8080739594607
 20
286.9933981770965
 30
0.0
 10
391.8693735429517
 20
286.89509974577
 30
0.0
 10
391.8945844906622
 20
286.8439084505287
 30
0.0
 10
391.9247058456371
 20
286.7642793520106
 30
0.0
 10
391.9334542654196
 20
286.7372588818872
 30
0.0
 10
391.9446147063132
 20
286.6960076772959
 30
0.0
 10
391.9480144940314
 20
286.6821023170457
 30
0.0
 10
391.9541099548703
 20
286.6542273865561
 30
0.0
 10
391.9568030729513
 20
286.6402792829477
 30
0.0
 10
391.9685370101103
 20
286.5704882524388
 30
0.0
 10
391.9724302515673
 20
286.5144964164193
 30
0.0
 10
391.970594187752
 20
286.4443229612387
 30
0.0
 10
391.9698889193514
 20
286.4302789255297
 30
0.0
 10
391.9677945849028
 20
286.4021718935248
 30
0.0
 10
391.9664006556453
 20
286.3880732249256
 30
0.0
 10
391.9612139806028
 20
286.346048485642
 30
0.0
 10
391.9564315929258
 20
286.3184240924042
 30
0.0
 10
391.9382416340615
 20
286.2366834111525
 30
0.0
 10
391.9210272483803
 20
286.1836901546579
 30
0.0
 10
391.8874283418982
 20
286.106454484108
 30
0.0
 10
391.8748717011972
 20
286.0810214463799
 30
0.0
 10
391.8476173642601
 20
286.031937473501
 30
0.0
 10
391.832874011525
 20
286.0081612468176
 30
0.0
 10
391.7853305639553
 20
285.9390880985986
 30
0.0
 10
391.7492526064564
 20
285.8960235454964
 30
0.0
 10
391.6982913878385
 20
285.8461158457925
 30
0.0
 10
391.6878248925277
 20
285.8363565866308
 30
0.0
 10
391.666528314891
 20
285.817448904705
 30
0.0
 10
391.6339594367845
 20
285.7899302377916
 30
0.0
 10
391.5765924351827
 20
285.7482188667737
 30
0.0
 10
391.5273833057288
 20
285.7192830249079
 30
0.0
 10
391.4891855859946
 20
285.6992965879467
 30
0.0
 10
391.4762374613931
 20
285.6929208947194
 30
0.0
 10
391.4498968137416
 20
285.680758424588
 30
0.0
 10
391.4364801098508
 20
285.6749642238608
 30
0.0
 10
391.3690877822028
 20
285.647836360053
 30
0.0
 10
391.3136124240084
 20
285.6316853716514
 30
0.0
 10
391.2280543205493
 20
285.6157399528496
 30
0.0
 10
391.1991413890612
 20
285.6118149847873
 30
0.0
 10
391.1551547542279
 20
285.6081041465732
 30
0.0
 10
391.1404166872649
 20
285.6072357068186
 30
0.0
 10
391.1111044399844
 20
285.6062469096191
 30
0.0
 10
391.096486058201
 20
285.6061223990255
 30
0.0
 10
391.0235797496244
 20
285.607318719938
 30
0.0
 10
390.9658433263994
 20
285.6140420476549
 30
0.0
 10
390.8944129982369
 20
285.62971796055
 30
0.0
 10
390.8801223813916
 20
285.6332324825737
 30
0.0
 10
390.8518866065302
 20
285.6409334708353
 30
0.0
 10
390.8100268950207
 20
285.6534942787072
 30
0.0
 10
390.742654603878
 20
285.6793290527045
 30
0.0
 10
390.6912357220156
 20
285.7050932567139
 30
0.0
 10
390.6410558164536
 20
285.7334180100423
 30
0.0
 10
390.6165154221022
 20
285.7489261932304
 30
0.0
 10
390.5462424873792
 20
285.7983207123894
 30
0.0
 10
390.5033299280542
 20
285.8352856666703
 30
0.0
 10
390.4544024762171
 20
285.8863966803449
 30
0.0
 10
390.4448549109712
 20
285.896866454039
 30
0.0
 10
390.4262394374715
 20
285.9183069527963
 30
0.0
 10
390.4171606694056
 20
285.9292941442368
 30
0.0
 10
390.390908620131
 20
285.9626832399898
 30
0.0
 10
390.3746284795488
 20
285.9856073746559
 30
0.0
 10
390.3293190537373
 20
286.0563201296102
 30
0.0
 10
390.3037873076295
 20
286.1060312196816
 30
0.0
 10
390.2778043186245
 20
286.1714820120061
 30
0.0
 10
390.2729056371367
 20
286.1847494057325
 30
0.0
 10
390.2638053499203
 20
286.2113519948853
 30
0.0
 10
390.2511627297595
 20
286.2514559191872
 30
0.0
 10
390.2350288595425
 20
286.3192821389765
 30
0.0
 10
390.2273322440175
 20
286.3745932550178
 30
0.0
 10
390.2235482752983
 20
286.4164792586654
 30
0.0
 10
390.2226189430968
 20
286.4305084709842
 30
0.0
 10
390.2214373129963
 20
286.4587040711905
 30
0.0
 10
390.2211859269028
 20
286.4729087701531
 30
0.0
 10
390.2216569047813
 20
286.5436934979584
 30
0.0
 10
390.2274759773184
 20
286.5996123179403
 30
0.0
 10
390.2442377692086
 20
286.6824281344454
 30
0.0
 10
390.2511729761372
 20
286.709854924387
 30
0.0
 10
390.2678306683854
 20
286.7643338939441
 30
0.0
 10
390.2776099770931
 20
286.7914902724372
 30
0.0
 10
390.3105976846149
 20
286.8706359766873
 30
0.0
 10
390.3375310951513
 20
286.9208294807294
 30
0.0
 10
390.3853695860515
 20
286.9922028331674
 30
0.0
 10
390.4025636606533
 20
287.0153367492878
 30
0.0
 10
390.4395600592583
 20
287.060221469012
 30
0.0
 10
390.459102463066
 20
287.0816491870183
 30
0.0
 10
390.5204981602752
 20
287.1426448875212
 30
0.0
 10
390.565210806585
 20
287.179099612697
 30
0.0
 10
390.6380882090232
 20
287.2272672341574
 30
0.0
 10
390.6634754887983
 20
287.2422779791423
 30
0.0
 10
390.7151241078708
 20
287.2694131786067
 30
0.0
 10
390.7678558294519
 20
287.2938298671816
 30
0.0
 10
390.8227143218046
 20
287.3128966923945
 30
0.0
 10
390.8646649753792
 20
287.3251637029199
 30
0.0
 10
390.878783238458
 20
287.328913239785
 30
0.0
 10
390.9072938625272
 20
287.3357211045883
 30
0.0
 10
390.921720488936
 20
287.3387853957855
 30
0.0
 10
390.9940892385376
 20
287.3522512717951
 30
0.0
 10
391.0525563578931
 20
287.3571400376686
 30
0.0
 10
391.1115316100778
 20
287.3561106208127
 30
0.0
  0
SPLINE
  5
1CF
330
1F
100
AcDbEntity
  8
1
100
AcDbSpline
210
0.0
220
0.0
230
1.0
 70
    12
 71
     2
 72
     6
 73
     3
 74
     0
 42
0.000000001
 43
0.0000000001
 40
0.0
 40
0.0
 40
0.0
 40
1.0
 40
1.0
 40
1.0
 10
388.1994949839258
 20
297.8192497921321
 30
0.0
 41
0.5000004212474025
 10
388.3117224222131
 20
297.8189748223106
 30
0.0
 41
0.4999995787525976
 10
388.4239460747857
 20
297.8186990047517
 30
0.0
 41
0.5000004212474025
  0
LINE
  5
1EB
330
1F
100
AcDbEntity
  8
4
100
AcDbLine
 10
270.703832
 20
288.907994
 30
0.0
 11
398.873506
 21
288.907994
 31
0.0
  0
LINE
  5
1EC
330
1F
100
AcDbEntity
  8
SK4
100
AcDbLine
 10
214.904842
 20
288.907994
 30
0.0
 11
277.404842
 21
288.907994
 31
0.0
  0
MTEXT
  5
1ED
330
1F
100
AcDbEntity
  8
SK6
100
AcDbMText
 10
299.563793
 20
249.353545
 30
0.0
 40
3.5
 41
0.0
 71
     7
 72
     5
  1
\W0.7119;805D-19-95-S25
  7
cesky
 73
     2
 44
0.8433729999999998
  0
MTEXT
  5
303
330
1F
100
AcDbEntity
  8
2
100
AcDbMText
 10
413.942587
 20
284.3651279999999
 30
0.0
 40
3.5
 41
0.0
 71
     7
 72
     5
  1
\W0.8260;19
  7
cesky
 11
0.0000000000000001
 21
1.0
 31
0.0
 73
     2
 44
0.8433729999999998
  0
MTEXT
  5
304
330
1F
100
AcDbEntity
  8
2
100
AcDbMText
 10
413.942587
 20
277.627628
 30
0.0
 40
3.5
 41
0.0
 71
     7
 72
     5
  1
\W3.0115;\H2.63;%%c\H3.50;
  7
cesky
 11
0.0000000000000001
 21
1.0
 31
0.0
 73
     2
 44
0.8433729999999998
  0
LINE
  5
305
330
1F
100
AcDbEntity
  8
2
100
AcDbLine
 10
396.404842
 20
298.407994
 30
0.0
 11
415.1300029999999
 21
298.407994
 31
0.0
  0
LINE
  5
306
330
1F
100
AcDbEntity
  8
2
100
AcDbLine
 10
414.130003
 20
298.407994
 30
0.0
 11
414.130003
 21
277.470128
 31
0.0
  0
SOLID
  5
307
330
1F
100
AcDbEntity
  8
2
100
AcDbTrace
 10
414.130003
 20
298.407994
 30
0.0
 11
414.747148
 21
294.907996
 31
0.0
 12
413.5128589999999
 22
294.907991
 32
0.0
 13
413.5128589999999
 23
294.907991
 33
0.0
  0
MTEXT
  5
308
330
1F
100
AcDbEntity
  8
2
100
AcDbMText
 10
303.327842
 20
343.029854
 30
0.0
 40
3.5
 41
0.0
 71
     7
 72
     5
  1
\W0.7969;176
  7
cesky
 73
     2
 44
0.8433729999999998
  0
LINE
  5
309
330
1F
100
AcDbEntity
  8
2
100
AcDbLine
 10
394.404842
 20
300.407994
 30
0.0
 11
394.404842
 21
344.155687
 31
0.0
  0
LINE
  5
30A
330
1F
100
AcDbEntity
  8
2
100
AcDbLine
 10
218.404842
 20
299.407994
 30
0.0
 11
218.404842
 21
344.155687
 31
0.0
  0
LINE
  5
30B
330
1F
100
AcDbEntity
  8
2
100
AcDbLine
 10
394.404842
 20
343.155687
 30
0.0
 11
218.404842
 21
343.155687
 31
0.0
  0
SOLID
  5
30C
330
1F
100
AcDbEntity
  8
2
100
AcDbTrace
 10
394.404842
 20
343.155687
 30
0.0
 11
390.904844
 21
342.538543
 31
0.0
 12
390.90484
 22
343.772832
 32
0.0
 13
390.90484
 23
343.772832
 33
0.0
  0
SOLID
  5
30D
330
1F
100
AcDbEntity
  8
2
100
AcDbTrace
 10
218.404842
 20
343.155687
 30
0.0
 11
221.90484
 21
343.772832
 31
0.0
 12
221.904844
 22
342.538543
 32
0.0
 13
221.904844
 23
342.538543
 33
0.0
  0
MTEXT
  5
30E
330
1F
100
AcDbEntity
  8
2
100
AcDbMText
 10
244.590342
 20
329.044517
 30
0.0
 40
3.5
 41
0.0
 71
     7
 72
     5
  1
\W0.7259;56
  7
cesky
 73
     2
 44
0.8433729999999998
  0
LINE
  5
30F
330
1F
100
AcDbEntity
  8
2
100
AcDbLine
 10
274.404842
 20
288.907994
 30
0.0
 11
274.404842
 21
330.17035
 31
0.0
  0
LINE
  5
310
330
1F
100
AcDbEntity
  8
2
100
AcDbLine
 10
218.404842
 20
299.407994
 30
0.0
 11
218.404842
 21
330.17035
 31
0.0
  0
LINE
  5
311
330
1F
100
AcDbEntity
  8
2
100
AcDbLine
 10
274.404842
 20
329.17035
 30
0.0
 11
218.404842
 21
329.17035
 31
0.0
  0
SOLID
  5
312
330
1F
100
AcDbEntity
  8
2
100
AcDbTrace
 10
274.404842
 20
329.17035
 30
0.0
 11
270.904844
 21
328.553206
 31
0.0
 12
270.90484
 22
329.7874950000001
 32
0.0
 13
270.90484
 23
329.7874950000001
 33
0.0
  0
SOLID
  5
313
330
1F
100
AcDbEntity
  8
2
100
AcDbTrace
 10
218.404842
 20
329.17035
 30
0.0
 11
221.90484
 21
329.7874950000001
 31
0.0
 12
221.904844
 22
328.553206
 32
0.0
 13
221.904844
 23
328.553206
 33
0.0
  0
MTEXT
  5
314
330
1F
100
AcDbEntity
  8
2
100
AcDbMText
 10
338.565727
 20
314.470071
 30
0.0
 40
3.5
 41
0.0
 71
     7
 72
     5
  1
\W0.8654;100,5
  7
cesky
 73
     2
 44
0.8433729999999998
  0
LINE
  5
315
330
1F
100
AcDbEntity
  8
2
100
AcDbLine
 10
394.404842
 20
300.407994
 30
0.0
 11
394.404842
 21
315.595905
 31
0.0
  0
LINE
  5
316
330
1F
100
AcDbEntity
  8
2
100
AcDbLine
 10
293.930613
 20
297.93605
 30
0.0
 11
293.930613
 21
315.595905
 31
0.0
  0
LINE
  5
317
330
1F
100
AcDbEntity
  8
2
100
AcDbLine
 10
394.404842
 20
314.595905
 30
0.0
 11
293.930613
 21
314.595905
 31
0.0
  0
SOLID
  5
318
330
1F
100
AcDbEntity
  8
2
100
AcDbTrace
 10
394.404842
 20
314.595905
 30
0.0
 11
390.904844
 21
313.97876
 31
0.0
 12
390.90484
 22
315.213049
 32
0.0
 13
390.90484
 23
315.213049
 33
0.0
  0
SOLID
  5
319
330
1F
100
AcDbEntity
  8
2
100
AcDbTrace
 10
293.930613
 20
314.595905
 30
0.0
 11
297.430611
 21
315.213049
 31
0.0
 12
297.430615
 22
313.97876
 32
0.0
 13
297.430615
 23
313.97876
 33
0.0
  0
MTEXT
  5
31A
330
1F
100
AcDbEntity
  8
2
100
AcDbMText
 10
331.327842
 20
329.044517
 30
0.0
 40
3.5
 41
0.0
 71
     7
 72
     5
  1
\W0.7809;120
  7
cesky
 73
     2
 44
0.8433729999999998
  0
LINE
  5
31B
330
1F
100
AcDbEntity
  8
2
100
AcDbLine
 10
394.404842
 20
298.407994
 30
0.0
 11
394.404842
 21
330.17035
 31
0.0
  0
LINE
  5
31C
330
1F
100
AcDbEntity
  8
2
100
AcDbLine
 10
274.404842
 20
289.907567
 30
0.0
 11
274.404842
 21
330.17035
 31
0.0
  0
LINE
  5
31D
330
1F
100
AcDbEntity
  8
2
100
AcDbLine
 10
394.404842
 20
329.17035
 30
0.0
 11
274.404842
 21
329.17035
 31
0.0
  0
SOLID
  5
31E
330
1F
100
AcDbEntity
  8
2
100
AcDbTrace
 10
394.404842
 20
329.17035
 30
0.0
 11
390.904844
 21
328.553206
 31
0.0
 12
390.90484
 22
329.7874950000001
 32
0.0
 13
390.90484
 23
329.7874950000001
 33
0.0
  0
SOLID
  5
31F
330
1F
100
AcDbEntity
  8
2
100
AcDbTrace
 10
274.404842
 20
329.17035
 30
0.0
 11
277.90484
 21
329.7874950000001
 31
0.0
 12
277.904844
 22
328.553206
 32
0.0
 13
277.904844
 23
328.553206
 33
0.0
  0
MTEXT
  5
320
330
1F
100
AcDbEntity
  8
SK2
100
AcDbMText
 10
205.76788
 20
290.434244
 30
0.0
 40
3.5
 41
0.0
 71
     7
 72
     5
  1
\W0.7045;25
  7
cesky
 11
0.0000000000000001
 21
1.0
 31
0.0
 73
     2
 44
0.8433729999999998
  0
MTEXT
  5
321
330
1F
100
AcDbEntity
  8
SK2
100
AcDbMText
 10
205.76788
 20
283.696744
 30
0.0
 40
3.5
 41
0.0
 71
     7
 72
     5
  1
\W3.0115;\H2.63;%%c\H3.50;
  7
cesky
 11
0.0000000000000001
 21
1.0
 31
0.0
 73
     2
 44
0.8433729999999998
  0
LINE
  5
322
330
1F
100
AcDbEntity
  8
SK2
100
AcDbLine
 10
220.404842
 20
301.407994
 30
0.0
 11
204.955296
 21
301.407994
 31
0.0
  0
LINE
  5
323
330
1F
100
AcDbEntity
  8
SK2
100
AcDbLine
 10
220.404842
 20
276.407994
 30
0.0
 11
204.955296
 21
276.407994
 31
0.0
  0
LINE
  5
324
330
1F
100
AcDbEntity
  8
SK2
100
AcDbLine
 10
205.955296
 20
301.407994
 30
0.0
 11
205.955296
 21
276.407994
 31
0.0
  0
SOLID
  5
325
330
1F
100
AcDbEntity
  8
SK2
100
AcDbTrace
 10
205.955296
 20
301.407994
 30
0.0
 11
206.572441
 21
297.9079959999999
 31
0.0
 12
205.338152
 22
297.907991
 32
0.0
 13
205.338152
 23
297.907991
 33
0.0
  0
SOLID
  5
326
330
1F
100
AcDbEntity
  8
SK2
100
AcDbTrace
 10
205.955296
 20
276.407994
 30
0.0
 11
205.338152
 21
279.9079910000001
 31
0.0
 12
206.572441
 22
279.907996
 32
0.0
 13
206.572441
 23
279.907996
 33
0.0
  0
MTEXT
  5
327
330
1F
100
AcDbEntity
  8
SK2
100
AcDbMText
 10
189.956072
 20
290.434244
 30
0.0
 40
3.5
 41
0.0
 71
     7
 72
     5
  1
\W0.7045;35
  7
cesky
 11
0.0000000000000001
 21
1.0
 31
0.0
 73
     2
 44
0.8433729999999998
  0
MTEXT
  5
328
330
1F
100
AcDbEntity
  8
SK2
100
AcDbMText
 10
189.956072
 20
283.696744
 30
0.0
 40
3.5
 41
0.0
 71
     7
 72
     5
  1
\W3.0115;\H2.63;%%c\H3.50;
  7
cesky
 11
0.0000000000000001
 21
1.0
 31
0.0
 73
     2
 44
0.8433729999999998
  0
LINE
  5
329
330
1F
100
AcDbEntity
  8
SK2
100
AcDbLine
 10
274.904842
 20
306.407994
 30
0.0
 11
189.143489
 21
306.407994
 31
0.0
  0
LINE
  5
32A
330
1F
100
AcDbEntity
  8
SK2
100
AcDbLine
 10
274.904842
 20
271.407994
 30
0.0
 11
189.143489
 21
271.407994
 31
0.0
  0
LINE
  5
32B
330
1F
100
AcDbEntity
  8
SK2
100
AcDbLine
 10
190.143489
 20
306.407994
 30
0.0
 11
190.143489
 21
271.407994
 31
0.0
  0
SOLID
  5
32C
330
1F
100
AcDbEntity
  8
SK2
100
AcDbTrace
 10
190.143489
 20
306.407994
 30
0.0
 11
190.760634
 21
302.907996
 31
0.0
 12
189.526345
 22
302.907991
 32
0.0
 13
189.526345
 23
302.907991
 33
0.0
  0
SOLID
  5
32D
330
1F
100
AcDbEntity
  8
SK2
100
AcDbTrace
 10
190.143489
 20
271.407994
 30
0.0
 11
189.526345
 21
274.907991
 31
0.0
 12
190.760634
 22
274.9079959999999
 32
0.0
 13
190.760634
 23
274.9079959999999
 33
0.0
  0
LINE
  5
32E
330
1F
100
AcDbEntity
  8
CUT
100
AcDbLine
 10
388.7716001328016
 20
298.184108378116
 30
0.0
 11
393.5482811885852
 21
298.405297762095
 31
0.0
  0
LINE
  5
330
330
1F
100
AcDbEntity
  8
CUT
100
AcDbLine
 10
394.3331914855816
 20
293.5453889011784
 30
0.0
 11
394.4046674212314
 21
289.4586137805552
 31
0.0
  0
LINE
  5
331
330
1F
100
AcDbEntity
  8
CUT
100
AcDbLine
 10
393.9520414969022
 20
298.0389220755574
 30
0.0
 11
394.140985112677
 21
293.86520444149
 31
0.0
  0
LINE
  5
332
330
1F
100
AcDbEntity
  8
CUT
100
AcDbLine
 10
394.140985112677
 20
293.86520444149
 30
0.0
 11
394.3331914855816
 21
293.5453889011784
 31
0.0
  0
LINE
  5
334
330
1F
100
AcDbEntity
  8
CUT
100
AcDbLine
 10
388.402446
 20
288.907994
 30
0.0
 11
388.402446
 21
297.781635
 31
0.0
  0
LINE
  5
335
330
1F
100
AcDbEntity
  8
CUT
100
AcDbLine
 10
394.404667
 20
288.907994
 30
0.0
 11
388.402446
 21
288.907994
 31
0.0
  0
LINE
  5
336
330
1F
100
AcDbEntity
  8
CUT
100
AcDbLine
 10
394.404667
 20
289.458614
 30
0.0
 11
394.404667
 21
288.907994
 31
0.0
  0
LINE
  5
337
330
1F
100
AcDbEntity
  8
CUT
100
AcDbLine
 10
388.4024458294748
 20
297.7816349255854
 30
0.0
 11
388.4024458294748
 21
297.7816349255854
 31
0.0
  0
ARC
  5
338
330
1F
100
AcDbEntity
  8
CUT
100
AcDbCircle
 10
388.7926053862119
 20
297.7943085825499
 30
0.0
 40
0.390365343356896
100
AcDbArc
 50
93.08453075527802
 51
181.8604998981186
  0
ARC
  5
339
330
1F
100
AcDbEntity
  8
CUT
100
AcDbCircle
 10
393.5634240830763
 20
298.0158999692195
 30
0.0
 40
0.3896921199483618
100
AcDbArc
 50
8.938640656810134
 51
92.22699510421788
  0
ARC
  5
33A
330
1F
100
AcDbEntity
  8
CUT
100
AcDbCircle
 10
393.5873768312404
 20
298.0223176818372
 30
0.0
 40
0.3650424965301464
100
AcDbArc
 50
2.607066455664463
 51
8.527713500929744
  0
ENDSEC
  0
SECTION
  2
OBJECTS
  0
DICTIONARY
  5
C
330
0
100
AcDbDictionary
281
     1
  3
ACAD_CIP_PREVIOUS_PRODUCT_INFO
350
300
  3
ACAD_COLOR
350
2FB
  3
ACAD_DETAILVIEWSTYLE
350
2F7
  3
ACAD_GROUP
350
D
  3
ACAD_LAYOUT
350
1A
  3
ACAD_MATERIAL
350
43
  3
ACAD_MLEADERSTYLE
350
6B
  3
ACAD_MLINESTYLE
350
17
  3
ACAD_PLOTSETTINGS
350
19
  3
ACAD_PLOTSTYLENAME
350
E
  3
ACAD_SCALELIST
350
47
  3
ACAD_SECTIONVIEWSTYLE
350
2F8
  3
ACAD_TABLESTYLE
350
69
  3
ACAD_VISUALSTYLE
350
2A
  3
ACDB_RECOMPOSE_DATA
350
366
  3
AcDbVariableDictionary
350
2B4
  0
DICTIONARY
  5
349
330
10
100
AcDbDictionary
280
     1
281
     1
  3
ADSK_XREC_LAYER_RECONCILED
360
34A
  0
DICTIONARY
  5
34B
330
33B
100
AcDbDictionary
280
     1
281
     1
  3
ADSK_XREC_LAYER_RECONCILED
360
34C
  0
DICTIONARY
  5
34D
330
33C
100
AcDbDictionary
280
     1
281
     1
  3
ADSK_XREC_LAYER_RECONCILED
360
34E
  0
DICTIONARY
  5
34F
330
33D
100
AcDbDictionary
280
     1
281
     1
  3
ADSK_XREC_LAYER_RECONCILED
360
350
  0
DICTIONARY
  5
351
330
33F
100
AcDbDictionary
280
     1
281
     1
  3
ADSK_XREC_LAYER_RECONCILED
360
352
  0
DICTIONARY
  5
353
330
340
100
AcDbDictionary
280
     1
281
     1
  3
ADSK_XREC_LAYER_RECONCILED
360
354
  0
DICTIONARY
  5
355
330
342
100
AcDbDictionary
280
     1
281
     1
  3
ADSK_XREC_LAYER_RECONCILED
360
356
  0
DICTIONARY
  5
357
330
343
100
AcDbDictionary
280
     1
281
     1
  3
ADSK_XREC_LAYER_RECONCILED
360
358
  0
DICTIONARY
  5
359
330
344
100
AcDbDictionary
280
     1
281
     1
  3
ADSK_XREC_LAYER_RECONCILED
360
35A
  0
DICTIONARY
  5
35B
330
345
100
AcDbDictionary
280
     1
281
     1
  3
ADSK_XREC_LAYER_RECONCILED
360
35C
  0
DICTIONARY
  5
35D
330
346
100
AcDbDictionary
280
     1
281
     1
  3
ADSK_XREC_LAYER_RECONCILED
360
35E
  0
DICTIONARY
  5
35F
330
347
100
AcDbDictionary
280
     1
281
     1
  3
ADSK_XREC_LAYER_RECONCILED
360
360
  0
DICTIONARY
  5
301
330
1F
100
AcDbDictionary
280
     1
281
     1
  3
ACAD_SORTENTS
360
302
  0
XRECORD
  5
300
102
{ACAD_REACTORS
330
C
102
}
330
C
100
AcDbXrecord
280
     1
300
ACD
300
2019
300
87084ACD_2019_0F
  0
DICTIONARY
  5
2FB
102
{ACAD_REACTORS
330
C
102
}
330
C
100
AcDbDictionary
281
     1
  0
DICTIONARY
  5
2F7
102
{ACAD_REACTORS
330
C
102
}
330
C
100
AcDbDictionary
281
     1
  3
Metric50
350
2FD
  0
DICTIONARY
  5
D
102
{ACAD_REACTORS
330
C
102
}
330
C
100
AcDbDictionary
281
     1
  3
NULOVY_BOD
350
348
  0
DICTIONARY
  5
1A
102
{ACAD_REACTORS
330
C
102
}
330
C
100
AcDbDictionary
281
     1
  3
Layout1
350
1E
  3
Layout2
350
26
  3
Model
350
22
  0
DICTIONARY
  5
43
102
{ACAD_REACTORS
330
C
102
}
330
C
100
AcDbDictionary
281
     1
  3
ByBlock
350
45
  3
ByLayer
350
44
  3
Global
350
46
  0
DICTIONARY
  5
6B
102
{ACAD_REACTORS
330
C
102
}
330
C
100
AcDbDictionary
281
     1
  3
Standard
350
6C
  0
DICTIONARY
  5
17
102
{ACAD_REACTORS
330
C
102
}
330
C
100
AcDbDictionary
281
     1
  3
Standard
350
18
  0
DICTIONARY
  5
19
102
{ACAD_REACTORS
330
C
102
}
330
C
100
AcDbDictionary
281
     1
  0
ACDBDICTIONARYWDFLT
  5
E
102
{ACAD_REACTORS
330
C
102
}
330
C
100
AcDbDictionary
281
     1
  3
Normal
350
F
100
AcDbDictionaryWithDefault
340
F
  0
DICTIONARY
  5
47
102
{ACAD_REACTORS
330
C
102
}
330
C
100
AcDbDictionary
281
     1
  3
A0
350
48
  3
A1
350
49
  3
A2
350
4A
  3
A3
350
4B
  3
A4
350
4C
  3
A5
350
4D
  3
A6
350
4E
  3
A7
350
4F
  3
A8
350
50
  3
A9
350
51
  3
B0
350
52
  3
B1
350
53
  3
B2
350
54
  3
B3
350
55
  3
B4
350
56
  3
B5
350
57
  3
B6
350
58
  3
B7
350
59
  3
B8
350
5A
  3
B9
350
5B
  3
C0
350
5C
  3
C1
350
5D
  3
C2
350
5E
  3
C3
350
5F
  3
C4
350
60
  3
C5
350
61
  3
C6
350
62
  3
C7
350
63
  3
C8
350
64
  3
C9
350
65
  3
D0
350
66
  3
D1
350
67
  3
D2
350
68
  0
DICTIONARY
  5
2F8
102
{ACAD_REACTORS
330
C
102
}
330
C
100
AcDbDictionary
281
     1
  3
Metric50
350
2FC
  0
DICTIONARY
  5
69
102
{ACAD_REACTORS
330
C
102
}
330
C
100
AcDbDictionary
281
     1
  3
Standard
350
6A
  0
DICTIONARY
  5
2A
102
{ACAD_REACTORS
330
C
102
}
330
C
100
AcDbDictionary
281
     1
  3
2dWireframe
350
2F
  3
Basic
350
32
  3
Brighten
350
36
  3
ColorChange
350
3A
  3
Conceptual
350
34
  3
Dim
350
35
  3
EdgeColorOff
350
3D
  3
Facepattern
350
39
  3
Flat
350
2B
  3
FlatWithEdges
350
2C
  3
Gouraud
350
2D
  3
GouraudWithEdges
350
2E
  3
Hidden
350
31
  3
JitterOff
350
3B
  3
Linepattern
350
38
  3
OverhangOff
350
3C
  3
Realistic
350
33
  3
Shaded
350
42
  3
Shaded with edges
350
41
  3
Shades of Gray
350
3E
  3
Sketchy
350
3F
  3
Thicken
350
37
  3
Wireframe
350
30
  3
X-Ray
350
40
  0
XRECORD
  5
366
102
{ACAD_REACTORS
330
C
102
}
330
C
100
AcDbXrecord
280
     1
 90
        1
330
6A
  0
DICTIONARY
  5
2B4
102
{ACAD_REACTORS
330
C
102
}
330
C
100
AcDbDictionary
281
     1
  3
CANNOSCALE
350
2B5
  3
CMLEADERSTYLE
350
2F6
  3
CTABLESTYLE
350
2F5
  3
CVIEWDETAILSTYLE
350
361
  3
CVIEWSECTIONSTYLE
350
362
  3
MSLTSCALE
350
2B6
  3
XCLIPFRAME
350
363
  0
XRECORD
  5
34A
102
{ACAD_REACTORS
330
349
102
}
330
349
100
AcDbXrecord
280
     1
290
     1
  0
XRECORD
  5
34C
102
{ACAD_REACTORS
330
34B
102
}
330
34B
100
AcDbXrecord
280
     1
290
     1
  0
XRECORD
  5
34E
102
{ACAD_REACTORS
330
34D
102
}
330
34D
100
AcDbXrecord
280
     1
290
     1
  0
XRECORD
  5
350
102
{ACAD_REACTORS
330
34F
102
}
330
34F
100
AcDbXrecord
280
     1
290
     1
  0
XRECORD
  5
352
102
{ACAD_REACTORS
330
351
102
}
330
351
100
AcDbXrecord
280
     1
290
     1
  0
XRECORD
  5
354
102
{ACAD_REACTORS
330
353
102
}
330
353
100
AcDbXrecord
280
     1
290
     1
  0
XRECORD
  5
356
102
{ACAD_REACTORS
330
355
102
}
330
355
100
AcDbXrecord
280
     1
290
     1
  0
XRECORD
  5
358
102
{ACAD_REACTORS
330
357
102
}
330
357
100
AcDbXrecord
280
     1
290
     1
  0
XRECORD
  5
35A
102
{ACAD_REACTORS
330
359
102
}
330
359
100
AcDbXrecord
280
     1
290
     1
  0
XRECORD
  5
35C
102
{ACAD_REACTORS
330
35B
102
}
330
35B
100
AcDbXrecord
280
     1
290
     1
  0
XRECORD
  5
35E
102
{ACAD_REACTORS
330
35D
102
}
330
35D
100
AcDbXrecord
280
     1
290
     1
  0
XRECORD
  5
360
102
{ACAD_REACTORS
330
35F
102
}
330
35F
100
AcDbXrecord
280
     1
290
     1
  0
SORTENTSTABLE
  5
302
102
{ACAD_REACTORS
330
301
102
}
330
301
100
AcDbSortentsTable
330
1F
331
303
  5
20E
331
304
  5
227
331
305
  5
303
331
306
  5
304
331
307
  5
305
331
308
  5
316
331
309
  5
317
331
30A
  5
318
331
30B
  5
319
331
30C
  5
31A
331
30D
  5
31B
331
30E
  5
31C
331
30F
  5
31D
331
310
  5
31E
331
311
  5
31F
331
312
  5
320
331
313
  5
321
331
314
  5
322
331
315
  5
323
331
316
  5
324
331
317
  5
325
331
318
  5
326
331
319
  5
327
331
31A
  5
328
331
31B
  5
329
331
31C
  5
32A
331
31D
  5
32B
331
31E
  5
32C
331
31F
  5
32D
331
320
  5
308
331
321
  5
309
331
322
  5
30A
331
323
  5
30B
331
324
  5
30C
331
325
  5
30D
331
326
  5
30E
331
327
  5
30F
331
328
  5
310
331
329
  5
311
331
32A
  5
312
331
32B
  5
313
331
32C
  5
314
331
32D
  5
315
331
330
  5
332
331
331
  5
334
331
332
  5
335
331
334
  5
338
331
335
  5
339
331
336
  5
33A
331
337
  5
330
331
338
  5
331
331
339
  5
336
331
33A
  5
337
  0
ACDBDETAILVIEWSTYLE
  5
2FD
102
{ACAD_XDICTIONARY
360
39A
102
}
102
{ACAD_REACTORS
330
2F7
102
}
330
2F7
100
AcDbModelDocViewStyle
 70
     0
  3
Metric50
290
     0
100
AcDbDetailViewStyle
 70
     0
 71
     0
 90
        3
 71
     1
340
11
 62
   256
 40
5.0
340
0
 62
   256
 40
5.0
300

 40
0.0
280
     1
 71
     2
340
16
 90
       25
 62
   256
 71
     3
340
11
 62
   256
 40
5.0
 90
        0
 40
15.0
 90
        1
300
%<\AcVar ViewDetailId>% (%<\AcVar ViewScale \f "%sn">%)
 71
     4
340
16
 90
       25
 62
   256
340
16
 90
       25
 62
   256
280
     0
  0
GROUP
  5
348
102
{ACAD_REACTORS
330
D
102
}
330
D
100
AcDbGroup
300

 70
     0
 71
     1
340
73
  0
LAYOUT
  5
1E
102
{ACAD_REACTORS
330
1A
102
}
330
1A
100
AcDbPlotSettings
  1

  2
none_device
  4

  6

 40
0.0
 41
0.0
 42
0.0
 43
0.0
 44
0.0
 45
0.0
 46
0.0
 47
0.0
 48
0.0
 49
0.0
140
0.0
141
0.0
142
1.0
143
1.0
 70
   688
 72
     0
 73
     0
 74
     5
  7

 75
    16
147
1.0
 76
     0
 77
     2
 78
   300
148
0.0
149
0.0
100
AcDbLayout
  1
Layout1
 70
     1
 71
     1
 10
-0.5
 20
-0.5
 11
5.0
 21
5.0
 12
0.0
 22
0.0
 32
0.0
 14
-0.5
 24
-0.5
 34
-0.5
 15
5.0
 25
5.0
 35
5.0
146
0.0
 13
0.0
 23
0.0
 33
0.0
 16
1.0
 26
0.0
 36
0.0
 17
0.0
 27
1.0
 37
0.0
 76
     0
330
1B
  0
LAYOUT
  5
26
102
{ACAD_REACTORS
330
1A
102
}
330
1A
100
AcDbPlotSettings
  1

  2
none_device
  4

  6

 40
0.0
 41
0.0
 42
0.0
 43
0.0
 44
0.0
 45
0.0
 46
0.0
 47
0.0
 48
0.0
 49
0.0
140
0.0
141
0.0
142
1.0
143
1.0
 70
   688
 72
     0
 73
     0
 74
     5
  7

 75
    16
147
1.0
 76
     0
 77
     2
 78
   300
148
0.0
149
0.0
100
AcDbLayout
  1
Layout2
 70
     1
 71
     2
 10
0.0
 20
0.0
 11
0.0
 21
0.0
 12
0.0
 22
0.0
 32
0.0
 14
0.0
 24
0.0
 34
0.0
 15
0.0
 25
0.0
 35
0.0
146
0.0
 13
0.0
 23
0.0
 33
0.0
 16
1.0
 26
0.0
 36
0.0
 17
0.0
 27
1.0
 37
0.0
 76
     0
330
23
  0
LAYOUT
  5
22
102
{ACAD_REACTORS
330
1A
102
}
330
1A
100
AcDbPlotSettings
  1

  2
none_device
  4
Letter_(8.50_x_11.00_Inches)
  6

 40
6.349999999999999
 41
6.349999999999999
 42
6.350005
 43
6.350005
 44
215.9
 45
279.4
 46
0.0
 47
0.0
 48
0.0
 49
0.0
140
0.0
141
0.0
142
1.0
143
1.0
 70
  1712
 72
     0
 73
     0
 74
     0
  7

 75
     0
147
1.0
 76
     0
 77
     2
 78
   300
148
0.0
149
0.0
100
AcDbLayout
  1
Model
 70
     1
 71
     0
 10
-0.5
 20
-0.5
 11
5.0
 21
5.0
 12
0.0
 22
0.0
 32
0.0
 14
-0.5
 24
-0.5
 34
-0.5
 15
5.0
 25
5.0
 35
5.0
146
0.0
 13
0.0
 23
0.0
 33
0.0
 16
1.0
 26
0.0
 36
0.0
 17
0.0
 27
1.0
 37
0.0
 76
     0
330
1F
331
29
  0
MATERIAL
  5
45
102
{ACAD_XDICTIONARY
360
2EA
102
}
102
{ACAD_REACTORS
330
43
102
}
330
43
100
AcDbMaterial
  1
ByBlock
  0
MATERIAL
  5
44
102
{ACAD_XDICTIONARY
360
2E8
102
}
102
{ACAD_REACTORS
330
43
102
}
330
43
100
AcDbMaterial
  1
ByLayer
  0
MATERIAL
  5
46
102
{ACAD_XDICTIONARY
360
2EC
102
}
102
{ACAD_REACTORS
330
43
102
}
330
43
100
AcDbMaterial
  1
Global
  0
MLEADERSTYLE
  5
6C
102
{ACAD_REACTORS
330
6B
102
}
330
6B
100
AcDbMLeaderStyle
170
     2
171
     1
172
     0
 90
        2
 40
0.0
 41
0.0
173
     1
 91
-1056964608
340
14
 92
       -2
290
     1
 42
0.09
291
     1
 43
0.36
  3
Standard
 44
0.18
300

342
11
174
     1
178
     6
175
     1
176
     0
 93
-1056964608
 45
0.18
292
     0
297
     0
 46
0.18
 94
-1056964608
 47
1.0
 49
1.0
140
1.0
293
     1
141
0.0
294
     1
177
     0
142
1.0
295
     0
296
     0
143
0.125
1001
ACAD_MLEADERVER
1070
     2
  0
MLINESTYLE
  5
18
102
{ACAD_REACTORS
330
17
102
}
330
17
100
AcDbMlineStyle
  2
STANDARD
 70
     0
  3

 62
   256
 51
90.0
 52
90.0
 71
     2
 49
0.5
 62
   256
  6
BYLAYER
 49
-0.5
 62
   256
  6
BYLAYER
  0
ACDBPLACEHOLDER
  5
F
102
{ACAD_REACTORS
330
E
102
}
330
E
  0
SCALE
  5
48
102
{ACAD_REACTORS
330
47
102
}
330
47
100
AcDbScale
 70
     0
300
1:1
140
1.0
141
1.0
290
     1
  0
SCALE
  5
49
102
{ACAD_REACTORS
330
47
102
}
330
47
100
AcDbScale
 70
     0
300
1:2
140
1.0
141
2.0
290
     0
  0
SCALE
  5
4A
102
{ACAD_REACTORS
330
47
102
}
330
47
100
AcDbScale
 70
     0
300
1:4
140
1.0
141
4.0
290
     0
  0
SCALE
  5
4B
102
{ACAD_REACTORS
330
47
102
}
330
47
100
AcDbScale
 70
     0
300
1:5
140
1.0
141
5.0
290
     0
  0
SCALE
  5
4C
102
{ACAD_REACTORS
330
47
102
}
330
47
100
AcDbScale
 70
     0
300
1:8
140
1.0
141
8.0
290
     0
  0
SCALE
  5
4D
102
{ACAD_REACTORS
330
47
102
}
330
47
100
AcDbScale
 70
     0
300
1:10
140
1.0
141
10.0
290
     0
  0
SCALE
  5
4E
102
{ACAD_REACTORS
330
47
102
}
330
47
100
AcDbScale
 70
     0
300
1:16
140
1.0
141
16.0
290
     0
  0
SCALE
  5
4F
102
{ACAD_REACTORS
330
47
102
}
330
47
100
AcDbScale
 70
     0
300
1:20
140
1.0
141
20.0
290
     0
  0
SCALE
  5
50
102
{ACAD_REACTORS
330
47
102
}
330
47
100
AcDbScale
 70
     0
300
1:30
140
1.0
141
30.0
290
     0
  0
SCALE
  5
51
102
{ACAD_REACTORS
330
47
102
}
330
47
100
AcDbScale
 70
     0
300
1:40
140
1.0
141
40.0
290
     0
  0
SCALE
  5
52
102
{ACAD_REACTORS
330
47
102
}
330
47
100
AcDbScale
 70
     0
300
1:50
140
1.0
141
50.0
290
     0
  0
SCALE
  5
53
102
{ACAD_REACTORS
330
47
102
}
330
47
100
AcDbScale
 70
     0
300
1:100
140
1.0
141
100.0
290
     0
  0
SCALE
  5
54
102
{ACAD_REACTORS
330
47
102
}
330
47
100
AcDbScale
 70
     0
300
2:1
140
2.0
141
1.0
290
     0
  0
SCALE
  5
55
102
{ACAD_REACTORS
330
47
102
}
330
47
100
AcDbScale
 70
     0
300
4:1
140
4.0
141
1.0
290
     0
  0
SCALE
  5
56
102
{ACAD_REACTORS
330
47
102
}
330
47
100
AcDbScale
 70
     0
300
8:1
140
8.0
141
1.0
290
     0
  0
SCALE
  5
57
102
{ACAD_REACTORS
330
47
102
}
330
47
100
AcDbScale
 70
     0
300
10:1
140
10.0
141
1.0
290
     0
  0
SCALE
  5
58
102
{ACAD_REACTORS
330
47
102
}
330
47
100
AcDbScale
 70
     0
300
100:1
140
100.0
141
1.0
290
     0
  0
SCALE
  5
59
102
{ACAD_REACTORS
330
47
102
}
330
47
100
AcDbScale
 70
     0
300
1/128" = 1'-0"
140
0.007812
141
12.0
290
     0
  0
SCALE
  5
5A
102
{ACAD_REACTORS
330
47
102
}
330
47
100
AcDbScale
 70
     0
300
1/64" = 1'-0"
140
0.015625
141
12.0
290
     0
  0
SCALE
  5
5B
102
{ACAD_REACTORS
330
47
102
}
330
47
100
AcDbScale
 70
     0
300
1/32" = 1'-0"
140
0.03125
141
12.0
290
     0
  0
SCALE
  5
5C
102
{ACAD_REACTORS
330
47
102
}
330
47
100
AcDbScale
 70
     0
300
1/16" = 1'-0"
140
0.0625
141
12.0
290
     0
  0
SCALE
  5
5D
102
{ACAD_REACTORS
330
47
102
}
330
47
100
AcDbScale
 70
     0
300
3/32" = 1'-0"
140
0.09375
141
12.0
290
     0
  0
SCALE
  5
5E
102
{ACAD_REACTORS
330
47
102
}
330
47
100
AcDbScale
 70
     0
300
1/8" = 1'-0"
140
0.125
141
12.0
290
     0
  0
SCALE
  5
5F
102
{ACAD_REACTORS
330
47
102
}
330
47
100
AcDbScale
 70
     0
300
3/16" = 1'-0"
140
0.1875
141
12.0
290
     0
  0
SCALE
  5
60
102
{ACAD_REACTORS
330
47
102
}
330
47
100
AcDbScale
 70
     0
300
1/4" = 1'-0"
140
0.25
141
12.0
290
     0
  0
SCALE
  5
61
102
{ACAD_REACTORS
330
47
102
}
330
47
100
AcDbScale
 70
     0
300
3/8" = 1'-0"
140
0.375
141
12.0
290
     0
  0
SCALE
  5
62
102
{ACAD_REACTORS
330
47
102
}
330
47
100
AcDbScale
 70
     0
300
1/2" = 1'-0"
140
0.5
141
12.0
290
     0
  0
SCALE
  5
63
102
{ACAD_REACTORS
330
47
102
}
330
47
100
AcDbScale
 70
     0
300
3/4" = 1'-0"
140
0.75
141
12.0
290
     0
  0
SCALE
  5
64
102
{ACAD_REACTORS
330
47
102
}
330
47
100
AcDbScale
 70
     0
300
1" = 1'-0"
140
1.0
141
12.0
290
     0
  0
SCALE
  5
65
102
{ACAD_REACTORS
330
47
102
}
330
47
100
AcDbScale
 70
     0
300
1-1/2" = 1'-0"
140
1.5
141
12.0
290
     0
  0
SCALE
  5
66
102
{ACAD_REACTORS
330
47
102
}
330
47
100
AcDbScale
 70
     0
300
3" = 1'-0"
140
3.0
141
12.0
290
     0
  0
SCALE
  5
67
102
{ACAD_REACTORS
330
47
102
}
330
47
100
AcDbScale
 70
     0
300
6" = 1'-0"
140
6.0
141
12.0
290
     0
  0
SCALE
  5
68
102
{ACAD_REACTORS
330
47
102
}
330
47
100
AcDbScale
 70
     0
300
1'-0" = 1'-0"
140
12.0
141
12.0
290
     0
  0
ACDBSECTIONVIEWSTYLE
  5
2FC
102
{ACAD_XDICTIONARY
360
398
102
}
102
{ACAD_REACTORS
330
2F8
102
}
330
2F8
100
AcDbModelDocViewStyle
 70
     0
  3
Metric50
290
     0
100
AcDbSectionViewStyle
 70
     0
 71
     0
 90
      102
 71
     1
340
11
 62
   256
 40
5.0
340
0
340
0
 62
   256
 40
5.0
300
I, O, Q, S, X, Z
 40
10.0
 90
        0
 40
2.5
 90
        0
 71
     2
340
16
 90
       25
 62
   256
340
16
 90
       50
 62
   256
 40
5.0
 40
2.5
 40
5.0
 71
     3
340
11
 62
   256
 40
5.0
 90
        0
 40
15.0
 90
        1
300
%<\AcVar ViewSectionStartId>%-%<\AcVar ViewSectionEndId>% (%<\AcVar ViewScale \f "%sn">%)
 71
     4
 62
   256
 62
   257
300
ANSI31
 40
1.0
 90
        0
290
     0
290
     0
 90
        6
 40
0.0
 40
1.570796326794896
 40
0.2617993877991494
 40
1.308996938995747
 40
-0.2617993877991494
 40
1.832595714594046
  0
TABLESTYLE
  5
6A
102
{ACAD_XDICTIONARY
360
2EE
102
}
102
{ACAD_REACTORS
330
69
102
}
330
69
100
AcDbTableStyle
  3
Standard
 70
     0
 71
     0
 40
0.06
 41
0.06
280
     0
281
     0
  7
Standard
140
0.18
170
     2
 62
     0
 63
     7
283
     0
274
    -2
284
     1
 64
     0
275
    -2
285
     1
 65
     0
276
    -2
286
     1
 66
     0
277
    -2
287
     1
 67
     0
278
    -2
288
     1
 68
     0
279
    -2
289
     1
 69
     0
  7
Standard
140
0.25
170
     5
 62
     0
 63
     7
283
     0
274
    -2
284
     1
 64
     0
275
    -2
285
     1
 65
     0
276
    -2
286
     1
 66
     0
277
    -2
287
     1
 67
     0
278
    -2
288
     1
 68
     0
279
    -2
289
     1
 69
     0
  7
Standard
140
0.18
170
     5
 62
     0
 63
     7
283
     0
274
    -2
284
     1
 64
     0
275
    -2
285
     1
 65
     0
276
    -2
286
     1
 66
     0
277
    -2
287
     1
 67
     0
278
    -2
288
     1
 68
     0
279
    -2
289
     1
 69
     0
  0
VISUALSTYLE
  5
2F
102
{ACAD_XDICTIONARY
360
36F
102
}
102
{ACAD_REACTORS
330
2A
102
}
330
2A
100
AcDbVisualStyle
  2

 70
     4
 71
     0
 72
     2
 73
     0
 90
        0
 40
-0.6
 41
-30.0
 62
     5
 63
     7
421
 16777215
 74
     1
 91
        4
 64
     7
 65
   257
 75
     1
175
     1
 42
1.0
 92
        0
 66
   257
 43
1.0
 76
     1
 77
     6
 78
     2
 67
     7
 79
     5
170
     0
171
     0
290
     0
174
     0
 93
        1
 44
0.0
173
     0
291
     0
 45
0.0
1001
ACAD
1000
AcDbSavedByObjectVersion
1070
     0
  0
VISUALSTYLE
  5
32
102
{ACAD_XDICTIONARY
360
375
102
}
102
{ACAD_REACTORS
330
2A
102
}
330
2A
100
AcDbVisualStyle
  2

 70
     7
 71
     1
 72
     0
 73
     1
 90
        0
 40
-0.6
 41
-30.0
 62
     5
 63
     7
421
 16777215
 74
     0
 91
        4
 64
     7
 65
   257
 75
     1
175
     1
 42
1.0
 92
        8
 66
     7
 43
1.0
 76
     1
 77
     6
 78
     2
 67
     7
 79
     5
170
     0
171
     0
290
     0
174
     0
 93
        1
 44
0.0
173
     0
291
     1
 45
0.0
1001
ACAD
1000
AcDbSavedByObjectVersion
1070
     0
  0
VISUALSTYLE
  5
36
102
{ACAD_XDICTIONARY
360
37D
102
}
102
{ACAD_REACTORS
330
2A
102
}
330
2A
100
AcDbVisualStyle
  2

 70
    12
 71
     2
 72
     2
 73
     0
 90
        0
 40
-0.6
 41
-30.0
 62
     5
 63
     7
421
 16777215
 74
     1
 91
        4
 64
     7
 65
   257
 75
     1
175
     1
 42
1.0
 92
        8
 66
     7
 43
1.0
 76
     1
 77
     6
 78
     2
 67
     7
 79
     5
170
     0
171
     0
290
     0
174
     0
 93
        1
 44
50.0
173
     0
291
     1
 45
0.0
1001
ACAD
1000
AcDbSavedByObjectVersion
1070
     0
  0
VISUALSTYLE
  5
3A
102
{ACAD_XDICTIONARY
360
385
102
}
102
{ACAD_REACTORS
330
2A
102
}
330
2A
100
AcDbVisualStyle
  2

 70
    16
 71
     2
 72
     2
 73
     3
 90
        0
 40
-0.6
 41
-30.0
 62
     5
 63
     8
421
  8421504
 74
     1
 91
        4
 64
     7
 65
   257
 75
     1
175
     1
 42
1.0
 92
        8
 66
     8
424
  8421504
 43
1.0
 76
     1
 77
     6
 78
     2
 67
     7
 79
     5
170
     0
171
     0
290
     0
174
     0
 93
        1
 44
0.0
173
     0
291
     1
 45
0.0
1001
ACAD
1000
AcDbSavedByObjectVersion
1070
     0
  0
VISUALSTYLE
  5
34
102
{ACAD_XDICTIONARY
360
379
102
}
102
{ACAD_REACTORS
330
2A
102
}
330
2A
100
AcDbVisualStyle
  2

 70
     9
 71
     3
 72
     2
 73
     0
 90
        0
 40
-0.6
 41
-30.0
 62
     5
 63
     7
421
 16777215
 74
     2
 91
        2
 64
     7
 65
   257
 75
     1
175
     1
 42
179.0
 92
        8
 66
     7
 43
1.0
 76
     1
 77
     6
 78
     2
 67
     7
 79
     3
170
     0
171
     0
290
     0
174
     0
 93
        1
 44
0.0
173
     0
291
     0
 45
0.0
1001
ACAD
1000
AcDbSavedByObjectVersion
1070
     0
  0
VISUALSTYLE
  5
35
102
{ACAD_XDICTIONARY
360
37B
102
}
102
{ACAD_REACTORS
330
2A
102
}
330
2A
100
AcDbVisualStyle
  2

 70
    11
 71
     2
 72
     2
 73
     0
 90
        0
 40
-0.6
 41
-30.0
 62
     5
 63
     7
421
 16777215
 74
     1
 91
        4
 64
     7
 65
   257
 75
     1
175
     1
 42
1.0
 92
        8
 66
     7
 43
1.0
 76
     1
 77
     6
 78
     2
 67
     7
 79
     5
170
     0
171
     0
290
     0
174
     0
 93
        1
 44
-50.0
173
     0
291
     1
 45
0.0
1001
ACAD
1000
AcDbSavedByObjectVersion
1070
     0
  0
VISUALSTYLE
  5
3D
102
{ACAD_XDICTIONARY
360
38B
102
}
102
{ACAD_REACTORS
330
2A
102
}
330
2A
100
AcDbVisualStyle
  2

 70
    22
 71
     2
 72
     2
 73
     0
 90
        0
 40
-0.6
 41
-30.0
 62
     5
 63
     7
421
 16777215
 74
     1
 91
        4
 64
     7
 65
   257
 75
     1
175
     1
 42
1.0
 92
        8
 66
     7
 43
1.0
 76
     1
 77
     6
 78
     2
 67
     7
 79
     5
170
     0
171
     0
290
     0
174
     0
 93
        1
 44
0.0
173
     0
291
     1
 45
0.0
1001
ACAD
1000
AcDbSavedByObjectVersion
1070
     0
  0
VISUALSTYLE
  5
39
102
{ACAD_XDICTIONARY
360
383
102
}
102
{ACAD_REACTORS
330
2A
102
}
330
2A
100
AcDbVisualStyle
  2

 70
    15
 71
     2
 72
     2
 73
     0
 90
        0
 40
-0.6
 41
-30.0
 62
     5
 63
     7
421
 16777215
 74
     1
 91
        4
 64
     7
 65
   257
 75
     1
175
     1
 42
1.0
 92
        8
 66
     7
 43
1.0
 76
     1
 77
     6
 78
     2
 67
     7
 79
     5
170
     0
171
     0
290
     0
174
     0
 93
        1
 44
0.0
173
     0
291
     1
 45
0.0
1001
ACAD
1000
AcDbSavedByObjectVersion
1070
     0
  0
VISUALSTYLE
  5
2B
102
{ACAD_XDICTIONARY
360
367
102
}
102
{ACAD_REACTORS
330
2A
102
}
330
2A
100
AcDbVisualStyle
  2

 70
     0
 71
     2
 72
     1
 73
     1
 90
        2
 40
-0.6
 41
30.0
 62
     5
 63
     7
421
 16777215
 74
     0
 91
        0
 64
     7
 65
   257
 75
     1
175
     1
 42
1.0
 92
        8
 66
     7
 43
1.0
 76
     1
 77
     6
 78
     2
 67
     7
 79
     5
170
     0
171
     0
290
     0
174
     0
 93
       13
 44
0.0
173
     0
291
     1
 45
0.0
1001
ACAD
1000
AcDbSavedByObjectVersion
1070
     0
  0
VISUALSTYLE
  5
2C
102
{ACAD_XDICTIONARY
360
369
102
}
102
{ACAD_REACTORS
330
2A
102
}
330
2A
100
AcDbVisualStyle
  2

 70
     1
 71
     2
 72
     1
 73
     1
 90
        2
 40
-0.6
 41
30.0
 62
     5
 63
     7
421
 16777215
 74
     1
 91
        0
 64
     7
 65
   257
 75
     1
175
     1
 42
1.0
 92
        0
 66
   257
 43
1.0
 76
     1
 77
     6
 78
     2
 67
     7
 79
     5
170
     0
171
     0
290
     0
174
     0
 93
       13
 44
0.0
173
     0
291
     1
 45
0.0
1001
ACAD
1000
AcDbSavedByObjectVersion
1070
     0
  0
VISUALSTYLE
  5
2D
102
{ACAD_XDICTIONARY
360
36B
102
}
102
{ACAD_REACTORS
330
2A
102
}
330
2A
100
AcDbVisualStyle
  2

 70
     2
 71
     2
 72
     2
 73
     1
 90
        2
 40
-0.6
 41
30.0
 62
     5
 63
     7
421
 16777215
 74
     0
 91
        0
 64
     7
 65
   257
 75
     1
175
     1
 42
1.0
 92
        0
 66
     7
 43
1.0
 76
     1
 77
     6
 78
     2
 67
     7
 79
     5
170
     0
171
     0
290
     0
174
     0
 93
       13
 44
0.0
173
     0
291
     1
 45
0.0
1001
ACAD
1000
AcDbSavedByObjectVersion
1070
     0
  0
VISUALSTYLE
  5
2E
102
{ACAD_XDICTIONARY
360
36D
102
}
102
{ACAD_REACTORS
330
2A
102
}
330
2A
100
AcDbVisualStyle
  2

 70
     3
 71
     2
 72
     2
 73
     1
 90
        2
 40
-0.6
 41
30.0
 62
     5
 63
     7
421
 16777215
 74
     1
 91
        0
 64
     7
 65
   257
 75
     1
175
     1
 42
1.0
 92
        0
 66
   257
 43
1.0
 76
     1
 77
     6
 78
     2
 67
     7
 79
     5
170
     0
171
     0
290
     0
174
     0
 93
       13
 44
0.0
173
     0
291
     1
 45
0.0
1001
ACAD
1000
AcDbSavedByObjectVersion
1070
     0
  0
VISUALSTYLE
  5
31
102
{ACAD_XDICTIONARY
360
373
102
}
102
{ACAD_REACTORS
330
2A
102
}
330
2A
100
AcDbVisualStyle
  2

 70
     6
 71
     1
 72
     2
 73
     2
 90
        0
 40
-0.6
 41
-30.0
 62
     5
 63
     7
421
 16777215
 74
     2
 91
        2
 64
     7
 65
   257
 75
     2
175
     1
 42
40.0
 92
        0
 66
   257
 43
1.0
 76
     1
 77
     6
 78
     2
 67
     7
 79
     3
170
     0
171
     0
290
     0
174
     0
 93
        1
 44
0.0
173
     0
291
     0
 45
0.0
1001
ACAD
1000
AcDbSavedByObjectVersion
1070
     0
  0
VISUALSTYLE
  5
3B
102
{ACAD_XDICTIONARY
360
387
102
}
102
{ACAD_REACTORS
330
2A
102
}
330
2A
100
AcDbVisualStyle
  2

 70
    20
 71
     2
 72
     2
 73
     0
 90
        0
 40
-0.6
 41
-30.0
 62
     5
 63
     7
421
 16777215
 74
     1
 91
        4
 64
     7
 65
   257
 75
     1
175
     1
 42
1.0
 92
       10
 66
     7
 43
1.0
 76
     1
 77
     6
 78
     2
 67
     7
 79
     5
170
     0
171
     0
290
     0
174
     0
 93
        1
 44
0.0
173
     0
291
     1
 45
0.0
1001
ACAD
1000
AcDbSavedByObjectVersion
1070
     0
  0
VISUALSTYLE
  5
38
102
{ACAD_XDICTIONARY
360
381
102
}
102
{ACAD_REACTORS
330
2A
102
}
330
2A
100
AcDbVisualStyle
  2

 70
    14
 71
     2
 72
     2
 73
     0
 90
        0
 40
-0.6
 41
-30.0
 62
     5
 63
     7
421
 16777215
 74
     1
 91
        4
 64
     7
 65
   257
 75
     7
175
     7
 42
1.0
 92
        8
 66
     7
 43
1.0
 76
     1
 77
     6
 78
     2
 67
     7
 79
     5
170
     0
171
     0
290
     0
174
     0
 93
        1
 44
0.0
173
     0
291
     1
 45
0.0
1001
ACAD
1000
AcDbSavedByObjectVersion
1070
     0
  0
VISUALSTYLE
  5
3C
102
{ACAD_XDICTIONARY
360
389
102
}
102
{ACAD_REACTORS
330
2A
102
}
330
2A
100
AcDbVisualStyle
  2

 70
    21
 71
     2
 72
     2
 73
     0
 90
        0
 40
-0.6
 41
-30.0
 62
     5
 63
     7
421
 16777215
 74
     1
 91
        4
 64
     7
 65
   257
 75
     1
175
     1
 42
1.0
 92
        9
 66
     7
 43
1.0
 76
     1
 77
     6
 78
     2
 67
     7
 79
     5
170
     0
171
     0
290
     0
174
     0
 93
        1
 44
0.0
173
     0
291
     1
 45
0.0
1001
ACAD
1000
AcDbSavedByObjectVersion
1070
     0
  0
VISUALSTYLE
  5
33
102
{ACAD_XDICTIONARY
360
377
102
}
102
{ACAD_REACTORS
330
2A
102
}
330
2A
100
AcDbVisualStyle
  2

 70
     8
 71
     2
 72
     3
 73
     0
 90
        2
 40
-0.6
 41
30.0
 62
     5
 63
     7
421
 16777215
 74
     0
 91
        0
 64
     7
 65
   257
 75
     1
175
     1
 42
1.0
 92
        8
 66
   257
 43
1.0
 76
     1
 77
     6
 78
     2
 67
     7
 79
     3
170
     0
171
     0
290
     0
174
     0
 93
       13
 44
0.0
173
     0
291
     0
 45
0.0
1001
ACAD
1000
AcDbSavedByObjectVersion
1070
     0
  0
VISUALSTYLE
  5
42
102
{ACAD_XDICTIONARY
360
395
102
}
102
{ACAD_REACTORS
330
2A
102
}
330
2A
100
AcDbVisualStyle
  2

 70
    27
 71
     2
 72
     2
 73
     1
 90
        2
 40
-0.6
 41
30.0
 62
     5
 63
     7
421
 16777215
 74
     0
 91
        4
 64
     7
 65
   257
 75
     1
175
     1
 42
1.0
 92
        8
 66
   257
 43
1.0
 76
     1
 77
     6
 78
     2
 67
     8
425
  7895160
 79
     3
170
     0
171
     0
290
     0
174
     0
 93
        5
 44
0.0
173
     0
291
     0
 45
0.0
1001
ACAD
1000
AcDbSavedByObjectVersion
1070
     0
  0
VISUALSTYLE
  5
41
102
{ACAD_XDICTIONARY
360
393
102
}
102
{ACAD_REACTORS
330
2A
102
}
330
2A
100
AcDbVisualStyle
  2

 70
    26
 71
     2
 72
     2
 73
     1
 90
        2
 40
-0.6
 41
30.0
 62
     5
 63
     7
421
 16777215
 74
     1
 91
       10
 64
     7
 65
   257
 75
     2
175
     1
 42
1.0
 92
        8
 66
   257
 43
1.0
 76
     1
 77
     6
 78
     2
 67
     7
 79
     3
170
     0
171
     0
290
     0
174
     0
 93
        5
 44
0.0
173
     0
291
     0
 45
0.0
1001
ACAD
1000
AcDbSavedByObjectVersion
1070
     0
  0
VISUALSTYLE
  5
3E
102
{ACAD_XDICTIONARY
360
38D
102
}
102
{ACAD_REACTORS
330
2A
102
}
330
2A
100
AcDbVisualStyle
  2

 70
    23
 71
     2
 72
     2
 73
     3
 90
        0
 40
-0.6
 41
-30.0
 62
     5
 63
     7
421
 16777215
 74
     2
 91
        2
 64
     7
 65
     7
 75
     1
175
     1
 42
40.0
 92
        8
 66
     7
 43
1.0
 76
     1
 77
     6
 78
     2
 67
     7
 79
     3
170
     0
171
     0
290
     0
174
     0
 93
        1
 44
0.0
173
     0
291
     0
 45
0.0
1001
ACAD
1000
AcDbSavedByObjectVersion
1070
     0
  0
VISUALSTYLE
  5
3F
102
{ACAD_XDICTIONARY
360
38F
102
}
102
{ACAD_REACTORS
330
2A
102
}
330
2A
100
AcDbVisualStyle
  2

 70
    24
 71
     1
 72
     2
 73
     2
 90
        0
 40
-0.6
 41
-30.0
 62
     5
 63
     7
421
 16777215
 74
     2
 91
        2
 64
     7
 65
     7
 75
     1
175
     1
 42
40.0
 92
       11
 66
     7
 43
1.0
 76
     1
 77
     6
 78
     2
 67
     7
 79
     6
170
     0
171
     0
290
     0
174
     0
 93
        1
 44
0.0
173
     0
291
     0
 45
0.0
1001
ACAD
1000
AcDbSavedByObjectVersion
1070
     0
  0
VISUALSTYLE
  5
37
102
{ACAD_XDICTIONARY
360
37F
102
}
102
{ACAD_REACTORS
330
2A
102
}
330
2A
100
AcDbVisualStyle
  2

 70
    13
 71
     2
 72
     2
 73
     0
 90
        0
 40
-0.6
 41
-30.0
 62
     5
 63
     7
421
 16777215
 74
     1
 91
        4
 64
     7
 65
   257
 75
     1
175
     1
 42
1.0
 92
       12
 66
     7
 43
1.0
 76
     1
 77
     6
 78
     2
 67
     7
 79
     5
170
     0
171
     0
290
     0
174
     0
 93
        1
 44
0.0
173
     0
291
     1
 45
0.0
1001
ACAD
1000
AcDbSavedByObjectVersion
1070
     0
  0
VISUALSTYLE
  5
30
102
{ACAD_XDICTIONARY
360
371
102
}
102
{ACAD_REACTORS
330
2A
102
}
330
2A
100
AcDbVisualStyle
  2

 70
     5
 71
     0
 72
     2
 73
     0
 90
        0
 40
-0.6
 41
-30.0
 62
     5
 63
     7
421
 16777215
 74
     1
 91
        4
 64
     7
 65
   257
 75
     1
175
     1
 42
1.0
 92
        0
 66
   257
 43
1.0
 76
     1
 77
     6
 78
     2
 67
     7
 79
     3
170
     0
171
     0
290
     0
174
     0
 93
        1
 44
0.0
173
     0
291
     0
 45
0.0
1001
ACAD
1000
AcDbSavedByObjectVersion
1070
     0
  0
VISUALSTYLE
  5
40
102
{ACAD_XDICTIONARY
360
391
102
}
102
{ACAD_REACTORS
330
2A
102
}
330
2A
100
AcDbVisualStyle
  2

 70
    25
 71
     2
 72
     2
 73
     1
 90
        1
 40
0.5
 41
-30.0
 62
     5
 63
     7
421
 16777215
 74
     1
 91
        0
 64
     7
 65
   257
 75
     1
175
     1
 42
1.0
 92
        8
 66
     7
 43
1.0
 76
     1
 77
     6
 78
     2
 67
     7
 79
     3
170
     0
171
     0
290
     0
174
     0
 93
       13
 44
0.0
173
     0
291
     0
 45
0.0
1001
ACAD
1000
AcDbSavedByObjectVersion
1070
     0
  0
DICTIONARYVAR
  5
2B5
102
{ACAD_REACTORS
330
2B4
102
}
330
2B4
100
DictionaryVariables
280
     0
  1
1:1
  0
DICTIONARYVAR
  5
2F6
102
{ACAD_REACTORS
330
2B4
102
}
330
2B4
100
DictionaryVariables
280
     0
  1
STANDARD
  0
DICTIONARYVAR
  5
2F5
102
{ACAD_REACTORS
330
2B4
102
}
330
2B4
100
DictionaryVariables
280
     0
  1
STANDARD
  0
DICTIONARYVAR
  5
361
102
{ACAD_REACTORS
330
2B4
102
}
330
2B4
100
DictionaryVariables
280
     0
  1
Metric50
  0
DICTIONARYVAR
  5
362
102
{ACAD_REACTORS
330
2B4
102
}
330
2B4
100
DictionaryVariables
280
     0
  1
Metric50
  0
DICTIONARYVAR
  5
2B6
102
{ACAD_REACTORS
330
2B4
102
}
330
2B4
100
DictionaryVariables
280
     0
  1
1
  0
DICTIONARYVAR
  5
363
102
{ACAD_REACTORS
330
2B4
102
}
330
2B4
100
DictionaryVariables
280
     0
  1
2
  0
DICTIONARY
  5
39A
330
2FD
100
AcDbDictionary
280
     1
281
     1
  3
ACAD_XREC_ROUNDTRIP
360
39B
  0
DICTIONARY
  5
2EA
330
45
100
AcDbDictionary
280
     1
281
     1
  3
ACAD_XREC_ROUNDTRIP
360
2EB
  0
DICTIONARY
  5
2E8
330
44
100
AcDbDictionary
280
     1
281
     1
  3
ACAD_XREC_ROUNDTRIP
360
2E9
  0
DICTIONARY
  5
2EC
330
46
100
AcDbDictionary
280
     1
281
     1
  3
ACAD_XREC_ROUNDTRIP
360
2ED
  0
DICTIONARY
  5
398
330
2FC
100
AcDbDictionary
280
     1
281
     1
  3
ACAD_XREC_ROUNDTRIP
360
399
  0
DICTIONARY
  5
2EE
330
6A
100
AcDbDictionary
280
     1
281
     1
  3
ACAD_ROUNDTRIP_2008_TABLESTYLE_CELLSTYLEMAP
360
365
  3
ACAD_XREC_ROUNDTRIP
360
397
  0
DICTIONARY
  5
36F
330
2F
100
AcDbDictionary
280
     1
281
     1
  3
ACAD_XREC_ROUNDTRIP
360
370
  0
DICTIONARY
  5
375
330
32
100
AcDbDictionary
280
     1
281
     1
  3
ACAD_XREC_ROUNDTRIP
360
376
  0
DICTIONARY
  5
37D
330
36
100
AcDbDictionary
280
     1
281
     1
  3
ACAD_XREC_ROUNDTRIP
360
37E
  0
DICTIONARY
  5
385
330
3A
100
AcDbDictionary
280
     1
281
     1
  3
ACAD_XREC_ROUNDTRIP
360
386
  0
DICTIONARY
  5
379
330
34
100
AcDbDictionary
280
     1
281
     1
  3
ACAD_XREC_ROUNDTRIP
360
37A
  0
DICTIONARY
  5
37B
330
35
100
AcDbDictionary
280
     1
281
     1
  3
ACAD_XREC_ROUNDTRIP
360
37C
  0
DICTIONARY
  5
38B
330
3D
100
AcDbDictionary
280
     1
281
     1
  3
ACAD_XREC_ROUNDTRIP
360
38C
  0
DICTIONARY
  5
383
330
39
100
AcDbDictionary
280
     1
281
     1
  3
ACAD_XREC_ROUNDTRIP
360
384
  0
DICTIONARY
  5
367
330
2B
100
AcDbDictionary
280
     1
281
     1
  3
ACAD_XREC_ROUNDTRIP
360
368
  0
DICTIONARY
  5
369
330
2C
100
AcDbDictionary
280
     1
281
     1
  3
ACAD_XREC_ROUNDTRIP
360
36A
  0
DICTIONARY
  5
36B
330
2D
100
AcDbDictionary
280
     1
281
     1
  3
ACAD_XREC_ROUNDTRIP
360
36C
  0
DICTIONARY
  5
36D
330
2E
100
AcDbDictionary
280
     1
281
     1
  3
ACAD_XREC_ROUNDTRIP
360
36E
  0
DICTIONARY
  5
373
330
31
100
AcDbDictionary
280
     1
281
     1
  3
ACAD_XREC_ROUNDTRIP
360
374
  0
DICTIONARY
  5
387
330
3B
100
AcDbDictionary
280
     1
281
     1
  3
ACAD_XREC_ROUNDTRIP
360
388
  0
DICTIONARY
  5
381
330
38
100
AcDbDictionary
280
     1
281
     1
  3
ACAD_XREC_ROUNDTRIP
360
382
  0
DICTIONARY
  5
389
330
3C
100
AcDbDictionary
280
     1
281
     1
  3
ACAD_XREC_ROUNDTRIP
360
38A
  0
DICTIONARY
  5
377
330
33
100
AcDbDictionary
280
     1
281
     1
  3
ACAD_XREC_ROUNDTRIP
360
378
  0
DICTIONARY
  5
395
330
42
100
AcDbDictionary
280
     1
281
     1
  3
ACAD_XREC_ROUNDTRIP
360
396
  0
DICTIONARY
  5
393
330
41
100
AcDbDictionary
280
     1
281
     1
  3
ACAD_XREC_ROUNDTRIP
360
394
  0
DICTIONARY
  5
38D
330
3E
100
AcDbDictionary
280
     1
281
     1
  3
ACAD_XREC_ROUNDTRIP
360
38E
  0
DICTIONARY
  5
38F
330
3F
100
AcDbDictionary
280
     1
281
     1
  3
ACAD_XREC_ROUNDTRIP
360
390
  0
DICTIONARY
  5
37F
330
37
100
AcDbDictionary
280
     1
281
     1
  3
ACAD_XREC_ROUNDTRIP
360
380
  0
DICTIONARY
  5
371
330
30
100
AcDbDictionary
280
     1
281
     1
  3
ACAD_XREC_ROUNDTRIP
360
372
  0
DICTIONARY
  5
391
330
40
100
AcDbDictionary
280
     1
281
     1
  3
ACAD_XREC_ROUNDTRIP
360
392
  0
XRECORD
  5
39B
102
{ACAD_REACTORS
330
39A
102
}
330
39A
100
AcDbXrecord
280
     1
102
DISPLAYNAME
  1
Metric50
102
FLAGS
 90
        0
  0
XRECORD
  5
2EB
102
{ACAD_REACTORS
330
2EA
102
}
330
2EA
100
AcDbXrecord
280
     1
102
MATERIAL
148
0.0
149
0.0
149
0.0
 93
        0
 94
      127
282
     0
 72
     1
 77
     1
171
     1
175
     1
179
     1
273
     0
  0
XRECORD
  5
2E9
102
{ACAD_REACTORS
330
2E8
102
}
330
2E8
100
AcDbXrecord
280
     1
102
MATERIAL
148
0.0
149
0.0
149
0.0
 93
        0
 94
      127
282
     0
 72
     1
 77
     1
171
     1
175
     1
179
     1
273
     0
  0
XRECORD
  5
2ED
102
{ACAD_REACTORS
330
2EC
102
}
330
2EC
100
AcDbXrecord
280
     1
102
MATERIAL
148
0.0
149
0.0
149
0.0
 93
        0
 94
      127
282
     0
 72
     1
 77
     1
171
     1
175
     1
179
     1
273
     0
  0
XRECORD
  5
399
102
{ACAD_REACTORS
330
398
102
}
330
398
100
AcDbXrecord
280
     1
102
DISPLAYNAME
  1
Metric50
102
FLAGS
 90
        0
  0
CELLSTYLEMAP
  5
365
102
{ACAD_REACTORS
330
2EE
102
}
330
2EE
100
AcDbCellStyleMap
 90
        3
300
CELLSTYLE
  1
TABLEFORMAT_BEGIN
 90
        5
170
     1
 91
        0
 92
    32768
 62
   257
 93
        1
300
CONTENTFORMAT
  1
CONTENTFORMAT_BEGIN
 90
        0
 91
        0
 92
        4
 93
        0
300

 40
0.0
140
1.0
 94
        5
 62
     0
340
11
144
0.25
309
CONTENTFORMAT_END
171
     1
301
MARGIN
  1
CELLMARGIN_BEGIN
 40
0.06
 40
0.06
 40
0.06
 40
0.06
 40
0.18
 40
0.18
309
CELLMARGIN_END
 94
        6
 95
        1
302
GRIDFORMAT
  1
GRIDFORMAT_BEGIN
 90
        0
 91
        1
 62
     0
 92
       -2
340
14
 93
        0
 40
0.045
309
GRIDFORMAT_END
 95
        2
302
GRIDFORMAT
  1
GRIDFORMAT_BEGIN
 90
        0
 91
        1
 62
     0
 92
       -2
340
14
 93
        0
 40
0.045
309
GRIDFORMAT_END
 95
        4
302
GRIDFORMAT
  1
GRIDFORMAT_BEGIN
 90
        0
 91
        1
 62
     0
 92
       -2
340
14
 93
        0
 40
0.045
309
GRIDFORMAT_END
 95
        8
302
GRIDFORMAT
  1
GRIDFORMAT_BEGIN
 90
        0
 91
        1
 62
     0
 92
       -2
340
14
 93
        0
 40
0.045
309
GRIDFORMAT_END
 95
       16
302
GRIDFORMAT
  1
GRIDFORMAT_BEGIN
 90
        0
 91
        1
 62
     0
 92
       -2
340
14
 93
        0
 40
0.045
309
GRIDFORMAT_END
 95
       32
302
GRIDFORMAT
  1
GRIDFORMAT_BEGIN
 90
        0
 91
        1
 62
     0
 92
       -2
340
14
 93
        0
 40
0.045
309
GRIDFORMAT_END
309
TABLEFORMAT_END
  1
CELLSTYLE_BEGIN
 90
        1
 91
        1
300
_TITLE
309
CELLSTYLE_END
300
CELLSTYLE
  1
TABLEFORMAT_BEGIN
 90
        5
170
     1
 91
        0
 92
        0
 62
   257
 93
        1
300
CONTENTFORMAT
  1
CONTENTFORMAT_BEGIN
 90
        0
 91
        0
 92
        4
 93
        0
300

 40
0.0
140
1.0
 94
        5
 62
     0
340
11
144
0.18
309
CONTENTFORMAT_END
171
     1
301
MARGIN
  1
CELLMARGIN_BEGIN
 40
0.06
 40
0.06
 40
0.06
 40
0.06
 40
0.18
 40
0.18
309
CELLMARGIN_END
 94
        6
 95
        1
302
GRIDFORMAT
  1
GRIDFORMAT_BEGIN
 90
        0
 91
        1
 62
     0
 92
       -2
340
14
 93
        0
 40
0.045
309
GRIDFORMAT_END
 95
        2
302
GRIDFORMAT
  1
GRIDFORMAT_BEGIN
 90
        0
 91
        1
 62
     0
 92
       -2
340
14
 93
        0
 40
0.045
309
GRIDFORMAT_END
 95
        4
302
GRIDFORMAT
  1
GRIDFORMAT_BEGIN
 90
        0
 91
        1
 62
     0
 92
       -2
340
14
 93
        0
 40
0.045
309
GRIDFORMAT_END
 95
        8
302
GRIDFORMAT
  1
GRIDFORMAT_BEGIN
 90
        0
 91
        1
 62
     0
 92
       -2
340
14
 93
        0
 40
0.045
309
GRIDFORMAT_END
 95
       16
302
GRIDFORMAT
  1
GRIDFORMAT_BEGIN
 90
        0
 91
        1
 62
     0
 92
       -2
340
14
 93
        0
 40
0.045
309
GRIDFORMAT_END
 95
       32
302
GRIDFORMAT
  1
GRIDFORMAT_BEGIN
 90
        0
 91
        1
 62
     0
 92
       -2
340
14
 93
        0
 40
0.045
309
GRIDFORMAT_END
309
TABLEFORMAT_END
  1
CELLSTYLE_BEGIN
 90
        2
 91
        1
300
_HEADER
309
CELLSTYLE_END
300
CELLSTYLE
  1
TABLEFORMAT_BEGIN
 90
        5
170
     1
 91
        0
 92
        0
 62
   257
 93
        1
300
CONTENTFORMAT
  1
CONTENTFORMAT_BEGIN
 90
        0
 91
        0
 92
        4
 93
        0
300

 40
0.0
140
1.0
 94
        2
 62
     0
340
11
144
0.18
309
CONTENTFORMAT_END
171
     1
301
MARGIN
  1
CELLMARGIN_BEGIN
 40
0.06
 40
0.06
 40
0.06
 40
0.06
 40
0.18
 40
0.18
309
CELLMARGIN_END
 94
        6
 95
        1
302
GRIDFORMAT
  1
GRIDFORMAT_BEGIN
 90
        0
 91
        1
 62
     0
 92
       -2
340
14
 93
        0
 40
0.045
309
GRIDFORMAT_END
 95
        2
302
GRIDFORMAT
  1
GRIDFORMAT_BEGIN
 90
        0
 91
        1
 62
     0
 92
       -2
340
14
 93
        0
 40
0.045
309
GRIDFORMAT_END
 95
        4
302
GRIDFORMAT
  1
GRIDFORMAT_BEGIN
 90
        0
 91
        1
 62
     0
 92
       -2
340
14
 93
        0
 40
0.045
309
GRIDFORMAT_END
 95
        8
302
GRIDFORMAT
  1
GRIDFORMAT_BEGIN
 90
        0
 91
        1
 62
     0
 92
       -2
340
14
 93
        0
 40
0.045
309
GRIDFORMAT_END
 95
       16
302
GRIDFORMAT
  1
GRIDFORMAT_BEGIN
 90
        0
 91
        1
 62
     0
 92
       -2
340
14
 93
        0
 40
0.045
309
GRIDFORMAT_END
 95
       32
302
GRIDFORMAT
  1
GRIDFORMAT_BEGIN
 90
        0
 91
        1
 62
     0
 92
       -2
340
14
 93
        0
 40
0.045
309
GRIDFORMAT_END
309
TABLEFORMAT_END
  1
CELLSTYLE_BEGIN
 90
        3
 91
        2
300
_DATA
309
CELLSTYLE_END
  0
XRECORD
  5
397
102
{ACAD_REACTORS
330
2EE
102
}
330
2EE
100
AcDbXrecord
280
     1
102
ACAD_ROUNDTRIP_PRE2007_TABLESTYLE
 90
        4
 91
        0
  1

 92
        4
 93
        0
  2

 94
        4
 95
        0
  3

  0
XRECORD
  5
370
102
{ACAD_REACTORS
330
36F
102
}
330
36F
100
AcDbXrecord
280
     1
102
RTVSPost2010Prop28
280
     1
102
RTVSPost2010PropOp28
 70
     1
102
RTVSPost2010Prop29
280
     1
102
RTVSPost2010PropOp29
 70
     1
102
RTVSPost2010Prop30
280
     0
102
RTVSPost2010PropOp30
 70
     1
102
RTVSPost2010Prop31
280
     0
102
RTVSPost2010PropOp31
 70
     1
102
RTVSPost2010Prop32
280
     0
102
RTVSPost2010PropOp32
 70
     1
102
RTVSPost2010Prop33
280
     0
102
RTVSPost2010PropOp33
 70
     1
102
RTVSPost2010Prop34
280
     0
102
RTVSPost2010PropOp34
 70
     1
102
RTVSPost2010Prop35
280
     0
102
RTVSPost2010PropOp35
 70
     1
102
RTVSPost2010Prop36
280
     0
102
RTVSPost2010PropOp36
 70
     1
102
RTVSPost2010Prop37
 90
       50
102
RTVSPost2010PropOp37
 70
     1
102
RTVSPost2010Prop38
140
0.0
102
RTVSPost2010PropOp38
 70
     1
102
RTVSPost2010Prop39
140
1.0
102
RTVSPost2010PropOp39
 70
     1
102
RTVSPost2010Prop40
 90
        0
102
RTVSPost2010PropOp40
 70
     1
102
RTVSPost2010Prop41ColorIndex
 90
       18
102
RTVSPost2010Prop41ColorRGB
 90
        0
102
RTVSPost2010PropOp41
 70
     1
102
RTVSPost2010Prop42
 90
       50
102
RTVSPost2010PropOp42
 70
     1
102
RTVSPost2010Prop43
 90
        3
102
RTVSPost2010PropOp43
 70
     1
102
RTVSPost2010Prop44ColorIndex
 90
        5
102
RTVSPost2010Prop44ColorRGB
 90
      255
102
RTVSPost2010PropOp44
 70
     1
102
RTVSPost2010Prop45
280
     0
102
RTVSPost2010PropOp45
 70
     1
102
RTVSPost2010Prop46
 90
       50
102
RTVSPost2010PropOp46
 70
     1
102
RTVSPost2010Prop47
 90
       50
102
RTVSPost2010PropOp47
 70
     1
102
RTVSPost2010Prop48
 90
       50
102
RTVSPost2010PropOp48
 70
     1
102
RTVSPost2010Prop49
280
     0
102
RTVSPost2010PropOp49
 70
     1
102
RTVSPost2010Prop50
 90
       50
102
RTVSPost2010PropOp50
 70
     1
102
RTVSPost2010Prop51ColorIndex
 90
      256
102
RTVSPost2010Prop51ColorRGB
 90
-16777216
102
RTVSPost2010PropOp51
 70
     0
102
RTVSPost2010Prop52
140
1.0
102
RTVSPost2010PropOp52
 70
     0
102
RTVSPost2010Prop53
 90
        2
102
RTVSPost2010PropOp53
 70
     1
102
RTVSPost2010Prop54
  1
strokes_ogs.tif
102
RTVSPost2010PropOp54
 70
     1
102
RTVSPost2010Prop55
280
     0
102
RTVSPost2010PropOp55
 70
     1
102
RTVSPost2010Prop56
140
1.0
102
RTVSPost2010PropOp56
 70
     1
102
RTVSPost2010Prop57
140
1.0
102
RTVSPost2010PropOp57
 70
     1
102
RTVSPropertyOp0
 70
     1
102
RTVSPropertyOp1
 70
     1
102
RTVSPropertyOp2
 70
     1
102
RTVSPropertyOp3
 70
     1
102
RTVSPropertyOp4
 70
     1
102
RTVSPropertyOp5
 70
     1
102
RTVSPropertyOp6
 70
     1
102
RTVSPropertyOp7
 70
     1
102
RTVSPropertyOp8
 70
     1
102
RTVSPropertyOp9
 70
     1
102
RTVSPropertyOp10
 70
     1
102
RTVSPropertyOp11
 70
     1
102
RTVSPropertyOp12
 70
     1
102
RTVSPropertyOp13
 70
     1
102
RTVSPropertyOp14
 70
     1
102
RTVSPropertyOp15
 70
     1
102
RTVSPropertyOp16
 70
     1
102
RTVSPropertyOp17
 70
     1
102
RTVSPropertyOp18
 70
     1
102
RTVSPropertyOp19
 70
     1
102
RTVSPropertyOp20
 70
     1
102
RTVSPropertyOp21
 70
     1
102
RTVSPropertyOp22
 70
     1
102
RTVSPropertyOp23
 70
     1
102
RTVSPropertyOp24
 70
     1
102
RTVSPropertyOp25
 70
     1
102
RTVSPropertyOp26
 70
     1
102
RTVSPropertyOp27
 70
     1
102
RTVSPropertyOp28
 70
     1
102
RTVSPropertyOp29
 70
     1
102
RTVSPropertyOp30
 70
     1
102
RTVSPropertyOp31
 70
     1
102
RTVSPropertyOp32
 70
     1
102
RTVSPropertyOp33
 70
     1
102
RTVSPropertyOp34
 70
     1
102
RTVSPropertyOp35
 70
     1
102
RTVSPropertyOp36
 70
     1
102
RTVSPropertyOp37
 70
     1
102
RTVSPropertyOp38
 70
     1
102
RTVSPropertyOp39
 70
     1
102
RTVSPropertyOp40
 70
     1
102
RTVSPropertyOp41
 70
     1
102
RTVSPropertyOp42
 70
     1
102
RTVSPropertyOp43
 70
     1
102
RTVSPropertyOp44
 70
     1
102
RTVSPropertyOp45
 70
     1
102
RTVSPropertyOp46
 70
     1
102
RTVSPropertyOp47
 70
     1
102
RTVSPropertyOp48
 70
     1
102
RTVSPropertyOp49
 70
     1
102
RTVSPropertyOp50
 70
     1
102
RTVSPropertyOp51
 70
     0
102
RTVSPropertyOp52
 70
     0
102
RTVSPropertyOp53
 70
     1
102
RTVSPropertyOp54
 70
     1
102
RTVSPropertyOp55
 70
     1
102
RTVSPropertyOp56
 70
     1
102
RTVSPropertyOp57
 70
     1
102
RTVSPropertyOp58
 70
     1
102
RTVSPropertyOp59
 70
     1
102
RTVSPropertyOp60
 70
     1
102
RTVSPropertyOp61
 70
     1
102
RTVSPropertyOp62
 70
     1
  0
XRECORD
  5
376
102
{ACAD_REACTORS
330
375
102
}
330
375
100
AcDbXrecord
280
     1
102
RTVSPost2010Prop28
280
     0
102
RTVSPost2010PropOp28
 70
     1
102
RTVSPost2010Prop29
280
     1
102
RTVSPost2010PropOp29
 70
     1
102
RTVSPost2010Prop30
280
     1
102
RTVSPost2010PropOp30
 70
     1
102
RTVSPost2010Prop31
280
     0
102
RTVSPost2010PropOp31
 70
     1
102
RTVSPost2010Prop32
280
     0
102
RTVSPost2010PropOp32
 70
     1
102
RTVSPost2010Prop33
280
     0
102
RTVSPost2010PropOp33
 70
     1
102
RTVSPost2010Prop34
280
     0
102
RTVSPost2010PropOp34
 70
     1
102
RTVSPost2010Prop35
280
     0
102
RTVSPost2010PropOp35
 70
     1
102
RTVSPost2010Prop36
280
     0
102
RTVSPost2010PropOp36
 70
     1
102
RTVSPost2010Prop37
 90
       50
102
RTVSPost2010PropOp37
 70
     1
102
RTVSPost2010Prop38
140
0.0
102
RTVSPost2010PropOp38
 70
     1
102
RTVSPost2010Prop39
140
1.0
102
RTVSPost2010PropOp39
 70
     1
102
RTVSPost2010Prop40
 90
        0
102
RTVSPost2010PropOp40
 70
     1
102
RTVSPost2010Prop41ColorIndex
 90
       18
102
RTVSPost2010Prop41ColorRGB
 90
        0
102
RTVSPost2010PropOp41
 70
     1
102
RTVSPost2010Prop42
 90
       50
102
RTVSPost2010PropOp42
 70
     1
102
RTVSPost2010Prop43
 90
        3
102
RTVSPost2010PropOp43
 70
     1
102
RTVSPost2010Prop44ColorIndex
 90
        5
102
RTVSPost2010Prop44ColorRGB
 90
      255
102
RTVSPost2010PropOp44
 70
     1
102
RTVSPost2010Prop45
280
     0
102
RTVSPost2010PropOp45
 70
     1
102
RTVSPost2010Prop46
 90
       50
102
RTVSPost2010PropOp46
 70
     1
102
RTVSPost2010Prop47
 90
       50
102
RTVSPost2010PropOp47
 70
     1
102
RTVSPost2010Prop48
 90
       50
102
RTVSPost2010PropOp48
 70
     1
102
RTVSPost2010Prop49
280
     0
102
RTVSPost2010PropOp49
 70
     1
102
RTVSPost2010Prop50
 90
       50
102
RTVSPost2010PropOp50
 70
     1
102
RTVSPost2010Prop51ColorIndex
 90
      256
102
RTVSPost2010Prop51ColorRGB
 90
-16777216
102
RTVSPost2010PropOp51
 70
     0
102
RTVSPost2010Prop52
140
1.0
102
RTVSPost2010PropOp52
 70
     0
102
RTVSPost2010Prop53
 90
        2
102
RTVSPost2010PropOp53
 70
     1
102
RTVSPost2010Prop54
  1
strokes_ogs.tif
102
RTVSPost2010PropOp54
 70
     1
102
RTVSPost2010Prop55
280
     0
102
RTVSPost2010PropOp55
 70
     1
102
RTVSPost2010Prop56
140
1.0
102
RTVSPost2010PropOp56
 70
     1
102
RTVSPost2010Prop57
140
1.0
102
RTVSPost2010PropOp57
 70
     1
102
RTVSPropertyOp0
 70
     1
102
RTVSPropertyOp1
 70
     1
102
RTVSPropertyOp2
 70
     1
102
RTVSPropertyOp3
 70
     1
102
RTVSPropertyOp4
 70
     1
102
RTVSPropertyOp5
 70
     1
102
RTVSPropertyOp6
 70
     1
102
RTVSPropertyOp7
 70
     1
102
RTVSPropertyOp8
 70
     1
102
RTVSPropertyOp9
 70
     1
102
RTVSPropertyOp10
 70
     1
102
RTVSPropertyOp11
 70
     1
102
RTVSPropertyOp12
 70
     1
102
RTVSPropertyOp13
 70
     1
102
RTVSPropertyOp14
 70
     1
102
RTVSPropertyOp15
 70
     1
102
RTVSPropertyOp16
 70
     1
102
RTVSPropertyOp17
 70
     1
102
RTVSPropertyOp18
 70
     1
102
RTVSPropertyOp19
 70
     1
102
RTVSPropertyOp20
 70
     1
102
RTVSPropertyOp21
 70
     1
102
RTVSPropertyOp22
 70
     1
102
RTVSPropertyOp23
 70
     1
102
RTVSPropertyOp24
 70
     1
102
RTVSPropertyOp25
 70
     1
102
RTVSPropertyOp26
 70
     1
102
RTVSPropertyOp27
 70
     1
102
RTVSPropertyOp28
 70
     1
102
RTVSPropertyOp29
 70
     1
102
RTVSPropertyOp30
 70
     1
102
RTVSPropertyOp31
 70
     1
102
RTVSPropertyOp32
 70
     1
102
RTVSPropertyOp33
 70
     1
102
RTVSPropertyOp34
 70
     1
102
RTVSPropertyOp35
 70
     1
102
RTVSPropertyOp36
 70
     1
102
RTVSPropertyOp37
 70
     1
102
RTVSPropertyOp38
 70
     1
102
RTVSPropertyOp39
 70
     1
102
RTVSPropertyOp40
 70
     1
102
RTVSPropertyOp41
 70
     1
102
RTVSPropertyOp42
 70
     1
102
RTVSPropertyOp43
 70
     1
102
RTVSPropertyOp44
 70
     1
102
RTVSPropertyOp45
 70
     1
102
RTVSPropertyOp46
 70
     1
102
RTVSPropertyOp47
 70
     1
102
RTVSPropertyOp48
 70
     1
102
RTVSPropertyOp49
 70
     1
102
RTVSPropertyOp50
 70
     1
102
RTVSPropertyOp51
 70
     0
102
RTVSPropertyOp52
 70
     0
102
RTVSPropertyOp53
 70
     1
102
RTVSPropertyOp54
 70
     1
102
RTVSPropertyOp55
 70
     1
102
RTVSPropertyOp56
 70
     1
102
RTVSPropertyOp57
 70
     1
102
RTVSPropertyOp58
 70
     1
102
RTVSPropertyOp59
 70
     1
102
RTVSPropertyOp60
 70
     1
102
RTVSPropertyOp61
 70
     1
102
RTVSPropertyOp62
 70
     1
  0
XRECORD
  5
37E
102
{ACAD_REACTORS
330
37D
102
}
330
37D
100
AcDbXrecord
280
     1
102
RTVSPost2010Prop28
280
     0
102
RTVSPost2010PropOp28
 70
     1
102
RTVSPost2010Prop29
280
     1
102
RTVSPost2010PropOp29
 70
     1
102
RTVSPost2010Prop30
280
     1
102
RTVSPost2010PropOp30
 70
     1
102
RTVSPost2010Prop31
280
     0
102
RTVSPost2010PropOp31
 70
     1
102
RTVSPost2010Prop32
280
     0
102
RTVSPost2010PropOp32
 70
     1
102
RTVSPost2010Prop33
280
     0
102
RTVSPost2010PropOp33
 70
     1
102
RTVSPost2010Prop34
280
     0
102
RTVSPost2010PropOp34
 70
     1
102
RTVSPost2010Prop35
280
     0
102
RTVSPost2010PropOp35
 70
     1
102
RTVSPost2010Prop36
280
     0
102
RTVSPost2010PropOp36
 70
     1
102
RTVSPost2010Prop37
 90
       50
102
RTVSPost2010PropOp37
 70
     1
102
RTVSPost2010Prop38
140
0.0
102
RTVSPost2010PropOp38
 70
     1
102
RTVSPost2010Prop39
140
1.0
102
RTVSPost2010PropOp39
 70
     1
102
RTVSPost2010Prop40
 90
        0
102
RTVSPost2010PropOp40
 70
     1
102
RTVSPost2010Prop41ColorIndex
 90
       18
102
RTVSPost2010Prop41ColorRGB
 90
        0
102
RTVSPost2010PropOp41
 70
     1
102
RTVSPost2010Prop42
 90
       50
102
RTVSPost2010PropOp42
 70
     1
102
RTVSPost2010Prop43
 90
        3
102
RTVSPost2010PropOp43
 70
     1
102
RTVSPost2010Prop44ColorIndex
 90
        5
102
RTVSPost2010Prop44ColorRGB
 90
      255
102
RTVSPost2010PropOp44
 70
     1
102
RTVSPost2010Prop45
280
     0
102
RTVSPost2010PropOp45
 70
     1
102
RTVSPost2010Prop46
 90
       50
102
RTVSPost2010PropOp46
 70
     1
102
RTVSPost2010Prop47
 90
       50
102
RTVSPost2010PropOp47
 70
     1
102
RTVSPost2010Prop48
 90
       50
102
RTVSPost2010PropOp48
 70
     1
102
RTVSPost2010Prop49
280
     0
102
RTVSPost2010PropOp49
 70
     1
102
RTVSPost2010Prop50
 90
       50
102
RTVSPost2010PropOp50
 70
     1
102
RTVSPost2010Prop51ColorIndex
 90
      256
102
RTVSPost2010Prop51ColorRGB
 90
-16777216
102
RTVSPost2010PropOp51
 70
     0
102
RTVSPost2010Prop52
140
1.0
102
RTVSPost2010PropOp52
 70
     0
102
RTVSPost2010Prop53
 90
        2
102
RTVSPost2010PropOp53
 70
     1
102
RTVSPost2010Prop54
  1
strokes_ogs.tif
102
RTVSPost2010PropOp54
 70
     1
102
RTVSPost2010Prop55
280
     0
102
RTVSPost2010PropOp55
 70
     1
102
RTVSPost2010Prop56
140
1.0
102
RTVSPost2010PropOp56
 70
     1
102
RTVSPost2010Prop57
140
1.0
102
RTVSPost2010PropOp57
 70
     1
102
RTVSPropertyOp0
 70
     1
102
RTVSPropertyOp1
 70
     1
102
RTVSPropertyOp2
 70
     1
102
RTVSPropertyOp3
 70
     1
102
RTVSPropertyOp4
 70
     1
102
RTVSPropertyOp5
 70
     1
102
RTVSPropertyOp6
 70
     1
102
RTVSPropertyOp7
 70
     1
102
RTVSPropertyOp8
 70
     1
102
RTVSPropertyOp9
 70
     1
102
RTVSPropertyOp10
 70
     1
102
RTVSPropertyOp11
 70
     1
102
RTVSPropertyOp12
 70
     1
102
RTVSPropertyOp13
 70
     1
102
RTVSPropertyOp14
 70
     1
102
RTVSPropertyOp15
 70
     1
102
RTVSPropertyOp16
 70
     1
102
RTVSPropertyOp17
 70
     1
102
RTVSPropertyOp18
 70
     1
102
RTVSPropertyOp19
 70
     1
102
RTVSPropertyOp20
 70
     1
102
RTVSPropertyOp21
 70
     1
102
RTVSPropertyOp22
 70
     1
102
RTVSPropertyOp23
 70
     1
102
RTVSPropertyOp24
 70
     1
102
RTVSPropertyOp25
 70
     1
102
RTVSPropertyOp26
 70
     1
102
RTVSPropertyOp27
 70
     1
102
RTVSPropertyOp28
 70
     1
102
RTVSPropertyOp29
 70
     1
102
RTVSPropertyOp30
 70
     1
102
RTVSPropertyOp31
 70
     1
102
RTVSPropertyOp32
 70
     1
102
RTVSPropertyOp33
 70
     1
102
RTVSPropertyOp34
 70
     1
102
RTVSPropertyOp35
 70
     1
102
RTVSPropertyOp36
 70
     1
102
RTVSPropertyOp37
 70
     1
102
RTVSPropertyOp38
 70
     1
102
RTVSPropertyOp39
 70
     1
102
RTVSPropertyOp40
 70
     1
102
RTVSPropertyOp41
 70
     1
102
RTVSPropertyOp42
 70
     1
102
RTVSPropertyOp43
 70
     1
102
RTVSPropertyOp44
 70
     1
102
RTVSPropertyOp45
 70
     1
102
RTVSPropertyOp46
 70
     1
102
RTVSPropertyOp47
 70
     1
102
RTVSPropertyOp48
 70
     1
102
RTVSPropertyOp49
 70
     1
102
RTVSPropertyOp50
 70
     1
102
RTVSPropertyOp51
 70
     0
102
RTVSPropertyOp52
 70
     0
102
RTVSPropertyOp53
 70
     1
102
RTVSPropertyOp54
 70
     1
102
RTVSPropertyOp55
 70
     1
102
RTVSPropertyOp56
 70
     1
102
RTVSPropertyOp57
 70
     1
102
RTVSPropertyOp58
 70
     1
102
RTVSPropertyOp59
 70
     1
102
RTVSPropertyOp60
 70
     1
102
RTVSPropertyOp61
 70
     1
102
RTVSPropertyOp62
 70
     1
  0
XRECORD
  5
386
102
{ACAD_REACTORS
330
385
102
}
330
385
100
AcDbXrecord
280
     1
102
RTVSPost2010Prop28
280
     0
102
RTVSPost2010PropOp28
 70
     1
102
RTVSPost2010Prop29
280
     1
102
RTVSPost2010PropOp29
 70
     1
102
RTVSPost2010Prop30
280
     1
102
RTVSPost2010PropOp30
 70
     1
102
RTVSPost2010Prop31
280
     0
102
RTVSPost2010PropOp31
 70
     1
102
RTVSPost2010Prop32
280
     0
102
RTVSPost2010PropOp32
 70
     1
102
RTVSPost2010Prop33
280
     0
102
RTVSPost2010PropOp33
 70
     1
102
RTVSPost2010Prop34
280
     0
102
RTVSPost2010PropOp34
 70
     1
102
RTVSPost2010Prop35
280
     0
102
RTVSPost2010PropOp35
 70
     1
102
RTVSPost2010Prop36
280
     0
102
RTVSPost2010PropOp36
 70
     1
102
RTVSPost2010Prop37
 90
       50
102
RTVSPost2010PropOp37
 70
     1
102
RTVSPost2010Prop38
140
0.0
102
RTVSPost2010PropOp38
 70
     1
102
RTVSPost2010Prop39
140
1.0
102
RTVSPost2010PropOp39
 70
     1
102
RTVSPost2010Prop40
 90
        0
102
RTVSPost2010PropOp40
 70
     1
102
RTVSPost2010Prop41ColorIndex
 90
       18
102
RTVSPost2010Prop41ColorRGB
 90
        0
102
RTVSPost2010PropOp41
 70
     1
102
RTVSPost2010Prop42
 90
       50
102
RTVSPost2010PropOp42
 70
     1
102
RTVSPost2010Prop43
 90
        3
102
RTVSPost2010PropOp43
 70
     1
102
RTVSPost2010Prop44ColorIndex
 90
        5
102
RTVSPost2010Prop44ColorRGB
 90
      255
102
RTVSPost2010PropOp44
 70
     1
102
RTVSPost2010Prop45
280
     0
102
RTVSPost2010PropOp45
 70
     1
102
RTVSPost2010Prop46
 90
       50
102
RTVSPost2010PropOp46
 70
     1
102
RTVSPost2010Prop47
 90
       50
102
RTVSPost2010PropOp47
 70
     1
102
RTVSPost2010Prop48
 90
       50
102
RTVSPost2010PropOp48
 70
     1
102
RTVSPost2010Prop49
280
     0
102
RTVSPost2010PropOp49
 70
     1
102
RTVSPost2010Prop50
 90
       50
102
RTVSPost2010PropOp50
 70
     1
102
RTVSPost2010Prop51ColorIndex
 90
      256
102
RTVSPost2010Prop51ColorRGB
 90
-16777216
102
RTVSPost2010PropOp51
 70
     0
102
RTVSPost2010Prop52
140
1.0
102
RTVSPost2010PropOp52
 70
     0
102
RTVSPost2010Prop53
 90
        2
102
RTVSPost2010PropOp53
 70
     1
102
RTVSPost2010Prop54
  1
strokes_ogs.tif
102
RTVSPost2010PropOp54
 70
     1
102
RTVSPost2010Prop55
280
     0
102
RTVSPost2010PropOp55
 70
     1
102
RTVSPost2010Prop56
140
1.0
102
RTVSPost2010PropOp56
 70
     1
102
RTVSPost2010Prop57
140
1.0
102
RTVSPost2010PropOp57
 70
     1
102
RTVSPropertyOp0
 70
     1
102
RTVSPropertyOp1
 70
     1
102
RTVSPropertyOp2
 70
     1
102
RTVSPropertyOp3
 70
     1
102
RTVSPropertyOp4
 70
     1
102
RTVSPropertyOp5
 70
     1
102
RTVSPropertyOp6
 70
     1
102
RTVSPropertyOp7
 70
     1
102
RTVSPropertyOp8
 70
     1
102
RTVSPropertyOp9
 70
     1
102
RTVSPropertyOp10
 70
     1
102
RTVSPropertyOp11
 70
     1
102
RTVSPropertyOp12
 70
     1
102
RTVSPropertyOp13
 70
     1
102
RTVSPropertyOp14
 70
     1
102
RTVSPropertyOp15
 70
     1
102
RTVSPropertyOp16
 70
     1
102
RTVSPropertyOp17
 70
     1
102
RTVSPropertyOp18
 70
     1
102
RTVSPropertyOp19
 70
     1
102
RTVSPropertyOp20
 70
     1
102
RTVSPropertyOp21
 70
     1
102
RTVSPropertyOp22
 70
     1
102
RTVSPropertyOp23
 70
     1
102
RTVSPropertyOp24
 70
     1
102
RTVSPropertyOp25
 70
     1
102
RTVSPropertyOp26
 70
     1
102
RTVSPropertyOp27
 70
     1
102
RTVSPropertyOp28
 70
     1
102
RTVSPropertyOp29
 70
     1
102
RTVSPropertyOp30
 70
     1
102
RTVSPropertyOp31
 70
     1
102
RTVSPropertyOp32
 70
     1
102
RTVSPropertyOp33
 70
     1
102
RTVSPropertyOp34
 70
     1
102
RTVSPropertyOp35
 70
     1
102
RTVSPropertyOp36
 70
     1
102
RTVSPropertyOp37
 70
     1
102
RTVSPropertyOp38
 70
     1
102
RTVSPropertyOp39
 70
     1
102
RTVSPropertyOp40
 70
     1
102
RTVSPropertyOp41
 70
     1
102
RTVSPropertyOp42
 70
     1
102
RTVSPropertyOp43
 70
     1
102
RTVSPropertyOp44
 70
     1
102
RTVSPropertyOp45
 70
     1
102
RTVSPropertyOp46
 70
     1
102
RTVSPropertyOp47
 70
     1
102
RTVSPropertyOp48
 70
     1
102
RTVSPropertyOp49
 70
     1
102
RTVSPropertyOp50
 70
     1
102
RTVSPropertyOp51
 70
     0
102
RTVSPropertyOp52
 70
     0
102
RTVSPropertyOp53
 70
     1
102
RTVSPropertyOp54
 70
     1
102
RTVSPropertyOp55
 70
     1
102
RTVSPropertyOp56
 70
     1
102
RTVSPropertyOp57
 70
     1
102
RTVSPropertyOp58
 70
     1
102
RTVSPropertyOp59
 70
     1
102
RTVSPropertyOp60
 70
     1
102
RTVSPropertyOp61
 70
     1
102
RTVSPropertyOp62
 70
     1
  0
XRECORD
  5
37A
102
{ACAD_REACTORS
330
379
102
}
330
379
100
AcDbXrecord
280
     1
102
RTVSPost2010Prop28
280
     0
102
RTVSPost2010PropOp28
 70
     1
102
RTVSPost2010Prop29
280
     1
102
RTVSPost2010PropOp29
 70
     1
102
RTVSPost2010Prop30
280
     1
102
RTVSPost2010PropOp30
 70
     1
102
RTVSPost2010Prop31
280
     0
102
RTVSPost2010PropOp31
 70
     1
102
RTVSPost2010Prop32
280
     0
102
RTVSPost2010PropOp32
 70
     1
102
RTVSPost2010Prop33
280
     0
102
RTVSPost2010PropOp33
 70
     1
102
RTVSPost2010Prop34
280
     0
102
RTVSPost2010PropOp34
 70
     1
102
RTVSPost2010Prop35
280
     0
102
RTVSPost2010PropOp35
 70
     1
102
RTVSPost2010Prop36
280
     0
102
RTVSPost2010PropOp36
 70
     1
102
RTVSPost2010Prop37
 90
       50
102
RTVSPost2010PropOp37
 70
     1
102
RTVSPost2010Prop38
140
0.0
102
RTVSPost2010PropOp38
 70
     1
102
RTVSPost2010Prop39
140
1.0
102
RTVSPost2010PropOp39
 70
     1
102
RTVSPost2010Prop40
 90
        0
102
RTVSPost2010PropOp40
 70
     1
102
RTVSPost2010Prop41ColorIndex
 90
       18
102
RTVSPost2010Prop41ColorRGB
 90
        0
102
RTVSPost2010PropOp41
 70
     1
102
RTVSPost2010Prop42
 90
       50
102
RTVSPost2010PropOp42
 70
     1
102
RTVSPost2010Prop43
 90
        3
102
RTVSPost2010PropOp43
 70
     1
102
RTVSPost2010Prop44ColorIndex
 90
        5
102
RTVSPost2010Prop44ColorRGB
 90
      255
102
RTVSPost2010PropOp44
 70
     1
102
RTVSPost2010Prop45
280
     0
102
RTVSPost2010PropOp45
 70
     1
102
RTVSPost2010Prop46
 90
       50
102
RTVSPost2010PropOp46
 70
     1
102
RTVSPost2010Prop47
 90
       50
102
RTVSPost2010PropOp47
 70
     1
102
RTVSPost2010Prop48
 90
       50
102
RTVSPost2010PropOp48
 70
     1
102
RTVSPost2010Prop49
280
     0
102
RTVSPost2010PropOp49
 70
     1
102
RTVSPost2010Prop50
 90
       50
102
RTVSPost2010PropOp50
 70
     1
102
RTVSPost2010Prop51ColorIndex
 90
      256
102
RTVSPost2010Prop51ColorRGB
 90
-16777216
102
RTVSPost2010PropOp51
 70
     0
102
RTVSPost2010Prop52
140
1.0
102
RTVSPost2010PropOp52
 70
     0
102
RTVSPost2010Prop53
 90
        2
102
RTVSPost2010PropOp53
 70
     1
102
RTVSPost2010Prop54
  1
strokes_ogs.tif
102
RTVSPost2010PropOp54
 70
     1
102
RTVSPost2010Prop55
280
     0
102
RTVSPost2010PropOp55
 70
     1
102
RTVSPost2010Prop56
140
1.0
102
RTVSPost2010PropOp56
 70
     1
102
RTVSPost2010Prop57
140
1.0
102
RTVSPost2010PropOp57
 70
     1
102
RTVSPropertyOp0
 70
     1
102
RTVSPropertyOp1
 70
     1
102
RTVSPropertyOp2
 70
     1
102
RTVSPropertyOp3
 70
     1
102
RTVSPropertyOp4
 70
     1
102
RTVSPropertyOp5
 70
     1
102
RTVSPropertyOp6
 70
     1
102
RTVSPropertyOp7
 70
     1
102
RTVSPropertyOp8
 70
     1
102
RTVSPropertyOp9
 70
     1
102
RTVSPropertyOp10
 70
     1
102
RTVSPropertyOp11
 70
     1
102
RTVSPropertyOp12
 70
     1
102
RTVSPropertyOp13
 70
     1
102
RTVSPropertyOp14
 70
     1
102
RTVSPropertyOp15
 70
     1
102
RTVSPropertyOp16
 70
     1
102
RTVSPropertyOp17
 70
     1
102
RTVSPropertyOp18
 70
     1
102
RTVSPropertyOp19
 70
     1
102
RTVSPropertyOp20
 70
     1
102
RTVSPropertyOp21
 70
     1
102
RTVSPropertyOp22
 70
     1
102
RTVSPropertyOp23
 70
     1
102
RTVSPropertyOp24
 70
     1
102
RTVSPropertyOp25
 70
     1
102
RTVSPropertyOp26
 70
     1
102
RTVSPropertyOp27
 70
     1
102
RTVSPropertyOp28
 70
     1
102
RTVSPropertyOp29
 70
     1
102
RTVSPropertyOp30
 70
     1
102
RTVSPropertyOp31
 70
     1
102
RTVSPropertyOp32
 70
     1
102
RTVSPropertyOp33
 70
     1
102
RTVSPropertyOp34
 70
     1
102
RTVSPropertyOp35
 70
     1
102
RTVSPropertyOp36
 70
     1
102
RTVSPropertyOp37
 70
     1
102
RTVSPropertyOp38
 70
     1
102
RTVSPropertyOp39
 70
     1
102
RTVSPropertyOp40
 70
     1
102
RTVSPropertyOp41
 70
     1
102
RTVSPropertyOp42
 70
     1
102
RTVSPropertyOp43
 70
     1
102
RTVSPropertyOp44
 70
     1
102
RTVSPropertyOp45
 70
     1
102
RTVSPropertyOp46
 70
     1
102
RTVSPropertyOp47
 70
     1
102
RTVSPropertyOp48
 70
     1
102
RTVSPropertyOp49
 70
     1
102
RTVSPropertyOp50
 70
     1
102
RTVSPropertyOp51
 70
     0
102
RTVSPropertyOp52
 70
     0
102
RTVSPropertyOp53
 70
     1
102
RTVSPropertyOp54
 70
     1
102
RTVSPropertyOp55
 70
     1
102
RTVSPropertyOp56
 70
     1
102
RTVSPropertyOp57
 70
     1
102
RTVSPropertyOp58
 70
     1
102
RTVSPropertyOp59
 70
     1
102
RTVSPropertyOp60
 70
     1
102
RTVSPropertyOp61
 70
     1
102
RTVSPropertyOp62
 70
     1
  0
XRECORD
  5
37C
102
{ACAD_REACTORS
330
37B
102
}
330
37B
100
AcDbXrecord
280
     1
102
RTVSPost2010Prop28
280
     0
102
RTVSPost2010PropOp28
 70
     1
102
RTVSPost2010Prop29
280
     1
102
RTVSPost2010PropOp29
 70
     1
102
RTVSPost2010Prop30
280
     1
102
RTVSPost2010PropOp30
 70
     1
102
RTVSPost2010Prop31
280
     0
102
RTVSPost2010PropOp31
 70
     1
102
RTVSPost2010Prop32
280
     0
102
RTVSPost2010PropOp32
 70
     1
102
RTVSPost2010Prop33
280
     0
102
RTVSPost2010PropOp33
 70
     1
102
RTVSPost2010Prop34
280
     0
102
RTVSPost2010PropOp34
 70
     1
102
RTVSPost2010Prop35
280
     0
102
RTVSPost2010PropOp35
 70
     1
102
RTVSPost2010Prop36
280
     0
102
RTVSPost2010PropOp36
 70
     1
102
RTVSPost2010Prop37
 90
       50
102
RTVSPost2010PropOp37
 70
     1
102
RTVSPost2010Prop38
140
0.0
102
RTVSPost2010PropOp38
 70
     1
102
RTVSPost2010Prop39
140
1.0
102
RTVSPost2010PropOp39
 70
     1
102
RTVSPost2010Prop40
 90
        0
102
RTVSPost2010PropOp40
 70
     1
102
RTVSPost2010Prop41ColorIndex
 90
       18
102
RTVSPost2010Prop41ColorRGB
 90
        0
102
RTVSPost2010PropOp41
 70
     1
102
RTVSPost2010Prop42
 90
       50
102
RTVSPost2010PropOp42
 70
     1
102
RTVSPost2010Prop43
 90
        3
102
RTVSPost2010PropOp43
 70
     1
102
RTVSPost2010Prop44ColorIndex
 90
        5
102
RTVSPost2010Prop44ColorRGB
 90
      255
102
RTVSPost2010PropOp44
 70
     1
102
RTVSPost2010Prop45
280
     0
102
RTVSPost2010PropOp45
 70
     1
102
RTVSPost2010Prop46
 90
       50
102
RTVSPost2010PropOp46
 70
     1
102
RTVSPost2010Prop47
 90
       50
102
RTVSPost2010PropOp47
 70
     1
102
RTVSPost2010Prop48
 90
       50
102
RTVSPost2010PropOp48
 70
     1
102
RTVSPost2010Prop49
280
     0
102
RTVSPost2010PropOp49
 70
     1
102
RTVSPost2010Prop50
 90
       50
102
RTVSPost2010PropOp50
 70
     1
102
RTVSPost2010Prop51ColorIndex
 90
      256
102
RTVSPost2010Prop51ColorRGB
 90
-16777216
102
RTVSPost2010PropOp51
 70
     0
102
RTVSPost2010Prop52
140
1.0
102
RTVSPost2010PropOp52
 70
     0
102
RTVSPost2010Prop53
 90
        2
102
RTVSPost2010PropOp53
 70
     1
102
RTVSPost2010Prop54
  1
strokes_ogs.tif
102
RTVSPost2010PropOp54
 70
     1
102
RTVSPost2010Prop55
280
     0
102
RTVSPost2010PropOp55
 70
     1
102
RTVSPost2010Prop56
140
1.0
102
RTVSPost2010PropOp56
 70
     1
102
RTVSPost2010Prop57
140
1.0
102
RTVSPost2010PropOp57
 70
     1
102
RTVSPropertyOp0
 70
     1
102
RTVSPropertyOp1
 70
     1
102
RTVSPropertyOp2
 70
     1
102
RTVSPropertyOp3
 70
     1
102
RTVSPropertyOp4
 70
     1
102
RTVSPropertyOp5
 70
     1
102
RTVSPropertyOp6
 70
     1
102
RTVSPropertyOp7
 70
     1
102
RTVSPropertyOp8
 70
     1
102
RTVSPropertyOp9
 70
     1
102
RTVSPropertyOp10
 70
     1
102
RTVSPropertyOp11
 70
     1
102
RTVSPropertyOp12
 70
     1
102
RTVSPropertyOp13
 70
     1
102
RTVSPropertyOp14
 70
     1
102
RTVSPropertyOp15
 70
     1
102
RTVSPropertyOp16
 70
     1
102
RTVSPropertyOp17
 70
     1
102
RTVSPropertyOp18
 70
     1
102
RTVSPropertyOp19
 70
     1
102
RTVSPropertyOp20
 70
     1
102
RTVSPropertyOp21
 70
     1
102
RTVSPropertyOp22
 70
     1
102
RTVSPropertyOp23
 70
     1
102
RTVSPropertyOp24
 70
     1
102
RTVSPropertyOp25
 70
     1
102
RTVSPropertyOp26
 70
     1
102
RTVSPropertyOp27
 70
     1
102
RTVSPropertyOp28
 70
     1
102
RTVSPropertyOp29
 70
     1
102
RTVSPropertyOp30
 70
     1
102
RTVSPropertyOp31
 70
     1
102
RTVSPropertyOp32
 70
     1
102
RTVSPropertyOp33
 70
     1
102
RTVSPropertyOp34
 70
     1
102
RTVSPropertyOp35
 70
     1
102
RTVSPropertyOp36
 70
     1
102
RTVSPropertyOp37
 70
     1
102
RTVSPropertyOp38
 70
     1
102
RTVSPropertyOp39
 70
     1
102
RTVSPropertyOp40
 70
     1
102
RTVSPropertyOp41
 70
     1
102
RTVSPropertyOp42
 70
     1
102
RTVSPropertyOp43
 70
     1
102
RTVSPropertyOp44
 70
     1
102
RTVSPropertyOp45
 70
     1
102
RTVSPropertyOp46
 70
     1
102
RTVSPropertyOp47
 70
     1
102
RTVSPropertyOp48
 70
     1
102
RTVSPropertyOp49
 70
     1
102
RTVSPropertyOp50
 70
     1
102
RTVSPropertyOp51
 70
     0
102
RTVSPropertyOp52
 70
     0
102
RTVSPropertyOp53
 70
     1
102
RTVSPropertyOp54
 70
     1
102
RTVSPropertyOp55
 70
     1
102
RTVSPropertyOp56
 70
     1
102
RTVSPropertyOp57
 70
     1
102
RTVSPropertyOp58
 70
     1
102
RTVSPropertyOp59
 70
     1
102
RTVSPropertyOp60
 70
     1
102
RTVSPropertyOp61
 70
     1
102
RTVSPropertyOp62
 70
     1
  0
XRECORD
  5
38C
102
{ACAD_REACTORS
330
38B
102
}
330
38B
100
AcDbXrecord
280
     1
102
RTVSPost2010Prop28
280
     0
102
RTVSPost2010PropOp28
 70
     0
102
RTVSPost2010Prop29
280
     1
102
RTVSPost2010PropOp29
 70
     0
102
RTVSPost2010Prop30
280
     1
102
RTVSPost2010PropOp30
 70
     0
102
RTVSPost2010Prop31
280
     0
102
RTVSPost2010PropOp31
 70
     0
102
RTVSPost2010Prop32
280
     0
102
RTVSPost2010PropOp32
 70
     0
102
RTVSPost2010Prop33
280
     0
102
RTVSPost2010PropOp33
 70
     0
102
RTVSPost2010Prop34
280
     0
102
RTVSPost2010PropOp34
 70
     0
102
RTVSPost2010Prop35
280
     0
102
RTVSPost2010PropOp35
 70
     0
102
RTVSPost2010Prop36
280
     0
102
RTVSPost2010PropOp36
 70
     0
102
RTVSPost2010Prop37
 90
       50
102
RTVSPost2010PropOp37
 70
     0
102
RTVSPost2010Prop38
140
0.0
102
RTVSPost2010PropOp38
 70
     0
102
RTVSPost2010Prop39
140
1.0
102
RTVSPost2010PropOp39
 70
     0
102
RTVSPost2010Prop40
 90
        0
102
RTVSPost2010PropOp40
 70
     0
102
RTVSPost2010Prop41ColorIndex
 90
       18
102
RTVSPost2010Prop41ColorRGB
 90
        0
102
RTVSPost2010PropOp41
 70
     0
102
RTVSPost2010Prop42
 90
       50
102
RTVSPost2010PropOp42
 70
     0
102
RTVSPost2010Prop43
 90
        3
102
RTVSPost2010PropOp43
 70
     0
102
RTVSPost2010Prop44ColorIndex
 90
        5
102
RTVSPost2010Prop44ColorRGB
 90
      255
102
RTVSPost2010PropOp44
 70
     0
102
RTVSPost2010Prop45
280
     0
102
RTVSPost2010PropOp45
 70
     0
102
RTVSPost2010Prop46
 90
       50
102
RTVSPost2010PropOp46
 70
     0
102
RTVSPost2010Prop47
 90
       50
102
RTVSPost2010PropOp47
 70
     0
102
RTVSPost2010Prop48
 90
       50
102
RTVSPost2010PropOp48
 70
     0
102
RTVSPost2010Prop49
280
     0
102
RTVSPost2010PropOp49
 70
     0
102
RTVSPost2010Prop50
 90
       50
102
RTVSPost2010PropOp50
 70
     0
102
RTVSPost2010Prop51ColorIndex
 90
      256
102
RTVSPost2010Prop51ColorRGB
 90
-16777216
102
RTVSPost2010PropOp51
 70
     0
102
RTVSPost2010Prop52
140
1.0
102
RTVSPost2010PropOp52
 70
     0
102
RTVSPost2010Prop53
 90
        2
102
RTVSPost2010PropOp53
 70
     0
102
RTVSPost2010Prop54
  1
strokes_ogs.tif
102
RTVSPost2010PropOp54
 70
     0
102
RTVSPost2010Prop55
280
     0
102
RTVSPost2010PropOp55
 70
     0
102
RTVSPost2010Prop56
140
1.0
102
RTVSPost2010PropOp56
 70
     0
102
RTVSPost2010Prop57
140
1.0
102
RTVSPost2010PropOp57
 70
     0
102
RTVSPropertyOp0
 70
     0
102
RTVSPropertyOp1
 70
     0
102
RTVSPropertyOp2
 70
     0
102
RTVSPropertyOp3
 70
     0
102
RTVSPropertyOp4
 70
     0
102
RTVSPropertyOp5
 70
     0
102
RTVSPropertyOp6
 70
     0
102
RTVSPropertyOp7
 70
     0
102
RTVSPropertyOp8
 70
     0
102
RTVSPropertyOp9
 70
     0
102
RTVSPropertyOp10
 70
     0
102
RTVSPropertyOp11
 70
     0
102
RTVSPropertyOp12
 70
     0
102
RTVSPropertyOp13
 70
     0
102
RTVSPropertyOp14
 70
     2
102
RTVSPropertyOp15
 70
     0
102
RTVSPropertyOp16
 70
     0
102
RTVSPropertyOp17
 70
     0
102
RTVSPropertyOp18
 70
     0
102
RTVSPropertyOp19
 70
     0
102
RTVSPropertyOp20
 70
     0
102
RTVSPropertyOp21
 70
     0
102
RTVSPropertyOp22
 70
     0
102
RTVSPropertyOp23
 70
     0
102
RTVSPropertyOp24
 70
     0
102
RTVSPropertyOp25
 70
     0
102
RTVSPropertyOp26
 70
     0
102
RTVSPropertyOp27
 70
     0
102
RTVSPropertyOp28
 70
     0
102
RTVSPropertyOp29
 70
     0
102
RTVSPropertyOp30
 70
     0
102
RTVSPropertyOp31
 70
     0
102
RTVSPropertyOp32
 70
     0
102
RTVSPropertyOp33
 70
     0
102
RTVSPropertyOp34
 70
     0
102
RTVSPropertyOp35
 70
     0
102
RTVSPropertyOp36
 70
     0
102
RTVSPropertyOp37
 70
     0
102
RTVSPropertyOp38
 70
     0
102
RTVSPropertyOp39
 70
     0
102
RTVSPropertyOp40
 70
     0
102
RTVSPropertyOp41
 70
     0
102
RTVSPropertyOp42
 70
     0
102
RTVSPropertyOp43
 70
     0
102
RTVSPropertyOp44
 70
     0
102
RTVSPropertyOp45
 70
     0
102
RTVSPropertyOp46
 70
     0
102
RTVSPropertyOp47
 70
     0
102
RTVSPropertyOp48
 70
     0
102
RTVSPropertyOp49
 70
     0
102
RTVSPropertyOp50
 70
     0
102
RTVSPropertyOp51
 70
     0
102
RTVSPropertyOp52
 70
     0
102
RTVSPropertyOp53
 70
     0
102
RTVSPropertyOp54
 70
     0
102
RTVSPropertyOp55
 70
     0
102
RTVSPropertyOp56
 70
     0
102
RTVSPropertyOp57
 70
     0
102
RTVSPropertyOp58
 70
     1
102
RTVSPropertyOp59
 70
     1
102
RTVSPropertyOp60
 70
     1
102
RTVSPropertyOp61
 70
     1
102
RTVSPropertyOp62
 70
     1
  0
XRECORD
  5
384
102
{ACAD_REACTORS
330
383
102
}
330
383
100
AcDbXrecord
280
     1
102
RTVSPost2010Prop28
280
     0
102
RTVSPost2010PropOp28
 70
     1
102
RTVSPost2010Prop29
280
     1
102
RTVSPost2010PropOp29
 70
     1
102
RTVSPost2010Prop30
280
     1
102
RTVSPost2010PropOp30
 70
     1
102
RTVSPost2010Prop31
280
     0
102
RTVSPost2010PropOp31
 70
     1
102
RTVSPost2010Prop32
280
     0
102
RTVSPost2010PropOp32
 70
     1
102
RTVSPost2010Prop33
280
     0
102
RTVSPost2010PropOp33
 70
     1
102
RTVSPost2010Prop34
280
     0
102
RTVSPost2010PropOp34
 70
     1
102
RTVSPost2010Prop35
280
     0
102
RTVSPost2010PropOp35
 70
     1
102
RTVSPost2010Prop36
280
     0
102
RTVSPost2010PropOp36
 70
     1
102
RTVSPost2010Prop37
 90
       50
102
RTVSPost2010PropOp37
 70
     1
102
RTVSPost2010Prop38
140
0.0
102
RTVSPost2010PropOp38
 70
     1
102
RTVSPost2010Prop39
140
1.0
102
RTVSPost2010PropOp39
 70
     1
102
RTVSPost2010Prop40
 90
        0
102
RTVSPost2010PropOp40
 70
     1
102
RTVSPost2010Prop41ColorIndex
 90
       18
102
RTVSPost2010Prop41ColorRGB
 90
        0
102
RTVSPost2010PropOp41
 70
     1
102
RTVSPost2010Prop42
 90
       50
102
RTVSPost2010PropOp42
 70
     1
102
RTVSPost2010Prop43
 90
        3
102
RTVSPost2010PropOp43
 70
     1
102
RTVSPost2010Prop44ColorIndex
 90
        5
102
RTVSPost2010Prop44ColorRGB
 90
      255
102
RTVSPost2010PropOp44
 70
     1
102
RTVSPost2010Prop45
280
     0
102
RTVSPost2010PropOp45
 70
     1
102
RTVSPost2010Prop46
 90
       50
102
RTVSPost2010PropOp46
 70
     1
102
RTVSPost2010Prop47
 90
       50
102
RTVSPost2010PropOp47
 70
     1
102
RTVSPost2010Prop48
 90
       50
102
RTVSPost2010PropOp48
 70
     1
102
RTVSPost2010Prop49
280
     0
102
RTVSPost2010PropOp49
 70
     1
102
RTVSPost2010Prop50
 90
       50
102
RTVSPost2010PropOp50
 70
     1
102
RTVSPost2010Prop51ColorIndex
 90
      256
102
RTVSPost2010Prop51ColorRGB
 90
-16777216
102
RTVSPost2010PropOp51
 70
     0
102
RTVSPost2010Prop52
140
1.0
102
RTVSPost2010PropOp52
 70
     0
102
RTVSPost2010Prop53
 90
        2
102
RTVSPost2010PropOp53
 70
     1
102
RTVSPost2010Prop54
  1
strokes_ogs.tif
102
RTVSPost2010PropOp54
 70
     1
102
RTVSPost2010Prop55
280
     0
102
RTVSPost2010PropOp55
 70
     1
102
RTVSPost2010Prop56
140
1.0
102
RTVSPost2010PropOp56
 70
     1
102
RTVSPost2010Prop57
140
1.0
102
RTVSPost2010PropOp57
 70
     1
102
RTVSPropertyOp0
 70
     1
102
RTVSPropertyOp1
 70
     1
102
RTVSPropertyOp2
 70
     1
102
RTVSPropertyOp3
 70
     1
102
RTVSPropertyOp4
 70
     1
102
RTVSPropertyOp5
 70
     1
102
RTVSPropertyOp6
 70
     1
102
RTVSPropertyOp7
 70
     1
102
RTVSPropertyOp8
 70
     1
102
RTVSPropertyOp9
 70
     1
102
RTVSPropertyOp10
 70
     1
102
RTVSPropertyOp11
 70
     1
102
RTVSPropertyOp12
 70
     1
102
RTVSPropertyOp13
 70
     1
102
RTVSPropertyOp14
 70
     1
102
RTVSPropertyOp15
 70
     1
102
RTVSPropertyOp16
 70
     1
102
RTVSPropertyOp17
 70
     1
102
RTVSPropertyOp18
 70
     1
102
RTVSPropertyOp19
 70
     1
102
RTVSPropertyOp20
 70
     1
102
RTVSPropertyOp21
 70
     1
102
RTVSPropertyOp22
 70
     1
102
RTVSPropertyOp23
 70
     1
102
RTVSPropertyOp24
 70
     1
102
RTVSPropertyOp25
 70
     1
102
RTVSPropertyOp26
 70
     1
102
RTVSPropertyOp27
 70
     1
102
RTVSPropertyOp28
 70
     1
102
RTVSPropertyOp29
 70
     1
102
RTVSPropertyOp30
 70
     1
102
RTVSPropertyOp31
 70
     1
102
RTVSPropertyOp32
 70
     1
102
RTVSPropertyOp33
 70
     1
102
RTVSPropertyOp34
 70
     1
102
RTVSPropertyOp35
 70
     1
102
RTVSPropertyOp36
 70
     1
102
RTVSPropertyOp37
 70
     1
102
RTVSPropertyOp38
 70
     1
102
RTVSPropertyOp39
 70
     1
102
RTVSPropertyOp40
 70
     1
102
RTVSPropertyOp41
 70
     1
102
RTVSPropertyOp42
 70
     1
102
RTVSPropertyOp43
 70
     1
102
RTVSPropertyOp44
 70
     1
102
RTVSPropertyOp45
 70
     1
102
RTVSPropertyOp46
 70
     1
102
RTVSPropertyOp47
 70
     1
102
RTVSPropertyOp48
 70
     1
102
RTVSPropertyOp49
 70
     1
102
RTVSPropertyOp50
 70
     1
102
RTVSPropertyOp51
 70
     0
102
RTVSPropertyOp52
 70
     0
102
RTVSPropertyOp53
 70
     1
102
RTVSPropertyOp54
 70
     1
102
RTVSPropertyOp55
 70
     1
102
RTVSPropertyOp56
 70
     1
102
RTVSPropertyOp57
 70
     1
102
RTVSPropertyOp58
 70
     1
102
RTVSPropertyOp59
 70
     1
102
RTVSPropertyOp60
 70
     1
102
RTVSPropertyOp61
 70
     1
102
RTVSPropertyOp62
 70
     1
  0
XRECORD
  5
368
102
{ACAD_REACTORS
330
367
102
}
330
367
100
AcDbXrecord
280
     1
102
RTVSPost2010Prop28
280
     0
102
RTVSPost2010PropOp28
 70
     1
102
RTVSPost2010Prop29
280
     1
102
RTVSPost2010PropOp29
 70
     1
102
RTVSPost2010Prop30
280
     1
102
RTVSPost2010PropOp30
 70
     1
102
RTVSPost2010Prop31
280
     0
102
RTVSPost2010PropOp31
 70
     1
102
RTVSPost2010Prop32
280
     0
102
RTVSPost2010PropOp32
 70
     1
102
RTVSPost2010Prop33
280
     0
102
RTVSPost2010PropOp33
 70
     1
102
RTVSPost2010Prop34
280
     0
102
RTVSPost2010PropOp34
 70
     1
102
RTVSPost2010Prop35
280
     0
102
RTVSPost2010PropOp35
 70
     1
102
RTVSPost2010Prop36
280
     0
102
RTVSPost2010PropOp36
 70
     1
102
RTVSPost2010Prop37
 90
       50
102
RTVSPost2010PropOp37
 70
     1
102
RTVSPost2010Prop38
140
0.0
102
RTVSPost2010PropOp38
 70
     1
102
RTVSPost2010Prop39
140
1.0
102
RTVSPost2010PropOp39
 70
     1
102
RTVSPost2010Prop40
 90
        0
102
RTVSPost2010PropOp40
 70
     1
102
RTVSPost2010Prop41ColorIndex
 90
       18
102
RTVSPost2010Prop41ColorRGB
 90
        0
102
RTVSPost2010PropOp41
 70
     1
102
RTVSPost2010Prop42
 90
       50
102
RTVSPost2010PropOp42
 70
     1
102
RTVSPost2010Prop43
 90
        3
102
RTVSPost2010PropOp43
 70
     1
102
RTVSPost2010Prop44ColorIndex
 90
        5
102
RTVSPost2010Prop44ColorRGB
 90
      255
102
RTVSPost2010PropOp44
 70
     1
102
RTVSPost2010Prop45
280
     0
102
RTVSPost2010PropOp45
 70
     1
102
RTVSPost2010Prop46
 90
       50
102
RTVSPost2010PropOp46
 70
     1
102
RTVSPost2010Prop47
 90
       50
102
RTVSPost2010PropOp47
 70
     1
102
RTVSPost2010Prop48
 90
       50
102
RTVSPost2010PropOp48
 70
     1
102
RTVSPost2010Prop49
280
     0
102
RTVSPost2010PropOp49
 70
     1
102
RTVSPost2010Prop50
 90
       50
102
RTVSPost2010PropOp50
 70
     1
102
RTVSPost2010Prop51ColorIndex
 90
      256
102
RTVSPost2010Prop51ColorRGB
 90
-16777216
102
RTVSPost2010PropOp51
 70
     0
102
RTVSPost2010Prop52
140
1.0
102
RTVSPost2010PropOp52
 70
     0
102
RTVSPost2010Prop53
 90
        2
102
RTVSPost2010PropOp53
 70
     1
102
RTVSPost2010Prop54
  1
strokes_ogs.tif
102
RTVSPost2010PropOp54
 70
     1
102
RTVSPost2010Prop55
280
     0
102
RTVSPost2010PropOp55
 70
     1
102
RTVSPost2010Prop56
140
1.0
102
RTVSPost2010PropOp56
 70
     1
102
RTVSPost2010Prop57
140
1.0
102
RTVSPost2010PropOp57
 70
     1
102
RTVSPropertyOp0
 70
     1
102
RTVSPropertyOp1
 70
     1
102
RTVSPropertyOp2
 70
     1
102
RTVSPropertyOp3
 70
     1
102
RTVSPropertyOp4
 70
     1
102
RTVSPropertyOp5
 70
     1
102
RTVSPropertyOp6
 70
     1
102
RTVSPropertyOp7
 70
     1
102
RTVSPropertyOp8
 70
     1
102
RTVSPropertyOp9
 70
     1
102
RTVSPropertyOp10
 70
     1
102
RTVSPropertyOp11
 70
     1
102
RTVSPropertyOp12
 70
     1
102
RTVSPropertyOp13
 70
     1
102
RTVSPropertyOp14
 70
     1
102
RTVSPropertyOp15
 70
     1
102
RTVSPropertyOp16
 70
     1
102
RTVSPropertyOp17
 70
     1
102
RTVSPropertyOp18
 70
     1
102
RTVSPropertyOp19
 70
     1
102
RTVSPropertyOp20
 70
     1
102
RTVSPropertyOp21
 70
     1
102
RTVSPropertyOp22
 70
     1
102
RTVSPropertyOp23
 70
     1
102
RTVSPropertyOp24
 70
     1
102
RTVSPropertyOp25
 70
     1
102
RTVSPropertyOp26
 70
     1
102
RTVSPropertyOp27
 70
     1
102
RTVSPropertyOp28
 70
     1
102
RTVSPropertyOp29
 70
     1
102
RTVSPropertyOp30
 70
     1
102
RTVSPropertyOp31
 70
     1
102
RTVSPropertyOp32
 70
     1
102
RTVSPropertyOp33
 70
     1
102
RTVSPropertyOp34
 70
     1
102
RTVSPropertyOp35
 70
     1
102
RTVSPropertyOp36
 70
     1
102
RTVSPropertyOp37
 70
     1
102
RTVSPropertyOp38
 70
     1
102
RTVSPropertyOp39
 70
     1
102
RTVSPropertyOp40
 70
     1
102
RTVSPropertyOp41
 70
     1
102
RTVSPropertyOp42
 70
     1
102
RTVSPropertyOp43
 70
     1
102
RTVSPropertyOp44
 70
     1
102
RTVSPropertyOp45
 70
     1
102
RTVSPropertyOp46
 70
     1
102
RTVSPropertyOp47
 70
     1
102
RTVSPropertyOp48
 70
     1
102
RTVSPropertyOp49
 70
     1
102
RTVSPropertyOp50
 70
     1
102
RTVSPropertyOp51
 70
     0
102
RTVSPropertyOp52
 70
     0
102
RTVSPropertyOp53
 70
     1
102
RTVSPropertyOp54
 70
     1
102
RTVSPropertyOp55
 70
     1
102
RTVSPropertyOp56
 70
     1
102
RTVSPropertyOp57
 70
     1
102
RTVSPropertyOp58
 70
     1
102
RTVSPropertyOp59
 70
     1
102
RTVSPropertyOp60
 70
     1
102
RTVSPropertyOp61
 70
     1
102
RTVSPropertyOp62
 70
     1
  0
XRECORD
  5
36A
102
{ACAD_REACTORS
330
369
102
}
330
369
100
AcDbXrecord
280
     1
102
RTVSPost2010Prop28
280
     0
102
RTVSPost2010PropOp28
 70
     1
102
RTVSPost2010Prop29
280
     1
102
RTVSPost2010PropOp29
 70
     1
102
RTVSPost2010Prop30
280
     1
102
RTVSPost2010PropOp30
 70
     1
102
RTVSPost2010Prop31
280
     0
102
RTVSPost2010PropOp31
 70
     1
102
RTVSPost2010Prop32
280
     0
102
RTVSPost2010PropOp32
 70
     1
102
RTVSPost2010Prop33
280
     0
102
RTVSPost2010PropOp33
 70
     1
102
RTVSPost2010Prop34
280
     0
102
RTVSPost2010PropOp34
 70
     1
102
RTVSPost2010Prop35
280
     0
102
RTVSPost2010PropOp35
 70
     1
102
RTVSPost2010Prop36
280
     0
102
RTVSPost2010PropOp36
 70
     1
102
RTVSPost2010Prop37
 90
       50
102
RTVSPost2010PropOp37
 70
     1
102
RTVSPost2010Prop38
140
0.0
102
RTVSPost2010PropOp38
 70
     1
102
RTVSPost2010Prop39
140
1.0
102
RTVSPost2010PropOp39
 70
     1
102
RTVSPost2010Prop40
 90
        0
102
RTVSPost2010PropOp40
 70
     1
102
RTVSPost2010Prop41ColorIndex
 90
       18
102
RTVSPost2010Prop41ColorRGB
 90
        0
102
RTVSPost2010PropOp41
 70
     1
102
RTVSPost2010Prop42
 90
       50
102
RTVSPost2010PropOp42
 70
     1
102
RTVSPost2010Prop43
 90
        3
102
RTVSPost2010PropOp43
 70
     1
102
RTVSPost2010Prop44ColorIndex
 90
        5
102
RTVSPost2010Prop44ColorRGB
 90
      255
102
RTVSPost2010PropOp44
 70
     1
102
RTVSPost2010Prop45
280
     0
102
RTVSPost2010PropOp45
 70
     1
102
RTVSPost2010Prop46
 90
       50
102
RTVSPost2010PropOp46
 70
     1
102
RTVSPost2010Prop47
 90
       50
102
RTVSPost2010PropOp47
 70
     1
102
RTVSPost2010Prop48
 90
       50
102
RTVSPost2010PropOp48
 70
     1
102
RTVSPost2010Prop49
280
     0
102
RTVSPost2010PropOp49
 70
     1
102
RTVSPost2010Prop50
 90
       50
102
RTVSPost2010PropOp50
 70
     1
102
RTVSPost2010Prop51ColorIndex
 90
      256
102
RTVSPost2010Prop51ColorRGB
 90
-16777216
102
RTVSPost2010PropOp51
 70
     0
102
RTVSPost2010Prop52
140
1.0
102
RTVSPost2010PropOp52
 70
     0
102
RTVSPost2010Prop53
 90
        2
102
RTVSPost2010PropOp53
 70
     1
102
RTVSPost2010Prop54
  1
strokes_ogs.tif
102
RTVSPost2010PropOp54
 70
     1
102
RTVSPost2010Prop55
280
     0
102
RTVSPost2010PropOp55
 70
     1
102
RTVSPost2010Prop56
140
1.0
102
RTVSPost2010PropOp56
 70
     1
102
RTVSPost2010Prop57
140
1.0
102
RTVSPost2010PropOp57
 70
     1
102
RTVSPropertyOp0
 70
     1
102
RTVSPropertyOp1
 70
     1
102
RTVSPropertyOp2
 70
     1
102
RTVSPropertyOp3
 70
     1
102
RTVSPropertyOp4
 70
     1
102
RTVSPropertyOp5
 70
     1
102
RTVSPropertyOp6
 70
     1
102
RTVSPropertyOp7
 70
     1
102
RTVSPropertyOp8
 70
     1
102
RTVSPropertyOp9
 70
     1
102
RTVSPropertyOp10
 70
     1
102
RTVSPropertyOp11
 70
     1
102
RTVSPropertyOp12
 70
     1
102
RTVSPropertyOp13
 70
     1
102
RTVSPropertyOp14
 70
     1
102
RTVSPropertyOp15
 70
     1
102
RTVSPropertyOp16
 70
     1
102
RTVSPropertyOp17
 70
     1
102
RTVSPropertyOp18
 70
     1
102
RTVSPropertyOp19
 70
     1
102
RTVSPropertyOp20
 70
     1
102
RTVSPropertyOp21
 70
     1
102
RTVSPropertyOp22
 70
     1
102
RTVSPropertyOp23
 70
     1
102
RTVSPropertyOp24
 70
     1
102
RTVSPropertyOp25
 70
     1
102
RTVSPropertyOp26
 70
     1
102
RTVSPropertyOp27
 70
     1
102
RTVSPropertyOp28
 70
     1
102
RTVSPropertyOp29
 70
     1
102
RTVSPropertyOp30
 70
     1
102
RTVSPropertyOp31
 70
     1
102
RTVSPropertyOp32
 70
     1
102
RTVSPropertyOp33
 70
     1
102
RTVSPropertyOp34
 70
     1
102
RTVSPropertyOp35
 70
     1
102
RTVSPropertyOp36
 70
     1
102
RTVSPropertyOp37
 70
     1
102
RTVSPropertyOp38
 70
     1
102
RTVSPropertyOp39
 70
     1
102
RTVSPropertyOp40
 70
     1
102
RTVSPropertyOp41
 70
     1
102
RTVSPropertyOp42
 70
     1
102
RTVSPropertyOp43
 70
     1
102
RTVSPropertyOp44
 70
     1
102
RTVSPropertyOp45
 70
     1
102
RTVSPropertyOp46
 70
     1
102
RTVSPropertyOp47
 70
     1
102
RTVSPropertyOp48
 70
     1
102
RTVSPropertyOp49
 70
     1
102
RTVSPropertyOp50
 70
     1
102
RTVSPropertyOp51
 70
     0
102
RTVSPropertyOp52
 70
     0
102
RTVSPropertyOp53
 70
     1
102
RTVSPropertyOp54
 70
     1
102
RTVSPropertyOp55
 70
     1
102
RTVSPropertyOp56
 70
     1
102
RTVSPropertyOp57
 70
     1
102
RTVSPropertyOp58
 70
     1
102
RTVSPropertyOp59
 70
     1
102
RTVSPropertyOp60
 70
     1
102
RTVSPropertyOp61
 70
     1
102
RTVSPropertyOp62
 70
     1
  0
XRECORD
  5
36C
102
{ACAD_REACTORS
330
36B
102
}
330
36B
100
AcDbXrecord
280
     1
102
RTVSPost2010Prop28
280
     0
102
RTVSPost2010PropOp28
 70
     1
102
RTVSPost2010Prop29
280
     1
102
RTVSPost2010PropOp29
 70
     1
102
RTVSPost2010Prop30
280
     1
102
RTVSPost2010PropOp30
 70
     1
102
RTVSPost2010Prop31
280
     0
102
RTVSPost2010PropOp31
 70
     1
102
RTVSPost2010Prop32
280
     0
102
RTVSPost2010PropOp32
 70
     1
102
RTVSPost2010Prop33
280
     0
102
RTVSPost2010PropOp33
 70
     1
102
RTVSPost2010Prop34
280
     0
102
RTVSPost2010PropOp34
 70
     1
102
RTVSPost2010Prop35
280
     0
102
RTVSPost2010PropOp35
 70
     1
102
RTVSPost2010Prop36
280
     0
102
RTVSPost2010PropOp36
 70
     1
102
RTVSPost2010Prop37
 90
       50
102
RTVSPost2010PropOp37
 70
     1
102
RTVSPost2010Prop38
140
0.0
102
RTVSPost2010PropOp38
 70
     1
102
RTVSPost2010Prop39
140
1.0
102
RTVSPost2010PropOp39
 70
     1
102
RTVSPost2010Prop40
 90
        0
102
RTVSPost2010PropOp40
 70
     1
102
RTVSPost2010Prop41ColorIndex
 90
       18
102
RTVSPost2010Prop41ColorRGB
 90
        0
102
RTVSPost2010PropOp41
 70
     1
102
RTVSPost2010Prop42
 90
       50
102
RTVSPost2010PropOp42
 70
     1
102
RTVSPost2010Prop43
 90
        3
102
RTVSPost2010PropOp43
 70
     1
102
RTVSPost2010Prop44ColorIndex
 90
        5
102
RTVSPost2010Prop44ColorRGB
 90
      255
102
RTVSPost2010PropOp44
 70
     1
102
RTVSPost2010Prop45
280
     0
102
RTVSPost2010PropOp45
 70
     1
102
RTVSPost2010Prop46
 90
       50
102
RTVSPost2010PropOp46
 70
     1
102
RTVSPost2010Prop47
 90
       50
102
RTVSPost2010PropOp47
 70
     1
102
RTVSPost2010Prop48
 90
       50
102
RTVSPost2010PropOp48
 70
     1
102
RTVSPost2010Prop49
280
     0
102
RTVSPost2010PropOp49
 70
     1
102
RTVSPost2010Prop50
 90
       50
102
RTVSPost2010PropOp50
 70
     1
102
RTVSPost2010Prop51ColorIndex
 90
      256
102
RTVSPost2010Prop51ColorRGB
 90
-16777216
102
RTVSPost2010PropOp51
 70
     0
102
RTVSPost2010Prop52
140
1.0
102
RTVSPost2010PropOp52
 70
     0
102
RTVSPost2010Prop53
 90
        2
102
RTVSPost2010PropOp53
 70
     1
102
RTVSPost2010Prop54
  1
strokes_ogs.tif
102
RTVSPost2010PropOp54
 70
     1
102
RTVSPost2010Prop55
280
     0
102
RTVSPost2010PropOp55
 70
     1
102
RTVSPost2010Prop56
140
1.0
102
RTVSPost2010PropOp56
 70
     1
102
RTVSPost2010Prop57
140
1.0
102
RTVSPost2010PropOp57
 70
     1
102
RTVSPropertyOp0
 70
     1
102
RTVSPropertyOp1
 70
     1
102
RTVSPropertyOp2
 70
     1
102
RTVSPropertyOp3
 70
     1
102
RTVSPropertyOp4
 70
     1
102
RTVSPropertyOp5
 70
     1
102
RTVSPropertyOp6
 70
     1
102
RTVSPropertyOp7
 70
     1
102
RTVSPropertyOp8
 70
     1
102
RTVSPropertyOp9
 70
     1
102
RTVSPropertyOp10
 70
     1
102
RTVSPropertyOp11
 70
     1
102
RTVSPropertyOp12
 70
     1
102
RTVSPropertyOp13
 70
     1
102
RTVSPropertyOp14
 70
     1
102
RTVSPropertyOp15
 70
     1
102
RTVSPropertyOp16
 70
     1
102
RTVSPropertyOp17
 70
     1
102
RTVSPropertyOp18
 70
     1
102
RTVSPropertyOp19
 70
     1
102
RTVSPropertyOp20
 70
     1
102
RTVSPropertyOp21
 70
     1
102
RTVSPropertyOp22
 70
     1
102
RTVSPropertyOp23
 70
     1
102
RTVSPropertyOp24
 70
     1
102
RTVSPropertyOp25
 70
     1
102
RTVSPropertyOp26
 70
     1
102
RTVSPropertyOp27
 70
     1
102
RTVSPropertyOp28
 70
     1
102
RTVSPropertyOp29
 70
     1
102
RTVSPropertyOp30
 70
     1
102
RTVSPropertyOp31
 70
     1
102
RTVSPropertyOp32
 70
     1
102
RTVSPropertyOp33
 70
     1
102
RTVSPropertyOp34
 70
     1
102
RTVSPropertyOp35
 70
     1
102
RTVSPropertyOp36
 70
     1
102
RTVSPropertyOp37
 70
     1
102
RTVSPropertyOp38
 70
     1
102
RTVSPropertyOp39
 70
     1
102
RTVSPropertyOp40
 70
     1
102
RTVSPropertyOp41
 70
     1
102
RTVSPropertyOp42
 70
     1
102
RTVSPropertyOp43
 70
     1
102
RTVSPropertyOp44
 70
     1
102
RTVSPropertyOp45
 70
     1
102
RTVSPropertyOp46
 70
     1
102
RTVSPropertyOp47
 70
     1
102
RTVSPropertyOp48
 70
     1
102
RTVSPropertyOp49
 70
     1
102
RTVSPropertyOp50
 70
     1
102
RTVSPropertyOp51
 70
     0
102
RTVSPropertyOp52
 70
     0
102
RTVSPropertyOp53
 70
     1
102
RTVSPropertyOp54
 70
     1
102
RTVSPropertyOp55
 70
     1
102
RTVSPropertyOp56
 70
     1
102
RTVSPropertyOp57
 70
     1
102
RTVSPropertyOp58
 70
     1
102
RTVSPropertyOp59
 70
     1
102
RTVSPropertyOp60
 70
     1
102
RTVSPropertyOp61
 70
     1
102
RTVSPropertyOp62
 70
     1
  0
XRECORD
  5
36E
102
{ACAD_REACTORS
330
36D
102
}
330
36D
100
AcDbXrecord
280
     1
102
RTVSPost2010Prop28
280
     0
102
RTVSPost2010PropOp28
 70
     1
102
RTVSPost2010Prop29
280
     1
102
RTVSPost2010PropOp29
 70
     1
102
RTVSPost2010Prop30
280
     1
102
RTVSPost2010PropOp30
 70
     1
102
RTVSPost2010Prop31
280
     0
102
RTVSPost2010PropOp31
 70
     1
102
RTVSPost2010Prop32
280
     0
102
RTVSPost2010PropOp32
 70
     1
102
RTVSPost2010Prop33
280
     0
102
RTVSPost2010PropOp33
 70
     1
102
RTVSPost2010Prop34
280
     0
102
RTVSPost2010PropOp34
 70
     1
102
RTVSPost2010Prop35
280
     0
102
RTVSPost2010PropOp35
 70
     1
102
RTVSPost2010Prop36
280
     0
102
RTVSPost2010PropOp36
 70
     1
102
RTVSPost2010Prop37
 90
       50
102
RTVSPost2010PropOp37
 70
     1
102
RTVSPost2010Prop38
140
0.0
102
RTVSPost2010PropOp38
 70
     1
102
RTVSPost2010Prop39
140
1.0
102
RTVSPost2010PropOp39
 70
     1
102
RTVSPost2010Prop40
 90
        0
102
RTVSPost2010PropOp40
 70
     1
102
RTVSPost2010Prop41ColorIndex
 90
       18
102
RTVSPost2010Prop41ColorRGB
 90
        0
102
RTVSPost2010PropOp41
 70
     1
102
RTVSPost2010Prop42
 90
       50
102
RTVSPost2010PropOp42
 70
     1
102
RTVSPost2010Prop43
 90
        3
102
RTVSPost2010PropOp43
 70
     1
102
RTVSPost2010Prop44ColorIndex
 90
        5
102
RTVSPost2010Prop44ColorRGB
 90
      255
102
RTVSPost2010PropOp44
 70
     1
102
RTVSPost2010Prop45
280
     0
102
RTVSPost2010PropOp45
 70
     1
102
RTVSPost2010Prop46
 90
       50
102
RTVSPost2010PropOp46
 70
     1
102
RTVSPost2010Prop47
 90
       50
102
RTVSPost2010PropOp47
 70
     1
102
RTVSPost2010Prop48
 90
       50
102
RTVSPost2010PropOp48
 70
     1
102
RTVSPost2010Prop49
280
     0
102
RTVSPost2010PropOp49
 70
     1
102
RTVSPost2010Prop50
 90
       50
102
RTVSPost2010PropOp50
 70
     1
102
RTVSPost2010Prop51ColorIndex
 90
      256
102
RTVSPost2010Prop51ColorRGB
 90
-16777216
102
RTVSPost2010PropOp51
 70
     0
102
RTVSPost2010Prop52
140
1.0
102
RTVSPost2010PropOp52
 70
     0
102
RTVSPost2010Prop53
 90
        2
102
RTVSPost2010PropOp53
 70
     1
102
RTVSPost2010Prop54
  1
strokes_ogs.tif
102
RTVSPost2010PropOp54
 70
     1
102
RTVSPost2010Prop55
280
     0
102
RTVSPost2010PropOp55
 70
     1
102
RTVSPost2010Prop56
140
1.0
102
RTVSPost2010PropOp56
 70
     1
102
RTVSPost2010Prop57
140
1.0
102
RTVSPost2010PropOp57
 70
     1
102
RTVSPropertyOp0
 70
     1
102
RTVSPropertyOp1
 70
     1
102
RTVSPropertyOp2
 70
     1
102
RTVSPropertyOp3
 70
     1
102
RTVSPropertyOp4
 70
     1
102
RTVSPropertyOp5
 70
     1
102
RTVSPropertyOp6
 70
     1
102
RTVSPropertyOp7
 70
     1
102
RTVSPropertyOp8
 70
     1
102
RTVSPropertyOp9
 70
     1
102
RTVSPropertyOp10
 70
     1
102
RTVSPropertyOp11
 70
     1
102
RTVSPropertyOp12
 70
     1
102
RTVSPropertyOp13
 70
     1
102
RTVSPropertyOp14
 70
     1
102
RTVSPropertyOp15
 70
     1
102
RTVSPropertyOp16
 70
     1
102
RTVSPropertyOp17
 70
     1
102
RTVSPropertyOp18
 70
     1
102
RTVSPropertyOp19
 70
     1
102
RTVSPropertyOp20
 70
     1
102
RTVSPropertyOp21
 70
     1
102
RTVSPropertyOp22
 70
     1
102
RTVSPropertyOp23
 70
     1
102
RTVSPropertyOp24
 70
     1
102
RTVSPropertyOp25
 70
     1
102
RTVSPropertyOp26
 70
     1
102
RTVSPropertyOp27
 70
     1
102
RTVSPropertyOp28
 70
     1
102
RTVSPropertyOp29
 70
     1
102
RTVSPropertyOp30
 70
     1
102
RTVSPropertyOp31
 70
     1
102
RTVSPropertyOp32
 70
     1
102
RTVSPropertyOp33
 70
     1
102
RTVSPropertyOp34
 70
     1
102
RTVSPropertyOp35
 70
     1
102
RTVSPropertyOp36
 70
     1
102
RTVSPropertyOp37
 70
     1
102
RTVSPropertyOp38
 70
     1
102
RTVSPropertyOp39
 70
     1
102
RTVSPropertyOp40
 70
     1
102
RTVSPropertyOp41
 70
     1
102
RTVSPropertyOp42
 70
     1
102
RTVSPropertyOp43
 70
     1
102
RTVSPropertyOp44
 70
     1
102
RTVSPropertyOp45
 70
     1
102
RTVSPropertyOp46
 70
     1
102
RTVSPropertyOp47
 70
     1
102
RTVSPropertyOp48
 70
     1
102
RTVSPropertyOp49
 70
     1
102
RTVSPropertyOp50
 70
     1
102
RTVSPropertyOp51
 70
     0
102
RTVSPropertyOp52
 70
     0
102
RTVSPropertyOp53
 70
     1
102
RTVSPropertyOp54
 70
     1
102
RTVSPropertyOp55
 70
     1
102
RTVSPropertyOp56
 70
     1
102
RTVSPropertyOp57
 70
     1
102
RTVSPropertyOp58
 70
     1
102
RTVSPropertyOp59
 70
     1
102
RTVSPropertyOp60
 70
     1
102
RTVSPropertyOp61
 70
     1
102
RTVSPropertyOp62
 70
     1
  0
XRECORD
  5
374
102
{ACAD_REACTORS
330
373
102
}
330
373
100
AcDbXrecord
280
     1
102
RTVSPost2010Prop28
280
     0
102
RTVSPost2010PropOp28
 70
     1
102
RTVSPost2010Prop29
280
     1
102
RTVSPost2010PropOp29
 70
     1
102
RTVSPost2010Prop30
280
     1
102
RTVSPost2010PropOp30
 70
     1
102
RTVSPost2010Prop31
280
     0
102
RTVSPost2010PropOp31
 70
     1
102
RTVSPost2010Prop32
280
     0
102
RTVSPost2010PropOp32
 70
     1
102
RTVSPost2010Prop33
280
     0
102
RTVSPost2010PropOp33
 70
     1
102
RTVSPost2010Prop34
280
     0
102
RTVSPost2010PropOp34
 70
     1
102
RTVSPost2010Prop35
280
     0
102
RTVSPost2010PropOp35
 70
     1
102
RTVSPost2010Prop36
280
     0
102
RTVSPost2010PropOp36
 70
     1
102
RTVSPost2010Prop37
 90
       50
102
RTVSPost2010PropOp37
 70
     1
102
RTVSPost2010Prop38
140
0.0
102
RTVSPost2010PropOp38
 70
     1
102
RTVSPost2010Prop39
140
1.0
102
RTVSPost2010PropOp39
 70
     1
102
RTVSPost2010Prop40
 90
        0
102
RTVSPost2010PropOp40
 70
     1
102
RTVSPost2010Prop41ColorIndex
 90
       18
102
RTVSPost2010Prop41ColorRGB
 90
        0
102
RTVSPost2010PropOp41
 70
     1
102
RTVSPost2010Prop42
 90
       50
102
RTVSPost2010PropOp42
 70
     1
102
RTVSPost2010Prop43
 90
        3
102
RTVSPost2010PropOp43
 70
     1
102
RTVSPost2010Prop44ColorIndex
 90
        5
102
RTVSPost2010Prop44ColorRGB
 90
      255
102
RTVSPost2010PropOp44
 70
     1
102
RTVSPost2010Prop45
280
     0
102
RTVSPost2010PropOp45
 70
     1
102
RTVSPost2010Prop46
 90
       50
102
RTVSPost2010PropOp46
 70
     1
102
RTVSPost2010Prop47
 90
       50
102
RTVSPost2010PropOp47
 70
     1
102
RTVSPost2010Prop48
 90
       50
102
RTVSPost2010PropOp48
 70
     1
102
RTVSPost2010Prop49
280
     0
102
RTVSPost2010PropOp49
 70
     1
102
RTVSPost2010Prop50
 90
       50
102
RTVSPost2010PropOp50
 70
     1
102
RTVSPost2010Prop51ColorIndex
 90
      256
102
RTVSPost2010Prop51ColorRGB
 90
-16777216
102
RTVSPost2010PropOp51
 70
     0
102
RTVSPost2010Prop52
140
1.0
102
RTVSPost2010PropOp52
 70
     0
102
RTVSPost2010Prop53
 90
        2
102
RTVSPost2010PropOp53
 70
     1
102
RTVSPost2010Prop54
  1
strokes_ogs.tif
102
RTVSPost2010PropOp54
 70
     1
102
RTVSPost2010Prop55
280
     0
102
RTVSPost2010PropOp55
 70
     1
102
RTVSPost2010Prop56
140
1.0
102
RTVSPost2010PropOp56
 70
     1
102
RTVSPost2010Prop57
140
1.0
102
RTVSPost2010PropOp57
 70
     1
102
RTVSPropertyOp0
 70
     1
102
RTVSPropertyOp1
 70
     1
102
RTVSPropertyOp2
 70
     1
102
RTVSPropertyOp3
 70
     1
102
RTVSPropertyOp4
 70
     1
102
RTVSPropertyOp5
 70
     1
102
RTVSPropertyOp6
 70
     1
102
RTVSPropertyOp7
 70
     1
102
RTVSPropertyOp8
 70
     1
102
RTVSPropertyOp9
 70
     1
102
RTVSPropertyOp10
 70
     1
102
RTVSPropertyOp11
 70
     1
102
RTVSPropertyOp12
 70
     1
102
RTVSPropertyOp13
 70
     1
102
RTVSPropertyOp14
 70
     1
102
RTVSPropertyOp15
 70
     1
102
RTVSPropertyOp16
 70
     1
102
RTVSPropertyOp17
 70
     1
102
RTVSPropertyOp18
 70
     1
102
RTVSPropertyOp19
 70
     1
102
RTVSPropertyOp20
 70
     1
102
RTVSPropertyOp21
 70
     1
102
RTVSPropertyOp22
 70
     1
102
RTVSPropertyOp23
 70
     1
102
RTVSPropertyOp24
 70
     1
102
RTVSPropertyOp25
 70
     1
102
RTVSPropertyOp26
 70
     1
102
RTVSPropertyOp27
 70
     1
102
RTVSPropertyOp28
 70
     1
102
RTVSPropertyOp29
 70
     1
102
RTVSPropertyOp30
 70
     1
102
RTVSPropertyOp31
 70
     1
102
RTVSPropertyOp32
 70
     1
102
RTVSPropertyOp33
 70
     1
102
RTVSPropertyOp34
 70
     1
102
RTVSPropertyOp35
 70
     1
102
RTVSPropertyOp36
 70
     1
102
RTVSPropertyOp37
 70
     1
102
RTVSPropertyOp38
 70
     1
102
RTVSPropertyOp39
 70
     1
102
RTVSPropertyOp40
 70
     1
102
RTVSPropertyOp41
 70
     1
102
RTVSPropertyOp42
 70
     1
102
RTVSPropertyOp43
 70
     1
102
RTVSPropertyOp44
 70
     1
102
RTVSPropertyOp45
 70
     1
102
RTVSPropertyOp46
 70
     1
102
RTVSPropertyOp47
 70
     1
102
RTVSPropertyOp48
 70
     1
102
RTVSPropertyOp49
 70
     1
102
RTVSPropertyOp50
 70
     1
102
RTVSPropertyOp51
 70
     0
102
RTVSPropertyOp52
 70
     0
102
RTVSPropertyOp53
 70
     1
102
RTVSPropertyOp54
 70
     1
102
RTVSPropertyOp55
 70
     1
102
RTVSPropertyOp56
 70
     1
102
RTVSPropertyOp57
 70
     1
102
RTVSPropertyOp58
 70
     1
102
RTVSPropertyOp59
 70
     1
102
RTVSPropertyOp60
 70
     1
102
RTVSPropertyOp61
 70
     1
102
RTVSPropertyOp62
 70
     1
  0
XRECORD
  5
388
102
{ACAD_REACTORS
330
387
102
}
330
387
100
AcDbXrecord
280
     1
102
RTVSPost2010Prop28
280
     0
102
RTVSPost2010PropOp28
 70
     0
102
RTVSPost2010Prop29
280
     1
102
RTVSPost2010PropOp29
 70
     0
102
RTVSPost2010Prop30
280
     1
102
RTVSPost2010PropOp30
 70
     0
102
RTVSPost2010Prop31
280
     0
102
RTVSPost2010PropOp31
 70
     0
102
RTVSPost2010Prop32
280
     0
102
RTVSPost2010PropOp32
 70
     0
102
RTVSPost2010Prop33
280
     0
102
RTVSPost2010PropOp33
 70
     0
102
RTVSPost2010Prop34
280
     0
102
RTVSPost2010PropOp34
 70
     0
102
RTVSPost2010Prop35
280
     0
102
RTVSPost2010PropOp35
 70
     0
102
RTVSPost2010Prop36
280
     0
102
RTVSPost2010PropOp36
 70
     0
102
RTVSPost2010Prop37
 90
       50
102
RTVSPost2010PropOp37
 70
     0
102
RTVSPost2010Prop38
140
0.0
102
RTVSPost2010PropOp38
 70
     0
102
RTVSPost2010Prop39
140
1.0
102
RTVSPost2010PropOp39
 70
     0
102
RTVSPost2010Prop40
 90
        0
102
RTVSPost2010PropOp40
 70
     0
102
RTVSPost2010Prop41ColorIndex
 90
       18
102
RTVSPost2010Prop41ColorRGB
 90
        0
102
RTVSPost2010PropOp41
 70
     0
102
RTVSPost2010Prop42
 90
       50
102
RTVSPost2010PropOp42
 70
     0
102
RTVSPost2010Prop43
 90
        3
102
RTVSPost2010PropOp43
 70
     0
102
RTVSPost2010Prop44ColorIndex
 90
        5
102
RTVSPost2010Prop44ColorRGB
 90
      255
102
RTVSPost2010PropOp44
 70
     0
102
RTVSPost2010Prop45
280
     0
102
RTVSPost2010PropOp45
 70
     0
102
RTVSPost2010Prop46
 90
       50
102
RTVSPost2010PropOp46
 70
     0
102
RTVSPost2010Prop47
 90
       50
102
RTVSPost2010PropOp47
 70
     0
102
RTVSPost2010Prop48
 90
       50
102
RTVSPost2010PropOp48
 70
     0
102
RTVSPost2010Prop49
280
     0
102
RTVSPost2010PropOp49
 70
     0
102
RTVSPost2010Prop50
 90
       50
102
RTVSPost2010PropOp50
 70
     0
102
RTVSPost2010Prop51ColorIndex
 90
      256
102
RTVSPost2010Prop51ColorRGB
 90
-16777216
102
RTVSPost2010PropOp51
 70
     0
102
RTVSPost2010Prop52
140
1.0
102
RTVSPost2010PropOp52
 70
     0
102
RTVSPost2010Prop53
 90
        2
102
RTVSPost2010PropOp53
 70
     0
102
RTVSPost2010Prop54
  1
strokes_ogs.tif
102
RTVSPost2010PropOp54
 70
     0
102
RTVSPost2010Prop55
280
     0
102
RTVSPost2010PropOp55
 70
     0
102
RTVSPost2010Prop56
140
1.0
102
RTVSPost2010PropOp56
 70
     0
102
RTVSPost2010Prop57
140
1.0
102
RTVSPost2010PropOp57
 70
     0
102
RTVSPropertyOp0
 70
     0
102
RTVSPropertyOp1
 70
     0
102
RTVSPropertyOp2
 70
     0
102
RTVSPropertyOp3
 70
     0
102
RTVSPropertyOp4
 70
     0
102
RTVSPropertyOp5
 70
     0
102
RTVSPropertyOp6
 70
     0
102
RTVSPropertyOp7
 70
     0
102
RTVSPropertyOp8
 70
     0
102
RTVSPropertyOp9
 70
     0
102
RTVSPropertyOp10
 70
     0
102
RTVSPropertyOp11
 70
     0
102
RTVSPropertyOp12
 70
     0
102
RTVSPropertyOp13
 70
     0
102
RTVSPropertyOp14
 70
     2
102
RTVSPropertyOp15
 70
     0
102
RTVSPropertyOp16
 70
     0
102
RTVSPropertyOp17
 70
     0
102
RTVSPropertyOp18
 70
     0
102
RTVSPropertyOp19
 70
     0
102
RTVSPropertyOp20
 70
     0
102
RTVSPropertyOp21
 70
     0
102
RTVSPropertyOp22
 70
     0
102
RTVSPropertyOp23
 70
     0
102
RTVSPropertyOp24
 70
     0
102
RTVSPropertyOp25
 70
     0
102
RTVSPropertyOp26
 70
     0
102
RTVSPropertyOp27
 70
     0
102
RTVSPropertyOp28
 70
     0
102
RTVSPropertyOp29
 70
     0
102
RTVSPropertyOp30
 70
     0
102
RTVSPropertyOp31
 70
     0
102
RTVSPropertyOp32
 70
     0
102
RTVSPropertyOp33
 70
     0
102
RTVSPropertyOp34
 70
     0
102
RTVSPropertyOp35
 70
     0
102
RTVSPropertyOp36
 70
     0
102
RTVSPropertyOp37
 70
     0
102
RTVSPropertyOp38
 70
     0
102
RTVSPropertyOp39
 70
     0
102
RTVSPropertyOp40
 70
     0
102
RTVSPropertyOp41
 70
     0
102
RTVSPropertyOp42
 70
     0
102
RTVSPropertyOp43
 70
     0
102
RTVSPropertyOp44
 70
     0
102
RTVSPropertyOp45
 70
     0
102
RTVSPropertyOp46
 70
     0
102
RTVSPropertyOp47
 70
     0
102
RTVSPropertyOp48
 70
     0
102
RTVSPropertyOp49
 70
     0
102
RTVSPropertyOp50
 70
     0
102
RTVSPropertyOp51
 70
     0
102
RTVSPropertyOp52
 70
     0
102
RTVSPropertyOp53
 70
     0
102
RTVSPropertyOp54
 70
     0
102
RTVSPropertyOp55
 70
     0
102
RTVSPropertyOp56
 70
     0
102
RTVSPropertyOp57
 70
     0
102
RTVSPropertyOp58
 70
     1
102
RTVSPropertyOp59
 70
     1
102
RTVSPropertyOp60
 70
     1
102
RTVSPropertyOp61
 70
     1
102
RTVSPropertyOp62
 70
     1
  0
XRECORD
  5
382
102
{ACAD_REACTORS
330
381
102
}
330
381
100
AcDbXrecord
280
     1
102
RTVSPost2010Prop28
280
     0
102
RTVSPost2010PropOp28
 70
     1
102
RTVSPost2010Prop29
280
     1
102
RTVSPost2010PropOp29
 70
     1
102
RTVSPost2010Prop30
280
     1
102
RTVSPost2010PropOp30
 70
     1
102
RTVSPost2010Prop31
280
     0
102
RTVSPost2010PropOp31
 70
     1
102
RTVSPost2010Prop32
280
     0
102
RTVSPost2010PropOp32
 70
     1
102
RTVSPost2010Prop33
280
     0
102
RTVSPost2010PropOp33
 70
     1
102
RTVSPost2010Prop34
280
     0
102
RTVSPost2010PropOp34
 70
     1
102
RTVSPost2010Prop35
280
     0
102
RTVSPost2010PropOp35
 70
     1
102
RTVSPost2010Prop36
280
     0
102
RTVSPost2010PropOp36
 70
     1
102
RTVSPost2010Prop37
 90
       50
102
RTVSPost2010PropOp37
 70
     1
102
RTVSPost2010Prop38
140
0.0
102
RTVSPost2010PropOp38
 70
     1
102
RTVSPost2010Prop39
140
1.0
102
RTVSPost2010PropOp39
 70
     1
102
RTVSPost2010Prop40
 90
        0
102
RTVSPost2010PropOp40
 70
     1
102
RTVSPost2010Prop41ColorIndex
 90
       18
102
RTVSPost2010Prop41ColorRGB
 90
        0
102
RTVSPost2010PropOp41
 70
     1
102
RTVSPost2010Prop42
 90
       50
102
RTVSPost2010PropOp42
 70
     1
102
RTVSPost2010Prop43
 90
        3
102
RTVSPost2010PropOp43
 70
     1
102
RTVSPost2010Prop44ColorIndex
 90
        5
102
RTVSPost2010Prop44ColorRGB
 90
      255
102
RTVSPost2010PropOp44
 70
     1
102
RTVSPost2010Prop45
280
     0
102
RTVSPost2010PropOp45
 70
     1
102
RTVSPost2010Prop46
 90
       50
102
RTVSPost2010PropOp46
 70
     1
102
RTVSPost2010Prop47
 90
       50
102
RTVSPost2010PropOp47
 70
     1
102
RTVSPost2010Prop48
 90
       50
102
RTVSPost2010PropOp48
 70
     1
102
RTVSPost2010Prop49
280
     0
102
RTVSPost2010PropOp49
 70
     1
102
RTVSPost2010Prop50
 90
       50
102
RTVSPost2010PropOp50
 70
     1
102
RTVSPost2010Prop51ColorIndex
 90
      256
102
RTVSPost2010Prop51ColorRGB
 90
-16777216
102
RTVSPost2010PropOp51
 70
     0
102
RTVSPost2010Prop52
140
1.0
102
RTVSPost2010PropOp52
 70
     0
102
RTVSPost2010Prop53
 90
        2
102
RTVSPost2010PropOp53
 70
     1
102
RTVSPost2010Prop54
  1
strokes_ogs.tif
102
RTVSPost2010PropOp54
 70
     1
102
RTVSPost2010Prop55
280
     0
102
RTVSPost2010PropOp55
 70
     1
102
RTVSPost2010Prop56
140
1.0
102
RTVSPost2010PropOp56
 70
     1
102
RTVSPost2010Prop57
140
1.0
102
RTVSPost2010PropOp57
 70
     1
102
RTVSPropertyOp0
 70
     1
102
RTVSPropertyOp1
 70
     1
102
RTVSPropertyOp2
 70
     1
102
RTVSPropertyOp3
 70
     1
102
RTVSPropertyOp4
 70
     1
102
RTVSPropertyOp5
 70
     1
102
RTVSPropertyOp6
 70
     1
102
RTVSPropertyOp7
 70
     1
102
RTVSPropertyOp8
 70
     1
102
RTVSPropertyOp9
 70
     1
102
RTVSPropertyOp10
 70
     1
102
RTVSPropertyOp11
 70
     1
102
RTVSPropertyOp12
 70
     1
102
RTVSPropertyOp13
 70
     1
102
RTVSPropertyOp14
 70
     1
102
RTVSPropertyOp15
 70
     1
102
RTVSPropertyOp16
 70
     1
102
RTVSPropertyOp17
 70
     1
102
RTVSPropertyOp18
 70
     1
102
RTVSPropertyOp19
 70
     1
102
RTVSPropertyOp20
 70
     1
102
RTVSPropertyOp21
 70
     1
102
RTVSPropertyOp22
 70
     1
102
RTVSPropertyOp23
 70
     1
102
RTVSPropertyOp24
 70
     1
102
RTVSPropertyOp25
 70
     1
102
RTVSPropertyOp26
 70
     1
102
RTVSPropertyOp27
 70
     1
102
RTVSPropertyOp28
 70
     1
102
RTVSPropertyOp29
 70
     1
102
RTVSPropertyOp30
 70
     1
102
RTVSPropertyOp31
 70
     1
102
RTVSPropertyOp32
 70
     1
102
RTVSPropertyOp33
 70
     1
102
RTVSPropertyOp34
 70
     1
102
RTVSPropertyOp35
 70
     1
102
RTVSPropertyOp36
 70
     1
102
RTVSPropertyOp37
 70
     1
102
RTVSPropertyOp38
 70
     1
102
RTVSPropertyOp39
 70
     1
102
RTVSPropertyOp40
 70
     1
102
RTVSPropertyOp41
 70
     1
102
RTVSPropertyOp42
 70
     1
102
RTVSPropertyOp43
 70
     1
102
RTVSPropertyOp44
 70
     1
102
RTVSPropertyOp45
 70
     1
102
RTVSPropertyOp46
 70
     1
102
RTVSPropertyOp47
 70
     1
102
RTVSPropertyOp48
 70
     1
102
RTVSPropertyOp49
 70
     1
102
RTVSPropertyOp50
 70
     1
102
RTVSPropertyOp51
 70
     0
102
RTVSPropertyOp52
 70
     0
102
RTVSPropertyOp53
 70
     1
102
RTVSPropertyOp54
 70
     1
102
RTVSPropertyOp55
 70
     1
102
RTVSPropertyOp56
 70
     1
102
RTVSPropertyOp57
 70
     1
102
RTVSPropertyOp58
 70
     1
102
RTVSPropertyOp59
 70
     1
102
RTVSPropertyOp60
 70
     1
102
RTVSPropertyOp61
 70
     1
102
RTVSPropertyOp62
 70
     1
  0
XRECORD
  5
38A
102
{ACAD_REACTORS
330
389
102
}
330
389
100
AcDbXrecord
280
     1
102
RTVSPost2010Prop28
280
     0
102
RTVSPost2010PropOp28
 70
     0
102
RTVSPost2010Prop29
280
     1
102
RTVSPost2010PropOp29
 70
     0
102
RTVSPost2010Prop30
280
     1
102
RTVSPost2010PropOp30
 70
     0
102
RTVSPost2010Prop31
280
     0
102
RTVSPost2010PropOp31
 70
     0
102
RTVSPost2010Prop32
280
     0
102
RTVSPost2010PropOp32
 70
     0
102
RTVSPost2010Prop33
280
     0
102
RTVSPost2010PropOp33
 70
     0
102
RTVSPost2010Prop34
280
     0
102
RTVSPost2010PropOp34
 70
     0
102
RTVSPost2010Prop35
280
     0
102
RTVSPost2010PropOp35
 70
     0
102
RTVSPost2010Prop36
280
     0
102
RTVSPost2010PropOp36
 70
     0
102
RTVSPost2010Prop37
 90
       50
102
RTVSPost2010PropOp37
 70
     0
102
RTVSPost2010Prop38
140
0.0
102
RTVSPost2010PropOp38
 70
     0
102
RTVSPost2010Prop39
140
1.0
102
RTVSPost2010PropOp39
 70
     0
102
RTVSPost2010Prop40
 90
        0
102
RTVSPost2010PropOp40
 70
     0
102
RTVSPost2010Prop41ColorIndex
 90
       18
102
RTVSPost2010Prop41ColorRGB
 90
        0
102
RTVSPost2010PropOp41
 70
     0
102
RTVSPost2010Prop42
 90
       50
102
RTVSPost2010PropOp42
 70
     0
102
RTVSPost2010Prop43
 90
        3
102
RTVSPost2010PropOp43
 70
     0
102
RTVSPost2010Prop44ColorIndex
 90
        5
102
RTVSPost2010Prop44ColorRGB
 90
      255
102
RTVSPost2010PropOp44
 70
     0
102
RTVSPost2010Prop45
280
     0
102
RTVSPost2010PropOp45
 70
     0
102
RTVSPost2010Prop46
 90
       50
102
RTVSPost2010PropOp46
 70
     0
102
RTVSPost2010Prop47
 90
       50
102
RTVSPost2010PropOp47
 70
     0
102
RTVSPost2010Prop48
 90
       50
102
RTVSPost2010PropOp48
 70
     0
102
RTVSPost2010Prop49
280
     0
102
RTVSPost2010PropOp49
 70
     0
102
RTVSPost2010Prop50
 90
       50
102
RTVSPost2010PropOp50
 70
     0
102
RTVSPost2010Prop51ColorIndex
 90
      256
102
RTVSPost2010Prop51ColorRGB
 90
-16777216
102
RTVSPost2010PropOp51
 70
     0
102
RTVSPost2010Prop52
140
1.0
102
RTVSPost2010PropOp52
 70
     0
102
RTVSPost2010Prop53
 90
        2
102
RTVSPost2010PropOp53
 70
     0
102
RTVSPost2010Prop54
  1
strokes_ogs.tif
102
RTVSPost2010PropOp54
 70
     0
102
RTVSPost2010Prop55
280
     0
102
RTVSPost2010PropOp55
 70
     0
102
RTVSPost2010Prop56
140
1.0
102
RTVSPost2010PropOp56
 70
     0
102
RTVSPost2010Prop57
140
1.0
102
RTVSPost2010PropOp57
 70
     0
102
RTVSPropertyOp0
 70
     0
102
RTVSPropertyOp1
 70
     0
102
RTVSPropertyOp2
 70
     0
102
RTVSPropertyOp3
 70
     0
102
RTVSPropertyOp4
 70
     0
102
RTVSPropertyOp5
 70
     0
102
RTVSPropertyOp6
 70
     0
102
RTVSPropertyOp7
 70
     0
102
RTVSPropertyOp8
 70
     0
102
RTVSPropertyOp9
 70
     0
102
RTVSPropertyOp10
 70
     0
102
RTVSPropertyOp11
 70
     0
102
RTVSPropertyOp12
 70
     0
102
RTVSPropertyOp13
 70
     0
102
RTVSPropertyOp14
 70
     2
102
RTVSPropertyOp15
 70
     0
102
RTVSPropertyOp16
 70
     0
102
RTVSPropertyOp17
 70
     0
102
RTVSPropertyOp18
 70
     0
102
RTVSPropertyOp19
 70
     0
102
RTVSPropertyOp20
 70
     0
102
RTVSPropertyOp21
 70
     0
102
RTVSPropertyOp22
 70
     0
102
RTVSPropertyOp23
 70
     0
102
RTVSPropertyOp24
 70
     0
102
RTVSPropertyOp25
 70
     0
102
RTVSPropertyOp26
 70
     0
102
RTVSPropertyOp27
 70
     0
102
RTVSPropertyOp28
 70
     0
102
RTVSPropertyOp29
 70
     0
102
RTVSPropertyOp30
 70
     0
102
RTVSPropertyOp31
 70
     0
102
RTVSPropertyOp32
 70
     0
102
RTVSPropertyOp33
 70
     0
102
RTVSPropertyOp34
 70
     0
102
RTVSPropertyOp35
 70
     0
102
RTVSPropertyOp36
 70
     0
102
RTVSPropertyOp37
 70
     0
102
RTVSPropertyOp38
 70
     0
102
RTVSPropertyOp39
 70
     0
102
RTVSPropertyOp40
 70
     0
102
RTVSPropertyOp41
 70
     0
102
RTVSPropertyOp42
 70
     0
102
RTVSPropertyOp43
 70
     0
102
RTVSPropertyOp44
 70
     0
102
RTVSPropertyOp45
 70
     0
102
RTVSPropertyOp46
 70
     0
102
RTVSPropertyOp47
 70
     0
102
RTVSPropertyOp48
 70
     0
102
RTVSPropertyOp49
 70
     0
102
RTVSPropertyOp50
 70
     0
102
RTVSPropertyOp51
 70
     0
102
RTVSPropertyOp52
 70
     0
102
RTVSPropertyOp53
 70
     0
102
RTVSPropertyOp54
 70
     0
102
RTVSPropertyOp55
 70
     0
102
RTVSPropertyOp56
 70
     0
102
RTVSPropertyOp57
 70
     0
102
RTVSPropertyOp58
 70
     1
102
RTVSPropertyOp59
 70
     1
102
RTVSPropertyOp60
 70
     1
102
RTVSPropertyOp61
 70
     1
102
RTVSPropertyOp62
 70
     1
  0
XRECORD
  5
378
102
{ACAD_REACTORS
330
377
102
}
330
377
100
AcDbXrecord
280
     1
102
RTVSPost2010Prop28
280
     0
102
RTVSPost2010PropOp28
 70
     1
102
RTVSPost2010Prop29
280
     1
102
RTVSPost2010PropOp29
 70
     1
102
RTVSPost2010Prop30
280
     1
102
RTVSPost2010PropOp30
 70
     1
102
RTVSPost2010Prop31
280
     0
102
RTVSPost2010PropOp31
 70
     1
102
RTVSPost2010Prop32
280
     0
102
RTVSPost2010PropOp32
 70
     1
102
RTVSPost2010Prop33
280
     0
102
RTVSPost2010PropOp33
 70
     1
102
RTVSPost2010Prop34
280
     0
102
RTVSPost2010PropOp34
 70
     1
102
RTVSPost2010Prop35
280
     0
102
RTVSPost2010PropOp35
 70
     1
102
RTVSPost2010Prop36
280
     0
102
RTVSPost2010PropOp36
 70
     1
102
RTVSPost2010Prop37
 90
       50
102
RTVSPost2010PropOp37
 70
     1
102
RTVSPost2010Prop38
140
0.0
102
RTVSPost2010PropOp38
 70
     1
102
RTVSPost2010Prop39
140
1.0
102
RTVSPost2010PropOp39
 70
     1
102
RTVSPost2010Prop40
 90
        0
102
RTVSPost2010PropOp40
 70
     1
102
RTVSPost2010Prop41ColorIndex
 90
       18
102
RTVSPost2010Prop41ColorRGB
 90
        0
102
RTVSPost2010PropOp41
 70
     1
102
RTVSPost2010Prop42
 90
       50
102
RTVSPost2010PropOp42
 70
     1
102
RTVSPost2010Prop43
 90
        3
102
RTVSPost2010PropOp43
 70
     1
102
RTVSPost2010Prop44ColorIndex
 90
        5
102
RTVSPost2010Prop44ColorRGB
 90
      255
102
RTVSPost2010PropOp44
 70
     1
102
RTVSPost2010Prop45
280
     0
102
RTVSPost2010PropOp45
 70
     1
102
RTVSPost2010Prop46
 90
       50
102
RTVSPost2010PropOp46
 70
     1
102
RTVSPost2010Prop47
 90
       50
102
RTVSPost2010PropOp47
 70
     1
102
RTVSPost2010Prop48
 90
       50
102
RTVSPost2010PropOp48
 70
     1
102
RTVSPost2010Prop49
280
     0
102
RTVSPost2010PropOp49
 70
     1
102
RTVSPost2010Prop50
 90
       50
102
RTVSPost2010PropOp50
 70
     1
102
RTVSPost2010Prop51ColorIndex
 90
      256
102
RTVSPost2010Prop51ColorRGB
 90
-16777216
102
RTVSPost2010PropOp51
 70
     0
102
RTVSPost2010Prop52
140
1.0
102
RTVSPost2010PropOp52
 70
     0
102
RTVSPost2010Prop53
 90
        2
102
RTVSPost2010PropOp53
 70
     1
102
RTVSPost2010Prop54
  1
strokes_ogs.tif
102
RTVSPost2010PropOp54
 70
     1
102
RTVSPost2010Prop55
280
     0
102
RTVSPost2010PropOp55
 70
     1
102
RTVSPost2010Prop56
140
1.0
102
RTVSPost2010PropOp56
 70
     1
102
RTVSPost2010Prop57
140
1.0
102
RTVSPost2010PropOp57
 70
     1
102
RTVSPropertyOp0
 70
     1
102
RTVSPropertyOp1
 70
     1
102
RTVSPropertyOp2
 70
     1
102
RTVSPropertyOp3
 70
     1
102
RTVSPropertyOp4
 70
     1
102
RTVSPropertyOp5
 70
     1
102
RTVSPropertyOp6
 70
     1
102
RTVSPropertyOp7
 70
     1
102
RTVSPropertyOp8
 70
     1
102
RTVSPropertyOp9
 70
     1
102
RTVSPropertyOp10
 70
     1
102
RTVSPropertyOp11
 70
     1
102
RTVSPropertyOp12
 70
     1
102
RTVSPropertyOp13
 70
     1
102
RTVSPropertyOp14
 70
     1
102
RTVSPropertyOp15
 70
     1
102
RTVSPropertyOp16
 70
     1
102
RTVSPropertyOp17
 70
     1
102
RTVSPropertyOp18
 70
     1
102
RTVSPropertyOp19
 70
     1
102
RTVSPropertyOp20
 70
     1
102
RTVSPropertyOp21
 70
     1
102
RTVSPropertyOp22
 70
     1
102
RTVSPropertyOp23
 70
     1
102
RTVSPropertyOp24
 70
     1
102
RTVSPropertyOp25
 70
     1
102
RTVSPropertyOp26
 70
     1
102
RTVSPropertyOp27
 70
     1
102
RTVSPropertyOp28
 70
     1
102
RTVSPropertyOp29
 70
     1
102
RTVSPropertyOp30
 70
     1
102
RTVSPropertyOp31
 70
     1
102
RTVSPropertyOp32
 70
     1
102
RTVSPropertyOp33
 70
     1
102
RTVSPropertyOp34
 70
     1
102
RTVSPropertyOp35
 70
     1
102
RTVSPropertyOp36
 70
     1
102
RTVSPropertyOp37
 70
     1
102
RTVSPropertyOp38
 70
     1
102
RTVSPropertyOp39
 70
     1
102
RTVSPropertyOp40
 70
     1
102
RTVSPropertyOp41
 70
     1
102
RTVSPropertyOp42
 70
     1
102
RTVSPropertyOp43
 70
     1
102
RTVSPropertyOp44
 70
     1
102
RTVSPropertyOp45
 70
     1
102
RTVSPropertyOp46
 70
     1
102
RTVSPropertyOp47
 70
     1
102
RTVSPropertyOp48
 70
     1
102
RTVSPropertyOp49
 70
     1
102
RTVSPropertyOp50
 70
     1
102
RTVSPropertyOp51
 70
     0
102
RTVSPropertyOp52
 70
     0
102
RTVSPropertyOp53
 70
     1
102
RTVSPropertyOp54
 70
     1
102
RTVSPropertyOp55
 70
     1
102
RTVSPropertyOp56
 70
     1
102
RTVSPropertyOp57
 70
     1
102
RTVSPropertyOp58
 70
     1
102
RTVSPropertyOp59
 70
     1
102
RTVSPropertyOp60
 70
     1
102
RTVSPropertyOp61
 70
     1
102
RTVSPropertyOp62
 70
     1
  0
XRECORD
  5
396
102
{ACAD_REACTORS
330
395
102
}
330
395
100
AcDbXrecord
280
     1
102
RTVSPost2010Prop28
280
     0
102
RTVSPost2010PropOp28
 70
     1
102
RTVSPost2010Prop29
280
     1
102
RTVSPost2010PropOp29
 70
     1
102
RTVSPost2010Prop30
280
     1
102
RTVSPost2010PropOp30
 70
     1
102
RTVSPost2010Prop31
280
     0
102
RTVSPost2010PropOp31
 70
     1
102
RTVSPost2010Prop32
280
     0
102
RTVSPost2010PropOp32
 70
     1
102
RTVSPost2010Prop33
280
     0
102
RTVSPost2010PropOp33
 70
     1
102
RTVSPost2010Prop34
280
     0
102
RTVSPost2010PropOp34
 70
     1
102
RTVSPost2010Prop35
280
     0
102
RTVSPost2010PropOp35
 70
     1
102
RTVSPost2010Prop36
280
     0
102
RTVSPost2010PropOp36
 70
     1
102
RTVSPost2010Prop37
 90
       50
102
RTVSPost2010PropOp37
 70
     1
102
RTVSPost2010Prop38
140
0.0
102
RTVSPost2010PropOp38
 70
     1
102
RTVSPost2010Prop39
140
1.0
102
RTVSPost2010PropOp39
 70
     1
102
RTVSPost2010Prop40
 90
        0
102
RTVSPost2010PropOp40
 70
     1
102
RTVSPost2010Prop41ColorIndex
 90
       18
102
RTVSPost2010Prop41ColorRGB
 90
        0
102
RTVSPost2010PropOp41
 70
     1
102
RTVSPost2010Prop42
 90
       50
102
RTVSPost2010PropOp42
 70
     1
102
RTVSPost2010Prop43
 90
        3
102
RTVSPost2010PropOp43
 70
     1
102
RTVSPost2010Prop44ColorIndex
 90
        5
102
RTVSPost2010Prop44ColorRGB
 90
      255
102
RTVSPost2010PropOp44
 70
     1
102
RTVSPost2010Prop45
280
     0
102
RTVSPost2010PropOp45
 70
     1
102
RTVSPost2010Prop46
 90
       50
102
RTVSPost2010PropOp46
 70
     1
102
RTVSPost2010Prop47
 90
       50
102
RTVSPost2010PropOp47
 70
     1
102
RTVSPost2010Prop48
 90
       50
102
RTVSPost2010PropOp48
 70
     1
102
RTVSPost2010Prop49
280
     0
102
RTVSPost2010PropOp49
 70
     1
102
RTVSPost2010Prop50
 90
       50
102
RTVSPost2010PropOp50
 70
     1
102
RTVSPost2010Prop51ColorIndex
 90
      256
102
RTVSPost2010Prop51ColorRGB
 90
-16777216
102
RTVSPost2010PropOp51
 70
     0
102
RTVSPost2010Prop52
140
1.0
102
RTVSPost2010PropOp52
 70
     0
102
RTVSPost2010Prop53
 90
        2
102
RTVSPost2010PropOp53
 70
     1
102
RTVSPost2010Prop54
  1
strokes_ogs.tif
102
RTVSPost2010PropOp54
 70
     1
102
RTVSPost2010Prop55
280
     0
102
RTVSPost2010PropOp55
 70
     1
102
RTVSPost2010Prop56
140
1.0
102
RTVSPost2010PropOp56
 70
     1
102
RTVSPost2010Prop57
140
1.0
102
RTVSPost2010PropOp57
 70
     1
102
RTVSPropertyOp0
 70
     1
102
RTVSPropertyOp1
 70
     1
102
RTVSPropertyOp2
 70
     1
102
RTVSPropertyOp3
 70
     1
102
RTVSPropertyOp4
 70
     1
102
RTVSPropertyOp5
 70
     1
102
RTVSPropertyOp6
 70
     1
102
RTVSPropertyOp7
 70
     1
102
RTVSPropertyOp8
 70
     1
102
RTVSPropertyOp9
 70
     1
102
RTVSPropertyOp10
 70
     1
102
RTVSPropertyOp11
 70
     1
102
RTVSPropertyOp12
 70
     1
102
RTVSPropertyOp13
 70
     1
102
RTVSPropertyOp14
 70
     1
102
RTVSPropertyOp15
 70
     1
102
RTVSPropertyOp16
 70
     1
102
RTVSPropertyOp17
 70
     1
102
RTVSPropertyOp18
 70
     1
102
RTVSPropertyOp19
 70
     1
102
RTVSPropertyOp20
 70
     1
102
RTVSPropertyOp21
 70
     1
102
RTVSPropertyOp22
 70
     1
102
RTVSPropertyOp23
 70
     1
102
RTVSPropertyOp24
 70
     1
102
RTVSPropertyOp25
 70
     1
102
RTVSPropertyOp26
 70
     1
102
RTVSPropertyOp27
 70
     1
102
RTVSPropertyOp28
 70
     1
102
RTVSPropertyOp29
 70
     1
102
RTVSPropertyOp30
 70
     1
102
RTVSPropertyOp31
 70
     1
102
RTVSPropertyOp32
 70
     1
102
RTVSPropertyOp33
 70
     1
102
RTVSPropertyOp34
 70
     1
102
RTVSPropertyOp35
 70
     1
102
RTVSPropertyOp36
 70
     1
102
RTVSPropertyOp37
 70
     1
102
RTVSPropertyOp38
 70
     1
102
RTVSPropertyOp39
 70
     1
102
RTVSPropertyOp40
 70
     1
102
RTVSPropertyOp41
 70
     1
102
RTVSPropertyOp42
 70
     1
102
RTVSPropertyOp43
 70
     1
102
RTVSPropertyOp44
 70
     1
102
RTVSPropertyOp45
 70
     1
102
RTVSPropertyOp46
 70
     1
102
RTVSPropertyOp47
 70
     1
102
RTVSPropertyOp48
 70
     1
102
RTVSPropertyOp49
 70
     1
102
RTVSPropertyOp50
 70
     1
102
RTVSPropertyOp51
 70
     0
102
RTVSPropertyOp52
 70
     0
102
RTVSPropertyOp53
 70
     1
102
RTVSPropertyOp54
 70
     1
102
RTVSPropertyOp55
 70
     1
102
RTVSPropertyOp56
 70
     1
102
RTVSPropertyOp57
 70
     1
102
RTVSPropertyOp58
 70
     1
102
RTVSPropertyOp59
 70
     1
102
RTVSPropertyOp60
 70
     1
102
RTVSPropertyOp61
 70
     1
102
RTVSPropertyOp62
 70
     1
  0
XRECORD
  5
394
102
{ACAD_REACTORS
330
393
102
}
330
393
100
AcDbXrecord
280
     1
102
RTVSPost2010Prop28
280
     0
102
RTVSPost2010PropOp28
 70
     1
102
RTVSPost2010Prop29
280
     1
102
RTVSPost2010PropOp29
 70
     1
102
RTVSPost2010Prop30
280
     1
102
RTVSPost2010PropOp30
 70
     1
102
RTVSPost2010Prop31
280
     0
102
RTVSPost2010PropOp31
 70
     1
102
RTVSPost2010Prop32
280
     0
102
RTVSPost2010PropOp32
 70
     1
102
RTVSPost2010Prop33
280
     0
102
RTVSPost2010PropOp33
 70
     1
102
RTVSPost2010Prop34
280
     0
102
RTVSPost2010PropOp34
 70
     1
102
RTVSPost2010Prop35
280
     0
102
RTVSPost2010PropOp35
 70
     1
102
RTVSPost2010Prop36
280
     0
102
RTVSPost2010PropOp36
 70
     1
102
RTVSPost2010Prop37
 90
       50
102
RTVSPost2010PropOp37
 70
     1
102
RTVSPost2010Prop38
140
0.0
102
RTVSPost2010PropOp38
 70
     1
102
RTVSPost2010Prop39
140
1.0
102
RTVSPost2010PropOp39
 70
     1
102
RTVSPost2010Prop40
 90
        0
102
RTVSPost2010PropOp40
 70
     1
102
RTVSPost2010Prop41ColorIndex
 90
       18
102
RTVSPost2010Prop41ColorRGB
 90
        0
102
RTVSPost2010PropOp41
 70
     1
102
RTVSPost2010Prop42
 90
       50
102
RTVSPost2010PropOp42
 70
     1
102
RTVSPost2010Prop43
 90
        3
102
RTVSPost2010PropOp43
 70
     1
102
RTVSPost2010Prop44ColorIndex
 90
        5
102
RTVSPost2010Prop44ColorRGB
 90
      255
102
RTVSPost2010PropOp44
 70
     1
102
RTVSPost2010Prop45
280
     0
102
RTVSPost2010PropOp45
 70
     1
102
RTVSPost2010Prop46
 90
       50
102
RTVSPost2010PropOp46
 70
     1
102
RTVSPost2010Prop47
 90
       50
102
RTVSPost2010PropOp47
 70
     1
102
RTVSPost2010Prop48
 90
       50
102
RTVSPost2010PropOp48
 70
     1
102
RTVSPost2010Prop49
280
     0
102
RTVSPost2010PropOp49
 70
     1
102
RTVSPost2010Prop50
 90
       50
102
RTVSPost2010PropOp50
 70
     1
102
RTVSPost2010Prop51ColorIndex
 90
      256
102
RTVSPost2010Prop51ColorRGB
 90
-16777216
102
RTVSPost2010PropOp51
 70
     0
102
RTVSPost2010Prop52
140
1.0
102
RTVSPost2010PropOp52
 70
     0
102
RTVSPost2010Prop53
 90
        2
102
RTVSPost2010PropOp53
 70
     1
102
RTVSPost2010Prop54
  1
strokes_ogs.tif
102
RTVSPost2010PropOp54
 70
     1
102
RTVSPost2010Prop55
280
     0
102
RTVSPost2010PropOp55
 70
     1
102
RTVSPost2010Prop56
140
1.0
102
RTVSPost2010PropOp56
 70
     1
102
RTVSPost2010Prop57
140
1.0
102
RTVSPost2010PropOp57
 70
     1
102
RTVSPropertyOp0
 70
     1
102
RTVSPropertyOp1
 70
     1
102
RTVSPropertyOp2
 70
     1
102
RTVSPropertyOp3
 70
     1
102
RTVSPropertyOp4
 70
     1
102
RTVSPropertyOp5
 70
     1
102
RTVSPropertyOp6
 70
     1
102
RTVSPropertyOp7
 70
     1
102
RTVSPropertyOp8
 70
     1
102
RTVSPropertyOp9
 70
     1
102
RTVSPropertyOp10
 70
     1
102
RTVSPropertyOp11
 70
     1
102
RTVSPropertyOp12
 70
     1
102
RTVSPropertyOp13
 70
     1
102
RTVSPropertyOp14
 70
     1
102
RTVSPropertyOp15
 70
     1
102
RTVSPropertyOp16
 70
     1
102
RTVSPropertyOp17
 70
     1
102
RTVSPropertyOp18
 70
     1
102
RTVSPropertyOp19
 70
     1
102
RTVSPropertyOp20
 70
     1
102
RTVSPropertyOp21
 70
     1
102
RTVSPropertyOp22
 70
     1
102
RTVSPropertyOp23
 70
     1
102
RTVSPropertyOp24
 70
     1
102
RTVSPropertyOp25
 70
     1
102
RTVSPropertyOp26
 70
     1
102
RTVSPropertyOp27
 70
     1
102
RTVSPropertyOp28
 70
     1
102
RTVSPropertyOp29
 70
     1
102
RTVSPropertyOp30
 70
     1
102
RTVSPropertyOp31
 70
     1
102
RTVSPropertyOp32
 70
     1
102
RTVSPropertyOp33
 70
     1
102
RTVSPropertyOp34
 70
     1
102
RTVSPropertyOp35
 70
     1
102
RTVSPropertyOp36
 70
     1
102
RTVSPropertyOp37
 70
     1
102
RTVSPropertyOp38
 70
     1
102
RTVSPropertyOp39
 70
     1
102
RTVSPropertyOp40
 70
     1
102
RTVSPropertyOp41
 70
     1
102
RTVSPropertyOp42
 70
     1
102
RTVSPropertyOp43
 70
     1
102
RTVSPropertyOp44
 70
     1
102
RTVSPropertyOp45
 70
     1
102
RTVSPropertyOp46
 70
     1
102
RTVSPropertyOp47
 70
     1
102
RTVSPropertyOp48
 70
     1
102
RTVSPropertyOp49
 70
     1
102
RTVSPropertyOp50
 70
     1
102
RTVSPropertyOp51
 70
     0
102
RTVSPropertyOp52
 70
     0
102
RTVSPropertyOp53
 70
     1
102
RTVSPropertyOp54
 70
     1
102
RTVSPropertyOp55
 70
     1
102
RTVSPropertyOp56
 70
     1
102
RTVSPropertyOp57
 70
     1
102
RTVSPropertyOp58
 70
     1
102
RTVSPropertyOp59
 70
     1
102
RTVSPropertyOp60
 70
     1
102
RTVSPropertyOp61
 70
     1
102
RTVSPropertyOp62
 70
     1
  0
XRECORD
  5
38E
102
{ACAD_REACTORS
330
38D
102
}
330
38D
100
AcDbXrecord
280
     1
102
RTVSPost2010Prop28
280
     0
102
RTVSPost2010PropOp28
 70
     1
102
RTVSPost2010Prop29
280
     1
102
RTVSPost2010PropOp29
 70
     1
102
RTVSPost2010Prop30
280
     1
102
RTVSPost2010PropOp30
 70
     1
102
RTVSPost2010Prop31
280
     0
102
RTVSPost2010PropOp31
 70
     1
102
RTVSPost2010Prop32
280
     0
102
RTVSPost2010PropOp32
 70
     1
102
RTVSPost2010Prop33
280
     0
102
RTVSPost2010PropOp33
 70
     1
102
RTVSPost2010Prop34
280
     0
102
RTVSPost2010PropOp34
 70
     1
102
RTVSPost2010Prop35
280
     0
102
RTVSPost2010PropOp35
 70
     1
102
RTVSPost2010Prop36
280
     0
102
RTVSPost2010PropOp36
 70
     1
102
RTVSPost2010Prop37
 90
       50
102
RTVSPost2010PropOp37
 70
     1
102
RTVSPost2010Prop38
140
0.0
102
RTVSPost2010PropOp38
 70
     1
102
RTVSPost2010Prop39
140
1.0
102
RTVSPost2010PropOp39
 70
     1
102
RTVSPost2010Prop40
 90
        0
102
RTVSPost2010PropOp40
 70
     1
102
RTVSPost2010Prop41ColorIndex
 90
       18
102
RTVSPost2010Prop41ColorRGB
 90
        0
102
RTVSPost2010PropOp41
 70
     1
102
RTVSPost2010Prop42
 90
       50
102
RTVSPost2010PropOp42
 70
     1
102
RTVSPost2010Prop43
 90
        3
102
RTVSPost2010PropOp43
 70
     1
102
RTVSPost2010Prop44ColorIndex
 90
        5
102
RTVSPost2010Prop44ColorRGB
 90
      255
102
RTVSPost2010PropOp44
 70
     1
102
RTVSPost2010Prop45
280
     0
102
RTVSPost2010PropOp45
 70
     1
102
RTVSPost2010Prop46
 90
       50
102
RTVSPost2010PropOp46
 70
     1
102
RTVSPost2010Prop47
 90
       50
102
RTVSPost2010PropOp47
 70
     1
102
RTVSPost2010Prop48
 90
       50
102
RTVSPost2010PropOp48
 70
     1
102
RTVSPost2010Prop49
280
     0
102
RTVSPost2010PropOp49
 70
     1
102
RTVSPost2010Prop50
 90
       50
102
RTVSPost2010PropOp50
 70
     1
102
RTVSPost2010Prop51ColorIndex
 90
      256
102
RTVSPost2010Prop51ColorRGB
 90
-16777216
102
RTVSPost2010PropOp51
 70
     0
102
RTVSPost2010Prop52
140
1.0
102
RTVSPost2010PropOp52
 70
     0
102
RTVSPost2010Prop53
 90
        2
102
RTVSPost2010PropOp53
 70
     1
102
RTVSPost2010Prop54
  1
strokes_ogs.tif
102
RTVSPost2010PropOp54
 70
     1
102
RTVSPost2010Prop55
280
     0
102
RTVSPost2010PropOp55
 70
     1
102
RTVSPost2010Prop56
140
1.0
102
RTVSPost2010PropOp56
 70
     1
102
RTVSPost2010Prop57
140
1.0
102
RTVSPost2010PropOp57
 70
     1
102
RTVSPropertyOp0
 70
     1
102
RTVSPropertyOp1
 70
     1
102
RTVSPropertyOp2
 70
     1
102
RTVSPropertyOp3
 70
     1
102
RTVSPropertyOp4
 70
     1
102
RTVSPropertyOp5
 70
     1
102
RTVSPropertyOp6
 70
     1
102
RTVSPropertyOp7
 70
     1
102
RTVSPropertyOp8
 70
     1
102
RTVSPropertyOp9
 70
     1
102
RTVSPropertyOp10
 70
     1
102
RTVSPropertyOp11
 70
     1
102
RTVSPropertyOp12
 70
     1
102
RTVSPropertyOp13
 70
     1
102
RTVSPropertyOp14
 70
     1
102
RTVSPropertyOp15
 70
     1
102
RTVSPropertyOp16
 70
     1
102
RTVSPropertyOp17
 70
     1
102
RTVSPropertyOp18
 70
     1
102
RTVSPropertyOp19
 70
     1
102
RTVSPropertyOp20
 70
     1
102
RTVSPropertyOp21
 70
     1
102
RTVSPropertyOp22
 70
     1
102
RTVSPropertyOp23
 70
     1
102
RTVSPropertyOp24
 70
     1
102
RTVSPropertyOp25
 70
     1
102
RTVSPropertyOp26
 70
     1
102
RTVSPropertyOp27
 70
     1
102
RTVSPropertyOp28
 70
     1
102
RTVSPropertyOp29
 70
     1
102
RTVSPropertyOp30
 70
     1
102
RTVSPropertyOp31
 70
     1
102
RTVSPropertyOp32
 70
     1
102
RTVSPropertyOp33
 70
     1
102
RTVSPropertyOp34
 70
     1
102
RTVSPropertyOp35
 70
     1
102
RTVSPropertyOp36
 70
     1
102
RTVSPropertyOp37
 70
     1
102
RTVSPropertyOp38
 70
     1
102
RTVSPropertyOp39
 70
     1
102
RTVSPropertyOp40
 70
     1
102
RTVSPropertyOp41
 70
     1
102
RTVSPropertyOp42
 70
     1
102
RTVSPropertyOp43
 70
     1
102
RTVSPropertyOp44
 70
     1
102
RTVSPropertyOp45
 70
     1
102
RTVSPropertyOp46
 70
     1
102
RTVSPropertyOp47
 70
     1
102
RTVSPropertyOp48
 70
     1
102
RTVSPropertyOp49
 70
     1
102
RTVSPropertyOp50
 70
     1
102
RTVSPropertyOp51
 70
     0
102
RTVSPropertyOp52
 70
     0
102
RTVSPropertyOp53
 70
     1
102
RTVSPropertyOp54
 70
     1
102
RTVSPropertyOp55
 70
     1
102
RTVSPropertyOp56
 70
     1
102
RTVSPropertyOp57
 70
     1
102
RTVSPropertyOp58
 70
     1
102
RTVSPropertyOp59
 70
     1
102
RTVSPropertyOp60
 70
     1
102
RTVSPropertyOp61
 70
     1
102
RTVSPropertyOp62
 70
     1
  0
XRECORD
  5
390
102
{ACAD_REACTORS
330
38F
102
}
330
38F
100
AcDbXrecord
280
     1
102
RTVSPost2010Prop28
280
     0
102
RTVSPost2010PropOp28
 70
     1
102
RTVSPost2010Prop29
280
     1
102
RTVSPost2010PropOp29
 70
     1
102
RTVSPost2010Prop30
280
     1
102
RTVSPost2010PropOp30
 70
     1
102
RTVSPost2010Prop31
280
     0
102
RTVSPost2010PropOp31
 70
     1
102
RTVSPost2010Prop32
280
     0
102
RTVSPost2010PropOp32
 70
     1
102
RTVSPost2010Prop33
280
     0
102
RTVSPost2010PropOp33
 70
     1
102
RTVSPost2010Prop34
280
     0
102
RTVSPost2010PropOp34
 70
     1
102
RTVSPost2010Prop35
280
     0
102
RTVSPost2010PropOp35
 70
     1
102
RTVSPost2010Prop36
280
     0
102
RTVSPost2010PropOp36
 70
     1
102
RTVSPost2010Prop37
 90
       50
102
RTVSPost2010PropOp37
 70
     1
102
RTVSPost2010Prop38
140
0.0
102
RTVSPost2010PropOp38
 70
     1
102
RTVSPost2010Prop39
140
1.0
102
RTVSPost2010PropOp39
 70
     1
102
RTVSPost2010Prop40
 90
        0
102
RTVSPost2010PropOp40
 70
     1
102
RTVSPost2010Prop41ColorIndex
 90
       18
102
RTVSPost2010Prop41ColorRGB
 90
        0
102
RTVSPost2010PropOp41
 70
     1
102
RTVSPost2010Prop42
 90
       50
102
RTVSPost2010PropOp42
 70
     1
102
RTVSPost2010Prop43
 90
        3
102
RTVSPost2010PropOp43
 70
     1
102
RTVSPost2010Prop44ColorIndex
 90
        5
102
RTVSPost2010Prop44ColorRGB
 90
      255
102
RTVSPost2010PropOp44
 70
     1
102
RTVSPost2010Prop45
280
     0
102
RTVSPost2010PropOp45
 70
     1
102
RTVSPost2010Prop46
 90
       50
102
RTVSPost2010PropOp46
 70
     1
102
RTVSPost2010Prop47
 90
       50
102
RTVSPost2010PropOp47
 70
     1
102
RTVSPost2010Prop48
 90
       50
102
RTVSPost2010PropOp48
 70
     1
102
RTVSPost2010Prop49
280
     0
102
RTVSPost2010PropOp49
 70
     1
102
RTVSPost2010Prop50
 90
       50
102
RTVSPost2010PropOp50
 70
     1
102
RTVSPost2010Prop51ColorIndex
 90
      256
102
RTVSPost2010Prop51ColorRGB
 90
-16777216
102
RTVSPost2010PropOp51
 70
     0
102
RTVSPost2010Prop52
140
1.0
102
RTVSPost2010PropOp52
 70
     0
102
RTVSPost2010Prop53
 90
        2
102
RTVSPost2010PropOp53
 70
     1
102
RTVSPost2010Prop54
  1
strokes_ogs.tif
102
RTVSPost2010PropOp54
 70
     1
102
RTVSPost2010Prop55
280
     0
102
RTVSPost2010PropOp55
 70
     1
102
RTVSPost2010Prop56
140
1.0
102
RTVSPost2010PropOp56
 70
     1
102
RTVSPost2010Prop57
140
1.0
102
RTVSPost2010PropOp57
 70
     1
102
RTVSPropertyOp0
 70
     1
102
RTVSPropertyOp1
 70
     1
102
RTVSPropertyOp2
 70
     1
102
RTVSPropertyOp3
 70
     1
102
RTVSPropertyOp4
 70
     1
102
RTVSPropertyOp5
 70
     1
102
RTVSPropertyOp6
 70
     1
102
RTVSPropertyOp7
 70
     1
102
RTVSPropertyOp8
 70
     1
102
RTVSPropertyOp9
 70
     1
102
RTVSPropertyOp10
 70
     1
102
RTVSPropertyOp11
 70
     1
102
RTVSPropertyOp12
 70
     1
102
RTVSPropertyOp13
 70
     1
102
RTVSPropertyOp14
 70
     1
102
RTVSPropertyOp15
 70
     1
102
RTVSPropertyOp16
 70
     1
102
RTVSPropertyOp17
 70
     1
102
RTVSPropertyOp18
 70
     1
102
RTVSPropertyOp19
 70
     1
102
RTVSPropertyOp20
 70
     1
102
RTVSPropertyOp21
 70
     1
102
RTVSPropertyOp22
 70
     1
102
RTVSPropertyOp23
 70
     1
102
RTVSPropertyOp24
 70
     1
102
RTVSPropertyOp25
 70
     1
102
RTVSPropertyOp26
 70
     1
102
RTVSPropertyOp27
 70
     1
102
RTVSPropertyOp28
 70
     1
102
RTVSPropertyOp29
 70
     1
102
RTVSPropertyOp30
 70
     1
102
RTVSPropertyOp31
 70
     1
102
RTVSPropertyOp32
 70
     1
102
RTVSPropertyOp33
 70
     1
102
RTVSPropertyOp34
 70
     1
102
RTVSPropertyOp35
 70
     1
102
RTVSPropertyOp36
 70
     1
102
RTVSPropertyOp37
 70
     1
102
RTVSPropertyOp38
 70
     1
102
RTVSPropertyOp39
 70
     1
102
RTVSPropertyOp40
 70
     1
102
RTVSPropertyOp41
 70
     1
102
RTVSPropertyOp42
 70
     1
102
RTVSPropertyOp43
 70
     1
102
RTVSPropertyOp44
 70
     1
102
RTVSPropertyOp45
 70
     1
102
RTVSPropertyOp46
 70
     1
102
RTVSPropertyOp47
 70
     1
102
RTVSPropertyOp48
 70
     1
102
RTVSPropertyOp49
 70
     1
102
RTVSPropertyOp50
 70
     1
102
RTVSPropertyOp51
 70
     0
102
RTVSPropertyOp52
 70
     0
102
RTVSPropertyOp53
 70
     1
102
RTVSPropertyOp54
 70
     1
102
RTVSPropertyOp55
 70
     1
102
RTVSPropertyOp56
 70
     1
102
RTVSPropertyOp57
 70
     1
102
RTVSPropertyOp58
 70
     1
102
RTVSPropertyOp59
 70
     1
102
RTVSPropertyOp60
 70
     1
102
RTVSPropertyOp61
 70
     1
102
RTVSPropertyOp62
 70
     1
  0
XRECORD
  5
380
102
{ACAD_REACTORS
330
37F
102
}
330
37F
100
AcDbXrecord
280
     1
102
RTVSPost2010Prop28
280
     0
102
RTVSPost2010PropOp28
 70
     1
102
RTVSPost2010Prop29
280
     1
102
RTVSPost2010PropOp29
 70
     1
102
RTVSPost2010Prop30
280
     1
102
RTVSPost2010PropOp30
 70
     1
102
RTVSPost2010Prop31
280
     0
102
RTVSPost2010PropOp31
 70
     1
102
RTVSPost2010Prop32
280
     0
102
RTVSPost2010PropOp32
 70
     1
102
RTVSPost2010Prop33
280
     0
102
RTVSPost2010PropOp33
 70
     1
102
RTVSPost2010Prop34
280
     0
102
RTVSPost2010PropOp34
 70
     1
102
RTVSPost2010Prop35
280
     0
102
RTVSPost2010PropOp35
 70
     1
102
RTVSPost2010Prop36
280
     0
102
RTVSPost2010PropOp36
 70
     1
102
RTVSPost2010Prop37
 90
       50
102
RTVSPost2010PropOp37
 70
     1
102
RTVSPost2010Prop38
140
0.0
102
RTVSPost2010PropOp38
 70
     1
102
RTVSPost2010Prop39
140
1.0
102
RTVSPost2010PropOp39
 70
     1
102
RTVSPost2010Prop40
 90
        0
102
RTVSPost2010PropOp40
 70
     1
102
RTVSPost2010Prop41ColorIndex
 90
       18
102
RTVSPost2010Prop41ColorRGB
 90
        0
102
RTVSPost2010PropOp41
 70
     1
102
RTVSPost2010Prop42
 90
       50
102
RTVSPost2010PropOp42
 70
     1
102
RTVSPost2010Prop43
 90
        3
102
RTVSPost2010PropOp43
 70
     1
102
RTVSPost2010Prop44ColorIndex
 90
        5
102
RTVSPost2010Prop44ColorRGB
 90
      255
102
RTVSPost2010PropOp44
 70
     1
102
RTVSPost2010Prop45
280
     0
102
RTVSPost2010PropOp45
 70
     1
102
RTVSPost2010Prop46
 90
       50
102
RTVSPost2010PropOp46
 70
     1
102
RTVSPost2010Prop47
 90
       50
102
RTVSPost2010PropOp47
 70
     1
102
RTVSPost2010Prop48
 90
       50
102
RTVSPost2010PropOp48
 70
     1
102
RTVSPost2010Prop49
280
     0
102
RTVSPost2010PropOp49
 70
     1
102
RTVSPost2010Prop50
 90
       50
102
RTVSPost2010PropOp50
 70
     1
102
RTVSPost2010Prop51ColorIndex
 90
      256
102
RTVSPost2010Prop51ColorRGB
 90
-16777216
102
RTVSPost2010PropOp51
 70
     0
102
RTVSPost2010Prop52
140
1.0
102
RTVSPost2010PropOp52
 70
     0
102
RTVSPost2010Prop53
 90
        2
102
RTVSPost2010PropOp53
 70
     1
102
RTVSPost2010Prop54
  1
strokes_ogs.tif
102
RTVSPost2010PropOp54
 70
     1
102
RTVSPost2010Prop55
280
     0
102
RTVSPost2010PropOp55
 70
     1
102
RTVSPost2010Prop56
140
1.0
102
RTVSPost2010PropOp56
 70
     1
102
RTVSPost2010Prop57
140
1.0
102
RTVSPost2010PropOp57
 70
     1
102
RTVSPropertyOp0
 70
     1
102
RTVSPropertyOp1
 70
     1
102
RTVSPropertyOp2
 70
     1
102
RTVSPropertyOp3
 70
     1
102
RTVSPropertyOp4
 70
     1
102
RTVSPropertyOp5
 70
     1
102
RTVSPropertyOp6
 70
     1
102
RTVSPropertyOp7
 70
     1
102
RTVSPropertyOp8
 70
     1
102
RTVSPropertyOp9
 70
     1
102
RTVSPropertyOp10
 70
     1
102
RTVSPropertyOp11
 70
     1
102
RTVSPropertyOp12
 70
     1
102
RTVSPropertyOp13
 70
     1
102
RTVSPropertyOp14
 70
     1
102
RTVSPropertyOp15
 70
     1
102
RTVSPropertyOp16
 70
     1
102
RTVSPropertyOp17
 70
     1
102
RTVSPropertyOp18
 70
     1
102
RTVSPropertyOp19
 70
     1
102
RTVSPropertyOp20
 70
     1
102
RTVSPropertyOp21
 70
     1
102
RTVSPropertyOp22
 70
     1
102
RTVSPropertyOp23
 70
     1
102
RTVSPropertyOp24
 70
     1
102
RTVSPropertyOp25
 70
     1
102
RTVSPropertyOp26
 70
     1
102
RTVSPropertyOp27
 70
     1
102
RTVSPropertyOp28
 70
     1
102
RTVSPropertyOp29
 70
     1
102
RTVSPropertyOp30
 70
     1
102
RTVSPropertyOp31
 70
     1
102
RTVSPropertyOp32
 70
     1
102
RTVSPropertyOp33
 70
     1
102
RTVSPropertyOp34
 70
     1
102
RTVSPropertyOp35
 70
     1
102
RTVSPropertyOp36
 70
     1
102
RTVSPropertyOp37
 70
     1
102
RTVSPropertyOp38
 70
     1
102
RTVSPropertyOp39
 70
     1
102
RTVSPropertyOp40
 70
     1
102
RTVSPropertyOp41
 70
     1
102
RTVSPropertyOp42
 70
     1
102
RTVSPropertyOp43
 70
     1
102
RTVSPropertyOp44
 70
     1
102
RTVSPropertyOp45
 70
     1
102
RTVSPropertyOp46
 70
     1
102
RTVSPropertyOp47
 70
     1
102
RTVSPropertyOp48
 70
     1
102
RTVSPropertyOp49
 70
     1
102
RTVSPropertyOp50
 70
     1
102
RTVSPropertyOp51
 70
     0
102
RTVSPropertyOp52
 70
     0
102
RTVSPropertyOp53
 70
     1
102
RTVSPropertyOp54
 70
     1
102
RTVSPropertyOp55
 70
     1
102
RTVSPropertyOp56
 70
     1
102
RTVSPropertyOp57
 70
     1
102
RTVSPropertyOp58
 70
     1
102
RTVSPropertyOp59
 70
     1
102
RTVSPropertyOp60
 70
     1
102
RTVSPropertyOp61
 70
     1
102
RTVSPropertyOp62
 70
     1
  0
XRECORD
  5
372
102
{ACAD_REACTORS
330
371
102
}
330
371
100
AcDbXrecord
280
     1
102
RTVSPost2010Prop28
280
     0
102
RTVSPost2010PropOp28
 70
     1
102
RTVSPost2010Prop29
280
     1
102
RTVSPost2010PropOp29
 70
     1
102
RTVSPost2010Prop30
280
     1
102
RTVSPost2010PropOp30
 70
     1
102
RTVSPost2010Prop31
280
     0
102
RTVSPost2010PropOp31
 70
     1
102
RTVSPost2010Prop32
280
     0
102
RTVSPost2010PropOp32
 70
     1
102
RTVSPost2010Prop33
280
     0
102
RTVSPost2010PropOp33
 70
     1
102
RTVSPost2010Prop34
280
     0
102
RTVSPost2010PropOp34
 70
     1
102
RTVSPost2010Prop35
280
     0
102
RTVSPost2010PropOp35
 70
     1
102
RTVSPost2010Prop36
280
     0
102
RTVSPost2010PropOp36
 70
     1
102
RTVSPost2010Prop37
 90
       50
102
RTVSPost2010PropOp37
 70
     1
102
RTVSPost2010Prop38
140
0.0
102
RTVSPost2010PropOp38
 70
     1
102
RTVSPost2010Prop39
140
1.0
102
RTVSPost2010PropOp39
 70
     1
102
RTVSPost2010Prop40
 90
        0
102
RTVSPost2010PropOp40
 70
     1
102
RTVSPost2010Prop41ColorIndex
 90
       18
102
RTVSPost2010Prop41ColorRGB
 90
        0
102
RTVSPost2010PropOp41
 70
     1
102
RTVSPost2010Prop42
 90
       50
102
RTVSPost2010PropOp42
 70
     1
102
RTVSPost2010Prop43
 90
        3
102
RTVSPost2010PropOp43
 70
     1
102
RTVSPost2010Prop44ColorIndex
 90
        5
102
RTVSPost2010Prop44ColorRGB
 90
      255
102
RTVSPost2010PropOp44
 70
     1
102
RTVSPost2010Prop45
280
     0
102
RTVSPost2010PropOp45
 70
     1
102
RTVSPost2010Prop46
 90
       50
102
RTVSPost2010PropOp46
 70
     1
102
RTVSPost2010Prop47
 90
       50
102
RTVSPost2010PropOp47
 70
     1
102
RTVSPost2010Prop48
 90
       50
102
RTVSPost2010PropOp48
 70
     1
102
RTVSPost2010Prop49
280
     0
102
RTVSPost2010PropOp49
 70
     1
102
RTVSPost2010Prop50
 90
       50
102
RTVSPost2010PropOp50
 70
     1
102
RTVSPost2010Prop51ColorIndex
 90
      256
102
RTVSPost2010Prop51ColorRGB
 90
-16777216
102
RTVSPost2010PropOp51
 70
     0
102
RTVSPost2010Prop52
140
1.0
102
RTVSPost2010PropOp52
 70
     0
102
RTVSPost2010Prop53
 90
        2
102
RTVSPost2010PropOp53
 70
     1
102
RTVSPost2010Prop54
  1
strokes_ogs.tif
102
RTVSPost2010PropOp54
 70
     1
102
RTVSPost2010Prop55
280
     0
102
RTVSPost2010PropOp55
 70
     1
102
RTVSPost2010Prop56
140
1.0
102
RTVSPost2010PropOp56
 70
     1
102
RTVSPost2010Prop57
140
1.0
102
RTVSPost2010PropOp57
 70
     1
102
RTVSPropertyOp0
 70
     1
102
RTVSPropertyOp1
 70
     1
102
RTVSPropertyOp2
 70
     1
102
RTVSPropertyOp3
 70
     1
102
RTVSPropertyOp4
 70
     1
102
RTVSPropertyOp5
 70
     1
102
RTVSPropertyOp6
 70
     1
102
RTVSPropertyOp7
 70
     1
102
RTVSPropertyOp8
 70
     1
102
RTVSPropertyOp9
 70
     1
102
RTVSPropertyOp10
 70
     1
102
RTVSPropertyOp11
 70
     1
102
RTVSPropertyOp12
 70
     1
102
RTVSPropertyOp13
 70
     1
102
RTVSPropertyOp14
 70
     1
102
RTVSPropertyOp15
 70
     1
102
RTVSPropertyOp16
 70
     1
102
RTVSPropertyOp17
 70
     1
102
RTVSPropertyOp18
 70
     1
102
RTVSPropertyOp19
 70
     1
102
RTVSPropertyOp20
 70
     1
102
RTVSPropertyOp21
 70
     1
102
RTVSPropertyOp22
 70
     1
102
RTVSPropertyOp23
 70
     1
102
RTVSPropertyOp24
 70
     1
102
RTVSPropertyOp25
 70
     1
102
RTVSPropertyOp26
 70
     1
102
RTVSPropertyOp27
 70
     1
102
RTVSPropertyOp28
 70
     1
102
RTVSPropertyOp29
 70
     1
102
RTVSPropertyOp30
 70
     1
102
RTVSPropertyOp31
 70
     1
102
RTVSPropertyOp32
 70
     1
102
RTVSPropertyOp33
 70
     1
102
RTVSPropertyOp34
 70
     1
102
RTVSPropertyOp35
 70
     1
102
RTVSPropertyOp36
 70
     1
102
RTVSPropertyOp37
 70
     1
102
RTVSPropertyOp38
 70
     1
102
RTVSPropertyOp39
 70
     1
102
RTVSPropertyOp40
 70
     1
102
RTVSPropertyOp41
 70
     1
102
RTVSPropertyOp42
 70
     1
102
RTVSPropertyOp43
 70
     1
102
RTVSPropertyOp44
 70
     1
102
RTVSPropertyOp45
 70
     1
102
RTVSPropertyOp46
 70
     1
102
RTVSPropertyOp47
 70
     1
102
RTVSPropertyOp48
 70
     1
102
RTVSPropertyOp49
 70
     1
102
RTVSPropertyOp50
 70
     1
102
RTVSPropertyOp51
 70
     0
102
RTVSPropertyOp52
 70
     0
102
RTVSPropertyOp53
 70
     1
102
RTVSPropertyOp54
 70
     1
102
RTVSPropertyOp55
 70
     1
102
RTVSPropertyOp56
 70
     1
102
RTVSPropertyOp57
 70
     1
102
RTVSPropertyOp58
 70
     1
102
RTVSPropertyOp59
 70
     1
102
RTVSPropertyOp60
 70
     1
102
RTVSPropertyOp61
 70
     1
102
RTVSPropertyOp62
 70
     1
  0
XRECORD
  5
392
102
{ACAD_REACTORS
330
391
102
}
330
391
100
AcDbXrecord
280
     1
102
RTVSPost2010Prop28
280
     0
102
RTVSPost2010PropOp28
 70
     1
102
RTVSPost2010Prop29
280
     1
102
RTVSPost2010PropOp29
 70
     1
102
RTVSPost2010Prop30
280
     1
102
RTVSPost2010PropOp30
 70
     1
102
RTVSPost2010Prop31
280
     0
102
RTVSPost2010PropOp31
 70
     1
102
RTVSPost2010Prop32
280
     0
102
RTVSPost2010PropOp32
 70
     1
102
RTVSPost2010Prop33
280
     0
102
RTVSPost2010PropOp33
 70
     1
102
RTVSPost2010Prop34
280
     0
102
RTVSPost2010PropOp34
 70
     1
102
RTVSPost2010Prop35
280
     0
102
RTVSPost2010PropOp35
 70
     1
102
RTVSPost2010Prop36
280
     0
102
RTVSPost2010PropOp36
 70
     1
102
RTVSPost2010Prop37
 90
       50
102
RTVSPost2010PropOp37
 70
     1
102
RTVSPost2010Prop38
140
0.0
102
RTVSPost2010PropOp38
 70
     1
102
RTVSPost2010Prop39
140
1.0
102
RTVSPost2010PropOp39
 70
     1
102
RTVSPost2010Prop40
 90
        0
102
RTVSPost2010PropOp40
 70
     1
102
RTVSPost2010Prop41ColorIndex
 90
       18
102
RTVSPost2010Prop41ColorRGB
 90
        0
102
RTVSPost2010PropOp41
 70
     1
102
RTVSPost2010Prop42
 90
       50
102
RTVSPost2010PropOp42
 70
     1
102
RTVSPost2010Prop43
 90
        3
102
RTVSPost2010PropOp43
 70
     1
102
RTVSPost2010Prop44ColorIndex
 90
        5
102
RTVSPost2010Prop44ColorRGB
 90
      255
102
RTVSPost2010PropOp44
 70
     1
102
RTVSPost2010Prop45
280
     0
102
RTVSPost2010PropOp45
 70
     1
102
RTVSPost2010Prop46
 90
       50
102
RTVSPost2010PropOp46
 70
     1
102
RTVSPost2010Prop47
 90
       50
102
RTVSPost2010PropOp47
 70
     1
102
RTVSPost2010Prop48
 90
       50
102
RTVSPost2010PropOp48
 70
     1
102
RTVSPost2010Prop49
280
     0
102
RTVSPost2010PropOp49
 70
     1
102
RTVSPost2010Prop50
 90
       50
102
RTVSPost2010PropOp50
 70
     1
102
RTVSPost2010Prop51ColorIndex
 90
      256
102
RTVSPost2010Prop51ColorRGB
 90
-16777216
102
RTVSPost2010PropOp51
 70
     0
102
RTVSPost2010Prop52
140
1.0
102
RTVSPost2010PropOp52
 70
     0
102
RTVSPost2010Prop53
 90
        2
102
RTVSPost2010PropOp53
 70
     1
102
RTVSPost2010Prop54
  1
strokes_ogs.tif
102
RTVSPost2010PropOp54
 70
     1
102
RTVSPost2010Prop55
280
     0
102
RTVSPost2010PropOp55
 70
     1
102
RTVSPost2010Prop56
140
1.0
102
RTVSPost2010PropOp56
 70
     1
102
RTVSPost2010Prop57
140
1.0
102
RTVSPost2010PropOp57
 70
     1
102
RTVSPropertyOp0
 70
     1
102
RTVSPropertyOp1
 70
     1
102
RTVSPropertyOp2
 70
     1
102
RTVSPropertyOp3
 70
     1
102
RTVSPropertyOp4
 70
     1
102
RTVSPropertyOp5
 70
     1
102
RTVSPropertyOp6
 70
     1
102
RTVSPropertyOp7
 70
     1
102
RTVSPropertyOp8
 70
     1
102
RTVSPropertyOp9
 70
     1
102
RTVSPropertyOp10
 70
     1
102
RTVSPropertyOp11
 70
     1
102
RTVSPropertyOp12
 70
     1
102
RTVSPropertyOp13
 70
     1
102
RTVSPropertyOp14
 70
     1
102
RTVSPropertyOp15
 70
     1
102
RTVSPropertyOp16
 70
     1
102
RTVSPropertyOp17
 70
     1
102
RTVSPropertyOp18
 70
     1
102
RTVSPropertyOp19
 70
     1
102
RTVSPropertyOp20
 70
     1
102
RTVSPropertyOp21
 70
     1
102
RTVSPropertyOp22
 70
     1
102
RTVSPropertyOp23
 70
     1
102
RTVSPropertyOp24
 70
     1
102
RTVSPropertyOp25
 70
     1
102
RTVSPropertyOp26
 70
     1
102
RTVSPropertyOp27
 70
     1
102
RTVSPropertyOp28
 70
     1
102
RTVSPropertyOp29
 70
     1
102
RTVSPropertyOp30
 70
     1
102
RTVSPropertyOp31
 70
     1
102
RTVSPropertyOp32
 70
     1
102
RTVSPropertyOp33
 70
     1
102
RTVSPropertyOp34
 70
     1
102
RTVSPropertyOp35
 70
     1
102
RTVSPropertyOp36
 70
     1
102
RTVSPropertyOp37
 70
     1
102
RTVSPropertyOp38
 70
     1
102
RTVSPropertyOp39
 70
     1
102
RTVSPropertyOp40
 70
     1
102
RTVSPropertyOp41
 70
     1
102
RTVSPropertyOp42
 70
     1
102
RTVSPropertyOp43
 70
     1
102
RTVSPropertyOp44
 70
     1
102
RTVSPropertyOp45
 70
     1
102
RTVSPropertyOp46
 70
     1
102
RTVSPropertyOp47
 70
     1
102
RTVSPropertyOp48
 70
     1
102
RTVSPropertyOp49
 70
     1
102
RTVSPropertyOp50
 70
     1
102
RTVSPropertyOp51
 70
     0
102
RTVSPropertyOp52
 70
     0
102
RTVSPropertyOp53
 70
     1
102
RTVSPropertyOp54
 70
     1
102
RTVSPropertyOp55
 70
     1
102
RTVSPropertyOp56
 70
     1
102
RTVSPropertyOp57
 70
     1
102
RTVSPropertyOp58
 70
     1
102
RTVSPropertyOp59
 70
     1
102
RTVSPropertyOp60
 70
     1
102
RTVSPropertyOp61
 70
     1
102
RTVSPropertyOp62
 70
     1
  0
ENDSEC
  0
EOF
