  0
SECTION
  2
HEADER
  9
$ACADVER
  1
AC1018
  9
$ACADMAINTVER
 70
   104
  9
$DWGCODEPAGE
  3
ANSI_1250
  9
$LASTSAVEDBY
  1
wq7085
  9
$INSBASE
 10
0.0
 20
0.0
 30
0.0
  9
$EXTMIN
 10
189.6271943333333
 20
122.034924
 30
0.0
  9
$EXTMAX
 10
384.385661
 20
341.6963336666667
 30
0.0
  9
$LIMMIN
 10
-0.5
 20
-0.5
  9
$LIMMAX
 10
5.0
 20
5.0
  9
$ORTHOMODE
 70
     0
  9
$REGENMODE
 70
     1
  9
$FILLMODE
 70
     1
  9
$QTEXTMODE
 70
     0
  9
$MIRRTEXT
 70
     1
  9
$LTSCALE
 40
1.0
  9
$ATTMODE
 70
     1
  9
$TEXTSIZE
 40
0.2
  9
$TRACEWID
 40
0.05
  9
$TEXTSTYLE
  7
Standard
  9
$CLAYER
  8
0
  9
$CELTYPE
  6
ByLayer
  9
$CECOLOR
 62
   256
  9
$CELTSCALE
 40
1.0
  9
$DISPSILH
 70
     0
  9
$DIMSCALE
 40
1.0
  9
$DIMASZ
 40
0.18
  9
$DIMEXO
 40
0.0625
  9
$DIMDLI
 40
0.38
  9
$DIMRND
 40
0.0
  9
$DIMDLE
 40
0.0
  9
$DIMEXE
 40
0.18
  9
$DIMTP
 40
0.0
  9
$DIMTM
 40
0.0
  9
$DIMTXT
 40
0.18
  9
$DIMCEN
 40
0.09
  9
$DIMTSZ
 40
0.0
  9
$DIMTOL
 70
     0
  9
$DIMLIM
 70
     0
  9
$DIMTIH
 70
     1
  9
$DIMTOH
 70
     1
  9
$DIMSE1
 70
     0
  9
$DIMSE2
 70
     0
  9
$DIMTAD
 70
     0
  9
$DIMZIN
 70
     0
  9
$DIMBLK
  1

  9
$DIMASO
 70
     1
  9
$DIMSHO
 70
     1
  9
$DIMPOST
  1

  9
$DIMAPOST
  1

  9
$DIMALT
 70
     0
  9
$DIMALTD
 70
     2
  9
$DIMALTF
 40
25.4
  9
$DIMLFAC
 40
1.0
  9
$DIMTOFL
 70
     0
  9
$DIMTVP
 40
0.0
  9
$DIMTIX
 70
     0
  9
$DIMSOXD
 70
     0
  9
$DIMSAH
 70
     0
  9
$DIMBLK1
  1

  9
$DIMBLK2
  1

  9
$DIMSTYLE
  2
Standard
  9
$DIMCLRD
 70
     0
  9
$DIMCLRE
 70
     0
  9
$DIMCLRT
 70
     0
  9
$DIMTFAC
 40
1.0
  9
$DIMGAP
 40
0.09
  9
$DIMJUST
 70
     0
  9
$DIMSD1
 70
     0
  9
$DIMSD2
 70
     0
  9
$DIMTOLJ
 70
     1
  9
$DIMTZIN
 70
     0
  9
$DIMALTZ
 70
     0
  9
$DIMALTTZ
 70
     0
  9
$DIMUPT
 70
     0
  9
$DIMDEC
 70
     4
  9
$DIMTDEC
 70
     4
  9
$DIMALTU
 70
     2
  9
$DIMALTTD
 70
     2
  9
$DIMTXSTY
  7
Standard
  9
$DIMAUNIT
 70
     0
  9
$DIMADEC
 70
     0
  9
$DIMALTRND
 40
0.0
  9
$DIMAZIN
 70
     0
  9
$DIMDSEP
 70
    46
  9
$DIMATFIT
 70
     3
  9
$DIMFRAC
 70
     0
  9
$DIMLDRBLK
  1

  9
$DIMLUNIT
 70
     2
  9
$DIMLWD
 70
    -2
  9
$DIMLWE
 70
    -2
  9
$DIMTMOVE
 70
     0
  9
$LUNITS
 70
     2
  9
$LUPREC
 70
     4
  9
$SKETCHINC
 40
0.1
  9
$FILLETRAD
 40
0.5
  9
$AUNITS
 70
     0
  9
$AUPREC
 70
     0
  9
$MENU
  1
.
  9
$ELEVATION
 40
0.0
  9
$PELEVATION
 40
0.0
  9
$THICKNESS
 40
0.0
  9
$LIMCHECK
 70
     0
  9
$CHAMFERA
 40
0.0
  9
$CHAMFERB
 40
0.0
  9
$CHAMFERC
 40
0.0
  9
$CHAMFERD
 40
0.0
  9
$SKPOLY
 70
     0
  9
$TDCREATE
 40
2459088.404409722
  9
$TDUCREATE
 40
2459088.321083507
  9
$TDUPDATE
 40
2459088.405115741
  9
$TDUUPDATE
 40
2459088.321782407
  9
$TDINDWG
 40
0.0004861227
  9
$TDUSRTIMER
 40
0.0004861227
  9
$USRTIMER
 70
     1
  9
$ANGBASE
 50
0.0
  9
$ANGDIR
 70
     0
  9
$PDMODE
 70
     0
  9
$PDSIZE
 40
0.0
  9
$PLINEWID
 40
0.0
  9
$SPLFRAME
 70
     0
  9
$SPLINETYPE
 70
     6
  9
$SPLINESEGS
 70
     8
  9
$HANDSEED
  5
394
  9
$SURFTAB1
 70
     6
  9
$SURFTAB2
 70
     6
  9
$SURFTYPE
 70
     6
  9
$SURFU
 70
     6
  9
$SURFV
 70
     6
  9
$UCSBASE
  2

  9
$UCSNAME
  2

  9
$UCSORG
 10
274.404842
 20
288.907994
 30
0.0
  9
$UCSXDIR
 10
1.0
 20
0.0
 30
0.0
  9
$UCSYDIR
 10
0.0
 20
1.0
 30
0.0
  9
$UCSORTHOREF
  2

  9
$UCSORTHOVIEW
 70
     0
  9
$UCSORGTOP
 10
0.0
 20
0.0
 30
0.0
  9
$UCSORGBOTTOM
 10
0.0
 20
0.0
 30
0.0
  9
$UCSORGLEFT
 10
0.0
 20
0.0
 30
0.0
  9
$UCSORGRIGHT
 10
0.0
 20
0.0
 30
0.0
  9
$UCSORGFRONT
 10
0.0
 20
0.0
 30
0.0
  9
$UCSORGBACK
 10
0.0
 20
0.0
 30
0.0
  9
$PUCSBASE
  2

  9
$PUCSNAME
  2

  9
$PUCSORG
 10
0.0
 20
0.0
 30
0.0
  9
$PUCSXDIR
 10
1.0
 20
0.0
 30
0.0
  9
$PUCSYDIR
 10
0.0
 20
1.0
 30
0.0
  9
$PUCSORTHOREF
  2

  9
$PUCSORTHOVIEW
 70
     0
  9
$PUCSORGTOP
 10
0.0
 20
0.0
 30
0.0
  9
$PUCSORGBOTTOM
 10
0.0
 20
0.0
 30
0.0
  9
$PUCSORGLEFT
 10
0.0
 20
0.0
 30
0.0
  9
$PUCSORGRIGHT
 10
0.0
 20
0.0
 30
0.0
  9
$PUCSORGFRONT
 10
0.0
 20
0.0
 30
0.0
  9
$PUCSORGBACK
 10
0.0
 20
0.0
 30
0.0
  9
$USERI1
 70
     0
  9
$USERI2
 70
     0
  9
$USERI3
 70
     0
  9
$USERI4
 70
     0
  9
$USERI5
 70
     0
  9
$USERR1
 40
0.0
  9
$USERR2
 40
0.0
  9
$USERR3
 40
0.0
  9
$USERR4
 40
0.0
  9
$USERR5
 40
0.0
  9
$WORLDVIEW
 70
     1
  9
$SHADEDGE
 70
     3
  9
$SHADEDIF
 70
    70
  9
$TILEMODE
 70
     1
  9
$MAXACTVP
 70
    64
  9
$PINSBASE
 10
0.0
 20
0.0
 30
0.0
  9
$PLIMCHECK
 70
     0
  9
$PEXTMIN
 10
-0.5
 20
-0.5
 30
-0.5
  9
$PEXTMAX
 10
5.0
 20
5.0
 30
5.0
  9
$PLIMMIN
 10
-0.5
 20
-0.5
  9
$PLIMMAX
 10
5.0
 20
5.0
  9
$UNITMODE
 70
     0
  9
$VISRETAIN
 70
     1
  9
$PLINEGEN
 70
     0
  9
$PSLTSCALE
 70
     1
  9
$TREEDEPTH
 70
  3020
  9
$CMLSTYLE
  2
Standard
  9
$CMLJUST
 70
     0
  9
$CMLSCALE
 40
1.0
  9
$PROXYGRAPHICS
 70
     1
  9
$MEASUREMENT
 70
     1
  9
$CELWEIGHT
370
    13
  9
$ENDCAPS
280
     0
  9
$JOINSTYLE
280
     0
  9
$LWDISPLAY
290
     0
  9
$INSUNITS
 70
     4
  9
$HYPERLINKBASE
  1

  9
$STYLESHEET
  1

  9
$XEDIT
290
     1
  9
$CEPSNTYPE
380
     0
  9
$PSTYLEMODE
290
     1
  9
$FINGERPRINTGUID
  2
{405EA5F8-23D9-4E5E-AA49-6F6A22953B3B}
  9
$VERSIONGUID
  2
{931461FF-26F6-844B-BCBA-33022FAE012B}
  9
$EXTNAMES
290
     1
  9
$PSVPSCALE
 40
0.0
  9
$OLESTARTUP
290
     0
  9
$SORTENTS
280
   127
  9
$INDEXCTL
280
     0
  9
$HIDETEXT
280
     1
  9
$XCLIPFRAME
290
     0
  9
$HALOGAP
280
     0
  9
$OBSCOLOR
 70
   257
  9
$OBSLTYPE
280
     0
  9
$INTERSECTIONDISPLAY
280
     0
  9
$INTERSECTIONCOLOR
 70
   257
  9
$DIMASSOC
280
     2
  9
$PROJECTNAME
  1

  0
ENDSEC
  0
SECTION
  2
CLASSES
  0
CLASS
  1
ACDBDICTIONARYWDFLT
  2
AcDbDictionaryWithDefault
  3
ObjectDBX Classes
 90
        0
 91
        1
280
     0
281
     0
  0
CLASS
  1
VISUALSTYLE
  2
AcDbVisualStyle
  3
ObjectDBX Classes
 90
     4095
 91
       24
280
     0
281
     0
  0
CLASS
  1
MATERIAL
  2
AcDbMaterial
  3
ObjectDBX Classes
 90
     1153
 91
        3
280
     0
281
     0
  0
CLASS
  1
SCALE
  2
AcDbScale
  3
ObjectDBX Classes
 90
     1153
 91
       33
280
     0
281
     0
  0
CLASS
  1
TABLESTYLE
  2
AcDbTableStyle
  3
ObjectDBX Classes
 90
     4095
 91
        1
280
     0
281
     0
  0
CLASS
  1
MLEADERSTYLE
  2
AcDbMLeaderStyle
  3
ACDB_MLEADERSTYLE_CLASS
 90
     4095
 91
        1
280
     0
281
     0
  0
CLASS
  1
SUN
  2
AcDbSun
  3
SCENEOE
 90
     1153
 91
        0
280
     0
281
     0
  0
CLASS
  1
DIMASSOC
  2
AcDbDimAssoc
  3
"AcDbDimAssoc|Product Desc:     AcDim ARX App For Dimension|Company:          Autodesk, Inc.|WEB Address:      www.autodesk.com"
 90
        0
 91
        7
280
     0
281
     0
  0
CLASS
  1
DICTIONARYVAR
  2
AcDbDictionaryVar
  3
ObjectDBX Classes
 90
        0
 91
        8
280
     0
281
     0
  0
CLASS
  1
CELLSTYLEMAP
  2
AcDbCellStyleMap
  3
ObjectDBX Classes
 90
     1152
 91
        2
280
     0
281
     0
  0
CLASS
  1
ACDBSECTIONVIEWSTYLE
  2
AcDbSectionViewStyle
  3
ObjectDBX Classes
 90
     1025
 91
        1
280
     0
281
     0
  0
CLASS
  1
ACDBDETAILVIEWSTYLE
  2
AcDbDetailViewStyle
  3
ObjectDBX Classes
 90
     1025
 91
        1
280
     0
281
     0
  0
CLASS
  1
SORTENTSTABLE
  2
AcDbSortentsTable
  3
ObjectDBX Classes
 90
        0
 91
        1
280
     0
281
     0
  0
ENDSEC
  0
SECTION
  2
TABLES
  0
TABLE
  2
VPORT
  5
8
330
0
100
AcDbSymbolTable
 70
    16
  0
VPORT
  5
29
330
8
100
AcDbSymbolTableRecord
100
AcDbViewportTableRecord
  2
*Active
 70
     0
 10
0.0
 20
0.0
 11
1.0
 21
1.0
 12
294.550572139498
 22
289.9053631467335
 13
0.0
 23
0.0
 14
0.5
 24
0.5
 15
0.5
 25
0.5
 16
0.0
 26
0.0
 36
1.0
 17
0.0
 27
0.0
 37
0.0
 40
134.2231772352278
 41
2.292712066905615
 42
50.0
 43
381.542424
 44
-381.542424
 50
0.0
 51
0.0
 71
     0
 72
   100
 73
     1
 74
     3
 75
     0
 76
     0
 77
     0
 78
     0
281
     0
 65
     1
110
274.404842
120
288.907994
130
0.0
111
1.0
121
0.0
131
0.0
112
0.0
122
1.0
132
0.0
 79
     0
146
0.0
1001
ACAD_NAV_VCDISPLAY
1070
     3
  0
VPORT
  5
298
330
8
100
AcDbSymbolTableRecord
100
AcDbViewportTableRecord
  2
L1
 70
     0
 10
0.0
 20
0.0
 11
1.0
 21
1.0
 12
286.502213
 22
231.761044
 13
0.0
 23
0.0
 14
0.5
 24
0.5
 15
0.5
 25
0.5
 16
0.0
 26
0.0
 36
1.0
 17
0.0
 27
0.0
 37
0.0
 40
207.433333
 41
0.085602
 42
50.0
 43
381.542424
 44
-381.542424
 50
0.0
 51
0.0
 71
     0
 72
   100
 73
     1
 74
     3
 75
     0
 76
     0
 77
     0
 78
     0
281
     0
 65
     1
110
0.0
120
0.0
130
0.0
111
1.0
121
0.0
131
0.0
112
0.0
122
1.0
132
0.0
 79
     0
146
0.0
  0
VPORT
  5
299
330
8
100
AcDbSymbolTableRecord
100
AcDbViewportTableRecord
  2
L2
 70
     0
 10
0.0
 20
0.0
 11
0.5
 21
1.0
 12
0.0
 22
0.0
 13
0.0
 23
0.0
 14
0.5
 24
0.5
 15
0.5
 25
0.5
 16
0.0
 26
-1.0
 36
0.0
 17
0.0
 27
0.0
 37
0.0
 40
1342.962137
 41
0.013222
 42
50.0
 43
692.438493
 44
-692.438493
 50
0.0
 51
0.0
 71
     0
 72
   100
 73
     1
 74
     3
 75
     0
 76
     0
 77
     0
 78
     0
281
     0
 65
     1
110
0.0
120
0.0
130
0.0
111
1.0
121
0.0
131
0.0
112
0.0
122
1.0
132
0.0
 79
     0
146
0.0
  0
VPORT
  5
29A
330
8
100
AcDbSymbolTableRecord
100
AcDbViewportTableRecord
  2
L2
 70
     0
 10
0.5
 20
0.0
 11
1.0
 21
1.0
 12
0.0
 22
0.0
 13
0.0
 23
0.0
 14
0.5
 24
0.5
 15
0.5
 25
0.5
 16
1.0
 26
0.0
 36
0.0
 17
0.0
 27
0.0
 37
0.0
 40
1342.962137
 41
0.013222
 42
50.0
 43
679.44387
 44
-679.44387
 50
0.0
 51
0.0
 71
     0
 72
   100
 73
     1
 74
     3
 75
     0
 76
     0
 77
     0
 78
     0
281
     0
 65
     1
110
0.0
120
0.0
130
0.0
111
1.0
121
0.0
131
0.0
112
0.0
122
1.0
132
0.0
 79
     0
146
0.0
  0
VPORT
  5
29B
330
8
100
AcDbSymbolTableRecord
100
AcDbViewportTableRecord
  2
L3
 70
     0
 10
0.0
 20
0.5
 11
1.0
 21
1.0
 12
286.502213
 22
231.761044
 13
0.0
 23
0.0
 14
0.5
 24
0.5
 15
0.5
 25
0.5
 16
0.0
 26
0.0
 36
1.0
 17
0.0
 27
0.0
 37
0.0
 40
207.433333
 41
0.085602
 42
50.0
 43
381.542424
 44
-381.542424
 50
0.0
 51
0.0
 71
     0
 72
   100
 73
     1
 74
     3
 75
     0
 76
     0
 77
     0
 78
     0
281
     0
 65
     1
110
0.0
120
0.0
130
0.0
111
1.0
121
0.0
131
0.0
112
0.0
122
1.0
132
0.0
 79
     0
146
0.0
  0
VPORT
  5
29C
330
8
100
AcDbSymbolTableRecord
100
AcDbViewportTableRecord
  2
L3
 70
     0
 10
0.0
 20
0.0
 11
1.0
 21
0.5
 12
0.0
 22
0.0
 13
0.0
 23
0.0
 14
0.5
 24
0.5
 15
0.5
 25
0.5
 16
0.0
 26
-1.0
 36
0.0
 17
0.0
 27
0.0
 37
0.0
 40
1342.962137
 41
0.013222
 42
50.0
 43
692.438493
 44
-692.438493
 50
0.0
 51
0.0
 71
     0
 72
   100
 73
     1
 74
     3
 75
     0
 76
     0
 77
     0
 78
     0
281
     0
 65
     1
110
0.0
120
0.0
130
0.0
111
1.0
121
0.0
131
0.0
112
0.0
122
1.0
132
0.0
 79
     0
146
0.0
  0
VPORT
  5
29D
330
8
100
AcDbSymbolTableRecord
100
AcDbViewportTableRecord
  2
L4
 70
     0
 10
0.0
 20
0.5
 11
0.5
 21
1.0
 12
286.502213
 22
231.761044
 13
0.0
 23
0.0
 14
0.5
 24
0.5
 15
0.5
 25
0.5
 16
0.0
 26
0.0
 36
1.0
 17
0.0
 27
0.0
 37
0.0
 40
207.433333
 41
0.085602
 42
50.0
 43
381.542424
 44
-381.542424
 50
0.0
 51
0.0
 71
     0
 72
   100
 73
     1
 74
     3
 75
     0
 76
     0
 77
     0
 78
     0
281
     0
 65
     1
110
0.0
120
0.0
130
0.0
111
1.0
121
0.0
131
0.0
112
0.0
122
1.0
132
0.0
 79
     0
146
0.0
  0
VPORT
  5
29E
330
8
100
AcDbSymbolTableRecord
100
AcDbViewportTableRecord
  2
L4
 70
     0
 10
0.0
 20
0.0
 11
0.5
 21
0.5
 12
0.0
 22
0.0
 13
0.0
 23
0.0
 14
0.5
 24
0.5
 15
0.5
 25
0.5
 16
0.0
 26
-1.0
 36
0.0
 17
0.0
 27
0.0
 37
0.0
 40
1342.962137
 41
0.013222
 42
50.0
 43
692.438493
 44
-692.438493
 50
0.0
 51
0.0
 71
     0
 72
   100
 73
     1
 74
     3
 75
     0
 76
     0
 77
     0
 78
     0
281
     0
 65
     1
110
0.0
120
0.0
130
0.0
111
1.0
121
0.0
131
0.0
112
0.0
122
1.0
132
0.0
 79
     0
146
0.0
  0
VPORT
  5
29F
330
8
100
AcDbSymbolTableRecord
100
AcDbViewportTableRecord
  2
L4
 70
     0
 10
0.5
 20
0.0
 11
1.0
 21
0.5
 12
0.0
 22
0.0
 13
0.0
 23
0.0
 14
0.5
 24
0.5
 15
0.5
 25
0.5
 16
1.0
 26
0.0
 36
0.0
 17
0.0
 27
0.0
 37
0.0
 40
1342.962137
 41
0.013222
 42
50.0
 43
679.44387
 44
-679.44387
 50
0.0
 51
0.0
 71
     0
 72
   100
 73
     1
 74
     3
 75
     0
 76
     0
 77
     0
 78
     0
281
     0
 65
     1
110
0.0
120
0.0
130
0.0
111
1.0
121
0.0
131
0.0
112
0.0
122
1.0
132
0.0
 79
     0
146
0.0
  0
VPORT
  5
2A0
330
8
100
AcDbSymbolTableRecord
100
AcDbViewportTableRecord
  2
L4
 70
     0
 10
0.5
 20
0.5
 11
1.0
 21
1.0
 12
0.0
 22
0.0
 13
0.0
 23
0.0
 14
0.5
 24
0.5
 15
0.5
 25
0.5
 16
0.5773502691896259
 26
-0.5773502691896259
 36
0.5773502691896259
 17
0.0
 27
0.0
 37
0.0
 40
1319.252353
 41
0.01346
 42
50.0
 43
687.250052
 44
-687.250052
 50
0.0
 51
0.0
 71
     0
 72
   100
 73
     1
 74
     3
 75
     0
 76
     0
 77
     0
 78
     0
281
     0
 65
     1
110
0.0
120
0.0
130
0.0
111
1.0
121
0.0
131
0.0
112
0.0
122
1.0
132
0.0
 79
     0
146
0.0
  0
VPORT
  5
2A1
330
8
100
AcDbSymbolTableRecord
100
AcDbViewportTableRecord
  2
L6
 70
     0
 10
0.0
 20
0.5
 11
0.333333
 21
1.0
 12
0.0
 22
0.0
 13
0.0
 23
0.0
 14
0.5
 24
0.5
 15
0.5
 25
0.5
 16
0.7188730927569434
 26
-0.5850486126764433
 36
0.3754192287502549
 17
0.0
 27
0.0
 37
0.0
 40
1392.344992
 41
0.012753
 42
50.0
 43
720.892475
 44
-720.892475
 50
0.0
 51
0.0
 71
     0
 72
   100
 73
     1
 74
     3
 75
     0
 76
     0
 77
     0
 78
     0
281
     0
 65
     1
110
0.0
120
0.0
130
0.0
111
1.0
121
0.0
131
0.0
112
0.0
122
1.0
132
0.0
 79
     0
146
0.0
  0
VPORT
  5
2A2
330
8
100
AcDbSymbolTableRecord
100
AcDbViewportTableRecord
  2
L6
 70
     0
 10
0.0
 20
0.0
 11
0.333333
 21
0.5
 12
0.0
 22
0.0
 13
0.0
 23
0.0
 14
0.5
 24
0.5
 15
0.5
 25
0.5
 16
-1.0
 26
0.0
 36
0.0
 17
0.0
 27
0.0
 37
0.0
 40
1342.962137
 41
0.013222
 42
50.0
 43
679.44387
 44
-679.44387
 50
0.0
 51
0.0
 71
     0
 72
   100
 73
     1
 74
     3
 75
     0
 76
     0
 77
     0
 78
     0
281
     0
 65
     1
110
0.0
120
0.0
130
0.0
111
1.0
121
0.0
131
0.0
112
0.0
122
1.0
132
0.0
 79
     0
146
0.0
  0
VPORT
  5
2A3
330
8
100
AcDbSymbolTableRecord
100
AcDbViewportTableRecord
  2
L6
 70
     0
 10
0.333333
 20
0.5
 11
0.666667
 21
1.0
 12
286.502213
 22
231.761044
 13
0.0
 23
0.0
 14
0.5
 24
0.5
 15
0.5
 25
0.5
 16
0.0
 26
0.0
 36
1.0
 17
0.0
 27
0.0
 37
0.0
 40
207.433333
 41
0.085602
 42
50.0
 43
381.542424
 44
-381.542424
 50
0.0
 51
0.0
 71
     0
 72
   100
 73
     1
 74
     3
 75
     0
 76
     0
 77
     0
 78
     0
281
     0
 65
     1
110
0.0
120
0.0
130
0.0
111
1.0
121
0.0
131
0.0
112
0.0
122
1.0
132
0.0
 79
     0
146
0.0
  0
VPORT
  5
2A4
330
8
100
AcDbSymbolTableRecord
100
AcDbViewportTableRecord
  2
L6
 70
     0
 10
0.333333
 20
0.0
 11
0.666667
 21
0.5
 12
0.0
 22
0.0
 13
0.0
 23
0.0
 14
0.5
 24
0.5
 15
0.5
 25
0.5
 16
0.0
 26
-1.0
 36
0.0
 17
0.0
 27
0.0
 37
0.0
 40
1342.962137
 41
0.013222
 42
50.0
 43
692.438493
 44
-692.438493
 50
0.0
 51
0.0
 71
     0
 72
   100
 73
     1
 74
     3
 75
     0
 76
     0
 77
     0
 78
     0
281
     0
 65
     1
110
0.0
120
0.0
130
0.0
111
1.0
121
0.0
131
0.0
112
0.0
122
1.0
132
0.0
 79
     0
146
0.0
  0
VPORT
  5
2A5
330
8
100
AcDbSymbolTableRecord
100
AcDbViewportTableRecord
  2
L6
 70
     0
 10
0.666667
 20
0.5
 11
1.0
 21
1.0
 12
0.0
 22
0.0
 13
0.0
 23
0.0
 14
0.5
 24
0.5
 15
0.5
 25
0.5
 16
0.5773502691896259
 26
-0.5773502691896259
 36
0.5773502691896259
 17
0.0
 27
0.0
 37
0.0
 40
1319.252353
 41
0.01346
 42
50.0
 43
687.250052
 44
-687.250052
 50
0.0
 51
0.0
 71
     0
 72
   100
 73
     1
 74
     3
 75
     0
 76
     0
 77
     0
 78
     0
281
     0
 65
     1
110
0.0
120
0.0
130
0.0
111
1.0
121
0.0
131
0.0
112
0.0
122
1.0
132
0.0
 79
     0
146
0.0
  0
VPORT
  5
2A6
330
8
100
AcDbSymbolTableRecord
100
AcDbViewportTableRecord
  2
L6
 70
     0
 10
0.666667
 20
0.0
 11
1.0
 21
0.5
 12
0.0
 22
0.0
 13
0.0
 23
0.0
 14
0.5
 24
0.5
 15
0.5
 25
0.5
 16
1.0
 26
0.0
 36
0.0
 17
0.0
 27
0.0
 37
0.0
 40
1342.962137
 41
0.013222
 42
50.0
 43
679.44387
 44
-679.44387
 50
0.0
 51
0.0
 71
     0
 72
   100
 73
     1
 74
     3
 75
     0
 76
     0
 77
     0
 78
     0
281
     0
 65
     1
110
0.0
120
0.0
130
0.0
111
1.0
121
0.0
131
0.0
112
0.0
122
1.0
132
0.0
 79
     0
146
0.0
  0
ENDTAB
  0
TABLE
  2
LTYPE
  5
5
330
0
100
AcDbSymbolTable
 70
     7
  0
LTYPE
  5
14
330
5
100
AcDbSymbolTableRecord
100
AcDbLinetypeTableRecord
  2
ByBlock
 70
     0
  3

 72
    65
 73
     0
 40
0.0
  0
LTYPE
  5
15
330
5
100
AcDbSymbolTableRecord
100
AcDbLinetypeTableRecord
  2
ByLayer
 70
     0
  3

 72
    65
 73
     0
 40
0.0
  0
LTYPE
  5
16
330
5
100
AcDbSymbolTableRecord
100
AcDbLinetypeTableRecord
  2
Continuous
 70
     0
  3
Solid line
 72
    65
 73
     0
 40
0.0
  0
LTYPE
  5
6E
330
5
100
AcDbSymbolTableRecord
100
AcDbLinetypeTableRecord
  2
CENTER
 70
     0
  3
____ _ ____ _ ____ _ ____
 72
    65
 73
     4
 40
47.4
 49
22.0
 74
     4
 75
     0
340
0
 46
0.0
 50
0.0
 44
0.0
 45
0.0
 49
-8.5
 74
     4
 75
     0
340
0
 46
0.0
 50
0.0
 44
0.0
 45
0.0
 49
8.5
 74
     4
 75
     0
340
0
 46
0.0
 50
0.0
 44
0.0
 45
0.0
 49
-8.5
 74
     4
 75
     0
340
0
 46
0.0
 50
0.0
 44
0.0
 45
0.0
  0
LTYPE
  5
6F
330
5
100
AcDbSymbolTableRecord
100
AcDbLinetypeTableRecord
  2
DASHDOT
 70
     0
  3
_._._._._._._._._._._._._._._._.
 72
    65
 73
     4
 40
70.0
 49
31.0
 74
     4
 75
     0
340
0
 46
0.0
 50
0.0
 44
0.0
 45
0.0
 49
-13.0
 74
     4
 75
     0
340
0
 46
0.0
 50
0.0
 44
0.0
 45
0.0
 49
13.0
 74
     4
 75
     0
340
0
 46
0.0
 50
0.0
 44
0.0
 45
0.0
 49
-13.0
 74
     4
 75
     0
340
0
 46
0.0
 50
0.0
 44
0.0
 45
0.0
  0
LTYPE
  5
70
330
5
100
AcDbSymbolTableRecord
100
AcDbLinetypeTableRecord
  2
DASHED
 70
     0
  3
__ __ __ __ __ __ __ __ __
 72
    65
 73
     2
 40
25.72
 49
12.86
 74
     4
 75
     0
340
0
 46
0.0
 50
0.0
 44
0.0
 45
0.0
 49
-12.86
 74
     4
 75
     0
340
0
 46
0.0
 50
0.0
 44
0.0
 45
0.0
  0
LTYPE
  5
71
330
5
100
AcDbSymbolTableRecord
100
AcDbLinetypeTableRecord
  2
DOT
 70
     0
  3
.........................
 72
    65
 73
     2
 40
10.0
 49
0.0
 74
     4
 75
     0
340
0
 46
0.0
 50
0.0
 44
0.0
 45
0.0
 49
-10.0
 74
     4
 75
     0
340
0
 46
0.0
 50
0.0
 44
0.0
 45
0.0
  0
LTYPE
  5
72
330
5
100
AcDbSymbolTableRecord
100
AcDbLinetypeTableRecord
  2
PHANTOM
 70
     0
  3
____ _ _ ____ _ _ _____ _ _ ____
 72
    65
 73
     6
 40
50.5
 49
18.0
 74
     4
 75
     0
340
0
 46
0.0
 50
0.0
 44
0.0
 45
0.0
 49
-6.5
 74
     4
 75
     0
340
0
 46
0.0
 50
0.0
 44
0.0
 45
0.0
 49
6.5
 74
     4
 75
     0
340
0
 46
0.0
 50
0.0
 44
0.0
 45
0.0
 49
-6.5
 74
     4
 75
     0
340
0
 46
0.0
 50
0.0
 44
0.0
 45
0.0
 49
6.5
 74
     4
 75
     0
340
0
 46
0.0
 50
0.0
 44
0.0
 45
0.0
 49
-6.5
 74
     4
 75
     0
340
0
 46
0.0
 50
0.0
 44
0.0
 45
0.0
  0
LTYPE
  5
336
330
5
100
AcDbSymbolTableRecord
100
AcDbLinetypeTableRecord
  2
CENTER2
 70
     0
  3
Center (.5x) ___ _ ___ _ ___ _ ___ _ ___ _ ___
 72
    65
 73
     4
 40
1.125
 49
0.75
 74
     0
 49
-0.125
 74
     0
 49
0.125
 74
     0
 49
-0.125
 74
     0
  0
ENDTAB
  0
TABLE
  2
LAYER
  5
2
330
0
100
AcDbSymbolTable
 70
    22
  0
LAYER
  5
10
102
{ACAD_XDICTIONARY
360
341
102
}
330
2
100
AcDbSymbolTableRecord
100
AcDbLayerTableRecord
  2
0
 70
     0
 62
     7
  6
Continuous
370
    -3
390
F
  0
LAYER
  5
1F2
330
2
100
AcDbSymbolTableRecord
100
AcDbLayerTableRecord
  2
Defpoints
 70
     0
 62
     7
  6
Continuous
290
     0
370
    -3
390
F
  0
LAYER
  5
333
102
{ACAD_XDICTIONARY
360
343
102
}
330
2
100
AcDbSymbolTableRecord
100
AcDbLayerTableRecord
  2
1
 70
     0
 62
     4
  6
Continuous
370
    -3
390
F
  0
LAYER
  5
334
102
{ACAD_XDICTIONARY
360
345
102
}
330
2
100
AcDbSymbolTableRecord
100
AcDbLayerTableRecord
  2
2
 70
     0
 62
     7
  6
Continuous
370
    -3
390
F
  0
LAYER
  5
335
102
{ACAD_XDICTIONARY
360
347
102
}
330
2
100
AcDbSymbolTableRecord
100
AcDbLayerTableRecord
  2
4
 70
     0
 62
     2
  6
CENTER2
370
    -3
390
F
  0
LAYER
  5
337
102
{ACAD_XDICTIONARY
360
349
102
}
330
2
100
AcDbSymbolTableRecord
100
AcDbLayerTableRecord
  2
SK1
 70
     0
 62
     4
  6
Continuous
370
    -3
390
F
  0
LAYER
  5
338
102
{ACAD_XDICTIONARY
360
34B
102
}
330
2
100
AcDbSymbolTableRecord
100
AcDbLayerTableRecord
  2
SK2
 70
     0
 62
     7
  6
Continuous
370
    -3
390
F
  0
LAYER
  5
33A
102
{ACAD_XDICTIONARY
360
34D
102
}
330
2
100
AcDbSymbolTableRecord
100
AcDbLayerTableRecord
  2
SK4
 70
     0
 62
     2
  6
CENTER2
370
    -3
390
F
  0
LAYER
  5
33B
102
{ACAD_XDICTIONARY
360
34F
102
}
330
2
100
AcDbSymbolTableRecord
100
AcDbLayerTableRecord
  2
SK6
 70
     0
 62
     5
  6
Continuous
370
    -3
390
F
  0
LAYER
  5
33C
102
{ACAD_XDICTIONARY
360
351
102
}
330
2
100
AcDbSymbolTableRecord
100
AcDbLayerTableRecord
  2
CUT
 70
     0
 62
     1
  6
Continuous
370
    -3
390
F
  0
LAYER
  5
33D
102
{ACAD_XDICTIONARY
360
353
102
}
330
2
100
AcDbSymbolTableRecord
100
AcDbLayerTableRecord
  2
NOCUT
 70
     0
 62
     7
  6
Continuous
370
    -3
390
F
  0
LAYER
  5
33E
102
{ACAD_XDICTIONARY
360
355
102
}
330
2
100
AcDbSymbolTableRecord
100
AcDbLayerTableRecord
  2
80
 70
     0
 62
     6
  6
Continuous
370
    -3
390
F
  0
LAYER
  5
33F
102
{ACAD_XDICTIONARY
360
357
102
}
330
2
100
AcDbSymbolTableRecord
100
AcDbLayerTableRecord
  2
81
 70
     0
 62
     3
  6
Continuous
370
    -3
390
F
  0
ENDTAB
  0
TABLE
  2
STYLE
  5
3
330
0
100
AcDbSymbolTable
 70
     3
  0
STYLE
  5
11
330
3
100
AcDbSymbolTableRecord
100
AcDbTextStyleTableRecord
  2
Standard
 70
     0
 40
0.0
 41
1.0
 50
0.0
 71
     0
 42
0.2
  3
txt
  4

  0
STYLE
  5
1EB
330
3
100
AcDbSymbolTableRecord
100
AcDbTextStyleTableRecord
  2
cesky
 70
     0
 40
0.0
 41
1.0
 50
0.0
 71
     0
 42
0.2
  3
simplex.shx
  4

  0
STYLE
  5
1EC
330
3
100
AcDbSymbolTableRecord
100
AcDbTextStyleTableRecord
  2
DWGDirectTextStyle
 70
     0
 40
0.0
 41
1.0
 50
0.0
 71
     0
 42
0.2
  3
simplex
  4

  0
ENDTAB
  0
TABLE
  2
VIEW
  5
6
330
0
100
AcDbSymbolTable
 70
     0
  0
ENDTAB
  0
TABLE
  2
UCS
  5
7
330
0
100
AcDbSymbolTable
 70
     0
  0
ENDTAB
  0
TABLE
  2
APPID
  5
9
330
0
100
AcDbSymbolTable
 70
     7
  0
APPID
  5
12
330
9
100
AcDbSymbolTableRecord
100
AcDbRegAppTableRecord
  2
ACAD
 70
     0
  0
APPID
  5
1EE
330
9
100
AcDbSymbolTableRecord
100
AcDbRegAppTableRecord
  2
ACAD_DSTYLE_DIMBREAK
 70
     0
  0
APPID
  5
2A7
330
9
100
AcDbSymbolTableRecord
100
AcDbRegAppTableRecord
  2
ACAD_DSTYLE_DIM_LINETYPE
 70
     0
  0
APPID
  5
2A8
330
9
100
AcDbSymbolTableRecord
100
AcDbRegAppTableRecord
  2
ACAD_DSTYLE_DIM_EXT1_LINETYPE
 70
     0
  0
APPID
  5
2A9
330
9
100
AcDbSymbolTableRecord
100
AcDbRegAppTableRecord
  2
ACAD_DSTYLE_DIM_EXT2_LINETYPE
 70
     0
  0
APPID
  5
2E9
330
9
100
AcDbSymbolTableRecord
100
AcDbRegAppTableRecord
  2
ACAD_MLEADERVER
 70
     0
  0
APPID
  5
35C
330
9
100
AcDbSymbolTableRecord
100
AcDbRegAppTableRecord
  2
ACAD_NAV_VCDISPLAY
 70
     0
  0
ENDTAB
  0
TABLE
  2
DIMSTYLE
  5
A
330
0
100
AcDbSymbolTable
 70
     1
100
AcDbDimStyleTable
 71
     0
  0
DIMSTYLE
105
27
330
A
100
AcDbSymbolTableRecord
100
AcDbDimStyleTableRecord
  2
Standard
 70
     0
340
11
1001
ACAD_DSTYLE_DIMBREAK
1070
   391
1040
6.349999999999999
  0
ENDTAB
  0
TABLE
  2
BLOCK_RECORD
  5
1
330
0
100
AcDbSymbolTable
 70
    16
  0
BLOCK_RECORD
  5
1F
102
{ACAD_XDICTIONARY
360
2F9
102
}
330
1
100
AcDbSymbolTableRecord
100
AcDbBlockTableRecord
  2
*Model_Space
340
22
  0
BLOCK_RECORD
  5
1B
330
1
100
AcDbSymbolTableRecord
100
AcDbBlockTableRecord
  2
*Paper_Space
340
1E
  0
BLOCK_RECORD
  5
23
330
1
100
AcDbSymbolTableRecord
100
AcDbBlockTableRecord
  2
*Paper_Space0
340
26
  0
BLOCK_RECORD
  5
1E5
330
1
100
AcDbSymbolTableRecord
100
AcDbBlockTableRecord
  2
ASSORTED_DRAFT1
340
0
  0
BLOCK_RECORD
  5
1F3
330
1
100
AcDbSymbolTableRecord
100
AcDbBlockTableRecord
  2
*D2
340
0
  0
BLOCK_RECORD
  5
1FF
330
1
100
AcDbSymbolTableRecord
100
AcDbBlockTableRecord
  2
_U0
340
0
  0
BLOCK_RECORD
  5
20B
330
1
100
AcDbSymbolTableRecord
100
AcDbBlockTableRecord
  2
*D4
340
0
  0
BLOCK_RECORD
  5
216
330
1
100
AcDbSymbolTableRecord
100
AcDbBlockTableRecord
  2
_U1
340
0
  0
BLOCK_RECORD
  5
221
330
1
100
AcDbSymbolTableRecord
100
AcDbBlockTableRecord
  2
*D6
340
0
  0
BLOCK_RECORD
  5
22D
330
1
100
AcDbSymbolTableRecord
100
AcDbBlockTableRecord
  2
_U2
340
0
  0
BLOCK_RECORD
  5
23A
330
1
100
AcDbSymbolTableRecord
100
AcDbBlockTableRecord
  2
*D8
340
0
  0
BLOCK_RECORD
  5
246
330
1
100
AcDbSymbolTableRecord
100
AcDbBlockTableRecord
  2
_U3
340
0
  0
BLOCK_RECORD
  5
253
330
1
100
AcDbSymbolTableRecord
100
AcDbBlockTableRecord
  2
*D10
340
0
  0
BLOCK_RECORD
  5
25F
330
1
100
AcDbSymbolTableRecord
100
AcDbBlockTableRecord
  2
_U4
340
0
  0
BLOCK_RECORD
  5
26B
330
1
100
AcDbSymbolTableRecord
100
AcDbBlockTableRecord
  2
*D12
340
0
  0
BLOCK_RECORD
  5
277
330
1
100
AcDbSymbolTableRecord
100
AcDbBlockTableRecord
  2
_U5
340
0
  0
BLOCK_RECORD
  5
283
330
1
100
AcDbSymbolTableRecord
100
AcDbBlockTableRecord
  2
*D14
340
0
  0
BLOCK_RECORD
  5
28F
330
1
100
AcDbSymbolTableRecord
100
AcDbBlockTableRecord
  2
_U6
340
0
  0
ENDTAB
  0
ENDSEC
  0
SECTION
  2
BLOCKS
  0
BLOCK
  5
20
330
1F
100
AcDbEntity
  8
0
100
AcDbBlockBegin
  2
*Model_Space
 70
     0
 10
0.0
 20
0.0
 30
0.0
  3
*Model_Space
  1

  0
ENDBLK
  5
21
330
1F
100
AcDbEntity
  8
0
100
AcDbBlockEnd
  0
BLOCK
  5
1C
330
1B
100
AcDbEntity
 67
     1
  8
0
100
AcDbBlockBegin
  2
*Paper_Space
 70
     0
 10
0.0
 20
0.0
 30
0.0
  3
*Paper_Space
  1

  0
ENDBLK
  5
1D
330
1B
100
AcDbEntity
 67
     1
  8
0
100
AcDbBlockEnd
  0
BLOCK
  5
24
330
23
100
AcDbEntity
 67
     1
  8
0
100
AcDbBlockBegin
  2
*Paper_Space0
 70
     0
 10
0.0
 20
0.0
 30
0.0
  3
*Paper_Space0
  1

  0
ENDBLK
  5
25
330
23
100
AcDbEntity
 67
     1
  8
0
100
AcDbBlockEnd
  0
BLOCK
  5
1E8
330
1E5
100
AcDbEntity
  8
0
100
AcDbBlockBegin
  2
ASSORTED_DRAFT1
 70
     0
 10
0.0
 20
0.0
 30
0.0
  3
ASSORTED_DRAFT1
  1

  0
SOLID
  5
1E6
330
1E5
100
AcDbEntity
  8
0
 62
   254
370
    13
100
AcDbTrace
 10
270.185042
 20
161.034924
 30
0.0
 11
265.185046
 21
159.92645
 31
0.0
 12
265.1850379999999
 22
162.143397
 32
0.0
 13
270.185042
 23
161.034924
 33
0.0
  0
ENDBLK
  5
1E9
330
1E5
100
AcDbEntity
  8
0
100
AcDbBlockEnd
  0
BLOCK
  5
1F4
330
1F3
100
AcDbEntity
  8
0
100
AcDbBlockBegin
  2
*D2
 70
     1
 10
0.0
 20
0.0
 30
0.0
  3
*D2
  1

  0
LINE
  5
1F6
330
1F3
100
AcDbEntity
  8
0
 62
   254
370
    -2
100
AcDbLine
 10
367.404842
 20
297.407994
 30
0.0
 11
367.404842
 21
323.882273
 31
0.0
  0
LINE
  5
1F7
330
1F3
100
AcDbEntity
  8
0
 62
   254
370
    -2
100
AcDbLine
 10
274.404842
 20
288.907994
 30
0.0
 11
274.404842
 21
323.882273
 31
0.0
  0
LINE
  5
1F8
330
1F3
100
AcDbEntity
  8
0
 62
   254
370
    -2
100
AcDbLine
 10
363.904842
 20
322.882273
 30
0.0
 11
277.904842
 21
322.882273
 31
0.0
  0
SOLID
  5
1F9
330
1F3
100
AcDbEntity
  8
0
 62
   254
100
AcDbTrace
 10
363.904842
 20
322.29894
 30
0.0
 11
363.904842
 21
323.465606
 31
0.0
 12
367.404842
 22
322.882273
 32
0.0
 13
367.404842
 23
322.882273
 33
0.0
  0
SOLID
  5
1FA
330
1F3
100
AcDbEntity
  8
0
 62
   254
100
AcDbTrace
 10
277.904842
 20
323.465606
 30
0.0
 11
277.904842
 21
322.29894
 31
0.0
 12
274.404842
 22
322.882273
 32
0.0
 13
274.404842
 23
322.882273
 33
0.0
  0
MTEXT
  5
1FB
330
1F3
100
AcDbEntity
  8
0
 62
   254
370
    13
100
AcDbMText
 10
320.904842
 20
328.132273
 30
0.0
 40
3.5
 41
0.0
 71
     5
 72
     1
  1
\A1;93
  7
cesky
 73
     1
 44
1.0
  0
POINT
  5
1FC
330
1F3
100
AcDbEntity
  8
Defpoints
 62
     0
100
AcDbPoint
 10
367.404842
 20
297.407994
 30
0.0
  0
POINT
  5
1FD
330
1F3
100
AcDbEntity
  8
Defpoints
 62
     0
100
AcDbPoint
 10
274.404842
 20
288.907994
 30
0.0
  0
POINT
  5
1FE
330
1F3
100
AcDbEntity
  8
Defpoints
 62
     0
100
AcDbPoint
 10
274.404842
 20
322.882273
 30
0.0
  0
ENDBLK
  5
1F5
330
1F3
100
AcDbEntity
  8
0
100
AcDbBlockEnd
  0
BLOCK
  5
206
330
1FF
100
AcDbEntity
  8
0
100
AcDbBlockBegin
  2
_U0
 70
     0
 10
0.0
 20
0.0
 30
0.0
  3
_U0
  1

  0
ENDBLK
  5
207
330
1FF
100
AcDbEntity
  8
0
100
AcDbBlockEnd
  0
BLOCK
  5
20C
330
20B
100
AcDbEntity
  8
0
100
AcDbBlockBegin
  2
*D4
 70
     1
 10
0.0
 20
0.0
 30
0.0
  3
*D4
  1

  0
LINE
  5
20E
330
20B
100
AcDbEntity
  8
0
 62
   254
370
    -2
100
AcDbLine
 10
294.289618
 20
288.907994
 30
0.0
 11
384.385661
 21
288.907994
 31
0.0
  0
LINE
  5
20F
330
20B
100
AcDbEntity
  8
0
 62
   254
370
    -2
100
AcDbLine
 10
330.83929
 20
297.407994
 30
0.0
 11
384.385661
 21
297.407994
 31
0.0
  0
LINE
  5
210
330
20B
100
AcDbEntity
  8
0
 62
   254
370
    -2
100
AcDbLine
 10
383.385661
 20
300.907994
 30
0.0
 11
383.385661
 21
304.407994
 31
0.0
  0
SOLID
  5
211
330
20B
100
AcDbEntity
  8
0
 62
   254
100
AcDbTrace
 10
382.802328
 20
300.907994
 30
0.0
 11
383.968995
 21
300.907994
 31
0.0
 12
383.385661
 22
297.407994
 32
0.0
 13
383.385661
 23
297.407994
 33
0.0
  0
MTEXT
  5
212
330
20B
100
AcDbEntity
  8
0
 62
   254
370
    13
100
AcDbMText
 10
378.135661
 20
275.907994
 30
0.0
 40
3.5
 41
0.0
 71
     5
 72
     1
  1
\A1;17
  7
cesky
 11
0.0
 21
1.0
 31
0.0
 73
     1
 44
1.0
  0
POINT
  5
213
330
20B
100
AcDbEntity
  8
Defpoints
 62
     0
100
AcDbPoint
 10
294.289618
 20
288.907994
 30
0.0
  0
POINT
  5
214
330
20B
100
AcDbEntity
  8
Defpoints
 62
     0
100
AcDbPoint
 10
330.83929
 20
297.407994
 30
0.0
  0
POINT
  5
215
330
20B
100
AcDbEntity
  8
Defpoints
 62
     0
100
AcDbPoint
 10
383.385661
 20
297.407994
 30
0.0
  0
ENDBLK
  5
20D
330
20B
100
AcDbEntity
  8
0
100
AcDbBlockEnd
  0
BLOCK
  5
21C
330
216
100
AcDbEntity
  8
0
100
AcDbBlockBegin
  2
_U1
 70
     0
 10
0.0
 20
0.0
 30
0.0
  3
_U1
  1

  0
ENDBLK
  5
21D
330
216
100
AcDbEntity
  8
0
100
AcDbBlockEnd
  0
BLOCK
  5
222
330
221
100
AcDbEntity
  8
0
100
AcDbBlockBegin
  2
*D6
 70
     1
 10
0.0
 20
0.0
 30
0.0
  3
*D6
  1

  0
LINE
  5
224
330
221
100
AcDbEntity
  8
0
 62
    95
370
    -2
100
AcDbLine
 10
220.404842
 20
301.407994
 30
0.0
 11
208.204499
 21
301.407994
 31
0.0
  0
LINE
  5
225
330
221
100
AcDbEntity
  8
0
 62
    95
370
    -2
100
AcDbLine
 10
220.404842
 20
276.407994
 30
0.0
 11
208.204499
 21
276.407994
 31
0.0
  0
LINE
  5
226
330
221
100
AcDbEntity
  8
0
 62
    95
370
    -2
100
AcDbLine
 10
209.204499
 20
297.907994
 30
0.0
 11
209.204499
 21
279.907994
 31
0.0
  0
SOLID
  5
227
330
221
100
AcDbEntity
  8
0
 62
    95
100
AcDbTrace
 10
209.787833
 20
297.907994
 30
0.0
 11
208.621166
 21
297.907994
 31
0.0
 12
209.204499
 22
301.407994
 32
0.0
 13
209.204499
 23
301.407994
 33
0.0
  0
SOLID
  5
228
330
221
100
AcDbEntity
  8
0
 62
    95
100
AcDbTrace
 10
208.621166
 20
279.907994
 30
0.0
 11
209.787833
 21
279.907994
 31
0.0
 12
209.204499
 22
276.407994
 32
0.0
 13
209.204499
 23
276.407994
 33
0.0
  0
MTEXT
  5
229
330
221
100
AcDbEntity
  8
0
 62
    95
370
    13
100
AcDbMText
 10
203.954499
 20
288.907994
 30
0.0
 40
3.5
 41
0.0
 71
     5
 72
     1
  1
\A1;25
  7
cesky
 11
0.0
 21
1.0
 31
0.0
 73
     1
 44
1.0
  0
POINT
  5
22A
330
221
100
AcDbEntity
  8
Defpoints
 62
     0
100
AcDbPoint
 10
220.404842
 20
301.407994
 30
0.0
  0
POINT
  5
22B
330
221
100
AcDbEntity
  8
Defpoints
 62
     0
100
AcDbPoint
 10
220.404842
 20
276.407994
 30
0.0
  0
POINT
  5
22C
330
221
100
AcDbEntity
  8
Defpoints
 62
     0
100
AcDbPoint
 10
209.204499
 20
276.407994
 30
0.0
  0
ENDBLK
  5
223
330
221
100
AcDbEntity
  8
0
100
AcDbBlockEnd
  0
BLOCK
  5
235
330
22D
100
AcDbEntity
  8
0
100
AcDbBlockBegin
  2
_U2
 70
     0
 10
0.0
 20
0.0
 30
0.0
  3
_U2
  1

  0
ENDBLK
  5
236
330
22D
100
AcDbEntity
  8
0
100
AcDbBlockEnd
  0
BLOCK
  5
23B
330
23A
100
AcDbEntity
  8
0
100
AcDbBlockBegin
  2
*D8
 70
     1
 10
0.0
 20
0.0
 30
0.0
  3
*D8
  1

  0
LINE
  5
23D
330
23A
100
AcDbEntity
  8
0
 62
    95
370
    -2
100
AcDbLine
 10
277.154842
 20
306.407994
 30
0.0
 11
193.481277
 21
306.407994
 31
0.0
  0
LINE
  5
23E
330
23A
100
AcDbEntity
  8
0
 62
    95
370
    -2
100
AcDbLine
 10
277.154842
 20
271.407994
 30
0.0
 11
193.481277
 21
271.407994
 31
0.0
  0
LINE
  5
23F
330
23A
100
AcDbEntity
  8
0
 62
    95
370
    -2
100
AcDbLine
 10
194.481277
 20
302.907994
 30
0.0
 11
194.481277
 21
274.907994
 31
0.0
  0
SOLID
  5
240
330
23A
100
AcDbEntity
  8
0
 62
    95
100
AcDbTrace
 10
195.064611
 20
302.907994
 30
0.0
 11
193.897944
 21
302.907994
 31
0.0
 12
194.481277
 22
306.407994
 32
0.0
 13
194.481277
 23
306.407994
 33
0.0
  0
SOLID
  5
241
330
23A
100
AcDbEntity
  8
0
 62
    95
100
AcDbTrace
 10
193.897944
 20
274.907994
 30
0.0
 11
195.064611
 21
274.907994
 31
0.0
 12
194.481277
 22
271.407994
 32
0.0
 13
194.481277
 23
271.407994
 33
0.0
  0
MTEXT
  5
242
330
23A
100
AcDbEntity
  8
0
 62
    95
370
    13
100
AcDbMText
 10
189.231277
 20
288.907994
 30
0.0
 40
3.5
 41
0.0
 71
     5
 72
     1
  1
\A1;35
  7
cesky
 11
0.0
 21
1.0
 31
0.0
 73
     1
 44
1.0
  0
POINT
  5
243
330
23A
100
AcDbEntity
  8
Defpoints
 62
     0
100
AcDbPoint
 10
277.154842
 20
306.407994
 30
0.0
  0
POINT
  5
244
330
23A
100
AcDbEntity
  8
Defpoints
 62
     0
100
AcDbPoint
 10
277.154842
 20
271.407994
 30
0.0
  0
POINT
  5
245
330
23A
100
AcDbEntity
  8
Defpoints
 62
     0
100
AcDbPoint
 10
194.481277
 20
271.407994
 30
0.0
  0
ENDBLK
  5
23C
330
23A
100
AcDbEntity
  8
0
100
AcDbBlockEnd
  0
BLOCK
  5
24E
330
246
100
AcDbEntity
  8
0
100
AcDbBlockBegin
  2
_U3
 70
     0
 10
0.0
 20
0.0
 30
0.0
  3
_U3
  1

  0
ENDBLK
  5
24F
330
246
100
AcDbEntity
  8
0
100
AcDbBlockEnd
  0
BLOCK
  5
254
330
253
100
AcDbEntity
  8
0
100
AcDbBlockBegin
  2
*D10
 70
     1
 10
0.0
 20
0.0
 30
0.0
  3
*D10
  1

  0
LINE
  5
256
330
253
100
AcDbEntity
  8
0
 62
   254
370
    -2
100
AcDbLine
 10
367.404842
 20
299.407994
 30
0.0
 11
367.404842
 21
338.155501
 31
0.0
  0
LINE
  5
257
330
253
100
AcDbEntity
  8
0
 62
   254
370
    -2
100
AcDbLine
 10
218.404842
 20
299.407994
 30
0.0
 11
218.404842
 21
338.155501
 31
0.0
  0
LINE
  5
258
330
253
100
AcDbEntity
  8
0
 62
   254
370
    -2
100
AcDbLine
 10
363.904842
 20
337.155501
 30
0.0
 11
221.904842
 21
337.155501
 31
0.0
  0
SOLID
  5
259
330
253
100
AcDbEntity
  8
0
 62
   254
100
AcDbTrace
 10
363.904842
 20
336.572167
 30
0.0
 11
363.904842
 21
337.738834
 31
0.0
 12
367.404842
 22
337.155501
 32
0.0
 13
367.404842
 23
337.155501
 33
0.0
  0
SOLID
  5
25A
330
253
100
AcDbEntity
  8
0
 62
   254
100
AcDbTrace
 10
221.904842
 20
337.738834
 30
0.0
 11
221.904842
 21
336.572167
 31
0.0
 12
218.404842
 22
337.155501
 32
0.0
 13
218.404842
 23
337.155501
 33
0.0
  0
MTEXT
  5
25B
330
253
100
AcDbEntity
  8
0
 62
   254
370
    13
100
AcDbMText
 10
292.904842
 20
342.405501
 30
0.0
 40
3.5
 41
0.0
 71
     5
 72
     1
  1
\A1;149
  7
cesky
 73
     1
 44
1.0
  0
POINT
  5
25C
330
253
100
AcDbEntity
  8
Defpoints
 62
     0
100
AcDbPoint
 10
367.404842
 20
299.407994
 30
0.0
  0
POINT
  5
25D
330
253
100
AcDbEntity
  8
Defpoints
 62
     0
100
AcDbPoint
 10
218.404842
 20
299.407994
 30
0.0
  0
POINT
  5
25E
330
253
100
AcDbEntity
  8
Defpoints
 62
     0
100
AcDbPoint
 10
218.404842
 20
337.155501
 30
0.0
  0
ENDBLK
  5
255
330
253
100
AcDbEntity
  8
0
100
AcDbBlockEnd
  0
BLOCK
  5
266
330
25F
100
AcDbEntity
  8
0
100
AcDbBlockBegin
  2
_U4
 70
     0
 10
0.0
 20
0.0
 30
0.0
  3
_U4
  1

  0
ENDBLK
  5
267
330
25F
100
AcDbEntity
  8
0
100
AcDbBlockEnd
  0
BLOCK
  5
26C
330
26B
100
AcDbEntity
  8
0
100
AcDbBlockBegin
  2
*D12
 70
     1
 10
0.0
 20
0.0
 30
0.0
  3
*D12
  1

  0
LINE
  5
26E
330
26B
100
AcDbEntity
  8
0
 62
   254
370
    -2
100
AcDbLine
 10
274.404842
 20
288.907994
 30
0.0
 11
274.404842
 21
323.882273
 31
0.0
  0
LINE
  5
26F
330
26B
100
AcDbEntity
  8
0
 62
   254
370
    -2
100
AcDbLine
 10
218.404842
 20
294.157994
 30
0.0
 11
218.404842
 21
323.882273
 31
0.0
  0
LINE
  5
270
330
26B
100
AcDbEntity
  8
0
 62
   254
370
    -2
100
AcDbLine
 10
270.904842
 20
322.882273
 30
0.0
 11
221.904842
 21
322.882273
 31
0.0
  0
SOLID
  5
271
330
26B
100
AcDbEntity
  8
0
 62
   254
100
AcDbTrace
 10
270.904842
 20
322.29894
 30
0.0
 11
270.904842
 21
323.465606
 31
0.0
 12
274.404842
 22
322.882273
 32
0.0
 13
274.404842
 23
322.882273
 33
0.0
  0
SOLID
  5
272
330
26B
100
AcDbEntity
  8
0
 62
   254
100
AcDbTrace
 10
221.904842
 20
323.465606
 30
0.0
 11
221.904842
 21
322.29894
 31
0.0
 12
218.404842
 22
322.882273
 32
0.0
 13
218.404842
 23
322.882273
 33
0.0
  0
MTEXT
  5
273
330
26B
100
AcDbEntity
  8
0
 62
   254
370
    13
100
AcDbMText
 10
246.404842
 20
328.132273
 30
0.0
 40
3.5
 41
0.0
 71
     5
 72
     1
  1
\A1;56
  7
cesky
 73
     1
 44
1.0
  0
POINT
  5
274
330
26B
100
AcDbEntity
  8
Defpoints
 62
     0
100
AcDbPoint
 10
274.404842
 20
288.907994
 30
0.0
  0
POINT
  5
275
330
26B
100
AcDbEntity
  8
Defpoints
 62
     0
100
AcDbPoint
 10
218.404842
 20
294.157994
 30
0.0
  0
POINT
  5
276
330
26B
100
AcDbEntity
  8
Defpoints
 62
     0
100
AcDbPoint
 10
218.404842
 20
322.882273
 30
0.0
  0
ENDBLK
  5
26D
330
26B
100
AcDbEntity
  8
0
100
AcDbBlockEnd
  0
BLOCK
  5
27E
330
277
100
AcDbEntity
  8
0
100
AcDbBlockBegin
  2
_U5
 70
     0
 10
0.0
 20
0.0
 30
0.0
  3
_U5
  1

  0
ENDBLK
  5
27F
330
277
100
AcDbEntity
  8
0
100
AcDbBlockEnd
  0
BLOCK
  5
284
330
283
100
AcDbEntity
  8
0
100
AcDbBlockBegin
  2
*D14
 70
     1
 10
0.0
 20
0.0
 30
0.0
  3
*D14
  1

  0
LINE
  5
286
330
283
100
AcDbEntity
  8
0
 62
   254
370
    -2
100
AcDbLine
 10
367.404842
 20
297.407994
 30
0.0
 11
367.404842
 21
310.622922
 31
0.0
  0
LINE
  5
287
330
283
100
AcDbEntity
  8
0
 62
   254
370
    -2
100
AcDbLine
 10
294.407492
 20
297.160265
 30
0.0
 11
294.407492
 21
310.622922
 31
0.0
  0
LINE
  5
288
330
283
100
AcDbEntity
  8
0
 62
   254
370
    -2
100
AcDbLine
 10
363.904842
 20
309.622922
 30
0.0
 11
297.907492
 21
309.622922
 31
0.0
  0
SOLID
  5
289
330
283
100
AcDbEntity
  8
0
 62
   254
100
AcDbTrace
 10
363.904842
 20
309.039589
 30
0.0
 11
363.904842
 21
310.206255
 31
0.0
 12
367.404842
 22
309.622922
 32
0.0
 13
367.404842
 23
309.622922
 33
0.0
  0
SOLID
  5
28A
330
283
100
AcDbEntity
  8
0
 62
   254
100
AcDbTrace
 10
297.907492
 20
310.206255
 30
0.0
 11
297.907492
 21
309.039589
 31
0.0
 12
294.407492
 22
309.622922
 32
0.0
 13
294.407492
 23
309.622922
 33
0.0
  0
MTEXT
  5
28B
330
283
100
AcDbEntity
  8
0
 62
   254
370
    13
100
AcDbMText
 10
330.906167
 20
314.872922
 30
0.0
 40
3.5
 41
0.0
 71
     5
 72
     1
  1
\A1;73
  7
cesky
 73
     1
 44
1.0
  0
POINT
  5
28C
330
283
100
AcDbEntity
  8
Defpoints
 62
     0
100
AcDbPoint
 10
367.404842
 20
297.407994
 30
0.0
  0
POINT
  5
28D
330
283
100
AcDbEntity
  8
Defpoints
 62
     0
100
AcDbPoint
 10
294.407492
 20
297.160265
 30
0.0
  0
POINT
  5
28E
330
283
100
AcDbEntity
  8
Defpoints
 62
     0
100
AcDbPoint
 10
294.407492
 20
309.622922
 30
0.0
  0
ENDBLK
  5
285
330
283
100
AcDbEntity
  8
0
100
AcDbBlockEnd
  0
BLOCK
  5
296
330
28F
100
AcDbEntity
  8
0
100
AcDbBlockBegin
  2
_U6
 70
     0
 10
0.0
 20
0.0
 30
0.0
  3
_U6
  1

  0
ENDBLK
  5
297
330
28F
100
AcDbEntity
  8
0
100
AcDbBlockEnd
  0
ENDSEC
  0
SECTION
  2
ENTITIES
  0
POINT
  5
73
102
{ACAD_REACTORS
330
340
102
}
330
1F
100
AcDbEntity
  8
80
100
AcDbPoint
 10
274.404842
 20
288.907994
 30
0.0
  0
POINT
  5
76
330
1F
100
AcDbEntity
  8
SK4
 60
     1
100
AcDbPoint
 10
220.404842
 20
288.907994
 30
0.0
  0
POINT
  5
78
330
1F
100
AcDbEntity
  8
SK4
 60
     1
100
AcDbPoint
 10
274.404842
 20
288.907994
 30
0.0
  0
POINT
  5
79
330
1F
100
AcDbEntity
  8
4
 60
     1
100
AcDbPoint
 10
294.289618
 20
288.907994
 30
0.0
  0
POINT
  5
7A
330
1F
100
AcDbEntity
  8
4
 60
     1
100
AcDbPoint
 10
366.76008
 20
288.907994
 30
0.0
  0
POINT
  5
7B
330
1F
100
AcDbEntity
  8
SK6
 60
     1
100
AcDbPoint
 10
274.404842
 20
288.907994
 30
0.0
  0
POINT
  5
7C
330
1F
100
AcDbEntity
  8
SK6
 60
     1
100
AcDbPoint
 10
294.407492
 20
297.160265
 30
0.0
  0
LINE
  5
7D
330
1F
100
AcDbEntity
  8
1
100
AcDbLine
 10
358.874634
 20
290.132125
 30
0.0
 11
358.884353
 21
289.848055
 31
0.0
  0
LINE
  5
7F
330
1F
100
AcDbEntity
  8
1
100
AcDbLine
 10
363.63775
 20
295.005991
 30
0.0
 11
363.657047
 21
295.068602
 31
0.0
  0
LINE
  5
81
330
1F
100
AcDbEntity
  8
1
100
AcDbLine
 10
363.174586
 20
294.304212
 30
0.0
 11
363.155839
 21
294.243386
 31
0.0
  0
LINE
  5
82
330
1F
100
AcDbEntity
  8
1
100
AcDbLine
 10
363.244652
 20
294.292753
 30
0.0
 11
363.22547
 21
294.230517
 31
0.0
  0
LINE
  5
83
330
1F
100
AcDbEntity
  8
1
100
AcDbLine
 10
364.98925
 20
293.839433
 30
0.0
 11
365.007965
 21
293.900156
 31
0.0
  0
LINE
  5
84
330
1F
100
AcDbEntity
  8
1
100
AcDbLine
 10
364.913224
 20
293.856872
 30
0.0
 11
364.9324200000001
 21
293.919153
 31
0.0
  0
LINE
  5
85
330
1F
100
AcDbEntity
  8
1
100
AcDbLine
 10
363.715007
 20
293.518557
 30
0.0
 11
363.695985
 21
293.456837
 31
0.0
  0
LINE
  5
86
330
1F
100
AcDbEntity
  8
1
100
AcDbLine
 10
364.160755
 20
293.365316
 30
0.0
 11
364.179854
 21
293.427284
 31
0.0
  0
LINE
  5
87
330
1F
100
AcDbEntity
  8
1
100
AcDbLine
 10
367.404842
 20
288.275032
 30
0.0
 11
367.346922
 21
284.9568109999999
 31
0.0
  0
LINE
  5
89
330
1F
100
AcDbEntity
  8
1
100
AcDbLine
 10
366.9795759999999
 20
285.062146
 30
0.0
 11
367.346922
 21
284.9568109999999
 31
0.0
  0
LINE
  5
8A
330
1F
100
AcDbEntity
  8
1
100
AcDbLine
 10
367.346922
 20
284.9568109999999
 30
0.0
 11
366.9321930000001
 21
284.266587
 31
0.0
  0
LINE
  5
8B
330
1F
100
AcDbEntity
  8
1
100
AcDbLine
 10
367.034043
 20
288.182581
 30
0.0
 11
367.404842
 21
288.275032
 31
0.0
  0
LINE
  5
8C
330
1F
100
AcDbEntity
  8
1
100
AcDbLine
 10
367.001209
 20
289.003204
 30
0.0
 11
367.404842
 21
288.275032
 31
0.0
  0
LINE
  5
8D
330
1F
100
AcDbEntity
  8
1
100
AcDbLine
 10
366.66673
 20
284.541483
 30
0.0
 11
366.9321930000001
 21
284.266587
 31
0.0
  0
LINE
  5
8E
330
1F
100
AcDbEntity
  8
1
100
AcDbLine
 10
366.9321930000001
 20
284.266587
 30
0.0
 11
366.284074
 21
283.907328
 31
0.0
  0
LINE
  5
8F
330
1F
100
AcDbEntity
  8
1
100
AcDbLine
 10
366.726313
 20
288.737741
 30
0.0
 11
367.001209
 21
289.003204
 31
0.0
  0
LINE
  5
90
330
1F
100
AcDbEntity
  8
1
100
AcDbLine
 10
366.556456
 20
289.270439
 30
0.0
 11
367.001209
 21
289.003204
 31
0.0
  0
LINE
  5
91
330
1F
100
AcDbEntity
  8
1
100
AcDbLine
 10
366.122024
 20
284.191823
 30
0.0
 11
366.177708
 21
283.9684870000001
 31
0.0
  0
LINE
  5
92
330
1F
100
AcDbEntity
  8
1
100
AcDbLine
 10
366.2471
 20
284.976021
 30
0.0
 11
366.3988970000001
 21
285.228653
 31
0.0
  0
LINE
  5
93
330
1F
100
AcDbEntity
  8
1
100
AcDbLine
 10
366.9795759999999
 20
285.062146
 30
0.0
 11
366.66673
 21
284.541483
 31
0.0
  0
LINE
  5
94
330
1F
100
AcDbEntity
  8
1
100
AcDbLine
 10
366.447907
 20
288.036441
 30
0.0
 11
366.326302
 21
288.255823
 31
0.0
  0
LINE
  5
95
330
1F
100
AcDbEntity
  8
1
100
AcDbLine
 10
366.726313
 20
288.737741
 30
0.0
 11
367.034043
 21
288.182581
 31
0.0
  0
LINE
  5
96
330
1F
100
AcDbEntity
  8
1
100
AcDbLine
 10
366.726313
 20
288.737741
 30
0.0
 11
366.326307
 21
288.351459
 31
0.0
  0
LINE
  5
97
330
1F
100
AcDbEntity
  8
1
100
AcDbLine
 10
366.3293240000001
 20
288.976276
 30
0.0
 11
366.726313
 21
288.737741
 31
0.0
  0
LINE
  5
98
330
1F
100
AcDbEntity
  8
1
100
AcDbLine
 10
367.034043
 20
288.182581
 30
0.0
 11
366.447907
 21
288.036441
 31
0.0
  0
LINE
  5
99
330
1F
100
AcDbEntity
  8
1
100
AcDbLine
 10
366.3988970000001
 20
285.228653
 30
0.0
 11
366.447907
 21
288.036441
 31
0.0
  0
LINE
  5
9A
330
1F
100
AcDbEntity
  8
1
100
AcDbLine
 10
366.9795759999999
 20
285.062146
 30
0.0
 11
366.3988970000001
 21
285.228653
 31
0.0
  0
LINE
  5
9B
330
1F
100
AcDbEntity
  8
1
100
AcDbLine
 10
367.034043
 20
288.182581
 30
0.0
 11
366.9795759999999
 21
285.062146
 31
0.0
  0
LINE
  5
9C
330
1F
100
AcDbEntity
  8
1
100
AcDbLine
 10
366.66673
 20
284.541483
 30
0.0
 11
366.2471
 21
284.976021
 31
0.0
  0
LINE
  5
9D
330
1F
100
AcDbEntity
  8
1
100
AcDbLine
 10
366.201113
 20
284.95053
 30
0.0
 11
366.2471
 21
284.976021
 31
0.0
  0
LINE
  5
9E
330
1F
100
AcDbEntity
  8
1
100
AcDbLine
 10
366.66673
 20
284.541483
 30
0.0
 11
366.126074
 21
284.241792
 31
0.0
  0
LINE
  5
9F
330
1F
100
AcDbEntity
  8
1
100
AcDbLine
 10
366.500871
 20
291.520881
 30
0.0
 11
362.932676
 21
291.365309
 31
0.0
  0
LINE
  5
A0
330
1F
100
AcDbEntity
  8
1
100
AcDbLine
 10
361.420814
 20
296.907994
 30
0.0
 11
350.979868
 21
296.907994
 31
0.0
  0
LINE
  5
A1
330
1F
100
AcDbEntity
  8
1
100
AcDbLine
 10
362.679355
 20
294.773758
 30
0.0
 11
362.666372
 21
294.731634
 31
0.0
  0
LINE
  5
A2
330
1F
100
AcDbEntity
  8
1
100
AcDbLine
 10
365.581076
 20
293.833302
 30
0.0
 11
365.594059
 21
293.875426
 31
0.0
  0
LINE
  5
A3
330
1F
100
AcDbEntity
  8
1
100
AcDbLine
 10
363.378539
 20
293.824782
 30
0.0
 11
363.397903
 21
293.88761
 31
0.0
  0
LINE
  5
A4
330
1F
100
AcDbEntity
  8
1
100
AcDbLine
 10
364.630136
 20
293.458113
 30
0.0
 11
364.624023
 21
293.451406
 31
0.0
  0
LINE
  5
A5
330
1F
100
AcDbEntity
  8
1
100
AcDbLine
 10
364.630165
 20
293.639019
 30
0.0
 11
364.610703
 21
293.575873
 31
0.0
  0
LINE
  5
A6
330
1F
100
AcDbEntity
  8
1
100
AcDbLine
 10
363.631326
 20
294.971482
 30
0.0
 11
363.650788
 21
295.034629
 31
0.0
  0
LINE
  5
A7
330
1F
100
AcDbEntity
  8
1
100
AcDbLine
 10
364.882854
 20
294.785402
 30
0.0
 11
364.86349
 21
294.722574
 31
0.0
  0
LINE
  5
A8
330
1F
100
AcDbEntity
  8
1
100
AcDbLine
 10
366.89257
 20
296.90958
 30
0.0
 11
367.105855
 21
292.139589
 31
0.0
  0
LINE
  5
A9
330
1F
100
AcDbEntity
  8
1
100
AcDbLine
 10
361.712148
 20
297.070384
 30
0.0
 11
366.488855
 21
297.278646
 31
0.0
  0
LINE
  5
AA
330
1F
100
AcDbEntity
  8
1
100
AcDbLine
 10
361.556229
 20
291.897628
 30
0.0
 11
361.342944
 21
296.667619
 31
0.0
  0
LINE
  5
AB
330
1F
100
AcDbEntity
  8
1
100
AcDbLine
 10
366.736651
 20
291.736824
 30
0.0
 11
361.959944
 21
291.528561
 31
0.0
  0
LINE
  5
AC
330
1F
100
AcDbEntity
  8
1
100
AcDbLine
 10
362.456416
 20
292.469272
 30
0.0
 11
362.291397
 21
296.159831
 31
0.0
  0
LINE
  5
AD
330
1F
100
AcDbEntity
  8
1
100
AcDbLine
 10
366.152171
 20
292.630405
 30
0.0
 11
362.456416
 21
292.469272
 31
0.0
  0
LINE
  5
AE
330
1F
100
AcDbEntity
  8
1
100
AcDbLine
 10
365.987152
 20
296.320964
 30
0.0
 11
366.152171
 21
292.630405
 31
0.0
  0
LINE
  5
AF
330
1F
100
AcDbEntity
  8
1
100
AcDbLine
 10
362.291397
 20
296.159831
 30
0.0
 11
365.987152
 21
296.320964
 31
0.0
  0
LINE
  5
B0
330
1F
100
AcDbEntity
  8
1
100
AcDbLine
 10
366.120594
 20
280.907994
 30
0.0
 11
355.69797
 21
280.907994
 31
0.0
  0
LINE
  5
B1
330
1F
100
AcDbEntity
  8
1
100
AcDbLine
 10
274.904842
 20
271.407994
 30
0.0
 11
274.904842
 21
288.907994
 31
0.0
  0
LINE
  5
B2
330
1F
100
AcDbEntity
  8
1
100
AcDbLine
 10
274.904842
 20
288.907994
 30
0.0
 11
274.904842
 21
306.407994
 31
0.0
  0
LINE
  5
B3
330
1F
100
AcDbEntity
  8
1
100
AcDbLine
 10
279.404842
 20
271.407994
 30
0.0
 11
285.09723
 21
277.100382
 31
0.0
  0
LINE
  5
B4
330
1F
100
AcDbEntity
  8
1
100
AcDbLine
 10
285.09723
 20
300.715605
 30
0.0
 11
279.404842
 21
306.407994
 31
0.0
  0
LINE
  5
B5
330
1F
100
AcDbEntity
  8
SK1
100
AcDbLine
 10
218.404842
 20
278.407994
 30
0.0
 11
220.404842
 21
276.407994
 31
0.0
  0
LINE
  5
B6
330
1F
100
AcDbEntity
  8
SK1
100
AcDbLine
 10
220.404842
 20
301.407994
 30
0.0
 11
218.404842
 21
299.407994
 31
0.0
  0
LINE
  5
B7
330
1F
100
AcDbEntity
  8
SK1
100
AcDbLine
 10
274.404842
 20
301.407994
 30
0.0
 11
220.404842
 21
301.407994
 31
0.0
  0
LINE
  5
B8
330
1F
100
AcDbEntity
  8
1
100
AcDbLine
 10
274.904842
 20
271.407994
 30
0.0
 11
274.404842
 21
271.907994
 31
0.0
  0
LINE
  5
B9
330
1F
100
AcDbEntity
  8
1
100
AcDbLine
 10
274.404842
 20
305.907994
 30
0.0
 11
274.904842
 21
306.407994
 31
0.0
  0
LINE
  5
BA
330
1F
100
AcDbEntity
  8
1
100
AcDbLine
 10
279.404842
 20
306.407994
 30
0.0
 11
274.904842
 21
306.407994
 31
0.0
  0
LINE
  5
BB
330
1F
100
AcDbEntity
  8
1
100
AcDbLine
 10
365.620479
 20
286.129994
 30
0.0
 11
365.768592
 21
286.129994
 31
0.0
  0
LINE
  5
BC
330
1F
100
AcDbEntity
  8
1
100
AcDbLine
 10
361.365565
 20
296.797914
 30
0.0
 11
361.364363
 21
296.825688
 31
0.0
  0
LINE
  5
BD
330
1F
100
AcDbEntity
  8
1
100
AcDbLine
 10
366.422153
 20
291.04516
 30
0.0
 11
362.493922
 21
290.873891
 31
0.0
  0
LINE
  5
BE
330
1F
100
AcDbEntity
  8
1
100
AcDbLine
 10
366.422153
 20
291.04516
 30
0.0
 11
365.5547279999999
 21
289.599902
 31
0.0
  0
LINE
  5
BF
330
1F
100
AcDbEntity
  8
1
100
AcDbLine
 10
366.247122
 20
283.967374
 30
0.0
 11
366.139112
 21
283.969103
 31
0.0
  0
LINE
  5
C0
330
1F
100
AcDbEntity
  8
81
100
AcDbLine
 10
365.404842
 20
297.407994
 30
0.0
 11
369.404842
 21
297.407994
 31
0.0
  0
LINE
  5
C1
330
1F
100
AcDbEntity
  8
SK1
100
AcDbLine
 10
220.404842
 20
276.407994
 30
0.0
 11
274.404842
 21
276.407994
 31
0.0
  0
LINE
  5
C2
330
1F
100
AcDbEntity
  8
81
100
AcDbLine
 10
367.404842
 20
299.407994
 30
0.0
 11
367.404842
 21
295.407994
 31
0.0
  0
LINE
  5
C3
330
1F
100
AcDbEntity
  8
80
100
AcDbLine
 10
274.404842
 20
287.90842
 30
0.0
 11
274.404842
 21
289.907567
 31
0.0
  0
LINE
  5
C4
330
1F
100
AcDbEntity
  8
1
100
AcDbLine
 10
274.904842
 20
271.407994
 30
0.0
 11
279.404842
 21
271.407994
 31
0.0
  0
LINE
  5
C5
330
1F
100
AcDbEntity
  8
1
100
AcDbLine
 10
274.404842
 20
305.907994
 30
0.0
 11
274.404842
 21
288.907994
 31
0.0
  0
LINE
  5
C6
330
1F
100
AcDbEntity
  8
1
100
AcDbLine
 10
274.404842
 20
288.907994
 30
0.0
 11
274.404842
 21
271.907994
 31
0.0
  0
LINE
  5
CB
330
1F
100
AcDbEntity
  8
80
100
AcDbLine
 10
275.404416
 20
288.907994
 30
0.0
 11
273.405268
 21
288.907994
 31
0.0
  0
LINE
  5
CC
330
1F
100
AcDbEntity
  8
1
100
AcDbLine
 10
366.128813
 20
284.269306
 30
0.0
 11
366.326301
 21
286.129994
 31
0.0
  0
LINE
  5
CD
330
1F
100
AcDbEntity
  8
1
100
AcDbLine
 10
366.326301
 20
286.129994
 30
0.0
 11
366.326301
 21
288.864887
 31
0.0
  0
LINE
  5
CE
330
1F
100
AcDbEntity
  8
1
100
AcDbLine
 10
366.368463
 20
289.164197
 30
0.0
 11
366.476656
 21
289.162309
 31
0.0
  0
LINE
  5
CF
330
1F
100
AcDbEntity
  8
1
100
AcDbLine
 10
279.404842
 20
271.407994
 30
0.0
 11
279.404842
 21
273.114755
 31
0.0
  0
LINE
  5
D0
330
1F
100
AcDbEntity
  8
1
100
AcDbLine
 10
279.404842
 20
306.407994
 30
0.0
 11
279.404842
 21
278.085866
 31
0.0
  0
LINE
  5
D1
330
1F
100
AcDbEntity
  8
1
100
AcDbLine
 10
366.422153
 20
291.04516
 30
0.0
 11
366.434896
 21
291.050798
 31
0.0
  0
LINE
  5
D2
330
1F
100
AcDbEntity
  8
1
100
AcDbLine
 10
366.543366
 20
291.53968
 30
0.0
 11
362.937971
 21
291.382487
 31
0.0
  0
LINE
  5
D3
330
1F
100
AcDbEntity
  8
1
100
AcDbLine
 10
362.932676
 20
291.365309
 30
0.0
 11
362.937971
 21
291.382487
 31
0.0
  0
LINE
  5
D4
330
1F
100
AcDbEntity
  8
1
100
AcDbLine
 10
366.476656
 20
289.162309
 30
0.0
 11
366.63268
 21
289.373738
 31
0.0
  0
LINE
  5
D5
330
1F
100
AcDbEntity
  8
1
100
AcDbLine
 10
366.63268
 20
289.612348
 30
0.0
 11
366.63268
 21
289.373738
 31
0.0
  0
LINE
  5
D6
330
1F
100
AcDbEntity
  8
1
100
AcDbLine
 10
366.63268
 20
289.612348
 30
0.0
 11
366.674842
 21
289.611613
 31
0.0
  0
LINE
  5
D7
330
1F
100
AcDbEntity
  8
1
100
AcDbLine
 10
366.674842
 20
291.734121
 30
0.0
 11
366.674842
 21
289.611613
 31
0.0
  0
LINE
  5
D8
330
1F
100
AcDbEntity
  8
1
100
AcDbLine
 10
366.543366
 20
291.53968
 30
0.0
 11
366.541867
 21
291.728329
 31
0.0
  0
LINE
  5
D9
330
1F
100
AcDbEntity
  8
1
100
AcDbLine
 10
366.543366
 20
291.53968
 30
0.0
 11
366.500871
 21
291.520881
 31
0.0
  0
LINE
  5
DA
330
1F
100
AcDbEntity
  8
1
100
AcDbLine
 10
366.120594
 20
280.907994
 30
0.0
 11
366.396999
 21
283.512224
 31
0.0
  0
LINE
  5
DB
330
1F
100
AcDbEntity
  8
1
100
AcDbLine
 10
366.396999
 20
283.512224
 30
0.0
 11
366.354909
 21
283.512897
 31
0.0
  0
LINE
  5
DC
330
1F
100
AcDbEntity
  8
1
100
AcDbLine
 10
366.38019
 20
283.751098
 30
0.0
 11
366.354909
 21
283.512897
 31
0.0
  0
LINE
  5
DD
330
1F
100
AcDbEntity
  8
1
100
AcDbLine
 10
366.38019
 20
283.751098
 30
0.0
 11
366.247122
 21
283.967374
 31
0.0
  0
LINE
  5
DE
330
1F
100
AcDbEntity
  8
1
100
AcDbLine
 10
366.07567
 20
286.129994
 30
0.0
 11
366.326301
 21
286.129994
 31
0.0
  0
LINE
  5
DF
330
1F
100
AcDbEntity
  8
SK1
100
AcDbLine
 10
220.404842
 20
301.407994
 30
0.0
 11
220.404842
 21
276.407994
 31
0.0
  0
LINE
  5
E0
330
1F
100
AcDbEntity
  8
SK1
100
AcDbLine
 10
218.404842
 20
299.407994
 30
0.0
 11
218.404842
 21
278.407994
 31
0.0
  0
LINE
  5
E1
330
1F
100
AcDbEntity
  8
1
100
AcDbLine
 10
361.311507
 20
292.859213
 30
0.0
 11
361.306276
 21
292.842241
 31
0.0
  0
LINE
  5
E2
330
1F
100
AcDbEntity
  8
1
100
AcDbLine
 10
361.311507
 20
292.859213
 30
0.0
 11
361.1399120000001
 21
296.826249
 31
0.0
  0
LINE
  5
E3
330
1F
100
AcDbEntity
  8
1
100
AcDbLine
 10
361.1360509999999
 20
296.777615
 30
0.0
 11
361.306276
 21
292.842241
 31
0.0
  0
LINE
  5
E4
330
1F
100
AcDbEntity
  8
1
100
AcDbLine
 10
288.904842
 20
296.575536
 30
0.0
 11
288.904842
 21
286.608768
 31
0.0
  0
LINE
  5
112
330
1F
100
AcDbEntity
  8
NOCUT
100
AcDbLine
 10
218.404842
 20
299.407994
 30
0.0
 11
218.404842
 21
288.907994
 31
0.0
  0
LINE
  5
113
330
1F
100
AcDbEntity
  8
NOCUT
100
AcDbLine
 10
279.404842
 20
306.407994
 30
0.0
 11
274.904842
 21
306.407994
 31
0.0
  0
LINE
  5
114
330
1F
100
AcDbEntity
  8
NOCUT
100
AcDbLine
 10
274.404842
 20
301.407994
 30
0.0
 11
220.404842
 21
301.407994
 31
0.0
  0
LINE
  5
115
330
1F
100
AcDbEntity
  8
NOCUT
100
AcDbLine
 10
274.404842
 20
301.407994
 30
0.0
 11
274.404842
 21
305.907994
 31
0.0
  0
LINE
  5
116
330
1F
100
AcDbEntity
  8
NOCUT
100
AcDbLine
 10
274.404842
 20
305.907994
 30
0.0
 11
274.904842
 21
306.407994
 31
0.0
  0
LINE
  5
117
330
1F
100
AcDbEntity
  8
NOCUT
100
AcDbLine
 10
279.404842
 20
306.407994
 30
0.0
 11
285.09723
 21
300.715605
 31
0.0
  0
LINE
  5
118
330
1F
100
AcDbEntity
  8
NOCUT
100
AcDbLine
 10
294.289618
 20
296.907994
 30
0.0
 11
366.456942
 21
296.907994
 31
0.0
  0
LINE
  5
119
330
1F
100
AcDbEntity
  8
NOCUT
100
AcDbLine
 10
366.456942
 20
296.907994
 30
0.0
 11
366.674842
 21
291.9583839999999
 31
0.0
  0
LINE
  5
11A
330
1F
100
AcDbEntity
  8
NOCUT
100
AcDbLine
 10
366.674842
 20
291.9583839999999
 30
0.0
 11
366.674842
 21
288.907994
 31
0.0
  0
LINE
  5
11B
330
1F
100
AcDbEntity
  8
NOCUT
100
AcDbLine
 10
366.674842
 20
288.907994
 30
0.0
 11
218.404842
 21
288.907994
 31
0.0
  0
LINE
  5
11C
330
1F
100
AcDbEntity
  8
NOCUT
100
AcDbLine
 10
218.404842
 20
299.407994
 30
0.0
 11
220.404842
 21
301.407994
 31
0.0
  0
CIRCLE
  5
125
330
1F
100
AcDbEntity
  8
1
100
AcDbCircle
 10
364.500153
 20
286.771133
 30
0.0
 40
0.7
  0
ARC
  5
126
330
1F
100
AcDbEntity
  8
1
100
AcDbCircle
 10
294.289618
 20
267.907994
 30
0.0
 40
13.0
100
AcDbArc
 50
114.004617
 51
135.0
  0
ARC
  5
127
330
1F
100
AcDbEntity
  8
1
100
AcDbCircle
 10
294.289618
 20
309.907994
 30
0.0
 40
13.0
100
AcDbArc
 50
225.0
 51
251.609816
  0
ARC
  5
128
330
1F
100
AcDbEntity
  8
1
100
AcDbCircle
 10
364.500153
 20
286.771133
 30
0.0
 40
1.1
100
AcDbArc
 50
75.0
 51
345.0
  0
ARC
  5
137
330
1F
100
AcDbEntity
  8
NOCUT
100
AcDbCircle
 10
294.289618
 20
309.907994
 30
0.0
 40
13.0
100
AcDbArc
 50
225.0
 51
270.0
  0
ELLIPSE
  5
138
330
1F
100
AcDbEntity
  8
1
100
AcDbEllipse
 10
361.931884
 20
303.474723
 30
0.0
 11
-12.04107262573429
 21
3.711141336811679
 31
0.0
210
0.0
220
0.0
230
1.0
 40
0.9982459999999997
 41
1.662522036580485
 42
1.913323403958023
  0
ELLIPSE
  5
139
330
1F
100
AcDbEntity
  8
1
100
AcDbEllipse
 10
362.0272799999999
 20
290.152479
 30
0.0
 11
-1.229166318522961
 21
-0.0591637581374856
 31
0.0
210
0.0
220
0.0
230
1.0
 40
0.221493
 41
1.978212092860479
 42
4.298817382789708
  0
ELLIPSE
  5
13A
330
1F
100
AcDbEntity
  8
1
100
AcDbEllipse
 10
364.136707
 20
294.324592
 30
0.0
 11
-1.45735204398768
 21
0.4491659157649052
 31
0.0
210
0.0
220
0.0
230
0.9999999999999996
 40
0.9982459999999999
 41
3.141666695640186
 42
6.283161002260188
  0
ELLIPSE
  5
13B
330
1F
100
AcDbEntity
  8
1
100
AcDbEllipse
 10
364.546533
 20
293.451488
 30
0.0
 11
-0.080488025133246
 21
0.0248069625086337
 31
0.0
210
0.0
220
0.0
230
1.0
 40
0.9982459999999999
 41
2.64566103241494
 42
4.008288000191074
  0
ELLIPSE
  5
13C
330
1F
100
AcDbEntity
  8
1
100
AcDbEllipse
 10
364.302907
 20
293.699423
 30
0.0
 11
-0.4128001152130106
 21
0.1272278325216234
 31
0.0
210
0.0
220
0.0
230
1.0
 40
0.9982459999999999
 41
1.705723538778845
 42
2.645661032414983
  0
ELLIPSE
  5
13D
330
1F
100
AcDbEntity
  8
1
100
AcDbEllipse
 10
364.246297
 20
293.356931
 30
0.0
 11
-0.0804880251332457
 21
0.0248069625086337
 31
0.0
210
0.0
220
0.0
230
0.9999999999999996
 40
0.9982459999999999
 41
0.3430965710029074
 42
1.705723538778733
  0
ELLIPSE
  5
13E
330
1F
100
AcDbEntity
  8
1
100
AcDbEllipse
 10
364.078042
 20
293.349596
 30
0.0
 11
-0.0804880251332458
 21
0.0248069625086337
 31
0.0
210
0.0
220
0.0
230
0.9999999999999998
 40
0.9982459999999999
 41
3.484689224592683
 42
4.323717416770099
  0
ELLIPSE
  5
13F
330
1F
100
AcDbEntity
  8
1
100
AcDbEllipse
 10
363.857494
 20
293.081422
 30
0.0
 11
-0.4128001152130105
 21
0.1272278325216234
 31
0.0
210
0.0
220
0.0
230
0.9999999999999998
 40
0.9982459999999999
 41
4.323717416770368
 42
5.263654910406431
  0
ELLIPSE
  5
140
330
1F
100
AcDbEntity
  8
1
100
AcDbEllipse
 10
364.121014
 20
294.273678
 30
0.0
 11
1.098986787269399
 21
-0.338715280740749
 31
0.0
210
0.0
220
0.0
230
0.9999999999999998
 40
0.9982459999999999
 41
0.0
 42
6.283185307179585
  0
ELLIPSE
  5
141
330
1F
100
AcDbEntity
  8
1
100
AcDbEllipse
 10
364.1237240000001
 20
294.282468
 30
0.0
 11
1.457352043987681
 21
-0.4491659157649063
 31
0.0
210
0.0
220
0.0
230
1.0
 40
0.9982459999999999
 41
0.0
 42
6.283185307179585
  0
ELLIPSE
  5
142
330
1F
100
AcDbEntity
  8
1
100
AcDbEllipse
 10
364.233989
 20
294.434718
 30
0.0
 11
1.530648770584677
 21
-0.4717564706416988
 31
0.0
210
0.0
220
0.0
230
1.0
 40
0.9982459999999997
 41
2.057817286929511
 42
3.288241685717768
  0
ELLIPSE
  5
143
330
1F
100
AcDbEntity
  8
1
100
AcDbEllipse
 10
364.233989
 20
294.434718
 30
0.0
 11
1.530648770584677
 21
-0.4717564706416988
 31
0.0
210
0.0
220
0.0
230
1.0
 40
0.9982459999999997
 41
5.481858692164946
 42
6.283185307179585
  0
ELLIPSE
  5
144
330
1F
100
AcDbEntity
  8
1
100
AcDbEllipse
 10
364.233989
 20
294.434718
 30
0.0
 11
1.530648770584677
 21
-0.4717564706416988
 31
0.0
210
0.0
220
0.0
230
1.0
 40
0.9982459999999997
 41
0.0
 42
1.083727041570857
  0
ELLIPSE
  5
145
330
1F
100
AcDbEntity
  8
1
100
AcDbEllipse
 10
362.0000490000001
 20
291.947011
 30
0.0
 11
0.7633832147926036
 21
0.8339145967878188
 31
0.0
210
0.0
220
0.0
230
1.0
 40
0.017942
 41
0.9105606123112808
 42
1.532929101187268
  0
ELLIPSE
  5
146
330
1F
100
AcDbEntity
  8
1
100
AcDbEllipse
 10
364.224661
 20
294.404452
 30
0.0
 11
1.557443178832915
 21
-0.4800146914112441
 31
0.0
210
0.0
220
0.0
230
1.0
 40
0.9982459999999999
 41
1.913892982936065
 42
3.508643898507465
  0
ELLIPSE
  5
147
330
1F
100
AcDbEntity
  8
1
100
AcDbEllipse
 10
364.224661
 20
294.404452
 30
0.0
 11
1.557443178832915
 21
-0.4800146914112441
 31
0.0
210
0.0
220
0.0
230
1.0
 40
0.9982459999999999
 41
5.132847102040293
 42
6.283185307179585
  0
ELLIPSE
  5
148
330
1F
100
AcDbEntity
  8
1
100
AcDbEllipse
 10
364.224661
 20
294.404452
 30
0.0
 11
1.557443178832915
 21
-0.4800146914112441
 31
0.0
210
0.0
220
0.0
230
1.0
 40
0.9982459999999999
 41
0.0
 42
1.913893118417955
  0
ELLIPSE
  5
149
330
1F
100
AcDbEntity
  8
1
100
AcDbEllipse
 10
364.221784
 20
294.395118
 30
0.0
 11
-1.648480180904099
 21
0.5080729211111226
 31
0.0
210
0.0
220
0.0
230
1.0
 40
0.9982459999999999
 41
0.0
 42
6.283185307179585
  0
ELLIPSE
  5
14A
330
1F
100
AcDbEntity
  8
1
100
AcDbEllipse
 10
366.627472
 20
292.1487649999999
 30
0.0
 11
0.8343780317434973
 21
-0.7638074530378117
 31
0.0
210
0.0
220
0.0
230
1.0
 40
0.037843
 41
1.588716764222998
 42
2.211085252633515
  0
ELLIPSE
  5
14B
330
1F
100
AcDbEntity
  8
1
100
AcDbEllipse
 10
361.79343
 20
296.567928
 30
0.0
 11
0.8343780312405646
 21
-0.7638074525798921
 31
0.0
210
0.0
220
0.0
230
0.9999999999999998
 40
0.037843
 41
0.9663482755109855
 42
1.588716764273988
  0
ELLIPSE
  5
14C
330
1F
100
AcDbEntity
  8
1
100
AcDbEllipse
 10
366.420853
 20
296.769681
 30
0.0
 11
0.7633832148515153
 21
0.8339145968701519
 31
0.0
210
0.0
220
0.0
230
0.9999999999999998
 40
0.017942
 41
1.532929100575096
 42
2.155297589416103
  0
ELLIPSE
  5
14D
330
1F
100
AcDbEntity
  8
1
100
AcDbEllipse
 10
361.496276
 20
288.907981
 30
0.0
 11
0.3372931645500592
 21
-8.000009548252293
 31
0.0
210
0.0
220
0.0
230
1.0
 40
0.01982
 41
3.28383418188649
 42
3.321542605408291
  0
ELLIPSE
  5
14E
330
1F
100
AcDbEntity
  8
1
100
AcDbEllipse
 10
304.308256
 20
288.9068410000001
 30
0.0
 11
458.7891696492113
 21
-0.4526736484062743
 31
0.0
210
0.0
220
0.0
230
1.0
 40
0.017412
 41
1.446629842165027
 42
1.45125348956925
  0
ELLIPSE
  5
14F
330
1F
100
AcDbEntity
  8
1
100
AcDbEllipse
 10
362.498563
 20
288.907935
 30
0.0
 11
13.71850191843327
 21
-7.892656327202512
 31
0.0
210
0.0
220
0.0
230
1.0
 40
0.095257
 41
4.2354766759207
 42
4.252478621603748
  0
ELLIPSE
  5
150
330
1F
100
AcDbEntity
  8
1
100
AcDbEllipse
 10
313.526943
 20
288.907994
 30
0.0
 11
170.4481929309421
 21
7.801690285245016
 31
0.0
210
0.0
220
0.0
230
1.0
 40
0.010385
 41
5.003601240264972
 42
5.022105133426223
  0
ELLIPSE
  5
151
330
1F
100
AcDbEntity
  8
1
100
AcDbEllipse
 10
366.1709029999999
 20
284.268632
 30
0.0
 11
0.0323262014608664
 21
0.2994966855038405
 31
0.0
210
0.0
220
0.0
230
0.9999999999999996
 40
0.139171
 41
1.583568179242608
 42
3.154364506043654
  0
ELLIPSE
  5
152
330
1F
100
AcDbEntity
  8
1
100
AcDbEllipse
 10
366.368463
 20
288.864151
 30
0.0
 11
0.000105497329368
 21
-0.3000466005998732
 31
0.0
210
0.0
220
0.0
230
0.9999999999999998
 40
0.140519
 41
3.139090475970029
 42
4.709886802763019
  0
ELLIPSE
  5
153
330
1F
100
AcDbEntity
  8
1
100
AcDbEllipse
 10
323.484505
 20
288.907994
 30
0.0
 11
65.15299967323787
 21
-5.037009081369034
 31
0.0
210
0.0
220
0.0
230
0.9999999999999998
 40
0.095394
 41
4.255141484280991
 42
4.326455522347846
  0
ELLIPSE
  5
154
330
1F
100
AcDbEntity
  8
1
100
AcDbEllipse
 10
362.089745
 20
292.082413
 30
0.0
 11
-1.051204753040295
 21
0.323988529404194
 31
0.0
210
0.0
220
0.0
230
0.9999999999999998
 40
0.9982459999999999
 41
2.750044531993739
 42
2.962634814029149
  0
ELLIPSE
  5
155
330
1F
100
AcDbEntity
  8
1
100
AcDbEllipse
 10
366.430927
 20
291.550321
 30
0.0
 11
0.0003744272828584
 21
0.5004816776347685
 31
0.0
210
0.0
220
0.0
230
1.0
 40
0.140039
 41
3.203590848633596
 42
4.653636510943315
  0
ELLIPSE
  5
156
330
1F
100
AcDbEntity
  8
1
100
AcDbEllipse
 10
366.969691
 20
288.907994
 30
0.0
 11
0.8659101553620718
 21
7.999095241687096
 31
0.0
210
0.0
220
0.0
230
1.0
 40
0.138944
 41
1.940473093737233
 42
3.1566323956511
  0
ELLIPSE
  5
157
330
1F
100
AcDbEntity
  8
1
100
AcDbEllipse
 10
366.674842
 20
288.907994
 30
0.0
 11
0.0
 21
7.99999999973436
 31
0.0
210
0.0
220
0.0
230
1.0
 40
0.140541
 41
1.484199518436478
 42
1.925433351688261
  0
ELLIPSE
  5
158
330
1F
100
AcDbEntity
  8
1
100
AcDbEllipse
 10
362.129499
 20
292.211397
 30
0.0
 11
-1.051204753040294
 21
0.3239885294041938
 31
0.0
210
0.0
220
0.0
230
1.0
 40
0.9982459999999999
 41
0.0695815624906768
 42
1.913892576062009
  0
ELLIPSE
  5
159
330
1F
100
AcDbEntity
  8
1
100
AcDbEllipse
 10
362.129499
 20
292.211397
 30
0.0
 11
-1.051204753040294
 21
0.3239885294041938
 31
0.0
210
0.0
220
0.0
230
1.0
 40
0.9982459999999999
 41
1.913892576062011
 42
2.823089291939181
  0
ELLIPSE
  5
15A
330
1F
100
AcDbEntity
  8
1
100
AcDbEllipse
 10
362.089745
 20
292.082413
 30
0.0
 11
-1.051204753040295
 21
0.323988529404194
 31
0.0
210
0.0
220
0.0
230
0.9999999999999998
 40
0.9982459999999999
 41
5.570023950636408
 42
5.796956283390112
  0
ELLIPSE
  5
15B
330
1F
100
AcDbEntity
  8
1
100
AcDbEllipse
 10
362.084515
 20
292.065441
 30
0.0
 11
1.051204753040295
 21
-0.3239885294041945
 31
0.0
210
0.0
220
0.0
230
1.0
 40
0.9982459999999999
 41
2.655363629800294
 42
4.07252775635968
  0
ELLIPSE
  5
15C
330
1F
100
AcDbEntity
  8
1
100
AcDbEllipse
 10
363.770536
 20
293.417654
 30
0.0
 11
-0.0804880251332459
 21
0.0248069625086337
 31
0.0
210
0.0
220
0.0
230
1.0
 40
0.9982459999999999
 41
5.263654910406592
 42
6.102683102584228
  0
ELLIPSE
  5
15D
330
1F
100
AcDbEntity
  8
1
100
AcDbEllipse
 10
363.6210660000001
 20
293.495311
 30
0.0
 11
-0.080488025133246
 21
0.0248069625086337
 31
0.0
210
0.0
220
0.0
230
1.0
 40
0.9982459999999999
 41
1.598463481218441
 42
2.961090448994508
  0
ELLIPSE
  5
15E
330
1F
100
AcDbEntity
  8
1
100
AcDbEllipse
 10
363.714075
 20
293.829746
 30
0.0
 11
-0.4128001152130106
 21
0.1272278325216234
 31
0.0
210
0.0
220
0.0
230
1.0
 40
0.9982459999999999
 41
0.6585259875822914
 42
1.598463481218349
  0
ELLIPSE
  5
15F
330
1F
100
AcDbEntity
  8
1
100
AcDbEllipse
 10
363.388685
 20
293.707748
 30
0.0
 11
-0.0804880251332457
 21
0.0248069625086337
 31
0.0
210
0.0
220
0.0
230
0.9999999999999996
 40
0.9982459999999999
 41
5.579084326985854
 42
6.94171129476195
  0
ELLIPSE
  5
160
330
1F
100
AcDbEntity
  8
1
100
AcDbEllipse
 10
363.298051
 20
293.849588
 30
0.0
 11
-0.0804880251332458
 21
0.0248069625086337
 31
0.0
210
0.0
220
0.0
230
0.9999999999999998
 40
0.9982459999999999
 41
2.437491673396061
 42
3.276519865573845
  0
ELLIPSE
  5
161
330
1F
100
AcDbEntity
  8
1
100
AcDbEllipse
 10
362.955006
 20
293.906455
 30
0.0
 11
-0.4128001152130105
 21
0.1272278325216234
 31
0.0
210
0.0
220
0.0
230
0.9999999999999998
 40
0.9982459999999999
 41
3.276519865573798
 42
4.216457359209888
  0
ELLIPSE
  5
162
330
1F
100
AcDbEntity
  8
1
100
AcDbEllipse
 10
363.203061
 20
294.149482
 30
0.0
 11
-0.0804880251332459
 21
0.0248069625086337
 31
0.0
210
0.0
220
0.0
230
1.0
 40
0.9982459999999999
 41
4.216457359209682
 42
5.055485551387459
  0
ELLIPSE
  5
163
330
1F
100
AcDbEntity
  8
1
100
AcDbEllipse
 10
363.195548
 20
294.317501
 30
0.0
 11
-0.080488025133246
 21
0.0248069625086337
 31
0.0
210
0.0
220
0.0
230
1.0
 40
0.9982459999999999
 41
0.5512659300218398
 42
1.913892897797651
  0
ELLIPSE
  5
164
330
1F
100
AcDbEntity
  8
1
100
AcDbEllipse
 10
363.532182
 20
294.404001
 30
0.0
 11
-0.4128001152130106
 21
0.1272278325216234
 31
0.0
210
0.0
220
0.0
230
1.0
 40
0.9982459999999999
 41
5.894513743565317
 42
6.834451237201374
  0
ELLIPSE
  5
165
330
1F
100
AcDbEntity
  8
1
100
AcDbEllipse
 10
363.263402
 20
294.624494
 30
0.0
 11
-0.0804880251332457
 21
0.0248069625086337
 31
0.0
210
0.0
220
0.0
230
0.9999999999999996
 40
0.9982459999999999
 41
4.531886775789393
 42
5.894513743565276
  0
ELLIPSE
  5
166
330
1F
100
AcDbEntity
  8
1
100
AcDbEllipse
 10
363.341023
 20
294.773671
 30
0.0
 11
-0.0804880251332458
 21
0.0248069625086337
 31
0.0
210
0.0
220
0.0
230
0.9999999999999998
 40
0.9982459999999999
 41
1.390294122199607
 42
2.229322314377259
  0
ELLIPSE
  5
167
330
1F
100
AcDbEntity
  8
1
100
AcDbEllipse
 10
363.218526
 20
295.09871
 30
0.0
 11
-0.4128001152130105
 21
0.1272278325216234
 31
0.0
210
0.0
220
0.0
230
0.9999999999999998
 40
0.9982459999999999
 41
2.229322314377189
 42
3.169259808013293
  0
ELLIPSE
  5
168
330
1F
100
AcDbEntity
  8
1
100
AcDbEllipse
 10
363.553539
 20
295.0055049999999
 30
0.0
 11
-0.0804880251332459
 21
0.0248069625086337
 31
0.0
210
0.0
220
0.0
230
1.0
 40
0.9982459999999999
 41
3.169259808013336
 42
4.008288000190817
  0
ELLIPSE
  5
169
330
1F
100
AcDbEntity
  8
1
100
AcDbEllipse
 10
363.695496
 20
295.095868
 30
0.0
 11
-0.080488025133246
 21
0.0248069625086337
 31
0.0
210
0.0
220
0.0
230
1.0
 40
0.9982459999999999
 41
5.787253686004737
 42
7.149880653780665
  0
ELLIPSE
  5
16A
330
1F
100
AcDbEntity
  8
1
100
AcDbEllipse
 10
363.939122
 20
294.847932
 30
0.0
 11
-0.4128001152130106
 21
0.1272278325216234
 31
0.0
210
0.0
220
0.0
230
1.0
 40
0.9982459999999999
 41
4.847316192368708
 42
5.787253686004777
  0
ELLIPSE
  5
16B
330
1F
100
AcDbEntity
  8
1
100
AcDbEllipse
 10
363.995732
 20
295.190424
 30
0.0
 11
-0.0804880251332457
 21
0.0248069625086337
 31
0.0
210
0.0
220
0.0
230
0.9999999999999996
 40
0.9982459999999999
 41
3.48468922459258
 42
4.84731619236871
  0
ELLIPSE
  5
16C
330
1F
100
AcDbEntity
  8
1
100
AcDbEllipse
 10
364.163987
 20
295.19776
 30
0.0
 11
-0.0804880251332458
 21
0.0248069625086337
 31
0.0
210
0.0
220
0.0
230
0.9999999999999998
 40
0.9982459999999999
 41
0.3430965710029699
 42
1.182124763180462
  0
ELLIPSE
  5
16D
330
1F
100
AcDbEntity
  8
1
100
AcDbEllipse
 10
364.384535
 20
295.465933
 30
0.0
 11
-0.4128001152130105
 21
0.1272278325216234
 31
0.0
210
0.0
220
0.0
230
0.9999999999999998
 40
0.9982459999999999
 41
1.18212476318057
 42
2.122062256816757
  0
ELLIPSE
  5
16E
330
1F
100
AcDbEntity
  8
1
100
AcDbEllipse
 10
364.471493
 20
295.129701
 30
0.0
 11
-0.0804880251332459
 21
0.0248069625086337
 31
0.0
210
0.0
220
0.0
230
1.0
 40
0.9982459999999999
 41
2.122062256816799
 42
2.961090448994341
  0
ELLIPSE
  5
16F
330
1F
100
AcDbEntity
  8
1
100
AcDbEllipse
 10
364.6209629999999
 20
295.052045
 30
0.0
 11
-0.080488025133246
 21
0.0248069625086337
 31
0.0
210
0.0
220
0.0
230
1.0
 40
0.9982459999999999
 41
4.740056134808066
 42
6.102683102584188
  0
ELLIPSE
  5
170
330
1F
100
AcDbEntity
  8
1
100
AcDbEllipse
 10
364.527954
 20
294.717609
 30
0.0
 11
-0.4128001152130106
 21
0.1272278325216234
 31
0.0
210
0.0
220
0.0
230
1.0
 40
0.9982459999999999
 41
3.800118641172097
 42
4.740056134808207
  0
ELLIPSE
  5
171
330
1F
100
AcDbEntity
  8
1
100
AcDbEllipse
 10
364.853344
 20
294.839607
 30
0.0
 11
-0.0804880251332457
 21
0.0248069625086337
 31
0.0
210
0.0
220
0.0
230
0.9999999999999996
 40
0.9982459999999999
 41
2.437491673396061
 42
3.800118641172087
  0
ELLIPSE
  5
172
330
1F
100
AcDbEntity
  8
1
100
AcDbEllipse
 10
364.943978
 20
294.697767
 30
0.0
 11
-0.0804880251332458
 21
0.0248069625086337
 31
0.0
210
0.0
220
0.0
230
0.9999999999999998
 40
0.9982459999999999
 41
5.579084326986027
 42
6.418112519163598
  0
ELLIPSE
  5
173
330
1F
100
AcDbEntity
  8
1
100
AcDbEllipse
 10
365.287023
 20
294.6409
 30
0.0
 11
-0.4128001152130105
 21
0.1272278325216234
 31
0.0
210
0.0
220
0.0
230
0.9999999999999998
 40
0.9982459999999999
 41
0.1349272119839931
 42
1.074864705620075
  0
ELLIPSE
  5
174
330
1F
100
AcDbEntity
  8
1
100
AcDbEllipse
 10
365.038968
 20
294.397873
 30
0.0
 11
-0.0804880251332459
 21
0.0248069625086337
 31
0.0
210
0.0
220
0.0
230
1.0
 40
0.9982459999999999
 41
1.074864705620057
 42
1.913892897797868
  0
ELLIPSE
  5
175
330
1F
100
AcDbEntity
  8
1
100
AcDbEllipse
 10
365.046481
 20
294.229854
 30
0.0
 11
-0.080488025133246
 21
0.0248069625086337
 31
0.0
210
0.0
220
0.0
230
1.0
 40
0.9982459999999999
 41
3.692858583611581
 42
5.055485551387488
  0
ELLIPSE
  5
176
330
1F
100
AcDbEntity
  8
1
100
AcDbEllipse
 10
364.709846
 20
294.143354
 30
0.0
 11
-0.4128001152130106
 21
0.1272278325216234
 31
0.0
210
0.0
220
0.0
230
1.0
 40
0.9982459999999999
 41
2.752921089975513
 42
3.692858583611608
  0
ELLIPSE
  5
177
330
1F
100
AcDbEntity
  8
1
100
AcDbEllipse
 10
364.978627
 20
293.922861
 30
0.0
 11
-0.0804880251332457
 21
0.0248069625086337
 31
0.0
210
0.0
220
0.0
230
0.9999999999999996
 40
0.9982459999999999
 41
1.390294122199448
 42
2.752921089975405
  0
ELLIPSE
  5
178
330
1F
100
AcDbEntity
  8
1
100
AcDbEllipse
 10
364.901006
 20
293.773685
 30
0.0
 11
-0.0804880251332458
 21
0.0248069625086337
 31
0.0
210
0.0
220
0.0
230
0.9999999999999998
 40
0.9982459999999999
 41
4.531886775789401
 42
5.370914967967184
  0
ELLIPSE
  5
179
330
1F
100
AcDbEntity
  8
1
100
AcDbEllipse
 10
365.023503
 20
293.448645
 30
0.0
 11
-0.4128001152130105
 21
0.1272278325216234
 31
0.0
210
0.0
220
0.0
230
0.9999999999999998
 40
0.9982459999999999
 41
5.370914967966997
 42
6.310852461603104
  0
ELLIPSE
  5
17A
330
1F
100
AcDbEntity
  8
1
100
AcDbEllipse
 10
364.688489
 20
293.54185
 30
0.0
 11
-0.0804880251332459
 21
0.0248069625086337
 31
0.0
210
0.0
220
0.0
230
1.0
 40
0.9982459999999999
 41
0.0276671544234164
 42
0.8666953466010511
  0
SPLINE
  5
182
330
1F
100
AcDbEntity
  8
1
100
AcDbSpline
210
0.0
220
0.0
230
1.0
 70
     8
 71
     3
 72
    12
 73
     8
 74
     0
 42
0.000000001
 43
0.0000000001
 40
0.0
 40
0.0
 40
0.0
 40
0.0
 40
0.2500000000000001
 40
0.2500000000000001
 40
0.5000000000000002
 40
0.5000000000000002
 40
1.0
 40
1.0
 40
1.0
 40
1.0
 10
362.5092611090321
 20
290.4255544256712
 30
0.0
 10
362.4565490987074
 20
290.4281292910463
 30
0.0
 10
362.4032074687228
 20
290.430350417579
 30
0.0
 10
362.2953672784243
 20
290.4342441519377
 30
0.0
 10
362.2408681971882
 20
290.4359160803659
 30
0.0
 10
362.0757076800354
 20
290.4402549518485
 30
0.0
 10
361.9634031417975
 20
290.4422648681865
 30
0.0
 10
361.8488419458145
 20
290.443517228211
 30
0.0
  0
SPLINE
  5
183
330
1F
100
AcDbEntity
  8
1
100
AcDbSpline
210
0.0
220
0.0
230
1.0
 70
     8
 71
     3
 72
     8
 73
     4
 74
     0
 42
0.000000001
 43
0.0000000001
 40
0.0
 40
0.0
 40
0.0
 40
0.0
 40
1.0
 40
1.0
 40
1.0
 40
1.0
 10
298.5101691565514
 20
285.0150289602772
 30
0.0
 10
298.510184174215
 20
285.0255109439212
 30
0.0
 10
298.510199192993
 20
285.0359929331613
 30
0.0
 10
298.5102142128856
 20
285.0464749279984
 30
0.0
  0
SPLINE
  5
184
330
1F
100
AcDbEntity
  8
1
100
AcDbSpline
210
0.0
220
0.0
230
1.0
 70
     8
 71
     3
 72
    70
 73
    66
 74
     0
 42
0.000000001
 43
0.0000000001
 40
0.0
 40
0.0
 40
0.0
 40
0.0
 40
0.03125
 40
0.03125
 40
0.0625
 40
0.0625
 40
0.09375
 40
0.09375
 40
0.125
 40
0.125
 40
0.15625
 40
0.15625
 40
0.1875
 40
0.1875
 40
0.21875
 40
0.21875
 40
0.25
 40
0.25
 40
0.28125
 40
0.28125
 40
0.3125
 40
0.3125
 40
0.34375
 40
0.34375
 40
0.375
 40
0.375
 40
0.40625
 40
0.40625
 40
0.4375
 40
0.4375
 40
0.46875
 40
0.46875
 40
0.5
 40
0.5
 40
0.53125
 40
0.53125
 40
0.5625
 40
0.5625
 40
0.59375
 40
0.59375
 40
0.625
 40
0.625
 40
0.65625
 40
0.65625
 40
0.6875
 40
0.6875
 40
0.71875
 40
0.71875
 40
0.75
 40
0.75
 40
0.78125
 40
0.78125
 40
0.8125
 40
0.8125
 40
0.84375
 40
0.84375
 40
0.875
 40
0.875
 40
0.90625
 40
0.90625
 40
0.9375
 40
0.9375
 40
0.96875
 40
0.96875
 40
1.0
 40
1.0
 40
1.0
 40
1.0
 10
365.7685919015494
 20
286.1299935137008
 30
0.0
 10
365.7656699704493
 20
286.0968773033276
 30
0.0
 10
365.7629866394567
 20
286.0639919554937
 30
0.0
 10
365.758097945145
 20
285.9986837274746
 30
0.0
 10
365.7558960804187
 20
285.9662889220627
 30
0.0
 10
365.7520157128632
 20
285.9026234901419
 30
0.0
 10
365.7503307003036
 20
285.8712695023606
 30
0.0
 10
365.7474740400622
 20
285.8095246535744
 30
0.0
 10
365.7463110296701
 20
285.7793106850697
 30
0.0
 10
365.744516250214
 20
285.720359918355
 30
0.0
 10
365.7438825679547
 20
285.6915449409886
 30
0.0
 10
365.7431518501876
 20
285.6355734298901
 30
0.0
 10
365.743055086373
 20
285.6085134914505
 30
0.0
 10
365.7433934709418
 20
285.5562270563224
 30
0.0
 10
365.7438308915998
 20
285.5309425796032
 30
0.0
 10
365.7452324578738
 20
285.482613615249
 30
0.0
 10
365.7461951041533
 20
285.4595503278635
 30
0.0
 10
365.7486417322282
 20
285.4156160889413
 30
0.0
 10
365.7501288698414
 20
285.3947299076717
 30
0.0
 10
365.7535961817745
 20
285.3555536740876
 30
0.0
 10
365.7555785652813
 20
285.3372095510122
 30
0.0
 10
365.7600413251856
 20
285.3030119821143
 30
0.0
 10
365.7625175351774
 20
285.2872050203226
 30
0.0
 10
365.7679210574809
 20
285.2583694422473
 30
0.0
 10
365.7708536850287
 20
285.2453019708682
 30
0.0
 10
365.7771785181264
 20
285.2219068731661
 30
0.0
 10
365.7805488379378
 20
285.2116589105905
 30
0.0
 10
365.7876999850608
 20
285.1940252110255
 30
0.0
 10
365.7914867642235
 20
285.1866309843488
 30
0.0
 10
365.7994494619204
 20
285.1747766682584
 30
0.0
 10
365.8036069293198
 20
285.1703385012243
 30
0.0
 10
365.812270631795
 20
285.1644108169814
 30
0.0
 10
365.8167852731794
 20
285.162921802258
 30
0.0
 10
365.8261299807439
 20
285.162934086791
 30
0.0
 10
365.8309428557761
 20
285.1644295549092
 30
0.0
 10
365.8408478730219
 20
285.1703803269947
 30
0.0
 10
365.8459529876979
 20
285.174852097055
 30
0.0
 10
365.8563752214226
 20
285.1867206851106
 30
0.0
 10
365.8616885967472
 20
285.1941049815513
 30
0.0
 10
365.8725195464042
 20
285.2117690712688
 30
0.0
 10
365.8780499328403
 20
285.2220791966839
 30
0.0
 10
365.889219685703
 20
285.2454390749413
 30
0.0
 10
365.8948659766886
 20
285.2584941342931
 30
0.0
 10
365.9062817729654
 20
285.2873631183012
 30
0.0
 10
365.9120574886973
 20
285.3032016441307
 30
0.0
 10
365.9236194217145
 20
285.3373470229818
 30
0.0
 10
365.9294191393811
 20
285.3556849366805
 30
0.0
 10
365.9410563693608
 20
285.3949109374644
 30
0.0
 10
365.9468856079556
 20
285.4157779968589
 30
0.0
 10
365.9584667781688
 20
285.4596642995097
 30
0.0
 10
365.9642324950695
 20
285.4827288614622
 30
0.0
 10
365.9757135740463
 20
285.5311286934218
 30
0.0
 10
365.981397665841
 20
285.5563348062963
 30
0.0
 10
365.9926171594623
 20
285.608588813286
 30
0.0
 10
365.9981661979679
 20
285.6357013079713
 30
0.0
 10
366.0090910471708
 20
285.6916745372748
 30
0.0
 10
366.0144422236036
 20
285.7204051263956
 30
0.0
 10
366.0249229444087
 20
285.7793484737044
 30
0.0
 10
366.0300651465179
 20
285.8096414154003
 30
0.0
 10
366.0400503560467
 20
285.8712835019494
 30
0.0
 10
366.0448923144917
 20
285.9026166870983
 30
0.0
 10
366.0542748265573
 20
285.9663077225353
 30
0.0
 10
366.0588225873072
 20
285.9987263887582
 30
0.0
 10
366.0675255476992
 20
286.0639627918059
 30
0.0
 10
366.0716911100879
 20
286.0968453608617
 30
0.0
 10
366.075669899334
 20
286.1299935137013
 30
0.0
  0
SPLINE
  5
185
330
1F
100
AcDbEntity
  8
1
100
AcDbSpline
210
0.0
220
0.0
230
1.0
 70
     8
 71
     3
 72
    82
 73
    78
 74
     0
 42
0.000000001
 43
0.0000000001
 40
0.0
 40
0.0
 40
0.0
 40
0.0
 40
0.0312499999999994
 40
0.0312499999999994
 40
0.0624999999999988
 40
0.0624999999999988
 40
0.0937499999999982
 40
0.0937499999999982
 40
0.109374999999998
 40
0.109374999999998
 40
0.1249999999999978
 40
0.1406249999999976
 40
0.1406249999999976
 40
0.1562499999999974
 40
0.1562499999999974
 40
0.1874999999999973
 40
0.1874999999999973
 40
0.2031249999999978
 40
0.2031249999999978
 40
0.2187499999999983
 40
0.2343749999999989
 40
0.2343749999999989
 40
0.2499999999999992
 40
0.2499999999999992
 40
0.2812500000000004
 40
0.2812500000000004
 40
0.2968750000000002
 40
0.2968750000000002
 40
0.3124999999999999
 40
0.3124999999999999
 40
0.34375
 40
0.34375
 40
0.3750000000000001
 40
0.3750000000000001
 40
0.4062500000000002
 40
0.4062500000000002
 40
0.4375000000000002
 40
0.4375000000000002
 40
0.4999999999999998
 40
0.4999999999999998
 40
0.5312499999999995
 40
0.5312499999999995
 40
0.5468749999999986
 40
0.5468749999999986
 40
0.5624999999999977
 40
0.5781249999999969
 40
0.5781249999999969
 40
0.593749999999996
 40
0.593749999999996
 40
0.6249999999999964
 40
0.6249999999999964
 40
0.6406249999999965
 40
0.6406249999999965
 40
0.6562499999999966
 40
0.6718749999999968
 40
0.6718749999999968
 40
0.6874999999999969
 40
0.6874999999999969
 40
0.7187499999999973
 40
0.7187499999999973
 40
0.7499999999999975
 40
0.7499999999999975
 40
0.7812499999999978
 40
0.7812499999999978
 40
0.812499999999998
 40
0.812499999999998
 40
0.8437499999999984
 40
0.8437499999999984
 40
0.8749999999999985
 40
0.8749999999999985
 40
0.9062499999999989
 40
0.9062499999999989
 40
0.9374999999999992
 40
0.9374999999999992
 40
0.9687499999999996
 40
0.9687499999999996
 40
1.0
 40
1.0
 40
1.0
 40
1.0
 10
366.0756698993339
 20
286.1299935137013
 30
0.0
 10
366.0762028980319
 20
286.1685976202598
 30
0.0
 10
366.0764464811018
 20
286.2073220816916
 30
0.0
 10
366.0763597052869
 20
286.2847059849382
 30
0.0
 10
366.0760275589626
 20
286.3235244402392
 30
0.0
 10
366.0747952517958
 20
286.4004627644194
 30
0.0
 10
366.0738969719828
 20
286.4386127544293
 30
0.0
 10
366.0721269961365
 20
286.4953596976889
 30
0.0
 10
366.0714662032267
 20
286.5141939580562
 30
0.0
 10
366.0700112785258
 20
286.5514876944749
 30
0.0
 10
366.0684214393219
 20
286.5884613684249
 30
0.0
 10
366.0665633058497
 20
286.6247985583507
 30
0.0
 10
366.0645706773649
 20
286.66081668098
 30
0.0
 10
366.0635062809494
 20
286.6786756699415
 30
0.0
 10
366.0601292095334
 20
286.7314766941851
 30
0.0
 10
366.0576281677041
 20
286.7657427676415
 30
0.0
 10
366.0535036726083
 20
286.8157457998192
 30
0.0
 10
366.0520649231294
 20
286.8321960044422
 30
0.0
 10
366.0490778276316
 20
286.8644575456259
 30
0.0
 10
366.0459783885241
 20
286.8961174783826
 30
0.0
 10
366.042655706265
 20
286.9265819273827
 30
0.0
 10
366.0392212061215
 20
286.9564475832553
 30
0.0
 10
366.0374456563111
 20
286.9710986357448
 30
0.0
 10
366.0319763216443
 20
287.0139419737378
 30
0.0
 10
366.0281362164257
 20
287.041070895888
 30
0.0
 10
366.0220866294876
 20
287.0796246300778
 30
0.0
 10
366.020018848007
 20
287.0921346564362
 30
0.0
 10
366.0158034982455
 20
287.1163329792838
 30
0.0
 10
366.0136558816625
 20
287.1280239102979
 30
0.0
 10
366.0070939702643
 20
287.1618798151493
 30
0.0
 10
366.0025528160508
 20
287.1828640120864
 30
0.0
 10
365.993186409346
 20
287.2214082598489
 30
0.0
 10
365.9883815895091
 20
287.2388927353701
 30
0.0
 10
365.9785297601974
 20
287.2703017256784
 30
0.0
 10
365.9734765166522
 20
287.2842290757364
 30
0.0
 10
365.9632339113207
 20
287.3082046023447
 30
0.0
 10
365.9580259129008
 20
287.3183078263037
 30
0.0
 10
365.9421957652729
 20
287.3428062760942
 30
0.0
 10
365.9315798267453
 20
287.3511471826077
 30
0.0
 10
365.9155645743758
 20
287.3519802811248
 30
0.0
 10
365.9102108108518
 20
287.3502960099448
 30
0.0
 10
365.902156306564
 20
287.3447192671461
 30
0.0
 10
365.8994737560411
 20
287.3423532102547
 30
0.0
 10
365.8941444350312
 20
287.3366352995309
 30
0.0
 10
365.8888416098563
 20
287.3299255975229
 30
0.0
 10
365.8835917837165
 20
287.3212320372789
 30
0.0
 10
365.8783686812342
 20
287.3115381579159
 30
0.0
 10
365.8757691773069
 20
287.306186394773
 30
0.0
 10
365.8680561482782
 20
287.2887167302422
 30
0.0
 10
365.8630130380651
 20
287.2751637896332
 30
0.0
 10
365.8555975815912
 20
287.2519583421211
 30
0.0
 10
365.8531475800167
 20
287.2437307086744
 30
0.0
 10
365.8483233935759
 20
287.2263945257141
 30
0.0
 10
365.8435707399375
 20
287.208167040718
 30
0.0
 10
365.8389607618406
 20
287.1881618118642
 30
0.0
 10
365.834422523193
 20
287.1672627061458
 30
0.0
 10
365.832186055691
 20
287.1563490282719
 30
0.0
 10
365.8256140128073
 20
287.122397533012
 30
0.0
 10
365.8214159614752
 20
287.0981652738998
 30
0.0
 10
365.8133864555004
 20
287.0465051112893
 30
0.0
 10
365.8095526633326
 20
287.019038428975
 30
0.0
 10
365.8023451212748
 20
286.9615282263866
 30
0.0
 10
365.7989560621389
 20
286.9313827936693
 30
0.0
 10
365.7926326182243
 20
286.8684664576523
 30
0.0
 10
365.7897196141693
 20
286.8359154875239
 30
0.0
 10
365.7843879015334
 20
286.7686417408277
 30
0.0
 10
365.7819659358007
 20
286.7338400646116
 30
0.0
 10
365.7776743381992
 20
286.662839038499
 30
0.0
 10
365.7757971668195
 20
286.6265619168808
 30
0.0
 10
365.7725840537357
 20
286.5524429651773
 30
0.0
 10
365.7712614044112
 20
286.5149020637178
 30
0.0
 10
365.7691807650623
 20
286.4389600871147
 30
0.0
 10
365.7684218107988
 20
286.400438594822
 30
0.0
 10
365.7674852354853
 20
286.3232992511354
 30
0.0
 10
365.7673043912063
 20
286.2846238949522
 30
0.0
 10
365.7675184505675
 20
286.2070614972817
 30
0.0
 10
365.7679137409926
 20
286.168381227808
 30
0.0
 10
365.7685919015496
 20
286.1299935137008
 30
0.0
  0
SPLINE
  5
186
330
1F
100
AcDbEntity
  8
1
100
AcDbSpline
210
0.0
220
0.0
230
1.0
 70
     8
 71
     3
 72
    14
 73
    10
 74
     0
 42
0.000000001
 43
0.0000000001
 40
0.0
 40
0.0
 40
0.0
 40
0.0
 40
0.25
 40
0.25
 40
0.5
 40
0.5
 40
0.75
 40
0.75
 40
1.0
 40
1.0
 40
1.0
 40
1.0
 10
297.432343304681
 20
296.7103785378311
 30
0.0
 10
297.1694475908338
 20
296.7190649218791
 30
0.0
 10
296.9068749057253
 20
296.7279010157461
 30
0.0
 10
296.3822451101232
 20
296.7455423481221
 30
0.0
 10
296.1201876487847
 20
296.7543474834786
 30
0.0
 10
295.5964941268362
 20
296.7716743505247
 30
0.0
 10
295.3348578669273
 20
296.7801964997976
 30
0.0
 10
294.8119582695742
 20
296.7967790151378
 30
0.0
 10
294.5506949228842
 20
296.8048402177347
 30
0.0
 10
294.2896182561458
 20
296.8126087708872
 30
0.0
  0
SPLINE
  5
187
330
1F
100
AcDbEntity
  8
1
100
AcDbSpline
210
0.0
220
0.0
230
1.0
 70
    12
 71
     2
 72
     6
 73
     3
 74
     0
 42
0.000000001
 43
0.0000000001
 40
0.0
 40
0.0
 40
0.0
 40
1.0
 40
1.0
 40
1.0
 10
298.5101691565515
 20
285.0150289602775
 30
0.0
 41
0.5000006122371054
 10
298.5121807434406
 20
285.030496314667
 30
0.0
 41
0.4999993877628948
 10
298.5141886623215
 20
285.0460016523704
 30
0.0
 41
0.5000006122371054
  0
SPLINE
  5
188
330
1F
100
AcDbEntity
  8
1
100
AcDbSpline
210
0.0
220
0.0
230
1.0
 70
     8
 71
     3
 72
    13
 73
     9
 74
     0
 42
0.000000001
 43
0.0000000001
 40
0.0
 40
0.0
 40
0.0
 40
0.0
 40
0.25
 40
0.5
 40
0.5
 40
0.75
 40
0.75
 40
1.0
 40
1.0
 40
1.0
 40
1.0
 10
361.8488419458286
 20
289.8799352953213
 30
0.0
 10
361.9077820669562
 20
289.8797815519412
 30
0.0
 10
362.0244012455602
 20
289.8815530708024
 30
0.0
 10
362.1385847480796
 20
289.8872990232894
 30
0.0
 10
362.2515448091523
 20
289.8949910931074
 30
0.0
 10
362.3074133209648
 20
289.8998100952503
 30
0.0
 10
362.4178715467051
 20
289.9114018630725
 30
0.0
 10
362.4724618925645
 20
289.9181741414537
 30
0.0
 10
362.5263544222237
 20
289.9259554360713
 30
0.0
  0
SPLINE
  5
189
330
1F
100
AcDbEntity
  8
1
100
AcDbSpline
210
0.0
220
0.0
230
1.0
 70
    24
 71
     3
 72
    14
 73
    10
 74
     0
 42
0.000000001
 43
0.0000000001
 40
0.0
 40
0.0
 40
0.0
 40
0.0
 40
0.258714840250447
 40
0.258714840250447
 40
0.517429680500894
 40
0.517429680500894
 40
0.7761445207513411
 40
0.7761445207513411
 40
1.0
 40
1.0
 40
1.0
 40
1.0
 10
361.8488419458145
 20
290.443517228211
 30
0.0
 10
361.8488419458252
 20
290.3311779192143
 30
0.0
 10
361.8488419458336
 20
290.2338073745723
 30
0.0
 10
361.8488419458457
 20
290.0715479523028
 30
0.0
 10
361.8488419458491
 20
290.0066609331352
 30
0.0
 10
361.8488419458516
 20
289.9110676739029
 30
0.0
 10
361.8488419458503
 20
289.8803625287286
 30
0.0
 10
361.8488419458437
 20
289.855717745693
 30
0.0
 10
361.8488419458386
 20
289.8573819842251
 30
0.0
 10
361.8488419458319
 20
289.8721064971471
 30
0.0
  0
SPLINE
  5
18A
330
1F
100
AcDbEntity
  8
1
100
AcDbSpline
210
0.0
220
0.0
230
1.0
 70
     8
 71
     3
 72
    16
 73
    12
 74
     0
 42
0.000000001
 43
0.0000000001
 40
0.0
 40
0.0
 40
0.0
 40
0.0
 40
0.2499999999999976
 40
0.2499999999999976
 40
0.4999999999999952
 40
0.4999999999999952
 40
0.7499999999999928
 40
0.7499999999999928
 40
0.8749999999999962
 40
0.8749999999999962
 40
1.0
 40
1.0
 40
1.0
 40
1.0
 10
358.7655712971696
 20
291.2567327767606
 30
0.0
 10
359.0223269596283
 20
291.1579768950965
 30
0.0
 10
359.2787158958018
 20
291.0672774581026
 30
0.0
 10
359.7912060327723
 20
290.9012831370756
 30
0.0
 10
360.0472972468493
 20
290.8259861854071
 30
0.0
 10
360.5598066784474
 20
290.690467848328
 30
0.0
 10
360.8162124823684
 20
290.6302371653875
 30
0.0
 10
361.2020774618583
 20
290.5513886333629
 30
0.0
 10
361.3309101738786
 20
290.5270259645731
 30
0.0
 10
361.5892637074493
 20
290.4822555665494
 30
0.0
 10
361.7187823367233
 20
290.4618464445544
 30
0.0
 10
361.8488419452963
 20
290.4435172282168
 30
0.0
  0
SPLINE
  5
18B
330
1F
100
AcDbEntity
  8
1
100
AcDbSpline
210
0.0
220
0.0
230
1.0
 70
     8
 71
     3
 72
     8
 73
     4
 74
     0
 42
0.000000001
 43
0.0000000001
 40
0.0
 40
0.0
 40
0.0
 40
0.0
 40
1.0
 40
1.0
 40
1.0
 40
1.0
 10
358.7655712971695
 20
291.2567327767606
 30
0.0
 10
358.5766761873298
 20
291.3105735954077
 30
0.0
 10
358.3889106216572
 20
291.3688307976341
 30
0.0
 10
358.202118395625
 20
291.431552820547
 30
0.0
  0
SPLINE
  5
18C
330
1F
100
AcDbEntity
  8
1
100
AcDbSpline
210
0.0
220
0.0
230
1.0
 70
     8
 71
     3
 72
    48
 73
    44
 74
     0
 42
0.000000001
 43
0.0000000001
 40
0.0
 40
0.0
 40
0.0
 40
0.0
 40
0.1249999999999784
 40
0.1249999999999784
 40
0.2499999999999568
 40
0.2499999999999568
 40
0.3749999999999352
 40
0.3749999999999352
 40
0.4374999999999368
 40
0.4374999999999368
 40
0.4999999999999386
 40
0.4999999999999386
 40
0.5312499999999393
 40
0.5312499999999393
 40
0.5624999999999402
 40
0.593749999999941
 40
0.593749999999941
 40
0.6249999999999418
 40
0.6249999999999418
 40
0.6874999999999584
 40
0.6874999999999584
 40
0.7187499999999626
 40
0.7187499999999626
 40
0.7499999999999667
 40
0.7499999999999667
 40
0.7656249999999676
 40
0.7656249999999676
 40
0.7812499999999684
 40
0.7968749999999693
 40
0.7968749999999693
 40
0.8124999999999701
 40
0.8124999999999701
 40
0.8437499999999882
 40
0.8437499999999882
 40
0.8593749999999864
 40
0.8593749999999864
 40
0.8749999999999845
 40
0.8749999999999845
 40
0.9062499999999808
 40
0.9062499999999808
 40
0.9374999999999772
 40
0.9374999999999772
 40
1.0
 40
1.0
 40
1.0
 40
1.0
 10
358.2021183956252
 20
291.431552820547
 30
0.0
 10
358.1557836042685
 20
291.4471113472955
 30
0.0
 10
358.1103478224063
 20
291.4639065476298
 30
0.0
 10
358.0215269874829
 20
291.5003609089918
 30
0.0
 10
357.9781377740513
 20
291.52001416655
 30
0.0
 10
357.8938324504633
 20
291.562821390702
 30
0.0
 10
357.8529043553618
 20
291.5859584496385
 30
0.0
 10
357.7939729352162
 20
291.6241806878991
 30
0.0
 10
357.7747428648108
 20
291.6375127087648
 30
0.0
 10
357.7373019593937
 20
291.6656364176142
 30
0.0
 10
357.7190878818119
 20
291.6804235633283
 30
0.0
 10
357.692769732964
 20
291.7040403506368
 30
0.0
 10
357.6841892584893
 20
291.7121350065631
 30
0.0
 10
357.6676009505541
 20
291.7287074907669
 30
0.0
 10
357.6515485495742
 20
291.7456955648523
 30
0.0
 10
357.6367383852577
 20
291.7636449190379
 30
0.0
 10
357.6226720737533
 20
291.782168076889
 30
0.0
 10
357.6159938292704
 20
291.7917416148897
 30
0.0
 10
357.5974577357388
 20
291.8213509562234
 30
0.0
 10
357.5871493476885
 20
291.8420382897924
 30
0.0
 10
357.5765483257268
 20
291.8752845878807
 30
0.0
 10
357.57385092474
 20
291.886788066802
 30
0.0
 10
357.570765681118
 20
291.9099979210853
 30
0.0
 10
357.5703423344859
 20
291.9217802483852
 30
0.0
 10
357.5718301455069
 20
291.9397826052726
 30
0.0
 10
357.5726826291446
 20
291.9457886702593
 30
0.0
 10
357.5750994112359
 20
291.9576114254795
 30
0.0
 10
357.5782321263234
 20
291.9693038584692
 30
0.0
 10
357.5828312933313
 20
291.9807269723497
 30
0.0
 10
357.5881858061542
 20
291.9920101524754
 30
0.0
 10
357.5912665893413
 20
291.9976181112098
 30
0.0
 10
357.6014165728901
 20
292.0138275406046
 30
0.0
 10
357.6093999825662
 20
292.0238934923343
 30
0.0
 10
357.6229247757601
 20
292.0380449500677
 30
0.0
 10
357.6277094678897
 20
292.0426156297261
 30
0.0
 10
357.6375701227314
 20
292.0513035678483
 30
0.0
 10
357.6426647020014
 20
292.0554429049712
 30
0.0
 10
357.6583754215018
 20
292.0673284500691
 30
0.0
 10
357.6694155379257
 20
292.0745459038066
 30
0.0
 10
357.6923807529987
 20
292.087875218717
 30
0.0
 10
357.7043286473631
 20
292.0939893346056
 30
0.0
 10
357.7406283953528
 20
292.1107215183591
 30
0.0
 10
357.7656382608964
 20
292.1198932174161
 30
0.0
 10
357.7911652293931
 20
292.127798687444
 30
0.0
  0
SPLINE
  5
18D
330
1F
100
AcDbEntity
  8
1
100
AcDbSpline
210
0.0
220
0.0
230
1.0
 70
     8
 71
     3
 72
    16
 73
    12
 74
     0
 42
0.000000001
 43
0.0000000001
 40
0.0
 40
0.0
 40
0.0
 40
0.0
 40
0.063779946325781
 40
0.063779946325781
 40
0.3758532975505208
 40
0.3758532975505208
 40
0.6879266487752608
 40
0.6879266487752608
 40
0.8439633243876304
 40
0.8439633243876304
 40
1.0
 40
1.0
 40
1.0
 40
1.0
 10
290.1875910343914
 20
297.5721351391733
 30
0.0
 10
290.270092038836
 20
297.5446949247291
 30
0.0
 10
290.3528660716086
 20
297.5178861342306
 30
0.0
 10
290.8422740744538
 20
297.3636767348262
 30
0.0
 10
291.2552023600044
 20
297.2508973361055
 30
0.0
 10
292.0953127735304
 20
297.05958251398
 30
0.0
 10
292.5224862212845
 20
296.9810338508115
 30
0.0
 10
293.1754266951171
 20
296.8934848786593
 30
0.0
 10
293.3951111464561
 20
296.8693675567521
 30
0.0
 10
293.838919429168
 20
296.8323010764678
 30
0.0
 10
294.0630422662902
 20
296.8193507277318
 30
0.0
 10
294.2896182561458
 20
296.8126087708872
 30
0.0
  0
SPLINE
  5
18E
330
1F
100
AcDbEntity
  8
1
100
AcDbSpline
210
0.0
220
0.0
230
1.0
 70
     8
 71
     3
 72
     8
 73
     4
 74
     0
 42
0.000000001
 43
0.0000000001
 40
0.0
 40
0.0
 40
0.0
 40
0.0
 40
1.0
 40
1.0
 40
1.0
 40
1.0
 10
293.0979527279673
 20
285.6567938256072
 30
0.0
 10
293.4942746324448
 20
285.6387293088898
 30
0.0
 10
293.8915042181837
 20
285.604670160024
 30
0.0
 10
294.289618256146
 20
285.555025707628
 30
0.0
  0
SPLINE
  5
18F
330
1F
100
AcDbEntity
  8
1
100
AcDbSpline
210
0.0
220
0.0
230
1.0
 70
     8
 71
     3
 72
    20
 73
    16
 74
     0
 42
0.000000001
 43
0.0000000001
 40
0.0
 40
0.0
 40
0.0
 40
0.0
 40
0.2499999999999993
 40
0.2499999999999993
 40
0.3749999999999994
 40
0.3749999999999994
 40
0.4999999999999997
 40
0.4999999999999997
 40
0.6249999999999997
 40
0.6249999999999997
 40
0.7499999999999999
 40
0.7499999999999999
 40
0.8749999999999998
 40
0.8749999999999998
 40
1.0
 40
1.0
 40
1.0
 40
1.0
 10
363.7148210093943
 20
293.5181949150678
 30
0.0
 10
363.7104242285666
 20
293.5096659725878
 30
0.0
 10
363.7047860538375
 20
293.5020784243958
 30
0.0
 10
363.6944711684047
 20
293.4921098280137
 30
0.0
 10
363.690721134579
 20
293.4890435954686
 30
0.0
 10
363.682840134126
 20
293.4836300600124
 30
0.0
 10
363.6786793353162
 20
293.4812514572882
 30
0.0
 10
363.6698977383848
 20
293.4771819658185
 30
0.0
 10
363.665299679484
 20
293.4755105685427
 30
0.0
 10
363.6559555949028
 20
293.4729988006768
 30
0.0
 10
363.6511732369014
 20
293.4721399988247
 30
0.0
 10
363.6413759205514
 20
293.4712642934904
 30
0.0
 10
363.6364407205749
 20
293.4712601926076
 30
0.0
 10
363.6266870243172
 20
293.4721138135653
 30
0.0
 10
363.621838952805
 20
293.4729682587216
 30
0.0
 10
363.617021820273
 20
293.4742781933642
 30
0.0
  0
SPLINE
  5
190
330
1F
100
AcDbEntity
  8
1
100
AcDbSpline
210
0.0
220
0.0
230
1.0
 70
     8
 71
     3
 72
    18
 73
    14
 74
     0
 42
0.000000001
 43
0.0000000001
 40
0.0
 40
0.0
 40
0.0
 40
0.0
 40
0.1250000000000041
 40
0.1250000000000041
 40
0.2500000000000081
 40
0.2500000000000081
 40
0.3750000000000122
 40
0.3750000000000122
 40
0.5000000000000162
 40
0.5000000000000162
 40
0.7500000000000081
 40
0.7500000000000081
 40
1.0
 40
1.0
 40
1.0
 40
1.0
 10
364.2510690462357
 20
293.333947753261
 30
0.0
 10
364.2461532530998
 20
293.3347919300265
 30
0.0
 10
364.2413942794524
 20
293.3360634829908
 30
0.0
 10
364.2321742508512
 20
293.3394168555959
 30
0.0
 10
364.2276719946008
 20
293.3415259675048
 30
0.0
 10
364.2192250245253
 20
293.3464304795274
 30
0.0
 10
364.2152752931445
 20
293.3492157343927
 30
0.0
 10
364.2078987359477
 20
293.3554204306038
 30
0.0
 10
364.2044436247824
 20
293.3588760407342
 30
0.0
 10
364.1951199468786
 20
293.3699509567028
 30
0.0
 10
364.1902816520046
 20
293.3782111078283
 30
0.0
 10
364.1834333333044
 20
293.3961237076443
 30
0.0
 10
364.1815498439417
 20
293.4053951096531
 30
0.0
 10
364.1811898387903
 20
293.4149758796401
 30
0.0
  0
SPLINE
  5
191
330
1F
100
AcDbEntity
  8
1
100
AcDbSpline
210
0.0
220
0.0
230
1.0
 70
     8
 71
     3
 72
    14
 73
    10
 74
     0
 42
0.000000001
 43
0.0000000001
 40
0.0
 40
0.0
 40
0.0
 40
0.0
 40
0.25
 40
0.25
 40
0.5
 40
0.5
 40
0.75
 40
0.75
 40
1.0
 40
1.0
 40
1.0
 40
1.0
 10
363.7148210093943
 20
293.5181949150678
 30
0.0
 10
363.7175573717625
 20
293.5235029525065
 30
0.0
 10
363.7208390552097
 20
293.5285271505482
 30
0.0
 10
363.7283152218852
 20
293.5377608192623
 30
0.0
 10
363.7324843893888
 20
293.5419555271221
 30
0.0
 10
363.7416987736039
 20
293.5494899741755
 30
0.0
 10
363.7467718116343
 20
293.5528272381255
 30
0.0
 10
363.7573905927311
 20
293.5583052225737
 30
0.0
 10
363.7629843196592
 20
293.5604939293502
 30
0.0
 10
363.7688887126404
 20
293.562085215648
 30
0.0
  0
SPLINE
  5
192
330
1F
100
AcDbEntity
  8
1
100
AcDbSpline
210
0.0
220
0.0
230
1.0
 70
     8
 71
     3
 72
    14
 73
    10
 74
     0
 42
0.000000001
 43
0.0000000001
 40
0.0
 40
0.0
 40
0.0
 40
0.0
 40
0.25
 40
0.25
 40
0.5
 40
0.5
 40
0.75
 40
0.75
 40
1.0
 40
1.0
 40
1.0
 40
1.0
 10
364.1508752215734
 20
293.4775420890211
 30
0.0
 10
364.1555491293863
 20
293.4736069217171
 30
0.0
 10
364.1597672020425
 20
293.4691719545011
 30
0.0
 10
364.1670597084261
 20
293.459690182212
 30
0.0
 10
364.1701609858281
 20
293.4546335636483
 30
0.0
 10
364.1753056408739
 20
293.4439039694797
 30
0.0
 10
364.1773273781517
 20
293.4382352094026
 30
0.0
 10
364.1801409622964
 20
293.4267844915267
 30
0.0
 10
364.1809656868155
 20
293.4209412068183
 30
0.0
 10
364.1811898387903
 20
293.4149758796401
 30
0.0
  0
SPLINE
  5
193
330
1F
100
AcDbEntity
  8
1
100
AcDbSpline
210
0.0
220
0.0
230
1.0
 70
     8
 71
     3
 72
    19
 73
    15
 74
     0
 42
0.000000001
 43
0.0000000001
 40
0.0
 40
0.0
 40
0.0
 40
0.0
 40
0.2499999999999617
 40
0.2499999999999617
 40
0.3749999999999888
 40
0.3749999999999888
 40
0.5000000000000158
 40
0.6250000000000428
 40
0.6250000000000428
 40
0.687500000000054
 40
0.687500000000054
 40
0.750000000000065
 40
0.750000000000065
 40
1.0
 40
1.0
 40
1.0
 40
1.0
 10
363.617021820273
 20
293.4742781933642
 30
0.0
 10
363.58418959914
 20
293.4832063396355
 30
0.0
 10
363.5529088667446
 20
293.4958627495205
 30
0.0
 10
363.5083069990827
 20
293.5204056419835
 30
0.0
 10
363.4938187445364
 20
293.5295492380275
 30
0.0
 10
363.4663453992255
 20
293.5492649220132
 30
0.0
 10
363.4401820940504
 20
293.5705040567139
 30
0.0
 10
363.4166096881208
 20
293.5947559724147
 30
0.0
 10
363.399931732929
 20
293.6141093825091
 30
0.0
 10
363.3945369791379
 20
293.6207621327445
 30
0.0
 10
363.3842289770196
 20
293.6342771056163
 30
0.0
 10
363.3792962426036
 20
293.6411608236726
 30
0.0
 10
363.3557172675765
 20
293.6761981649545
 30
0.0
 10
363.3402806555345
 20
293.7061827582752
 30
0.0
 10
363.3283560299777
 20
293.7381693888394
 30
0.0
  0
SPLINE
  5
194
330
1F
100
AcDbEntity
  8
1
100
AcDbSpline
210
0.0
220
0.0
230
1.0
 70
     8
 71
     3
 72
    20
 73
    16
 74
     0
 42
0.000000001
 43
0.0000000001
 40
0.0
 40
0.0
 40
0.0
 40
0.0
 40
0.1250000000000135
 40
0.1250000000000135
 40
0.2500000000000271
 40
0.3124999999999833
 40
0.3124999999999833
 40
0.3749999999999395
 40
0.3749999999999395
 40
0.4999999999999516
 40
0.6249999999999637
 40
0.6249999999999637
 40
0.7499999999999759
 40
0.7499999999999759
 40
1.0
 40
1.0
 40
1.0
 40
1.0
 10
363.76888871264
 20
293.5620852156481
 30
0.0
 10
363.7851984985875
 20
293.5664808476768
 30
0.0
 10
363.8018091605716
 20
293.5699208478085
 30
0.0
 10
363.8351627171447
 20
293.5747866391094
 30
0.0
 10
363.8603661647991
 20
293.5769530729565
 30
0.0
 10
363.885869686755
 20
293.576841378763
 30
0.0
 10
363.9029418551938
 20
293.5762439735728
 30
0.0
 10
363.9115456890392
 20
293.5756803094225
 30
0.0
 10
363.9371545321511
 20
293.5732094201653
 30
0.0
 10
363.9708003126557
 20
293.5678589775238
 30
0.0
 10
364.0034736191776
 20
293.5585065181947
 30
0.0
 10
364.0356540733238
 20
293.5471248481574
 30
0.0
 10
364.0515428336048
 20
293.5403791445469
 30
0.0
 10
364.0970698984399
 20
293.5177119169019
 30
0.0
 10
364.1250837901758
 20
293.4992570225674
 30
0.0
 10
364.1508752215734
 20
293.4775420890211
 30
0.0
  0
SPLINE
  5
195
330
1F
100
AcDbEntity
  8
1
100
AcDbSpline
210
0.0
220
0.0
230
1.0
 70
     8
 71
     3
 72
    10
 73
     6
 74
     0
 42
0.000000001
 43
0.0000000001
 40
0.0
 40
0.0
 40
0.0
 40
0.0
 40
0.6958878385724088
 40
0.6958878385724088
 40
1.0
 40
1.0
 40
1.0
 40
1.0
 10
363.3283560299777
 20
293.7381693888394
 30
0.0
 10
363.3266061679817
 20
293.7428632208541
 30
0.0
 10
363.3253000726737
 20
293.7476407114066
 30
0.0
 10
363.3240279223461
 20
293.7546197615127
 30
0.0
 10
363.3237219254053
 20
293.7567667767723
 30
0.0
 10
363.323497597649
 20
293.7589221073478
 30
0.0
  0
SPLINE
  5
196
330
1F
100
AcDbEntity
  8
1
100
AcDbSpline
210
0.0
220
0.0
230
1.0
 70
     8
 71
     3
 72
    19
 73
    15
 74
     0
 42
0.000000001
 43
0.0000000001
 40
0.0
 40
0.0
 40
0.0
 40
0.0
 40
0.2499999999999992
 40
0.2499999999999992
 40
0.3750000000000004
 40
0.3750000000000004
 40
0.5000000000000017
 40
0.6250000000000029
 40
0.6250000000000029
 40
0.6875000000000535
 40
0.6875000000000535
 40
0.7500000000001041
 40
0.7500000000001041
 40
1.0
 40
1.0
 40
1.0
 40
1.0
 10
364.624023297218
 20
293.4514059579878
 30
0.0
 10
364.5996978546867
 20
293.4274409828486
 30
0.0
 10
364.5729632637454
 20
293.406696529
 30
0.0
 10
364.5292686216702
 20
293.3803853847294
 30
0.0
 10
364.5140699272061
 20
293.3724275868462
 30
0.0
 10
364.4832091471081
 20
293.3585331173605
 30
0.0
 10
364.4517054942013
 20
293.3465402968282
 30
0.0
 10
364.4189305207486
 20
293.3383077227453
 30
0.0
 10
364.3938579134301
 20
293.3335868107132
 30
0.0
 10
364.3854107578807
 20
293.3322571694733
 30
0.0
 10
364.3685809942141
 20
293.3301205402375
 30
0.0
 10
364.3601700628873
 20
293.3293074750377
 30
0.0
 10
364.3181349588047
 20
293.3264934272957
 30
0.0
 10
364.2845684078334
 20
293.3281949923253
 30
0.0
 10
364.2510690462357
 20
293.333947753261
 30
0.0
  0
SPLINE
  5
197
330
1F
100
AcDbEntity
  8
1
100
AcDbSpline
210
0.0
220
0.0
230
1.0
 70
     8
 71
     3
 72
     8
 73
     4
 74
     0
 42
0.000000001
 43
0.0000000001
 40
0.0
 40
0.0
 40
0.0
 40
0.0
 40
1.0
 40
1.0
 40
1.0
 40
1.0
 10
363.4005533286368
 20
293.8988084024207
 30
0.0
 10
363.3999184098204
 20
293.8950107284615
 30
0.0
 10
363.3990272574175
 20
293.8912664725304
 30
0.0
 10
363.3979061319258
 20
293.8876248948528
 30
0.0
  0
SPLINE
  5
198
330
1F
100
AcDbEntity
  8
1
100
AcDbSpline
210
0.0
220
0.0
230
1.0
 70
     8
 71
     3
 72
    20
 73
    16
 74
     0
 42
0.000000001
 43
0.0000000001
 40
0.0
 40
0.0
 40
0.0
 40
0.0
 40
0.1250000000000023
 40
0.1250000000000023
 40
0.2500000000000048
 40
0.3125000000000033
 40
0.3125000000000033
 40
0.3750000000000019
 40
0.3750000000000019
 40
0.499999999999999
 40
0.624999999999996
 40
0.624999999999996
 40
0.7499999999999929
 40
0.7499999999999929
 40
1.0
 40
1.0
 40
1.0
 40
1.0
 10
363.2825560223709
 20
294.2713382340276
 30
0.0
 10
363.2943785218239
 20
294.2595986707033
 30
0.0
 10
363.3055377175172
 20
294.2471059846573
 30
0.0
 10
363.3262122119207
 20
294.2209612958068
 30
0.0
 10
363.3405529408897
 20
294.2004210873693
 30
0.0
 10
363.3531125259168
 20
294.1784366616192
 30
0.0
 10
363.3610774883269
 20
294.163447742243
 30
0.0
 10
363.3648692792423
 20
294.1557568912894
 30
0.0
 10
363.3754844537369
 20
294.1324509744513
 30
0.0
 10
363.3876506342127
 20
294.1007328166374
 30
0.0
 10
363.3959496487773
 20
294.0677606484813
 30
0.0
 10
363.4022872374492
 20
294.0341532967181
 30
0.0
 10
363.4044636079929
 20
294.0169719671613
 30
0.0
 10
363.407871886048
 20
293.9660021359613
 30
0.0
 10
363.4061512627706
 20
293.9322916260051
 30
0.0
 10
363.4005533286368
 20
293.8988084024207
 30
0.0
  0
SPLINE
  5
199
330
1F
100
AcDbEntity
  8
1
100
AcDbSpline
210
0.0
220
0.0
230
1.0
 70
     8
 71
     3
 72
    14
 73
    10
 74
     0
 42
0.000000001
 43
0.0000000001
 40
0.0
 40
0.0
 40
0.0
 40
0.0
 40
0.25
 40
0.25
 40
0.5
 40
0.5
 40
0.75
 40
0.75
 40
1.0
 40
1.0
 40
1.0
 40
1.0
 10
363.2183244372205
 20
294.2952038472215
 30
0.0
 10
363.2242121384593
 20
294.2955795313448
 30
0.0
 10
363.2301273765973
 20
294.2953419951149
 30
0.0
 10
363.2417118344351
 20
294.2936662345691
 30
0.0
 10
363.2473567269972
 20
294.292242112438
 30
0.0
 10
363.2583497838444
 20
294.2882033223132
 30
0.0
 10
363.2637088918325
 20
294.2855638180945
 30
0.0
 10
363.2736394747235
 20
294.2792647151152
 30
0.0
 10
363.278275753285
 20
294.2755884765567
 30
0.0
 10
363.282556022371
 20
294.2713382340272
 30
0.0
  0
SPLINE
  5
19A
330
1F
100
AcDbEntity
  8
1
100
AcDbSpline
210
0.0
220
0.0
230
1.0
 70
     8
 71
     3
 72
    20
 73
    16
 74
     0
 42
0.000000001
 43
0.0000000001
 40
0.0
 40
0.0
 40
0.0
 40
0.0
 40
0.2499999999997649
 40
0.2499999999997649
 40
0.374999999999804
 40
0.374999999999804
 40
0.4999999999998432
 40
0.4999999999998432
 40
0.6249999999998824
 40
0.6249999999998824
 40
0.7499999999999217
 40
0.7499999999999217
 40
0.8749999999999607
 40
0.8749999999999607
 40
1.0
 40
1.0
 40
1.0
 40
1.0
 10
363.2183244372205
 20
294.2952038472215
 30
0.0
 10
363.208864739156
 20
294.2946002401039
 30
0.0
 10
363.199595351609
 20
294.2955437605301
 30
0.0
 10
363.1859800468509
 20
294.2992764174306
 30
0.0
 10
363.1815064481778
 20
294.3009196787548
 30
0.0
 10
363.1729860244705
 20
294.3049012538847
 30
0.0
 10
363.168897589001
 20
294.3072491129162
 30
0.0
 10
363.1610817106741
 20
294.3126913788887
 30
0.0
 10
363.1573818567237
 20
294.3157765268657
 30
0.0
 10
363.150620190264
 20
294.3224989959106
 30
0.0
 10
363.1475245931771
 20
294.3261580615992
 30
0.0
 10
363.1419389857339
 20
294.3341062211142
 30
0.0
 10
363.1394990450584
 20
294.3383339506795
 30
0.0
 10
363.1354147063332
 20
294.3471297351167
 30
0.0
 10
363.1337527841708
 20
294.351721621084
 30
0.0
 10
363.1324960638289
 20
294.3565197776481
 30
0.0
  0
SPLINE
  5
19B
330
1F
100
AcDbEntity
  8
1
100
AcDbSpline
210
0.0
220
0.0
230
1.0
 70
     8
 71
     3
 72
    20
 73
    16
 74
     0
 42
0.000000001
 43
0.0000000001
 40
0.0
 40
0.0
 40
0.0
 40
0.0
 40
0.1250000000000223
 40
0.1250000000000223
 40
0.2500000000000446
 40
0.3125000000000585
 40
0.3125000000000585
 40
0.3750000000000723
 40
0.3750000000000723
 40
0.5000000000000413
 40
0.6250000000000102
 40
0.6250000000000102
 40
0.7499999999999789
 40
0.7499999999999789
 40
1.0
 40
1.0
 40
1.0
 40
1.0
 10
364.6267620494192
 20
293.6274178775517
 30
0.0
 10
364.631317900555
 20
293.6437754150682
 30
0.0
 10
364.6368317105356
 20
293.6599098133988
 30
0.0
 10
364.6496193512538
 20
293.6912719751092
 30
0.0
 10
364.6605518284246
 20
293.7142048860462
 30
0.0
 10
364.6735461608723
 20
293.7362416807251
 30
0.0
 10
364.6826823959904
 20
293.750727893983
 30
0.0
 10
364.6875067208144
 20
293.7578951969916
 30
0.0
 10
364.702530185514
 20
293.7788258672226
 30
0.0
 10
364.7240294736731
 20
293.8052567774348
 30
0.0
 10
364.7483838640567
 20
293.8288124436351
 30
0.0
 10
364.7741871313956
 20
293.8509107205473
 30
0.0
 10
364.7878698749521
 20
293.8612498396858
 30
0.0
 10
364.8298745456403
 20
293.8891811132705
 30
0.0
 10
364.8594991216366
 20
293.904080490923
 30
0.0
 10
364.8907512520865
 20
293.9154045825315
 30
0.0
  0
SPLINE
  5
19C
330
1F
100
AcDbEntity
  8
1
100
AcDbSpline
210
0.0
220
0.0
230
1.0
 70
     8
 71
     3
 72
    14
 73
    10
 74
     0
 42
0.000000001
 43
0.0000000001
 40
0.0
 40
0.0
 40
0.0
 40
0.0
 40
0.25
 40
0.25
 40
0.5
 40
0.5
 40
0.75
 40
0.75
 40
1.0
 40
1.0
 40
1.0
 40
1.0
 10
364.8907512520865
 20
293.9154045825315
 30
0.0
 10
364.8964146923335
 20
293.9174567087467
 30
0.0
 10
364.9022731021314
 20
293.918861815663
 30
0.0
 10
364.9139360304459
 20
293.9203737033048
 30
0.0
 10
364.9197631481215
 20
293.9204988769483
 30
0.0
 10
364.9314125606095
 20
293.9195225602669
 30
0.0
 10
364.937218699817
 20
293.9184047797758
 30
0.0
 10
364.9483151825992
 20
293.9150486015746
 30
0.0
 10
364.9536736508362
 20
293.9128075425842
 30
0.0
 10
364.958836603593
 20
293.909985162697
 30
0.0
  0
SPLINE
  5
19D
330
1F
100
AcDbEntity
  8
1
100
AcDbSpline
210
0.0
220
0.0
230
1.0
 70
     8
 71
     3
 72
    18
 73
    14
 74
     0
 42
0.000000001
 43
0.0000000001
 40
0.0
 40
0.0
 40
0.0
 40
0.0
 40
0.1249999999999192
 40
0.1249999999999192
 40
0.2499999999998384
 40
0.2499999999998384
 40
0.3749999999997575
 40
0.3749999999997575
 40
0.4999999999996767
 40
0.4999999999996767
 40
0.7499999999998384
 40
0.7499999999998384
 40
1.0
 40
1.0
 40
1.0
 40
1.0
 10
365.0622105570318
 20
293.9294259066935
 30
0.0
 10
365.0590530349756
 20
293.9256039729937
 30
0.0
 10
365.0556107577819
 20
293.9221334262546
 30
0.0
 10
365.0481868056527
 20
293.915859177814
 30
0.0
 10
365.0441615504488
 20
293.9130337661188
 30
0.0
 10
365.0358081627159
 20
293.9082125686396
 30
0.0
 10
365.0314849093245
 20
293.9062065414648
 30
0.0
 10
365.0225602592614
 20
293.9029667474015
 30
0.0
 10
365.0179137927843
 20
293.901726811938
 30
0.0
 10
365.0038969757272
 20
293.8992660738731
 30
0.0
 10
364.9944912682292
 20
293.8992592261939
 30
0.0
 10
364.9759167294412
 20
293.9023939377185
 30
0.0
 10
364.9671285443848
 20
293.9054522901298
 30
0.0
 10
364.958836603593
 20
293.909985162697
 30
0.0
  0
SPLINE
  5
19E
330
1F
100
AcDbEntity
  8
1
100
AcDbSpline
210
0.0
220
0.0
230
1.0
 70
     8
 71
     3
 72
    13
 73
     9
 74
     0
 42
0.000000001
 43
0.0000000001
 40
0.0
 40
0.0
 40
0.0
 40
0.0
 40
0.4263140860086007
 40
0.4263140860086007
 40
0.6394711290129065
 40
0.6394711290129065
 40
0.8526281720172123
 40
1.0
 40
1.0
 40
1.0
 40
1.0
 10
363.1324960638289
 20
294.3565197776481
 30
0.0
 10
363.12393061658
 20
294.3892226436476
 30
0.0
 10
363.1193408373485
 20
294.4224823462673
 30
0.0
 10
363.118389578604
 20
294.4731935072865
 30
0.0
 10
363.1190888622377
 20
294.4902587046503
 30
0.0
 10
363.1224615645789
 20
294.5238212273514
 30
0.0
 10
363.1269716247447
 20
294.551905322823
 30
0.0
 10
363.1342544890144
 20
294.5794885550597
 30
0.0
 10
363.1377045983661
 20
294.5906781944648
 30
0.0
  0
SPLINE
  5
19F
330
1F
100
AcDbEntity
  8
1
100
AcDbSpline
210
0.0
220
0.0
230
1.0
 70
     8
 71
     3
 72
    10
 73
     6
 74
     0
 42
0.000000001
 43
0.0000000001
 40
0.0
 40
0.0
 40
0.0
 40
0.0
 40
0.085973558988631
 40
0.085973558988631
 40
1.0
 40
1.0
 40
1.0
 40
1.0
 10
365.1206169855951
 20
294.0223714024387
 30
0.0
 10
365.1192912601824
 20
294.0194953566144
 30
0.0
 10
365.117935275167
 20
294.0166377596393
 30
0.0
 10
365.1018138429918
 20
293.9836126823773
 30
0.0
 10
365.0837271697844
 20
293.9554700849813
 30
0.0
 10
365.0622105570318
 20
293.9294259066935
 30
0.0
  0
SPLINE
  5
1A0
330
1F
100
AcDbEntity
  8
1
100
AcDbSpline
210
0.0
220
0.0
230
1.0
 70
     8
 71
     3
 72
    14
 73
    10
 74
     0
 42
0.000000001
 43
0.0000000001
 40
0.0
 40
0.0
 40
0.0
 40
0.0
 40
0.25
 40
0.25
 40
0.5
 40
0.5
 40
0.75
 40
0.75
 40
1.0
 40
1.0
 40
1.0
 40
1.0
 10
363.6435380046236
 20
295.1123989275349
 30
0.0
 10
363.6467268582307
 20
295.1075872100659
 30
0.0
 10
363.6493973833573
 20
295.1024459901953
 30
0.0
 10
363.6535785858043
 20
295.0917716553042
 30
0.0
 10
363.6550894355794
 20
295.0862666547025
 30
0.0
 10
363.6569354924491
 20
295.0749134236902
 30
0.0
 10
363.6572545549528
 20
295.0690430149829
 30
0.0
 10
363.6566264417989
 20
295.0574603157601
 30
0.0
 10
363.6556963834681
 20
295.0516847652985
 30
0.0
 10
363.6540966688806
 20
295.0459239143104
 30
0.0
  0
SPLINE
  5
1A1
330
1F
100
AcDbEntity
  8
1
100
AcDbSpline
210
0.0
220
0.0
230
1.0
 70
     8
 71
     3
 72
    10
 73
     6
 74
     0
 42
0.000000001
 43
0.0000000001
 40
0.0
 40
0.0
 40
0.0
 40
0.0
 40
0.687664755498786
 40
0.687664755498786
 40
1.0
 40
1.0
 40
1.0
 40
1.0
 10
363.6435380046236
 20
295.1123989275349
 30
0.0
 10
363.6384141908167
 20
295.1201303405878
 30
0.0
 10
363.6347241476061
 20
295.1284734590683
 30
0.0
 10
363.6314419874923
 20
295.1414905597377
 30
0.0
 10
363.630728478648
 20
295.1456745673766
 30
0.0
 10
363.6303470669885
 20
295.1498639559352
 30
0.0
  0
SPLINE
  5
1A2
330
1F
100
AcDbEntity
  8
1
100
AcDbSpline
210
0.0
220
0.0
230
1.0
 70
     8
 71
     3
 72
    14
 73
    10
 74
     0
 42
0.000000001
 43
0.0000000001
 40
0.0
 40
0.0
 40
0.0
 40
0.0
 40
0.1108843669346367
 40
0.1108843669346367
 40
0.4072562446230912
 40
0.4072562446230912
 40
0.7036281223115456
 40
0.7036281223115456
 40
1.0
 40
1.0
 40
1.0
 40
1.0
 10
364.8828521097341
 20
294.785390892725
 30
0.0
 10
364.8835010021123
 20
294.787498697984
 30
0.0
 10
364.8842313851865
 20
294.7895675788684
 30
0.0
 10
364.8871931603309
 20
294.7969862679475
 30
0.0
 10
364.8898867430328
 20
294.8020638533188
 30
0.0
 10
364.8963230230735
 20
294.8115976590999
 30
0.0
 10
364.9000719236081
 20
294.8160317836659
 30
0.0
 10
364.9082827808319
 20
294.8238924024955
 30
0.0
 10
364.9127797597194
 20
294.8273761828661
 30
0.0
 10
364.9176813416
 20
294.830399278438
 30
0.0
  0
SPLINE
  5
1A3
330
1F
100
AcDbEntity
  8
1
100
AcDbSpline
210
0.0
220
0.0
230
1.0
 70
     8
 71
     3
 72
     8
 73
     4
 74
     0
 42
0.000000001
 43
0.0000000001
 40
0.0
 40
0.0
 40
0.0
 40
0.0
 40
1.0
 40
1.0
 40
1.0
 40
1.0
 10
364.9363013224417
 20
294.8462038500903
 30
0.0
 10
364.9309185693445
 20
294.8399991799937
 30
0.0
 10
364.9247087709668
 20
294.8347335099408
 30
0.0
 10
364.9176813416
 20
294.830399278438
 30
0.0
  0
SPLINE
  5
1A4
330
1F
100
AcDbEntity
  8
1
100
AcDbSpline
210
0.0
220
0.0
230
1.0
 70
     8
 71
     3
 72
    29
 73
    25
 74
     0
 42
0.000000001
 43
0.0000000001
 40
0.0
 40
0.0
 40
0.0
 40
0.0
 40
0.1250000000000663
 40
0.1250000000000663
 40
0.1875000000000995
 40
0.1875000000000995
 40
0.2500000000001327
 40
0.2500000000001327
 40
0.3750000000001697
 40
0.3750000000001697
 40
0.4375000000001882
 40
0.4375000000001882
 40
0.5000000000002068
 40
0.5000000000002068
 40
0.6250000000001986
 40
0.6250000000001986
 40
0.6875000000001656
 40
0.6875000000001656
 40
0.7500000000001325
 40
0.8125000000000992
 40
0.8125000000000992
 40
0.875000000000066
 40
0.875000000000066
 40
1.0
 40
1.0
 40
1.0
 40
1.0
 10
366.8925702677534
 20
296.9095798007704
 30
0.0
 10
366.8914325035119
 20
296.9350252533723
 30
0.0
 10
366.887727656483
 20
296.9599173406488
 30
0.0
 10
366.8785544607208
 20
296.9964760157372
 30
0.0
 10
366.8748890865586
 20
297.0085312562312
 30
0.0
 10
366.8663250953326
 20
297.0323758969965
 30
0.0
 10
366.8614133676083
 20
297.0441736658968
 30
0.0
 10
366.8451517539771
 20
297.0784054358759
 30
0.0
 10
366.8322060300367
 20
297.0999547186837
 30
0.0
 10
366.8096766746042
 20
297.1303987187344
 30
0.0
 10
366.801599642968
 20
297.1402789541136
 30
0.0
 10
366.7845972251306
 20
297.1591296299612
 30
0.0
 10
366.7756994710813
 20
297.1680808437589
 30
0.0
 10
366.7478496270415
 20
297.1935516327695
 30
0.0
 10
366.7277524540474
 20
297.2087021040987
 30
0.0
 10
366.6952329468271
 20
297.2285896699062
 30
0.0
 10
366.6840423111184
 20
297.2347050615454
 30
0.0
 10
366.6613360293742
 20
297.2457243483762
 30
0.0
 10
366.6382008029248
 20
297.2555975181235
 30
0.0
 10
366.6142133485131
 20
297.2631935807853
 30
0.0
 10
366.5897896565518
 20
297.269624040276
 30
0.0
 10
366.5773000076086
 20
297.2722647632003
 30
0.0
 10
366.5396276438681
 20
297.278271598617
 30
0.0
 10
366.5143336496993
 20
297.2797572120558
 30
0.0
 10
366.4888550588561
 20
297.278646356937
 30
0.0
  0
SPLINE
  5
1A5
330
1F
100
AcDbEntity
  8
1
100
AcDbSpline
210
0.0
220
0.0
230
1.0
 70
     8
 71
     3
 72
    29
 73
    25
 74
     0
 42
0.000000001
 43
0.0000000001
 40
0.0
 40
0.0
 40
0.0
 40
0.0
 40
0.1250000000000248
 40
0.1250000000000248
 40
0.1875000000000028
 40
0.1875000000000028
 40
0.2499999999999807
 40
0.2499999999999807
 40
0.3749999999999949
 40
0.3749999999999949
 40
0.4375000000000022
 40
0.4375000000000022
 40
0.5000000000000093
 40
0.5000000000000093
 40
0.6250000000000299
 40
0.6250000000000299
 40
0.6875000000000224
 40
0.6875000000000224
 40
0.750000000000015
 40
0.8125000000000074
 40
0.8125000000000074
 40
0.875
 40
0.875
 40
1.0
 40
1.0
 40
1.0
 40
1.0
 10
361.712147911079
 20
297.0703840704404
 30
0.0
 10
361.6866666290473
 20
297.0692730979871
 30
0.0
 10
361.6617420525417
 20
297.065598216148
 30
0.0
 10
361.6251393485281
 20
297.0564744381401
 30
0.0
 10
361.6130702223693
 20
297.0528262877237
 30
0.0
 10
361.5891994149279
 20
297.0442982685118
 30
0.0
 10
361.5773893658176
 20
297.0394053163246
 30
0.0
 10
361.5431239503577
 20
297.0232010936628
 30
0.0
 10
361.5215561639951
 20
297.0102954236251
 30
0.0
 10
361.4910902125583
 20
296.9878287995647
 30
0.0
 10
361.4812036094197
 20
296.9797732358517
 30
0.0
 10
361.4623423575908
 20
296.962814084308
 30
0.0
 10
361.4533869361896
 20
296.9539380695867
 30
0.0
 10
361.427906675476
 20
296.926153753224
 30
0.0
 10
361.4127540598256
 20
296.9061006751929
 30
0.0
 10
361.3928697448122
 20
296.8736479460257
 30
0.0
 10
361.3867565295726
 20
296.8624795703546
 30
0.0
 10
361.3757436761074
 20
296.8398170825928
 30
0.0
 10
361.3658789793634
 20
296.8167251574633
 30
0.0
 10
361.3582956361341
 20
296.7927799529604
 30
0.0
 10
361.3518799712189
 20
296.7683980095591
 30
0.0
 10
361.3492477544216
 20
296.7559290698081
 30
0.0
 10
361.3432694199662
 20
296.7183172358698
 30
0.0
 10
361.3418066423105
 20
296.6930613654327
 30
0.0
 10
361.3429442863879
 20
296.6676186002354
 30
0.0
  0
SPLINE
  5
1A6
330
1F
100
AcDbEntity
  8
1
100
AcDbSpline
210
0.0
220
0.0
230
1.0
 70
     8
 71
     3
 72
    29
 73
    25
 74
     0
 42
0.000000001
 43
0.0000000001
 40
0.0
 40
0.0
 40
0.0
 40
0.0
 40
0.1250000000000422
 40
0.1250000000000422
 40
0.1875000000000644
 40
0.1875000000000644
 40
0.2500000000000865
 40
0.2500000000000865
 40
0.3750000000001328
 40
0.3750000000001328
 40
0.4375000000001569
 40
0.4375000000001569
 40
0.5000000000001808
 40
0.5000000000001808
 40
0.6250000000001793
 40
0.6250000000001793
 40
0.6875000000001493
 40
0.6875000000001493
 40
0.7500000000001195
 40
0.8125000000000897
 40
0.8125000000000897
 40
0.8750000000000598
 40
0.8750000000000598
 40
1.0
 40
1.0
 40
1.0
 40
1.0
 10
361.5562289468136
 20
291.8976280177365
 30
0.0
 10
361.5573667110552
 20
291.8721825651347
 30
0.0
 10
361.5610715580841
 20
291.8472904778581
 30
0.0
 10
361.5702447538463
 20
291.8107318027697
 30
0.0
 10
361.5739101280085
 20
291.7986765622758
 30
0.0
 10
361.5824741192345
 20
291.7748319215104
 30
0.0
 10
361.5873858469588
 20
291.7630341526102
 30
0.0
 10
361.60364746059
 20
291.728802382631
 30
0.0
 10
361.6165931845304
 20
291.7072530998232
 30
0.0
 10
361.6391225399628
 20
291.6768090997726
 30
0.0
 10
361.6471995715991
 20
291.6669288643932
 30
0.0
 10
361.6642019894365
 20
291.6480781885457
 30
0.0
 10
361.6730997434857
 20
291.639126974748
 30
0.0
 10
361.7009495875255
 20
291.6136561857374
 30
0.0
 10
361.7210467605197
 20
291.5985057144082
 30
0.0
 10
361.7535662677399
 20
291.5786181486008
 30
0.0
 10
361.7647569034486
 20
291.5725027569615
 30
0.0
 10
361.787463185193
 20
291.5614834701307
 30
0.0
 10
361.8105984116422
 20
291.5516103003834
 30
0.0
 10
361.834585866054
 20
291.5440142377216
 30
0.0
 10
361.8590095580153
 20
291.537583778231
 30
0.0
 10
361.8714992069584
 20
291.5349430553066
 30
0.0
 10
361.9091715706988
 20
291.5289362198899
 30
0.0
 10
361.9344655648678
 20
291.5274506064511
 30
0.0
 10
361.9599441557109
 20
291.5285614615698
 30
0.0
  0
SPLINE
  5
1A7
330
1F
100
AcDbEntity
  8
1
100
AcDbSpline
210
0.0
220
0.0
230
1.0
 70
     8
 71
     3
 72
    29
 73
    25
 74
     0
 42
0.000000001
 43
0.0000000001
 40
0.0
 40
0.0
 40
0.0
 40
0.0
 40
0.1249999999998803
 40
0.1249999999998803
 40
0.1874999999998539
 40
0.1874999999998539
 40
0.2499999999998275
 40
0.2499999999998275
 40
0.3749999999998357
 40
0.3749999999998357
 40
0.4374999999998398
 40
0.4374999999998398
 40
0.4999999999998439
 40
0.4999999999998439
 40
0.6249999999998522
 40
0.6249999999998522
 40
0.687499999999875
 40
0.687499999999875
 40
0.7499999999998979
 40
0.8124999999999207
 40
0.8124999999999207
 40
0.8749999999999435
 40
0.8749999999999435
 40
1.0
 40
1.0
 40
1.0
 40
1.0
 10
366.7366513034882
 20
291.7368237480665
 30
0.0
 10
366.7621325855198
 20
291.7379347205198
 30
0.0
 10
366.7870571620256
 20
291.7416096023588
 30
0.0
 10
366.8236598660389
 20
291.7507333803668
 30
0.0
 10
366.8357289921977
 20
291.7543815307831
 30
0.0
 10
366.8595997996392
 20
291.7629095499951
 30
0.0
 10
366.8714098487495
 20
291.7678025021823
 30
0.0
 10
366.9056752642094
 20
291.7840067248441
 30
0.0
 10
366.9272430505719
 20
291.7969123948818
 30
0.0
 10
366.9577090020088
 20
291.8193790189422
 30
0.0
 10
366.9675956051473
 20
291.8274345826552
 30
0.0
 10
366.9864568569762
 20
291.8443937341989
 30
0.0
 10
366.9954122783774
 20
291.8532697489202
 30
0.0
 10
367.0208925390911
 20
291.8810540652828
 30
0.0
 10
367.0360451547414
 20
291.901107143314
 30
0.0
 10
367.0559294697548
 20
291.9335598724812
 30
0.0
 10
367.0620426849945
 20
291.9447282481523
 30
0.0
 10
367.0730555384597
 20
291.9673907359142
 30
0.0
 10
367.0829201865246
 20
291.9904826792507
 30
0.0
 10
367.090503578433
 20
292.0144278655465
 30
0.0
 10
367.0969192433483
 20
292.0388098089477
 30
0.0
 10
367.0995514601453
 20
292.0512787486988
 30
0.0
 10
367.1055297946008
 20
292.088890582637
 30
0.0
 10
367.1069925722566
 20
292.1141464530742
 30
0.0
 10
367.1058549281791
 20
292.1395892182715
 30
0.0
  0
SPLINE
  5
1A8
330
1F
100
AcDbEntity
  8
1
100
AcDbSpline
210
0.0
220
0.0
230
1.0
 70
    12
 71
     2
 72
     6
 73
     3
 74
     0
 42
0.000000001
 43
0.0000000001
 40
0.0
 40
0.0
 40
0.0
 40
1.0
 40
1.0
 40
1.0
 10
361.1399117712748
 20
296.8262486908002
 30
0.0
 41
0.4999998217255329
 10
361.2521399124983
 20
296.8259685836182
 30
0.0
 41
0.5000001782744671
 10
361.3643632626067
 20
296.8256875215823
 30
0.0
 41
0.4999998217255329
  0
SPLINE
  5
1A9
330
1F
100
AcDbEntity
  8
1
100
AcDbSpline
210
0.0
220
0.0
230
1.0
 70
     8
 71
     3
 72
     8
 73
     4
 74
     0
 42
0.000000001
 43
0.0000000001
 40
0.0
 40
0.0
 40
0.0
 40
0.0
 40
1.0
 40
1.0
 40
1.0
 40
1.0
 10
297.3298021422061
 20
281.2468960851456
 30
0.0
 10
297.5214759828675
 20
281.2547837967579
 30
0.0
 10
297.7131559560596
 20
281.2587902408292
 30
0.0
 10
297.9048419452957
 20
281.2587902408292
 30
0.0
  0
SPLINE
  5
1AA
330
1F
100
AcDbEntity
  8
1
100
AcDbSpline
210
0.0
220
0.0
230
1.0
 70
     8
 71
     3
 72
    24
 73
    20
 74
     0
 42
0.000000001
 43
0.0000000001
 40
0.0
 40
0.0
 40
0.0
 40
0.0
 40
0.0138066897597955
 40
0.0138066897597955
 40
0.0896677136244267
 40
0.0896677136244267
 40
0.2413897613536883
 40
0.2413897613536883
 40
0.3172507852183192
 40
0.3172507852183192
 40
0.3931118090829499
 40
0.3931118090829499
 40
0.5448338568122124
 40
0.5448338568122124
 40
0.6965559045414747
 40
0.6965559045414747
 40
0.8482779522707373
 40
0.8482779522707373
 40
1.0
 40
1.0
 40
1.0
 40
1.0
 10
321.1907708009597
 20
282.7091005272316
 30
0.0
 10
321.0842451153087
 20
282.6973872934025
 30
0.0
 10
320.9777020407707
 20
282.6857932969507
 30
0.0
 10
320.2856471128649
 20
282.6112444320656
 30
0.0
 10
319.6996427704152
 20
282.5516538650473
 30
0.0
 10
317.9403344969847
 20
282.3816718634954
 30
0.0
 10
316.7657472513523
 20
282.2799785403517
 30
0.0
 10
315.002040285799
 20
282.1401127725375
 30
0.0
 10
314.4138064528248
 20
282.0956255219364
 30
0.0
 10
313.2369267544925
 20
282.0103893245424
 30
0.0
 10
312.6483218687279
 20
281.9696440178341
 30
0.0
 10
310.8820782604278
 20
281.852404530791
 30
0.0
 10
309.704017457365
 20
281.7808677508646
 30
0.0
 10
307.3469423951508
 20
281.6489296180868
 30
0.0
 10
306.1679263484767
 20
281.5885505584882
 30
0.0
 10
303.8089169967516
 20
281.477849690792
 30
0.0
 10
302.6289214027213
 20
281.4275445013727
 30
0.0
 10
300.2677929669182
 20
281.336304553132
 30
0.0
 10
299.0866576745537
 20
281.2953800184309
 30
0.0
 10
297.9048419452957
 20
281.2587902408294
 30
0.0
  0
SPLINE
  5
1AB
330
1F
100
AcDbEntity
  8
1
100
AcDbSpline
210
0.0
220
0.0
230
1.0
 70
     8
 71
     3
 72
     8
 73
     4
 74
     0
 42
0.000000001
 43
0.0000000001
 40
0.0
 40
0.0
 40
0.0
 40
0.0
 40
1.0
 40
1.0
 40
1.0
 40
1.0
 10
297.9048419452737
 20
296.7025273339138
 30
0.0
 10
297.747337458358
 20
296.702527333914
 30
0.0
 10
297.5898378733211
 20
296.7051747317718
 30
0.0
 10
297.432343304681
 20
296.7103785378311
 30
0.0
  0
SPLINE
  5
1AC
330
1F
100
AcDbEntity
  8
1
100
AcDbSpline
210
0.0
220
0.0
230
1.0
 70
     8
 71
     3
 72
    10
 73
     6
 74
     0
 42
0.000000001
 43
0.0000000001
 40
0.0
 40
0.0
 40
0.0
 40
0.0
 40
0.5
 40
0.5
 40
1.0
 40
1.0
 40
1.0
 40
1.0
 10
294.289618256146
 20
281.1103257152664
 30
0.0
 10
294.7940320763258
 20
281.1333882811118
 30
0.0
 10
295.2994717087597
 20
281.1569579188255
 30
0.0
 10
296.3126990167122
 20
281.2032319878525
 30
0.0
 10
296.8204911509051
 20
281.2259370528305
 30
0.0
 10
297.3298021422061
 20
281.2468960851455
 30
0.0
  0
SPLINE
  5
1AD
330
1F
100
AcDbEntity
  8
1
100
AcDbSpline
210
0.0
220
0.0
230
1.0
 70
     8
 71
     3
 72
    31
 73
    27
 74
     0
 42
0.000000001
 43
0.0000000001
 40
0.0
 40
0.0
 40
0.0
 40
0.0
 40
0.1250000000000013
 40
0.1250000000000013
 40
0.2500000000000026
 40
0.2500000000000026
 40
0.3750000000000039
 40
0.3750000000000039
 40
0.4375000000000043
 40
0.4375000000000043
 40
0.4687500000000044
 40
0.4843750000000043
 40
0.4843750000000043
 40
0.5000000000000043
 40
0.5000000000000043
 40
0.6250000000000029
 40
0.6250000000000029
 40
0.7500000000000016
 40
0.7500000000000016
 40
0.8750000000000001
 40
0.8750000000000001
 40
0.9374999999999996
 40
0.9374999999999996
 40
0.9687499999999998
 40
0.9687499999999998
 40
1.0
 40
1.0
 40
1.0
 40
1.0
 10
285.0972301007209
 20
283.1813213554378
 30
0.0
 10
285.3619220539483
 20
283.3802602591805
 30
0.0
 10
285.6363882246896
 20
283.5687010945914
 30
0.0
 10
286.2045579760564
 20
283.9247571474162
 30
0.0
 10
286.4982609851739
 20
284.0923741196955
 30
0.0
 10
287.105152781385
 20
284.4062833598944
 30
0.0
 10
287.418338572893
 20
284.5525811198682
 30
0.0
 10
287.9033743547723
 20
284.7550804997904
 30
0.0
 10
288.0676008361884
 20
284.8197492072279
 30
0.0
 10
288.3178937785983
 20
284.9123173386231
 30
0.0
 10
288.4440291231402
 20
284.9574918874006
 30
0.0
 10
288.571677888938
 20
285.0009591506792
 30
0.0
 10
288.6571171352237
 20
285.0295525652447
 30
0.0
 10
288.7000106480835
 20
285.0436577038187
 30
0.0
 10
289.0864505814259
 20
285.1684847435042
 30
0.0
 10
289.4347830033602
 20
285.2650957960408
 30
0.0
 10
290.1410575506767
 20
285.4288669486174
 30
0.0
 10
290.499001377327
 20
285.4960285351038
 30
0.0
 10
291.2246670176017
 20
285.599083139746
 30
0.0
 10
291.592390747984
 20
285.6349788373441
 30
0.0
 10
292.1515582114287
 20
285.6631635145173
 30
0.0
 10
292.3392121102752
 20
285.668272839097
 30
0.0
 10
292.6226283222468
 20
285.6691481386657
 30
0.0
 10
292.7174229932418
 20
285.6683078632807
 30
0.0
 10
292.9076642686449
 20
285.6642960120762
 30
0.0
 10
293.0028510159478
 20
285.6611286010692
 30
0.0
 10
293.0979527279673
 20
285.6567938256071
 30
0.0
  0
SPLINE
  5
1AE
330
1F
100
AcDbEntity
  8
1
100
AcDbSpline
210
0.0
220
0.0
230
1.0
 70
     8
 71
     3
 72
     8
 73
     4
 74
     0
 42
0.000000001
 43
0.0000000001
 40
0.0
 40
0.0
 40
0.0
 40
0.0
 40
1.0
 40
1.0
 40
1.0
 40
1.0
 10
355.7349363358921
 20
291.261143550346
 30
0.0
 10
355.6677931540339
 20
291.2972247636627
 30
0.0
 10
355.6005822350237
 20
291.3335128559028
 30
0.0
 10
355.5333071855882
 20
291.3699968116084
 30
0.0
  0
SPLINE
  5
1AF
330
1F
100
AcDbEntity
  8
1
100
AcDbSpline
210
0.0
220
0.0
230
1.0
 70
     8
 71
     3
 72
    16
 73
    12
 74
     0
 42
0.000000001
 43
0.0000000001
 40
0.0
 40
0.0
 40
0.0
 40
0.0
 40
0.2500000000000662
 40
0.2500000000000662
 40
0.3750000000000736
 40
0.3750000000000736
 40
0.500000000000081
 40
0.500000000000081
 40
0.7500000000000405
 40
0.7500000000000405
 40
1.0
 40
1.0
 40
1.0
 40
1.0
 10
362.9326764538367
 20
291.3653092255125
 30
0.0
 10
362.9020362379798
 20
291.3281170396728
 30
0.0
 10
362.8693078809594
 20
291.2931773562653
 30
0.0
 10
362.8171127798816
 20
291.2439551150905
 30
0.0
 10
362.7991541061791
 20
291.2280554120485
 30
0.0
 10
362.7628012338358
 20
291.1978079022661
 30
0.0
 10
362.7443364176709
 20
291.1833887617315
 30
0.0
 10
362.6880557599807
 20
291.1420991863179
 30
0.0
 10
362.6493630454132
 20
291.1171835911425
 30
0.0
 10
362.5693343199992
 20
291.0721780094677
 30
0.0
 10
362.5280072053259
 20
291.0520876664389
 30
0.0
 10
362.4850141659995
 20
291.0344285329822
 30
0.0
  0
SPLINE
  5
1B0
330
1F
100
AcDbEntity
  8
1
100
AcDbSpline
210
0.0
220
0.0
230
1.0
 70
     8
 71
     3
 72
    15
 73
    11
 74
     0
 42
0.000000001
 43
0.0000000001
 40
0.0
 40
0.0
 40
0.0
 40
0.0
 40
0.1250000000000042
 40
0.1875000000000062
 40
0.1875000000000062
 40
0.2500000000000083
 40
0.2500000000000083
 40
0.5000000000000055
 40
0.7500000000000028
 40
1.0
 40
1.0
 40
1.0
 40
1.0
 10
358.7655712971695
 20
291.2567327767606
 30
0.0
 10
358.916927529298
 20
291.2182149113297
 30
0.0
 10
359.1452002375811
 20
291.1645424183753
 30
0.0
 10
359.3753404610853
 20
291.117069340254
 30
0.0
 10
359.5291842338296
 20
291.0868057088945
 30
0.0
 10
359.6062805952366
 20
291.0723740399218
 30
0.0
 10
359.9918160533519
 20
291.0038585685101
 30
0.0
 10
360.6104884502869
 20
290.9172228959788
 30
0.0
 10
361.5438647204065
 20
290.8553578261404
 30
0.0
 10
362.1697018946553
 20
290.8596648518604
 30
0.0
 10
362.483534492112
 20
290.8734366097807
 30
0.0
  0
SPLINE
  5
1B1
330
1F
100
AcDbEntity
  8
1
100
AcDbSpline
210
0.0
220
0.0
230
1.0
 70
     8
 71
     3
 72
    28
 73
    24
 74
     0
 42
0.000000001
 43
0.0000000001
 40
0.0
 40
0.0
 40
0.0
 40
0.0
 40
0.125
 40
0.125
 40
0.25
 40
0.25
 40
0.3125
 40
0.3125
 40
0.375
 40
0.375
 40
0.5
 40
0.5
 40
0.53125
 40
0.53125
 40
0.5625
 40
0.5625
 40
0.625
 40
0.625
 40
0.75
 40
0.75
 40
0.875
 40
0.875
 40
1.0
 40
1.0
 40
1.0
 40
1.0
 10
355.73565182967
 20
291.2402312815558
 30
0.0
 10
355.9850961667749
 20
291.0806157592242
 30
0.0
 10
356.2407918756429
 20
290.9309641981365
 30
0.0
 10
356.7642558671377
 20
290.651764030784
 30
0.0
 10
357.0320242225016
 20
290.5222134977716
 30
0.0
 10
357.4425619104395
 20
290.3432338154125
 30
0.0
 10
357.5810189633194
 20
290.2860893298974
 30
0.0
 10
357.8595431608805
 20
290.1774866751341
 30
0.0
 10
357.9997461060323
 20
290.1259633773049
 30
0.0
 10
358.4231329945844
 20
289.979663707251
 30
0.0
 10
358.7090902009683
 20
289.8931456085825
 30
0.0
 10
359.0710848208901
 20
289.7987296975598
 30
0.0
 10
359.1437115267784
 20
289.7805340372815
 30
0.0
 10
359.2894201209581
 20
289.7455206506955
 30
0.0
 10
359.3624729373937
 20
289.7287111319226
 30
0.0
 10
359.5816805327208
 20
289.6804848038932
 30
0.0
 10
359.7280853847664
 20
289.6512201232353
 30
0.0
 10
360.1680842071898
 20
289.5719449856843
 30
0.0
 10
360.4624609721502
 20
289.5304389748625
 30
0.0
 10
361.0532591253231
 20
289.4697290214109
 30
0.0
 10
361.3496805305091
 20
289.4505251249601
 30
0.0
 10
361.9445712784957
 20
289.4344973566168
 30
0.0
 10
362.2430404942689
 20
289.4376721481471
 30
0.0
 10
362.542559551103
 20
289.4523160705674
 30
0.0
  0
SPLINE
  5
1B2
330
1F
100
AcDbEntity
  8
1
100
AcDbSpline
210
0.0
220
0.0
230
1.0
 70
     8
 71
     3
 72
     8
 73
     4
 74
     0
 42
0.000000001
 43
0.0000000001
 40
0.0
 40
0.0
 40
0.0
 40
0.0
 40
1.0
 40
1.0
 40
1.0
 40
1.0
 10
362.4835344921289
 20
290.8734366097814
 30
0.0
 10
362.4869963470715
 20
290.8735885246194
 30
0.0
 10
362.4904587471975
 20
290.8737399737012
 30
0.0
 10
362.4939216930251
 20
290.8738909565841
 30
0.0
  0
SPLINE
  5
1B3
330
1F
100
AcDbEntity
  8
1
100
AcDbSpline
210
0.0
220
0.0
230
1.0
 70
     8
 71
     3
 72
    31
 73
    27
 74
     0
 42
0.000000001
 43
0.0000000001
 40
0.0
 40
0.0
 40
0.0
 40
0.0
 40
0.0625000000000013
 40
0.0625000000000013
 40
0.1250000000000025
 40
0.1250000000000025
 40
0.2500000000000049
 40
0.2500000000000049
 40
0.2812500000000056
 40
0.2812500000000056
 40
0.3125000000000062
 40
0.3125000000000062
 40
0.3750000000000073
 40
0.3750000000000073
 40
0.5000000000000036
 40
0.5000000000000036
 40
0.6249999999999999
 40
0.6249999999999999
 40
0.749999999999996
 40
0.749999999999996
 40
0.8124999999999941
 40
0.843749999999996
 40
0.843749999999996
 40
0.8749999999999978
 40
0.8749999999999978
 40
1.0
 40
1.0
 40
1.0
 40
1.0
 10
361.8488419452959
 20
289.8799352953226
 30
0.0
 10
361.7138412181227
 20
289.8764376680281
 30
0.0
 10
361.5793078459878
 20
289.8747721649279
 30
0.0
 10
361.3109892603949
 20
289.8752545107474
 30
0.0
 10
361.1772050814861
 20
289.877401464421
 30
0.0
 10
360.7767917437649
 20
289.8897218128393
 30
0.0
 10
360.5110920707431
 20
289.9057758701114
 30
0.0
 10
360.1801527459425
 20
289.9360687844166
 30
0.0
 10
360.1140250071687
 20
289.9426384533301
 30
0.0
 10
359.981883456192
 20
289.9568104364593
 30
0.0
 10
359.915914908491
 20
289.9644084424167
 30
0.0
 10
359.7186158577167
 20
289.9887053884782
 30
0.0
 10
359.5877674592248
 20
290.0069200173856
 30
0.0
 10
359.1971847115711
 20
290.067622575506
 30
0.0
 10
358.9394228126976
 20
290.1161439479308
 30
0.0
 10
358.4287978856345
 20
290.229461137743
 30
0.0
 10
358.1759351588155
 20
290.2942567414377
 30
0.0
 10
357.6748269706057
 20
290.4405734251319
 30
0.0
 10
357.4265822000164
 20
290.5220924742626
 30
0.0
 10
357.0575040347957
 20
290.6574968809685
 30
0.0
 10
356.8737876775529
 20
290.7284846472123
 30
0.0
 10
356.6912761654494
 20
290.8045517617853
 30
0.0
 10
356.5698665044595
 20
290.8564119393334
 30
0.0
 10
356.5092688917272
 20
290.8829275855605
 30
0.0
 10
356.2072281393317
 20
291.0182982578398
 30
0.0
 10
355.9692874981779
 20
291.1352085850463
 30
0.0
 10
355.7349363359095
 20
291.2611435503367
 30
0.0
  0
SPLINE
  5
1B4
330
1F
100
AcDbEntity
  8
1
100
AcDbSpline
210
0.0
220
0.0
230
1.0
 70
     8
 71
     3
 72
    24
 73
    20
 74
     0
 42
0.000000001
 43
0.0000000001
 40
0.0
 40
0.0
 40
0.0
 40
0.0
 40
0.1249999999999999
 40
0.1249999999999999
 40
0.2499999999999997
 40
0.2499999999999997
 40
0.3749999999999996
 40
0.3749999999999996
 40
0.4999999999999994
 40
0.4999999999999994
 40
0.6249999999999996
 40
0.6249999999999996
 40
0.7499999999999996
 40
0.7499999999999996
 40
0.8749999999999996
 40
0.8749999999999996
 40
0.9375
 40
0.9375
 40
1.0
 40
1.0
 40
1.0
 40
1.0
 10
285.0972301007208
 20
283.1813213554379
 30
0.0
 10
284.8540422338287
 20
282.998544633089
 30
0.0
 10
284.611243759481
 20
282.8137443824688
 30
0.0
 10
284.1265980400597
 20
282.4394443511922
 30
0.0
 10
283.8847520526194
 20
282.2499426693477
 30
0.0
 10
283.4022799213522
 20
281.865173855772
 30
0.0
 10
283.1616548626509
 20
281.6699053719112
 30
0.0
 10
282.6819511048018
 20
281.2721788327468
 30
0.0
 10
282.4428731921226
 20
281.0697208493586
 30
0.0
 10
281.9666196006114
 20
280.6558557930688
 30
0.0
 10
281.7294443064795
 20
280.4444513606874
 30
0.0
 10
281.2573632214747
 20
280.0105627775924
 30
0.0
 10
281.0224572942356
 20
279.7880858063116
 30
0.0
 10
280.5552893458838
 20
279.3294123180264
 30
0.0
 10
280.3230264051209
 20
279.0932320007888
 30
0.0
 10
279.9769119693632
 20
278.7260636333133
 30
0.0
 10
279.8619207310708
 20
278.6015166567004
 30
0.0
 10
279.632754049141
 20
278.347534022426
 30
0.0
 10
279.5185784831587
 20
278.2181001804186
 30
0.0
 10
279.4048419452957
 20
278.0858659555693
 30
0.0
  0
SPLINE
  5
1B5
330
1F
100
AcDbEntity
  8
1
100
AcDbSpline
210
0.0
220
0.0
230
1.0
 70
     8
 71
     3
 72
    42
 73
    38
 74
     0
 42
0.000000001
 43
0.0000000001
 40
0.0
 40
0.0
 40
0.0
 40
0.0
 40
0.0624999999999756
 40
0.0624999999999756
 40
0.1249999999999512
 40
0.1249999999999512
 40
0.1874999999999267
 40
0.1874999999999267
 40
0.2187499999999282
 40
0.2187499999999282
 40
0.2499999999999297
 40
0.2499999999999297
 40
0.3124999999999604
 40
0.3124999999999604
 40
0.3749999999999912
 40
0.3749999999999912
 40
0.4062500000000066
 40
0.4062500000000066
 40
0.437500000000022
 40
0.437500000000022
 40
0.5000000000000263
 40
0.5000000000000263
 40
0.5625000000000307
 40
0.5625000000000307
 40
0.625000000000035
 40
0.625000000000035
 40
0.7500000000000437
 40
0.7500000000000437
 40
0.8125000000000479
 40
0.8125000000000479
 40
0.8437500000000401
 40
0.8437500000000401
 40
0.8750000000000321
 40
0.8750000000000321
 40
0.9375000000000159
 40
0.9375000000000159
 40
1.0
 40
1.0
 40
1.0
 40
1.0
 10
362.4850141659985
 20
291.0344285329818
 30
0.0
 10
362.4574243984989
 20
291.0230962011917
 30
0.0
 10
362.4295044809392
 20
291.0129140564815
 30
0.0
 10
362.3728634558364
 20
290.9948248574719
 30
0.0
 10
362.344142879197
 20
290.9869171957673
 30
0.0
 10
362.2856941760243
 20
290.9734499974634
 30
0.0
 10
362.2559658493017
 20
290.9678893874663
 30
0.0
 10
362.2104066978267
 20
290.9614576446479
 30
0.0
 10
362.1950586187985
 20
290.9596330143076
 30
0.0
 10
362.1639991290979
 20
290.9566616257605
 30
0.0
 10
362.1483400245495
 20
290.9555239132788
 30
0.0
 10
362.1016950941948
 20
290.9532098008087
 30
0.0
 10
362.0707719060046
 20
290.9531035473931
 30
0.0
 10
362.0092582166706
 20
290.9556817031547
 30
0.0
 10
361.9786670572959
 20
290.9583653155354
 30
0.0
 10
361.9329919942408
 20
290.9644472055816
 30
0.0
 10
361.9178692841692
 20
290.9668104621173
 30
0.0
 10
361.8880598701751
 20
290.9721363454099
 30
0.0
 10
361.8733304826901
 20
290.9751044916742
 30
0.0
 10
361.8295982979323
 20
290.9848869418971
 30
0.0
 10
361.8010480773743
 20
290.9925756738255
 30
0.0
 10
361.7448734017993
 20
291.0101890183142
 30
0.0
 10
361.7172500493406
 20
291.0201145236543
 30
0.0
 10
361.6627419305034
 20
291.0422099761061
 30
0.0
 10
361.6357675936795
 20
291.0544299503126
 30
0.0
 10
361.5567126926976
 20
291.0940998336042
 30
0.0
 10
361.506325638343
 20
291.1245484832129
 30
0.0
 10
361.4336629260801
 20
291.1765989557746
 30
0.0
 10
361.4099347009757
 20
291.195019911474
 30
0.0
 10
361.375055680326
 20
291.2243918181853
 30
0.0
 10
361.3635215402277
 20
291.2344981228813
 30
0.0
 10
361.3408250640633
 20
291.2552001388488
 30
0.0
 10
361.3296850479488
 20
291.2657733542155
 30
0.0
 10
361.2968830664172
 20
291.2981636139626
 30
0.0
 10
361.2758379716755
 20
291.3206494830767
 30
0.0
 10
361.2353881276205
 20
291.3674672041716
 30
0.0
 10
361.2159648526467
 20
291.3918236620995
 30
0.0
 10
361.1974160763319
 20
291.4171143798874
 30
0.0
  0
SPLINE
  5
1B6
330
1F
100
AcDbEntity
  8
1
100
AcDbSpline
210
0.0
220
0.0
230
1.0
 70
     8
 71
     3
 72
    10
 73
     6
 74
     0
 42
0.000000001
 43
0.0000000001
 40
0.0
 40
0.0
 40
0.0
 40
0.0
 40
0.5
 40
0.5
 40
1.0
 40
1.0
 40
1.0
 40
1.0
 10
360.1546277217646
 20
294.4208716945657
 30
0.0
 10
359.9487423198765
 20
294.806005372987
 30
0.0
 10
359.7524069059435
 20
295.1956488898608
 30
0.0
 10
359.3780273162479
 20
295.9835736862553
 30
0.0
 10
359.1999790559471
 20
296.3818530369144
 30
0.0
 10
359.0305070002269
 20
296.7841823714451
 30
0.0
  0
SPLINE
  5
1B7
330
1F
100
AcDbEntity
  8
1
100
AcDbSpline
210
0.0
220
0.0
230
1.0
 70
     8
 71
     3
 72
    42
 73
    38
 74
     0
 42
0.000000001
 43
0.0000000001
 40
0.0
 40
0.0
 40
0.0
 40
0.0
 40
0.0461190799064861
 40
0.0461190799064861
 40
0.0922381598129721
 40
0.0922381598129721
 40
0.1383572397194582
 40
0.1383572397194582
 40
0.1844763196259442
 40
0.1844763196259442
 40
0.2305953995324302
 40
0.2305953995324302
 40
0.2767144794389163
 40
0.2767144794389163
 40
0.3228335593454024
 40
0.3228335593454024
 40
0.3689526392518884
 40
0.3689526392518884
 40
0.4611907990648616
 40
0.4611907990648616
 40
0.5534289588778347
 40
0.5534289588778347
 40
0.6456671186908072
 40
0.6456671186908072
 40
0.6917861985972936
 40
0.6917861985972936
 40
0.7379052785037798
 40
0.7379052785037798
 40
0.7840243584102661
 40
0.7840243584102661
 40
0.8301434383167524
 40
0.8301434383167524
 40
0.8762625182232389
 40
0.8762625182232389
 40
0.9223815981297251
 40
0.9223815981297251
 40
1.0
 40
1.0
 40
1.0
 40
1.0
 10
359.0305070002268
 20
296.7841823714451
 30
0.0
 10
358.4089203343065
 20
296.8088057444662
 30
0.0
 10
357.7858511045687
 20
296.8283817392386
 30
0.0
 10
356.5369049585154
 20
296.8598788419506
 30
0.0
 10
355.9110282205978
 20
296.8718006633712
 30
0.0
 10
354.6567273638611
 20
296.8900023326993
 30
0.0
 10
354.0283035056062
 20
296.8962823675955
 30
0.0
 10
352.7692647959733
 20
296.9047702720742
 30
0.0
 10
352.1386502824057
 20
296.9069778280438
 30
0.0
 10
350.8756737352189
 20
296.9084496866349
 30
0.0
 10
350.2432761720163
 20
296.9077132910589
 30
0.0
 10
348.9774065266631
 20
296.9040003035927
 30
0.0
 10
348.3441086645843
 20
296.901024022386
 30
0.0
 10
347.0771519548463
 20
296.8931293991654
 30
0.0
 10
346.4434998297249
 20
296.8882065934553
 30
0.0
 10
345.1762104915836
 20
296.8763329139552
 30
0.0
 10
344.5425512659172
 20
296.8693851061378
 30
0.0
 10
342.6416246366571
 20
296.8454358592596
 30
0.0
 10
341.3744138186467
 20
296.8253494120237
 30
0.0
 10
338.8405590713808
 20
296.775921874335
 30
0.0
 10
337.5738538780665
 20
296.7465744085008
 30
0.0
 10
335.0416426632715
 20
296.6770160775761
 30
0.0
 10
333.7761285190239
 20
296.6368324841789
 30
0.0
 10
331.8790595084863
 20
296.5665945560719
 30
0.0
 10
331.2469051068609
 20
296.5415129020388
 30
0.0
 10
329.983092935642
 20
296.4875083458232
 30
0.0
 10
329.3514411025824
 20
296.4585654894728
 30
0.0
 10
328.08856648746
 20
296.3966520206213
 30
0.0
 10
327.4573443545823
 20
296.3636789214737
 30
0.0
 10
326.1952329996266
 20
296.2936587054782
 30
0.0
 10
325.5643223881909
 20
296.2566072183367
 30
0.0
 10
324.3028191454113
 20
296.1785828831836
 30
0.0
 10
323.6722352221188
 20
296.1376081887672
 30
0.0
 10
322.4112067054655
 20
296.0521627329194
 30
0.0
 10
321.7807529610571
 20
296.0077208968611
 30
0.0
 10
320.0892364249317
 20
295.8843621570969
 30
0.0
 10
319.0281698821511
 20
295.8025936894421
 30
0.0
 10
317.9668177997792
 20
295.7175389511949
 30
0.0
  0
SPLINE
  5
1B8
330
1F
100
AcDbEntity
  8
1
100
AcDbSpline
210
0.0
220
0.0
230
1.0
 70
    28
 71
     4
 72
    13
 73
     8
 74
     0
 42
0.000000001
 43
0.0000000001
 40
0.0
 40
0.0
 40
0.0
 40
0.0
 40
0.0
 40
0.1203472387074244
 40
0.1203472387074244
 40
0.1203472387074244
 40
1.0
 40
1.0
 40
1.0
 40
1.0
 40
1.0
 10
297.9048419452959
 20
285.1222882408243
 30
0.0
 41
1.001067773263901
 10
297.9048419452957
 20
285.0179719815956
 30
0.0
 41
1.001290600017044
 10
297.9048419452957
 20
284.9127077756806
 30
0.0
 41
1.001463222760064
 10
297.9048419452957
 20
284.8067701672657
 30
0.0
 41
1.00156323924462
 10
297.9048419452957
 20
283.9233457927733
 30
0.0
 41
1.00156323924462
 10
297.9048419452957
 20
283.0231615241416
 30
0.0
 41
0.9962197878163056
 10
297.9048419452957
 20
282.0999994046314
 30
0.0
 41
0.9962366862590812
 10
297.9048419452957
 20
281.2587902408292
 30
0.0
 41
0.9980234339223635
  0
SPLINE
  5
1BF
330
1F
100
AcDbEntity
  8
1
100
AcDbSpline
210
0.0
220
0.0
230
1.0
 70
     8
 71
     3
 72
    63
 73
    59
 74
     0
 42
0.000000001
 43
0.0000000001
 40
0.0
 40
0.0
 40
0.0
 40
0.0
 40
0.0625000000000008
 40
0.0625000000000008
 40
0.1250000000000015
 40
0.1250000000000015
 40
0.1875000000000023
 40
0.1875000000000023
 40
0.2500000000000031
 40
0.2500000000000031
 40
0.3125000000000038
 40
0.3125000000000038
 40
0.3437500000000042
 40
0.3437500000000042
 40
0.3750000000000046
 40
0.3750000000000046
 40
0.3906250000000048
 40
0.3906250000000048
 40
0.4062500000000049
 40
0.4218750000000053
 40
0.4218750000000053
 40
0.4375000000000053
 40
0.4375000000000053
 40
0.4687500000000057
 40
0.4687500000000057
 40
0.5000000000000062
 40
0.5000000000000062
 40
0.5312500000000064
 40
0.5312500000000064
 40
0.562500000000007
 40
0.562500000000007
 40
0.5937500000000072
 40
0.5937500000000072
 40
0.6250000000000077
 40
0.6250000000000077
 40
0.6562500000000079
 40
0.6562500000000079
 40
0.6875000000000085
 40
0.6875000000000085
 40
0.7187500000000088
 40
0.7187500000000088
 40
0.7343750000000087
 40
0.7343750000000087
 40
0.7500000000000085
 40
0.7500000000000085
 40
0.8125000000000071
 40
0.8125000000000071
 40
0.8281250000000062
 40
0.8281250000000062
 40
0.8437500000000053
 40
0.8437500000000053
 40
0.8750000000000042
 40
0.8750000000000042
 40
0.9062500000000031
 40
0.9062500000000031
 40
0.9375000000000019
 40
0.9687500000000012
 40
1.0
 40
1.0
 40
1.0
 40
1.0
 10
298.5101691565515
 20
285.0150289602776
 30
0.0
 10
299.7065087342545
 20
284.8848340776294
 30
0.0
 10
300.9033553766926
 20
284.760651067757
 30
0.0
 10
303.2976536109751
 20
284.5207008151987
 30
0.0
 10
304.4951046785908
 20
284.4049213211594
 30
0.0
 10
306.8899456126942
 20
284.1769110833561
 30
0.0
 10
308.0873388718067
 20
284.0646529570253
 30
0.0
 10
310.4811583222588
 20
283.8381319974006
 30
0.0
 10
311.6773928983761
 20
283.7238396367123
 30
0.0
 10
314.0672812478171
 20
283.4881566630653
 30
0.0
 10
315.2609245400928
 20
283.3667013515512
 30
0.0
 10
317.048582059299
 20
283.176925503557
 30
0.0
 10
317.6440016443757
 20
283.1124243454932
 30
0.0
 10
318.8338029484248
 20
282.9809366171703
 30
0.0
 10
319.4281841812499
 20
282.9139483128939
 30
0.0
 10
320.3189300146531
 20
282.8118378771936
 30
0.0
 10
320.615730524147
 20
282.7775297508146
 30
0.0
 10
321.2088781370242
 20
282.7084699657492
 30
0.0
 10
321.8015975323177
 20
282.6389638160712
 30
0.0
 10
322.3934489504246
 20
282.5687608493898
 30
0.0
 10
322.9848661429062
 20
282.4983304549997
 30
0.0
 10
323.2803575700046
 20
282.4630033342956
 30
0.0
 10
324.1663433148972
 20
282.3573631126477
 30
0.0
 10
324.7563544482265
 20
282.2874265928151
 30
0.0
 10
325.9358377590887
 20
282.1512882479602
 30
0.0
 10
326.5253104254013
 20
282.0850814906906
 30
0.0
 10
327.7042949361742
 20
281.9580819608079
 30
0.0
 10
328.2938059334201
 20
281.8972802596928
 30
0.0
 10
329.4732708384735
 20
281.7819076618367
 30
0.0
 10
330.0632237336846
 20
281.7273292564088
 30
0.0
 10
331.2438457321036
 20
281.6246510742601
 30
0.0
 10
331.8344918653675
 20
281.5764899277046
 30
0.0
 10
333.0164395442033
 20
281.4860973755586
 30
0.0
 10
333.607742724671
 20
281.4438732211997
 30
0.0
 10
334.7911031411141
 20
281.3651644965155
 30
0.0
 10
335.3831617711965
 20
281.328684633608
 30
0.0
 10
336.5681956999453
 20
281.2613116653183
 30
0.0
 10
337.1611720460196
 20
281.2304210566869
 30
0.0
 10
338.3482310720328
 20
281.1740046152327
 30
0.0
 10
338.9423144479081
 20
281.1484795953665
 30
0.0
 10
339.8344122184053
 20
281.1139616590746
 30
0.0
 10
340.1319402046234
 20
281.1030829774072
 30
0.0
 10
340.7273427474249
 20
281.0825262838503
 30
0.0
 10
341.0252470175472
 20
281.0728473827948
 30
0.0
 10
342.5152293716349
 20
281.0273156129674
 30
0.0
 10
343.708732730813
 20
281.0000878415189
 30
0.0
 10
345.2030991016438
 20
280.9745304208349
 30
0.0
 10
345.5020962483698
 20
280.9698406986772
 30
0.0
 10
346.1003512593247
 20
280.9612235809358
 30
0.0
 10
346.3996127838345
 20
280.9572993641351
 30
0.0
 10
347.2977655446679
 20
280.9465106808941
 30
0.0
 10
347.8970167513058
 20
280.940611717032
 30
0.0
 10
349.0961856732603
 20
280.930630392376
 30
0.0
 10
349.696103406536
 20
280.9265500635314
 30
0.0
 10
350.8963050208955
 20
280.9197216000951
 30
0.0
 10
352.0968728022655
 20
280.9142273158266
 30
0.0
 10
353.8979164340983
 20
280.9092311081715
 30
0.0
 10
355.0981333713041
 20
280.9079935137005
 30
0.0
 10
355.6979703714584
 20
280.9079935137005
 30
0.0
  0
SPLINE
  5
1C0
330
1F
100
AcDbEntity
  8
1
100
AcDbSpline
210
0.0
220
0.0
230
1.0
 70
     8
 71
     3
 72
    52
 73
    48
 74
     0
 42
0.000000001
 43
0.0000000001
 40
0.0
 40
0.0
 40
0.0
 40
0.0
 40
0.0625
 40
0.0625
 40
0.125
 40
0.125
 40
0.1874999999999999
 40
0.1874999999999999
 40
0.2499999999999999
 40
0.2499999999999999
 40
0.3124999999999999
 40
0.3124999999999999
 40
0.3749999999999999
 40
0.3749999999999999
 40
0.40625
 40
0.40625
 40
0.4375
 40
0.4375
 40
0.46875
 40
0.46875
 40
0.5
 40
0.5
 40
0.53125
 40
0.53125
 40
0.5625
 40
0.5625
 40
0.59375
 40
0.59375
 40
0.625
 40
0.625
 40
0.6875000000000002
 40
0.6875000000000002
 40
0.7500000000000001
 40
0.7500000000000001
 40
0.8125000000000001
 40
0.8125000000000001
 40
0.8437500000000001
 40
0.8437500000000001
 40
0.8750000000000001
 40
0.8750000000000001
 40
0.90625
 40
0.90625
 40
0.9375
 40
0.9375
 40
0.96875
 40
0.96875
 40
1.0
 40
1.0
 40
1.0
 40
1.0
 10
297.9048419452957
 20
296.7025273339138
 30
0.0
 10
299.1120715737009
 20
296.6756667308114
 30
0.0
 10
300.3185366292661
 20
296.6446945152584
 30
0.0
 10
302.7298867837591
 20
296.5725187299624
 30
0.0
 10
303.9347698322861
 20
296.5313049143367
 30
0.0
 10
306.3429977741965
 20
296.4365833530681
 30
0.0
 10
307.546094684401
 20
296.3830656630902
 30
0.0
 10
309.9502753056796
 20
296.2621084547259
 30
0.0
 10
311.1513875419665
 20
296.1946434828659
 30
0.0
 10
313.5521497874077
 20
296.0451977458488
 30
0.0
 10
314.751801180887
 20
295.9631985577207
 30
0.0
 10
317.1504343912513
 20
295.7858447060859
 30
0.0
 10
318.3494214086116
 20
295.6904911766113
 30
0.0
 10
320.1481468401889
 20
295.5398600997444
 30
0.0
 10
320.7477625960285
 20
295.4883989192174
 30
0.0
 10
321.9470975030194
 20
295.3835500836929
 30
0.0
 10
322.5468381576213
 20
295.3301906297884
 30
0.0
 10
323.7465517189234
 20
295.2220518794747
 30
0.0
 10
324.3465019682141
 20
295.1671866179264
 30
0.0
 10
325.5464638760573
 20
295.0554074222333
 30
0.0
 10
326.1464757049067
 20
294.99849272263
 30
0.0
 10
327.3464852297012
 20
294.8822882901485
 30
0.0
 10
327.9464883960756
 20
294.8229981850829
 30
0.0
 10
329.1463702295457
 20
294.7018677049537
 30
0.0
 10
329.7462582876228
 20
294.6400279171152
 30
0.0
 10
330.9459240990857
 20
294.5137341634043
 30
0.0
 10
331.5456994795712
 20
294.4492660546666
 30
0.0
 10
332.7452419898066
 20
294.3181721657267
 30
0.0
 10
333.3450093278457
 20
294.2515482942657
 30
0.0
 10
335.1444084516943
 20
294.0489962299515
 30
0.0
 10
336.3441297529254
 20
293.9104330737697
 30
0.0
 10
338.7438048746443
 20
293.6279462698755
 30
0.0
 10
339.9437937339053
 20
293.4840079734143
 30
0.0
 10
342.3441007013143
 20
293.191121850335
 30
0.0
 10
343.5444171012653
 20
293.0421843577017
 30
0.0
 10
345.3447853617213
 20
292.8143927450183
 30
0.0
 10
345.9449012661297
 20
292.7377372736456
 30
0.0
 10
347.1450558218911
 20
292.5825846850886
 30
0.0
 10
347.7450774410084
 20
292.5039879795825
 30
0.0
 10
348.9447999023477
 20
292.3434114030502
 30
0.0
 10
349.544513160261
 20
292.2614217199
 30
0.0
 10
350.7434395787604
 20
292.0932512430387
 30
0.0
 10
351.3426415651567
 20
292.0070595173038
 30
0.0
 10
352.540547733128
 20
291.8305122135992
 30
0.0
 10
353.1392500226325
 20
291.740142351704
 30
0.0
 10
354.3363740193206
 20
291.5565134598359
 30
0.0
 10
354.9347942400205
 20
291.4632418064382
 30
0.0
 10
355.533307185566
 20
291.3699968116205
 30
0.0
  0
SPLINE
  5
1C1
330
1F
100
AcDbEntity
  8
1
100
AcDbSpline
210
0.0
220
0.0
230
1.0
 70
     8
 71
     3
 72
    51
 73
    47
 74
     0
 42
0.000000001
 43
0.0000000001
 40
0.0
 40
0.0
 40
0.0
 40
0.0
 40
0.124999999999983
 40
0.124999999999983
 40
0.2499999999999661
 40
0.2499999999999661
 40
0.3124999999999628
 40
0.3124999999999628
 40
0.3437499999999561
 40
0.3437499999999561
 40
0.3749999999999494
 40
0.3749999999999494
 40
0.4374999999999459
 40
0.4374999999999459
 40
0.4999999999999422
 40
0.4999999999999422
 40
0.5312499999999406
 40
0.5312499999999406
 40
0.5624999999999389
 40
0.5624999999999389
 40
0.6249999999999357
 40
0.6249999999999357
 40
0.6874999999999325
 40
0.6874999999999325
 40
0.7187499999999348
 40
0.7187499999999348
 40
0.7343749999999359
 40
0.7343749999999359
 40
0.7499999999999369
 40
0.7499999999999369
 40
0.8124999999999468
 40
0.8124999999999468
 40
0.8281249999999507
 40
0.8281249999999507
 40
0.8437499999999547
 40
0.8749999999999644
 40
0.8749999999999644
 40
0.9062499999999742
 40
0.9062499999999742
 40
0.937499999999984
 40
0.937499999999984
 40
0.9687499999999936
 40
0.9687499999999936
 40
0.9843749999999968
 40
0.9843749999999968
 40
1.0
 40
1.0
 40
1.0
 40
1.0
 10
357.7911652293931
 20
292.127798687444
 30
0.0
 10
357.938246029395
 20
292.1733482738056
 30
0.0
 10
358.0841584218314
 20
292.2220805595882
 30
0.0
 10
358.3731325764803
 20
292.3273101434935
 30
0.0
 10
358.5161998555735
 20
292.3837924138354
 30
0.0
 10
358.7280869934163
 20
292.4759080588606
 30
0.0
 10
358.7982612873658
 20
292.5078520016589
 30
0.0
 10
358.9027347267893
 20
292.5579144030876
 30
0.0
 10
358.9374275867743
 20
292.574960397808
 30
0.0
 10
359.0065281920054
 20
292.6098290293569
 30
0.0
 10
359.0409424688993
 20
292.627655895789
 30
0.0
 10
359.1434233184567
 20
292.6822431436697
 30
0.0
 10
359.2108256621282
 20
292.7201510403313
 30
0.0
 10
359.3434658631023
 20
292.7995413727756
 30
0.0
 10
359.4087060210757
 20
292.8410200091171
 30
0.0
 10
359.504597371754
 20
292.906489479157
 30
0.0
 10
359.5362768577496
 20
292.9288906376404
 30
0.0
 10
359.598625413225
 20
292.9747059586722
 30
0.0
 10
359.629295590123
 20
292.9981177809247
 30
0.0
 10
359.7196414872043
 20
293.0700180823882
 30
0.0
 10
359.7776687004519
 20
293.12015526768
 30
0.0
 10
359.888199354438
 20
293.2259540780622
 30
0.0
 10
359.9407193858764
 20
293.2815991104485
 30
0.0
 10
360.0140066575154
 20
293.3705600980919
 30
0.0
 10
360.0375136193783
 20
293.4011360007192
 30
0.0
 10
360.0711239839745
 20
293.4486501321932
 30
0.0
 10
360.0820515786324
 20
293.46476406955
 30
0.0
 10
360.1032976253105
 20
293.4976011604882
 30
0.0
 10
360.1135796591484
 20
293.5142719424215
 30
0.0
 10
360.1628272752659
 20
293.5984220739053
 30
0.0
 10
360.1957236177189
 20
293.668747806085
 30
0.0
 10
360.2260339132447
 20
293.7616522757212
 30
0.0
 10
360.2315613176982
 20
293.780545394954
 30
0.0
 10
360.2413068046626
 20
293.8183757339828
 30
0.0
 10
360.2540111986499
 20
293.8753087561195
 30
0.0
 10
360.2608459165336
 20
293.9328168765365
 30
0.0
 10
360.2644531504944
 20
294.0100338093831
 30
0.0
 10
360.2635022587287
 20
294.048932738476
 30
0.0
 10
360.2557419702847
 20
294.1272216467439
 30
0.0
 10
360.2490372293133
 20
294.1655993788659
 30
0.0
 10
360.2304499996086
 20
294.2409493705649
 30
0.0
 10
360.2185665874249
 20
294.2779213794761
 30
0.0
 10
360.1971436722727
 20
294.3324027897012
 30
0.0
 10
360.1893893458193
 20
294.3504279098497
 30
0.0
 10
360.1727836962258
 20
294.3860325657327
 30
0.0
 10
360.1639526594683
 20
294.4035740705703
 30
0.0
 10
360.1546277217646
 20
294.4208716945657
 30
0.0
  0
SPLINE
  5
1C2
330
1F
100
AcDbEntity
  8
1
100
AcDbSpline
210
0.0
220
0.0
230
1.0
 70
    12
 71
     3
 72
    10
 73
     6
 74
     0
 42
0.000000001
 43
0.0000000001
 40
0.0
 40
0.0
 40
0.0
 40
0.0
 40
0.0190971067395879
 40
0.5378203286669256
 40
1.0
 40
1.0
 40
1.0
 40
1.0
 10
329.9482781534254
 20
294.6201392829798
 30
0.0
 41
1.001393204976249
 10
330.1408963271722
 20
294.6259443205588
 30
0.0
 41
1.001412679375071
 10
335.5626665344437
 20
294.7763859671026
 30
0.0
 41
1.001935830830896
 10
345.6516533127831
 20
294.3297954017709
 30
0.0
 41
1.0009349715616
 10
355.5356827783208
 20
294.0313556753748
 30
0.0
 41
1.001768297956529
 10
360.1546277217649
 20
294.4208716945657
 30
0.0
 41
1.001590612552627
  0
SPLINE
  5
1C3
330
1F
100
AcDbEntity
  8
1
100
AcDbSpline
210
0.0
220
0.0
230
1.0
 70
     8
 71
     3
 72
    24
 73
    20
 74
     0
 42
0.000000001
 43
0.0000000001
 40
0.0
 40
0.0
 40
0.0
 40
0.0
 40
0.0624999999999999
 40
0.0624999999999999
 40
0.125
 40
0.125
 40
0.25
 40
0.25
 40
0.375
 40
0.375
 40
0.5
 40
0.5
 40
0.625
 40
0.625
 40
0.75
 40
0.75
 40
0.875
 40
0.875
 40
1.0
 40
1.0
 40
1.0
 40
1.0
 10
279.4048419452957
 20
273.1147548357225
 30
0.0
 10
279.5196853871599
 20
273.1803110021574
 30
0.0
 10
279.6350890091247
 20
273.248621057491
 30
0.0
 10
279.8668634737764
 20
273.3899097800977
 30
0.0
 10
279.9832345635036
 20
273.4628903474613
 30
0.0
 10
280.3335938413263
 20
273.6878252984405
 30
0.0
 10
280.5688252055157
 20
273.8457331224141
 30
0.0
 10
281.0416183010082
 20
274.1733282852788
 30
0.0
 10
281.2791816176765
 20
274.3430318596789
 30
0.0
 10
281.755733005424
 20
274.6912525823637
 30
0.0
 10
281.9947208871445
 20
274.8697760258675
 30
0.0
 10
282.4732708411684
 20
275.2334516876664
 30
0.0
 10
282.7128315290864
 20
275.4186054959027
 30
0.0
 10
283.1917570743033
 20
275.7940371951735
 30
0.0
 10
283.4311196736024
 20
275.984314743379
 30
0.0
 10
283.9090154069784
 20
276.3691604281527
 30
0.0
 10
284.1475457201948
 20
276.5637281882405
 30
0.0
 10
284.6233570814333
 20
276.957009715959
 30
0.0
 10
284.8606350945227
 20
277.1557244075512
 30
0.0
 10
285.0972301007209
 20
277.3567824818452
 30
0.0
  0
SPLINE
  5
1C4
330
1F
100
AcDbEntity
  8
1
100
AcDbSpline
210
0.0
220
0.0
230
1.0
 70
     8
 71
     3
 72
    32
 73
    28
 74
     0
 42
0.000000001
 43
0.0000000001
 40
0.0
 40
0.0
 40
0.0
 40
0.0
 40
0.0624999999999984
 40
0.0624999999999984
 40
0.1249999999999969
 40
0.1249999999999969
 40
0.2499999999999947
 40
0.2499999999999947
 40
0.3124999999999941
 40
0.3124999999999941
 40
0.3437499999999942
 40
0.3593749999999943
 40
0.3593749999999943
 40
0.3749999999999944
 40
0.3749999999999944
 40
0.4999999999999953
 40
0.4999999999999953
 40
0.6249999999999967
 40
0.6249999999999967
 40
0.7499999999999979
 40
0.7499999999999979
 40
0.8749999999999992
 40
0.8749999999999992
 40
0.9062499999999996
 40
0.9062499999999996
 40
0.9374999999999998
 40
1.0
 40
1.0
 40
1.0
 40
1.0
 10
294.289618256146
 20
281.1103257152664
 30
0.0
 10
294.0624244753288
 20
281.0999380705984
 30
0.0
 10
293.8375628018735
 20
281.0830441408599
 30
0.0
 10
293.3920946675956
 20
281.0375550164721
 30
0.0
 10
293.1714889212325
 20
281.0089589199275
 30
0.0
 10
292.5155694422284
 20
280.9072757137274
 30
0.0
 10
292.0861272979238
 20
280.8183760583178
 30
0.0
 10
291.4523409185966
 20
280.6583919146883
 30
0.0
 10
291.2428153051023
 20
280.6006034891985
 30
0.0
 10
290.9310159926516
 20
280.5076776659507
 30
0.0
 10
290.77573915431
 20
280.4596521435349
 30
0.0
 10
290.6213795843407
 20
280.4093505334831
 30
0.0
 10
290.5186754728664
 20
280.3753167834818
 30
0.0
 10
290.4674133838916
 20
280.3580461207703
 30
0.0
 10
290.0080092429966
 20
280.2007571800745
 30
0.0
 10
289.6116375982197
 20
280.0472741820144
 30
0.0
 10
288.8402925090036
 20
279.7166165312606
 30
0.0
 10
288.465334806595
 20
279.5394162311685
 30
0.0
 10
287.7356847572439
 20
279.1628508828351
 30
0.0
 10
287.381001072308
 20
278.9634703593822
 30
0.0
 10
286.6918058765006
 20
278.5426295261273
 30
0.0
 10
286.3572982018864
 20
278.3211612217353
 30
0.0
 10
285.9522496939893
 20
278.0298925607069
 30
0.0
 10
285.8718872183684
 20
277.9709079220415
 30
0.0
 10
285.7125318712185
 20
277.8514931962697
 30
0.0
 10
285.4759412134821
 20
277.6704932144174
 30
0.0
 10
285.2467159826525
 20
277.4838153556083
 30
0.0
 10
285.0972301007209
 20
277.3567824818453
 30
0.0
  0
SPLINE
  5
1C5
330
1F
100
AcDbEntity
  8
1
100
AcDbSpline
210
0.0
220
0.0
230
1.0
 70
     8
 71
     3
 72
    57
 73
    53
 74
     0
 42
0.000000001
 43
0.0000000001
 40
0.0
 40
0.0
 40
0.0
 40
0.0
 40
0.0624999999999998
 40
0.0624999999999998
 40
0.1249999999999996
 40
0.1249999999999996
 40
0.1562499999999993
 40
0.1562499999999993
 40
0.1718749999999994
 40
0.1718749999999994
 40
0.1874999999999996
 40
0.1874999999999996
 40
0.2499999999999983
 40
0.2499999999999983
 40
0.3124999999999971
 40
0.3124999999999971
 40
0.3437499999999962
 40
0.3437499999999962
 40
0.359374999999996
 40
0.359374999999996
 40
0.3749999999999958
 40
0.3749999999999958
 40
0.4374999999999946
 40
0.4999999999999935
 40
0.4999999999999935
 40
0.531249999999993
 40
0.531249999999993
 40
0.5390624999999933
 40
0.5390624999999933
 40
0.5468749999999935
 40
0.5624999999999934
 40
0.5624999999999934
 40
0.6249999999999939
 40
0.6249999999999939
 40
0.6874999999999945
 40
0.6874999999999945
 40
0.7031249999999947
 40
0.7031249999999947
 40
0.7187499999999948
 40
0.7499999999999952
 40
0.7499999999999952
 40
0.8124999999999962
 40
0.8124999999999962
 40
0.8437499999999968
 40
0.8437499999999968
 40
0.8593749999999971
 40
0.8593749999999971
 40
0.8749999999999976
 40
0.8749999999999976
 40
0.9374999999999987
 40
0.9374999999999987
 40
1.0
 40
1.0
 40
1.0
 40
1.0
 10
279.4048419452957
 20
278.0858659555693
 30
0.0
 10
279.2420607483392
 20
277.9960204554812
 30
0.0
 10
279.0868972519904
 20
277.9007484712964
 30
0.0
 10
278.7915911244234
 20
277.7001496555367
 30
0.0
 10
278.6514478156973
 20
277.5948216602215
 30
0.0
 10
278.4528082643876
 20
277.4295773193462
 30
0.0
 10
278.3885292367523
 20
277.3732840775219
 30
0.0
 10
278.2950994214105
 20
277.2870340908098
 30
0.0
 10
278.2644546327136
 20
277.2579822017778
 30
0.0
 10
278.2041812703398
 20
277.1992733016759
 30
0.0
 10
278.1745026053565
 20
277.1695637288901
 30
0.0
 10
278.0294733358043
 20
277.0202944765471
 30
0.0
 10
277.9241010531038
 20
276.8985630445305
 30
0.0
 10
277.7344735793559
 20
276.6511557382094
 30
0.0
 10
277.6502166490085
 20
276.5254787228214
 30
0.0
 10
277.5402016523904
 20
276.3343235055621
 30
0.0
 10
277.5062654859117
 20
276.2701632408335
 30
0.0
 10
277.4596024218327
 20
276.1732825776597
 30
0.0
 10
277.4447554643691
 20
276.140882188492
 30
0.0
 10
277.4165062399961
 20
276.0758699479627
 30
0.0
 10
277.4031003571145
 20
276.0432394393755
 30
0.0
 10
277.340248689199
 20
275.8808906471347
 30
0.0
 10
277.2653882069711
 20
275.6242013393182
 30
0.0
 10
277.2407162998011
 20
275.3740983515687
 30
0.0
 10
277.2413775971793
 20
275.1891206905732
 30
0.0
 10
277.2448004418436
 20
275.1278943795668
 30
0.0
 10
277.2531839276329
 20
275.0519136818986
 30
0.0
 10
277.2550673423317
 20
275.0367389378197
 30
0.0
 10
277.2592304467579
 20
275.0065622222912
 30
0.0
 10
277.2660736641134
 20
274.9615136546156
 30
0.0
 10
277.2746959064934
 20
274.9171075116529
 30
0.0
 10
277.3073275883506
 20
274.7704855410884
 30
0.0
 10
277.3458415764639
 20
274.6576550033886
 30
0.0
 10
277.4467962732563
 20
274.4403248102882
 30
0.0
 10
277.5092397111986
 20
274.3358267869536
 30
0.0
 10
277.6023263565208
 20
274.210147185074
 30
0.0
 10
277.6216921951514
 20
274.1852714500065
 30
0.0
 10
277.6616607665088
 20
274.1363323963823
 30
0.0
 10
277.7235611505093
 20
274.0640164310825
 30
0.0
 10
277.7911851157793
 20
273.9948679722939
 30
0.0
 10
277.9338338108467
 20
273.860542760243
 30
0.0
 10
278.0387761017227
 20
273.7762777191064
 30
0.0
 10
278.2105207785567
 20
273.6570266462329
 30
0.0
 10
278.270163871018
 20
273.6184701773486
 30
0.0
 10
278.3632216454264
 20
273.5623512497931
 30
0.0
 10
278.39488208663
 20
273.543908146884
 30
0.0
 10
278.4591256135105
 20
273.5077383163263
 30
0.0
 10
278.491718848849
 20
273.4900035247796
 30
0.0
 10
278.6570034499475
 20
273.4030173983247
 30
0.0
 10
278.7966254749447
 20
273.3388106072974
 30
0.0
 10
279.0900755770666
 20
273.2198806324502
 30
0.0
 10
279.2439054743497
 20
273.1651608217334
 30
0.0
 10
279.4048419452949
 20
273.114754835722
 30
0.0
  0
SPLINE
  5
1C6
330
1F
100
AcDbEntity
  8
1
100
AcDbSpline
210
0.0
220
0.0
230
1.0
 70
     9
 71
     3
 72
   121
 73
   117
 74
     0
 42
0.000000001
 43
0.0000000001
 40
0.0
 40
0.0
 40
0.0
 40
0.0
 40
0.0312499999999873
 40
0.0312499999999873
 40
0.0468749999999846
 40
0.0468749999999846
 40
0.0546874999999833
 40
0.0546874999999833
 40
0.062499999999982
 40
0.062499999999982
 40
0.0937499999999973
 40
0.0937499999999973
 40
0.1015625000000012
 40
0.1015625000000012
 40
0.1093750000000051
 40
0.1093750000000051
 40
0.125000000000013
 40
0.125000000000013
 40
0.1562500000000286
 40
0.1562500000000286
 40
0.1875000000000443
 40
0.1875000000000443
 40
0.2031250000000509
 40
0.2031250000000509
 40
0.2109375000000542
 40
0.2109375000000542
 40
0.2187500000000576
 40
0.2187500000000576
 40
0.2500000000000729
 40
0.2500000000000729
 40
0.2578125000000765
 40
0.2578125000000765
 40
0.2656250000000802
 40
0.2656250000000802
 40
0.2812500000000872
 40
0.2812500000000872
 40
0.3125000000001016
 40
0.3125000000001016
 40
0.3281250000001087
 40
0.3281250000001087
 40
0.3437500000001159
 40
0.3437500000001159
 40
0.3750000000001261
 40
0.3750000000001261
 40
0.3828125000001325
 40
0.3828125000001325
 40
0.3906250000001389
 40
0.4062500000001459
 40
0.4218750000001529
 40
0.4218750000001529
 40
0.4296875000001564
 40
0.4296875000001564
 40
0.43750000000016
 40
0.43750000000016
 40
0.4687500000001736
 40
0.4687500000001736
 40
0.4843750000001841
 40
0.4843750000001841
 40
0.4921875000001893
 40
0.4921875000001893
 40
0.5000000000001946
 40
0.5000000000001946
 40
0.5312500000001933
 40
0.5312500000001933
 40
0.5390625000001893
 40
0.5390625000001893
 40
0.5468750000001855
 40
0.5625000000001775
 40
0.5781250000001696
 40
0.5781250000001696
 40
0.5937500000001617
 40
0.5937500000001617
 40
0.6250000000001462
 40
0.6250000000001462
 40
0.6328125000001461
 40
0.6328125000001461
 40
0.6406250000001461
 40
0.6406250000001461
 40
0.6562500000001417
 40
0.6562500000001417
 40
0.6875000000001328
 40
0.6875000000001328
 40
0.6953125000001307
 40
0.6953125000001307
 40
0.7031250000001285
 40
0.7187500000001221
 40
0.7343750000001156
 40
0.7343750000001156
 40
0.7421875000001127
 40
0.7421875000001127
 40
0.7500000000001095
 40
0.7500000000001095
 40
0.7812500000000978
 40
0.7812500000000978
 40
0.796875000000092
 40
0.796875000000092
 40
0.8125000000000859
 40
0.8125000000000859
 40
0.8437500000000714
 40
0.8437500000000714
 40
0.8593750000000641
 40
0.8593750000000641
 40
0.8750000000000566
 40
0.8750000000000566
 40
0.9062500000000472
 40
0.9062500000000472
 40
0.9218750000000392
 40
0.9218750000000392
 40
0.9375000000000312
 40
0.9531250000000234
 40
0.9531250000000234
 40
0.9609375000000197
 40
0.9609375000000197
 40
0.9687500000000156
 40
0.9687500000000156
 40
1.0
 40
1.0
 40
1.0
 40
1.0
 10
364.5154237619444
 20
287.6460001828444
 30
0.0
 10
364.5743874945033
 20
287.6449709670642
 30
0.0
 10
364.6322270076004
 20
287.6380594411162
 30
0.0
 10
364.7173690927835
 20
287.6192413077537
 30
0.0
 10
364.7454781425878
 20
287.6115492407773
 30
0.0
 10
364.7872239864238
 20
287.597831543432
 30
0.0
 10
364.8011090698056
 20
287.5928790102084
 30
0.0
 10
364.8284972146563
 20
287.5823241755719
 30
0.0
 10
364.8420019681872
 20
287.5767242970781
 30
0.0
 10
364.9085978574378
 20
287.5471463597071
 30
0.0
 10
364.9589324537459
 20
287.5184781482849
 30
0.0
 10
365.0181904446514
 20
287.4764512641952
 30
0.0
 10
365.0298573459977
 20
287.4677334832999
 30
0.0
 10
365.0528153041629
 20
287.4496632384638
 30
0.0
 10
365.0641033126502
 20
287.4403096682341
 30
0.0
 10
365.0970217426011
 20
287.4116177053911
 30
0.0
 10
365.117842043888
 20
287.3915481765218
 30
0.0
 10
365.1770272472865
 20
287.3286129046841
 30
0.0
 10
365.2121468785417
 20
287.2830457092106
 30
0.0
 10
365.2734902843466
 20
287.1845810010122
 30
0.0
 10
365.2987094824437
 20
287.1332959690136
 30
0.0
 10
365.3288112015275
 20
287.0535476023992
 30
0.0
 10
365.3375487686602
 20
287.0264892056912
 30
0.0
 10
365.3486871971241
 20
286.9851846243739
 30
0.0
 10
365.3520785269034
 20
286.9712628578049
 30
0.0
 10
365.3581570418672
 20
286.9433482759638
 30
0.0
 10
365.3608405872789
 20
286.9293816323437
 30
0.0
 10
365.3725220506871
 20
286.8595043734927
 30
0.0
 10
365.3763587235385
 20
286.8034642257138
 30
0.0
 10
365.37444559299
 20
286.7332572684439
 30
0.0
 10
365.3737245855243
 20
286.7192078792586
 30
0.0
 10
365.3715984005881
 20
286.6910928718667
 30
0.0
 10
365.3701882589472
 20
286.6769913912898
 30
0.0
 10
365.3649543438528
 20
286.6349701596415
 30
0.0
 10
365.3601412184141
 20
286.6073532231098
 30
0.0
 10
365.3418639778922
 20
286.5256483988696
 30
0.0
 10
365.3245980178051
 20
286.4726970212064
 30
0.0
 10
365.2909405752876
 20
286.3955444141895
 30
0.0
 10
365.278372257197
 20
286.3701525600461
 30
0.0
 10
365.251106315991
 20
286.3211556630676
 30
0.0
 10
365.236360809804
 20
286.2974223070003
 30
0.0
 10
365.1888206161483
 20
286.228474182169
 30
0.0
 10
365.152757964705
 20
286.1854881956322
 30
0.0
 10
365.1018263912413
 20
286.1356674293345
 30
0.0
 10
365.0913742500658
 20
286.1259323691312
 30
0.0
 10
365.0701022463938
 20
286.107065702342
 30
0.0
 10
365.0375706321098
 20
286.0796048965431
 30
0.0
 10
364.9802675071778
 20
286.0379703140675
 30
0.0
 10
364.9311058360155
 20
286.0090776630433
 30
0.0
 10
364.8929404134695
 20
285.9891174097372
 30
0.0
 10
364.8800025019206
 20
285.9827494109127
 30
0.0
 10
364.8536807871877
 20
285.9706004114406
 30
0.0
 10
364.8402742601933
 20
285.9648126557246
 30
0.0
 10
364.7729345655239
 20
285.9377144109347
 30
0.0
 10
364.7174941212025
 20
285.9215739306154
 30
0.0
 10
364.631972373339
 20
285.9056338695122
 30
0.0
 10
364.6030688898496
 20
285.9017089398608
 30
0.0
 10
364.5590916812945
 20
285.8979967820175
 30
0.0
 10
364.5443547137797
 20
285.8971276187935
 30
0.0
 10
364.5150462251257
 20
285.8961373461104
 30
0.0
 10
364.5004299064972
 20
285.896012013488
 30
0.0
 10
364.4275348036165
 20
285.8972036552497
 30
0.0
 10
364.3698102051816
 20
285.9039214471584
 30
0.0
 10
364.2983976551357
 20
285.9195856685226
 30
0.0
 10
364.2841110234792
 20
285.9230975897389
 30
0.0
 10
364.2558891139926
 20
285.9307910800144
 30
0.0
 10
364.2140509671407
 20
285.9433390462029
 30
0.0
 10
364.1467180603868
 20
285.9691452765967
 30
0.0
 10
364.0953315858284
 20
285.9948773974826
 30
0.0
 10
364.0451834024647
 20
286.0231651945685
 30
0.0
 10
364.0206682464488
 20
286.0386465796531
 30
0.0
 10
363.950471494629
 20
286.0879456567303
 30
0.0
 10
363.9075944830577
 20
286.1248393050563
 30
0.0
 10
363.8586904463409
 20
286.1758598147414
 30
0.0
 10
363.84914651427
 20
286.1863114256237
 30
0.0
 10
363.8305361652513
 20
286.2077157162105
 30
0.0
 10
363.8214633546279
 20
286.2186795645478
 30
0.0
 10
363.7952277569192
 20
286.2519949859977
 30
0.0
 10
363.7789515248816
 20
286.2748721583423
 30
0.0
 10
363.7336356238235
 20
286.3454539190831
 30
0.0
 10
363.7080752006332
 20
286.395090695699
 30
0.0
 10
363.6820355191692
 20
286.4604775609513
 30
0.0
 10
363.6771263463578
 20
286.4737286661186
 30
0.0
 10
363.6680033261454
 20
286.5003006461635
 30
0.0
 10
363.6553234969755
 20
286.5403633927022
 30
0.0
 10
363.6391150956868
 20
286.6081454621917
 30
0.0
 10
363.6313516402381
 20
286.6634493403113
 30
0.0
 10
363.6275172298797
 20
286.7053413296265
 30
0.0
 10
363.6265710336791
 20
286.7193744412353
 30
0.0
 10
363.6253560133528
 20
286.7475818210426
 30
0.0
 10
363.6250880973391
 20
286.7617945514417
 30
0.0
 10
363.6254786712458
 20
286.8326163028257
 30
0.0
 10
363.6312399666284
 20
286.8885852665232
 30
0.0
 10
363.6479370239082
 20
286.9715030987121
 30
0.0
 10
363.6548543107314
 20
286.9989683720215
 30
0.0
 10
363.6714858172902
 20
287.0535326761138
 30
0.0
 10
363.6812562445917
 20
287.0807335707962
 30
0.0
 10
363.7142262437638
 20
287.1600038542449
 30
0.0
 10
363.7411641582498
 20
287.2102821836455
 30
0.0
 10
363.7890359159189
 20
287.281780351613
 30
0.0
 10
363.8062455195848
 20
287.3049554647624
 30
0.0
 10
363.8432825635915
 20
287.349920766392
 30
0.0
 10
363.8628247246787
 20
287.3713596503009
 30
0.0
 10
363.9242599886989
 20
287.432425487923
 30
0.0
 10
363.9690092157581
 20
287.4689227871779
 30
0.0
 10
364.0419578652656
 20
287.5171441393718
 30
0.0
 10
364.0673558801945
 20
287.5321608940581
 30
0.0
 10
364.1190060121648
 20
287.5592978139537
 30
0.0
 10
364.1717440378632
 20
287.5837184984817
 30
0.0
 10
364.2266192635914
 20
287.602790863815
 30
0.0
 10
364.2685868109656
 20
287.6150615096524
 30
0.0
 10
364.2827114308297
 20
287.6188121712386
 30
0.0
 10
364.3112363158331
 20
287.6256219119097
 30
0.0
 10
364.3256717291337
 20
287.6286868699764
 30
0.0
 10
364.3980091422664
 20
287.6421423196662
 30
0.0
 10
364.4564600293854
 20
287.6470293986247
 30
0.0
 10
364.5154237619444
 20
287.6460001828444
 30
0.0
  0
LINE
  5
1E3
330
1F
100
AcDbEntity
  8
SK4
100
AcDbLine
 10
214.904842
 20
288.907994
 30
0.0
 11
277.404842
 21
288.907994
 31
0.0
  0
LINE
  5
1E4
330
1F
100
AcDbEntity
  8
4
100
AcDbLine
 10
271.289618
 20
288.907994
 30
0.0
 11
371.56008
 21
288.907994
 31
0.0
  0
MTEXT
  5
1EA
330
1F
100
AcDbEntity
  8
SK6
100
AcDbMText
 10
268.799209
 20
246.803052
 30
0.0
 40
3.5
 41
0.0
 71
     7
 72
     5
  1
\W0.7119;804D-17-68-S25
  7
cesky
 73
     2
 44
0.8433729999999998
  0
MTEXT
  5
2FB
330
1F
100
AcDbEntity
  8
2
100
AcDbMText
 10
319.090342
 20
322.75644
 30
0.0
 40
3.5
 41
0.0
 71
     7
 72
     5
  1
\W0.7045;93
  7
cesky
 73
     2
 44
0.8433729999999998
  0
LINE
  5
2FC
330
1F
100
AcDbEntity
  8
2
100
AcDbLine
 10
367.404842
 20
297.407994
 30
0.0
 11
367.404842
 21
323.882273
 31
0.0
  0
LINE
  5
2FD
330
1F
100
AcDbEntity
  8
2
100
AcDbLine
 10
274.404842
 20
289.907567
 30
0.0
 11
274.404842
 21
323.882273
 31
0.0
  0
LINE
  5
2FE
330
1F
100
AcDbEntity
  8
2
100
AcDbLine
 10
367.404842
 20
322.882273
 30
0.0
 11
274.404842
 21
322.882273
 31
0.0
  0
SOLID
  5
2FF
330
1F
100
AcDbEntity
  8
2
100
AcDbTrace
 10
367.404842
 20
322.882273
 30
0.0
 11
363.904844
 21
322.265129
 31
0.0
 12
363.90484
 22
323.499418
 32
0.0
 13
363.90484
 23
323.499418
 33
0.0
  0
SOLID
  5
300
330
1F
100
AcDbEntity
  8
2
100
AcDbTrace
 10
274.404842
 20
322.882273
 30
0.0
 11
277.90484
 21
323.499418
 31
0.0
 12
277.904844
 22
322.265129
 32
0.0
 13
277.904844
 23
322.265129
 33
0.0
  0
MTEXT
  5
301
330
1F
100
AcDbEntity
  8
2
100
AcDbMText
 10
383.198245
 20
287.667467
 30
0.0
 40
3.5
 41
0.0
 71
     7
 72
     5
  1
\W0.7984;17
  7
cesky
 11
0.0000000000000001
 21
1.0
 31
0.0
 73
     2
 44
0.8433729999999998
  0
MTEXT
  5
302
330
1F
100
AcDbEntity
  8
2
100
AcDbMText
 10
383.198245
 20
280.929967
 30
0.0
 40
3.5
 41
0.0
 71
     7
 72
     5
  1
\W3.0115;\H2.63;%%c\H3.50;
  7
cesky
 11
0.0000000000000001
 21
1.0
 31
0.0
 73
     2
 44
0.8433729999999998
  0
LINE
  5
303
330
1F
100
AcDbEntity
  8
2
100
AcDbLine
 10
369.404842
 20
297.407994
 30
0.0
 11
384.385661
 21
297.407994
 31
0.0
  0
LINE
  5
304
330
1F
100
AcDbEntity
  8
2
100
AcDbLine
 10
383.385661
 20
297.407994
 30
0.0
 11
383.385661
 21
280.772467
 31
0.0
  0
SOLID
  5
305
330
1F
100
AcDbEntity
  8
2
100
AcDbTrace
 10
383.385661
 20
297.407994
 30
0.0
 11
384.002806
 21
293.907996
 31
0.0
 12
382.768517
 22
293.907991
 32
0.0
 13
382.768517
 23
293.907991
 33
0.0
  0
MTEXT
  5
306
330
1F
100
AcDbEntity
  8
2
100
AcDbMText
 10
289.827842
 20
337.029667
 30
0.0
 40
3.5
 41
0.0
 71
     7
 72
     5
  1
\W0.7969;149
  7
cesky
 73
     2
 44
0.8433729999999998
  0
LINE
  5
307
330
1F
100
AcDbEntity
  8
2
100
AcDbLine
 10
367.404842
 20
299.407994
 30
0.0
 11
367.404842
 21
338.155501
 31
0.0
  0
LINE
  5
308
330
1F
100
AcDbEntity
  8
2
100
AcDbLine
 10
218.404842
 20
299.407994
 30
0.0
 11
218.404842
 21
338.155501
 31
0.0
  0
LINE
  5
309
330
1F
100
AcDbEntity
  8
2
100
AcDbLine
 10
367.404842
 20
337.155501
 30
0.0
 11
218.404842
 21
337.155501
 31
0.0
  0
SOLID
  5
30A
330
1F
100
AcDbEntity
  8
2
100
AcDbTrace
 10
367.404842
 20
337.155501
 30
0.0
 11
363.904844
 21
336.538356
 31
0.0
 12
363.90484
 22
337.772645
 32
0.0
 13
363.90484
 23
337.772645
 33
0.0
  0
SOLID
  5
30B
330
1F
100
AcDbEntity
  8
2
100
AcDbTrace
 10
218.404842
 20
337.155501
 30
0.0
 11
221.90484
 21
337.772645
 31
0.0
 12
221.904844
 22
336.538356
 32
0.0
 13
221.904844
 23
336.538356
 33
0.0
  0
MTEXT
  5
30C
330
1F
100
AcDbEntity
  8
2
100
AcDbMText
 10
244.590342
 20
322.75644
 30
0.0
 40
3.5
 41
0.0
 71
     7
 72
     5
  1
\W0.7259;56
  7
cesky
 73
     2
 44
0.8433729999999998
  0
LINE
  5
30D
330
1F
100
AcDbEntity
  8
2
100
AcDbLine
 10
274.404842
 20
288.907994
 30
0.0
 11
274.404842
 21
323.882273
 31
0.0
  0
LINE
  5
30E
330
1F
100
AcDbEntity
  8
2
100
AcDbLine
 10
218.404842
 20
299.407994
 30
0.0
 11
218.404842
 21
323.882273
 31
0.0
  0
LINE
  5
30F
330
1F
100
AcDbEntity
  8
2
100
AcDbLine
 10
274.404842
 20
322.882273
 30
0.0
 11
218.404842
 21
322.882273
 31
0.0
  0
SOLID
  5
310
330
1F
100
AcDbEntity
  8
2
100
AcDbTrace
 10
274.404842
 20
322.882273
 30
0.0
 11
270.904844
 21
322.265129
 31
0.0
 12
270.90484
 22
323.499418
 32
0.0
 13
270.90484
 23
323.499418
 33
0.0
  0
SOLID
  5
311
330
1F
100
AcDbEntity
  8
2
100
AcDbTrace
 10
218.404842
 20
322.882273
 30
0.0
 11
221.90484
 21
323.499418
 31
0.0
 12
221.904844
 22
322.265129
 32
0.0
 13
221.904844
 23
322.265129
 33
0.0
  0
MTEXT
  5
312
330
1F
100
AcDbEntity
  8
2
100
AcDbMText
 10
329.091667
 20
309.497089
 30
0.0
 40
3.5
 41
0.0
 71
     7
 72
     5
  1
\W0.7045;73
  7
cesky
 73
     2
 44
0.8433729999999998
  0
LINE
  5
313
330
1F
100
AcDbEntity
  8
2
100
AcDbLine
 10
367.404842
 20
299.407994
 30
0.0
 11
367.404842
 21
310.622922
 31
0.0
  0
LINE
  5
314
330
1F
100
AcDbEntity
  8
2
100
AcDbLine
 10
294.407492
 20
297.160265
 30
0.0
 11
294.407492
 21
310.622922
 31
0.0
  0
LINE
  5
315
330
1F
100
AcDbEntity
  8
2
100
AcDbLine
 10
367.404842
 20
309.622922
 30
0.0
 11
294.407492
 21
309.622922
 31
0.0
  0
SOLID
  5
316
330
1F
100
AcDbEntity
  8
2
100
AcDbTrace
 10
367.404842
 20
309.622922
 30
0.0
 11
363.904844
 21
309.0057779999999
 31
0.0
 12
363.90484
 22
310.240066
 32
0.0
 13
363.90484
 23
310.240066
 33
0.0
  0
SOLID
  5
317
330
1F
100
AcDbEntity
  8
2
100
AcDbTrace
 10
294.407492
 20
309.622922
 30
0.0
 11
297.90749
 21
310.240066
 31
0.0
 12
297.907494
 22
309.0057779999999
 32
0.0
 13
297.907494
 23
309.0057779999999
 33
0.0
  0
MTEXT
  5
318
330
1F
100
AcDbEntity
  8
SK2
100
AcDbMText
 10
209.017083
 20
290.434244
 30
0.0
 40
3.5
 41
0.0
 71
     7
 72
     5
  1
\W0.7045;25
  7
cesky
 11
0.0000000000000001
 21
1.0
 31
0.0
 73
     2
 44
0.8433729999999998
  0
MTEXT
  5
319
330
1F
100
AcDbEntity
  8
SK2
100
AcDbMText
 10
209.017083
 20
283.696744
 30
0.0
 40
3.5
 41
0.0
 71
     7
 72
     5
  1
\W3.0115;\H2.63;%%c\H3.50;
  7
cesky
 11
0.0000000000000001
 21
1.0
 31
0.0
 73
     2
 44
0.8433729999999998
  0
LINE
  5
31A
330
1F
100
AcDbEntity
  8
SK2
100
AcDbLine
 10
220.404842
 20
301.407994
 30
0.0
 11
208.204499
 21
301.407994
 31
0.0
  0
LINE
  5
31B
330
1F
100
AcDbEntity
  8
SK2
100
AcDbLine
 10
220.404842
 20
276.407994
 30
0.0
 11
208.204499
 21
276.407994
 31
0.0
  0
LINE
  5
31C
330
1F
100
AcDbEntity
  8
SK2
100
AcDbLine
 10
209.204499
 20
301.407994
 30
0.0
 11
209.204499
 21
276.407994
 31
0.0
  0
SOLID
  5
31D
330
1F
100
AcDbEntity
  8
SK2
100
AcDbTrace
 10
209.204499
 20
301.407994
 30
0.0
 11
209.821644
 21
297.9079959999999
 31
0.0
 12
208.587355
 22
297.907991
 32
0.0
 13
208.587355
 23
297.907991
 33
0.0
  0
SOLID
  5
31E
330
1F
100
AcDbEntity
  8
SK2
100
AcDbTrace
 10
209.204499
 20
276.407994
 30
0.0
 11
208.587355
 21
279.9079910000001
 31
0.0
 12
209.821644
 22
279.907996
 32
0.0
 13
209.821644
 23
279.907996
 33
0.0
  0
MTEXT
  5
31F
330
1F
100
AcDbEntity
  8
SK2
100
AcDbMText
 10
194.293861
 20
290.434244
 30
0.0
 40
3.5
 41
0.0
 71
     7
 72
     5
  1
\W0.7045;35
  7
cesky
 11
0.0000000000000001
 21
1.0
 31
0.0
 73
     2
 44
0.8433729999999998
  0
MTEXT
  5
320
330
1F
100
AcDbEntity
  8
SK2
100
AcDbMText
 10
194.293861
 20
283.696744
 30
0.0
 40
3.5
 41
0.0
 71
     7
 72
     5
  1
\W3.0115;\H2.63;%%c\H3.50;
  7
cesky
 11
0.0000000000000001
 21
1.0
 31
0.0
 73
     2
 44
0.8433729999999998
  0
LINE
  5
321
330
1F
100
AcDbEntity
  8
SK2
100
AcDbLine
 10
274.904842
 20
306.407994
 30
0.0
 11
193.481277
 21
306.407994
 31
0.0
  0
LINE
  5
322
330
1F
100
AcDbEntity
  8
SK2
100
AcDbLine
 10
274.904842
 20
271.407994
 30
0.0
 11
193.481277
 21
271.407994
 31
0.0
  0
LINE
  5
323
330
1F
100
AcDbEntity
  8
SK2
100
AcDbLine
 10
194.481277
 20
306.407994
 30
0.0
 11
194.481277
 21
271.407994
 31
0.0
  0
SOLID
  5
324
330
1F
100
AcDbEntity
  8
SK2
100
AcDbTrace
 10
194.481277
 20
306.407994
 30
0.0
 11
195.098422
 21
302.907996
 31
0.0
 12
193.864133
 22
302.907991
 32
0.0
 13
193.864133
 23
302.907991
 33
0.0
  0
SOLID
  5
325
330
1F
100
AcDbEntity
  8
SK2
100
AcDbTrace
 10
194.481277
 20
271.407994
 30
0.0
 11
193.864133
 21
274.907991
 31
0.0
 12
195.098422
 22
274.9079959999999
 32
0.0
 13
195.098422
 23
274.9079959999999
 33
0.0
  0
LINE
  5
327
330
1F
100
AcDbEntity
  8
CUT
100
AcDbLine
 10
367.0601666712441
 20
293.3375460003
 30
0.0
 11
367.346922195296
 21
292.8604409805732
 31
0.0
  0
LINE
  5
328
330
1F
100
AcDbEntity
  8
CUT
100
AcDbLine
 10
366.8925702677534
 20
297.0392343941576
 30
0.0
 11
367.0601666712441
 21
293.3375460003
 31
0.0
  0
LINE
  5
329
330
1F
100
AcDbEntity
  8
CUT
100
AcDbLine
 10
367.346922195296
 20
292.8604409805732
 30
0.0
 11
367.4048419452958
 21
289.5488061663523
 31
0.0
  0
LINE
  5
32A
330
1F
100
AcDbEntity
  8
CUT
100
AcDbLine
 10
361.712147911079
 20
297.1837151068845
 30
0.0
 11
366.4888550588561
 21
297.4050411488127
 31
0.0
  0
LINE
  5
32C
330
1F
100
AcDbEntity
  8
CUT
100
AcDbLine
 10
367.404842
 20
288.907994
 30
0.0
 11
361.342944
 21
288.907994
 31
0.0
  0
LINE
  5
32D
330
1F
100
AcDbEntity
  8
CUT
100
AcDbLine
 10
367.404842
 20
289.548806
 30
0.0
 11
367.404842
 21
288.907994
 31
0.0
  0
LINE
  5
32E
330
1F
100
AcDbEntity
  8
CUT
100
AcDbLine
 10
361.342944
 20
288.907994
 30
0.0
 11
361.342944
 21
296.781727
 31
0.0
  0
ARC
  5
32F
330
1F
100
AcDbEntity
  8
CUT
100
AcDbCircle
 10
366.5041747462234
 20
297.0157277674315
 30
0.0
 40
0.3896146836856416
100
AcDbArc
 50
10.39592477061242
 51
92.25345656086842
  0
ARC
  5
330
330
1F
100
AcDbEntity
  8
CUT
100
AcDbCircle
 10
366.52817997733
 20
297.022613504914
 30
0.0
 40
0.3647691567472914
100
AcDbArc
 50
2.611615122344552
 51
10.01250739577637
  0
LINE
  5
331
330
1F
100
AcDbEntity
  8
CUT
100
AcDbLine
 10
361.3429442863879
 20
296.7817267361161
 30
0.0
 11
361.3429442863879
 21
296.7817267361161
 31
0.0
  0
ARC
  5
332
330
1F
100
AcDbEntity
  8
CUT
100
AcDbCircle
 10
361.7329052044871
 20
296.7941101762126
 30
0.0
 40
0.3901574902951635
100
AcDbArc
 50
93.04970968013368
 51
181.8188502168904
  0
ENDSEC
  0
SECTION
  2
OBJECTS
  0
DICTIONARY
  5
C
330
0
100
AcDbDictionary
281
     1
  3
ACAD_CIP_PREVIOUS_PRODUCT_INFO
350
2F8
  3
ACAD_COLOR
350
2F3
  3
ACAD_DETAILVIEWSTYLE
350
2EF
  3
ACAD_GROUP
350
D
  3
ACAD_LAYOUT
350
1A
  3
ACAD_MATERIAL
350
43
  3
ACAD_MLEADERSTYLE
350
6B
  3
ACAD_MLINESTYLE
350
17
  3
ACAD_PLOTSETTINGS
350
19
  3
ACAD_PLOTSTYLENAME
350
E
  3
ACAD_SCALELIST
350
47
  3
ACAD_SECTIONVIEWSTYLE
350
2F0
  3
ACAD_TABLESTYLE
350
69
  3
ACAD_VISUALSTYLE
350
2A
  3
ACDB_RECOMPOSE_DATA
350
35E
  3
AcDbVariableDictionary
350
2AC
  0
DICTIONARY
  5
341
330
10
100
AcDbDictionary
280
     1
281
     1
  3
ADSK_XREC_LAYER_RECONCILED
360
342
  0
DICTIONARY
  5
343
330
333
100
AcDbDictionary
280
     1
281
     1
  3
ADSK_XREC_LAYER_RECONCILED
360
344
  0
DICTIONARY
  5
345
330
334
100
AcDbDictionary
280
     1
281
     1
  3
ADSK_XREC_LAYER_RECONCILED
360
346
  0
DICTIONARY
  5
347
330
335
100
AcDbDictionary
280
     1
281
     1
  3
ADSK_XREC_LAYER_RECONCILED
360
348
  0
DICTIONARY
  5
349
330
337
100
AcDbDictionary
280
     1
281
     1
  3
ADSK_XREC_LAYER_RECONCILED
360
34A
  0
DICTIONARY
  5
34B
330
338
100
AcDbDictionary
280
     1
281
     1
  3
ADSK_XREC_LAYER_RECONCILED
360
34C
  0
DICTIONARY
  5
34D
330
33A
100
AcDbDictionary
280
     1
281
     1
  3
ADSK_XREC_LAYER_RECONCILED
360
34E
  0
DICTIONARY
  5
34F
330
33B
100
AcDbDictionary
280
     1
281
     1
  3
ADSK_XREC_LAYER_RECONCILED
360
350
  0
DICTIONARY
  5
351
330
33C
100
AcDbDictionary
280
     1
281
     1
  3
ADSK_XREC_LAYER_RECONCILED
360
352
  0
DICTIONARY
  5
353
330
33D
100
AcDbDictionary
280
     1
281
     1
  3
ADSK_XREC_LAYER_RECONCILED
360
354
  0
DICTIONARY
  5
355
330
33E
100
AcDbDictionary
280
     1
281
     1
  3
ADSK_XREC_LAYER_RECONCILED
360
356
  0
DICTIONARY
  5
357
330
33F
100
AcDbDictionary
280
     1
281
     1
  3
ADSK_XREC_LAYER_RECONCILED
360
358
  0
DICTIONARY
  5
2F9
330
1F
100
AcDbDictionary
280
     1
281
     1
  3
ACAD_SORTENTS
360
2FA
  0
XRECORD
  5
2F8
102
{ACAD_REACTORS
330
C
102
}
330
C
100
AcDbXrecord
280
     1
300
ACD
300
2019
300
87084ACD_2019_0F
  0
DICTIONARY
  5
2F3
102
{ACAD_REACTORS
330
C
102
}
330
C
100
AcDbDictionary
281
     1
  0
DICTIONARY
  5
2EF
102
{ACAD_REACTORS
330
C
102
}
330
C
100
AcDbDictionary
281
     1
  3
Metric50
350
2F5
  0
DICTIONARY
  5
D
102
{ACAD_REACTORS
330
C
102
}
330
C
100
AcDbDictionary
281
     1
  3
NULOVY_BOD
350
340
  0
DICTIONARY
  5
1A
102
{ACAD_REACTORS
330
C
102
}
330
C
100
AcDbDictionary
281
     1
  3
Layout1
350
1E
  3
Layout2
350
26
  3
Model
350
22
  0
DICTIONARY
  5
43
102
{ACAD_REACTORS
330
C
102
}
330
C
100
AcDbDictionary
281
     1
  3
ByBlock
350
45
  3
ByLayer
350
44
  3
Global
350
46
  0
DICTIONARY
  5
6B
102
{ACAD_REACTORS
330
C
102
}
330
C
100
AcDbDictionary
281
     1
  3
Standard
350
6C
  0
DICTIONARY
  5
17
102
{ACAD_REACTORS
330
C
102
}
330
C
100
AcDbDictionary
281
     1
  3
Standard
350
18
  0
DICTIONARY
  5
19
102
{ACAD_REACTORS
330
C
102
}
330
C
100
AcDbDictionary
281
     1
  0
ACDBDICTIONARYWDFLT
  5
E
102
{ACAD_REACTORS
330
C
102
}
330
C
100
AcDbDictionary
281
     1
  3
Normal
350
F
100
AcDbDictionaryWithDefault
340
F
  0
DICTIONARY
  5
47
102
{ACAD_REACTORS
330
C
102
}
330
C
100
AcDbDictionary
281
     1
  3
A0
350
48
  3
A1
350
49
  3
A2
350
4A
  3
A3
350
4B
  3
A4
350
4C
  3
A5
350
4D
  3
A6
350
4E
  3
A7
350
4F
  3
A8
350
50
  3
A9
350
51
  3
B0
350
52
  3
B1
350
53
  3
B2
350
54
  3
B3
350
55
  3
B4
350
56
  3
B5
350
57
  3
B6
350
58
  3
B7
350
59
  3
B8
350
5A
  3
B9
350
5B
  3
C0
350
5C
  3
C1
350
5D
  3
C2
350
5E
  3
C3
350
5F
  3
C4
350
60
  3
C5
350
61
  3
C6
350
62
  3
C7
350
63
  3
C8
350
64
  3
C9
350
65
  3
D0
350
66
  3
D1
350
67
  3
D2
350
68
  0
DICTIONARY
  5
2F0
102
{ACAD_REACTORS
330
C
102
}
330
C
100
AcDbDictionary
281
     1
  3
Metric50
350
2F4
  0
DICTIONARY
  5
69
102
{ACAD_REACTORS
330
C
102
}
330
C
100
AcDbDictionary
281
     1
  3
Standard
350
6A
  0
DICTIONARY
  5
2A
102
{ACAD_REACTORS
330
C
102
}
330
C
100
AcDbDictionary
281
     1
  3
2dWireframe
350
2F
  3
Basic
350
32
  3
Brighten
350
36
  3
ColorChange
350
3A
  3
Conceptual
350
34
  3
Dim
350
35
  3
EdgeColorOff
350
3D
  3
Facepattern
350
39
  3
Flat
350
2B
  3
FlatWithEdges
350
2C
  3
Gouraud
350
2D
  3
GouraudWithEdges
350
2E
  3
Hidden
350
31
  3
JitterOff
350
3B
  3
Linepattern
350
38
  3
OverhangOff
350
3C
  3
Realistic
350
33
  3
Shaded
350
42
  3
Shaded with edges
350
41
  3
Shades of Gray
350
3E
  3
Sketchy
350
3F
  3
Thicken
350
37
  3
Wireframe
350
30
  3
X-Ray
350
40
  0
XRECORD
  5
35E
102
{ACAD_REACTORS
330
C
102
}
330
C
100
AcDbXrecord
280
     1
 90
        1
330
6A
  0
DICTIONARY
  5
2AC
102
{ACAD_REACTORS
330
C
102
}
330
C
100
AcDbDictionary
281
     1
  3
CANNOSCALE
350
2AD
  3
CMLEADERSTYLE
350
2EE
  3
CTABLESTYLE
350
2ED
  3
CVIEWDETAILSTYLE
350
359
  3
CVIEWSECTIONSTYLE
350
35A
  3
MSLTSCALE
350
2AE
  3
XCLIPFRAME
350
35B
  0
XRECORD
  5
342
102
{ACAD_REACTORS
330
341
102
}
330
341
100
AcDbXrecord
280
     1
290
     1
  0
XRECORD
  5
344
102
{ACAD_REACTORS
330
343
102
}
330
343
100
AcDbXrecord
280
     1
290
     1
  0
XRECORD
  5
346
102
{ACAD_REACTORS
330
345
102
}
330
345
100
AcDbXrecord
280
     1
290
     1
  0
XRECORD
  5
348
102
{ACAD_REACTORS
330
347
102
}
330
347
100
AcDbXrecord
280
     1
290
     1
  0
XRECORD
  5
34A
102
{ACAD_REACTORS
330
349
102
}
330
349
100
AcDbXrecord
280
     1
290
     1
  0
XRECORD
  5
34C
102
{ACAD_REACTORS
330
34B
102
}
330
34B
100
AcDbXrecord
280
     1
290
     1
  0
XRECORD
  5
34E
102
{ACAD_REACTORS
330
34D
102
}
330
34D
100
AcDbXrecord
280
     1
290
     1
  0
XRECORD
  5
350
102
{ACAD_REACTORS
330
34F
102
}
330
34F
100
AcDbXrecord
280
     1
290
     1
  0
XRECORD
  5
352
102
{ACAD_REACTORS
330
351
102
}
330
351
100
AcDbXrecord
280
     1
290
     1
  0
XRECORD
  5
354
102
{ACAD_REACTORS
330
353
102
}
330
353
100
AcDbXrecord
280
     1
290
     1
  0
XRECORD
  5
356
102
{ACAD_REACTORS
330
355
102
}
330
355
100
AcDbXrecord
280
     1
290
     1
  0
XRECORD
  5
358
102
{ACAD_REACTORS
330
357
102
}
330
357
100
AcDbXrecord
280
     1
290
     1
  0
SORTENTSTABLE
  5
2FA
102
{ACAD_REACTORS
330
2F9
102
}
330
2F9
100
AcDbSortentsTable
330
1F
331
2FB
  5
21E
331
2FC
  5
237
331
2FD
  5
2FB
331
2FE
  5
2FC
331
2FF
  5
2FD
331
300
  5
2FE
331
301
  5
2FF
331
302
  5
300
331
303
  5
301
331
304
  5
302
331
305
  5
303
331
306
  5
314
331
307
  5
315
331
308
  5
316
331
309
  5
317
331
30A
  5
318
331
30B
  5
319
331
30C
  5
31A
331
30D
  5
31B
331
30E
  5
31C
331
30F
  5
31D
331
310
  5
31E
331
311
  5
31F
331
312
  5
320
331
313
  5
321
331
314
  5
322
331
315
  5
323
331
316
  5
324
331
317
  5
325
331
318
  5
306
331
319
  5
307
331
31A
  5
308
331
31B
  5
309
331
31C
  5
30A
331
31D
  5
30B
331
31E
  5
30C
331
31F
  5
30D
331
320
  5
30E
331
321
  5
30F
331
322
  5
310
331
323
  5
311
331
324
  5
312
331
325
  5
313
331
327
  5
329
331
328
  5
32A
331
329
  5
32C
331
32A
  5
32D
331
32C
  5
330
331
32D
  5
331
331
32E
  5
332
331
32F
  5
327
331
330
  5
328
331
331
  5
32E
331
332
  5
32F
  0
ACDBDETAILVIEWSTYLE
  5
2F5
102
{ACAD_XDICTIONARY
360
392
102
}
102
{ACAD_REACTORS
330
2EF
102
}
330
2EF
100
AcDbModelDocViewStyle
 70
     0
  3
Metric50
290
     0
100
AcDbDetailViewStyle
 70
     0
 71
     0
 90
        3
 71
     1
340
11
 62
   256
 40
5.0
340
0
 62
   256
 40
5.0
300

 40
0.0
280
     1
 71
     2
340
16
 90
       25
 62
   256
 71
     3
340
11
 62
   256
 40
5.0
 90
        0
 40
15.0
 90
        1
300
%<\AcVar ViewDetailId>% (%<\AcVar ViewScale \f "%sn">%)
 71
     4
340
16
 90
       25
 62
   256
340
16
 90
       25
 62
   256
280
     0
  0
GROUP
  5
340
102
{ACAD_REACTORS
330
D
102
}
330
D
100
AcDbGroup
300

 70
     0
 71
     1
340
73
  0
LAYOUT
  5
1E
102
{ACAD_REACTORS
330
1A
102
}
330
1A
100
AcDbPlotSettings
  1

  2
none_device
  4

  6

 40
0.0
 41
0.0
 42
0.0
 43
0.0
 44
0.0
 45
0.0
 46
0.0
 47
0.0
 48
0.0
 49
0.0
140
0.0
141
0.0
142
1.0
143
1.0
 70
   688
 72
     0
 73
     0
 74
     5
  7

 75
    16
147
1.0
 76
     0
 77
     2
 78
   300
148
0.0
149
0.0
100
AcDbLayout
  1
Layout1
 70
     1
 71
     1
 10
-0.5
 20
-0.5
 11
5.0
 21
5.0
 12
0.0
 22
0.0
 32
0.0
 14
-0.5
 24
-0.5
 34
-0.5
 15
5.0
 25
5.0
 35
5.0
146
0.0
 13
0.0
 23
0.0
 33
0.0
 16
1.0
 26
0.0
 36
0.0
 17
0.0
 27
1.0
 37
0.0
 76
     0
330
1B
  0
LAYOUT
  5
26
102
{ACAD_REACTORS
330
1A
102
}
330
1A
100
AcDbPlotSettings
  1

  2
none_device
  4

  6

 40
0.0
 41
0.0
 42
0.0
 43
0.0
 44
0.0
 45
0.0
 46
0.0
 47
0.0
 48
0.0
 49
0.0
140
0.0
141
0.0
142
1.0
143
1.0
 70
   688
 72
     0
 73
     0
 74
     5
  7

 75
    16
147
1.0
 76
     0
 77
     2
 78
   300
148
0.0
149
0.0
100
AcDbLayout
  1
Layout2
 70
     1
 71
     2
 10
0.0
 20
0.0
 11
0.0
 21
0.0
 12
0.0
 22
0.0
 32
0.0
 14
0.0
 24
0.0
 34
0.0
 15
0.0
 25
0.0
 35
0.0
146
0.0
 13
0.0
 23
0.0
 33
0.0
 16
1.0
 26
0.0
 36
0.0
 17
0.0
 27
1.0
 37
0.0
 76
     0
330
23
  0
LAYOUT
  5
22
102
{ACAD_REACTORS
330
1A
102
}
330
1A
100
AcDbPlotSettings
  1

  2
none_device
  4
Letter_(8.50_x_11.00_Inches)
  6

 40
6.349999999999999
 41
6.349999999999999
 42
6.350005
 43
6.350005
 44
215.9
 45
279.4
 46
0.0
 47
0.0
 48
0.0
 49
0.0
140
0.0
141
0.0
142
1.0
143
1.0
 70
  1712
 72
     0
 73
     0
 74
     0
  7

 75
     0
147
1.0
 76
     0
 77
     2
 78
   300
148
0.0
149
0.0
100
AcDbLayout
  1
Model
 70
     1
 71
     0
 10
-0.5
 20
-0.5
 11
5.0
 21
5.0
 12
0.0
 22
0.0
 32
0.0
 14
-0.5
 24
-0.5
 34
-0.5
 15
5.0
 25
5.0
 35
5.0
146
0.0
 13
0.0
 23
0.0
 33
0.0
 16
1.0
 26
0.0
 36
0.0
 17
0.0
 27
1.0
 37
0.0
 76
     0
330
1F
331
29
  0
MATERIAL
  5
45
102
{ACAD_XDICTIONARY
360
2E2
102
}
102
{ACAD_REACTORS
330
43
102
}
330
43
100
AcDbMaterial
  1
ByBlock
  0
MATERIAL
  5
44
102
{ACAD_XDICTIONARY
360
2E0
102
}
102
{ACAD_REACTORS
330
43
102
}
330
43
100
AcDbMaterial
  1
ByLayer
  0
MATERIAL
  5
46
102
{ACAD_XDICTIONARY
360
2E4
102
}
102
{ACAD_REACTORS
330
43
102
}
330
43
100
AcDbMaterial
  1
Global
  0
MLEADERSTYLE
  5
6C
102
{ACAD_REACTORS
330
6B
102
}
330
6B
100
AcDbMLeaderStyle
170
     2
171
     1
172
     0
 90
        2
 40
0.0
 41
0.0
173
     1
 91
-1056964608
340
14
 92
       -2
290
     1
 42
0.09
291
     1
 43
0.36
  3
Standard
 44
0.18
300

342
11
174
     1
178
     6
175
     1
176
     0
 93
-1056964608
 45
0.18
292
     0
297
     0
 46
0.18
 94
-1056964608
 47
1.0
 49
1.0
140
1.0
293
     1
141
0.0
294
     1
177
     0
142
1.0
295
     0
296
     0
143
0.125
1001
ACAD_MLEADERVER
1070
     2
  0
MLINESTYLE
  5
18
102
{ACAD_REACTORS
330
17
102
}
330
17
100
AcDbMlineStyle
  2
STANDARD
 70
     0
  3

 62
   256
 51
90.0
 52
90.0
 71
     2
 49
0.5
 62
   256
  6
BYLAYER
 49
-0.5
 62
   256
  6
BYLAYER
  0
ACDBPLACEHOLDER
  5
F
102
{ACAD_REACTORS
330
E
102
}
330
E
  0
SCALE
  5
48
102
{ACAD_REACTORS
330
47
102
}
330
47
100
AcDbScale
 70
     0
300
1:1
140
1.0
141
1.0
290
     1
  0
SCALE
  5
49
102
{ACAD_REACTORS
330
47
102
}
330
47
100
AcDbScale
 70
     0
300
1:2
140
1.0
141
2.0
290
     0
  0
SCALE
  5
4A
102
{ACAD_REACTORS
330
47
102
}
330
47
100
AcDbScale
 70
     0
300
1:4
140
1.0
141
4.0
290
     0
  0
SCALE
  5
4B
102
{ACAD_REACTORS
330
47
102
}
330
47
100
AcDbScale
 70
     0
300
1:5
140
1.0
141
5.0
290
     0
  0
SCALE
  5
4C
102
{ACAD_REACTORS
330
47
102
}
330
47
100
AcDbScale
 70
     0
300
1:8
140
1.0
141
8.0
290
     0
  0
SCALE
  5
4D
102
{ACAD_REACTORS
330
47
102
}
330
47
100
AcDbScale
 70
     0
300
1:10
140
1.0
141
10.0
290
     0
  0
SCALE
  5
4E
102
{ACAD_REACTORS
330
47
102
}
330
47
100
AcDbScale
 70
     0
300
1:16
140
1.0
141
16.0
290
     0
  0
SCALE
  5
4F
102
{ACAD_REACTORS
330
47
102
}
330
47
100
AcDbScale
 70
     0
300
1:20
140
1.0
141
20.0
290
     0
  0
SCALE
  5
50
102
{ACAD_REACTORS
330
47
102
}
330
47
100
AcDbScale
 70
     0
300
1:30
140
1.0
141
30.0
290
     0
  0
SCALE
  5
51
102
{ACAD_REACTORS
330
47
102
}
330
47
100
AcDbScale
 70
     0
300
1:40
140
1.0
141
40.0
290
     0
  0
SCALE
  5
52
102
{ACAD_REACTORS
330
47
102
}
330
47
100
AcDbScale
 70
     0
300
1:50
140
1.0
141
50.0
290
     0
  0
SCALE
  5
53
102
{ACAD_REACTORS
330
47
102
}
330
47
100
AcDbScale
 70
     0
300
1:100
140
1.0
141
100.0
290
     0
  0
SCALE
  5
54
102
{ACAD_REACTORS
330
47
102
}
330
47
100
AcDbScale
 70
     0
300
2:1
140
2.0
141
1.0
290
     0
  0
SCALE
  5
55
102
{ACAD_REACTORS
330
47
102
}
330
47
100
AcDbScale
 70
     0
300
4:1
140
4.0
141
1.0
290
     0
  0
SCALE
  5
56
102
{ACAD_REACTORS
330
47
102
}
330
47
100
AcDbScale
 70
     0
300
8:1
140
8.0
141
1.0
290
     0
  0
SCALE
  5
57
102
{ACAD_REACTORS
330
47
102
}
330
47
100
AcDbScale
 70
     0
300
10:1
140
10.0
141
1.0
290
     0
  0
SCALE
  5
58
102
{ACAD_REACTORS
330
47
102
}
330
47
100
AcDbScale
 70
     0
300
100:1
140
100.0
141
1.0
290
     0
  0
SCALE
  5
59
102
{ACAD_REACTORS
330
47
102
}
330
47
100
AcDbScale
 70
     0
300
1/128" = 1'-0"
140
0.007812
141
12.0
290
     0
  0
SCALE
  5
5A
102
{ACAD_REACTORS
330
47
102
}
330
47
100
AcDbScale
 70
     0
300
1/64" = 1'-0"
140
0.015625
141
12.0
290
     0
  0
SCALE
  5
5B
102
{ACAD_REACTORS
330
47
102
}
330
47
100
AcDbScale
 70
     0
300
1/32" = 1'-0"
140
0.03125
141
12.0
290
     0
  0
SCALE
  5
5C
102
{ACAD_REACTORS
330
47
102
}
330
47
100
AcDbScale
 70
     0
300
1/16" = 1'-0"
140
0.0625
141
12.0
290
     0
  0
SCALE
  5
5D
102
{ACAD_REACTORS
330
47
102
}
330
47
100
AcDbScale
 70
     0
300
3/32" = 1'-0"
140
0.09375
141
12.0
290
     0
  0
SCALE
  5
5E
102
{ACAD_REACTORS
330
47
102
}
330
47
100
AcDbScale
 70
     0
300
1/8" = 1'-0"
140
0.125
141
12.0
290
     0
  0
SCALE
  5
5F
102
{ACAD_REACTORS
330
47
102
}
330
47
100
AcDbScale
 70
     0
300
3/16" = 1'-0"
140
0.1875
141
12.0
290
     0
  0
SCALE
  5
60
102
{ACAD_REACTORS
330
47
102
}
330
47
100
AcDbScale
 70
     0
300
1/4" = 1'-0"
140
0.25
141
12.0
290
     0
  0
SCALE
  5
61
102
{ACAD_REACTORS
330
47
102
}
330
47
100
AcDbScale
 70
     0
300
3/8" = 1'-0"
140
0.375
141
12.0
290
     0
  0
SCALE
  5
62
102
{ACAD_REACTORS
330
47
102
}
330
47
100
AcDbScale
 70
     0
300
1/2" = 1'-0"
140
0.5
141
12.0
290
     0
  0
SCALE
  5
63
102
{ACAD_REACTORS
330
47
102
}
330
47
100
AcDbScale
 70
     0
300
3/4" = 1'-0"
140
0.75
141
12.0
290
     0
  0
SCALE
  5
64
102
{ACAD_REACTORS
330
47
102
}
330
47
100
AcDbScale
 70
     0
300
1" = 1'-0"
140
1.0
141
12.0
290
     0
  0
SCALE
  5
65
102
{ACAD_REACTORS
330
47
102
}
330
47
100
AcDbScale
 70
     0
300
1-1/2" = 1'-0"
140
1.5
141
12.0
290
     0
  0
SCALE
  5
66
102
{ACAD_REACTORS
330
47
102
}
330
47
100
AcDbScale
 70
     0
300
3" = 1'-0"
140
3.0
141
12.0
290
     0
  0
SCALE
  5
67
102
{ACAD_REACTORS
330
47
102
}
330
47
100
AcDbScale
 70
     0
300
6" = 1'-0"
140
6.0
141
12.0
290
     0
  0
SCALE
  5
68
102
{ACAD_REACTORS
330
47
102
}
330
47
100
AcDbScale
 70
     0
300
1'-0" = 1'-0"
140
12.0
141
12.0
290
     0
  0
ACDBSECTIONVIEWSTYLE
  5
2F4
102
{ACAD_XDICTIONARY
360
390
102
}
102
{ACAD_REACTORS
330
2F0
102
}
330
2F0
100
AcDbModelDocViewStyle
 70
     0
  3
Metric50
290
     0
100
AcDbSectionViewStyle
 70
     0
 71
     0
 90
      102
 71
     1
340
11
 62
   256
 40
5.0
340
0
340
0
 62
   256
 40
5.0
300
I, O, Q, S, X, Z
 40
10.0
 90
        0
 40
2.5
 90
        0
 71
     2
340
16
 90
       25
 62
   256
340
16
 90
       50
 62
   256
 40
5.0
 40
2.5
 40
5.0
 71
     3
340
11
 62
   256
 40
5.0
 90
        0
 40
15.0
 90
        1
300
%<\AcVar ViewSectionStartId>%-%<\AcVar ViewSectionEndId>% (%<\AcVar ViewScale \f "%sn">%)
 71
     4
 62
   256
 62
   257
300
ANSI31
 40
1.0
 90
        0
290
     0
290
     0
 90
        6
 40
0.0
 40
1.570796326794896
 40
0.2617993877991494
 40
1.308996938995747
 40
-0.2617993877991494
 40
1.832595714594046
  0
TABLESTYLE
  5
6A
102
{ACAD_XDICTIONARY
360
2E6
102
}
102
{ACAD_REACTORS
330
69
102
}
330
69
100
AcDbTableStyle
  3
Standard
 70
     0
 71
     0
 40
0.06
 41
0.06
280
     0
281
     0
  7
Standard
140
0.18
170
     2
 62
     0
 63
     7
283
     0
274
    -2
284
     1
 64
     0
275
    -2
285
     1
 65
     0
276
    -2
286
     1
 66
     0
277
    -2
287
     1
 67
     0
278
    -2
288
     1
 68
     0
279
    -2
289
     1
 69
     0
  7
Standard
140
0.25
170
     5
 62
     0
 63
     7
283
     0
274
    -2
284
     1
 64
     0
275
    -2
285
     1
 65
     0
276
    -2
286
     1
 66
     0
277
    -2
287
     1
 67
     0
278
    -2
288
     1
 68
     0
279
    -2
289
     1
 69
     0
  7
Standard
140
0.18
170
     5
 62
     0
 63
     7
283
     0
274
    -2
284
     1
 64
     0
275
    -2
285
     1
 65
     0
276
    -2
286
     1
 66
     0
277
    -2
287
     1
 67
     0
278
    -2
288
     1
 68
     0
279
    -2
289
     1
 69
     0
  0
VISUALSTYLE
  5
2F
102
{ACAD_XDICTIONARY
360
367
102
}
102
{ACAD_REACTORS
330
2A
102
}
330
2A
100
AcDbVisualStyle
  2

 70
     4
 71
     0
 72
     2
 73
     0
 90
        0
 40
-0.6
 41
-30.0
 62
     5
 63
     7
421
 16777215
 74
     1
 91
        4
 64
     7
 65
   257
 75
     1
175
     1
 42
1.0
 92
        0
 66
   257
 43
1.0
 76
     1
 77
     6
 78
     2
 67
     7
 79
     5
170
     0
171
     0
290
     0
174
     0
 93
        1
 44
0.0
173
     0
291
     0
 45
0.0
1001
ACAD
1000
AcDbSavedByObjectVersion
1070
     0
  0
VISUALSTYLE
  5
32
102
{ACAD_XDICTIONARY
360
36D
102
}
102
{ACAD_REACTORS
330
2A
102
}
330
2A
100
AcDbVisualStyle
  2

 70
     7
 71
     1
 72
     0
 73
     1
 90
        0
 40
-0.6
 41
-30.0
 62
     5
 63
     7
421
 16777215
 74
     0
 91
        4
 64
     7
 65
   257
 75
     1
175
     1
 42
1.0
 92
        8
 66
     7
 43
1.0
 76
     1
 77
     6
 78
     2
 67
     7
 79
     5
170
     0
171
     0
290
     0
174
     0
 93
        1
 44
0.0
173
     0
291
     1
 45
0.0
1001
ACAD
1000
AcDbSavedByObjectVersion
1070
     0
  0
VISUALSTYLE
  5
36
102
{ACAD_XDICTIONARY
360
375
102
}
102
{ACAD_REACTORS
330
2A
102
}
330
2A
100
AcDbVisualStyle
  2

 70
    12
 71
     2
 72
     2
 73
     0
 90
        0
 40
-0.6
 41
-30.0
 62
     5
 63
     7
421
 16777215
 74
     1
 91
        4
 64
     7
 65
   257
 75
     1
175
     1
 42
1.0
 92
        8
 66
     7
 43
1.0
 76
     1
 77
     6
 78
     2
 67
     7
 79
     5
170
     0
171
     0
290
     0
174
     0
 93
        1
 44
50.0
173
     0
291
     1
 45
0.0
1001
ACAD
1000
AcDbSavedByObjectVersion
1070
     0
  0
VISUALSTYLE
  5
3A
102
{ACAD_XDICTIONARY
360
37D
102
}
102
{ACAD_REACTORS
330
2A
102
}
330
2A
100
AcDbVisualStyle
  2

 70
    16
 71
     2
 72
     2
 73
     3
 90
        0
 40
-0.6
 41
-30.0
 62
     5
 63
     8
421
  8421504
 74
     1
 91
        4
 64
     7
 65
   257
 75
     1
175
     1
 42
1.0
 92
        8
 66
     8
424
  8421504
 43
1.0
 76
     1
 77
     6
 78
     2
 67
     7
 79
     5
170
     0
171
     0
290
     0
174
     0
 93
        1
 44
0.0
173
     0
291
     1
 45
0.0
1001
ACAD
1000
AcDbSavedByObjectVersion
1070
     0
  0
VISUALSTYLE
  5
34
102
{ACAD_XDICTIONARY
360
371
102
}
102
{ACAD_REACTORS
330
2A
102
}
330
2A
100
AcDbVisualStyle
  2

 70
     9
 71
     3
 72
     2
 73
     0
 90
        0
 40
-0.6
 41
-30.0
 62
     5
 63
     7
421
 16777215
 74
     2
 91
        2
 64
     7
 65
   257
 75
     1
175
     1
 42
179.0
 92
        8
 66
     7
 43
1.0
 76
     1
 77
     6
 78
     2
 67
     7
 79
     3
170
     0
171
     0
290
     0
174
     0
 93
        1
 44
0.0
173
     0
291
     0
 45
0.0
1001
ACAD
1000
AcDbSavedByObjectVersion
1070
     0
  0
VISUALSTYLE
  5
35
102
{ACAD_XDICTIONARY
360
373
102
}
102
{ACAD_REACTORS
330
2A
102
}
330
2A
100
AcDbVisualStyle
  2

 70
    11
 71
     2
 72
     2
 73
     0
 90
        0
 40
-0.6
 41
-30.0
 62
     5
 63
     7
421
 16777215
 74
     1
 91
        4
 64
     7
 65
   257
 75
     1
175
     1
 42
1.0
 92
        8
 66
     7
 43
1.0
 76
     1
 77
     6
 78
     2
 67
     7
 79
     5
170
     0
171
     0
290
     0
174
     0
 93
        1
 44
-50.0
173
     0
291
     1
 45
0.0
1001
ACAD
1000
AcDbSavedByObjectVersion
1070
     0
  0
VISUALSTYLE
  5
3D
102
{ACAD_XDICTIONARY
360
383
102
}
102
{ACAD_REACTORS
330
2A
102
}
330
2A
100
AcDbVisualStyle
  2

 70
    22
 71
     2
 72
     2
 73
     0
 90
        0
 40
-0.6
 41
-30.0
 62
     5
 63
     7
421
 16777215
 74
     1
 91
        4
 64
     7
 65
   257
 75
     1
175
     1
 42
1.0
 92
        8
 66
     7
 43
1.0
 76
     1
 77
     6
 78
     2
 67
     7
 79
     5
170
     0
171
     0
290
     0
174
     0
 93
        1
 44
0.0
173
     0
291
     1
 45
0.0
1001
ACAD
1000
AcDbSavedByObjectVersion
1070
     0
  0
VISUALSTYLE
  5
39
102
{ACAD_XDICTIONARY
360
37B
102
}
102
{ACAD_REACTORS
330
2A
102
}
330
2A
100
AcDbVisualStyle
  2

 70
    15
 71
     2
 72
     2
 73
     0
 90
        0
 40
-0.6
 41
-30.0
 62
     5
 63
     7
421
 16777215
 74
     1
 91
        4
 64
     7
 65
   257
 75
     1
175
     1
 42
1.0
 92
        8
 66
     7
 43
1.0
 76
     1
 77
     6
 78
     2
 67
     7
 79
     5
170
     0
171
     0
290
     0
174
     0
 93
        1
 44
0.0
173
     0
291
     1
 45
0.0
1001
ACAD
1000
AcDbSavedByObjectVersion
1070
     0
  0
VISUALSTYLE
  5
2B
102
{ACAD_XDICTIONARY
360
35F
102
}
102
{ACAD_REACTORS
330
2A
102
}
330
2A
100
AcDbVisualStyle
  2

 70
     0
 71
     2
 72
     1
 73
     1
 90
        2
 40
-0.6
 41
30.0
 62
     5
 63
     7
421
 16777215
 74
     0
 91
        0
 64
     7
 65
   257
 75
     1
175
     1
 42
1.0
 92
        8
 66
     7
 43
1.0
 76
     1
 77
     6
 78
     2
 67
     7
 79
     5
170
     0
171
     0
290
     0
174
     0
 93
       13
 44
0.0
173
     0
291
     1
 45
0.0
1001
ACAD
1000
AcDbSavedByObjectVersion
1070
     0
  0
VISUALSTYLE
  5
2C
102
{ACAD_XDICTIONARY
360
361
102
}
102
{ACAD_REACTORS
330
2A
102
}
330
2A
100
AcDbVisualStyle
  2

 70
     1
 71
     2
 72
     1
 73
     1
 90
        2
 40
-0.6
 41
30.0
 62
     5
 63
     7
421
 16777215
 74
     1
 91
        0
 64
     7
 65
   257
 75
     1
175
     1
 42
1.0
 92
        0
 66
   257
 43
1.0
 76
     1
 77
     6
 78
     2
 67
     7
 79
     5
170
     0
171
     0
290
     0
174
     0
 93
       13
 44
0.0
173
     0
291
     1
 45
0.0
1001
ACAD
1000
AcDbSavedByObjectVersion
1070
     0
  0
VISUALSTYLE
  5
2D
102
{ACAD_XDICTIONARY
360
363
102
}
102
{ACAD_REACTORS
330
2A
102
}
330
2A
100
AcDbVisualStyle
  2

 70
     2
 71
     2
 72
     2
 73
     1
 90
        2
 40
-0.6
 41
30.0
 62
     5
 63
     7
421
 16777215
 74
     0
 91
        0
 64
     7
 65
   257
 75
     1
175
     1
 42
1.0
 92
        0
 66
     7
 43
1.0
 76
     1
 77
     6
 78
     2
 67
     7
 79
     5
170
     0
171
     0
290
     0
174
     0
 93
       13
 44
0.0
173
     0
291
     1
 45
0.0
1001
ACAD
1000
AcDbSavedByObjectVersion
1070
     0
  0
VISUALSTYLE
  5
2E
102
{ACAD_XDICTIONARY
360
365
102
}
102
{ACAD_REACTORS
330
2A
102
}
330
2A
100
AcDbVisualStyle
  2

 70
     3
 71
     2
 72
     2
 73
     1
 90
        2
 40
-0.6
 41
30.0
 62
     5
 63
     7
421
 16777215
 74
     1
 91
        0
 64
     7
 65
   257
 75
     1
175
     1
 42
1.0
 92
        0
 66
   257
 43
1.0
 76
     1
 77
     6
 78
     2
 67
     7
 79
     5
170
     0
171
     0
290
     0
174
     0
 93
       13
 44
0.0
173
     0
291
     1
 45
0.0
1001
ACAD
1000
AcDbSavedByObjectVersion
1070
     0
  0
VISUALSTYLE
  5
31
102
{ACAD_XDICTIONARY
360
36B
102
}
102
{ACAD_REACTORS
330
2A
102
}
330
2A
100
AcDbVisualStyle
  2

 70
     6
 71
     1
 72
     2
 73
     2
 90
        0
 40
-0.6
 41
-30.0
 62
     5
 63
     7
421
 16777215
 74
     2
 91
        2
 64
     7
 65
   257
 75
     2
175
     1
 42
40.0
 92
        0
 66
   257
 43
1.0
 76
     1
 77
     6
 78
     2
 67
     7
 79
     3
170
     0
171
     0
290
     0
174
     0
 93
        1
 44
0.0
173
     0
291
     0
 45
0.0
1001
ACAD
1000
AcDbSavedByObjectVersion
1070
     0
  0
VISUALSTYLE
  5
3B
102
{ACAD_XDICTIONARY
360
37F
102
}
102
{ACAD_REACTORS
330
2A
102
}
330
2A
100
AcDbVisualStyle
  2

 70
    20
 71
     2
 72
     2
 73
     0
 90
        0
 40
-0.6
 41
-30.0
 62
     5
 63
     7
421
 16777215
 74
     1
 91
        4
 64
     7
 65
   257
 75
     1
175
     1
 42
1.0
 92
       10
 66
     7
 43
1.0
 76
     1
 77
     6
 78
     2
 67
     7
 79
     5
170
     0
171
     0
290
     0
174
     0
 93
        1
 44
0.0
173
     0
291
     1
 45
0.0
1001
ACAD
1000
AcDbSavedByObjectVersion
1070
     0
  0
VISUALSTYLE
  5
38
102
{ACAD_XDICTIONARY
360
379
102
}
102
{ACAD_REACTORS
330
2A
102
}
330
2A
100
AcDbVisualStyle
  2

 70
    14
 71
     2
 72
     2
 73
     0
 90
        0
 40
-0.6
 41
-30.0
 62
     5
 63
     7
421
 16777215
 74
     1
 91
        4
 64
     7
 65
   257
 75
     7
175
     7
 42
1.0
 92
        8
 66
     7
 43
1.0
 76
     1
 77
     6
 78
     2
 67
     7
 79
     5
170
     0
171
     0
290
     0
174
     0
 93
        1
 44
0.0
173
     0
291
     1
 45
0.0
1001
ACAD
1000
AcDbSavedByObjectVersion
1070
     0
  0
VISUALSTYLE
  5
3C
102
{ACAD_XDICTIONARY
360
381
102
}
102
{ACAD_REACTORS
330
2A
102
}
330
2A
100
AcDbVisualStyle
  2

 70
    21
 71
     2
 72
     2
 73
     0
 90
        0
 40
-0.6
 41
-30.0
 62
     5
 63
     7
421
 16777215
 74
     1
 91
        4
 64
     7
 65
   257
 75
     1
175
     1
 42
1.0
 92
        9
 66
     7
 43
1.0
 76
     1
 77
     6
 78
     2
 67
     7
 79
     5
170
     0
171
     0
290
     0
174
     0
 93
        1
 44
0.0
173
     0
291
     1
 45
0.0
1001
ACAD
1000
AcDbSavedByObjectVersion
1070
     0
  0
VISUALSTYLE
  5
33
102
{ACAD_XDICTIONARY
360
36F
102
}
102
{ACAD_REACTORS
330
2A
102
}
330
2A
100
AcDbVisualStyle
  2

 70
     8
 71
     2
 72
     3
 73
     0
 90
        2
 40
-0.6
 41
30.0
 62
     5
 63
     7
421
 16777215
 74
     0
 91
        0
 64
     7
 65
   257
 75
     1
175
     1
 42
1.0
 92
        8
 66
   257
 43
1.0
 76
     1
 77
     6
 78
     2
 67
     7
 79
     3
170
     0
171
     0
290
     0
174
     0
 93
       13
 44
0.0
173
     0
291
     0
 45
0.0
1001
ACAD
1000
AcDbSavedByObjectVersion
1070
     0
  0
VISUALSTYLE
  5
42
102
{ACAD_XDICTIONARY
360
38D
102
}
102
{ACAD_REACTORS
330
2A
102
}
330
2A
100
AcDbVisualStyle
  2

 70
    27
 71
     2
 72
     2
 73
     1
 90
        2
 40
-0.6
 41
30.0
 62
     5
 63
     7
421
 16777215
 74
     0
 91
        4
 64
     7
 65
   257
 75
     1
175
     1
 42
1.0
 92
        8
 66
   257
 43
1.0
 76
     1
 77
     6
 78
     2
 67
     8
425
  7895160
 79
     3
170
     0
171
     0
290
     0
174
     0
 93
        5
 44
0.0
173
     0
291
     0
 45
0.0
1001
ACAD
1000
AcDbSavedByObjectVersion
1070
     0
  0
VISUALSTYLE
  5
41
102
{ACAD_XDICTIONARY
360
38B
102
}
102
{ACAD_REACTORS
330
2A
102
}
330
2A
100
AcDbVisualStyle
  2

 70
    26
 71
     2
 72
     2
 73
     1
 90
        2
 40
-0.6
 41
30.0
 62
     5
 63
     7
421
 16777215
 74
     1
 91
       10
 64
     7
 65
   257
 75
     2
175
     1
 42
1.0
 92
        8
 66
   257
 43
1.0
 76
     1
 77
     6
 78
     2
 67
     7
 79
     3
170
     0
171
     0
290
     0
174
     0
 93
        5
 44
0.0
173
     0
291
     0
 45
0.0
1001
ACAD
1000
AcDbSavedByObjectVersion
1070
     0
  0
VISUALSTYLE
  5
3E
102
{ACAD_XDICTIONARY
360
385
102
}
102
{ACAD_REACTORS
330
2A
102
}
330
2A
100
AcDbVisualStyle
  2

 70
    23
 71
     2
 72
     2
 73
     3
 90
        0
 40
-0.6
 41
-30.0
 62
     5
 63
     7
421
 16777215
 74
     2
 91
        2
 64
     7
 65
     7
 75
     1
175
     1
 42
40.0
 92
        8
 66
     7
 43
1.0
 76
     1
 77
     6
 78
     2
 67
     7
 79
     3
170
     0
171
     0
290
     0
174
     0
 93
        1
 44
0.0
173
     0
291
     0
 45
0.0
1001
ACAD
1000
AcDbSavedByObjectVersion
1070
     0
  0
VISUALSTYLE
  5
3F
102
{ACAD_XDICTIONARY
360
387
102
}
102
{ACAD_REACTORS
330
2A
102
}
330
2A
100
AcDbVisualStyle
  2

 70
    24
 71
     1
 72
     2
 73
     2
 90
        0
 40
-0.6
 41
-30.0
 62
     5
 63
     7
421
 16777215
 74
     2
 91
        2
 64
     7
 65
     7
 75
     1
175
     1
 42
40.0
 92
       11
 66
     7
 43
1.0
 76
     1
 77
     6
 78
     2
 67
     7
 79
     6
170
     0
171
     0
290
     0
174
     0
 93
        1
 44
0.0
173
     0
291
     0
 45
0.0
1001
ACAD
1000
AcDbSavedByObjectVersion
1070
     0
  0
VISUALSTYLE
  5
37
102
{ACAD_XDICTIONARY
360
377
102
}
102
{ACAD_REACTORS
330
2A
102
}
330
2A
100
AcDbVisualStyle
  2

 70
    13
 71
     2
 72
     2
 73
     0
 90
        0
 40
-0.6
 41
-30.0
 62
     5
 63
     7
421
 16777215
 74
     1
 91
        4
 64
     7
 65
   257
 75
     1
175
     1
 42
1.0
 92
       12
 66
     7
 43
1.0
 76
     1
 77
     6
 78
     2
 67
     7
 79
     5
170
     0
171
     0
290
     0
174
     0
 93
        1
 44
0.0
173
     0
291
     1
 45
0.0
1001
ACAD
1000
AcDbSavedByObjectVersion
1070
     0
  0
VISUALSTYLE
  5
30
102
{ACAD_XDICTIONARY
360
369
102
}
102
{ACAD_REACTORS
330
2A
102
}
330
2A
100
AcDbVisualStyle
  2

 70
     5
 71
     0
 72
     2
 73
     0
 90
        0
 40
-0.6
 41
-30.0
 62
     5
 63
     7
421
 16777215
 74
     1
 91
        4
 64
     7
 65
   257
 75
     1
175
     1
 42
1.0
 92
        0
 66
   257
 43
1.0
 76
     1
 77
     6
 78
     2
 67
     7
 79
     3
170
     0
171
     0
290
     0
174
     0
 93
        1
 44
0.0
173
     0
291
     0
 45
0.0
1001
ACAD
1000
AcDbSavedByObjectVersion
1070
     0
  0
VISUALSTYLE
  5
40
102
{ACAD_XDICTIONARY
360
389
102
}
102
{ACAD_REACTORS
330
2A
102
}
330
2A
100
AcDbVisualStyle
  2

 70
    25
 71
     2
 72
     2
 73
     1
 90
        1
 40
0.5
 41
-30.0
 62
     5
 63
     7
421
 16777215
 74
     1
 91
        0
 64
     7
 65
   257
 75
     1
175
     1
 42
1.0
 92
        8
 66
     7
 43
1.0
 76
     1
 77
     6
 78
     2
 67
     7
 79
     3
170
     0
171
     0
290
     0
174
     0
 93
       13
 44
0.0
173
     0
291
     0
 45
0.0
1001
ACAD
1000
AcDbSavedByObjectVersion
1070
     0
  0
DICTIONARYVAR
  5
2AD
102
{ACAD_REACTORS
330
2AC
102
}
330
2AC
100
DictionaryVariables
280
     0
  1
1:1
  0
DICTIONARYVAR
  5
2EE
102
{ACAD_REACTORS
330
2AC
102
}
330
2AC
100
DictionaryVariables
280
     0
  1
STANDARD
  0
DICTIONARYVAR
  5
2ED
102
{ACAD_REACTORS
330
2AC
102
}
330
2AC
100
DictionaryVariables
280
     0
  1
STANDARD
  0
DICTIONARYVAR
  5
359
102
{ACAD_REACTORS
330
2AC
102
}
330
2AC
100
DictionaryVariables
280
     0
  1
Metric50
  0
DICTIONARYVAR
  5
35A
102
{ACAD_REACTORS
330
2AC
102
}
330
2AC
100
DictionaryVariables
280
     0
  1
Metric50
  0
DICTIONARYVAR
  5
2AE
102
{ACAD_REACTORS
330
2AC
102
}
330
2AC
100
DictionaryVariables
280
     0
  1
1
  0
DICTIONARYVAR
  5
35B
102
{ACAD_REACTORS
330
2AC
102
}
330
2AC
100
DictionaryVariables
280
     0
  1
2
  0
DICTIONARY
  5
392
330
2F5
100
AcDbDictionary
280
     1
281
     1
  3
ACAD_XREC_ROUNDTRIP
360
393
  0
DICTIONARY
  5
2E2
330
45
100
AcDbDictionary
280
     1
281
     1
  3
ACAD_XREC_ROUNDTRIP
360
2E3
  0
DICTIONARY
  5
2E0
330
44
100
AcDbDictionary
280
     1
281
     1
  3
ACAD_XREC_ROUNDTRIP
360
2E1
  0
DICTIONARY
  5
2E4
330
46
100
AcDbDictionary
280
     1
281
     1
  3
ACAD_XREC_ROUNDTRIP
360
2E5
  0
DICTIONARY
  5
390
330
2F4
100
AcDbDictionary
280
     1
281
     1
  3
ACAD_XREC_ROUNDTRIP
360
391
  0
DICTIONARY
  5
2E6
330
6A
100
AcDbDictionary
280
     1
281
     1
  3
ACAD_ROUNDTRIP_2008_TABLESTYLE_CELLSTYLEMAP
360
35D
  3
ACAD_XREC_ROUNDTRIP
360
38F
  0
DICTIONARY
  5
367
330
2F
100
AcDbDictionary
280
     1
281
     1
  3
ACAD_XREC_ROUNDTRIP
360
368
  0
DICTIONARY
  5
36D
330
32
100
AcDbDictionary
280
     1
281
     1
  3
ACAD_XREC_ROUNDTRIP
360
36E
  0
DICTIONARY
  5
375
330
36
100
AcDbDictionary
280
     1
281
     1
  3
ACAD_XREC_ROUNDTRIP
360
376
  0
DICTIONARY
  5
37D
330
3A
100
AcDbDictionary
280
     1
281
     1
  3
ACAD_XREC_ROUNDTRIP
360
37E
  0
DICTIONARY
  5
371
330
34
100
AcDbDictionary
280
     1
281
     1
  3
ACAD_XREC_ROUNDTRIP
360
372
  0
DICTIONARY
  5
373
330
35
100
AcDbDictionary
280
     1
281
     1
  3
ACAD_XREC_ROUNDTRIP
360
374
  0
DICTIONARY
  5
383
330
3D
100
AcDbDictionary
280
     1
281
     1
  3
ACAD_XREC_ROUNDTRIP
360
384
  0
DICTIONARY
  5
37B
330
39
100
AcDbDictionary
280
     1
281
     1
  3
ACAD_XREC_ROUNDTRIP
360
37C
  0
DICTIONARY
  5
35F
330
2B
100
AcDbDictionary
280
     1
281
     1
  3
ACAD_XREC_ROUNDTRIP
360
360
  0
DICTIONARY
  5
361
330
2C
100
AcDbDictionary
280
     1
281
     1
  3
ACAD_XREC_ROUNDTRIP
360
362
  0
DICTIONARY
  5
363
330
2D
100
AcDbDictionary
280
     1
281
     1
  3
ACAD_XREC_ROUNDTRIP
360
364
  0
DICTIONARY
  5
365
330
2E
100
AcDbDictionary
280
     1
281
     1
  3
ACAD_XREC_ROUNDTRIP
360
366
  0
DICTIONARY
  5
36B
330
31
100
AcDbDictionary
280
     1
281
     1
  3
ACAD_XREC_ROUNDTRIP
360
36C
  0
DICTIONARY
  5
37F
330
3B
100
AcDbDictionary
280
     1
281
     1
  3
ACAD_XREC_ROUNDTRIP
360
380
  0
DICTIONARY
  5
379
330
38
100
AcDbDictionary
280
     1
281
     1
  3
ACAD_XREC_ROUNDTRIP
360
37A
  0
DICTIONARY
  5
381
330
3C
100
AcDbDictionary
280
     1
281
     1
  3
ACAD_XREC_ROUNDTRIP
360
382
  0
DICTIONARY
  5
36F
330
33
100
AcDbDictionary
280
     1
281
     1
  3
ACAD_XREC_ROUNDTRIP
360
370
  0
DICTIONARY
  5
38D
330
42
100
AcDbDictionary
280
     1
281
     1
  3
ACAD_XREC_ROUNDTRIP
360
38E
  0
DICTIONARY
  5
38B
330
41
100
AcDbDictionary
280
     1
281
     1
  3
ACAD_XREC_ROUNDTRIP
360
38C
  0
DICTIONARY
  5
385
330
3E
100
AcDbDictionary
280
     1
281
     1
  3
ACAD_XREC_ROUNDTRIP
360
386
  0
DICTIONARY
  5
387
330
3F
100
AcDbDictionary
280
     1
281
     1
  3
ACAD_XREC_ROUNDTRIP
360
388
  0
DICTIONARY
  5
377
330
37
100
AcDbDictionary
280
     1
281
     1
  3
ACAD_XREC_ROUNDTRIP
360
378
  0
DICTIONARY
  5
369
330
30
100
AcDbDictionary
280
     1
281
     1
  3
ACAD_XREC_ROUNDTRIP
360
36A
  0
DICTIONARY
  5
389
330
40
100
AcDbDictionary
280
     1
281
     1
  3
ACAD_XREC_ROUNDTRIP
360
38A
  0
XRECORD
  5
393
102
{ACAD_REACTORS
330
392
102
}
330
392
100
AcDbXrecord
280
     1
102
DISPLAYNAME
  1
Metric50
102
FLAGS
 90
        0
  0
XRECORD
  5
2E3
102
{ACAD_REACTORS
330
2E2
102
}
330
2E2
100
AcDbXrecord
280
     1
102
MATERIAL
148
0.0
149
0.0
149
0.0
 93
        0
 94
      127
282
     0
 72
     1
 77
     1
171
     1
175
     1
179
     1
273
     0
  0
XRECORD
  5
2E1
102
{ACAD_REACTORS
330
2E0
102
}
330
2E0
100
AcDbXrecord
280
     1
102
MATERIAL
148
0.0
149
0.0
149
0.0
 93
        0
 94
      127
282
     0
 72
     1
 77
     1
171
     1
175
     1
179
     1
273
     0
  0
XRECORD
  5
2E5
102
{ACAD_REACTORS
330
2E4
102
}
330
2E4
100
AcDbXrecord
280
     1
102
MATERIAL
148
0.0
149
0.0
149
0.0
 93
        0
 94
      127
282
     0
 72
     1
 77
     1
171
     1
175
     1
179
     1
273
     0
  0
XRECORD
  5
391
102
{ACAD_REACTORS
330
390
102
}
330
390
100
AcDbXrecord
280
     1
102
DISPLAYNAME
  1
Metric50
102
FLAGS
 90
        0
  0
CELLSTYLEMAP
  5
35D
102
{ACAD_REACTORS
330
2E6
102
}
330
2E6
100
AcDbCellStyleMap
 90
        3
300
CELLSTYLE
  1
TABLEFORMAT_BEGIN
 90
        5
170
     1
 91
        0
 92
    32768
 62
   257
 93
        1
300
CONTENTFORMAT
  1
CONTENTFORMAT_BEGIN
 90
        0
 91
        0
 92
        4
 93
        0
300

 40
0.0
140
1.0
 94
        5
 62
     0
340
11
144
0.25
309
CONTENTFORMAT_END
171
     1
301
MARGIN
  1
CELLMARGIN_BEGIN
 40
0.06
 40
0.06
 40
0.06
 40
0.06
 40
0.18
 40
0.18
309
CELLMARGIN_END
 94
        6
 95
        1
302
GRIDFORMAT
  1
GRIDFORMAT_BEGIN
 90
        0
 91
        1
 62
     0
 92
       -2
340
14
 93
        0
 40
0.045
309
GRIDFORMAT_END
 95
        2
302
GRIDFORMAT
  1
GRIDFORMAT_BEGIN
 90
        0
 91
        1
 62
     0
 92
       -2
340
14
 93
        0
 40
0.045
309
GRIDFORMAT_END
 95
        4
302
GRIDFORMAT
  1
GRIDFORMAT_BEGIN
 90
        0
 91
        1
 62
     0
 92
       -2
340
14
 93
        0
 40
0.045
309
GRIDFORMAT_END
 95
        8
302
GRIDFORMAT
  1
GRIDFORMAT_BEGIN
 90
        0
 91
        1
 62
     0
 92
       -2
340
14
 93
        0
 40
0.045
309
GRIDFORMAT_END
 95
       16
302
GRIDFORMAT
  1
GRIDFORMAT_BEGIN
 90
        0
 91
        1
 62
     0
 92
       -2
340
14
 93
        0
 40
0.045
309
GRIDFORMAT_END
 95
       32
302
GRIDFORMAT
  1
GRIDFORMAT_BEGIN
 90
        0
 91
        1
 62
     0
 92
       -2
340
14
 93
        0
 40
0.045
309
GRIDFORMAT_END
309
TABLEFORMAT_END
  1
CELLSTYLE_BEGIN
 90
        1
 91
        1
300
_TITLE
309
CELLSTYLE_END
300
CELLSTYLE
  1
TABLEFORMAT_BEGIN
 90
        5
170
     1
 91
        0
 92
        0
 62
   257
 93
        1
300
CONTENTFORMAT
  1
CONTENTFORMAT_BEGIN
 90
        0
 91
        0
 92
        4
 93
        0
300

 40
0.0
140
1.0
 94
        5
 62
     0
340
11
144
0.18
309
CONTENTFORMAT_END
171
     1
301
MARGIN
  1
CELLMARGIN_BEGIN
 40
0.06
 40
0.06
 40
0.06
 40
0.06
 40
0.18
 40
0.18
309
CELLMARGIN_END
 94
        6
 95
        1
302
GRIDFORMAT
  1
GRIDFORMAT_BEGIN
 90
        0
 91
        1
 62
     0
 92
       -2
340
14
 93
        0
 40
0.045
309
GRIDFORMAT_END
 95
        2
302
GRIDFORMAT
  1
GRIDFORMAT_BEGIN
 90
        0
 91
        1
 62
     0
 92
       -2
340
14
 93
        0
 40
0.045
309
GRIDFORMAT_END
 95
        4
302
GRIDFORMAT
  1
GRIDFORMAT_BEGIN
 90
        0
 91
        1
 62
     0
 92
       -2
340
14
 93
        0
 40
0.045
309
GRIDFORMAT_END
 95
        8
302
GRIDFORMAT
  1
GRIDFORMAT_BEGIN
 90
        0
 91
        1
 62
     0
 92
       -2
340
14
 93
        0
 40
0.045
309
GRIDFORMAT_END
 95
       16
302
GRIDFORMAT
  1
GRIDFORMAT_BEGIN
 90
        0
 91
        1
 62
     0
 92
       -2
340
14
 93
        0
 40
0.045
309
GRIDFORMAT_END
 95
       32
302
GRIDFORMAT
  1
GRIDFORMAT_BEGIN
 90
        0
 91
        1
 62
     0
 92
       -2
340
14
 93
        0
 40
0.045
309
GRIDFORMAT_END
309
TABLEFORMAT_END
  1
CELLSTYLE_BEGIN
 90
        2
 91
        1
300
_HEADER
309
CELLSTYLE_END
300
CELLSTYLE
  1
TABLEFORMAT_BEGIN
 90
        5
170
     1
 91
        0
 92
        0
 62
   257
 93
        1
300
CONTENTFORMAT
  1
CONTENTFORMAT_BEGIN
 90
        0
 91
        0
 92
        4
 93
        0
300

 40
0.0
140
1.0
 94
        2
 62
     0
340
11
144
0.18
309
CONTENTFORMAT_END
171
     1
301
MARGIN
  1
CELLMARGIN_BEGIN
 40
0.06
 40
0.06
 40
0.06
 40
0.06
 40
0.18
 40
0.18
309
CELLMARGIN_END
 94
        6
 95
        1
302
GRIDFORMAT
  1
GRIDFORMAT_BEGIN
 90
        0
 91
        1
 62
     0
 92
       -2
340
14
 93
        0
 40
0.045
309
GRIDFORMAT_END
 95
        2
302
GRIDFORMAT
  1
GRIDFORMAT_BEGIN
 90
        0
 91
        1
 62
     0
 92
       -2
340
14
 93
        0
 40
0.045
309
GRIDFORMAT_END
 95
        4
302
GRIDFORMAT
  1
GRIDFORMAT_BEGIN
 90
        0
 91
        1
 62
     0
 92
       -2
340
14
 93
        0
 40
0.045
309
GRIDFORMAT_END
 95
        8
302
GRIDFORMAT
  1
GRIDFORMAT_BEGIN
 90
        0
 91
        1
 62
     0
 92
       -2
340
14
 93
        0
 40
0.045
309
GRIDFORMAT_END
 95
       16
302
GRIDFORMAT
  1
GRIDFORMAT_BEGIN
 90
        0
 91
        1
 62
     0
 92
       -2
340
14
 93
        0
 40
0.045
309
GRIDFORMAT_END
 95
       32
302
GRIDFORMAT
  1
GRIDFORMAT_BEGIN
 90
        0
 91
        1
 62
     0
 92
       -2
340
14
 93
        0
 40
0.045
309
GRIDFORMAT_END
309
TABLEFORMAT_END
  1
CELLSTYLE_BEGIN
 90
        3
 91
        2
300
_DATA
309
CELLSTYLE_END
  0
XRECORD
  5
38F
102
{ACAD_REACTORS
330
2E6
102
}
330
2E6
100
AcDbXrecord
280
     1
102
ACAD_ROUNDTRIP_PRE2007_TABLESTYLE
 90
        4
 91
        0
  1

 92
        4
 93
        0
  2

 94
        4
 95
        0
  3

  0
XRECORD
  5
368
102
{ACAD_REACTORS
330
367
102
}
330
367
100
AcDbXrecord
280
     1
102
RTVSPost2010Prop28
280
     1
102
RTVSPost2010PropOp28
 70
     1
102
RTVSPost2010Prop29
280
     1
102
RTVSPost2010PropOp29
 70
     1
102
RTVSPost2010Prop30
280
     0
102
RTVSPost2010PropOp30
 70
     1
102
RTVSPost2010Prop31
280
     0
102
RTVSPost2010PropOp31
 70
     1
102
RTVSPost2010Prop32
280
     0
102
RTVSPost2010PropOp32
 70
     1
102
RTVSPost2010Prop33
280
     0
102
RTVSPost2010PropOp33
 70
     1
102
RTVSPost2010Prop34
280
     0
102
RTVSPost2010PropOp34
 70
     1
102
RTVSPost2010Prop35
280
     0
102
RTVSPost2010PropOp35
 70
     1
102
RTVSPost2010Prop36
280
     0
102
RTVSPost2010PropOp36
 70
     1
102
RTVSPost2010Prop37
 90
       50
102
RTVSPost2010PropOp37
 70
     1
102
RTVSPost2010Prop38
140
0.0
102
RTVSPost2010PropOp38
 70
     1
102
RTVSPost2010Prop39
140
1.0
102
RTVSPost2010PropOp39
 70
     1
102
RTVSPost2010Prop40
 90
        0
102
RTVSPost2010PropOp40
 70
     1
102
RTVSPost2010Prop41ColorIndex
 90
       18
102
RTVSPost2010Prop41ColorRGB
 90
        0
102
RTVSPost2010PropOp41
 70
     1
102
RTVSPost2010Prop42
 90
       50
102
RTVSPost2010PropOp42
 70
     1
102
RTVSPost2010Prop43
 90
        3
102
RTVSPost2010PropOp43
 70
     1
102
RTVSPost2010Prop44ColorIndex
 90
        5
102
RTVSPost2010Prop44ColorRGB
 90
      255
102
RTVSPost2010PropOp44
 70
     1
102
RTVSPost2010Prop45
280
     0
102
RTVSPost2010PropOp45
 70
     1
102
RTVSPost2010Prop46
 90
       50
102
RTVSPost2010PropOp46
 70
     1
102
RTVSPost2010Prop47
 90
       50
102
RTVSPost2010PropOp47
 70
     1
102
RTVSPost2010Prop48
 90
       50
102
RTVSPost2010PropOp48
 70
     1
102
RTVSPost2010Prop49
280
     0
102
RTVSPost2010PropOp49
 70
     1
102
RTVSPost2010Prop50
 90
       50
102
RTVSPost2010PropOp50
 70
     1
102
RTVSPost2010Prop51ColorIndex
 90
      256
102
RTVSPost2010Prop51ColorRGB
 90
-16777216
102
RTVSPost2010PropOp51
 70
     0
102
RTVSPost2010Prop52
140
1.0
102
RTVSPost2010PropOp52
 70
     0
102
RTVSPost2010Prop53
 90
        2
102
RTVSPost2010PropOp53
 70
     1
102
RTVSPost2010Prop54
  1
strokes_ogs.tif
102
RTVSPost2010PropOp54
 70
     1
102
RTVSPost2010Prop55
280
     0
102
RTVSPost2010PropOp55
 70
     1
102
RTVSPost2010Prop56
140
1.0
102
RTVSPost2010PropOp56
 70
     1
102
RTVSPost2010Prop57
140
1.0
102
RTVSPost2010PropOp57
 70
     1
102
RTVSPropertyOp0
 70
     1
102
RTVSPropertyOp1
 70
     1
102
RTVSPropertyOp2
 70
     1
102
RTVSPropertyOp3
 70
     1
102
RTVSPropertyOp4
 70
     1
102
RTVSPropertyOp5
 70
     1
102
RTVSPropertyOp6
 70
     1
102
RTVSPropertyOp7
 70
     1
102
RTVSPropertyOp8
 70
     1
102
RTVSPropertyOp9
 70
     1
102
RTVSPropertyOp10
 70
     1
102
RTVSPropertyOp11
 70
     1
102
RTVSPropertyOp12
 70
     1
102
RTVSPropertyOp13
 70
     1
102
RTVSPropertyOp14
 70
     1
102
RTVSPropertyOp15
 70
     1
102
RTVSPropertyOp16
 70
     1
102
RTVSPropertyOp17
 70
     1
102
RTVSPropertyOp18
 70
     1
102
RTVSPropertyOp19
 70
     1
102
RTVSPropertyOp20
 70
     1
102
RTVSPropertyOp21
 70
     1
102
RTVSPropertyOp22
 70
     1
102
RTVSPropertyOp23
 70
     1
102
RTVSPropertyOp24
 70
     1
102
RTVSPropertyOp25
 70
     1
102
RTVSPropertyOp26
 70
     1
102
RTVSPropertyOp27
 70
     1
102
RTVSPropertyOp28
 70
     1
102
RTVSPropertyOp29
 70
     1
102
RTVSPropertyOp30
 70
     1
102
RTVSPropertyOp31
 70
     1
102
RTVSPropertyOp32
 70
     1
102
RTVSPropertyOp33
 70
     1
102
RTVSPropertyOp34
 70
     1
102
RTVSPropertyOp35
 70
     1
102
RTVSPropertyOp36
 70
     1
102
RTVSPropertyOp37
 70
     1
102
RTVSPropertyOp38
 70
     1
102
RTVSPropertyOp39
 70
     1
102
RTVSPropertyOp40
 70
     1
102
RTVSPropertyOp41
 70
     1
102
RTVSPropertyOp42
 70
     1
102
RTVSPropertyOp43
 70
     1
102
RTVSPropertyOp44
 70
     1
102
RTVSPropertyOp45
 70
     1
102
RTVSPropertyOp46
 70
     1
102
RTVSPropertyOp47
 70
     1
102
RTVSPropertyOp48
 70
     1
102
RTVSPropertyOp49
 70
     1
102
RTVSPropertyOp50
 70
     1
102
RTVSPropertyOp51
 70
     0
102
RTVSPropertyOp52
 70
     0
102
RTVSPropertyOp53
 70
     1
102
RTVSPropertyOp54
 70
     1
102
RTVSPropertyOp55
 70
     1
102
RTVSPropertyOp56
 70
     1
102
RTVSPropertyOp57
 70
     1
102
RTVSPropertyOp58
 70
     1
102
RTVSPropertyOp59
 70
     1
102
RTVSPropertyOp60
 70
     1
102
RTVSPropertyOp61
 70
     1
102
RTVSPropertyOp62
 70
     1
  0
XRECORD
  5
36E
102
{ACAD_REACTORS
330
36D
102
}
330
36D
100
AcDbXrecord
280
     1
102
RTVSPost2010Prop28
280
     0
102
RTVSPost2010PropOp28
 70
     1
102
RTVSPost2010Prop29
280
     1
102
RTVSPost2010PropOp29
 70
     1
102
RTVSPost2010Prop30
280
     1
102
RTVSPost2010PropOp30
 70
     1
102
RTVSPost2010Prop31
280
     0
102
RTVSPost2010PropOp31
 70
     1
102
RTVSPost2010Prop32
280
     0
102
RTVSPost2010PropOp32
 70
     1
102
RTVSPost2010Prop33
280
     0
102
RTVSPost2010PropOp33
 70
     1
102
RTVSPost2010Prop34
280
     0
102
RTVSPost2010PropOp34
 70
     1
102
RTVSPost2010Prop35
280
     0
102
RTVSPost2010PropOp35
 70
     1
102
RTVSPost2010Prop36
280
     0
102
RTVSPost2010PropOp36
 70
     1
102
RTVSPost2010Prop37
 90
       50
102
RTVSPost2010PropOp37
 70
     1
102
RTVSPost2010Prop38
140
0.0
102
RTVSPost2010PropOp38
 70
     1
102
RTVSPost2010Prop39
140
1.0
102
RTVSPost2010PropOp39
 70
     1
102
RTVSPost2010Prop40
 90
        0
102
RTVSPost2010PropOp40
 70
     1
102
RTVSPost2010Prop41ColorIndex
 90
       18
102
RTVSPost2010Prop41ColorRGB
 90
        0
102
RTVSPost2010PropOp41
 70
     1
102
RTVSPost2010Prop42
 90
       50
102
RTVSPost2010PropOp42
 70
     1
102
RTVSPost2010Prop43
 90
        3
102
RTVSPost2010PropOp43
 70
     1
102
RTVSPost2010Prop44ColorIndex
 90
        5
102
RTVSPost2010Prop44ColorRGB
 90
      255
102
RTVSPost2010PropOp44
 70
     1
102
RTVSPost2010Prop45
280
     0
102
RTVSPost2010PropOp45
 70
     1
102
RTVSPost2010Prop46
 90
       50
102
RTVSPost2010PropOp46
 70
     1
102
RTVSPost2010Prop47
 90
       50
102
RTVSPost2010PropOp47
 70
     1
102
RTVSPost2010Prop48
 90
       50
102
RTVSPost2010PropOp48
 70
     1
102
RTVSPost2010Prop49
280
     0
102
RTVSPost2010PropOp49
 70
     1
102
RTVSPost2010Prop50
 90
       50
102
RTVSPost2010PropOp50
 70
     1
102
RTVSPost2010Prop51ColorIndex
 90
      256
102
RTVSPost2010Prop51ColorRGB
 90
-16777216
102
RTVSPost2010PropOp51
 70
     0
102
RTVSPost2010Prop52
140
1.0
102
RTVSPost2010PropOp52
 70
     0
102
RTVSPost2010Prop53
 90
        2
102
RTVSPost2010PropOp53
 70
     1
102
RTVSPost2010Prop54
  1
strokes_ogs.tif
102
RTVSPost2010PropOp54
 70
     1
102
RTVSPost2010Prop55
280
     0
102
RTVSPost2010PropOp55
 70
     1
102
RTVSPost2010Prop56
140
1.0
102
RTVSPost2010PropOp56
 70
     1
102
RTVSPost2010Prop57
140
1.0
102
RTVSPost2010PropOp57
 70
     1
102
RTVSPropertyOp0
 70
     1
102
RTVSPropertyOp1
 70
     1
102
RTVSPropertyOp2
 70
     1
102
RTVSPropertyOp3
 70
     1
102
RTVSPropertyOp4
 70
     1
102
RTVSPropertyOp5
 70
     1
102
RTVSPropertyOp6
 70
     1
102
RTVSPropertyOp7
 70
     1
102
RTVSPropertyOp8
 70
     1
102
RTVSPropertyOp9
 70
     1
102
RTVSPropertyOp10
 70
     1
102
RTVSPropertyOp11
 70
     1
102
RTVSPropertyOp12
 70
     1
102
RTVSPropertyOp13
 70
     1
102
RTVSPropertyOp14
 70
     1
102
RTVSPropertyOp15
 70
     1
102
RTVSPropertyOp16
 70
     1
102
RTVSPropertyOp17
 70
     1
102
RTVSPropertyOp18
 70
     1
102
RTVSPropertyOp19
 70
     1
102
RTVSPropertyOp20
 70
     1
102
RTVSPropertyOp21
 70
     1
102
RTVSPropertyOp22
 70
     1
102
RTVSPropertyOp23
 70
     1
102
RTVSPropertyOp24
 70
     1
102
RTVSPropertyOp25
 70
     1
102
RTVSPropertyOp26
 70
     1
102
RTVSPropertyOp27
 70
     1
102
RTVSPropertyOp28
 70
     1
102
RTVSPropertyOp29
 70
     1
102
RTVSPropertyOp30
 70
     1
102
RTVSPropertyOp31
 70
     1
102
RTVSPropertyOp32
 70
     1
102
RTVSPropertyOp33
 70
     1
102
RTVSPropertyOp34
 70
     1
102
RTVSPropertyOp35
 70
     1
102
RTVSPropertyOp36
 70
     1
102
RTVSPropertyOp37
 70
     1
102
RTVSPropertyOp38
 70
     1
102
RTVSPropertyOp39
 70
     1
102
RTVSPropertyOp40
 70
     1
102
RTVSPropertyOp41
 70
     1
102
RTVSPropertyOp42
 70
     1
102
RTVSPropertyOp43
 70
     1
102
RTVSPropertyOp44
 70
     1
102
RTVSPropertyOp45
 70
     1
102
RTVSPropertyOp46
 70
     1
102
RTVSPropertyOp47
 70
     1
102
RTVSPropertyOp48
 70
     1
102
RTVSPropertyOp49
 70
     1
102
RTVSPropertyOp50
 70
     1
102
RTVSPropertyOp51
 70
     0
102
RTVSPropertyOp52
 70
     0
102
RTVSPropertyOp53
 70
     1
102
RTVSPropertyOp54
 70
     1
102
RTVSPropertyOp55
 70
     1
102
RTVSPropertyOp56
 70
     1
102
RTVSPropertyOp57
 70
     1
102
RTVSPropertyOp58
 70
     1
102
RTVSPropertyOp59
 70
     1
102
RTVSPropertyOp60
 70
     1
102
RTVSPropertyOp61
 70
     1
102
RTVSPropertyOp62
 70
     1
  0
XRECORD
  5
376
102
{ACAD_REACTORS
330
375
102
}
330
375
100
AcDbXrecord
280
     1
102
RTVSPost2010Prop28
280
     0
102
RTVSPost2010PropOp28
 70
     1
102
RTVSPost2010Prop29
280
     1
102
RTVSPost2010PropOp29
 70
     1
102
RTVSPost2010Prop30
280
     1
102
RTVSPost2010PropOp30
 70
     1
102
RTVSPost2010Prop31
280
     0
102
RTVSPost2010PropOp31
 70
     1
102
RTVSPost2010Prop32
280
     0
102
RTVSPost2010PropOp32
 70
     1
102
RTVSPost2010Prop33
280
     0
102
RTVSPost2010PropOp33
 70
     1
102
RTVSPost2010Prop34
280
     0
102
RTVSPost2010PropOp34
 70
     1
102
RTVSPost2010Prop35
280
     0
102
RTVSPost2010PropOp35
 70
     1
102
RTVSPost2010Prop36
280
     0
102
RTVSPost2010PropOp36
 70
     1
102
RTVSPost2010Prop37
 90
       50
102
RTVSPost2010PropOp37
 70
     1
102
RTVSPost2010Prop38
140
0.0
102
RTVSPost2010PropOp38
 70
     1
102
RTVSPost2010Prop39
140
1.0
102
RTVSPost2010PropOp39
 70
     1
102
RTVSPost2010Prop40
 90
        0
102
RTVSPost2010PropOp40
 70
     1
102
RTVSPost2010Prop41ColorIndex
 90
       18
102
RTVSPost2010Prop41ColorRGB
 90
        0
102
RTVSPost2010PropOp41
 70
     1
102
RTVSPost2010Prop42
 90
       50
102
RTVSPost2010PropOp42
 70
     1
102
RTVSPost2010Prop43
 90
        3
102
RTVSPost2010PropOp43
 70
     1
102
RTVSPost2010Prop44ColorIndex
 90
        5
102
RTVSPost2010Prop44ColorRGB
 90
      255
102
RTVSPost2010PropOp44
 70
     1
102
RTVSPost2010Prop45
280
     0
102
RTVSPost2010PropOp45
 70
     1
102
RTVSPost2010Prop46
 90
       50
102
RTVSPost2010PropOp46
 70
     1
102
RTVSPost2010Prop47
 90
       50
102
RTVSPost2010PropOp47
 70
     1
102
RTVSPost2010Prop48
 90
       50
102
RTVSPost2010PropOp48
 70
     1
102
RTVSPost2010Prop49
280
     0
102
RTVSPost2010PropOp49
 70
     1
102
RTVSPost2010Prop50
 90
       50
102
RTVSPost2010PropOp50
 70
     1
102
RTVSPost2010Prop51ColorIndex
 90
      256
102
RTVSPost2010Prop51ColorRGB
 90
-16777216
102
RTVSPost2010PropOp51
 70
     0
102
RTVSPost2010Prop52
140
1.0
102
RTVSPost2010PropOp52
 70
     0
102
RTVSPost2010Prop53
 90
        2
102
RTVSPost2010PropOp53
 70
     1
102
RTVSPost2010Prop54
  1
strokes_ogs.tif
102
RTVSPost2010PropOp54
 70
     1
102
RTVSPost2010Prop55
280
     0
102
RTVSPost2010PropOp55
 70
     1
102
RTVSPost2010Prop56
140
1.0
102
RTVSPost2010PropOp56
 70
     1
102
RTVSPost2010Prop57
140
1.0
102
RTVSPost2010PropOp57
 70
     1
102
RTVSPropertyOp0
 70
     1
102
RTVSPropertyOp1
 70
     1
102
RTVSPropertyOp2
 70
     1
102
RTVSPropertyOp3
 70
     1
102
RTVSPropertyOp4
 70
     1
102
RTVSPropertyOp5
 70
     1
102
RTVSPropertyOp6
 70
     1
102
RTVSPropertyOp7
 70
     1
102
RTVSPropertyOp8
 70
     1
102
RTVSPropertyOp9
 70
     1
102
RTVSPropertyOp10
 70
     1
102
RTVSPropertyOp11
 70
     1
102
RTVSPropertyOp12
 70
     1
102
RTVSPropertyOp13
 70
     1
102
RTVSPropertyOp14
 70
     1
102
RTVSPropertyOp15
 70
     1
102
RTVSPropertyOp16
 70
     1
102
RTVSPropertyOp17
 70
     1
102
RTVSPropertyOp18
 70
     1
102
RTVSPropertyOp19
 70
     1
102
RTVSPropertyOp20
 70
     1
102
RTVSPropertyOp21
 70
     1
102
RTVSPropertyOp22
 70
     1
102
RTVSPropertyOp23
 70
     1
102
RTVSPropertyOp24
 70
     1
102
RTVSPropertyOp25
 70
     1
102
RTVSPropertyOp26
 70
     1
102
RTVSPropertyOp27
 70
     1
102
RTVSPropertyOp28
 70
     1
102
RTVSPropertyOp29
 70
     1
102
RTVSPropertyOp30
 70
     1
102
RTVSPropertyOp31
 70
     1
102
RTVSPropertyOp32
 70
     1
102
RTVSPropertyOp33
 70
     1
102
RTVSPropertyOp34
 70
     1
102
RTVSPropertyOp35
 70
     1
102
RTVSPropertyOp36
 70
     1
102
RTVSPropertyOp37
 70
     1
102
RTVSPropertyOp38
 70
     1
102
RTVSPropertyOp39
 70
     1
102
RTVSPropertyOp40
 70
     1
102
RTVSPropertyOp41
 70
     1
102
RTVSPropertyOp42
 70
     1
102
RTVSPropertyOp43
 70
     1
102
RTVSPropertyOp44
 70
     1
102
RTVSPropertyOp45
 70
     1
102
RTVSPropertyOp46
 70
     1
102
RTVSPropertyOp47
 70
     1
102
RTVSPropertyOp48
 70
     1
102
RTVSPropertyOp49
 70
     1
102
RTVSPropertyOp50
 70
     1
102
RTVSPropertyOp51
 70
     0
102
RTVSPropertyOp52
 70
     0
102
RTVSPropertyOp53
 70
     1
102
RTVSPropertyOp54
 70
     1
102
RTVSPropertyOp55
 70
     1
102
RTVSPropertyOp56
 70
     1
102
RTVSPropertyOp57
 70
     1
102
RTVSPropertyOp58
 70
     1
102
RTVSPropertyOp59
 70
     1
102
RTVSPropertyOp60
 70
     1
102
RTVSPropertyOp61
 70
     1
102
RTVSPropertyOp62
 70
     1
  0
XRECORD
  5
37E
102
{ACAD_REACTORS
330
37D
102
}
330
37D
100
AcDbXrecord
280
     1
102
RTVSPost2010Prop28
280
     0
102
RTVSPost2010PropOp28
 70
     1
102
RTVSPost2010Prop29
280
     1
102
RTVSPost2010PropOp29
 70
     1
102
RTVSPost2010Prop30
280
     1
102
RTVSPost2010PropOp30
 70
     1
102
RTVSPost2010Prop31
280
     0
102
RTVSPost2010PropOp31
 70
     1
102
RTVSPost2010Prop32
280
     0
102
RTVSPost2010PropOp32
 70
     1
102
RTVSPost2010Prop33
280
     0
102
RTVSPost2010PropOp33
 70
     1
102
RTVSPost2010Prop34
280
     0
102
RTVSPost2010PropOp34
 70
     1
102
RTVSPost2010Prop35
280
     0
102
RTVSPost2010PropOp35
 70
     1
102
RTVSPost2010Prop36
280
     0
102
RTVSPost2010PropOp36
 70
     1
102
RTVSPost2010Prop37
 90
       50
102
RTVSPost2010PropOp37
 70
     1
102
RTVSPost2010Prop38
140
0.0
102
RTVSPost2010PropOp38
 70
     1
102
RTVSPost2010Prop39
140
1.0
102
RTVSPost2010PropOp39
 70
     1
102
RTVSPost2010Prop40
 90
        0
102
RTVSPost2010PropOp40
 70
     1
102
RTVSPost2010Prop41ColorIndex
 90
       18
102
RTVSPost2010Prop41ColorRGB
 90
        0
102
RTVSPost2010PropOp41
 70
     1
102
RTVSPost2010Prop42
 90
       50
102
RTVSPost2010PropOp42
 70
     1
102
RTVSPost2010Prop43
 90
        3
102
RTVSPost2010PropOp43
 70
     1
102
RTVSPost2010Prop44ColorIndex
 90
        5
102
RTVSPost2010Prop44ColorRGB
 90
      255
102
RTVSPost2010PropOp44
 70
     1
102
RTVSPost2010Prop45
280
     0
102
RTVSPost2010PropOp45
 70
     1
102
RTVSPost2010Prop46
 90
       50
102
RTVSPost2010PropOp46
 70
     1
102
RTVSPost2010Prop47
 90
       50
102
RTVSPost2010PropOp47
 70
     1
102
RTVSPost2010Prop48
 90
       50
102
RTVSPost2010PropOp48
 70
     1
102
RTVSPost2010Prop49
280
     0
102
RTVSPost2010PropOp49
 70
     1
102
RTVSPost2010Prop50
 90
       50
102
RTVSPost2010PropOp50
 70
     1
102
RTVSPost2010Prop51ColorIndex
 90
      256
102
RTVSPost2010Prop51ColorRGB
 90
-16777216
102
RTVSPost2010PropOp51
 70
     0
102
RTVSPost2010Prop52
140
1.0
102
RTVSPost2010PropOp52
 70
     0
102
RTVSPost2010Prop53
 90
        2
102
RTVSPost2010PropOp53
 70
     1
102
RTVSPost2010Prop54
  1
strokes_ogs.tif
102
RTVSPost2010PropOp54
 70
     1
102
RTVSPost2010Prop55
280
     0
102
RTVSPost2010PropOp55
 70
     1
102
RTVSPost2010Prop56
140
1.0
102
RTVSPost2010PropOp56
 70
     1
102
RTVSPost2010Prop57
140
1.0
102
RTVSPost2010PropOp57
 70
     1
102
RTVSPropertyOp0
 70
     1
102
RTVSPropertyOp1
 70
     1
102
RTVSPropertyOp2
 70
     1
102
RTVSPropertyOp3
 70
     1
102
RTVSPropertyOp4
 70
     1
102
RTVSPropertyOp5
 70
     1
102
RTVSPropertyOp6
 70
     1
102
RTVSPropertyOp7
 70
     1
102
RTVSPropertyOp8
 70
     1
102
RTVSPropertyOp9
 70
     1
102
RTVSPropertyOp10
 70
     1
102
RTVSPropertyOp11
 70
     1
102
RTVSPropertyOp12
 70
     1
102
RTVSPropertyOp13
 70
     1
102
RTVSPropertyOp14
 70
     1
102
RTVSPropertyOp15
 70
     1
102
RTVSPropertyOp16
 70
     1
102
RTVSPropertyOp17
 70
     1
102
RTVSPropertyOp18
 70
     1
102
RTVSPropertyOp19
 70
     1
102
RTVSPropertyOp20
 70
     1
102
RTVSPropertyOp21
 70
     1
102
RTVSPropertyOp22
 70
     1
102
RTVSPropertyOp23
 70
     1
102
RTVSPropertyOp24
 70
     1
102
RTVSPropertyOp25
 70
     1
102
RTVSPropertyOp26
 70
     1
102
RTVSPropertyOp27
 70
     1
102
RTVSPropertyOp28
 70
     1
102
RTVSPropertyOp29
 70
     1
102
RTVSPropertyOp30
 70
     1
102
RTVSPropertyOp31
 70
     1
102
RTVSPropertyOp32
 70
     1
102
RTVSPropertyOp33
 70
     1
102
RTVSPropertyOp34
 70
     1
102
RTVSPropertyOp35
 70
     1
102
RTVSPropertyOp36
 70
     1
102
RTVSPropertyOp37
 70
     1
102
RTVSPropertyOp38
 70
     1
102
RTVSPropertyOp39
 70
     1
102
RTVSPropertyOp40
 70
     1
102
RTVSPropertyOp41
 70
     1
102
RTVSPropertyOp42
 70
     1
102
RTVSPropertyOp43
 70
     1
102
RTVSPropertyOp44
 70
     1
102
RTVSPropertyOp45
 70
     1
102
RTVSPropertyOp46
 70
     1
102
RTVSPropertyOp47
 70
     1
102
RTVSPropertyOp48
 70
     1
102
RTVSPropertyOp49
 70
     1
102
RTVSPropertyOp50
 70
     1
102
RTVSPropertyOp51
 70
     0
102
RTVSPropertyOp52
 70
     0
102
RTVSPropertyOp53
 70
     1
102
RTVSPropertyOp54
 70
     1
102
RTVSPropertyOp55
 70
     1
102
RTVSPropertyOp56
 70
     1
102
RTVSPropertyOp57
 70
     1
102
RTVSPropertyOp58
 70
     1
102
RTVSPropertyOp59
 70
     1
102
RTVSPropertyOp60
 70
     1
102
RTVSPropertyOp61
 70
     1
102
RTVSPropertyOp62
 70
     1
  0
XRECORD
  5
372
102
{ACAD_REACTORS
330
371
102
}
330
371
100
AcDbXrecord
280
     1
102
RTVSPost2010Prop28
280
     0
102
RTVSPost2010PropOp28
 70
     1
102
RTVSPost2010Prop29
280
     1
102
RTVSPost2010PropOp29
 70
     1
102
RTVSPost2010Prop30
280
     1
102
RTVSPost2010PropOp30
 70
     1
102
RTVSPost2010Prop31
280
     0
102
RTVSPost2010PropOp31
 70
     1
102
RTVSPost2010Prop32
280
     0
102
RTVSPost2010PropOp32
 70
     1
102
RTVSPost2010Prop33
280
     0
102
RTVSPost2010PropOp33
 70
     1
102
RTVSPost2010Prop34
280
     0
102
RTVSPost2010PropOp34
 70
     1
102
RTVSPost2010Prop35
280
     0
102
RTVSPost2010PropOp35
 70
     1
102
RTVSPost2010Prop36
280
     0
102
RTVSPost2010PropOp36
 70
     1
102
RTVSPost2010Prop37
 90
       50
102
RTVSPost2010PropOp37
 70
     1
102
RTVSPost2010Prop38
140
0.0
102
RTVSPost2010PropOp38
 70
     1
102
RTVSPost2010Prop39
140
1.0
102
RTVSPost2010PropOp39
 70
     1
102
RTVSPost2010Prop40
 90
        0
102
RTVSPost2010PropOp40
 70
     1
102
RTVSPost2010Prop41ColorIndex
 90
       18
102
RTVSPost2010Prop41ColorRGB
 90
        0
102
RTVSPost2010PropOp41
 70
     1
102
RTVSPost2010Prop42
 90
       50
102
RTVSPost2010PropOp42
 70
     1
102
RTVSPost2010Prop43
 90
        3
102
RTVSPost2010PropOp43
 70
     1
102
RTVSPost2010Prop44ColorIndex
 90
        5
102
RTVSPost2010Prop44ColorRGB
 90
      255
102
RTVSPost2010PropOp44
 70
     1
102
RTVSPost2010Prop45
280
     0
102
RTVSPost2010PropOp45
 70
     1
102
RTVSPost2010Prop46
 90
       50
102
RTVSPost2010PropOp46
 70
     1
102
RTVSPost2010Prop47
 90
       50
102
RTVSPost2010PropOp47
 70
     1
102
RTVSPost2010Prop48
 90
       50
102
RTVSPost2010PropOp48
 70
     1
102
RTVSPost2010Prop49
280
     0
102
RTVSPost2010PropOp49
 70
     1
102
RTVSPost2010Prop50
 90
       50
102
RTVSPost2010PropOp50
 70
     1
102
RTVSPost2010Prop51ColorIndex
 90
      256
102
RTVSPost2010Prop51ColorRGB
 90
-16777216
102
RTVSPost2010PropOp51
 70
     0
102
RTVSPost2010Prop52
140
1.0
102
RTVSPost2010PropOp52
 70
     0
102
RTVSPost2010Prop53
 90
        2
102
RTVSPost2010PropOp53
 70
     1
102
RTVSPost2010Prop54
  1
strokes_ogs.tif
102
RTVSPost2010PropOp54
 70
     1
102
RTVSPost2010Prop55
280
     0
102
RTVSPost2010PropOp55
 70
     1
102
RTVSPost2010Prop56
140
1.0
102
RTVSPost2010PropOp56
 70
     1
102
RTVSPost2010Prop57
140
1.0
102
RTVSPost2010PropOp57
 70
     1
102
RTVSPropertyOp0
 70
     1
102
RTVSPropertyOp1
 70
     1
102
RTVSPropertyOp2
 70
     1
102
RTVSPropertyOp3
 70
     1
102
RTVSPropertyOp4
 70
     1
102
RTVSPropertyOp5
 70
     1
102
RTVSPropertyOp6
 70
     1
102
RTVSPropertyOp7
 70
     1
102
RTVSPropertyOp8
 70
     1
102
RTVSPropertyOp9
 70
     1
102
RTVSPropertyOp10
 70
     1
102
RTVSPropertyOp11
 70
     1
102
RTVSPropertyOp12
 70
     1
102
RTVSPropertyOp13
 70
     1
102
RTVSPropertyOp14
 70
     1
102
RTVSPropertyOp15
 70
     1
102
RTVSPropertyOp16
 70
     1
102
RTVSPropertyOp17
 70
     1
102
RTVSPropertyOp18
 70
     1
102
RTVSPropertyOp19
 70
     1
102
RTVSPropertyOp20
 70
     1
102
RTVSPropertyOp21
 70
     1
102
RTVSPropertyOp22
 70
     1
102
RTVSPropertyOp23
 70
     1
102
RTVSPropertyOp24
 70
     1
102
RTVSPropertyOp25
 70
     1
102
RTVSPropertyOp26
 70
     1
102
RTVSPropertyOp27
 70
     1
102
RTVSPropertyOp28
 70
     1
102
RTVSPropertyOp29
 70
     1
102
RTVSPropertyOp30
 70
     1
102
RTVSPropertyOp31
 70
     1
102
RTVSPropertyOp32
 70
     1
102
RTVSPropertyOp33
 70
     1
102
RTVSPropertyOp34
 70
     1
102
RTVSPropertyOp35
 70
     1
102
RTVSPropertyOp36
 70
     1
102
RTVSPropertyOp37
 70
     1
102
RTVSPropertyOp38
 70
     1
102
RTVSPropertyOp39
 70
     1
102
RTVSPropertyOp40
 70
     1
102
RTVSPropertyOp41
 70
     1
102
RTVSPropertyOp42
 70
     1
102
RTVSPropertyOp43
 70
     1
102
RTVSPropertyOp44
 70
     1
102
RTVSPropertyOp45
 70
     1
102
RTVSPropertyOp46
 70
     1
102
RTVSPropertyOp47
 70
     1
102
RTVSPropertyOp48
 70
     1
102
RTVSPropertyOp49
 70
     1
102
RTVSPropertyOp50
 70
     1
102
RTVSPropertyOp51
 70
     0
102
RTVSPropertyOp52
 70
     0
102
RTVSPropertyOp53
 70
     1
102
RTVSPropertyOp54
 70
     1
102
RTVSPropertyOp55
 70
     1
102
RTVSPropertyOp56
 70
     1
102
RTVSPropertyOp57
 70
     1
102
RTVSPropertyOp58
 70
     1
102
RTVSPropertyOp59
 70
     1
102
RTVSPropertyOp60
 70
     1
102
RTVSPropertyOp61
 70
     1
102
RTVSPropertyOp62
 70
     1
  0
XRECORD
  5
374
102
{ACAD_REACTORS
330
373
102
}
330
373
100
AcDbXrecord
280
     1
102
RTVSPost2010Prop28
280
     0
102
RTVSPost2010PropOp28
 70
     1
102
RTVSPost2010Prop29
280
     1
102
RTVSPost2010PropOp29
 70
     1
102
RTVSPost2010Prop30
280
     1
102
RTVSPost2010PropOp30
 70
     1
102
RTVSPost2010Prop31
280
     0
102
RTVSPost2010PropOp31
 70
     1
102
RTVSPost2010Prop32
280
     0
102
RTVSPost2010PropOp32
 70
     1
102
RTVSPost2010Prop33
280
     0
102
RTVSPost2010PropOp33
 70
     1
102
RTVSPost2010Prop34
280
     0
102
RTVSPost2010PropOp34
 70
     1
102
RTVSPost2010Prop35
280
     0
102
RTVSPost2010PropOp35
 70
     1
102
RTVSPost2010Prop36
280
     0
102
RTVSPost2010PropOp36
 70
     1
102
RTVSPost2010Prop37
 90
       50
102
RTVSPost2010PropOp37
 70
     1
102
RTVSPost2010Prop38
140
0.0
102
RTVSPost2010PropOp38
 70
     1
102
RTVSPost2010Prop39
140
1.0
102
RTVSPost2010PropOp39
 70
     1
102
RTVSPost2010Prop40
 90
        0
102
RTVSPost2010PropOp40
 70
     1
102
RTVSPost2010Prop41ColorIndex
 90
       18
102
RTVSPost2010Prop41ColorRGB
 90
        0
102
RTVSPost2010PropOp41
 70
     1
102
RTVSPost2010Prop42
 90
       50
102
RTVSPost2010PropOp42
 70
     1
102
RTVSPost2010Prop43
 90
        3
102
RTVSPost2010PropOp43
 70
     1
102
RTVSPost2010Prop44ColorIndex
 90
        5
102
RTVSPost2010Prop44ColorRGB
 90
      255
102
RTVSPost2010PropOp44
 70
     1
102
RTVSPost2010Prop45
280
     0
102
RTVSPost2010PropOp45
 70
     1
102
RTVSPost2010Prop46
 90
       50
102
RTVSPost2010PropOp46
 70
     1
102
RTVSPost2010Prop47
 90
       50
102
RTVSPost2010PropOp47
 70
     1
102
RTVSPost2010Prop48
 90
       50
102
RTVSPost2010PropOp48
 70
     1
102
RTVSPost2010Prop49
280
     0
102
RTVSPost2010PropOp49
 70
     1
102
RTVSPost2010Prop50
 90
       50
102
RTVSPost2010PropOp50
 70
     1
102
RTVSPost2010Prop51ColorIndex
 90
      256
102
RTVSPost2010Prop51ColorRGB
 90
-16777216
102
RTVSPost2010PropOp51
 70
     0
102
RTVSPost2010Prop52
140
1.0
102
RTVSPost2010PropOp52
 70
     0
102
RTVSPost2010Prop53
 90
        2
102
RTVSPost2010PropOp53
 70
     1
102
RTVSPost2010Prop54
  1
strokes_ogs.tif
102
RTVSPost2010PropOp54
 70
     1
102
RTVSPost2010Prop55
280
     0
102
RTVSPost2010PropOp55
 70
     1
102
RTVSPost2010Prop56
140
1.0
102
RTVSPost2010PropOp56
 70
     1
102
RTVSPost2010Prop57
140
1.0
102
RTVSPost2010PropOp57
 70
     1
102
RTVSPropertyOp0
 70
     1
102
RTVSPropertyOp1
 70
     1
102
RTVSPropertyOp2
 70
     1
102
RTVSPropertyOp3
 70
     1
102
RTVSPropertyOp4
 70
     1
102
RTVSPropertyOp5
 70
     1
102
RTVSPropertyOp6
 70
     1
102
RTVSPropertyOp7
 70
     1
102
RTVSPropertyOp8
 70
     1
102
RTVSPropertyOp9
 70
     1
102
RTVSPropertyOp10
 70
     1
102
RTVSPropertyOp11
 70
     1
102
RTVSPropertyOp12
 70
     1
102
RTVSPropertyOp13
 70
     1
102
RTVSPropertyOp14
 70
     1
102
RTVSPropertyOp15
 70
     1
102
RTVSPropertyOp16
 70
     1
102
RTVSPropertyOp17
 70
     1
102
RTVSPropertyOp18
 70
     1
102
RTVSPropertyOp19
 70
     1
102
RTVSPropertyOp20
 70
     1
102
RTVSPropertyOp21
 70
     1
102
RTVSPropertyOp22
 70
     1
102
RTVSPropertyOp23
 70
     1
102
RTVSPropertyOp24
 70
     1
102
RTVSPropertyOp25
 70
     1
102
RTVSPropertyOp26
 70
     1
102
RTVSPropertyOp27
 70
     1
102
RTVSPropertyOp28
 70
     1
102
RTVSPropertyOp29
 70
     1
102
RTVSPropertyOp30
 70
     1
102
RTVSPropertyOp31
 70
     1
102
RTVSPropertyOp32
 70
     1
102
RTVSPropertyOp33
 70
     1
102
RTVSPropertyOp34
 70
     1
102
RTVSPropertyOp35
 70
     1
102
RTVSPropertyOp36
 70
     1
102
RTVSPropertyOp37
 70
     1
102
RTVSPropertyOp38
 70
     1
102
RTVSPropertyOp39
 70
     1
102
RTVSPropertyOp40
 70
     1
102
RTVSPropertyOp41
 70
     1
102
RTVSPropertyOp42
 70
     1
102
RTVSPropertyOp43
 70
     1
102
RTVSPropertyOp44
 70
     1
102
RTVSPropertyOp45
 70
     1
102
RTVSPropertyOp46
 70
     1
102
RTVSPropertyOp47
 70
     1
102
RTVSPropertyOp48
 70
     1
102
RTVSPropertyOp49
 70
     1
102
RTVSPropertyOp50
 70
     1
102
RTVSPropertyOp51
 70
     0
102
RTVSPropertyOp52
 70
     0
102
RTVSPropertyOp53
 70
     1
102
RTVSPropertyOp54
 70
     1
102
RTVSPropertyOp55
 70
     1
102
RTVSPropertyOp56
 70
     1
102
RTVSPropertyOp57
 70
     1
102
RTVSPropertyOp58
 70
     1
102
RTVSPropertyOp59
 70
     1
102
RTVSPropertyOp60
 70
     1
102
RTVSPropertyOp61
 70
     1
102
RTVSPropertyOp62
 70
     1
  0
XRECORD
  5
384
102
{ACAD_REACTORS
330
383
102
}
330
383
100
AcDbXrecord
280
     1
102
RTVSPost2010Prop28
280
     0
102
RTVSPost2010PropOp28
 70
     0
102
RTVSPost2010Prop29
280
     1
102
RTVSPost2010PropOp29
 70
     0
102
RTVSPost2010Prop30
280
     1
102
RTVSPost2010PropOp30
 70
     0
102
RTVSPost2010Prop31
280
     0
102
RTVSPost2010PropOp31
 70
     0
102
RTVSPost2010Prop32
280
     0
102
RTVSPost2010PropOp32
 70
     0
102
RTVSPost2010Prop33
280
     0
102
RTVSPost2010PropOp33
 70
     0
102
RTVSPost2010Prop34
280
     0
102
RTVSPost2010PropOp34
 70
     0
102
RTVSPost2010Prop35
280
     0
102
RTVSPost2010PropOp35
 70
     0
102
RTVSPost2010Prop36
280
     0
102
RTVSPost2010PropOp36
 70
     0
102
RTVSPost2010Prop37
 90
       50
102
RTVSPost2010PropOp37
 70
     0
102
RTVSPost2010Prop38
140
0.0
102
RTVSPost2010PropOp38
 70
     0
102
RTVSPost2010Prop39
140
1.0
102
RTVSPost2010PropOp39
 70
     0
102
RTVSPost2010Prop40
 90
        0
102
RTVSPost2010PropOp40
 70
     0
102
RTVSPost2010Prop41ColorIndex
 90
       18
102
RTVSPost2010Prop41ColorRGB
 90
        0
102
RTVSPost2010PropOp41
 70
     0
102
RTVSPost2010Prop42
 90
       50
102
RTVSPost2010PropOp42
 70
     0
102
RTVSPost2010Prop43
 90
        3
102
RTVSPost2010PropOp43
 70
     0
102
RTVSPost2010Prop44ColorIndex
 90
        5
102
RTVSPost2010Prop44ColorRGB
 90
      255
102
RTVSPost2010PropOp44
 70
     0
102
RTVSPost2010Prop45
280
     0
102
RTVSPost2010PropOp45
 70
     0
102
RTVSPost2010Prop46
 90
       50
102
RTVSPost2010PropOp46
 70
     0
102
RTVSPost2010Prop47
 90
       50
102
RTVSPost2010PropOp47
 70
     0
102
RTVSPost2010Prop48
 90
       50
102
RTVSPost2010PropOp48
 70
     0
102
RTVSPost2010Prop49
280
     0
102
RTVSPost2010PropOp49
 70
     0
102
RTVSPost2010Prop50
 90
       50
102
RTVSPost2010PropOp50
 70
     0
102
RTVSPost2010Prop51ColorIndex
 90
      256
102
RTVSPost2010Prop51ColorRGB
 90
-16777216
102
RTVSPost2010PropOp51
 70
     0
102
RTVSPost2010Prop52
140
1.0
102
RTVSPost2010PropOp52
 70
     0
102
RTVSPost2010Prop53
 90
        2
102
RTVSPost2010PropOp53
 70
     0
102
RTVSPost2010Prop54
  1
strokes_ogs.tif
102
RTVSPost2010PropOp54
 70
     0
102
RTVSPost2010Prop55
280
     0
102
RTVSPost2010PropOp55
 70
     0
102
RTVSPost2010Prop56
140
1.0
102
RTVSPost2010PropOp56
 70
     0
102
RTVSPost2010Prop57
140
1.0
102
RTVSPost2010PropOp57
 70
     0
102
RTVSPropertyOp0
 70
     0
102
RTVSPropertyOp1
 70
     0
102
RTVSPropertyOp2
 70
     0
102
RTVSPropertyOp3
 70
     0
102
RTVSPropertyOp4
 70
     0
102
RTVSPropertyOp5
 70
     0
102
RTVSPropertyOp6
 70
     0
102
RTVSPropertyOp7
 70
     0
102
RTVSPropertyOp8
 70
     0
102
RTVSPropertyOp9
 70
     0
102
RTVSPropertyOp10
 70
     0
102
RTVSPropertyOp11
 70
     0
102
RTVSPropertyOp12
 70
     0
102
RTVSPropertyOp13
 70
     0
102
RTVSPropertyOp14
 70
     2
102
RTVSPropertyOp15
 70
     0
102
RTVSPropertyOp16
 70
     0
102
RTVSPropertyOp17
 70
     0
102
RTVSPropertyOp18
 70
     0
102
RTVSPropertyOp19
 70
     0
102
RTVSPropertyOp20
 70
     0
102
RTVSPropertyOp21
 70
     0
102
RTVSPropertyOp22
 70
     0
102
RTVSPropertyOp23
 70
     0
102
RTVSPropertyOp24
 70
     0
102
RTVSPropertyOp25
 70
     0
102
RTVSPropertyOp26
 70
     0
102
RTVSPropertyOp27
 70
     0
102
RTVSPropertyOp28
 70
     0
102
RTVSPropertyOp29
 70
     0
102
RTVSPropertyOp30
 70
     0
102
RTVSPropertyOp31
 70
     0
102
RTVSPropertyOp32
 70
     0
102
RTVSPropertyOp33
 70
     0
102
RTVSPropertyOp34
 70
     0
102
RTVSPropertyOp35
 70
     0
102
RTVSPropertyOp36
 70
     0
102
RTVSPropertyOp37
 70
     0
102
RTVSPropertyOp38
 70
     0
102
RTVSPropertyOp39
 70
     0
102
RTVSPropertyOp40
 70
     0
102
RTVSPropertyOp41
 70
     0
102
RTVSPropertyOp42
 70
     0
102
RTVSPropertyOp43
 70
     0
102
RTVSPropertyOp44
 70
     0
102
RTVSPropertyOp45
 70
     0
102
RTVSPropertyOp46
 70
     0
102
RTVSPropertyOp47
 70
     0
102
RTVSPropertyOp48
 70
     0
102
RTVSPropertyOp49
 70
     0
102
RTVSPropertyOp50
 70
     0
102
RTVSPropertyOp51
 70
     0
102
RTVSPropertyOp52
 70
     0
102
RTVSPropertyOp53
 70
     0
102
RTVSPropertyOp54
 70
     0
102
RTVSPropertyOp55
 70
     0
102
RTVSPropertyOp56
 70
     0
102
RTVSPropertyOp57
 70
     0
102
RTVSPropertyOp58
 70
     1
102
RTVSPropertyOp59
 70
     1
102
RTVSPropertyOp60
 70
     1
102
RTVSPropertyOp61
 70
     1
102
RTVSPropertyOp62
 70
     1
  0
XRECORD
  5
37C
102
{ACAD_REACTORS
330
37B
102
}
330
37B
100
AcDbXrecord
280
     1
102
RTVSPost2010Prop28
280
     0
102
RTVSPost2010PropOp28
 70
     1
102
RTVSPost2010Prop29
280
     1
102
RTVSPost2010PropOp29
 70
     1
102
RTVSPost2010Prop30
280
     1
102
RTVSPost2010PropOp30
 70
     1
102
RTVSPost2010Prop31
280
     0
102
RTVSPost2010PropOp31
 70
     1
102
RTVSPost2010Prop32
280
     0
102
RTVSPost2010PropOp32
 70
     1
102
RTVSPost2010Prop33
280
     0
102
RTVSPost2010PropOp33
 70
     1
102
RTVSPost2010Prop34
280
     0
102
RTVSPost2010PropOp34
 70
     1
102
RTVSPost2010Prop35
280
     0
102
RTVSPost2010PropOp35
 70
     1
102
RTVSPost2010Prop36
280
     0
102
RTVSPost2010PropOp36
 70
     1
102
RTVSPost2010Prop37
 90
       50
102
RTVSPost2010PropOp37
 70
     1
102
RTVSPost2010Prop38
140
0.0
102
RTVSPost2010PropOp38
 70
     1
102
RTVSPost2010Prop39
140
1.0
102
RTVSPost2010PropOp39
 70
     1
102
RTVSPost2010Prop40
 90
        0
102
RTVSPost2010PropOp40
 70
     1
102
RTVSPost2010Prop41ColorIndex
 90
       18
102
RTVSPost2010Prop41ColorRGB
 90
        0
102
RTVSPost2010PropOp41
 70
     1
102
RTVSPost2010Prop42
 90
       50
102
RTVSPost2010PropOp42
 70
     1
102
RTVSPost2010Prop43
 90
        3
102
RTVSPost2010PropOp43
 70
     1
102
RTVSPost2010Prop44ColorIndex
 90
        5
102
RTVSPost2010Prop44ColorRGB
 90
      255
102
RTVSPost2010PropOp44
 70
     1
102
RTVSPost2010Prop45
280
     0
102
RTVSPost2010PropOp45
 70
     1
102
RTVSPost2010Prop46
 90
       50
102
RTVSPost2010PropOp46
 70
     1
102
RTVSPost2010Prop47
 90
       50
102
RTVSPost2010PropOp47
 70
     1
102
RTVSPost2010Prop48
 90
       50
102
RTVSPost2010PropOp48
 70
     1
102
RTVSPost2010Prop49
280
     0
102
RTVSPost2010PropOp49
 70
     1
102
RTVSPost2010Prop50
 90
       50
102
RTVSPost2010PropOp50
 70
     1
102
RTVSPost2010Prop51ColorIndex
 90
      256
102
RTVSPost2010Prop51ColorRGB
 90
-16777216
102
RTVSPost2010PropOp51
 70
     0
102
RTVSPost2010Prop52
140
1.0
102
RTVSPost2010PropOp52
 70
     0
102
RTVSPost2010Prop53
 90
        2
102
RTVSPost2010PropOp53
 70
     1
102
RTVSPost2010Prop54
  1
strokes_ogs.tif
102
RTVSPost2010PropOp54
 70
     1
102
RTVSPost2010Prop55
280
     0
102
RTVSPost2010PropOp55
 70
     1
102
RTVSPost2010Prop56
140
1.0
102
RTVSPost2010PropOp56
 70
     1
102
RTVSPost2010Prop57
140
1.0
102
RTVSPost2010PropOp57
 70
     1
102
RTVSPropertyOp0
 70
     1
102
RTVSPropertyOp1
 70
     1
102
RTVSPropertyOp2
 70
     1
102
RTVSPropertyOp3
 70
     1
102
RTVSPropertyOp4
 70
     1
102
RTVSPropertyOp5
 70
     1
102
RTVSPropertyOp6
 70
     1
102
RTVSPropertyOp7
 70
     1
102
RTVSPropertyOp8
 70
     1
102
RTVSPropertyOp9
 70
     1
102
RTVSPropertyOp10
 70
     1
102
RTVSPropertyOp11
 70
     1
102
RTVSPropertyOp12
 70
     1
102
RTVSPropertyOp13
 70
     1
102
RTVSPropertyOp14
 70
     1
102
RTVSPropertyOp15
 70
     1
102
RTVSPropertyOp16
 70
     1
102
RTVSPropertyOp17
 70
     1
102
RTVSPropertyOp18
 70
     1
102
RTVSPropertyOp19
 70
     1
102
RTVSPropertyOp20
 70
     1
102
RTVSPropertyOp21
 70
     1
102
RTVSPropertyOp22
 70
     1
102
RTVSPropertyOp23
 70
     1
102
RTVSPropertyOp24
 70
     1
102
RTVSPropertyOp25
 70
     1
102
RTVSPropertyOp26
 70
     1
102
RTVSPropertyOp27
 70
     1
102
RTVSPropertyOp28
 70
     1
102
RTVSPropertyOp29
 70
     1
102
RTVSPropertyOp30
 70
     1
102
RTVSPropertyOp31
 70
     1
102
RTVSPropertyOp32
 70
     1
102
RTVSPropertyOp33
 70
     1
102
RTVSPropertyOp34
 70
     1
102
RTVSPropertyOp35
 70
     1
102
RTVSPropertyOp36
 70
     1
102
RTVSPropertyOp37
 70
     1
102
RTVSPropertyOp38
 70
     1
102
RTVSPropertyOp39
 70
     1
102
RTVSPropertyOp40
 70
     1
102
RTVSPropertyOp41
 70
     1
102
RTVSPropertyOp42
 70
     1
102
RTVSPropertyOp43
 70
     1
102
RTVSPropertyOp44
 70
     1
102
RTVSPropertyOp45
 70
     1
102
RTVSPropertyOp46
 70
     1
102
RTVSPropertyOp47
 70
     1
102
RTVSPropertyOp48
 70
     1
102
RTVSPropertyOp49
 70
     1
102
RTVSPropertyOp50
 70
     1
102
RTVSPropertyOp51
 70
     0
102
RTVSPropertyOp52
 70
     0
102
RTVSPropertyOp53
 70
     1
102
RTVSPropertyOp54
 70
     1
102
RTVSPropertyOp55
 70
     1
102
RTVSPropertyOp56
 70
     1
102
RTVSPropertyOp57
 70
     1
102
RTVSPropertyOp58
 70
     1
102
RTVSPropertyOp59
 70
     1
102
RTVSPropertyOp60
 70
     1
102
RTVSPropertyOp61
 70
     1
102
RTVSPropertyOp62
 70
     1
  0
XRECORD
  5
360
102
{ACAD_REACTORS
330
35F
102
}
330
35F
100
AcDbXrecord
280
     1
102
RTVSPost2010Prop28
280
     0
102
RTVSPost2010PropOp28
 70
     1
102
RTVSPost2010Prop29
280
     1
102
RTVSPost2010PropOp29
 70
     1
102
RTVSPost2010Prop30
280
     1
102
RTVSPost2010PropOp30
 70
     1
102
RTVSPost2010Prop31
280
     0
102
RTVSPost2010PropOp31
 70
     1
102
RTVSPost2010Prop32
280
     0
102
RTVSPost2010PropOp32
 70
     1
102
RTVSPost2010Prop33
280
     0
102
RTVSPost2010PropOp33
 70
     1
102
RTVSPost2010Prop34
280
     0
102
RTVSPost2010PropOp34
 70
     1
102
RTVSPost2010Prop35
280
     0
102
RTVSPost2010PropOp35
 70
     1
102
RTVSPost2010Prop36
280
     0
102
RTVSPost2010PropOp36
 70
     1
102
RTVSPost2010Prop37
 90
       50
102
RTVSPost2010PropOp37
 70
     1
102
RTVSPost2010Prop38
140
0.0
102
RTVSPost2010PropOp38
 70
     1
102
RTVSPost2010Prop39
140
1.0
102
RTVSPost2010PropOp39
 70
     1
102
RTVSPost2010Prop40
 90
        0
102
RTVSPost2010PropOp40
 70
     1
102
RTVSPost2010Prop41ColorIndex
 90
       18
102
RTVSPost2010Prop41ColorRGB
 90
        0
102
RTVSPost2010PropOp41
 70
     1
102
RTVSPost2010Prop42
 90
       50
102
RTVSPost2010PropOp42
 70
     1
102
RTVSPost2010Prop43
 90
        3
102
RTVSPost2010PropOp43
 70
     1
102
RTVSPost2010Prop44ColorIndex
 90
        5
102
RTVSPost2010Prop44ColorRGB
 90
      255
102
RTVSPost2010PropOp44
 70
     1
102
RTVSPost2010Prop45
280
     0
102
RTVSPost2010PropOp45
 70
     1
102
RTVSPost2010Prop46
 90
       50
102
RTVSPost2010PropOp46
 70
     1
102
RTVSPost2010Prop47
 90
       50
102
RTVSPost2010PropOp47
 70
     1
102
RTVSPost2010Prop48
 90
       50
102
RTVSPost2010PropOp48
 70
     1
102
RTVSPost2010Prop49
280
     0
102
RTVSPost2010PropOp49
 70
     1
102
RTVSPost2010Prop50
 90
       50
102
RTVSPost2010PropOp50
 70
     1
102
RTVSPost2010Prop51ColorIndex
 90
      256
102
RTVSPost2010Prop51ColorRGB
 90
-16777216
102
RTVSPost2010PropOp51
 70
     0
102
RTVSPost2010Prop52
140
1.0
102
RTVSPost2010PropOp52
 70
     0
102
RTVSPost2010Prop53
 90
        2
102
RTVSPost2010PropOp53
 70
     1
102
RTVSPost2010Prop54
  1
strokes_ogs.tif
102
RTVSPost2010PropOp54
 70
     1
102
RTVSPost2010Prop55
280
     0
102
RTVSPost2010PropOp55
 70
     1
102
RTVSPost2010Prop56
140
1.0
102
RTVSPost2010PropOp56
 70
     1
102
RTVSPost2010Prop57
140
1.0
102
RTVSPost2010PropOp57
 70
     1
102
RTVSPropertyOp0
 70
     1
102
RTVSPropertyOp1
 70
     1
102
RTVSPropertyOp2
 70
     1
102
RTVSPropertyOp3
 70
     1
102
RTVSPropertyOp4
 70
     1
102
RTVSPropertyOp5
 70
     1
102
RTVSPropertyOp6
 70
     1
102
RTVSPropertyOp7
 70
     1
102
RTVSPropertyOp8
 70
     1
102
RTVSPropertyOp9
 70
     1
102
RTVSPropertyOp10
 70
     1
102
RTVSPropertyOp11
 70
     1
102
RTVSPropertyOp12
 70
     1
102
RTVSPropertyOp13
 70
     1
102
RTVSPropertyOp14
 70
     1
102
RTVSPropertyOp15
 70
     1
102
RTVSPropertyOp16
 70
     1
102
RTVSPropertyOp17
 70
     1
102
RTVSPropertyOp18
 70
     1
102
RTVSPropertyOp19
 70
     1
102
RTVSPropertyOp20
 70
     1
102
RTVSPropertyOp21
 70
     1
102
RTVSPropertyOp22
 70
     1
102
RTVSPropertyOp23
 70
     1
102
RTVSPropertyOp24
 70
     1
102
RTVSPropertyOp25
 70
     1
102
RTVSPropertyOp26
 70
     1
102
RTVSPropertyOp27
 70
     1
102
RTVSPropertyOp28
 70
     1
102
RTVSPropertyOp29
 70
     1
102
RTVSPropertyOp30
 70
     1
102
RTVSPropertyOp31
 70
     1
102
RTVSPropertyOp32
 70
     1
102
RTVSPropertyOp33
 70
     1
102
RTVSPropertyOp34
 70
     1
102
RTVSPropertyOp35
 70
     1
102
RTVSPropertyOp36
 70
     1
102
RTVSPropertyOp37
 70
     1
102
RTVSPropertyOp38
 70
     1
102
RTVSPropertyOp39
 70
     1
102
RTVSPropertyOp40
 70
     1
102
RTVSPropertyOp41
 70
     1
102
RTVSPropertyOp42
 70
     1
102
RTVSPropertyOp43
 70
     1
102
RTVSPropertyOp44
 70
     1
102
RTVSPropertyOp45
 70
     1
102
RTVSPropertyOp46
 70
     1
102
RTVSPropertyOp47
 70
     1
102
RTVSPropertyOp48
 70
     1
102
RTVSPropertyOp49
 70
     1
102
RTVSPropertyOp50
 70
     1
102
RTVSPropertyOp51
 70
     0
102
RTVSPropertyOp52
 70
     0
102
RTVSPropertyOp53
 70
     1
102
RTVSPropertyOp54
 70
     1
102
RTVSPropertyOp55
 70
     1
102
RTVSPropertyOp56
 70
     1
102
RTVSPropertyOp57
 70
     1
102
RTVSPropertyOp58
 70
     1
102
RTVSPropertyOp59
 70
     1
102
RTVSPropertyOp60
 70
     1
102
RTVSPropertyOp61
 70
     1
102
RTVSPropertyOp62
 70
     1
  0
XRECORD
  5
362
102
{ACAD_REACTORS
330
361
102
}
330
361
100
AcDbXrecord
280
     1
102
RTVSPost2010Prop28
280
     0
102
RTVSPost2010PropOp28
 70
     1
102
RTVSPost2010Prop29
280
     1
102
RTVSPost2010PropOp29
 70
     1
102
RTVSPost2010Prop30
280
     1
102
RTVSPost2010PropOp30
 70
     1
102
RTVSPost2010Prop31
280
     0
102
RTVSPost2010PropOp31
 70
     1
102
RTVSPost2010Prop32
280
     0
102
RTVSPost2010PropOp32
 70
     1
102
RTVSPost2010Prop33
280
     0
102
RTVSPost2010PropOp33
 70
     1
102
RTVSPost2010Prop34
280
     0
102
RTVSPost2010PropOp34
 70
     1
102
RTVSPost2010Prop35
280
     0
102
RTVSPost2010PropOp35
 70
     1
102
RTVSPost2010Prop36
280
     0
102
RTVSPost2010PropOp36
 70
     1
102
RTVSPost2010Prop37
 90
       50
102
RTVSPost2010PropOp37
 70
     1
102
RTVSPost2010Prop38
140
0.0
102
RTVSPost2010PropOp38
 70
     1
102
RTVSPost2010Prop39
140
1.0
102
RTVSPost2010PropOp39
 70
     1
102
RTVSPost2010Prop40
 90
        0
102
RTVSPost2010PropOp40
 70
     1
102
RTVSPost2010Prop41ColorIndex
 90
       18
102
RTVSPost2010Prop41ColorRGB
 90
        0
102
RTVSPost2010PropOp41
 70
     1
102
RTVSPost2010Prop42
 90
       50
102
RTVSPost2010PropOp42
 70
     1
102
RTVSPost2010Prop43
 90
        3
102
RTVSPost2010PropOp43
 70
     1
102
RTVSPost2010Prop44ColorIndex
 90
        5
102
RTVSPost2010Prop44ColorRGB
 90
      255
102
RTVSPost2010PropOp44
 70
     1
102
RTVSPost2010Prop45
280
     0
102
RTVSPost2010PropOp45
 70
     1
102
RTVSPost2010Prop46
 90
       50
102
RTVSPost2010PropOp46
 70
     1
102
RTVSPost2010Prop47
 90
       50
102
RTVSPost2010PropOp47
 70
     1
102
RTVSPost2010Prop48
 90
       50
102
RTVSPost2010PropOp48
 70
     1
102
RTVSPost2010Prop49
280
     0
102
RTVSPost2010PropOp49
 70
     1
102
RTVSPost2010Prop50
 90
       50
102
RTVSPost2010PropOp50
 70
     1
102
RTVSPost2010Prop51ColorIndex
 90
      256
102
RTVSPost2010Prop51ColorRGB
 90
-16777216
102
RTVSPost2010PropOp51
 70
     0
102
RTVSPost2010Prop52
140
1.0
102
RTVSPost2010PropOp52
 70
     0
102
RTVSPost2010Prop53
 90
        2
102
RTVSPost2010PropOp53
 70
     1
102
RTVSPost2010Prop54
  1
strokes_ogs.tif
102
RTVSPost2010PropOp54
 70
     1
102
RTVSPost2010Prop55
280
     0
102
RTVSPost2010PropOp55
 70
     1
102
RTVSPost2010Prop56
140
1.0
102
RTVSPost2010PropOp56
 70
     1
102
RTVSPost2010Prop57
140
1.0
102
RTVSPost2010PropOp57
 70
     1
102
RTVSPropertyOp0
 70
     1
102
RTVSPropertyOp1
 70
     1
102
RTVSPropertyOp2
 70
     1
102
RTVSPropertyOp3
 70
     1
102
RTVSPropertyOp4
 70
     1
102
RTVSPropertyOp5
 70
     1
102
RTVSPropertyOp6
 70
     1
102
RTVSPropertyOp7
 70
     1
102
RTVSPropertyOp8
 70
     1
102
RTVSPropertyOp9
 70
     1
102
RTVSPropertyOp10
 70
     1
102
RTVSPropertyOp11
 70
     1
102
RTVSPropertyOp12
 70
     1
102
RTVSPropertyOp13
 70
     1
102
RTVSPropertyOp14
 70
     1
102
RTVSPropertyOp15
 70
     1
102
RTVSPropertyOp16
 70
     1
102
RTVSPropertyOp17
 70
     1
102
RTVSPropertyOp18
 70
     1
102
RTVSPropertyOp19
 70
     1
102
RTVSPropertyOp20
 70
     1
102
RTVSPropertyOp21
 70
     1
102
RTVSPropertyOp22
 70
     1
102
RTVSPropertyOp23
 70
     1
102
RTVSPropertyOp24
 70
     1
102
RTVSPropertyOp25
 70
     1
102
RTVSPropertyOp26
 70
     1
102
RTVSPropertyOp27
 70
     1
102
RTVSPropertyOp28
 70
     1
102
RTVSPropertyOp29
 70
     1
102
RTVSPropertyOp30
 70
     1
102
RTVSPropertyOp31
 70
     1
102
RTVSPropertyOp32
 70
     1
102
RTVSPropertyOp33
 70
     1
102
RTVSPropertyOp34
 70
     1
102
RTVSPropertyOp35
 70
     1
102
RTVSPropertyOp36
 70
     1
102
RTVSPropertyOp37
 70
     1
102
RTVSPropertyOp38
 70
     1
102
RTVSPropertyOp39
 70
     1
102
RTVSPropertyOp40
 70
     1
102
RTVSPropertyOp41
 70
     1
102
RTVSPropertyOp42
 70
     1
102
RTVSPropertyOp43
 70
     1
102
RTVSPropertyOp44
 70
     1
102
RTVSPropertyOp45
 70
     1
102
RTVSPropertyOp46
 70
     1
102
RTVSPropertyOp47
 70
     1
102
RTVSPropertyOp48
 70
     1
102
RTVSPropertyOp49
 70
     1
102
RTVSPropertyOp50
 70
     1
102
RTVSPropertyOp51
 70
     0
102
RTVSPropertyOp52
 70
     0
102
RTVSPropertyOp53
 70
     1
102
RTVSPropertyOp54
 70
     1
102
RTVSPropertyOp55
 70
     1
102
RTVSPropertyOp56
 70
     1
102
RTVSPropertyOp57
 70
     1
102
RTVSPropertyOp58
 70
     1
102
RTVSPropertyOp59
 70
     1
102
RTVSPropertyOp60
 70
     1
102
RTVSPropertyOp61
 70
     1
102
RTVSPropertyOp62
 70
     1
  0
XRECORD
  5
364
102
{ACAD_REACTORS
330
363
102
}
330
363
100
AcDbXrecord
280
     1
102
RTVSPost2010Prop28
280
     0
102
RTVSPost2010PropOp28
 70
     1
102
RTVSPost2010Prop29
280
     1
102
RTVSPost2010PropOp29
 70
     1
102
RTVSPost2010Prop30
280
     1
102
RTVSPost2010PropOp30
 70
     1
102
RTVSPost2010Prop31
280
     0
102
RTVSPost2010PropOp31
 70
     1
102
RTVSPost2010Prop32
280
     0
102
RTVSPost2010PropOp32
 70
     1
102
RTVSPost2010Prop33
280
     0
102
RTVSPost2010PropOp33
 70
     1
102
RTVSPost2010Prop34
280
     0
102
RTVSPost2010PropOp34
 70
     1
102
RTVSPost2010Prop35
280
     0
102
RTVSPost2010PropOp35
 70
     1
102
RTVSPost2010Prop36
280
     0
102
RTVSPost2010PropOp36
 70
     1
102
RTVSPost2010Prop37
 90
       50
102
RTVSPost2010PropOp37
 70
     1
102
RTVSPost2010Prop38
140
0.0
102
RTVSPost2010PropOp38
 70
     1
102
RTVSPost2010Prop39
140
1.0
102
RTVSPost2010PropOp39
 70
     1
102
RTVSPost2010Prop40
 90
        0
102
RTVSPost2010PropOp40
 70
     1
102
RTVSPost2010Prop41ColorIndex
 90
       18
102
RTVSPost2010Prop41ColorRGB
 90
        0
102
RTVSPost2010PropOp41
 70
     1
102
RTVSPost2010Prop42
 90
       50
102
RTVSPost2010PropOp42
 70
     1
102
RTVSPost2010Prop43
 90
        3
102
RTVSPost2010PropOp43
 70
     1
102
RTVSPost2010Prop44ColorIndex
 90
        5
102
RTVSPost2010Prop44ColorRGB
 90
      255
102
RTVSPost2010PropOp44
 70
     1
102
RTVSPost2010Prop45
280
     0
102
RTVSPost2010PropOp45
 70
     1
102
RTVSPost2010Prop46
 90
       50
102
RTVSPost2010PropOp46
 70
     1
102
RTVSPost2010Prop47
 90
       50
102
RTVSPost2010PropOp47
 70
     1
102
RTVSPost2010Prop48
 90
       50
102
RTVSPost2010PropOp48
 70
     1
102
RTVSPost2010Prop49
280
     0
102
RTVSPost2010PropOp49
 70
     1
102
RTVSPost2010Prop50
 90
       50
102
RTVSPost2010PropOp50
 70
     1
102
RTVSPost2010Prop51ColorIndex
 90
      256
102
RTVSPost2010Prop51ColorRGB
 90
-16777216
102
RTVSPost2010PropOp51
 70
     0
102
RTVSPost2010Prop52
140
1.0
102
RTVSPost2010PropOp52
 70
     0
102
RTVSPost2010Prop53
 90
        2
102
RTVSPost2010PropOp53
 70
     1
102
RTVSPost2010Prop54
  1
strokes_ogs.tif
102
RTVSPost2010PropOp54
 70
     1
102
RTVSPost2010Prop55
280
     0
102
RTVSPost2010PropOp55
 70
     1
102
RTVSPost2010Prop56
140
1.0
102
RTVSPost2010PropOp56
 70
     1
102
RTVSPost2010Prop57
140
1.0
102
RTVSPost2010PropOp57
 70
     1
102
RTVSPropertyOp0
 70
     1
102
RTVSPropertyOp1
 70
     1
102
RTVSPropertyOp2
 70
     1
102
RTVSPropertyOp3
 70
     1
102
RTVSPropertyOp4
 70
     1
102
RTVSPropertyOp5
 70
     1
102
RTVSPropertyOp6
 70
     1
102
RTVSPropertyOp7
 70
     1
102
RTVSPropertyOp8
 70
     1
102
RTVSPropertyOp9
 70
     1
102
RTVSPropertyOp10
 70
     1
102
RTVSPropertyOp11
 70
     1
102
RTVSPropertyOp12
 70
     1
102
RTVSPropertyOp13
 70
     1
102
RTVSPropertyOp14
 70
     1
102
RTVSPropertyOp15
 70
     1
102
RTVSPropertyOp16
 70
     1
102
RTVSPropertyOp17
 70
     1
102
RTVSPropertyOp18
 70
     1
102
RTVSPropertyOp19
 70
     1
102
RTVSPropertyOp20
 70
     1
102
RTVSPropertyOp21
 70
     1
102
RTVSPropertyOp22
 70
     1
102
RTVSPropertyOp23
 70
     1
102
RTVSPropertyOp24
 70
     1
102
RTVSPropertyOp25
 70
     1
102
RTVSPropertyOp26
 70
     1
102
RTVSPropertyOp27
 70
     1
102
RTVSPropertyOp28
 70
     1
102
RTVSPropertyOp29
 70
     1
102
RTVSPropertyOp30
 70
     1
102
RTVSPropertyOp31
 70
     1
102
RTVSPropertyOp32
 70
     1
102
RTVSPropertyOp33
 70
     1
102
RTVSPropertyOp34
 70
     1
102
RTVSPropertyOp35
 70
     1
102
RTVSPropertyOp36
 70
     1
102
RTVSPropertyOp37
 70
     1
102
RTVSPropertyOp38
 70
     1
102
RTVSPropertyOp39
 70
     1
102
RTVSPropertyOp40
 70
     1
102
RTVSPropertyOp41
 70
     1
102
RTVSPropertyOp42
 70
     1
102
RTVSPropertyOp43
 70
     1
102
RTVSPropertyOp44
 70
     1
102
RTVSPropertyOp45
 70
     1
102
RTVSPropertyOp46
 70
     1
102
RTVSPropertyOp47
 70
     1
102
RTVSPropertyOp48
 70
     1
102
RTVSPropertyOp49
 70
     1
102
RTVSPropertyOp50
 70
     1
102
RTVSPropertyOp51
 70
     0
102
RTVSPropertyOp52
 70
     0
102
RTVSPropertyOp53
 70
     1
102
RTVSPropertyOp54
 70
     1
102
RTVSPropertyOp55
 70
     1
102
RTVSPropertyOp56
 70
     1
102
RTVSPropertyOp57
 70
     1
102
RTVSPropertyOp58
 70
     1
102
RTVSPropertyOp59
 70
     1
102
RTVSPropertyOp60
 70
     1
102
RTVSPropertyOp61
 70
     1
102
RTVSPropertyOp62
 70
     1
  0
XRECORD
  5
366
102
{ACAD_REACTORS
330
365
102
}
330
365
100
AcDbXrecord
280
     1
102
RTVSPost2010Prop28
280
     0
102
RTVSPost2010PropOp28
 70
     1
102
RTVSPost2010Prop29
280
     1
102
RTVSPost2010PropOp29
 70
     1
102
RTVSPost2010Prop30
280
     1
102
RTVSPost2010PropOp30
 70
     1
102
RTVSPost2010Prop31
280
     0
102
RTVSPost2010PropOp31
 70
     1
102
RTVSPost2010Prop32
280
     0
102
RTVSPost2010PropOp32
 70
     1
102
RTVSPost2010Prop33
280
     0
102
RTVSPost2010PropOp33
 70
     1
102
RTVSPost2010Prop34
280
     0
102
RTVSPost2010PropOp34
 70
     1
102
RTVSPost2010Prop35
280
     0
102
RTVSPost2010PropOp35
 70
     1
102
RTVSPost2010Prop36
280
     0
102
RTVSPost2010PropOp36
 70
     1
102
RTVSPost2010Prop37
 90
       50
102
RTVSPost2010PropOp37
 70
     1
102
RTVSPost2010Prop38
140
0.0
102
RTVSPost2010PropOp38
 70
     1
102
RTVSPost2010Prop39
140
1.0
102
RTVSPost2010PropOp39
 70
     1
102
RTVSPost2010Prop40
 90
        0
102
RTVSPost2010PropOp40
 70
     1
102
RTVSPost2010Prop41ColorIndex
 90
       18
102
RTVSPost2010Prop41ColorRGB
 90
        0
102
RTVSPost2010PropOp41
 70
     1
102
RTVSPost2010Prop42
 90
       50
102
RTVSPost2010PropOp42
 70
     1
102
RTVSPost2010Prop43
 90
        3
102
RTVSPost2010PropOp43
 70
     1
102
RTVSPost2010Prop44ColorIndex
 90
        5
102
RTVSPost2010Prop44ColorRGB
 90
      255
102
RTVSPost2010PropOp44
 70
     1
102
RTVSPost2010Prop45
280
     0
102
RTVSPost2010PropOp45
 70
     1
102
RTVSPost2010Prop46
 90
       50
102
RTVSPost2010PropOp46
 70
     1
102
RTVSPost2010Prop47
 90
       50
102
RTVSPost2010PropOp47
 70
     1
102
RTVSPost2010Prop48
 90
       50
102
RTVSPost2010PropOp48
 70
     1
102
RTVSPost2010Prop49
280
     0
102
RTVSPost2010PropOp49
 70
     1
102
RTVSPost2010Prop50
 90
       50
102
RTVSPost2010PropOp50
 70
     1
102
RTVSPost2010Prop51ColorIndex
 90
      256
102
RTVSPost2010Prop51ColorRGB
 90
-16777216
102
RTVSPost2010PropOp51
 70
     0
102
RTVSPost2010Prop52
140
1.0
102
RTVSPost2010PropOp52
 70
     0
102
RTVSPost2010Prop53
 90
        2
102
RTVSPost2010PropOp53
 70
     1
102
RTVSPost2010Prop54
  1
strokes_ogs.tif
102
RTVSPost2010PropOp54
 70
     1
102
RTVSPost2010Prop55
280
     0
102
RTVSPost2010PropOp55
 70
     1
102
RTVSPost2010Prop56
140
1.0
102
RTVSPost2010PropOp56
 70
     1
102
RTVSPost2010Prop57
140
1.0
102
RTVSPost2010PropOp57
 70
     1
102
RTVSPropertyOp0
 70
     1
102
RTVSPropertyOp1
 70
     1
102
RTVSPropertyOp2
 70
     1
102
RTVSPropertyOp3
 70
     1
102
RTVSPropertyOp4
 70
     1
102
RTVSPropertyOp5
 70
     1
102
RTVSPropertyOp6
 70
     1
102
RTVSPropertyOp7
 70
     1
102
RTVSPropertyOp8
 70
     1
102
RTVSPropertyOp9
 70
     1
102
RTVSPropertyOp10
 70
     1
102
RTVSPropertyOp11
 70
     1
102
RTVSPropertyOp12
 70
     1
102
RTVSPropertyOp13
 70
     1
102
RTVSPropertyOp14
 70
     1
102
RTVSPropertyOp15
 70
     1
102
RTVSPropertyOp16
 70
     1
102
RTVSPropertyOp17
 70
     1
102
RTVSPropertyOp18
 70
     1
102
RTVSPropertyOp19
 70
     1
102
RTVSPropertyOp20
 70
     1
102
RTVSPropertyOp21
 70
     1
102
RTVSPropertyOp22
 70
     1
102
RTVSPropertyOp23
 70
     1
102
RTVSPropertyOp24
 70
     1
102
RTVSPropertyOp25
 70
     1
102
RTVSPropertyOp26
 70
     1
102
RTVSPropertyOp27
 70
     1
102
RTVSPropertyOp28
 70
     1
102
RTVSPropertyOp29
 70
     1
102
RTVSPropertyOp30
 70
     1
102
RTVSPropertyOp31
 70
     1
102
RTVSPropertyOp32
 70
     1
102
RTVSPropertyOp33
 70
     1
102
RTVSPropertyOp34
 70
     1
102
RTVSPropertyOp35
 70
     1
102
RTVSPropertyOp36
 70
     1
102
RTVSPropertyOp37
 70
     1
102
RTVSPropertyOp38
 70
     1
102
RTVSPropertyOp39
 70
     1
102
RTVSPropertyOp40
 70
     1
102
RTVSPropertyOp41
 70
     1
102
RTVSPropertyOp42
 70
     1
102
RTVSPropertyOp43
 70
     1
102
RTVSPropertyOp44
 70
     1
102
RTVSPropertyOp45
 70
     1
102
RTVSPropertyOp46
 70
     1
102
RTVSPropertyOp47
 70
     1
102
RTVSPropertyOp48
 70
     1
102
RTVSPropertyOp49
 70
     1
102
RTVSPropertyOp50
 70
     1
102
RTVSPropertyOp51
 70
     0
102
RTVSPropertyOp52
 70
     0
102
RTVSPropertyOp53
 70
     1
102
RTVSPropertyOp54
 70
     1
102
RTVSPropertyOp55
 70
     1
102
RTVSPropertyOp56
 70
     1
102
RTVSPropertyOp57
 70
     1
102
RTVSPropertyOp58
 70
     1
102
RTVSPropertyOp59
 70
     1
102
RTVSPropertyOp60
 70
     1
102
RTVSPropertyOp61
 70
     1
102
RTVSPropertyOp62
 70
     1
  0
XRECORD
  5
36C
102
{ACAD_REACTORS
330
36B
102
}
330
36B
100
AcDbXrecord
280
     1
102
RTVSPost2010Prop28
280
     0
102
RTVSPost2010PropOp28
 70
     1
102
RTVSPost2010Prop29
280
     1
102
RTVSPost2010PropOp29
 70
     1
102
RTVSPost2010Prop30
280
     1
102
RTVSPost2010PropOp30
 70
     1
102
RTVSPost2010Prop31
280
     0
102
RTVSPost2010PropOp31
 70
     1
102
RTVSPost2010Prop32
280
     0
102
RTVSPost2010PropOp32
 70
     1
102
RTVSPost2010Prop33
280
     0
102
RTVSPost2010PropOp33
 70
     1
102
RTVSPost2010Prop34
280
     0
102
RTVSPost2010PropOp34
 70
     1
102
RTVSPost2010Prop35
280
     0
102
RTVSPost2010PropOp35
 70
     1
102
RTVSPost2010Prop36
280
     0
102
RTVSPost2010PropOp36
 70
     1
102
RTVSPost2010Prop37
 90
       50
102
RTVSPost2010PropOp37
 70
     1
102
RTVSPost2010Prop38
140
0.0
102
RTVSPost2010PropOp38
 70
     1
102
RTVSPost2010Prop39
140
1.0
102
RTVSPost2010PropOp39
 70
     1
102
RTVSPost2010Prop40
 90
        0
102
RTVSPost2010PropOp40
 70
     1
102
RTVSPost2010Prop41ColorIndex
 90
       18
102
RTVSPost2010Prop41ColorRGB
 90
        0
102
RTVSPost2010PropOp41
 70
     1
102
RTVSPost2010Prop42
 90
       50
102
RTVSPost2010PropOp42
 70
     1
102
RTVSPost2010Prop43
 90
        3
102
RTVSPost2010PropOp43
 70
     1
102
RTVSPost2010Prop44ColorIndex
 90
        5
102
RTVSPost2010Prop44ColorRGB
 90
      255
102
RTVSPost2010PropOp44
 70
     1
102
RTVSPost2010Prop45
280
     0
102
RTVSPost2010PropOp45
 70
     1
102
RTVSPost2010Prop46
 90
       50
102
RTVSPost2010PropOp46
 70
     1
102
RTVSPost2010Prop47
 90
       50
102
RTVSPost2010PropOp47
 70
     1
102
RTVSPost2010Prop48
 90
       50
102
RTVSPost2010PropOp48
 70
     1
102
RTVSPost2010Prop49
280
     0
102
RTVSPost2010PropOp49
 70
     1
102
RTVSPost2010Prop50
 90
       50
102
RTVSPost2010PropOp50
 70
     1
102
RTVSPost2010Prop51ColorIndex
 90
      256
102
RTVSPost2010Prop51ColorRGB
 90
-16777216
102
RTVSPost2010PropOp51
 70
     0
102
RTVSPost2010Prop52
140
1.0
102
RTVSPost2010PropOp52
 70
     0
102
RTVSPost2010Prop53
 90
        2
102
RTVSPost2010PropOp53
 70
     1
102
RTVSPost2010Prop54
  1
strokes_ogs.tif
102
RTVSPost2010PropOp54
 70
     1
102
RTVSPost2010Prop55
280
     0
102
RTVSPost2010PropOp55
 70
     1
102
RTVSPost2010Prop56
140
1.0
102
RTVSPost2010PropOp56
 70
     1
102
RTVSPost2010Prop57
140
1.0
102
RTVSPost2010PropOp57
 70
     1
102
RTVSPropertyOp0
 70
     1
102
RTVSPropertyOp1
 70
     1
102
RTVSPropertyOp2
 70
     1
102
RTVSPropertyOp3
 70
     1
102
RTVSPropertyOp4
 70
     1
102
RTVSPropertyOp5
 70
     1
102
RTVSPropertyOp6
 70
     1
102
RTVSPropertyOp7
 70
     1
102
RTVSPropertyOp8
 70
     1
102
RTVSPropertyOp9
 70
     1
102
RTVSPropertyOp10
 70
     1
102
RTVSPropertyOp11
 70
     1
102
RTVSPropertyOp12
 70
     1
102
RTVSPropertyOp13
 70
     1
102
RTVSPropertyOp14
 70
     1
102
RTVSPropertyOp15
 70
     1
102
RTVSPropertyOp16
 70
     1
102
RTVSPropertyOp17
 70
     1
102
RTVSPropertyOp18
 70
     1
102
RTVSPropertyOp19
 70
     1
102
RTVSPropertyOp20
 70
     1
102
RTVSPropertyOp21
 70
     1
102
RTVSPropertyOp22
 70
     1
102
RTVSPropertyOp23
 70
     1
102
RTVSPropertyOp24
 70
     1
102
RTVSPropertyOp25
 70
     1
102
RTVSPropertyOp26
 70
     1
102
RTVSPropertyOp27
 70
     1
102
RTVSPropertyOp28
 70
     1
102
RTVSPropertyOp29
 70
     1
102
RTVSPropertyOp30
 70
     1
102
RTVSPropertyOp31
 70
     1
102
RTVSPropertyOp32
 70
     1
102
RTVSPropertyOp33
 70
     1
102
RTVSPropertyOp34
 70
     1
102
RTVSPropertyOp35
 70
     1
102
RTVSPropertyOp36
 70
     1
102
RTVSPropertyOp37
 70
     1
102
RTVSPropertyOp38
 70
     1
102
RTVSPropertyOp39
 70
     1
102
RTVSPropertyOp40
 70
     1
102
RTVSPropertyOp41
 70
     1
102
RTVSPropertyOp42
 70
     1
102
RTVSPropertyOp43
 70
     1
102
RTVSPropertyOp44
 70
     1
102
RTVSPropertyOp45
 70
     1
102
RTVSPropertyOp46
 70
     1
102
RTVSPropertyOp47
 70
     1
102
RTVSPropertyOp48
 70
     1
102
RTVSPropertyOp49
 70
     1
102
RTVSPropertyOp50
 70
     1
102
RTVSPropertyOp51
 70
     0
102
RTVSPropertyOp52
 70
     0
102
RTVSPropertyOp53
 70
     1
102
RTVSPropertyOp54
 70
     1
102
RTVSPropertyOp55
 70
     1
102
RTVSPropertyOp56
 70
     1
102
RTVSPropertyOp57
 70
     1
102
RTVSPropertyOp58
 70
     1
102
RTVSPropertyOp59
 70
     1
102
RTVSPropertyOp60
 70
     1
102
RTVSPropertyOp61
 70
     1
102
RTVSPropertyOp62
 70
     1
  0
XRECORD
  5
380
102
{ACAD_REACTORS
330
37F
102
}
330
37F
100
AcDbXrecord
280
     1
102
RTVSPost2010Prop28
280
     0
102
RTVSPost2010PropOp28
 70
     0
102
RTVSPost2010Prop29
280
     1
102
RTVSPost2010PropOp29
 70
     0
102
RTVSPost2010Prop30
280
     1
102
RTVSPost2010PropOp30
 70
     0
102
RTVSPost2010Prop31
280
     0
102
RTVSPost2010PropOp31
 70
     0
102
RTVSPost2010Prop32
280
     0
102
RTVSPost2010PropOp32
 70
     0
102
RTVSPost2010Prop33
280
     0
102
RTVSPost2010PropOp33
 70
     0
102
RTVSPost2010Prop34
280
     0
102
RTVSPost2010PropOp34
 70
     0
102
RTVSPost2010Prop35
280
     0
102
RTVSPost2010PropOp35
 70
     0
102
RTVSPost2010Prop36
280
     0
102
RTVSPost2010PropOp36
 70
     0
102
RTVSPost2010Prop37
 90
       50
102
RTVSPost2010PropOp37
 70
     0
102
RTVSPost2010Prop38
140
0.0
102
RTVSPost2010PropOp38
 70
     0
102
RTVSPost2010Prop39
140
1.0
102
RTVSPost2010PropOp39
 70
     0
102
RTVSPost2010Prop40
 90
        0
102
RTVSPost2010PropOp40
 70
     0
102
RTVSPost2010Prop41ColorIndex
 90
       18
102
RTVSPost2010Prop41ColorRGB
 90
        0
102
RTVSPost2010PropOp41
 70
     0
102
RTVSPost2010Prop42
 90
       50
102
RTVSPost2010PropOp42
 70
     0
102
RTVSPost2010Prop43
 90
        3
102
RTVSPost2010PropOp43
 70
     0
102
RTVSPost2010Prop44ColorIndex
 90
        5
102
RTVSPost2010Prop44ColorRGB
 90
      255
102
RTVSPost2010PropOp44
 70
     0
102
RTVSPost2010Prop45
280
     0
102
RTVSPost2010PropOp45
 70
     0
102
RTVSPost2010Prop46
 90
       50
102
RTVSPost2010PropOp46
 70
     0
102
RTVSPost2010Prop47
 90
       50
102
RTVSPost2010PropOp47
 70
     0
102
RTVSPost2010Prop48
 90
       50
102
RTVSPost2010PropOp48
 70
     0
102
RTVSPost2010Prop49
280
     0
102
RTVSPost2010PropOp49
 70
     0
102
RTVSPost2010Prop50
 90
       50
102
RTVSPost2010PropOp50
 70
     0
102
RTVSPost2010Prop51ColorIndex
 90
      256
102
RTVSPost2010Prop51ColorRGB
 90
-16777216
102
RTVSPost2010PropOp51
 70
     0
102
RTVSPost2010Prop52
140
1.0
102
RTVSPost2010PropOp52
 70
     0
102
RTVSPost2010Prop53
 90
        2
102
RTVSPost2010PropOp53
 70
     0
102
RTVSPost2010Prop54
  1
strokes_ogs.tif
102
RTVSPost2010PropOp54
 70
     0
102
RTVSPost2010Prop55
280
     0
102
RTVSPost2010PropOp55
 70
     0
102
RTVSPost2010Prop56
140
1.0
102
RTVSPost2010PropOp56
 70
     0
102
RTVSPost2010Prop57
140
1.0
102
RTVSPost2010PropOp57
 70
     0
102
RTVSPropertyOp0
 70
     0
102
RTVSPropertyOp1
 70
     0
102
RTVSPropertyOp2
 70
     0
102
RTVSPropertyOp3
 70
     0
102
RTVSPropertyOp4
 70
     0
102
RTVSPropertyOp5
 70
     0
102
RTVSPropertyOp6
 70
     0
102
RTVSPropertyOp7
 70
     0
102
RTVSPropertyOp8
 70
     0
102
RTVSPropertyOp9
 70
     0
102
RTVSPropertyOp10
 70
     0
102
RTVSPropertyOp11
 70
     0
102
RTVSPropertyOp12
 70
     0
102
RTVSPropertyOp13
 70
     0
102
RTVSPropertyOp14
 70
     2
102
RTVSPropertyOp15
 70
     0
102
RTVSPropertyOp16
 70
     0
102
RTVSPropertyOp17
 70
     0
102
RTVSPropertyOp18
 70
     0
102
RTVSPropertyOp19
 70
     0
102
RTVSPropertyOp20
 70
     0
102
RTVSPropertyOp21
 70
     0
102
RTVSPropertyOp22
 70
     0
102
RTVSPropertyOp23
 70
     0
102
RTVSPropertyOp24
 70
     0
102
RTVSPropertyOp25
 70
     0
102
RTVSPropertyOp26
 70
     0
102
RTVSPropertyOp27
 70
     0
102
RTVSPropertyOp28
 70
     0
102
RTVSPropertyOp29
 70
     0
102
RTVSPropertyOp30
 70
     0
102
RTVSPropertyOp31
 70
     0
102
RTVSPropertyOp32
 70
     0
102
RTVSPropertyOp33
 70
     0
102
RTVSPropertyOp34
 70
     0
102
RTVSPropertyOp35
 70
     0
102
RTVSPropertyOp36
 70
     0
102
RTVSPropertyOp37
 70
     0
102
RTVSPropertyOp38
 70
     0
102
RTVSPropertyOp39
 70
     0
102
RTVSPropertyOp40
 70
     0
102
RTVSPropertyOp41
 70
     0
102
RTVSPropertyOp42
 70
     0
102
RTVSPropertyOp43
 70
     0
102
RTVSPropertyOp44
 70
     0
102
RTVSPropertyOp45
 70
     0
102
RTVSPropertyOp46
 70
     0
102
RTVSPropertyOp47
 70
     0
102
RTVSPropertyOp48
 70
     0
102
RTVSPropertyOp49
 70
     0
102
RTVSPropertyOp50
 70
     0
102
RTVSPropertyOp51
 70
     0
102
RTVSPropertyOp52
 70
     0
102
RTVSPropertyOp53
 70
     0
102
RTVSPropertyOp54
 70
     0
102
RTVSPropertyOp55
 70
     0
102
RTVSPropertyOp56
 70
     0
102
RTVSPropertyOp57
 70
     0
102
RTVSPropertyOp58
 70
     1
102
RTVSPropertyOp59
 70
     1
102
RTVSPropertyOp60
 70
     1
102
RTVSPropertyOp61
 70
     1
102
RTVSPropertyOp62
 70
     1
  0
XRECORD
  5
37A
102
{ACAD_REACTORS
330
379
102
}
330
379
100
AcDbXrecord
280
     1
102
RTVSPost2010Prop28
280
     0
102
RTVSPost2010PropOp28
 70
     1
102
RTVSPost2010Prop29
280
     1
102
RTVSPost2010PropOp29
 70
     1
102
RTVSPost2010Prop30
280
     1
102
RTVSPost2010PropOp30
 70
     1
102
RTVSPost2010Prop31
280
     0
102
RTVSPost2010PropOp31
 70
     1
102
RTVSPost2010Prop32
280
     0
102
RTVSPost2010PropOp32
 70
     1
102
RTVSPost2010Prop33
280
     0
102
RTVSPost2010PropOp33
 70
     1
102
RTVSPost2010Prop34
280
     0
102
RTVSPost2010PropOp34
 70
     1
102
RTVSPost2010Prop35
280
     0
102
RTVSPost2010PropOp35
 70
     1
102
RTVSPost2010Prop36
280
     0
102
RTVSPost2010PropOp36
 70
     1
102
RTVSPost2010Prop37
 90
       50
102
RTVSPost2010PropOp37
 70
     1
102
RTVSPost2010Prop38
140
0.0
102
RTVSPost2010PropOp38
 70
     1
102
RTVSPost2010Prop39
140
1.0
102
RTVSPost2010PropOp39
 70
     1
102
RTVSPost2010Prop40
 90
        0
102
RTVSPost2010PropOp40
 70
     1
102
RTVSPost2010Prop41ColorIndex
 90
       18
102
RTVSPost2010Prop41ColorRGB
 90
        0
102
RTVSPost2010PropOp41
 70
     1
102
RTVSPost2010Prop42
 90
       50
102
RTVSPost2010PropOp42
 70
     1
102
RTVSPost2010Prop43
 90
        3
102
RTVSPost2010PropOp43
 70
     1
102
RTVSPost2010Prop44ColorIndex
 90
        5
102
RTVSPost2010Prop44ColorRGB
 90
      255
102
RTVSPost2010PropOp44
 70
     1
102
RTVSPost2010Prop45
280
     0
102
RTVSPost2010PropOp45
 70
     1
102
RTVSPost2010Prop46
 90
       50
102
RTVSPost2010PropOp46
 70
     1
102
RTVSPost2010Prop47
 90
       50
102
RTVSPost2010PropOp47
 70
     1
102
RTVSPost2010Prop48
 90
       50
102
RTVSPost2010PropOp48
 70
     1
102
RTVSPost2010Prop49
280
     0
102
RTVSPost2010PropOp49
 70
     1
102
RTVSPost2010Prop50
 90
       50
102
RTVSPost2010PropOp50
 70
     1
102
RTVSPost2010Prop51ColorIndex
 90
      256
102
RTVSPost2010Prop51ColorRGB
 90
-16777216
102
RTVSPost2010PropOp51
 70
     0
102
RTVSPost2010Prop52
140
1.0
102
RTVSPost2010PropOp52
 70
     0
102
RTVSPost2010Prop53
 90
        2
102
RTVSPost2010PropOp53
 70
     1
102
RTVSPost2010Prop54
  1
strokes_ogs.tif
102
RTVSPost2010PropOp54
 70
     1
102
RTVSPost2010Prop55
280
     0
102
RTVSPost2010PropOp55
 70
     1
102
RTVSPost2010Prop56
140
1.0
102
RTVSPost2010PropOp56
 70
     1
102
RTVSPost2010Prop57
140
1.0
102
RTVSPost2010PropOp57
 70
     1
102
RTVSPropertyOp0
 70
     1
102
RTVSPropertyOp1
 70
     1
102
RTVSPropertyOp2
 70
     1
102
RTVSPropertyOp3
 70
     1
102
RTVSPropertyOp4
 70
     1
102
RTVSPropertyOp5
 70
     1
102
RTVSPropertyOp6
 70
     1
102
RTVSPropertyOp7
 70
     1
102
RTVSPropertyOp8
 70
     1
102
RTVSPropertyOp9
 70
     1
102
RTVSPropertyOp10
 70
     1
102
RTVSPropertyOp11
 70
     1
102
RTVSPropertyOp12
 70
     1
102
RTVSPropertyOp13
 70
     1
102
RTVSPropertyOp14
 70
     1
102
RTVSPropertyOp15
 70
     1
102
RTVSPropertyOp16
 70
     1
102
RTVSPropertyOp17
 70
     1
102
RTVSPropertyOp18
 70
     1
102
RTVSPropertyOp19
 70
     1
102
RTVSPropertyOp20
 70
     1
102
RTVSPropertyOp21
 70
     1
102
RTVSPropertyOp22
 70
     1
102
RTVSPropertyOp23
 70
     1
102
RTVSPropertyOp24
 70
     1
102
RTVSPropertyOp25
 70
     1
102
RTVSPropertyOp26
 70
     1
102
RTVSPropertyOp27
 70
     1
102
RTVSPropertyOp28
 70
     1
102
RTVSPropertyOp29
 70
     1
102
RTVSPropertyOp30
 70
     1
102
RTVSPropertyOp31
 70
     1
102
RTVSPropertyOp32
 70
     1
102
RTVSPropertyOp33
 70
     1
102
RTVSPropertyOp34
 70
     1
102
RTVSPropertyOp35
 70
     1
102
RTVSPropertyOp36
 70
     1
102
RTVSPropertyOp37
 70
     1
102
RTVSPropertyOp38
 70
     1
102
RTVSPropertyOp39
 70
     1
102
RTVSPropertyOp40
 70
     1
102
RTVSPropertyOp41
 70
     1
102
RTVSPropertyOp42
 70
     1
102
RTVSPropertyOp43
 70
     1
102
RTVSPropertyOp44
 70
     1
102
RTVSPropertyOp45
 70
     1
102
RTVSPropertyOp46
 70
     1
102
RTVSPropertyOp47
 70
     1
102
RTVSPropertyOp48
 70
     1
102
RTVSPropertyOp49
 70
     1
102
RTVSPropertyOp50
 70
     1
102
RTVSPropertyOp51
 70
     0
102
RTVSPropertyOp52
 70
     0
102
RTVSPropertyOp53
 70
     1
102
RTVSPropertyOp54
 70
     1
102
RTVSPropertyOp55
 70
     1
102
RTVSPropertyOp56
 70
     1
102
RTVSPropertyOp57
 70
     1
102
RTVSPropertyOp58
 70
     1
102
RTVSPropertyOp59
 70
     1
102
RTVSPropertyOp60
 70
     1
102
RTVSPropertyOp61
 70
     1
102
RTVSPropertyOp62
 70
     1
  0
XRECORD
  5
382
102
{ACAD_REACTORS
330
381
102
}
330
381
100
AcDbXrecord
280
     1
102
RTVSPost2010Prop28
280
     0
102
RTVSPost2010PropOp28
 70
     0
102
RTVSPost2010Prop29
280
     1
102
RTVSPost2010PropOp29
 70
     0
102
RTVSPost2010Prop30
280
     1
102
RTVSPost2010PropOp30
 70
     0
102
RTVSPost2010Prop31
280
     0
102
RTVSPost2010PropOp31
 70
     0
102
RTVSPost2010Prop32
280
     0
102
RTVSPost2010PropOp32
 70
     0
102
RTVSPost2010Prop33
280
     0
102
RTVSPost2010PropOp33
 70
     0
102
RTVSPost2010Prop34
280
     0
102
RTVSPost2010PropOp34
 70
     0
102
RTVSPost2010Prop35
280
     0
102
RTVSPost2010PropOp35
 70
     0
102
RTVSPost2010Prop36
280
     0
102
RTVSPost2010PropOp36
 70
     0
102
RTVSPost2010Prop37
 90
       50
102
RTVSPost2010PropOp37
 70
     0
102
RTVSPost2010Prop38
140
0.0
102
RTVSPost2010PropOp38
 70
     0
102
RTVSPost2010Prop39
140
1.0
102
RTVSPost2010PropOp39
 70
     0
102
RTVSPost2010Prop40
 90
        0
102
RTVSPost2010PropOp40
 70
     0
102
RTVSPost2010Prop41ColorIndex
 90
       18
102
RTVSPost2010Prop41ColorRGB
 90
        0
102
RTVSPost2010PropOp41
 70
     0
102
RTVSPost2010Prop42
 90
       50
102
RTVSPost2010PropOp42
 70
     0
102
RTVSPost2010Prop43
 90
        3
102
RTVSPost2010PropOp43
 70
     0
102
RTVSPost2010Prop44ColorIndex
 90
        5
102
RTVSPost2010Prop44ColorRGB
 90
      255
102
RTVSPost2010PropOp44
 70
     0
102
RTVSPost2010Prop45
280
     0
102
RTVSPost2010PropOp45
 70
     0
102
RTVSPost2010Prop46
 90
       50
102
RTVSPost2010PropOp46
 70
     0
102
RTVSPost2010Prop47
 90
       50
102
RTVSPost2010PropOp47
 70
     0
102
RTVSPost2010Prop48
 90
       50
102
RTVSPost2010PropOp48
 70
     0
102
RTVSPost2010Prop49
280
     0
102
RTVSPost2010PropOp49
 70
     0
102
RTVSPost2010Prop50
 90
       50
102
RTVSPost2010PropOp50
 70
     0
102
RTVSPost2010Prop51ColorIndex
 90
      256
102
RTVSPost2010Prop51ColorRGB
 90
-16777216
102
RTVSPost2010PropOp51
 70
     0
102
RTVSPost2010Prop52
140
1.0
102
RTVSPost2010PropOp52
 70
     0
102
RTVSPost2010Prop53
 90
        2
102
RTVSPost2010PropOp53
 70
     0
102
RTVSPost2010Prop54
  1
strokes_ogs.tif
102
RTVSPost2010PropOp54
 70
     0
102
RTVSPost2010Prop55
280
     0
102
RTVSPost2010PropOp55
 70
     0
102
RTVSPost2010Prop56
140
1.0
102
RTVSPost2010PropOp56
 70
     0
102
RTVSPost2010Prop57
140
1.0
102
RTVSPost2010PropOp57
 70
     0
102
RTVSPropertyOp0
 70
     0
102
RTVSPropertyOp1
 70
     0
102
RTVSPropertyOp2
 70
     0
102
RTVSPropertyOp3
 70
     0
102
RTVSPropertyOp4
 70
     0
102
RTVSPropertyOp5
 70
     0
102
RTVSPropertyOp6
 70
     0
102
RTVSPropertyOp7
 70
     0
102
RTVSPropertyOp8
 70
     0
102
RTVSPropertyOp9
 70
     0
102
RTVSPropertyOp10
 70
     0
102
RTVSPropertyOp11
 70
     0
102
RTVSPropertyOp12
 70
     0
102
RTVSPropertyOp13
 70
     0
102
RTVSPropertyOp14
 70
     2
102
RTVSPropertyOp15
 70
     0
102
RTVSPropertyOp16
 70
     0
102
RTVSPropertyOp17
 70
     0
102
RTVSPropertyOp18
 70
     0
102
RTVSPropertyOp19
 70
     0
102
RTVSPropertyOp20
 70
     0
102
RTVSPropertyOp21
 70
     0
102
RTVSPropertyOp22
 70
     0
102
RTVSPropertyOp23
 70
     0
102
RTVSPropertyOp24
 70
     0
102
RTVSPropertyOp25
 70
     0
102
RTVSPropertyOp26
 70
     0
102
RTVSPropertyOp27
 70
     0
102
RTVSPropertyOp28
 70
     0
102
RTVSPropertyOp29
 70
     0
102
RTVSPropertyOp30
 70
     0
102
RTVSPropertyOp31
 70
     0
102
RTVSPropertyOp32
 70
     0
102
RTVSPropertyOp33
 70
     0
102
RTVSPropertyOp34
 70
     0
102
RTVSPropertyOp35
 70
     0
102
RTVSPropertyOp36
 70
     0
102
RTVSPropertyOp37
 70
     0
102
RTVSPropertyOp38
 70
     0
102
RTVSPropertyOp39
 70
     0
102
RTVSPropertyOp40
 70
     0
102
RTVSPropertyOp41
 70
     0
102
RTVSPropertyOp42
 70
     0
102
RTVSPropertyOp43
 70
     0
102
RTVSPropertyOp44
 70
     0
102
RTVSPropertyOp45
 70
     0
102
RTVSPropertyOp46
 70
     0
102
RTVSPropertyOp47
 70
     0
102
RTVSPropertyOp48
 70
     0
102
RTVSPropertyOp49
 70
     0
102
RTVSPropertyOp50
 70
     0
102
RTVSPropertyOp51
 70
     0
102
RTVSPropertyOp52
 70
     0
102
RTVSPropertyOp53
 70
     0
102
RTVSPropertyOp54
 70
     0
102
RTVSPropertyOp55
 70
     0
102
RTVSPropertyOp56
 70
     0
102
RTVSPropertyOp57
 70
     0
102
RTVSPropertyOp58
 70
     1
102
RTVSPropertyOp59
 70
     1
102
RTVSPropertyOp60
 70
     1
102
RTVSPropertyOp61
 70
     1
102
RTVSPropertyOp62
 70
     1
  0
XRECORD
  5
370
102
{ACAD_REACTORS
330
36F
102
}
330
36F
100
AcDbXrecord
280
     1
102
RTVSPost2010Prop28
280
     0
102
RTVSPost2010PropOp28
 70
     1
102
RTVSPost2010Prop29
280
     1
102
RTVSPost2010PropOp29
 70
     1
102
RTVSPost2010Prop30
280
     1
102
RTVSPost2010PropOp30
 70
     1
102
RTVSPost2010Prop31
280
     0
102
RTVSPost2010PropOp31
 70
     1
102
RTVSPost2010Prop32
280
     0
102
RTVSPost2010PropOp32
 70
     1
102
RTVSPost2010Prop33
280
     0
102
RTVSPost2010PropOp33
 70
     1
102
RTVSPost2010Prop34
280
     0
102
RTVSPost2010PropOp34
 70
     1
102
RTVSPost2010Prop35
280
     0
102
RTVSPost2010PropOp35
 70
     1
102
RTVSPost2010Prop36
280
     0
102
RTVSPost2010PropOp36
 70
     1
102
RTVSPost2010Prop37
 90
       50
102
RTVSPost2010PropOp37
 70
     1
102
RTVSPost2010Prop38
140
0.0
102
RTVSPost2010PropOp38
 70
     1
102
RTVSPost2010Prop39
140
1.0
102
RTVSPost2010PropOp39
 70
     1
102
RTVSPost2010Prop40
 90
        0
102
RTVSPost2010PropOp40
 70
     1
102
RTVSPost2010Prop41ColorIndex
 90
       18
102
RTVSPost2010Prop41ColorRGB
 90
        0
102
RTVSPost2010PropOp41
 70
     1
102
RTVSPost2010Prop42
 90
       50
102
RTVSPost2010PropOp42
 70
     1
102
RTVSPost2010Prop43
 90
        3
102
RTVSPost2010PropOp43
 70
     1
102
RTVSPost2010Prop44ColorIndex
 90
        5
102
RTVSPost2010Prop44ColorRGB
 90
      255
102
RTVSPost2010PropOp44
 70
     1
102
RTVSPost2010Prop45
280
     0
102
RTVSPost2010PropOp45
 70
     1
102
RTVSPost2010Prop46
 90
       50
102
RTVSPost2010PropOp46
 70
     1
102
RTVSPost2010Prop47
 90
       50
102
RTVSPost2010PropOp47
 70
     1
102
RTVSPost2010Prop48
 90
       50
102
RTVSPost2010PropOp48
 70
     1
102
RTVSPost2010Prop49
280
     0
102
RTVSPost2010PropOp49
 70
     1
102
RTVSPost2010Prop50
 90
       50
102
RTVSPost2010PropOp50
 70
     1
102
RTVSPost2010Prop51ColorIndex
 90
      256
102
RTVSPost2010Prop51ColorRGB
 90
-16777216
102
RTVSPost2010PropOp51
 70
     0
102
RTVSPost2010Prop52
140
1.0
102
RTVSPost2010PropOp52
 70
     0
102
RTVSPost2010Prop53
 90
        2
102
RTVSPost2010PropOp53
 70
     1
102
RTVSPost2010Prop54
  1
strokes_ogs.tif
102
RTVSPost2010PropOp54
 70
     1
102
RTVSPost2010Prop55
280
     0
102
RTVSPost2010PropOp55
 70
     1
102
RTVSPost2010Prop56
140
1.0
102
RTVSPost2010PropOp56
 70
     1
102
RTVSPost2010Prop57
140
1.0
102
RTVSPost2010PropOp57
 70
     1
102
RTVSPropertyOp0
 70
     1
102
RTVSPropertyOp1
 70
     1
102
RTVSPropertyOp2
 70
     1
102
RTVSPropertyOp3
 70
     1
102
RTVSPropertyOp4
 70
     1
102
RTVSPropertyOp5
 70
     1
102
RTVSPropertyOp6
 70
     1
102
RTVSPropertyOp7
 70
     1
102
RTVSPropertyOp8
 70
     1
102
RTVSPropertyOp9
 70
     1
102
RTVSPropertyOp10
 70
     1
102
RTVSPropertyOp11
 70
     1
102
RTVSPropertyOp12
 70
     1
102
RTVSPropertyOp13
 70
     1
102
RTVSPropertyOp14
 70
     1
102
RTVSPropertyOp15
 70
     1
102
RTVSPropertyOp16
 70
     1
102
RTVSPropertyOp17
 70
     1
102
RTVSPropertyOp18
 70
     1
102
RTVSPropertyOp19
 70
     1
102
RTVSPropertyOp20
 70
     1
102
RTVSPropertyOp21
 70
     1
102
RTVSPropertyOp22
 70
     1
102
RTVSPropertyOp23
 70
     1
102
RTVSPropertyOp24
 70
     1
102
RTVSPropertyOp25
 70
     1
102
RTVSPropertyOp26
 70
     1
102
RTVSPropertyOp27
 70
     1
102
RTVSPropertyOp28
 70
     1
102
RTVSPropertyOp29
 70
     1
102
RTVSPropertyOp30
 70
     1
102
RTVSPropertyOp31
 70
     1
102
RTVSPropertyOp32
 70
     1
102
RTVSPropertyOp33
 70
     1
102
RTVSPropertyOp34
 70
     1
102
RTVSPropertyOp35
 70
     1
102
RTVSPropertyOp36
 70
     1
102
RTVSPropertyOp37
 70
     1
102
RTVSPropertyOp38
 70
     1
102
RTVSPropertyOp39
 70
     1
102
RTVSPropertyOp40
 70
     1
102
RTVSPropertyOp41
 70
     1
102
RTVSPropertyOp42
 70
     1
102
RTVSPropertyOp43
 70
     1
102
RTVSPropertyOp44
 70
     1
102
RTVSPropertyOp45
 70
     1
102
RTVSPropertyOp46
 70
     1
102
RTVSPropertyOp47
 70
     1
102
RTVSPropertyOp48
 70
     1
102
RTVSPropertyOp49
 70
     1
102
RTVSPropertyOp50
 70
     1
102
RTVSPropertyOp51
 70
     0
102
RTVSPropertyOp52
 70
     0
102
RTVSPropertyOp53
 70
     1
102
RTVSPropertyOp54
 70
     1
102
RTVSPropertyOp55
 70
     1
102
RTVSPropertyOp56
 70
     1
102
RTVSPropertyOp57
 70
     1
102
RTVSPropertyOp58
 70
     1
102
RTVSPropertyOp59
 70
     1
102
RTVSPropertyOp60
 70
     1
102
RTVSPropertyOp61
 70
     1
102
RTVSPropertyOp62
 70
     1
  0
XRECORD
  5
38E
102
{ACAD_REACTORS
330
38D
102
}
330
38D
100
AcDbXrecord
280
     1
102
RTVSPost2010Prop28
280
     0
102
RTVSPost2010PropOp28
 70
     1
102
RTVSPost2010Prop29
280
     1
102
RTVSPost2010PropOp29
 70
     1
102
RTVSPost2010Prop30
280
     1
102
RTVSPost2010PropOp30
 70
     1
102
RTVSPost2010Prop31
280
     0
102
RTVSPost2010PropOp31
 70
     1
102
RTVSPost2010Prop32
280
     0
102
RTVSPost2010PropOp32
 70
     1
102
RTVSPost2010Prop33
280
     0
102
RTVSPost2010PropOp33
 70
     1
102
RTVSPost2010Prop34
280
     0
102
RTVSPost2010PropOp34
 70
     1
102
RTVSPost2010Prop35
280
     0
102
RTVSPost2010PropOp35
 70
     1
102
RTVSPost2010Prop36
280
     0
102
RTVSPost2010PropOp36
 70
     1
102
RTVSPost2010Prop37
 90
       50
102
RTVSPost2010PropOp37
 70
     1
102
RTVSPost2010Prop38
140
0.0
102
RTVSPost2010PropOp38
 70
     1
102
RTVSPost2010Prop39
140
1.0
102
RTVSPost2010PropOp39
 70
     1
102
RTVSPost2010Prop40
 90
        0
102
RTVSPost2010PropOp40
 70
     1
102
RTVSPost2010Prop41ColorIndex
 90
       18
102
RTVSPost2010Prop41ColorRGB
 90
        0
102
RTVSPost2010PropOp41
 70
     1
102
RTVSPost2010Prop42
 90
       50
102
RTVSPost2010PropOp42
 70
     1
102
RTVSPost2010Prop43
 90
        3
102
RTVSPost2010PropOp43
 70
     1
102
RTVSPost2010Prop44ColorIndex
 90
        5
102
RTVSPost2010Prop44ColorRGB
 90
      255
102
RTVSPost2010PropOp44
 70
     1
102
RTVSPost2010Prop45
280
     0
102
RTVSPost2010PropOp45
 70
     1
102
RTVSPost2010Prop46
 90
       50
102
RTVSPost2010PropOp46
 70
     1
102
RTVSPost2010Prop47
 90
       50
102
RTVSPost2010PropOp47
 70
     1
102
RTVSPost2010Prop48
 90
       50
102
RTVSPost2010PropOp48
 70
     1
102
RTVSPost2010Prop49
280
     0
102
RTVSPost2010PropOp49
 70
     1
102
RTVSPost2010Prop50
 90
       50
102
RTVSPost2010PropOp50
 70
     1
102
RTVSPost2010Prop51ColorIndex
 90
      256
102
RTVSPost2010Prop51ColorRGB
 90
-16777216
102
RTVSPost2010PropOp51
 70
     0
102
RTVSPost2010Prop52
140
1.0
102
RTVSPost2010PropOp52
 70
     0
102
RTVSPost2010Prop53
 90
        2
102
RTVSPost2010PropOp53
 70
     1
102
RTVSPost2010Prop54
  1
strokes_ogs.tif
102
RTVSPost2010PropOp54
 70
     1
102
RTVSPost2010Prop55
280
     0
102
RTVSPost2010PropOp55
 70
     1
102
RTVSPost2010Prop56
140
1.0
102
RTVSPost2010PropOp56
 70
     1
102
RTVSPost2010Prop57
140
1.0
102
RTVSPost2010PropOp57
 70
     1
102
RTVSPropertyOp0
 70
     1
102
RTVSPropertyOp1
 70
     1
102
RTVSPropertyOp2
 70
     1
102
RTVSPropertyOp3
 70
     1
102
RTVSPropertyOp4
 70
     1
102
RTVSPropertyOp5
 70
     1
102
RTVSPropertyOp6
 70
     1
102
RTVSPropertyOp7
 70
     1
102
RTVSPropertyOp8
 70
     1
102
RTVSPropertyOp9
 70
     1
102
RTVSPropertyOp10
 70
     1
102
RTVSPropertyOp11
 70
     1
102
RTVSPropertyOp12
 70
     1
102
RTVSPropertyOp13
 70
     1
102
RTVSPropertyOp14
 70
     1
102
RTVSPropertyOp15
 70
     1
102
RTVSPropertyOp16
 70
     1
102
RTVSPropertyOp17
 70
     1
102
RTVSPropertyOp18
 70
     1
102
RTVSPropertyOp19
 70
     1
102
RTVSPropertyOp20
 70
     1
102
RTVSPropertyOp21
 70
     1
102
RTVSPropertyOp22
 70
     1
102
RTVSPropertyOp23
 70
     1
102
RTVSPropertyOp24
 70
     1
102
RTVSPropertyOp25
 70
     1
102
RTVSPropertyOp26
 70
     1
102
RTVSPropertyOp27
 70
     1
102
RTVSPropertyOp28
 70
     1
102
RTVSPropertyOp29
 70
     1
102
RTVSPropertyOp30
 70
     1
102
RTVSPropertyOp31
 70
     1
102
RTVSPropertyOp32
 70
     1
102
RTVSPropertyOp33
 70
     1
102
RTVSPropertyOp34
 70
     1
102
RTVSPropertyOp35
 70
     1
102
RTVSPropertyOp36
 70
     1
102
RTVSPropertyOp37
 70
     1
102
RTVSPropertyOp38
 70
     1
102
RTVSPropertyOp39
 70
     1
102
RTVSPropertyOp40
 70
     1
102
RTVSPropertyOp41
 70
     1
102
RTVSPropertyOp42
 70
     1
102
RTVSPropertyOp43
 70
     1
102
RTVSPropertyOp44
 70
     1
102
RTVSPropertyOp45
 70
     1
102
RTVSPropertyOp46
 70
     1
102
RTVSPropertyOp47
 70
     1
102
RTVSPropertyOp48
 70
     1
102
RTVSPropertyOp49
 70
     1
102
RTVSPropertyOp50
 70
     1
102
RTVSPropertyOp51
 70
     0
102
RTVSPropertyOp52
 70
     0
102
RTVSPropertyOp53
 70
     1
102
RTVSPropertyOp54
 70
     1
102
RTVSPropertyOp55
 70
     1
102
RTVSPropertyOp56
 70
     1
102
RTVSPropertyOp57
 70
     1
102
RTVSPropertyOp58
 70
     1
102
RTVSPropertyOp59
 70
     1
102
RTVSPropertyOp60
 70
     1
102
RTVSPropertyOp61
 70
     1
102
RTVSPropertyOp62
 70
     1
  0
XRECORD
  5
38C
102
{ACAD_REACTORS
330
38B
102
}
330
38B
100
AcDbXrecord
280
     1
102
RTVSPost2010Prop28
280
     0
102
RTVSPost2010PropOp28
 70
     1
102
RTVSPost2010Prop29
280
     1
102
RTVSPost2010PropOp29
 70
     1
102
RTVSPost2010Prop30
280
     1
102
RTVSPost2010PropOp30
 70
     1
102
RTVSPost2010Prop31
280
     0
102
RTVSPost2010PropOp31
 70
     1
102
RTVSPost2010Prop32
280
     0
102
RTVSPost2010PropOp32
 70
     1
102
RTVSPost2010Prop33
280
     0
102
RTVSPost2010PropOp33
 70
     1
102
RTVSPost2010Prop34
280
     0
102
RTVSPost2010PropOp34
 70
     1
102
RTVSPost2010Prop35
280
     0
102
RTVSPost2010PropOp35
 70
     1
102
RTVSPost2010Prop36
280
     0
102
RTVSPost2010PropOp36
 70
     1
102
RTVSPost2010Prop37
 90
       50
102
RTVSPost2010PropOp37
 70
     1
102
RTVSPost2010Prop38
140
0.0
102
RTVSPost2010PropOp38
 70
     1
102
RTVSPost2010Prop39
140
1.0
102
RTVSPost2010PropOp39
 70
     1
102
RTVSPost2010Prop40
 90
        0
102
RTVSPost2010PropOp40
 70
     1
102
RTVSPost2010Prop41ColorIndex
 90
       18
102
RTVSPost2010Prop41ColorRGB
 90
        0
102
RTVSPost2010PropOp41
 70
     1
102
RTVSPost2010Prop42
 90
       50
102
RTVSPost2010PropOp42
 70
     1
102
RTVSPost2010Prop43
 90
        3
102
RTVSPost2010PropOp43
 70
     1
102
RTVSPost2010Prop44ColorIndex
 90
        5
102
RTVSPost2010Prop44ColorRGB
 90
      255
102
RTVSPost2010PropOp44
 70
     1
102
RTVSPost2010Prop45
280
     0
102
RTVSPost2010PropOp45
 70
     1
102
RTVSPost2010Prop46
 90
       50
102
RTVSPost2010PropOp46
 70
     1
102
RTVSPost2010Prop47
 90
       50
102
RTVSPost2010PropOp47
 70
     1
102
RTVSPost2010Prop48
 90
       50
102
RTVSPost2010PropOp48
 70
     1
102
RTVSPost2010Prop49
280
     0
102
RTVSPost2010PropOp49
 70
     1
102
RTVSPost2010Prop50
 90
       50
102
RTVSPost2010PropOp50
 70
     1
102
RTVSPost2010Prop51ColorIndex
 90
      256
102
RTVSPost2010Prop51ColorRGB
 90
-16777216
102
RTVSPost2010PropOp51
 70
     0
102
RTVSPost2010Prop52
140
1.0
102
RTVSPost2010PropOp52
 70
     0
102
RTVSPost2010Prop53
 90
        2
102
RTVSPost2010PropOp53
 70
     1
102
RTVSPost2010Prop54
  1
strokes_ogs.tif
102
RTVSPost2010PropOp54
 70
     1
102
RTVSPost2010Prop55
280
     0
102
RTVSPost2010PropOp55
 70
     1
102
RTVSPost2010Prop56
140
1.0
102
RTVSPost2010PropOp56
 70
     1
102
RTVSPost2010Prop57
140
1.0
102
RTVSPost2010PropOp57
 70
     1
102
RTVSPropertyOp0
 70
     1
102
RTVSPropertyOp1
 70
     1
102
RTVSPropertyOp2
 70
     1
102
RTVSPropertyOp3
 70
     1
102
RTVSPropertyOp4
 70
     1
102
RTVSPropertyOp5
 70
     1
102
RTVSPropertyOp6
 70
     1
102
RTVSPropertyOp7
 70
     1
102
RTVSPropertyOp8
 70
     1
102
RTVSPropertyOp9
 70
     1
102
RTVSPropertyOp10
 70
     1
102
RTVSPropertyOp11
 70
     1
102
RTVSPropertyOp12
 70
     1
102
RTVSPropertyOp13
 70
     1
102
RTVSPropertyOp14
 70
     1
102
RTVSPropertyOp15
 70
     1
102
RTVSPropertyOp16
 70
     1
102
RTVSPropertyOp17
 70
     1
102
RTVSPropertyOp18
 70
     1
102
RTVSPropertyOp19
 70
     1
102
RTVSPropertyOp20
 70
     1
102
RTVSPropertyOp21
 70
     1
102
RTVSPropertyOp22
 70
     1
102
RTVSPropertyOp23
 70
     1
102
RTVSPropertyOp24
 70
     1
102
RTVSPropertyOp25
 70
     1
102
RTVSPropertyOp26
 70
     1
102
RTVSPropertyOp27
 70
     1
102
RTVSPropertyOp28
 70
     1
102
RTVSPropertyOp29
 70
     1
102
RTVSPropertyOp30
 70
     1
102
RTVSPropertyOp31
 70
     1
102
RTVSPropertyOp32
 70
     1
102
RTVSPropertyOp33
 70
     1
102
RTVSPropertyOp34
 70
     1
102
RTVSPropertyOp35
 70
     1
102
RTVSPropertyOp36
 70
     1
102
RTVSPropertyOp37
 70
     1
102
RTVSPropertyOp38
 70
     1
102
RTVSPropertyOp39
 70
     1
102
RTVSPropertyOp40
 70
     1
102
RTVSPropertyOp41
 70
     1
102
RTVSPropertyOp42
 70
     1
102
RTVSPropertyOp43
 70
     1
102
RTVSPropertyOp44
 70
     1
102
RTVSPropertyOp45
 70
     1
102
RTVSPropertyOp46
 70
     1
102
RTVSPropertyOp47
 70
     1
102
RTVSPropertyOp48
 70
     1
102
RTVSPropertyOp49
 70
     1
102
RTVSPropertyOp50
 70
     1
102
RTVSPropertyOp51
 70
     0
102
RTVSPropertyOp52
 70
     0
102
RTVSPropertyOp53
 70
     1
102
RTVSPropertyOp54
 70
     1
102
RTVSPropertyOp55
 70
     1
102
RTVSPropertyOp56
 70
     1
102
RTVSPropertyOp57
 70
     1
102
RTVSPropertyOp58
 70
     1
102
RTVSPropertyOp59
 70
     1
102
RTVSPropertyOp60
 70
     1
102
RTVSPropertyOp61
 70
     1
102
RTVSPropertyOp62
 70
     1
  0
XRECORD
  5
386
102
{ACAD_REACTORS
330
385
102
}
330
385
100
AcDbXrecord
280
     1
102
RTVSPost2010Prop28
280
     0
102
RTVSPost2010PropOp28
 70
     1
102
RTVSPost2010Prop29
280
     1
102
RTVSPost2010PropOp29
 70
     1
102
RTVSPost2010Prop30
280
     1
102
RTVSPost2010PropOp30
 70
     1
102
RTVSPost2010Prop31
280
     0
102
RTVSPost2010PropOp31
 70
     1
102
RTVSPost2010Prop32
280
     0
102
RTVSPost2010PropOp32
 70
     1
102
RTVSPost2010Prop33
280
     0
102
RTVSPost2010PropOp33
 70
     1
102
RTVSPost2010Prop34
280
     0
102
RTVSPost2010PropOp34
 70
     1
102
RTVSPost2010Prop35
280
     0
102
RTVSPost2010PropOp35
 70
     1
102
RTVSPost2010Prop36
280
     0
102
RTVSPost2010PropOp36
 70
     1
102
RTVSPost2010Prop37
 90
       50
102
RTVSPost2010PropOp37
 70
     1
102
RTVSPost2010Prop38
140
0.0
102
RTVSPost2010PropOp38
 70
     1
102
RTVSPost2010Prop39
140
1.0
102
RTVSPost2010PropOp39
 70
     1
102
RTVSPost2010Prop40
 90
        0
102
RTVSPost2010PropOp40
 70
     1
102
RTVSPost2010Prop41ColorIndex
 90
       18
102
RTVSPost2010Prop41ColorRGB
 90
        0
102
RTVSPost2010PropOp41
 70
     1
102
RTVSPost2010Prop42
 90
       50
102
RTVSPost2010PropOp42
 70
     1
102
RTVSPost2010Prop43
 90
        3
102
RTVSPost2010PropOp43
 70
     1
102
RTVSPost2010Prop44ColorIndex
 90
        5
102
RTVSPost2010Prop44ColorRGB
 90
      255
102
RTVSPost2010PropOp44
 70
     1
102
RTVSPost2010Prop45
280
     0
102
RTVSPost2010PropOp45
 70
     1
102
RTVSPost2010Prop46
 90
       50
102
RTVSPost2010PropOp46
 70
     1
102
RTVSPost2010Prop47
 90
       50
102
RTVSPost2010PropOp47
 70
     1
102
RTVSPost2010Prop48
 90
       50
102
RTVSPost2010PropOp48
 70
     1
102
RTVSPost2010Prop49
280
     0
102
RTVSPost2010PropOp49
 70
     1
102
RTVSPost2010Prop50
 90
       50
102
RTVSPost2010PropOp50
 70
     1
102
RTVSPost2010Prop51ColorIndex
 90
      256
102
RTVSPost2010Prop51ColorRGB
 90
-16777216
102
RTVSPost2010PropOp51
 70
     0
102
RTVSPost2010Prop52
140
1.0
102
RTVSPost2010PropOp52
 70
     0
102
RTVSPost2010Prop53
 90
        2
102
RTVSPost2010PropOp53
 70
     1
102
RTVSPost2010Prop54
  1
strokes_ogs.tif
102
RTVSPost2010PropOp54
 70
     1
102
RTVSPost2010Prop55
280
     0
102
RTVSPost2010PropOp55
 70
     1
102
RTVSPost2010Prop56
140
1.0
102
RTVSPost2010PropOp56
 70
     1
102
RTVSPost2010Prop57
140
1.0
102
RTVSPost2010PropOp57
 70
     1
102
RTVSPropertyOp0
 70
     1
102
RTVSPropertyOp1
 70
     1
102
RTVSPropertyOp2
 70
     1
102
RTVSPropertyOp3
 70
     1
102
RTVSPropertyOp4
 70
     1
102
RTVSPropertyOp5
 70
     1
102
RTVSPropertyOp6
 70
     1
102
RTVSPropertyOp7
 70
     1
102
RTVSPropertyOp8
 70
     1
102
RTVSPropertyOp9
 70
     1
102
RTVSPropertyOp10
 70
     1
102
RTVSPropertyOp11
 70
     1
102
RTVSPropertyOp12
 70
     1
102
RTVSPropertyOp13
 70
     1
102
RTVSPropertyOp14
 70
     1
102
RTVSPropertyOp15
 70
     1
102
RTVSPropertyOp16
 70
     1
102
RTVSPropertyOp17
 70
     1
102
RTVSPropertyOp18
 70
     1
102
RTVSPropertyOp19
 70
     1
102
RTVSPropertyOp20
 70
     1
102
RTVSPropertyOp21
 70
     1
102
RTVSPropertyOp22
 70
     1
102
RTVSPropertyOp23
 70
     1
102
RTVSPropertyOp24
 70
     1
102
RTVSPropertyOp25
 70
     1
102
RTVSPropertyOp26
 70
     1
102
RTVSPropertyOp27
 70
     1
102
RTVSPropertyOp28
 70
     1
102
RTVSPropertyOp29
 70
     1
102
RTVSPropertyOp30
 70
     1
102
RTVSPropertyOp31
 70
     1
102
RTVSPropertyOp32
 70
     1
102
RTVSPropertyOp33
 70
     1
102
RTVSPropertyOp34
 70
     1
102
RTVSPropertyOp35
 70
     1
102
RTVSPropertyOp36
 70
     1
102
RTVSPropertyOp37
 70
     1
102
RTVSPropertyOp38
 70
     1
102
RTVSPropertyOp39
 70
     1
102
RTVSPropertyOp40
 70
     1
102
RTVSPropertyOp41
 70
     1
102
RTVSPropertyOp42
 70
     1
102
RTVSPropertyOp43
 70
     1
102
RTVSPropertyOp44
 70
     1
102
RTVSPropertyOp45
 70
     1
102
RTVSPropertyOp46
 70
     1
102
RTVSPropertyOp47
 70
     1
102
RTVSPropertyOp48
 70
     1
102
RTVSPropertyOp49
 70
     1
102
RTVSPropertyOp50
 70
     1
102
RTVSPropertyOp51
 70
     0
102
RTVSPropertyOp52
 70
     0
102
RTVSPropertyOp53
 70
     1
102
RTVSPropertyOp54
 70
     1
102
RTVSPropertyOp55
 70
     1
102
RTVSPropertyOp56
 70
     1
102
RTVSPropertyOp57
 70
     1
102
RTVSPropertyOp58
 70
     1
102
RTVSPropertyOp59
 70
     1
102
RTVSPropertyOp60
 70
     1
102
RTVSPropertyOp61
 70
     1
102
RTVSPropertyOp62
 70
     1
  0
XRECORD
  5
388
102
{ACAD_REACTORS
330
387
102
}
330
387
100
AcDbXrecord
280
     1
102
RTVSPost2010Prop28
280
     0
102
RTVSPost2010PropOp28
 70
     1
102
RTVSPost2010Prop29
280
     1
102
RTVSPost2010PropOp29
 70
     1
102
RTVSPost2010Prop30
280
     1
102
RTVSPost2010PropOp30
 70
     1
102
RTVSPost2010Prop31
280
     0
102
RTVSPost2010PropOp31
 70
     1
102
RTVSPost2010Prop32
280
     0
102
RTVSPost2010PropOp32
 70
     1
102
RTVSPost2010Prop33
280
     0
102
RTVSPost2010PropOp33
 70
     1
102
RTVSPost2010Prop34
280
     0
102
RTVSPost2010PropOp34
 70
     1
102
RTVSPost2010Prop35
280
     0
102
RTVSPost2010PropOp35
 70
     1
102
RTVSPost2010Prop36
280
     0
102
RTVSPost2010PropOp36
 70
     1
102
RTVSPost2010Prop37
 90
       50
102
RTVSPost2010PropOp37
 70
     1
102
RTVSPost2010Prop38
140
0.0
102
RTVSPost2010PropOp38
 70
     1
102
RTVSPost2010Prop39
140
1.0
102
RTVSPost2010PropOp39
 70
     1
102
RTVSPost2010Prop40
 90
        0
102
RTVSPost2010PropOp40
 70
     1
102
RTVSPost2010Prop41ColorIndex
 90
       18
102
RTVSPost2010Prop41ColorRGB
 90
        0
102
RTVSPost2010PropOp41
 70
     1
102
RTVSPost2010Prop42
 90
       50
102
RTVSPost2010PropOp42
 70
     1
102
RTVSPost2010Prop43
 90
        3
102
RTVSPost2010PropOp43
 70
     1
102
RTVSPost2010Prop44ColorIndex
 90
        5
102
RTVSPost2010Prop44ColorRGB
 90
      255
102
RTVSPost2010PropOp44
 70
     1
102
RTVSPost2010Prop45
280
     0
102
RTVSPost2010PropOp45
 70
     1
102
RTVSPost2010Prop46
 90
       50
102
RTVSPost2010PropOp46
 70
     1
102
RTVSPost2010Prop47
 90
       50
102
RTVSPost2010PropOp47
 70
     1
102
RTVSPost2010Prop48
 90
       50
102
RTVSPost2010PropOp48
 70
     1
102
RTVSPost2010Prop49
280
     0
102
RTVSPost2010PropOp49
 70
     1
102
RTVSPost2010Prop50
 90
       50
102
RTVSPost2010PropOp50
 70
     1
102
RTVSPost2010Prop51ColorIndex
 90
      256
102
RTVSPost2010Prop51ColorRGB
 90
-16777216
102
RTVSPost2010PropOp51
 70
     0
102
RTVSPost2010Prop52
140
1.0
102
RTVSPost2010PropOp52
 70
     0
102
RTVSPost2010Prop53
 90
        2
102
RTVSPost2010PropOp53
 70
     1
102
RTVSPost2010Prop54
  1
strokes_ogs.tif
102
RTVSPost2010PropOp54
 70
     1
102
RTVSPost2010Prop55
280
     0
102
RTVSPost2010PropOp55
 70
     1
102
RTVSPost2010Prop56
140
1.0
102
RTVSPost2010PropOp56
 70
     1
102
RTVSPost2010Prop57
140
1.0
102
RTVSPost2010PropOp57
 70
     1
102
RTVSPropertyOp0
 70
     1
102
RTVSPropertyOp1
 70
     1
102
RTVSPropertyOp2
 70
     1
102
RTVSPropertyOp3
 70
     1
102
RTVSPropertyOp4
 70
     1
102
RTVSPropertyOp5
 70
     1
102
RTVSPropertyOp6
 70
     1
102
RTVSPropertyOp7
 70
     1
102
RTVSPropertyOp8
 70
     1
102
RTVSPropertyOp9
 70
     1
102
RTVSPropertyOp10
 70
     1
102
RTVSPropertyOp11
 70
     1
102
RTVSPropertyOp12
 70
     1
102
RTVSPropertyOp13
 70
     1
102
RTVSPropertyOp14
 70
     1
102
RTVSPropertyOp15
 70
     1
102
RTVSPropertyOp16
 70
     1
102
RTVSPropertyOp17
 70
     1
102
RTVSPropertyOp18
 70
     1
102
RTVSPropertyOp19
 70
     1
102
RTVSPropertyOp20
 70
     1
102
RTVSPropertyOp21
 70
     1
102
RTVSPropertyOp22
 70
     1
102
RTVSPropertyOp23
 70
     1
102
RTVSPropertyOp24
 70
     1
102
RTVSPropertyOp25
 70
     1
102
RTVSPropertyOp26
 70
     1
102
RTVSPropertyOp27
 70
     1
102
RTVSPropertyOp28
 70
     1
102
RTVSPropertyOp29
 70
     1
102
RTVSPropertyOp30
 70
     1
102
RTVSPropertyOp31
 70
     1
102
RTVSPropertyOp32
 70
     1
102
RTVSPropertyOp33
 70
     1
102
RTVSPropertyOp34
 70
     1
102
RTVSPropertyOp35
 70
     1
102
RTVSPropertyOp36
 70
     1
102
RTVSPropertyOp37
 70
     1
102
RTVSPropertyOp38
 70
     1
102
RTVSPropertyOp39
 70
     1
102
RTVSPropertyOp40
 70
     1
102
RTVSPropertyOp41
 70
     1
102
RTVSPropertyOp42
 70
     1
102
RTVSPropertyOp43
 70
     1
102
RTVSPropertyOp44
 70
     1
102
RTVSPropertyOp45
 70
     1
102
RTVSPropertyOp46
 70
     1
102
RTVSPropertyOp47
 70
     1
102
RTVSPropertyOp48
 70
     1
102
RTVSPropertyOp49
 70
     1
102
RTVSPropertyOp50
 70
     1
102
RTVSPropertyOp51
 70
     0
102
RTVSPropertyOp52
 70
     0
102
RTVSPropertyOp53
 70
     1
102
RTVSPropertyOp54
 70
     1
102
RTVSPropertyOp55
 70
     1
102
RTVSPropertyOp56
 70
     1
102
RTVSPropertyOp57
 70
     1
102
RTVSPropertyOp58
 70
     1
102
RTVSPropertyOp59
 70
     1
102
RTVSPropertyOp60
 70
     1
102
RTVSPropertyOp61
 70
     1
102
RTVSPropertyOp62
 70
     1
  0
XRECORD
  5
378
102
{ACAD_REACTORS
330
377
102
}
330
377
100
AcDbXrecord
280
     1
102
RTVSPost2010Prop28
280
     0
102
RTVSPost2010PropOp28
 70
     1
102
RTVSPost2010Prop29
280
     1
102
RTVSPost2010PropOp29
 70
     1
102
RTVSPost2010Prop30
280
     1
102
RTVSPost2010PropOp30
 70
     1
102
RTVSPost2010Prop31
280
     0
102
RTVSPost2010PropOp31
 70
     1
102
RTVSPost2010Prop32
280
     0
102
RTVSPost2010PropOp32
 70
     1
102
RTVSPost2010Prop33
280
     0
102
RTVSPost2010PropOp33
 70
     1
102
RTVSPost2010Prop34
280
     0
102
RTVSPost2010PropOp34
 70
     1
102
RTVSPost2010Prop35
280
     0
102
RTVSPost2010PropOp35
 70
     1
102
RTVSPost2010Prop36
280
     0
102
RTVSPost2010PropOp36
 70
     1
102
RTVSPost2010Prop37
 90
       50
102
RTVSPost2010PropOp37
 70
     1
102
RTVSPost2010Prop38
140
0.0
102
RTVSPost2010PropOp38
 70
     1
102
RTVSPost2010Prop39
140
1.0
102
RTVSPost2010PropOp39
 70
     1
102
RTVSPost2010Prop40
 90
        0
102
RTVSPost2010PropOp40
 70
     1
102
RTVSPost2010Prop41ColorIndex
 90
       18
102
RTVSPost2010Prop41ColorRGB
 90
        0
102
RTVSPost2010PropOp41
 70
     1
102
RTVSPost2010Prop42
 90
       50
102
RTVSPost2010PropOp42
 70
     1
102
RTVSPost2010Prop43
 90
        3
102
RTVSPost2010PropOp43
 70
     1
102
RTVSPost2010Prop44ColorIndex
 90
        5
102
RTVSPost2010Prop44ColorRGB
 90
      255
102
RTVSPost2010PropOp44
 70
     1
102
RTVSPost2010Prop45
280
     0
102
RTVSPost2010PropOp45
 70
     1
102
RTVSPost2010Prop46
 90
       50
102
RTVSPost2010PropOp46
 70
     1
102
RTVSPost2010Prop47
 90
       50
102
RTVSPost2010PropOp47
 70
     1
102
RTVSPost2010Prop48
 90
       50
102
RTVSPost2010PropOp48
 70
     1
102
RTVSPost2010Prop49
280
     0
102
RTVSPost2010PropOp49
 70
     1
102
RTVSPost2010Prop50
 90
       50
102
RTVSPost2010PropOp50
 70
     1
102
RTVSPost2010Prop51ColorIndex
 90
      256
102
RTVSPost2010Prop51ColorRGB
 90
-16777216
102
RTVSPost2010PropOp51
 70
     0
102
RTVSPost2010Prop52
140
1.0
102
RTVSPost2010PropOp52
 70
     0
102
RTVSPost2010Prop53
 90
        2
102
RTVSPost2010PropOp53
 70
     1
102
RTVSPost2010Prop54
  1
strokes_ogs.tif
102
RTVSPost2010PropOp54
 70
     1
102
RTVSPost2010Prop55
280
     0
102
RTVSPost2010PropOp55
 70
     1
102
RTVSPost2010Prop56
140
1.0
102
RTVSPost2010PropOp56
 70
     1
102
RTVSPost2010Prop57
140
1.0
102
RTVSPost2010PropOp57
 70
     1
102
RTVSPropertyOp0
 70
     1
102
RTVSPropertyOp1
 70
     1
102
RTVSPropertyOp2
 70
     1
102
RTVSPropertyOp3
 70
     1
102
RTVSPropertyOp4
 70
     1
102
RTVSPropertyOp5
 70
     1
102
RTVSPropertyOp6
 70
     1
102
RTVSPropertyOp7
 70
     1
102
RTVSPropertyOp8
 70
     1
102
RTVSPropertyOp9
 70
     1
102
RTVSPropertyOp10
 70
     1
102
RTVSPropertyOp11
 70
     1
102
RTVSPropertyOp12
 70
     1
102
RTVSPropertyOp13
 70
     1
102
RTVSPropertyOp14
 70
     1
102
RTVSPropertyOp15
 70
     1
102
RTVSPropertyOp16
 70
     1
102
RTVSPropertyOp17
 70
     1
102
RTVSPropertyOp18
 70
     1
102
RTVSPropertyOp19
 70
     1
102
RTVSPropertyOp20
 70
     1
102
RTVSPropertyOp21
 70
     1
102
RTVSPropertyOp22
 70
     1
102
RTVSPropertyOp23
 70
     1
102
RTVSPropertyOp24
 70
     1
102
RTVSPropertyOp25
 70
     1
102
RTVSPropertyOp26
 70
     1
102
RTVSPropertyOp27
 70
     1
102
RTVSPropertyOp28
 70
     1
102
RTVSPropertyOp29
 70
     1
102
RTVSPropertyOp30
 70
     1
102
RTVSPropertyOp31
 70
     1
102
RTVSPropertyOp32
 70
     1
102
RTVSPropertyOp33
 70
     1
102
RTVSPropertyOp34
 70
     1
102
RTVSPropertyOp35
 70
     1
102
RTVSPropertyOp36
 70
     1
102
RTVSPropertyOp37
 70
     1
102
RTVSPropertyOp38
 70
     1
102
RTVSPropertyOp39
 70
     1
102
RTVSPropertyOp40
 70
     1
102
RTVSPropertyOp41
 70
     1
102
RTVSPropertyOp42
 70
     1
102
RTVSPropertyOp43
 70
     1
102
RTVSPropertyOp44
 70
     1
102
RTVSPropertyOp45
 70
     1
102
RTVSPropertyOp46
 70
     1
102
RTVSPropertyOp47
 70
     1
102
RTVSPropertyOp48
 70
     1
102
RTVSPropertyOp49
 70
     1
102
RTVSPropertyOp50
 70
     1
102
RTVSPropertyOp51
 70
     0
102
RTVSPropertyOp52
 70
     0
102
RTVSPropertyOp53
 70
     1
102
RTVSPropertyOp54
 70
     1
102
RTVSPropertyOp55
 70
     1
102
RTVSPropertyOp56
 70
     1
102
RTVSPropertyOp57
 70
     1
102
RTVSPropertyOp58
 70
     1
102
RTVSPropertyOp59
 70
     1
102
RTVSPropertyOp60
 70
     1
102
RTVSPropertyOp61
 70
     1
102
RTVSPropertyOp62
 70
     1
  0
XRECORD
  5
36A
102
{ACAD_REACTORS
330
369
102
}
330
369
100
AcDbXrecord
280
     1
102
RTVSPost2010Prop28
280
     0
102
RTVSPost2010PropOp28
 70
     1
102
RTVSPost2010Prop29
280
     1
102
RTVSPost2010PropOp29
 70
     1
102
RTVSPost2010Prop30
280
     1
102
RTVSPost2010PropOp30
 70
     1
102
RTVSPost2010Prop31
280
     0
102
RTVSPost2010PropOp31
 70
     1
102
RTVSPost2010Prop32
280
     0
102
RTVSPost2010PropOp32
 70
     1
102
RTVSPost2010Prop33
280
     0
102
RTVSPost2010PropOp33
 70
     1
102
RTVSPost2010Prop34
280
     0
102
RTVSPost2010PropOp34
 70
     1
102
RTVSPost2010Prop35
280
     0
102
RTVSPost2010PropOp35
 70
     1
102
RTVSPost2010Prop36
280
     0
102
RTVSPost2010PropOp36
 70
     1
102
RTVSPost2010Prop37
 90
       50
102
RTVSPost2010PropOp37
 70
     1
102
RTVSPost2010Prop38
140
0.0
102
RTVSPost2010PropOp38
 70
     1
102
RTVSPost2010Prop39
140
1.0
102
RTVSPost2010PropOp39
 70
     1
102
RTVSPost2010Prop40
 90
        0
102
RTVSPost2010PropOp40
 70
     1
102
RTVSPost2010Prop41ColorIndex
 90
       18
102
RTVSPost2010Prop41ColorRGB
 90
        0
102
RTVSPost2010PropOp41
 70
     1
102
RTVSPost2010Prop42
 90
       50
102
RTVSPost2010PropOp42
 70
     1
102
RTVSPost2010Prop43
 90
        3
102
RTVSPost2010PropOp43
 70
     1
102
RTVSPost2010Prop44ColorIndex
 90
        5
102
RTVSPost2010Prop44ColorRGB
 90
      255
102
RTVSPost2010PropOp44
 70
     1
102
RTVSPost2010Prop45
280
     0
102
RTVSPost2010PropOp45
 70
     1
102
RTVSPost2010Prop46
 90
       50
102
RTVSPost2010PropOp46
 70
     1
102
RTVSPost2010Prop47
 90
       50
102
RTVSPost2010PropOp47
 70
     1
102
RTVSPost2010Prop48
 90
       50
102
RTVSPost2010PropOp48
 70
     1
102
RTVSPost2010Prop49
280
     0
102
RTVSPost2010PropOp49
 70
     1
102
RTVSPost2010Prop50
 90
       50
102
RTVSPost2010PropOp50
 70
     1
102
RTVSPost2010Prop51ColorIndex
 90
      256
102
RTVSPost2010Prop51ColorRGB
 90
-16777216
102
RTVSPost2010PropOp51
 70
     0
102
RTVSPost2010Prop52
140
1.0
102
RTVSPost2010PropOp52
 70
     0
102
RTVSPost2010Prop53
 90
        2
102
RTVSPost2010PropOp53
 70
     1
102
RTVSPost2010Prop54
  1
strokes_ogs.tif
102
RTVSPost2010PropOp54
 70
     1
102
RTVSPost2010Prop55
280
     0
102
RTVSPost2010PropOp55
 70
     1
102
RTVSPost2010Prop56
140
1.0
102
RTVSPost2010PropOp56
 70
     1
102
RTVSPost2010Prop57
140
1.0
102
RTVSPost2010PropOp57
 70
     1
102
RTVSPropertyOp0
 70
     1
102
RTVSPropertyOp1
 70
     1
102
RTVSPropertyOp2
 70
     1
102
RTVSPropertyOp3
 70
     1
102
RTVSPropertyOp4
 70
     1
102
RTVSPropertyOp5
 70
     1
102
RTVSPropertyOp6
 70
     1
102
RTVSPropertyOp7
 70
     1
102
RTVSPropertyOp8
 70
     1
102
RTVSPropertyOp9
 70
     1
102
RTVSPropertyOp10
 70
     1
102
RTVSPropertyOp11
 70
     1
102
RTVSPropertyOp12
 70
     1
102
RTVSPropertyOp13
 70
     1
102
RTVSPropertyOp14
 70
     1
102
RTVSPropertyOp15
 70
     1
102
RTVSPropertyOp16
 70
     1
102
RTVSPropertyOp17
 70
     1
102
RTVSPropertyOp18
 70
     1
102
RTVSPropertyOp19
 70
     1
102
RTVSPropertyOp20
 70
     1
102
RTVSPropertyOp21
 70
     1
102
RTVSPropertyOp22
 70
     1
102
RTVSPropertyOp23
 70
     1
102
RTVSPropertyOp24
 70
     1
102
RTVSPropertyOp25
 70
     1
102
RTVSPropertyOp26
 70
     1
102
RTVSPropertyOp27
 70
     1
102
RTVSPropertyOp28
 70
     1
102
RTVSPropertyOp29
 70
     1
102
RTVSPropertyOp30
 70
     1
102
RTVSPropertyOp31
 70
     1
102
RTVSPropertyOp32
 70
     1
102
RTVSPropertyOp33
 70
     1
102
RTVSPropertyOp34
 70
     1
102
RTVSPropertyOp35
 70
     1
102
RTVSPropertyOp36
 70
     1
102
RTVSPropertyOp37
 70
     1
102
RTVSPropertyOp38
 70
     1
102
RTVSPropertyOp39
 70
     1
102
RTVSPropertyOp40
 70
     1
102
RTVSPropertyOp41
 70
     1
102
RTVSPropertyOp42
 70
     1
102
RTVSPropertyOp43
 70
     1
102
RTVSPropertyOp44
 70
     1
102
RTVSPropertyOp45
 70
     1
102
RTVSPropertyOp46
 70
     1
102
RTVSPropertyOp47
 70
     1
102
RTVSPropertyOp48
 70
     1
102
RTVSPropertyOp49
 70
     1
102
RTVSPropertyOp50
 70
     1
102
RTVSPropertyOp51
 70
     0
102
RTVSPropertyOp52
 70
     0
102
RTVSPropertyOp53
 70
     1
102
RTVSPropertyOp54
 70
     1
102
RTVSPropertyOp55
 70
     1
102
RTVSPropertyOp56
 70
     1
102
RTVSPropertyOp57
 70
     1
102
RTVSPropertyOp58
 70
     1
102
RTVSPropertyOp59
 70
     1
102
RTVSPropertyOp60
 70
     1
102
RTVSPropertyOp61
 70
     1
102
RTVSPropertyOp62
 70
     1
  0
XRECORD
  5
38A
102
{ACAD_REACTORS
330
389
102
}
330
389
100
AcDbXrecord
280
     1
102
RTVSPost2010Prop28
280
     0
102
RTVSPost2010PropOp28
 70
     1
102
RTVSPost2010Prop29
280
     1
102
RTVSPost2010PropOp29
 70
     1
102
RTVSPost2010Prop30
280
     1
102
RTVSPost2010PropOp30
 70
     1
102
RTVSPost2010Prop31
280
     0
102
RTVSPost2010PropOp31
 70
     1
102
RTVSPost2010Prop32
280
     0
102
RTVSPost2010PropOp32
 70
     1
102
RTVSPost2010Prop33
280
     0
102
RTVSPost2010PropOp33
 70
     1
102
RTVSPost2010Prop34
280
     0
102
RTVSPost2010PropOp34
 70
     1
102
RTVSPost2010Prop35
280
     0
102
RTVSPost2010PropOp35
 70
     1
102
RTVSPost2010Prop36
280
     0
102
RTVSPost2010PropOp36
 70
     1
102
RTVSPost2010Prop37
 90
       50
102
RTVSPost2010PropOp37
 70
     1
102
RTVSPost2010Prop38
140
0.0
102
RTVSPost2010PropOp38
 70
     1
102
RTVSPost2010Prop39
140
1.0
102
RTVSPost2010PropOp39
 70
     1
102
RTVSPost2010Prop40
 90
        0
102
RTVSPost2010PropOp40
 70
     1
102
RTVSPost2010Prop41ColorIndex
 90
       18
102
RTVSPost2010Prop41ColorRGB
 90
        0
102
RTVSPost2010PropOp41
 70
     1
102
RTVSPost2010Prop42
 90
       50
102
RTVSPost2010PropOp42
 70
     1
102
RTVSPost2010Prop43
 90
        3
102
RTVSPost2010PropOp43
 70
     1
102
RTVSPost2010Prop44ColorIndex
 90
        5
102
RTVSPost2010Prop44ColorRGB
 90
      255
102
RTVSPost2010PropOp44
 70
     1
102
RTVSPost2010Prop45
280
     0
102
RTVSPost2010PropOp45
 70
     1
102
RTVSPost2010Prop46
 90
       50
102
RTVSPost2010PropOp46
 70
     1
102
RTVSPost2010Prop47
 90
       50
102
RTVSPost2010PropOp47
 70
     1
102
RTVSPost2010Prop48
 90
       50
102
RTVSPost2010PropOp48
 70
     1
102
RTVSPost2010Prop49
280
     0
102
RTVSPost2010PropOp49
 70
     1
102
RTVSPost2010Prop50
 90
       50
102
RTVSPost2010PropOp50
 70
     1
102
RTVSPost2010Prop51ColorIndex
 90
      256
102
RTVSPost2010Prop51ColorRGB
 90
-16777216
102
RTVSPost2010PropOp51
 70
     0
102
RTVSPost2010Prop52
140
1.0
102
RTVSPost2010PropOp52
 70
     0
102
RTVSPost2010Prop53
 90
        2
102
RTVSPost2010PropOp53
 70
     1
102
RTVSPost2010Prop54
  1
strokes_ogs.tif
102
RTVSPost2010PropOp54
 70
     1
102
RTVSPost2010Prop55
280
     0
102
RTVSPost2010PropOp55
 70
     1
102
RTVSPost2010Prop56
140
1.0
102
RTVSPost2010PropOp56
 70
     1
102
RTVSPost2010Prop57
140
1.0
102
RTVSPost2010PropOp57
 70
     1
102
RTVSPropertyOp0
 70
     1
102
RTVSPropertyOp1
 70
     1
102
RTVSPropertyOp2
 70
     1
102
RTVSPropertyOp3
 70
     1
102
RTVSPropertyOp4
 70
     1
102
RTVSPropertyOp5
 70
     1
102
RTVSPropertyOp6
 70
     1
102
RTVSPropertyOp7
 70
     1
102
RTVSPropertyOp8
 70
     1
102
RTVSPropertyOp9
 70
     1
102
RTVSPropertyOp10
 70
     1
102
RTVSPropertyOp11
 70
     1
102
RTVSPropertyOp12
 70
     1
102
RTVSPropertyOp13
 70
     1
102
RTVSPropertyOp14
 70
     1
102
RTVSPropertyOp15
 70
     1
102
RTVSPropertyOp16
 70
     1
102
RTVSPropertyOp17
 70
     1
102
RTVSPropertyOp18
 70
     1
102
RTVSPropertyOp19
 70
     1
102
RTVSPropertyOp20
 70
     1
102
RTVSPropertyOp21
 70
     1
102
RTVSPropertyOp22
 70
     1
102
RTVSPropertyOp23
 70
     1
102
RTVSPropertyOp24
 70
     1
102
RTVSPropertyOp25
 70
     1
102
RTVSPropertyOp26
 70
     1
102
RTVSPropertyOp27
 70
     1
102
RTVSPropertyOp28
 70
     1
102
RTVSPropertyOp29
 70
     1
102
RTVSPropertyOp30
 70
     1
102
RTVSPropertyOp31
 70
     1
102
RTVSPropertyOp32
 70
     1
102
RTVSPropertyOp33
 70
     1
102
RTVSPropertyOp34
 70
     1
102
RTVSPropertyOp35
 70
     1
102
RTVSPropertyOp36
 70
     1
102
RTVSPropertyOp37
 70
     1
102
RTVSPropertyOp38
 70
     1
102
RTVSPropertyOp39
 70
     1
102
RTVSPropertyOp40
 70
     1
102
RTVSPropertyOp41
 70
     1
102
RTVSPropertyOp42
 70
     1
102
RTVSPropertyOp43
 70
     1
102
RTVSPropertyOp44
 70
     1
102
RTVSPropertyOp45
 70
     1
102
RTVSPropertyOp46
 70
     1
102
RTVSPropertyOp47
 70
     1
102
RTVSPropertyOp48
 70
     1
102
RTVSPropertyOp49
 70
     1
102
RTVSPropertyOp50
 70
     1
102
RTVSPropertyOp51
 70
     0
102
RTVSPropertyOp52
 70
     0
102
RTVSPropertyOp53
 70
     1
102
RTVSPropertyOp54
 70
     1
102
RTVSPropertyOp55
 70
     1
102
RTVSPropertyOp56
 70
     1
102
RTVSPropertyOp57
 70
     1
102
RTVSPropertyOp58
 70
     1
102
RTVSPropertyOp59
 70
     1
102
RTVSPropertyOp60
 70
     1
102
RTVSPropertyOp61
 70
     1
102
RTVSPropertyOp62
 70
     1
  0
ENDSEC
  0
EOF
