  0
SECTION
  2
HEADER
  9
$ACADVER
  1
AC1018
  9
$ACADMAINTVER
 70
   104
  9
$DWGCODEPAGE
  3
ANSI_1250
  9
$LASTSAVEDBY
  1
wq7085
  9
$INSBASE
 10
0.0
 20
0.0
 30
0.0
  9
$EXTMIN
 10
188.6658343333333
 20
122.034924
 30
0.0
  9
$EXTMAX
 10
361.303218
 20
345.2288016666668
 30
0.0
  9
$LIMMIN
 10
-0.5
 20
-0.5
  9
$LIMMAX
 10
5.0
 20
5.0
  9
$ORTHOMODE
 70
     0
  9
$REGENMODE
 70
     1
  9
$FILLMODE
 70
     1
  9
$QTEXTMODE
 70
     0
  9
$MIRRTEXT
 70
     1
  9
$LTSCALE
 40
1.0
  9
$ATTMODE
 70
     1
  9
$TEXTSIZE
 40
0.2
  9
$TRACEWID
 40
0.05
  9
$TEXTSTYLE
  7
Standard
  9
$CLAYER
  8
0
  9
$CELTYPE
  6
ByLayer
  9
$CECOLOR
 62
   256
  9
$CELTSCALE
 40
1.0
  9
$DISPSILH
 70
     0
  9
$DIMSCALE
 40
1.0
  9
$DIMASZ
 40
0.18
  9
$DIMEXO
 40
0.0625
  9
$DIMDLI
 40
0.38
  9
$DIMRND
 40
0.0
  9
$DIMDLE
 40
0.0
  9
$DIMEXE
 40
0.18
  9
$DIMTP
 40
0.0
  9
$DIMTM
 40
0.0
  9
$DIMTXT
 40
0.18
  9
$DIMCEN
 40
0.09
  9
$DIMTSZ
 40
0.0
  9
$DIMTOL
 70
     0
  9
$DIMLIM
 70
     0
  9
$DIMTIH
 70
     1
  9
$DIMTOH
 70
     1
  9
$DIMSE1
 70
     0
  9
$DIMSE2
 70
     0
  9
$DIMTAD
 70
     0
  9
$DIMZIN
 70
     0
  9
$DIMBLK
  1

  9
$DIMASO
 70
     1
  9
$DIMSHO
 70
     1
  9
$DIMPOST
  1

  9
$DIMAPOST
  1

  9
$DIMALT
 70
     0
  9
$DIMALTD
 70
     2
  9
$DIMALTF
 40
25.4
  9
$DIMLFAC
 40
1.0
  9
$DIMTOFL
 70
     0
  9
$DIMTVP
 40
0.0
  9
$DIMTIX
 70
     0
  9
$DIMSOXD
 70
     0
  9
$DIMSAH
 70
     0
  9
$DIMBLK1
  1

  9
$DIMBLK2
  1

  9
$DIMSTYLE
  2
Standard
  9
$DIMCLRD
 70
     0
  9
$DIMCLRE
 70
     0
  9
$DIMCLRT
 70
     0
  9
$DIMTFAC
 40
1.0
  9
$DIMGAP
 40
0.09
  9
$DIMJUST
 70
     0
  9
$DIMSD1
 70
     0
  9
$DIMSD2
 70
     0
  9
$DIMTOLJ
 70
     1
  9
$DIMTZIN
 70
     0
  9
$DIMALTZ
 70
     0
  9
$DIMALTTZ
 70
     0
  9
$DIMUPT
 70
     0
  9
$DIMDEC
 70
     4
  9
$DIMTDEC
 70
     4
  9
$DIMALTU
 70
     2
  9
$DIMALTTD
 70
     2
  9
$DIMTXSTY
  7
Standard
  9
$DIMAUNIT
 70
     0
  9
$DIMADEC
 70
     0
  9
$DIMALTRND
 40
0.0
  9
$DIMAZIN
 70
     0
  9
$DIMDSEP
 70
    46
  9
$DIMATFIT
 70
     3
  9
$DIMFRAC
 70
     0
  9
$DIMLDRBLK
  1

  9
$DIMLUNIT
 70
     2
  9
$DIMLWD
 70
    -2
  9
$DIMLWE
 70
    -2
  9
$DIMTMOVE
 70
     0
  9
$LUNITS
 70
     2
  9
$LUPREC
 70
     4
  9
$SKETCHINC
 40
0.1
  9
$FILLETRAD
 40
0.5
  9
$AUNITS
 70
     0
  9
$AUPREC
 70
     0
  9
$MENU
  1
.
  9
$ELEVATION
 40
0.0
  9
$PELEVATION
 40
0.0
  9
$THICKNESS
 40
0.0
  9
$LIMCHECK
 70
     0
  9
$CHAMFERA
 40
0.0
  9
$CHAMFERB
 40
0.0
  9
$CHAMFERC
 40
0.0
  9
$CHAMFERD
 40
0.0
  9
$SKPOLY
 70
     0
  9
$TDCREATE
 40
2459003.282500000
  9
$TDUCREATE
 40
2459003.199174757
  9
$TDUPDATE
 40
2459003.284907408
  9
$TDUUPDATE
 40
2459003.201574074
  9
$TDINDWG
 40
0.0015046412
  9
$TDUSRTIMER
 40
0.0015046412
  9
$USRTIMER
 70
     1
  9
$ANGBASE
 50
0.0
  9
$ANGDIR
 70
     0
  9
$PDMODE
 70
     0
  9
$PDSIZE
 40
0.0
  9
$PLINEWID
 40
0.0
  9
$SPLFRAME
 70
     0
  9
$SPLINETYPE
 70
     6
  9
$SPLINESEGS
 70
     8
  9
$HANDSEED
  5
399
  9
$SURFTAB1
 70
     6
  9
$SURFTAB2
 70
     6
  9
$SURFTYPE
 70
     6
  9
$SURFU
 70
     6
  9
$SURFV
 70
     6
  9
$UCSBASE
  2

  9
$UCSNAME
  2

  9
$UCSORG
 10
274.404842
 20
288.907994
 30
0.0
  9
$UCSXDIR
 10
1.0
 20
0.0
 30
0.0
  9
$UCSYDIR
 10
0.0
 20
1.0
 30
0.0
  9
$UCSORTHOREF
  2

  9
$UCSORTHOVIEW
 70
     0
  9
$UCSORGTOP
 10
0.0
 20
0.0
 30
0.0
  9
$UCSORGBOTTOM
 10
0.0
 20
0.0
 30
0.0
  9
$UCSORGLEFT
 10
0.0
 20
0.0
 30
0.0
  9
$UCSORGRIGHT
 10
0.0
 20
0.0
 30
0.0
  9
$UCSORGFRONT
 10
0.0
 20
0.0
 30
0.0
  9
$UCSORGBACK
 10
0.0
 20
0.0
 30
0.0
  9
$PUCSBASE
  2

  9
$PUCSNAME
  2

  9
$PUCSORG
 10
0.0
 20
0.0
 30
0.0
  9
$PUCSXDIR
 10
1.0
 20
0.0
 30
0.0
  9
$PUCSYDIR
 10
0.0
 20
1.0
 30
0.0
  9
$PUCSORTHOREF
  2

  9
$PUCSORTHOVIEW
 70
     0
  9
$PUCSORGTOP
 10
0.0
 20
0.0
 30
0.0
  9
$PUCSORGBOTTOM
 10
0.0
 20
0.0
 30
0.0
  9
$PUCSORGLEFT
 10
0.0
 20
0.0
 30
0.0
  9
$PUCSORGRIGHT
 10
0.0
 20
0.0
 30
0.0
  9
$PUCSORGFRONT
 10
0.0
 20
0.0
 30
0.0
  9
$PUCSORGBACK
 10
0.0
 20
0.0
 30
0.0
  9
$USERI1
 70
     0
  9
$USERI2
 70
     0
  9
$USERI3
 70
     0
  9
$USERI4
 70
     0
  9
$USERI5
 70
     0
  9
$USERR1
 40
0.0
  9
$USERR2
 40
0.0
  9
$USERR3
 40
0.0
  9
$USERR4
 40
0.0
  9
$USERR5
 40
0.0
  9
$WORLDVIEW
 70
     1
  9
$SHADEDGE
 70
     3
  9
$SHADEDIF
 70
    70
  9
$TILEMODE
 70
     1
  9
$MAXACTVP
 70
    64
  9
$PINSBASE
 10
0.0
 20
0.0
 30
0.0
  9
$PLIMCHECK
 70
     0
  9
$PEXTMIN
 10
-0.5
 20
-0.5
 30
-0.5
  9
$PEXTMAX
 10
5.0
 20
5.0
 30
5.0
  9
$PLIMMIN
 10
-0.5
 20
-0.5
  9
$PLIMMAX
 10
5.0
 20
5.0
  9
$UNITMODE
 70
     0
  9
$VISRETAIN
 70
     1
  9
$PLINEGEN
 70
     0
  9
$PSLTSCALE
 70
     1
  9
$TREEDEPTH
 70
  3020
  9
$CMLSTYLE
  2
Standard
  9
$CMLJUST
 70
     0
  9
$CMLSCALE
 40
1.0
  9
$PROXYGRAPHICS
 70
     1
  9
$MEASUREMENT
 70
     1
  9
$CELWEIGHT
370
    13
  9
$ENDCAPS
280
     0
  9
$JOINSTYLE
280
     0
  9
$LWDISPLAY
290
     0
  9
$INSUNITS
 70
     4
  9
$HYPERLINKBASE
  1

  9
$STYLESHEET
  1

  9
$XEDIT
290
     1
  9
$CEPSNTYPE
380
     0
  9
$PSTYLEMODE
290
     1
  9
$FINGERPRINTGUID
  2
{E15335D7-AE1A-4589-A923-C2C713646342}
  9
$VERSIONGUID
  2
{66B45492-F374-EE40-9498-E40E9B1ED490}
  9
$EXTNAMES
290
     1
  9
$PSVPSCALE
 40
0.0
  9
$OLESTARTUP
290
     0
  9
$SORTENTS
280
   127
  9
$INDEXCTL
280
     0
  9
$HIDETEXT
280
     1
  9
$XCLIPFRAME
290
     0
  9
$HALOGAP
280
     0
  9
$OBSCOLOR
 70
   257
  9
$OBSLTYPE
280
     0
  9
$INTERSECTIONDISPLAY
280
     0
  9
$INTERSECTIONCOLOR
 70
   257
  9
$DIMASSOC
280
     2
  9
$PROJECTNAME
  1

  0
ENDSEC
  0
SECTION
  2
CLASSES
  0
CLASS
  1
ACDBDICTIONARYWDFLT
  2
AcDbDictionaryWithDefault
  3
ObjectDBX Classes
 90
        0
 91
        1
280
     0
281
     0
  0
CLASS
  1
VISUALSTYLE
  2
AcDbVisualStyle
  3
ObjectDBX Classes
 90
     4095
 91
       24
280
     0
281
     0
  0
CLASS
  1
MATERIAL
  2
AcDbMaterial
  3
ObjectDBX Classes
 90
     1153
 91
        3
280
     0
281
     0
  0
CLASS
  1
SCALE
  2
AcDbScale
  3
ObjectDBX Classes
 90
     1153
 91
       33
280
     0
281
     0
  0
CLASS
  1
TABLESTYLE
  2
AcDbTableStyle
  3
ObjectDBX Classes
 90
     4095
 91
        1
280
     0
281
     0
  0
CLASS
  1
MLEADERSTYLE
  2
AcDbMLeaderStyle
  3
ACDB_MLEADERSTYLE_CLASS
 90
     4095
 91
        1
280
     0
281
     0
  0
CLASS
  1
SUN
  2
AcDbSun
  3
SCENEOE
 90
     1153
 91
        0
280
     0
281
     0
  0
CLASS
  1
DIMASSOC
  2
AcDbDimAssoc
  3
"AcDbDimAssoc|Product Desc:     AcDim ARX App For Dimension|Company:          Autodesk, Inc.|WEB Address:      www.autodesk.com"
 90
        0
 91
        7
280
     0
281
     0
  0
CLASS
  1
DICTIONARYVAR
  2
AcDbDictionaryVar
  3
ObjectDBX Classes
 90
        0
 91
        8
280
     0
281
     0
  0
CLASS
  1
CELLSTYLEMAP
  2
AcDbCellStyleMap
  3
ObjectDBX Classes
 90
     1152
 91
        2
280
     0
281
     0
  0
CLASS
  1
ACDBSECTIONVIEWSTYLE
  2
AcDbSectionViewStyle
  3
ObjectDBX Classes
 90
     1025
 91
        1
280
     0
281
     0
  0
CLASS
  1
ACDBDETAILVIEWSTYLE
  2
AcDbDetailViewStyle
  3
ObjectDBX Classes
 90
     1025
 91
        1
280
     0
281
     0
  0
CLASS
  1
SORTENTSTABLE
  2
AcDbSortentsTable
  3
ObjectDBX Classes
 90
        0
 91
        1
280
     0
281
     0
  0
ENDSEC
  0
SECTION
  2
TABLES
  0
TABLE
  2
VPORT
  5
8
330
0
100
AcDbSymbolTable
 70
    16
  0
VPORT
  5
29
330
8
100
AcDbSymbolTableRecord
100
AcDbViewportTableRecord
  2
*Active
 70
     0
 10
0.0
 20
0.0
 11
1.0
 21
1.0
 12
294.5349065645932
 22
282.6204828928824
 13
0.0
 23
0.0
 14
0.5
 24
0.5
 15
0.5
 25
0.5
 16
0.0
 26
0.0
 36
1.0
 17
0.0
 27
0.0
 37
0.0
 40
174.9916880550983
 41
2.179019384264538
 42
50.0
 43
360.510644
 44
-360.510644
 50
0.0
 51
0.0
 71
     0
 72
   100
 73
     1
 74
     3
 75
     0
 76
     0
 77
     0
 78
     0
281
     0
 65
     1
110
274.404842
120
288.907994
130
0.0
111
1.0
121
0.0
131
0.0
112
0.0
122
1.0
132
0.0
 79
     0
146
0.0
1001
ACAD_NAV_VCDISPLAY
1070
     3
  0
VPORT
  5
29D
330
8
100
AcDbSymbolTableRecord
100
AcDbViewportTableRecord
  2
L1
 70
     0
 10
0.0
 20
0.0
 11
1.0
 21
1.0
 12
274.480324
 22
233.489894
 13
0.0
 23
0.0
 14
0.5
 24
0.5
 15
0.5
 25
0.5
 16
0.0
 26
0.0
 36
1.0
 17
0.0
 27
0.0
 37
0.0
 40
207.433333
 41
0.085602
 42
50.0
 43
360.510644
 44
-360.510644
 50
0.0
 51
0.0
 71
     0
 72
   100
 73
     1
 74
     3
 75
     0
 76
     0
 77
     0
 78
     0
281
     0
 65
     1
110
0.0
120
0.0
130
0.0
111
1.0
121
0.0
131
0.0
112
0.0
122
1.0
132
0.0
 79
     0
146
0.0
  0
VPORT
  5
29E
330
8
100
AcDbSymbolTableRecord
100
AcDbViewportTableRecord
  2
L2
 70
     0
 10
0.0
 20
0.0
 11
0.5
 21
1.0
 12
0.0
 22
0.0
 13
0.0
 23
0.0
 14
0.5
 24
0.5
 15
0.5
 25
0.5
 16
0.0
 26
-1.0
 36
0.0
 17
0.0
 27
0.0
 37
0.0
 40
1319.735116
 41
0.013455
 42
50.0
 43
679.920199
 44
-679.920199
 50
0.0
 51
0.0
 71
     0
 72
   100
 73
     1
 74
     3
 75
     0
 76
     0
 77
     0
 78
     0
281
     0
 65
     1
110
0.0
120
0.0
130
0.0
111
1.0
121
0.0
131
0.0
112
0.0
122
1.0
132
0.0
 79
     0
146
0.0
  0
VPORT
  5
29F
330
8
100
AcDbSymbolTableRecord
100
AcDbViewportTableRecord
  2
L2
 70
     0
 10
0.5
 20
0.0
 11
1.0
 21
1.0
 12
0.0
 22
0.0
 13
0.0
 23
0.0
 14
0.5
 24
0.5
 15
0.5
 25
0.5
 16
1.0
 26
0.0
 36
0.0
 17
0.0
 27
0.0
 37
0.0
 40
1319.735116
 41
0.013455
 42
50.0
 43
667.9688169999999
 44
-667.9688169999999
 50
0.0
 51
0.0
 71
     0
 72
   100
 73
     1
 74
     3
 75
     0
 76
     0
 77
     0
 78
     0
281
     0
 65
     1
110
0.0
120
0.0
130
0.0
111
1.0
121
0.0
131
0.0
112
0.0
122
1.0
132
0.0
 79
     0
146
0.0
  0
VPORT
  5
2A0
330
8
100
AcDbSymbolTableRecord
100
AcDbViewportTableRecord
  2
L3
 70
     0
 10
0.0
 20
0.5
 11
1.0
 21
1.0
 12
274.480324
 22
233.489894
 13
0.0
 23
0.0
 14
0.5
 24
0.5
 15
0.5
 25
0.5
 16
0.0
 26
0.0
 36
1.0
 17
0.0
 27
0.0
 37
0.0
 40
207.433333
 41
0.085602
 42
50.0
 43
360.510644
 44
-360.510644
 50
0.0
 51
0.0
 71
     0
 72
   100
 73
     1
 74
     3
 75
     0
 76
     0
 77
     0
 78
     0
281
     0
 65
     1
110
0.0
120
0.0
130
0.0
111
1.0
121
0.0
131
0.0
112
0.0
122
1.0
132
0.0
 79
     0
146
0.0
  0
VPORT
  5
2A1
330
8
100
AcDbSymbolTableRecord
100
AcDbViewportTableRecord
  2
L3
 70
     0
 10
0.0
 20
0.0
 11
1.0
 21
0.5
 12
0.0
 22
0.0
 13
0.0
 23
0.0
 14
0.5
 24
0.5
 15
0.5
 25
0.5
 16
0.0
 26
-1.0
 36
0.0
 17
0.0
 27
0.0
 37
0.0
 40
1319.735116
 41
0.013455
 42
50.0
 43
679.920199
 44
-679.920199
 50
0.0
 51
0.0
 71
     0
 72
   100
 73
     1
 74
     3
 75
     0
 76
     0
 77
     0
 78
     0
281
     0
 65
     1
110
0.0
120
0.0
130
0.0
111
1.0
121
0.0
131
0.0
112
0.0
122
1.0
132
0.0
 79
     0
146
0.0
  0
VPORT
  5
2A2
330
8
100
AcDbSymbolTableRecord
100
AcDbViewportTableRecord
  2
L4
 70
     0
 10
0.0
 20
0.5
 11
0.5
 21
1.0
 12
274.480324
 22
233.489894
 13
0.0
 23
0.0
 14
0.5
 24
0.5
 15
0.5
 25
0.5
 16
0.0
 26
0.0
 36
1.0
 17
0.0
 27
0.0
 37
0.0
 40
207.433333
 41
0.085602
 42
50.0
 43
360.510644
 44
-360.510644
 50
0.0
 51
0.0
 71
     0
 72
   100
 73
     1
 74
     3
 75
     0
 76
     0
 77
     0
 78
     0
281
     0
 65
     1
110
0.0
120
0.0
130
0.0
111
1.0
121
0.0
131
0.0
112
0.0
122
1.0
132
0.0
 79
     0
146
0.0
  0
VPORT
  5
2A3
330
8
100
AcDbSymbolTableRecord
100
AcDbViewportTableRecord
  2
L4
 70
     0
 10
0.0
 20
0.0
 11
0.5
 21
0.5
 12
0.0
 22
0.0
 13
0.0
 23
0.0
 14
0.5
 24
0.5
 15
0.5
 25
0.5
 16
0.0
 26
-1.0
 36
0.0
 17
0.0
 27
0.0
 37
0.0
 40
1319.735116
 41
0.013455
 42
50.0
 43
679.920199
 44
-679.920199
 50
0.0
 51
0.0
 71
     0
 72
   100
 73
     1
 74
     3
 75
     0
 76
     0
 77
     0
 78
     0
281
     0
 65
     1
110
0.0
120
0.0
130
0.0
111
1.0
121
0.0
131
0.0
112
0.0
122
1.0
132
0.0
 79
     0
146
0.0
  0
VPORT
  5
2A4
330
8
100
AcDbSymbolTableRecord
100
AcDbViewportTableRecord
  2
L4
 70
     0
 10
0.5
 20
0.0
 11
1.0
 21
0.5
 12
0.0
 22
0.0
 13
0.0
 23
0.0
 14
0.5
 24
0.5
 15
0.5
 25
0.5
 16
1.0
 26
0.0
 36
0.0
 17
0.0
 27
0.0
 37
0.0
 40
1319.735116
 41
0.013455
 42
50.0
 43
667.9688169999999
 44
-667.9688169999999
 50
0.0
 51
0.0
 71
     0
 72
   100
 73
     1
 74
     3
 75
     0
 76
     0
 77
     0
 78
     0
281
     0
 65
     1
110
0.0
120
0.0
130
0.0
111
1.0
121
0.0
131
0.0
112
0.0
122
1.0
132
0.0
 79
     0
146
0.0
  0
VPORT
  5
2A5
330
8
100
AcDbSymbolTableRecord
100
AcDbViewportTableRecord
  2
L4
 70
     0
 10
0.5
 20
0.5
 11
1.0
 21
1.0
 12
0.0
 22
0.0
 13
0.0
 23
0.0
 14
0.5
 24
0.5
 15
0.5
 25
0.5
 16
0.5773502691896259
 26
-0.5773502691896259
 36
0.5773502691896259
 17
0.0
 27
0.0
 37
0.0
 40
1296.074958
 41
0.0137
 42
50.0
 43
675.1032679999999
 44
-675.1032679999999
 50
0.0
 51
0.0
 71
     0
 72
   100
 73
     1
 74
     3
 75
     0
 76
     0
 77
     0
 78
     0
281
     0
 65
     1
110
0.0
120
0.0
130
0.0
111
1.0
121
0.0
131
0.0
112
0.0
122
1.0
132
0.0
 79
     0
146
0.0
  0
VPORT
  5
2A6
330
8
100
AcDbSymbolTableRecord
100
AcDbViewportTableRecord
  2
L6
 70
     0
 10
0.0
 20
0.5
 11
0.333333
 21
1.0
 12
0.0
 22
0.0
 13
0.0
 23
0.0
 14
0.5
 24
0.5
 15
0.5
 25
0.5
 16
0.7188730927569434
 26
-0.5850486126764433
 36
0.3754192287502549
 17
0.0
 27
0.0
 37
0.0
 40
1367.812327
 41
0.012982
 42
50.0
 43
708.2012429999999
 44
-708.2012429999999
 50
0.0
 51
0.0
 71
     0
 72
   100
 73
     1
 74
     3
 75
     0
 76
     0
 77
     0
 78
     0
281
     0
 65
     1
110
0.0
120
0.0
130
0.0
111
1.0
121
0.0
131
0.0
112
0.0
122
1.0
132
0.0
 79
     0
146
0.0
  0
VPORT
  5
2A7
330
8
100
AcDbSymbolTableRecord
100
AcDbViewportTableRecord
  2
L6
 70
     0
 10
0.0
 20
0.0
 11
0.333333
 21
0.5
 12
0.0
 22
0.0
 13
0.0
 23
0.0
 14
0.5
 24
0.5
 15
0.5
 25
0.5
 16
-1.0
 26
0.0
 36
0.0
 17
0.0
 27
0.0
 37
0.0
 40
1319.735116
 41
0.013455
 42
50.0
 43
667.9688169999999
 44
-667.9688169999999
 50
0.0
 51
0.0
 71
     0
 72
   100
 73
     1
 74
     3
 75
     0
 76
     0
 77
     0
 78
     0
281
     0
 65
     1
110
0.0
120
0.0
130
0.0
111
1.0
121
0.0
131
0.0
112
0.0
122
1.0
132
0.0
 79
     0
146
0.0
  0
VPORT
  5
2A8
330
8
100
AcDbSymbolTableRecord
100
AcDbViewportTableRecord
  2
L6
 70
     0
 10
0.333333
 20
0.5
 11
0.666667
 21
1.0
 12
274.480324
 22
233.489894
 13
0.0
 23
0.0
 14
0.5
 24
0.5
 15
0.5
 25
0.5
 16
0.0
 26
0.0
 36
1.0
 17
0.0
 27
0.0
 37
0.0
 40
207.433333
 41
0.085602
 42
50.0
 43
360.510644
 44
-360.510644
 50
0.0
 51
0.0
 71
     0
 72
   100
 73
     1
 74
     3
 75
     0
 76
     0
 77
     0
 78
     0
281
     0
 65
     1
110
0.0
120
0.0
130
0.0
111
1.0
121
0.0
131
0.0
112
0.0
122
1.0
132
0.0
 79
     0
146
0.0
  0
VPORT
  5
2A9
330
8
100
AcDbSymbolTableRecord
100
AcDbViewportTableRecord
  2
L6
 70
     0
 10
0.333333
 20
0.0
 11
0.666667
 21
0.5
 12
0.0
 22
0.0
 13
0.0
 23
0.0
 14
0.5
 24
0.5
 15
0.5
 25
0.5
 16
0.0
 26
-1.0
 36
0.0
 17
0.0
 27
0.0
 37
0.0
 40
1319.735116
 41
0.013455
 42
50.0
 43
679.920199
 44
-679.920199
 50
0.0
 51
0.0
 71
     0
 72
   100
 73
     1
 74
     3
 75
     0
 76
     0
 77
     0
 78
     0
281
     0
 65
     1
110
0.0
120
0.0
130
0.0
111
1.0
121
0.0
131
0.0
112
0.0
122
1.0
132
0.0
 79
     0
146
0.0
  0
VPORT
  5
2AA
330
8
100
AcDbSymbolTableRecord
100
AcDbViewportTableRecord
  2
L6
 70
     0
 10
0.666667
 20
0.5
 11
1.0
 21
1.0
 12
0.0
 22
0.0
 13
0.0
 23
0.0
 14
0.5
 24
0.5
 15
0.5
 25
0.5
 16
0.5773502691896259
 26
-0.5773502691896259
 36
0.5773502691896259
 17
0.0
 27
0.0
 37
0.0
 40
1296.074958
 41
0.0137
 42
50.0
 43
675.1032679999999
 44
-675.1032679999999
 50
0.0
 51
0.0
 71
     0
 72
   100
 73
     1
 74
     3
 75
     0
 76
     0
 77
     0
 78
     0
281
     0
 65
     1
110
0.0
120
0.0
130
0.0
111
1.0
121
0.0
131
0.0
112
0.0
122
1.0
132
0.0
 79
     0
146
0.0
  0
VPORT
  5
2AB
330
8
100
AcDbSymbolTableRecord
100
AcDbViewportTableRecord
  2
L6
 70
     0
 10
0.666667
 20
0.0
 11
1.0
 21
0.5
 12
0.0
 22
0.0
 13
0.0
 23
0.0
 14
0.5
 24
0.5
 15
0.5
 25
0.5
 16
1.0
 26
0.0
 36
0.0
 17
0.0
 27
0.0
 37
0.0
 40
1319.735116
 41
0.013455
 42
50.0
 43
667.9688169999999
 44
-667.9688169999999
 50
0.0
 51
0.0
 71
     0
 72
   100
 73
     1
 74
     3
 75
     0
 76
     0
 77
     0
 78
     0
281
     0
 65
     1
110
0.0
120
0.0
130
0.0
111
1.0
121
0.0
131
0.0
112
0.0
122
1.0
132
0.0
 79
     0
146
0.0
  0
ENDTAB
  0
TABLE
  2
LTYPE
  5
5
330
0
100
AcDbSymbolTable
 70
     7
  0
LTYPE
  5
14
330
5
100
AcDbSymbolTableRecord
100
AcDbLinetypeTableRecord
  2
ByBlock
 70
     0
  3

 72
    65
 73
     0
 40
0.0
  0
LTYPE
  5
15
330
5
100
AcDbSymbolTableRecord
100
AcDbLinetypeTableRecord
  2
ByLayer
 70
     0
  3

 72
    65
 73
     0
 40
0.0
  0
LTYPE
  5
16
330
5
100
AcDbSymbolTableRecord
100
AcDbLinetypeTableRecord
  2
Continuous
 70
     0
  3
Solid line
 72
    65
 73
     0
 40
0.0
  0
LTYPE
  5
6E
330
5
100
AcDbSymbolTableRecord
100
AcDbLinetypeTableRecord
  2
CENTER
 70
     0
  3
____ _ ____ _ ____ _ ____
 72
    65
 73
     4
 40
47.4
 49
22.0
 74
     4
 75
     0
340
0
 46
0.0
 50
0.0
 44
0.0
 45
0.0
 49
-8.5
 74
     4
 75
     0
340
0
 46
0.0
 50
0.0
 44
0.0
 45
0.0
 49
8.5
 74
     4
 75
     0
340
0
 46
0.0
 50
0.0
 44
0.0
 45
0.0
 49
-8.5
 74
     4
 75
     0
340
0
 46
0.0
 50
0.0
 44
0.0
 45
0.0
  0
LTYPE
  5
6F
330
5
100
AcDbSymbolTableRecord
100
AcDbLinetypeTableRecord
  2
DASHDOT
 70
     0
  3
_._._._._._._._._._._._._._._._.
 72
    65
 73
     4
 40
70.0
 49
31.0
 74
     4
 75
     0
340
0
 46
0.0
 50
0.0
 44
0.0
 45
0.0
 49
-13.0
 74
     4
 75
     0
340
0
 46
0.0
 50
0.0
 44
0.0
 45
0.0
 49
13.0
 74
     4
 75
     0
340
0
 46
0.0
 50
0.0
 44
0.0
 45
0.0
 49
-13.0
 74
     4
 75
     0
340
0
 46
0.0
 50
0.0
 44
0.0
 45
0.0
  0
LTYPE
  5
70
330
5
100
AcDbSymbolTableRecord
100
AcDbLinetypeTableRecord
  2
DASHED
 70
     0
  3
__ __ __ __ __ __ __ __ __
 72
    65
 73
     2
 40
25.72
 49
12.86
 74
     4
 75
     0
340
0
 46
0.0
 50
0.0
 44
0.0
 45
0.0
 49
-12.86
 74
     4
 75
     0
340
0
 46
0.0
 50
0.0
 44
0.0
 45
0.0
  0
LTYPE
  5
71
330
5
100
AcDbSymbolTableRecord
100
AcDbLinetypeTableRecord
  2
DOT
 70
     0
  3
.........................
 72
    65
 73
     2
 40
10.0
 49
0.0
 74
     4
 75
     0
340
0
 46
0.0
 50
0.0
 44
0.0
 45
0.0
 49
-10.0
 74
     4
 75
     0
340
0
 46
0.0
 50
0.0
 44
0.0
 45
0.0
  0
LTYPE
  5
72
330
5
100
AcDbSymbolTableRecord
100
AcDbLinetypeTableRecord
  2
PHANTOM
 70
     0
  3
____ _ _ ____ _ _ _____ _ _ ____
 72
    65
 73
     6
 40
50.5
 49
18.0
 74
     4
 75
     0
340
0
 46
0.0
 50
0.0
 44
0.0
 45
0.0
 49
-6.5
 74
     4
 75
     0
340
0
 46
0.0
 50
0.0
 44
0.0
 45
0.0
 49
6.5
 74
     4
 75
     0
340
0
 46
0.0
 50
0.0
 44
0.0
 45
0.0
 49
-6.5
 74
     4
 75
     0
340
0
 46
0.0
 50
0.0
 44
0.0
 45
0.0
 49
6.5
 74
     4
 75
     0
340
0
 46
0.0
 50
0.0
 44
0.0
 45
0.0
 49
-6.5
 74
     4
 75
     0
340
0
 46
0.0
 50
0.0
 44
0.0
 45
0.0
  0
LTYPE
  5
33B
330
5
100
AcDbSymbolTableRecord
100
AcDbLinetypeTableRecord
  2
CENTER2
 70
     0
  3
Center (.5x) ___ _ ___ _ ___ _ ___ _ ___ _ ___
 72
    65
 73
     4
 40
1.125
 49
0.75
 74
     0
 49
-0.125
 74
     0
 49
0.125
 74
     0
 49
-0.125
 74
     0
  0
ENDTAB
  0
TABLE
  2
LAYER
  5
2
330
0
100
AcDbSymbolTable
 70
    22
  0
LAYER
  5
10
102
{ACAD_XDICTIONARY
360
346
102
}
330
2
100
AcDbSymbolTableRecord
100
AcDbLayerTableRecord
  2
0
 70
     0
 62
     7
  6
Continuous
370
    -3
390
F
  0
LAYER
  5
1F7
330
2
100
AcDbSymbolTableRecord
100
AcDbLayerTableRecord
  2
Defpoints
 70
     0
 62
     7
  6
Continuous
290
     0
370
    -3
390
F
  0
LAYER
  5
338
102
{ACAD_XDICTIONARY
360
348
102
}
330
2
100
AcDbSymbolTableRecord
100
AcDbLayerTableRecord
  2
1
 70
     0
 62
     4
  6
Continuous
370
    -3
390
F
  0
LAYER
  5
339
102
{ACAD_XDICTIONARY
360
34A
102
}
330
2
100
AcDbSymbolTableRecord
100
AcDbLayerTableRecord
  2
2
 70
     0
 62
     7
  6
Continuous
370
    -3
390
F
  0
LAYER
  5
33A
102
{ACAD_XDICTIONARY
360
34C
102
}
330
2
100
AcDbSymbolTableRecord
100
AcDbLayerTableRecord
  2
4
 70
     0
 62
     2
  6
CENTER2
370
    -3
390
F
  0
LAYER
  5
33C
102
{ACAD_XDICTIONARY
360
34E
102
}
330
2
100
AcDbSymbolTableRecord
100
AcDbLayerTableRecord
  2
SK1
 70
     0
 62
     4
  6
Continuous
370
    -3
390
F
  0
LAYER
  5
33D
102
{ACAD_XDICTIONARY
360
350
102
}
330
2
100
AcDbSymbolTableRecord
100
AcDbLayerTableRecord
  2
SK2
 70
     0
 62
     7
  6
Continuous
370
    -3
390
F
  0
LAYER
  5
33F
102
{ACAD_XDICTIONARY
360
352
102
}
330
2
100
AcDbSymbolTableRecord
100
AcDbLayerTableRecord
  2
SK4
 70
     0
 62
     2
  6
CENTER2
370
    -3
390
F
  0
LAYER
  5
340
102
{ACAD_XDICTIONARY
360
354
102
}
330
2
100
AcDbSymbolTableRecord
100
AcDbLayerTableRecord
  2
SK6
 70
     0
 62
     5
  6
Continuous
370
    -3
390
F
  0
LAYER
  5
341
102
{ACAD_XDICTIONARY
360
356
102
}
330
2
100
AcDbSymbolTableRecord
100
AcDbLayerTableRecord
  2
CUT
 70
     0
 62
     1
  6
Continuous
370
    -3
390
F
  0
LAYER
  5
342
102
{ACAD_XDICTIONARY
360
358
102
}
330
2
100
AcDbSymbolTableRecord
100
AcDbLayerTableRecord
  2
NOCUT
 70
     0
 62
     7
  6
Continuous
370
    -3
390
F
  0
LAYER
  5
343
102
{ACAD_XDICTIONARY
360
35A
102
}
330
2
100
AcDbSymbolTableRecord
100
AcDbLayerTableRecord
  2
80
 70
     0
 62
     6
  6
Continuous
370
    -3
390
F
  0
LAYER
  5
344
102
{ACAD_XDICTIONARY
360
35C
102
}
330
2
100
AcDbSymbolTableRecord
100
AcDbLayerTableRecord
  2
81
 70
     0
 62
     3
  6
Continuous
370
    -3
390
F
  0
ENDTAB
  0
TABLE
  2
STYLE
  5
3
330
0
100
AcDbSymbolTable
 70
     3
  0
STYLE
  5
11
330
3
100
AcDbSymbolTableRecord
100
AcDbTextStyleTableRecord
  2
Standard
 70
     0
 40
0.0
 41
1.0
 50
0.0
 71
     0
 42
0.2
  3
txt
  4

  0
STYLE
  5
1EB
330
3
100
AcDbSymbolTableRecord
100
AcDbTextStyleTableRecord
  2
cesky
 70
     0
 40
0.0
 41
1.0
 50
0.0
 71
     0
 42
0.2
  3
simplex.shx
  4

  0
STYLE
  5
1EC
330
3
100
AcDbSymbolTableRecord
100
AcDbTextStyleTableRecord
  2
DWGDirectTextStyle
 70
     0
 40
0.0
 41
1.0
 50
0.0
 71
     0
 42
0.2
  3
simplex
  4

  0
ENDTAB
  0
TABLE
  2
VIEW
  5
6
330
0
100
AcDbSymbolTable
 70
     0
  0
ENDTAB
  0
TABLE
  2
UCS
  5
7
330
0
100
AcDbSymbolTable
 70
     0
  0
ENDTAB
  0
TABLE
  2
APPID
  5
9
330
0
100
AcDbSymbolTable
 70
     7
  0
APPID
  5
12
330
9
100
AcDbSymbolTableRecord
100
AcDbRegAppTableRecord
  2
ACAD
 70
     0
  0
APPID
  5
1F3
330
9
100
AcDbSymbolTableRecord
100
AcDbRegAppTableRecord
  2
ACAD_DSTYLE_DIMBREAK
 70
     0
  0
APPID
  5
2AC
330
9
100
AcDbSymbolTableRecord
100
AcDbRegAppTableRecord
  2
ACAD_DSTYLE_DIM_LINETYPE
 70
     0
  0
APPID
  5
2AD
330
9
100
AcDbSymbolTableRecord
100
AcDbRegAppTableRecord
  2
ACAD_DSTYLE_DIM_EXT1_LINETYPE
 70
     0
  0
APPID
  5
2AE
330
9
100
AcDbSymbolTableRecord
100
AcDbRegAppTableRecord
  2
ACAD_DSTYLE_DIM_EXT2_LINETYPE
 70
     0
  0
APPID
  5
2EE
330
9
100
AcDbSymbolTableRecord
100
AcDbRegAppTableRecord
  2
ACAD_MLEADERVER
 70
     0
  0
APPID
  5
361
330
9
100
AcDbSymbolTableRecord
100
AcDbRegAppTableRecord
  2
ACAD_NAV_VCDISPLAY
 70
     0
  0
ENDTAB
  0
TABLE
  2
DIMSTYLE
  5
A
330
0
100
AcDbSymbolTable
 70
     1
100
AcDbDimStyleTable
 71
     0
  0
DIMSTYLE
105
27
330
A
100
AcDbSymbolTableRecord
100
AcDbDimStyleTableRecord
  2
Standard
 70
     0
340
11
1001
ACAD_DSTYLE_DIMBREAK
1070
   391
1040
6.349999999999999
  0
ENDTAB
  0
TABLE
  2
BLOCK_RECORD
  5
1
330
0
100
AcDbSymbolTable
 70
    16
  0
BLOCK_RECORD
  5
1F
102
{ACAD_XDICTIONARY
360
2FE
102
}
330
1
100
AcDbSymbolTableRecord
100
AcDbBlockTableRecord
  2
*Model_Space
340
22
  0
BLOCK_RECORD
  5
1B
330
1
100
AcDbSymbolTableRecord
100
AcDbBlockTableRecord
  2
*Paper_Space
340
1E
  0
BLOCK_RECORD
  5
23
330
1
100
AcDbSymbolTableRecord
100
AcDbBlockTableRecord
  2
*Paper_Space0
340
26
  0
BLOCK_RECORD
  5
1EE
330
1
100
AcDbSymbolTableRecord
100
AcDbBlockTableRecord
  2
ASSORTED_DRAFT1
340
0
  0
BLOCK_RECORD
  5
1F8
330
1
100
AcDbSymbolTableRecord
100
AcDbBlockTableRecord
  2
*D2
340
0
  0
BLOCK_RECORD
  5
204
330
1
100
AcDbSymbolTableRecord
100
AcDbBlockTableRecord
  2
_U0
340
0
  0
BLOCK_RECORD
  5
210
330
1
100
AcDbSymbolTableRecord
100
AcDbBlockTableRecord
  2
*D4
340
0
  0
BLOCK_RECORD
  5
21B
330
1
100
AcDbSymbolTableRecord
100
AcDbBlockTableRecord
  2
_U1
340
0
  0
BLOCK_RECORD
  5
226
330
1
100
AcDbSymbolTableRecord
100
AcDbBlockTableRecord
  2
*D6
340
0
  0
BLOCK_RECORD
  5
232
330
1
100
AcDbSymbolTableRecord
100
AcDbBlockTableRecord
  2
_U2
340
0
  0
BLOCK_RECORD
  5
23F
330
1
100
AcDbSymbolTableRecord
100
AcDbBlockTableRecord
  2
*D8
340
0
  0
BLOCK_RECORD
  5
24B
330
1
100
AcDbSymbolTableRecord
100
AcDbBlockTableRecord
  2
_U3
340
0
  0
BLOCK_RECORD
  5
258
330
1
100
AcDbSymbolTableRecord
100
AcDbBlockTableRecord
  2
*D10
340
0
  0
BLOCK_RECORD
  5
264
330
1
100
AcDbSymbolTableRecord
100
AcDbBlockTableRecord
  2
_U4
340
0
  0
BLOCK_RECORD
  5
270
330
1
100
AcDbSymbolTableRecord
100
AcDbBlockTableRecord
  2
*D12
340
0
  0
BLOCK_RECORD
  5
27C
330
1
100
AcDbSymbolTableRecord
100
AcDbBlockTableRecord
  2
_U5
340
0
  0
BLOCK_RECORD
  5
288
330
1
100
AcDbSymbolTableRecord
100
AcDbBlockTableRecord
  2
*D14
340
0
  0
BLOCK_RECORD
  5
294
330
1
100
AcDbSymbolTableRecord
100
AcDbBlockTableRecord
  2
_U6
340
0
  0
ENDTAB
  0
ENDSEC
  0
SECTION
  2
BLOCKS
  0
BLOCK
  5
20
330
1F
100
AcDbEntity
  8
0
100
AcDbBlockBegin
  2
*Model_Space
 70
     0
 10
0.0
 20
0.0
 30
0.0
  3
*Model_Space
  1

  0
ENDBLK
  5
21
330
1F
100
AcDbEntity
  8
0
100
AcDbBlockEnd
  0
BLOCK
  5
1C
330
1B
100
AcDbEntity
 67
     1
  8
0
100
AcDbBlockBegin
  2
*Paper_Space
 70
     0
 10
0.0
 20
0.0
 30
0.0
  3
*Paper_Space
  1

  0
ENDBLK
  5
1D
330
1B
100
AcDbEntity
 67
     1
  8
0
100
AcDbBlockEnd
  0
BLOCK
  5
24
330
23
100
AcDbEntity
 67
     1
  8
0
100
AcDbBlockBegin
  2
*Paper_Space0
 70
     0
 10
0.0
 20
0.0
 30
0.0
  3
*Paper_Space0
  1

  0
ENDBLK
  5
25
330
23
100
AcDbEntity
 67
     1
  8
0
100
AcDbBlockEnd
  0
BLOCK
  5
1F1
330
1EE
100
AcDbEntity
  8
0
100
AcDbBlockBegin
  2
ASSORTED_DRAFT1
 70
     0
 10
0.0
 20
0.0
 30
0.0
  3
ASSORTED_DRAFT1
  1

  0
SOLID
  5
1EF
330
1EE
100
AcDbEntity
  8
0
 62
   254
370
    13
100
AcDbTrace
 10
270.185042
 20
161.705668
 30
0.0
 11
265.185046
 21
160.597195
 31
0.0
 12
265.1850379999999
 22
162.814141
 32
0.0
 13
270.185042
 23
161.705668
 33
0.0
  0
ENDBLK
  5
1F2
330
1EE
100
AcDbEntity
  8
0
100
AcDbBlockEnd
  0
BLOCK
  5
1F9
330
1F8
100
AcDbEntity
  8
0
100
AcDbBlockBegin
  2
*D2
 70
     1
 10
0.0
 20
0.0
 30
0.0
  3
*D2
  1

  0
LINE
  5
1FB
330
1F8
100
AcDbEntity
  8
0
 62
   254
370
    -2
100
AcDbLine
 10
345.904842
 20
296.657994
 30
0.0
 11
345.904842
 21
328.5109970000001
 31
0.0
  0
LINE
  5
1FC
330
1F8
100
AcDbEntity
  8
0
 62
   254
370
    -2
100
AcDbLine
 10
274.404842
 20
288.907994
 30
0.0
 11
274.404842
 21
328.5109970000001
 31
0.0
  0
LINE
  5
1FD
330
1F8
100
AcDbEntity
  8
0
 62
   254
370
    -2
100
AcDbLine
 10
342.404842
 20
327.510997
 30
0.0
 11
277.904842
 21
327.510997
 31
0.0
  0
SOLID
  5
1FE
330
1F8
100
AcDbEntity
  8
0
 62
   254
100
AcDbTrace
 10
342.404842
 20
326.927663
 30
0.0
 11
342.404842
 21
328.09433
 31
0.0
 12
345.904842
 22
327.510997
 32
0.0
 13
345.904842
 23
327.510997
 33
0.0
  0
SOLID
  5
1FF
330
1F8
100
AcDbEntity
  8
0
 62
   254
100
AcDbTrace
 10
277.904842
 20
328.09433
 30
0.0
 11
277.904842
 21
326.927663
 31
0.0
 12
274.404842
 22
327.510997
 32
0.0
 13
274.404842
 23
327.510997
 33
0.0
  0
MTEXT
  5
200
330
1F8
100
AcDbEntity
  8
0
 62
   254
370
    13
100
AcDbMText
 10
310.154842
 20
332.7609970000001
 30
0.0
 40
3.5
 41
0.0
 71
     5
 72
     1
  1
\A1;71.5
  7
cesky
 73
     1
 44
1.0
  0
POINT
  5
201
330
1F8
100
AcDbEntity
  8
Defpoints
 62
     0
100
AcDbPoint
 10
345.904842
 20
296.657994
 30
0.0
  0
POINT
  5
202
330
1F8
100
AcDbEntity
  8
Defpoints
 62
     0
100
AcDbPoint
 10
274.404842
 20
288.907994
 30
0.0
  0
POINT
  5
203
330
1F8
100
AcDbEntity
  8
Defpoints
 62
     0
100
AcDbPoint
 10
274.404842
 20
327.510997
 30
0.0
  0
ENDBLK
  5
1FA
330
1F8
100
AcDbEntity
  8
0
100
AcDbBlockEnd
  0
BLOCK
  5
20B
330
204
100
AcDbEntity
  8
0
100
AcDbBlockBegin
  2
_U0
 70
     0
 10
0.0
 20
0.0
 30
0.0
  3
_U0
  1

  0
ENDBLK
  5
20C
330
204
100
AcDbEntity
  8
0
100
AcDbBlockEnd
  0
BLOCK
  5
211
330
210
100
AcDbEntity
  8
0
100
AcDbBlockBegin
  2
*D4
 70
     1
 10
0.0
 20
0.0
 30
0.0
  3
*D4
  1

  0
LINE
  5
213
330
210
100
AcDbEntity
  8
0
 62
   254
370
    -2
100
AcDbLine
 10
295.039618
 20
288.907994
 30
0.0
 11
361.303218
 21
288.907994
 31
0.0
  0
LINE
  5
214
330
210
100
AcDbEntity
  8
0
 62
   254
370
    -2
100
AcDbLine
 10
330.83929
 20
296.657994
 30
0.0
 11
361.303218
 21
296.657994
 31
0.0
  0
LINE
  5
215
330
210
100
AcDbEntity
  8
0
 62
   254
370
    -2
100
AcDbLine
 10
360.303218
 20
300.157994
 30
0.0
 11
360.303218
 21
303.657994
 31
0.0
  0
SOLID
  5
216
330
210
100
AcDbEntity
  8
0
 62
   254
100
AcDbTrace
 10
359.719885
 20
300.157994
 30
0.0
 11
360.886551
 21
300.157994
 31
0.0
 12
360.303218
 22
296.657994
 32
0.0
 13
360.303218
 23
296.657994
 33
0.0
  0
MTEXT
  5
217
330
210
100
AcDbEntity
  8
0
 62
   254
370
    13
100
AcDbMText
 10
355.053218
 20
273.407994
 30
0.0
 40
3.5
 41
0.0
 71
     5
 72
     1
  1
\A1;15.5
  7
cesky
 11
0.0
 21
1.0
 31
0.0
 73
     1
 44
1.0
  0
POINT
  5
218
330
210
100
AcDbEntity
  8
Defpoints
 62
     0
100
AcDbPoint
 10
295.039618
 20
288.907994
 30
0.0
  0
POINT
  5
219
330
210
100
AcDbEntity
  8
Defpoints
 62
     0
100
AcDbPoint
 10
330.83929
 20
296.657994
 30
0.0
  0
POINT
  5
21A
330
210
100
AcDbEntity
  8
Defpoints
 62
     0
100
AcDbPoint
 10
360.303218
 20
296.657994
 30
0.0
  0
ENDBLK
  5
212
330
210
100
AcDbEntity
  8
0
100
AcDbBlockEnd
  0
BLOCK
  5
221
330
21B
100
AcDbEntity
  8
0
100
AcDbBlockBegin
  2
_U1
 70
     0
 10
0.0
 20
0.0
 30
0.0
  3
_U1
  1

  0
ENDBLK
  5
222
330
21B
100
AcDbEntity
  8
0
100
AcDbBlockEnd
  0
BLOCK
  5
227
330
226
100
AcDbEntity
  8
0
100
AcDbBlockBegin
  2
*D6
 70
     1
 10
0.0
 20
0.0
 30
0.0
  3
*D6
  1

  0
LINE
  5
229
330
226
100
AcDbEntity
  8
0
 62
    95
370
    -2
100
AcDbLine
 10
220.404842
 20
301.407994
 30
0.0
 11
205.304739
 21
301.407994
 31
0.0
  0
LINE
  5
22A
330
226
100
AcDbEntity
  8
0
 62
    95
370
    -2
100
AcDbLine
 10
220.404842
 20
276.407994
 30
0.0
 11
205.304739
 21
276.407994
 31
0.0
  0
LINE
  5
22B
330
226
100
AcDbEntity
  8
0
 62
    95
370
    -2
100
AcDbLine
 10
206.304739
 20
297.907994
 30
0.0
 11
206.304739
 21
279.907994
 31
0.0
  0
SOLID
  5
22C
330
226
100
AcDbEntity
  8
0
 62
    95
100
AcDbTrace
 10
206.888073
 20
297.907994
 30
0.0
 11
205.721406
 21
297.907994
 31
0.0
 12
206.304739
 22
301.407994
 32
0.0
 13
206.304739
 23
301.407994
 33
0.0
  0
SOLID
  5
22D
330
226
100
AcDbEntity
  8
0
 62
    95
100
AcDbTrace
 10
205.721406
 20
279.907994
 30
0.0
 11
206.888073
 21
279.907994
 31
0.0
 12
206.304739
 22
276.407994
 32
0.0
 13
206.304739
 23
276.407994
 33
0.0
  0
MTEXT
  5
22E
330
226
100
AcDbEntity
  8
0
 62
    95
370
    13
100
AcDbMText
 10
201.054739
 20
288.907994
 30
0.0
 40
3.5
 41
0.0
 71
     5
 72
     1
  1
\A1;25
  7
cesky
 11
0.0
 21
1.0
 31
0.0
 73
     1
 44
1.0
  0
POINT
  5
22F
330
226
100
AcDbEntity
  8
Defpoints
 62
     0
100
AcDbPoint
 10
220.404842
 20
301.407994
 30
0.0
  0
POINT
  5
230
330
226
100
AcDbEntity
  8
Defpoints
 62
     0
100
AcDbPoint
 10
220.404842
 20
276.407994
 30
0.0
  0
POINT
  5
231
330
226
100
AcDbEntity
  8
Defpoints
 62
     0
100
AcDbPoint
 10
206.304739
 20
276.407994
 30
0.0
  0
ENDBLK
  5
228
330
226
100
AcDbEntity
  8
0
100
AcDbBlockEnd
  0
BLOCK
  5
23A
330
232
100
AcDbEntity
  8
0
100
AcDbBlockBegin
  2
_U2
 70
     0
 10
0.0
 20
0.0
 30
0.0
  3
_U2
  1

  0
ENDBLK
  5
23B
330
232
100
AcDbEntity
  8
0
100
AcDbBlockEnd
  0
BLOCK
  5
240
330
23F
100
AcDbEntity
  8
0
100
AcDbBlockBegin
  2
*D8
 70
     1
 10
0.0
 20
0.0
 30
0.0
  3
*D8
  1

  0
LINE
  5
242
330
23F
100
AcDbEntity
  8
0
 62
    95
370
    -2
100
AcDbLine
 10
277.154842
 20
306.407994
 30
0.0
 11
192.519918
 21
306.407994
 31
0.0
  0
LINE
  5
243
330
23F
100
AcDbEntity
  8
0
 62
    95
370
    -2
100
AcDbLine
 10
277.154842
 20
271.407994
 30
0.0
 11
192.519918
 21
271.407994
 31
0.0
  0
LINE
  5
244
330
23F
100
AcDbEntity
  8
0
 62
    95
370
    -2
100
AcDbLine
 10
193.519918
 20
302.907994
 30
0.0
 11
193.519918
 21
274.907994
 31
0.0
  0
SOLID
  5
245
330
23F
100
AcDbEntity
  8
0
 62
    95
100
AcDbTrace
 10
194.103251
 20
302.907994
 30
0.0
 11
192.936584
 21
302.907994
 31
0.0
 12
193.519918
 22
306.407994
 32
0.0
 13
193.519918
 23
306.407994
 33
0.0
  0
SOLID
  5
246
330
23F
100
AcDbEntity
  8
0
 62
    95
100
AcDbTrace
 10
192.936584
 20
274.907994
 30
0.0
 11
194.103251
 21
274.907994
 31
0.0
 12
193.519918
 22
271.407994
 32
0.0
 13
193.519918
 23
271.407994
 33
0.0
  0
MTEXT
  5
247
330
23F
100
AcDbEntity
  8
0
 62
    95
370
    13
100
AcDbMText
 10
188.269918
 20
288.907994
 30
0.0
 40
3.5
 41
0.0
 71
     5
 72
     1
  1
\A1;35
  7
cesky
 11
0.0
 21
1.0
 31
0.0
 73
     1
 44
1.0
  0
POINT
  5
248
330
23F
100
AcDbEntity
  8
Defpoints
 62
     0
100
AcDbPoint
 10
277.154842
 20
306.407994
 30
0.0
  0
POINT
  5
249
330
23F
100
AcDbEntity
  8
Defpoints
 62
     0
100
AcDbPoint
 10
277.154842
 20
271.407994
 30
0.0
  0
POINT
  5
24A
330
23F
100
AcDbEntity
  8
Defpoints
 62
     0
100
AcDbPoint
 10
193.519918
 20
271.407994
 30
0.0
  0
ENDBLK
  5
241
330
23F
100
AcDbEntity
  8
0
100
AcDbBlockEnd
  0
BLOCK
  5
253
330
24B
100
AcDbEntity
  8
0
100
AcDbBlockBegin
  2
_U3
 70
     0
 10
0.0
 20
0.0
 30
0.0
  3
_U3
  1

  0
ENDBLK
  5
254
330
24B
100
AcDbEntity
  8
0
100
AcDbBlockEnd
  0
BLOCK
  5
259
330
258
100
AcDbEntity
  8
0
100
AcDbBlockBegin
  2
*D10
 70
     1
 10
0.0
 20
0.0
 30
0.0
  3
*D10
  1

  0
LINE
  5
25B
330
258
100
AcDbEntity
  8
0
 62
   254
370
    -2
100
AcDbLine
 10
345.904842
 20
298.657994
 30
0.0
 11
345.904842
 21
341.687968
 31
0.0
  0
LINE
  5
25C
330
258
100
AcDbEntity
  8
0
 62
   254
370
    -2
100
AcDbLine
 10
218.404842
 20
299.407994
 30
0.0
 11
218.404842
 21
341.687968
 31
0.0
  0
LINE
  5
25D
330
258
100
AcDbEntity
  8
0
 62
   254
370
    -2
100
AcDbLine
 10
342.404842
 20
340.687968
 30
0.0
 11
221.904842
 21
340.687968
 31
0.0
  0
SOLID
  5
25E
330
258
100
AcDbEntity
  8
0
 62
   254
100
AcDbTrace
 10
342.404842
 20
340.104634
 30
0.0
 11
342.404842
 21
341.271301
 31
0.0
 12
345.904842
 22
340.687968
 32
0.0
 13
345.904842
 23
340.687968
 33
0.0
  0
SOLID
  5
25F
330
258
100
AcDbEntity
  8
0
 62
   254
100
AcDbTrace
 10
221.904842
 20
341.271301
 30
0.0
 11
221.904842
 21
340.104634
 31
0.0
 12
218.404842
 22
340.687968
 32
0.0
 13
218.404842
 23
340.687968
 33
0.0
  0
MTEXT
  5
260
330
258
100
AcDbEntity
  8
0
 62
   254
370
    13
100
AcDbMText
 10
282.154842
 20
345.937968
 30
0.0
 40
3.5
 41
0.0
 71
     5
 72
     1
  1
\A1;127.5
  7
cesky
 73
     1
 44
1.0
  0
POINT
  5
261
330
258
100
AcDbEntity
  8
Defpoints
 62
     0
100
AcDbPoint
 10
345.904842
 20
298.657994
 30
0.0
  0
POINT
  5
262
330
258
100
AcDbEntity
  8
Defpoints
 62
     0
100
AcDbPoint
 10
218.404842
 20
299.407994
 30
0.0
  0
POINT
  5
263
330
258
100
AcDbEntity
  8
Defpoints
 62
     0
100
AcDbPoint
 10
218.404842
 20
340.687968
 30
0.0
  0
ENDBLK
  5
25A
330
258
100
AcDbEntity
  8
0
100
AcDbBlockEnd
  0
BLOCK
  5
26B
330
264
100
AcDbEntity
  8
0
100
AcDbBlockBegin
  2
_U4
 70
     0
 10
0.0
 20
0.0
 30
0.0
  3
_U4
  1

  0
ENDBLK
  5
26C
330
264
100
AcDbEntity
  8
0
100
AcDbBlockEnd
  0
BLOCK
  5
271
330
270
100
AcDbEntity
  8
0
100
AcDbBlockBegin
  2
*D12
 70
     1
 10
0.0
 20
0.0
 30
0.0
  3
*D12
  1

  0
LINE
  5
273
330
270
100
AcDbEntity
  8
0
 62
   254
370
    -2
100
AcDbLine
 10
274.404842
 20
288.907994
 30
0.0
 11
274.404842
 21
328.5109970000001
 31
0.0
  0
LINE
  5
274
330
270
100
AcDbEntity
  8
0
 62
   254
370
    -2
100
AcDbLine
 10
218.404842
 20
294.157994
 30
0.0
 11
218.404842
 21
328.5109970000001
 31
0.0
  0
LINE
  5
275
330
270
100
AcDbEntity
  8
0
 62
   254
370
    -2
100
AcDbLine
 10
270.904842
 20
327.510997
 30
0.0
 11
221.904842
 21
327.510997
 31
0.0
  0
SOLID
  5
276
330
270
100
AcDbEntity
  8
0
 62
   254
100
AcDbTrace
 10
270.904842
 20
326.927663
 30
0.0
 11
270.904842
 21
328.09433
 31
0.0
 12
274.404842
 22
327.510997
 32
0.0
 13
274.404842
 23
327.510997
 33
0.0
  0
SOLID
  5
277
330
270
100
AcDbEntity
  8
0
 62
   254
100
AcDbTrace
 10
221.904842
 20
328.09433
 30
0.0
 11
221.904842
 21
326.927663
 31
0.0
 12
218.404842
 22
327.510997
 32
0.0
 13
218.404842
 23
327.510997
 33
0.0
  0
MTEXT
  5
278
330
270
100
AcDbEntity
  8
0
 62
   254
370
    13
100
AcDbMText
 10
246.404842
 20
332.7609970000001
 30
0.0
 40
3.5
 41
0.0
 71
     5
 72
     1
  1
\A1;56
  7
cesky
 73
     1
 44
1.0
  0
POINT
  5
279
330
270
100
AcDbEntity
  8
Defpoints
 62
     0
100
AcDbPoint
 10
274.404842
 20
288.907994
 30
0.0
  0
POINT
  5
27A
330
270
100
AcDbEntity
  8
Defpoints
 62
     0
100
AcDbPoint
 10
218.404842
 20
294.157994
 30
0.0
  0
POINT
  5
27B
330
270
100
AcDbEntity
  8
Defpoints
 62
     0
100
AcDbPoint
 10
218.404842
 20
327.510997
 30
0.0
  0
ENDBLK
  5
272
330
270
100
AcDbEntity
  8
0
100
AcDbBlockEnd
  0
BLOCK
  5
283
330
27C
100
AcDbEntity
  8
0
100
AcDbBlockBegin
  2
_U5
 70
     0
 10
0.0
 20
0.0
 30
0.0
  3
_U5
  1

  0
ENDBLK
  5
284
330
27C
100
AcDbEntity
  8
0
100
AcDbBlockEnd
  0
BLOCK
  5
289
330
288
100
AcDbEntity
  8
0
100
AcDbBlockBegin
  2
*D14
 70
     1
 10
0.0
 20
0.0
 30
0.0
  3
*D14
  1

  0
LINE
  5
28B
330
288
100
AcDbEntity
  8
0
 62
   254
370
    -2
100
AcDbLine
 10
345.904842
 20
296.657994
 30
0.0
 11
345.904842
 21
316.914763
 31
0.0
  0
LINE
  5
28C
330
288
100
AcDbEntity
  8
0
 62
   254
370
    -2
100
AcDbLine
 10
294.726474
 20
296.323076
 30
0.0
 11
294.726474
 21
316.914763
 31
0.0
  0
LINE
  5
28D
330
288
100
AcDbEntity
  8
0
 62
   254
370
    -2
100
AcDbLine
 10
342.404842
 20
315.914763
 30
0.0
 11
298.226474
 21
315.914763
 31
0.0
  0
SOLID
  5
28E
330
288
100
AcDbEntity
  8
0
 62
   254
100
AcDbTrace
 10
342.404842
 20
315.331429
 30
0.0
 11
342.404842
 21
316.498096
 31
0.0
 12
345.904842
 22
315.914763
 32
0.0
 13
345.904842
 23
315.914763
 33
0.0
  0
SOLID
  5
28F
330
288
100
AcDbEntity
  8
0
 62
   254
100
AcDbTrace
 10
298.226474
 20
316.498096
 30
0.0
 11
298.226474
 21
315.331429
 31
0.0
 12
294.726474
 22
315.914763
 32
0.0
 13
294.726474
 23
315.914763
 33
0.0
  0
MTEXT
  5
290
330
288
100
AcDbEntity
  8
0
 62
   254
370
    13
100
AcDbMText
 10
320.315658
 20
321.164763
 30
0.0
 40
3.5
 41
0.0
 71
     5
 72
     1
  1
\A1;51.2
  7
cesky
 73
     1
 44
1.0
  0
POINT
  5
291
330
288
100
AcDbEntity
  8
Defpoints
 62
     0
100
AcDbPoint
 10
345.904842
 20
296.657994
 30
0.0
  0
POINT
  5
292
330
288
100
AcDbEntity
  8
Defpoints
 62
     0
100
AcDbPoint
 10
294.726474
 20
296.323076
 30
0.0
  0
POINT
  5
293
330
288
100
AcDbEntity
  8
Defpoints
 62
     0
100
AcDbPoint
 10
294.726474
 20
315.914763
 30
0.0
  0
ENDBLK
  5
28A
330
288
100
AcDbEntity
  8
0
100
AcDbBlockEnd
  0
BLOCK
  5
29B
330
294
100
AcDbEntity
  8
0
100
AcDbBlockBegin
  2
_U6
 70
     0
 10
0.0
 20
0.0
 30
0.0
  3
_U6
  1

  0
ENDBLK
  5
29C
330
294
100
AcDbEntity
  8
0
100
AcDbBlockEnd
  0
ENDSEC
  0
SECTION
  2
ENTITIES
  0
POINT
  5
73
102
{ACAD_REACTORS
330
345
102
}
330
1F
100
AcDbEntity
  8
80
100
AcDbPoint
 10
274.404842
 20
288.907994
 30
0.0
  0
POINT
  5
76
330
1F
100
AcDbEntity
  8
4
 60
     1
100
AcDbPoint
 10
295.039618
 20
288.907994
 30
0.0
  0
POINT
  5
78
330
1F
100
AcDbEntity
  8
4
 60
     1
100
AcDbPoint
 10
345.1207720000001
 20
288.907994
 30
0.0
  0
POINT
  5
79
330
1F
100
AcDbEntity
  8
SK4
 60
     1
100
AcDbPoint
 10
220.404842
 20
288.907994
 30
0.0
  0
POINT
  5
7A
330
1F
100
AcDbEntity
  8
SK4
 60
     1
100
AcDbPoint
 10
274.404842
 20
288.907994
 30
0.0
  0
POINT
  5
7B
330
1F
100
AcDbEntity
  8
SK6
 60
     1
100
AcDbPoint
 10
274.404842
 20
288.907994
 30
0.0
  0
POINT
  5
7C
330
1F
100
AcDbEntity
  8
SK6
 60
     1
100
AcDbPoint
 10
294.726474
 20
296.323076
 30
0.0
  0
LINE
  5
7D
330
1F
100
AcDbEntity
  8
1
100
AcDbLine
 10
341.776743
 20
294.055299
 30
0.0
 11
341.758117
 21
293.994864
 31
0.0
  0
LINE
  5
7F
330
1F
100
AcDbEntity
  8
1
100
AcDbLine
 10
341.845314
 20
293.983053
 30
0.0
 11
341.826099
 21
293.920709
 31
0.0
  0
LINE
  5
80
330
1F
100
AcDbEntity
  8
1
100
AcDbLine
 10
341.836816
 20
293.07086
 30
0.0
 11
341.817961
 21
293.009685
 31
0.0
  0
LINE
  5
81
330
1F
100
AcDbEntity
  8
1
100
AcDbLine
 10
343.101751
 20
292.755371
 30
0.0
 11
343.120914
 21
292.817546
 31
0.0
  0
LINE
  5
82
330
1F
100
AcDbEntity
  8
1
100
AcDbLine
 10
343.138892
 20
292.714594
 30
0.0
 11
343.157708
 21
292.775642
 31
0.0
  0
LINE
  5
87
330
1F
100
AcDbEntity
  8
1
100
AcDbLine
 10
342.200343
 20
292.712024
 30
0.0
 11
342.219459
 21
292.774048
 31
0.0
  0
LINE
  5
88
330
1F
100
AcDbEntity
  8
1
100
AcDbLine
 10
342.683797
 20
292.685553
 30
0.0
 11
342.664598
 21
292.623259
 31
0.0
  0
LINE
  5
89
330
1F
100
AcDbEntity
  8
1
100
AcDbLine
 10
341.838356
 20
293.652287
 30
0.0
 11
341.858157
 21
293.716532
 31
0.0
  0
LINE
  5
8A
330
1F
100
AcDbEntity
  8
1
100
AcDbLine
 10
343.421051
 20
293.4423549999999
 30
0.0
 11
343.40125
 21
293.378109
 31
0.0
  0
LINE
  5
8B
330
1F
100
AcDbEntity
  8
1
100
AcDbLine
 10
342.575008
 20
294.4071370000001
 30
0.0
 11
342.594206
 21
294.469424
 31
0.0
  0
LINE
  5
8C
330
1F
100
AcDbEntity
  8
1
100
AcDbLine
 10
343.054416
 20
294.367534
 30
0.0
 11
343.039263
 21
294.318372
 31
0.0
  0
LINE
  5
8D
330
1F
100
AcDbEntity
  8
1
100
AcDbLine
 10
345.904842
 20
288.275032
 30
0.0
 11
345.846922
 21
284.9568109999999
 31
0.0
  0
LINE
  5
8F
330
1F
100
AcDbEntity
  8
1
100
AcDbLine
 10
345.479576
 20
285.062146
 30
0.0
 11
345.846922
 21
284.9568109999999
 31
0.0
  0
LINE
  5
90
330
1F
100
AcDbEntity
  8
1
100
AcDbLine
 10
345.846922
 20
284.9568109999999
 30
0.0
 11
345.432193
 21
284.266587
 31
0.0
  0
LINE
  5
91
330
1F
100
AcDbEntity
  8
1
100
AcDbLine
 10
345.534043
 20
288.182581
 30
0.0
 11
345.904842
 21
288.275032
 31
0.0
  0
LINE
  5
92
330
1F
100
AcDbEntity
  8
1
100
AcDbLine
 10
345.501209
 20
289.003204
 30
0.0
 11
345.904842
 21
288.275032
 31
0.0
  0
LINE
  5
93
330
1F
100
AcDbEntity
  8
1
100
AcDbLine
 10
345.226313
 20
288.737741
 30
0.0
 11
345.501209
 21
289.003204
 31
0.0
  0
LINE
  5
94
330
1F
100
AcDbEntity
  8
1
100
AcDbLine
 10
345.056456
 20
289.270439
 30
0.0
 11
345.501209
 21
289.003204
 31
0.0
  0
LINE
  5
95
330
1F
100
AcDbEntity
  8
1
100
AcDbLine
 10
345.16673
 20
284.541483
 30
0.0
 11
345.432193
 21
284.266587
 31
0.0
  0
LINE
  5
96
330
1F
100
AcDbEntity
  8
1
100
AcDbLine
 10
345.432193
 20
284.266587
 30
0.0
 11
344.784074
 21
283.907328
 31
0.0
  0
LINE
  5
97
330
1F
100
AcDbEntity
  8
1
100
AcDbLine
 10
344.622024
 20
284.191823
 30
0.0
 11
344.677708
 21
283.9684870000001
 31
0.0
  0
LINE
  5
98
330
1F
100
AcDbEntity
  8
1
100
AcDbLine
 10
345.479576
 20
285.062146
 30
0.0
 11
345.16673
 21
284.541483
 31
0.0
  0
LINE
  5
99
330
1F
100
AcDbEntity
  8
1
100
AcDbLine
 10
345.479576
 20
285.062146
 30
0.0
 11
344.898897
 21
285.228653
 31
0.0
  0
LINE
  5
9A
330
1F
100
AcDbEntity
  8
1
100
AcDbLine
 10
345.534043
 20
288.182581
 30
0.0
 11
345.479576
 21
285.062146
 31
0.0
  0
LINE
  5
9B
330
1F
100
AcDbEntity
  8
1
100
AcDbLine
 10
344.829324
 20
288.976276
 30
0.0
 11
345.226313
 21
288.737741
 31
0.0
  0
LINE
  5
9C
330
1F
100
AcDbEntity
  8
1
100
AcDbLine
 10
344.7471
 20
284.976021
 30
0.0
 11
344.898897
 21
285.228653
 31
0.0
  0
LINE
  5
9D
330
1F
100
AcDbEntity
  8
1
100
AcDbLine
 10
344.898897
 20
285.228653
 30
0.0
 11
344.947907
 21
288.036441
 31
0.0
  0
LINE
  5
9E
330
1F
100
AcDbEntity
  8
1
100
AcDbLine
 10
345.16673
 20
284.541483
 30
0.0
 11
344.7471
 21
284.976021
 31
0.0
  0
LINE
  5
9F
330
1F
100
AcDbEntity
  8
1
100
AcDbLine
 10
344.701113
 20
284.95053
 30
0.0
 11
344.7471
 21
284.976021
 31
0.0
  0
LINE
  5
A0
330
1F
100
AcDbEntity
  8
1
100
AcDbLine
 10
345.16673
 20
284.541483
 30
0.0
 11
344.626074
 21
284.241792
 31
0.0
  0
LINE
  5
A1
330
1F
100
AcDbEntity
  8
1
100
AcDbLine
 10
345.226313
 20
288.737741
 30
0.0
 11
344.826307
 21
288.351459
 31
0.0
  0
LINE
  5
A2
330
1F
100
AcDbEntity
  8
1
100
AcDbLine
 10
344.947907
 20
288.036441
 30
0.0
 11
344.826302
 21
288.255823
 31
0.0
  0
LINE
  5
A3
330
1F
100
AcDbEntity
  8
1
100
AcDbLine
 10
345.534043
 20
288.182581
 30
0.0
 11
344.947907
 21
288.036441
 31
0.0
  0
LINE
  5
A4
330
1F
100
AcDbEntity
  8
1
100
AcDbLine
 10
345.226313
 20
288.737741
 30
0.0
 11
345.534043
 21
288.182581
 31
0.0
  0
LINE
  5
A5
330
1F
100
AcDbEntity
  8
1
100
AcDbLine
 10
339.924585
 20
296.157994
 30
0.0
 11
332.103584
 21
296.157994
 31
0.0
  0
LINE
  5
A7
330
1F
100
AcDbEntity
  8
1
100
AcDbLine
 10
345.39257
 20
296.1550299999999
 30
0.0
 11
345.605855
 21
291.38504
 31
0.0
  0
LINE
  5
A8
330
1F
100
AcDbEntity
  8
1
100
AcDbLine
 10
340.212148
 20
296.315835
 30
0.0
 11
344.988855
 21
296.524097
 31
0.0
  0
LINE
  5
A9
330
1F
100
AcDbEntity
  8
1
100
AcDbLine
 10
340.056229
 20
291.143079
 30
0.0
 11
339.842944
 21
295.913069
 31
0.0
  0
LINE
  5
AA
330
1F
100
AcDbEntity
  8
1
100
AcDbLine
 10
345.236651
 20
290.982274
 30
0.0
 11
340.459944
 21
290.774012
 31
0.0
  0
LINE
  5
AB
330
1F
100
AcDbEntity
  8
1
100
AcDbLine
 10
340.791397
 20
295.405281
 30
0.0
 11
344.487152
 21
295.566415
 31
0.0
  0
LINE
  5
AC
330
1F
100
AcDbEntity
  8
1
100
AcDbLine
 10
340.956416
 20
291.714723
 30
0.0
 11
340.791397
 21
295.405281
 31
0.0
  0
LINE
  5
AD
330
1F
100
AcDbEntity
  8
1
100
AcDbLine
 10
344.652171
 20
291.875856
 30
0.0
 11
340.956416
 21
291.714723
 31
0.0
  0
LINE
  5
AE
330
1F
100
AcDbEntity
  8
1
100
AcDbLine
 10
344.487152
 20
295.566415
 30
0.0
 11
344.652171
 21
291.875856
 31
0.0
  0
LINE
  5
AF
330
1F
100
AcDbEntity
  8
1
100
AcDbLine
 10
341.860542
 20
293.028969
 30
0.0
 11
341.879687
 21
293.091086
 31
0.0
  0
LINE
  5
B0
330
1F
100
AcDbEntity
  8
1
100
AcDbLine
 10
343.508079
 20
293.546855
 30
0.0
 11
343.527314
 21
293.609263
 31
0.0
  0
LINE
  5
B1
330
1F
100
AcDbEntity
  8
1
100
AcDbLine
 10
344.980962
 20
290.276193
 30
0.0
 11
342.991466
 21
290.189452
 31
0.0
  0
LINE
  5
B2
330
1F
100
AcDbEntity
  8
1
100
AcDbLine
 10
289.654842
 20
295.742139
 30
0.0
 11
289.654842
 21
286.505919
 31
0.0
  0
LINE
  5
B3
330
1F
100
AcDbEntity
  8
1
100
AcDbLine
 10
345.049359
 20
290.785392
 30
0.0
 11
341.271962
 21
290.620699
 31
0.0
  0
LINE
  5
B4
330
1F
100
AcDbEntity
  8
1
100
AcDbLine
 10
341.266731
 20
290.603728
 30
0.0
 11
341.271962
 21
290.620699
 31
0.0
  0
LINE
  5
B5
330
1F
100
AcDbEntity
  8
1
100
AcDbLine
 10
341.266731
 20
290.603728
 30
0.0
 11
345.007374
 21
290.766818
 31
0.0
  0
LINE
  5
B6
330
1F
100
AcDbEntity
  8
1
100
AcDbLine
 10
344.868463
 20
289.164197
 30
0.0
 11
344.976656
 21
289.162309
 31
0.0
  0
LINE
  5
B7
330
1F
100
AcDbEntity
  8
1
100
AcDbLine
 10
344.976656
 20
289.162309
 30
0.0
 11
345.13268
 21
289.373738
 31
0.0
  0
LINE
  5
B8
330
1F
100
AcDbEntity
  8
1
100
AcDbLine
 10
345.13268
 20
289.612348
 30
0.0
 11
345.13268
 21
289.373738
 31
0.0
  0
LINE
  5
B9
330
1F
100
AcDbEntity
  8
1
100
AcDbLine
 10
345.13268
 20
289.612348
 30
0.0
 11
345.174842
 21
289.611613
 31
0.0
  0
LINE
  5
BA
330
1F
100
AcDbEntity
  8
1
100
AcDbLine
 10
345.174842
 20
290.979555
 30
0.0
 11
345.174842
 21
289.611613
 31
0.0
  0
LINE
  5
BB
330
1F
100
AcDbEntity
  8
1
100
AcDbLine
 10
345.049359
 20
290.785392
 30
0.0
 11
345.04786
 21
290.974041
 31
0.0
  0
LINE
  5
BC
330
1F
100
AcDbEntity
  8
1
100
AcDbLine
 10
345.049359
 20
290.785392
 30
0.0
 11
345.007374
 21
290.766818
 31
0.0
  0
LINE
  5
BD
330
1F
100
AcDbEntity
  8
1
100
AcDbLine
 10
345.00888
 20
290.577228
 30
0.0
 11
345.007374
 21
290.766818
 31
0.0
  0
LINE
  5
BE
330
1F
100
AcDbEntity
  8
1
100
AcDbLine
 10
344.16557
 20
289.903385
 30
0.0
 11
344.969276
 21
290.25894
 31
0.0
  0
LINE
  5
BF
330
1F
100
AcDbEntity
  8
1
100
AcDbLine
 10
344.233688
 20
286.129994
 30
0.0
 11
344.311207
 21
286.129994
 31
0.0
  0
LINE
  5
C0
330
1F
100
AcDbEntity
  8
1
100
AcDbLine
 10
344.700197
 20
281.657994
 30
0.0
 11
344.8969990000001
 21
283.512224
 31
0.0
  0
LINE
  5
C1
330
1F
100
AcDbEntity
  8
1
100
AcDbLine
 10
344.8969990000001
 20
283.512224
 30
0.0
 11
344.854909
 21
283.512897
 31
0.0
  0
LINE
  5
C2
330
1F
100
AcDbEntity
  8
1
100
AcDbLine
 10
344.88019
 20
283.751098
 30
0.0
 11
344.854909
 21
283.512897
 31
0.0
  0
LINE
  5
C3
330
1F
100
AcDbEntity
  8
1
100
AcDbLine
 10
344.88019
 20
283.751098
 30
0.0
 11
344.7471220000001
 21
283.967374
 31
0.0
  0
LINE
  5
C4
330
1F
100
AcDbEntity
  8
1
100
AcDbLine
 10
344.7471220000001
 20
283.967374
 30
0.0
 11
344.639112
 21
283.969103
 31
0.0
  0
LINE
  5
C5
330
1F
100
AcDbEntity
  8
1
100
AcDbLine
 10
344.628813
 20
284.269306
 30
0.0
 11
344.826301
 21
286.129994
 31
0.0
  0
LINE
  5
C6
330
1F
100
AcDbEntity
  8
1
100
AcDbLine
 10
344.619012
 20
286.129994
 30
0.0
 11
344.826301
 21
286.129994
 31
0.0
  0
LINE
  5
C7
330
1F
100
AcDbEntity
  8
1
100
AcDbLine
 10
344.826301
 20
286.129994
 30
0.0
 11
344.826301
 21
288.864887
 31
0.0
  0
LINE
  5
C8
330
1F
100
AcDbEntity
  8
1
100
AcDbLine
 10
339.865563
 20
296.043404
 30
0.0
 11
339.86425
 21
296.073754
 31
0.0
  0
LINE
  5
C9
330
1F
100
AcDbEntity
  8
SK1
100
AcDbLine
 10
220.404842
 20
301.407994
 30
0.0
 11
220.404842
 21
276.407994
 31
0.0
  0
LINE
  5
CA
330
1F
100
AcDbEntity
  8
SK1
100
AcDbLine
 10
218.404842
 20
299.407994
 30
0.0
 11
218.404842
 21
278.407994
 31
0.0
  0
LINE
  5
CB
330
1F
100
AcDbEntity
  8
1
100
AcDbLine
 10
339.805026
 20
292.25449
 30
0.0
 11
339.799795
 21
292.237518
 31
0.0
  0
LINE
  5
CC
330
1F
100
AcDbEntity
  8
1
100
AcDbLine
 10
339.805026
 20
292.25449
 30
0.0
 11
339.6397970000001
 21
296.07435
 31
0.0
  0
LINE
  5
CD
330
1F
100
AcDbEntity
  8
1
100
AcDbLine
 10
339.636079
 20
296.022397
 30
0.0
 11
339.799795
 21
292.237518
 31
0.0
  0
LINE
  5
CE
330
1F
100
AcDbEntity
  8
1
100
AcDbLine
 10
344.700197
 20
281.657994
 30
0.0
 11
335.557517
 21
281.657994
 31
0.0
  0
LINE
  5
CF
330
1F
100
AcDbEntity
  8
1
100
AcDbLine
 10
274.904842
 20
271.407994
 30
0.0
 11
274.904842
 21
288.907994
 31
0.0
  0
LINE
  5
D0
330
1F
100
AcDbEntity
  8
1
100
AcDbLine
 10
274.904842
 20
288.907994
 30
0.0
 11
274.904842
 21
306.407994
 31
0.0
  0
LINE
  5
D1
330
1F
100
AcDbEntity
  8
1
100
AcDbLine
 10
279.404842
 20
271.407994
 30
0.0
 11
279.404842
 21
273.968111
 31
0.0
  0
LINE
  5
D2
330
1F
100
AcDbEntity
  8
1
100
AcDbLine
 10
279.404842
 20
306.407994
 30
0.0
 11
279.404842
 21
279.336892
 31
0.0
  0
LINE
  5
D3
330
1F
100
AcDbEntity
  8
1
100
AcDbLine
 10
341.178143
 20
294.015278
 30
0.0
 11
341.16516
 21
293.973154
 31
0.0
  0
LINE
  5
D4
330
1F
100
AcDbEntity
  8
1
100
AcDbLine
 10
344.079864
 20
293.074822
 30
0.0
 11
344.092847
 21
293.116947
 31
0.0
  0
LINE
  5
D5
330
1F
100
AcDbEntity
  8
SK1
100
AcDbLine
 10
218.404842
 20
278.407994
 30
0.0
 11
220.404842
 21
276.407994
 31
0.0
  0
LINE
  5
D6
330
1F
100
AcDbEntity
  8
SK1
100
AcDbLine
 10
220.404842
 20
301.407994
 30
0.0
 11
218.404842
 21
299.407994
 31
0.0
  0
LINE
  5
D7
330
1F
100
AcDbEntity
  8
1
100
AcDbLine
 10
279.404842
 20
271.407994
 30
0.0
 11
285.84723
 21
277.850382
 31
0.0
  0
LINE
  5
D8
330
1F
100
AcDbEntity
  8
1
100
AcDbLine
 10
285.84723
 20
299.965605
 30
0.0
 11
279.404842
 21
306.407994
 31
0.0
  0
LINE
  5
D9
330
1F
100
AcDbEntity
  8
SK1
100
AcDbLine
 10
274.404842
 20
301.407994
 30
0.0
 11
220.404842
 21
301.407994
 31
0.0
  0
LINE
  5
DA
330
1F
100
AcDbEntity
  8
1
100
AcDbLine
 10
274.904842
 20
271.407994
 30
0.0
 11
274.404842
 21
271.907994
 31
0.0
  0
LINE
  5
DB
330
1F
100
AcDbEntity
  8
1
100
AcDbLine
 10
274.404842
 20
305.907994
 30
0.0
 11
274.904842
 21
306.407994
 31
0.0
  0
LINE
  5
DC
330
1F
100
AcDbEntity
  8
1
100
AcDbLine
 10
279.404842
 20
306.407994
 30
0.0
 11
274.904842
 21
306.407994
 31
0.0
  0
LINE
  5
DD
330
1F
100
AcDbEntity
  8
80
100
AcDbLine
 10
275.404416
 20
288.907994
 30
0.0
 11
273.405268
 21
288.907994
 31
0.0
  0
LINE
  5
DE
330
1F
100
AcDbEntity
  8
1
100
AcDbLine
 10
274.404842
 20
305.907994
 30
0.0
 11
274.404842
 21
288.907994
 31
0.0
  0
LINE
  5
DF
330
1F
100
AcDbEntity
  8
1
100
AcDbLine
 10
274.404842
 20
288.907994
 30
0.0
 11
274.404842
 21
271.907994
 31
0.0
  0
LINE
  5
E0
330
1F
100
AcDbEntity
  8
80
100
AcDbLine
 10
274.404842
 20
287.90842
 30
0.0
 11
274.404842
 21
289.907567
 31
0.0
  0
LINE
  5
E1
330
1F
100
AcDbEntity
  8
81
100
AcDbLine
 10
345.904842
 20
298.657994
 30
0.0
 11
345.904842
 21
294.657994
 31
0.0
  0
LINE
  5
E2
330
1F
100
AcDbEntity
  8
81
100
AcDbLine
 10
343.904842
 20
296.657994
 30
0.0
 11
347.904842
 21
296.657994
 31
0.0
  0
LINE
  5
E3
330
1F
100
AcDbEntity
  8
SK1
100
AcDbLine
 10
220.404842
 20
276.407994
 30
0.0
 11
274.404842
 21
276.407994
 31
0.0
  0
LINE
  5
E4
330
1F
100
AcDbEntity
  8
1
100
AcDbLine
 10
274.904842
 20
271.407994
 30
0.0
 11
279.404842
 21
271.407994
 31
0.0
  0
LINE
  5
113
330
1F
100
AcDbEntity
  8
NOCUT
100
AcDbLine
 10
274.404842
 20
301.407994
 30
0.0
 11
220.404842
 21
301.407994
 31
0.0
  0
LINE
  5
114
330
1F
100
AcDbEntity
  8
NOCUT
100
AcDbLine
 10
274.404842
 20
301.407994
 30
0.0
 11
274.404842
 21
305.907994
 31
0.0
  0
LINE
  5
115
330
1F
100
AcDbEntity
  8
NOCUT
100
AcDbLine
 10
274.404842
 20
305.907994
 30
0.0
 11
274.904842
 21
306.407994
 31
0.0
  0
LINE
  5
116
330
1F
100
AcDbEntity
  8
NOCUT
100
AcDbLine
 10
279.404842
 20
306.407994
 30
0.0
 11
285.84723
 21
299.965605
 31
0.0
  0
LINE
  5
117
330
1F
100
AcDbEntity
  8
NOCUT
100
AcDbLine
 10
344.956636
 20
296.157994
 30
0.0
 11
345.174842
 21
291.201445
 31
0.0
  0
LINE
  5
118
330
1F
100
AcDbEntity
  8
NOCUT
100
AcDbLine
 10
345.174842
 20
291.201445
 30
0.0
 11
345.174842
 21
288.907994
 31
0.0
  0
LINE
  5
119
330
1F
100
AcDbEntity
  8
NOCUT
100
AcDbLine
 10
345.174842
 20
288.907994
 30
0.0
 11
218.404842
 21
288.907994
 31
0.0
  0
LINE
  5
11A
330
1F
100
AcDbEntity
  8
NOCUT
100
AcDbLine
 10
218.404842
 20
299.407994
 30
0.0
 11
218.404842
 21
288.907994
 31
0.0
  0
LINE
  5
11B
330
1F
100
AcDbEntity
  8
NOCUT
100
AcDbLine
 10
218.404842
 20
299.407994
 30
0.0
 11
220.404842
 21
301.407994
 31
0.0
  0
LINE
  5
11C
330
1F
100
AcDbEntity
  8
NOCUT
100
AcDbLine
 10
295.039618
 20
296.157994
 30
0.0
 11
344.956636
 21
296.157994
 31
0.0
  0
LINE
  5
11D
330
1F
100
AcDbEntity
  8
NOCUT
100
AcDbLine
 10
279.404842
 20
306.407994
 30
0.0
 11
274.904842
 21
306.407994
 31
0.0
  0
CIRCLE
  5
126
330
1F
100
AcDbEntity
  8
1
100
AcDbCircle
 10
343.000153
 20
286.771133
 30
0.0
 40
0.7
  0
ARC
  5
127
330
1F
100
AcDbEntity
  8
1
100
AcDbCircle
 10
295.039618
 20
268.657994
 30
0.0
 40
13.0
100
AcDbArc
 50
110.359295
 51
135.0
  0
ARC
  5
128
330
1F
100
AcDbEntity
  8
1
100
AcDbCircle
 10
295.039618
 20
309.157994
 30
0.0
 40
13.0
100
AcDbArc
 50
225.0
 51
233.543439
  0
ARC
  5
129
330
1F
100
AcDbEntity
  8
1
100
AcDbCircle
 10
343.000153
 20
286.771133
 30
0.0
 40
1.1
100
AcDbArc
 50
75.0
 51
345.0
  0
ARC
  5
138
330
1F
100
AcDbEntity
  8
NOCUT
100
AcDbCircle
 10
295.039618
 20
309.157994
 30
0.0
 40
13.0
100
AcDbArc
 50
225.0
 51
270.0
  0
ELLIPSE
  5
139
330
1F
100
AcDbEntity
  8
1
100
AcDbEllipse
 10
312.926579
 20
288.907953
 30
0.0
 11
162.3986944794153
 21
7.238900974969031
 31
0.0
210
0.0
220
0.0
230
1.0
 40
0.002486
 41
4.897845565715103
 42
4.905844505563113
  0
ELLIPSE
  5
13A
330
1F
100
AcDbEntity
  8
1
100
AcDbEllipse
 10
295.626496
 20
273.692144
 30
0.0
 11
-19.41780513279758
 21
1.810165537945963
 31
0.0
210
0.0
220
0.0
230
0.9999999999999998
 40
0.659701
 41
6.14233098215558
 42
6.200277136085753
  0
ELLIPSE
  5
13B
330
1F
100
AcDbEntity
  8
1
100
AcDbEllipse
 10
342.733989
 20
293.680169
 30
0.0
 11
1.530648770584677
 21
-0.4717564706416969
 31
0.0
210
0.0
220
0.0
230
1.0
 40
0.9982459999999997
 41
2.057817286929511
 42
3.287456170126513
  0
ELLIPSE
  5
13C
330
1F
100
AcDbEntity
  8
1
100
AcDbEllipse
 10
342.733989
 20
293.680169
 30
0.0
 11
1.530648770584677
 21
-0.4717564706416969
 31
0.0
210
0.0
220
0.0
230
1.0
 40
0.9982459999999997
 41
5.496486397289396
 42
6.283185307179585
  0
ELLIPSE
  5
13D
330
1F
100
AcDbEntity
  8
1
100
AcDbEllipse
 10
342.733989
 20
293.680169
 30
0.0
 11
1.530648770584677
 21
-0.4717564706416969
 31
0.0
210
0.0
220
0.0
230
1.0
 40
0.9982459999999997
 41
0.0
 42
1.083727041570857
  0
ELLIPSE
  5
13E
330
1F
100
AcDbEntity
  8
1
100
AcDbEllipse
 10
340.500049
 20
291.192462
 30
0.0
 11
0.7633832150823254
 21
0.8339145971110461
 31
0.0
210
0.0
220
0.0
230
1.0
 40
0.017942
 41
0.9105606123219589
 42
1.532929100974524
  0
ELLIPSE
  5
13F
330
1F
100
AcDbEntity
  8
1
100
AcDbEllipse
 10
342.724661
 20
293.649903
 30
0.0
 11
1.557443178832915
 21
-0.4800146914112424
 31
0.0
210
0.0
220
0.0
230
1.0
 40
0.9982459999999999
 41
1.913892982936075
 42
3.499415381311298
  0
ELLIPSE
  5
140
330
1F
100
AcDbEntity
  8
1
100
AcDbEllipse
 10
342.724661
 20
293.649903
 30
0.0
 11
1.557443178832915
 21
-0.4800146914112424
 31
0.0
210
0.0
220
0.0
230
1.0
 40
0.9982459999999999
 41
5.161416418428106
 42
6.283185307179585
  0
ELLIPSE
  5
141
330
1F
100
AcDbEntity
  8
1
100
AcDbEllipse
 10
342.724661
 20
293.649903
 30
0.0
 11
1.557443178832915
 21
-0.4800146914112424
 31
0.0
210
0.0
220
0.0
230
1.0
 40
0.9982459999999999
 41
0.0
 42
1.913893118417954
  0
ELLIPSE
  5
142
330
1F
100
AcDbEntity
  8
1
100
AcDbEllipse
 10
340.29343
 20
295.813378
 30
0.0
 11
0.8343780317635253
 21
-0.7638074530389113
 31
0.0
210
0.0
220
0.0
230
1.0
 40
0.037843
 41
0.9663482755167898
 42
1.588716763917998
  0
ELLIPSE
  5
143
330
1F
100
AcDbEntity
  8
1
100
AcDbEllipse
 10
344.920853
 20
296.015132
 30
0.0
 11
0.7633832157505628
 21
0.8339145978344991
 31
0.0
210
0.0
220
0.0
230
1.0
 40
0.017942
 41
1.532929101219153
 42
2.15529758936325
  0
ELLIPSE
  5
144
330
1F
100
AcDbEntity
  8
1
100
AcDbEllipse
 10
345.127472
 20
291.394215
 30
0.0
 11
0.8343780310231537
 21
-0.7638074523484815
 31
0.0
210
0.0
220
0.0
230
1.0
 40
0.037843
 41
1.588716763705249
 42
2.211085252625041
  0
ELLIPSE
  5
145
330
1F
100
AcDbEntity
  8
1
100
AcDbEllipse
 10
342.7217839999999
 20
293.640569
 30
0.0
 11
-1.648480180904098
 21
0.5080729211111216
 31
0.0
210
0.0
220
0.0
230
1.0
 40
0.9982459999999999
 41
0.0
 42
6.283185307179585
  0
ELLIPSE
  5
146
330
1F
100
AcDbEntity
  8
1
100
AcDbEllipse
 10
342.43158
 20
302.80736
 30
0.0
 11
-12.0888546599634
 21
3.725868088148224
 31
0.0
210
0.0
220
0.0
230
0.9999999999999998
 40
0.9982459999999999
 41
1.442234159491589
 42
1.794898109983411
  0
ELLIPSE
  5
147
330
1F
100
AcDbEntity
  8
1
100
AcDbEllipse
 10
342.635495
 20
293.566113
 30
0.0
 11
-1.457352043987681
 21
0.4491659157649041
 31
0.0
210
0.0
220
0.0
230
1.0
 40
0.9982459999999999
 41
3.141666695640184
 42
6.283161002260186
  0
ELLIPSE
  5
148
330
1F
100
AcDbEntity
  8
1
100
AcDbEllipse
 10
342.622512
 20
293.523988
 30
0.0
 11
1.457352043987681
 21
-0.4491659157649046
 31
0.0
210
0.0
220
0.0
230
1.0
 40
0.9982459999999999
 41
0.0
 42
6.283185307179585
  0
ELLIPSE
  5
149
330
1F
100
AcDbEntity
  8
1
100
AcDbEllipse
 10
343.477416
 20
293.164381
 30
0.0
 11
-0.0804880251332459
 21
0.0248069625086337
 31
0.0
210
0.0
220
0.0
230
0.9999999999999998
 40
0.9982459999999999
 41
0.551265930021768
 42
1.390294122199592
  0
ELLIPSE
  5
14A
330
1F
100
AcDbEntity
  8
1
100
AcDbEllipse
 10
343.399794
 20
293.015205
 30
0.0
 11
-0.080488025133246
 21
0.0248069625086337
 31
0.0
210
0.0
220
0.0
230
1.0
 40
0.9982459999999999
 41
3.169259808013218
 42
4.531886775789249
  0
ELLIPSE
  5
14B
330
1F
100
AcDbEntity
  8
1
100
AcDbEllipse
 10
343.064781
 20
293.10841
 30
0.0
 11
-0.4128001152130106
 21
0.1272278325216231
 31
0.0
210
0.0
220
0.0
230
1.0
 40
0.9982459999999999
 41
2.229322314377138
 42
3.169259808013287
  0
ELLIPSE
  5
14C
330
1F
100
AcDbEntity
  8
1
100
AcDbEllipse
 10
343.187278
 20
292.78337
 30
0.0
 11
-0.0804880251332458
 21
0.0248069625086336
 31
0.0
210
0.0
220
0.0
230
1.0
 40
0.9982459999999999
 41
0.8666953466013163
 42
2.22932231437734
  0
ELLIPSE
  5
14D
330
1F
100
AcDbEntity
  8
1
100
AcDbEllipse
 10
343.045321
 20
292.693008
 30
0.0
 11
-0.0804880251332458
 21
0.0248069625086336
 31
0.0
210
0.0
220
0.0
230
0.9999999999999998
 40
0.9982459999999999
 41
4.008288000190898
 42
4.84731619236871
  0
ELLIPSE
  5
14E
330
1F
100
AcDbEntity
  8
1
100
AcDbEllipse
 10
342.988711
 20
292.350516
 30
0.0
 11
-0.4128001152130105
 21
0.1272278325216231
 31
0.0
210
0.0
220
0.0
230
1.0
 40
0.9982459999999999
 41
4.847316192368672
 42
5.787253686004762
  0
ELLIPSE
  5
14F
330
1F
100
AcDbEntity
  8
1
100
AcDbEllipse
 10
342.745086
 20
292.598452
 30
0.0
 11
-0.0804880251332459
 21
0.0248069625086337
 31
0.0
210
0.0
220
0.0
230
0.9999999999999998
 40
0.9982459999999999
 41
5.78725368600485
 42
6.626281878182396
  0
ELLIPSE
  5
150
330
1F
100
AcDbEntity
  8
1
100
AcDbEllipse
 10
342.576831
 20
292.591116
 30
0.0
 11
-0.080488025133246
 21
0.0248069625086337
 31
0.0
210
0.0
220
0.0
230
1.0
 40
0.9982459999999999
 41
2.122062256816821
 42
3.484689224592723
  0
ELLIPSE
  5
151
330
1F
100
AcDbEntity
  8
1
100
AcDbEllipse
 10
342.4898720000001
 20
292.927348
 30
0.0
 11
-0.4128001152130106
 21
0.1272278325216231
 31
0.0
210
0.0
220
0.0
230
1.0
 40
0.9982459999999999
 41
1.182124763180611
 42
2.122062256816717
  0
ELLIPSE
  5
152
330
1F
100
AcDbEntity
  8
1
100
AcDbEllipse
 10
342.269324
 20
292.659175
 30
0.0
 11
-0.0804880251332458
 21
0.0248069625086336
 31
0.0
210
0.0
220
0.0
230
1.0
 40
0.9982459999999999
 41
6.102683102584191
 42
7.465310070359815
  0
ELLIPSE
  5
153
330
1F
100
AcDbEntity
  8
1
100
AcDbEllipse
 10
342.119855
 20
292.736831
 30
0.0
 11
-0.0804880251332458
 21
0.0248069625086336
 31
0.0
210
0.0
220
0.0
230
0.9999999999999998
 40
0.9982459999999999
 41
2.961090448994466
 42
3.800118641172122
  0
ELLIPSE
  5
154
330
1F
100
AcDbEntity
  8
1
100
AcDbEllipse
 10
341.794464
 20
292.614833
 30
0.0
 11
-0.4128001152130105
 21
0.1272278325216231
 31
0.0
210
0.0
220
0.0
230
1.0
 40
0.9982459999999999
 41
3.800118641172097
 42
4.740056134808207
  0
ELLIPSE
  5
155
330
1F
100
AcDbEntity
  8
1
100
AcDbEllipse
 10
341.887473
 20
292.949268
 30
0.0
 11
-0.0804880251332459
 21
0.0248069625086337
 31
0.0
210
0.0
220
0.0
230
0.9999999999999998
 40
0.9982459999999999
 41
4.74005613480815
 42
5.579084326985995
  0
ELLIPSE
  5
156
330
1F
100
AcDbEntity
  8
1
100
AcDbEllipse
 10
341.796839
 20
293.091109
 30
0.0
 11
-0.080488025133246
 21
0.0248069625086337
 31
0.0
210
0.0
220
0.0
230
1.0
 40
0.9982459999999999
 41
1.074864705620267
 42
2.437491673396138
  0
ELLIPSE
  5
157
330
1F
100
AcDbEntity
  8
1
100
AcDbEllipse
 10
342.044894
 20
293.334136
 30
0.0
 11
-0.4128001152130106
 21
0.1272278325216231
 31
0.0
210
0.0
220
0.0
230
1.0
 40
0.9982459999999999
 41
0.1349272119839969
 42
1.074864705620081
  0
ELLIPSE
  5
158
330
1F
100
AcDbEntity
  8
1
100
AcDbEllipse
 10
341.701849
 20
293.391002
 30
0.0
 11
-0.0804880251332458
 21
0.0248069625086336
 31
0.0
210
0.0
220
0.0
230
1.0
 40
0.9982459999999999
 41
5.055485551387762
 42
6.418112519163552
  0
ELLIPSE
  5
159
330
1F
100
AcDbEntity
  8
1
100
AcDbEllipse
 10
341.694337
 20
293.559021
 30
0.0
 11
-0.0804880251332458
 21
0.0248069625086336
 31
0.0
210
0.0
220
0.0
230
0.9999999999999998
 40
0.9982459999999999
 41
1.91389289779768
 42
2.752921089975665
  0
ELLIPSE
  5
15A
330
1F
100
AcDbEntity
  8
1
100
AcDbEllipse
 10
341.425556
 20
293.779514
 30
0.0
 11
-0.4128001152130105
 21
0.1272278325216231
 31
0.0
210
0.0
220
0.0
230
1.0
 40
0.9982459999999999
 41
2.752921089975503
 42
3.692858583611576
  0
ELLIPSE
  5
15B
330
1F
100
AcDbEntity
  8
1
100
AcDbEllipse
 10
341.76219
 20
293.866015
 30
0.0
 11
-0.0804880251332459
 21
0.0248069625086337
 31
0.0
210
0.0
220
0.0
230
0.9999999999999998
 40
0.9982459999999999
 41
3.692858583611632
 42
4.531886775789235
  0
ELLIPSE
  5
15C
330
1F
100
AcDbEntity
  8
1
100
AcDbEllipse
 10
341.839812
 20
294.015191
 30
0.0
 11
-0.080488025133246
 21
0.0248069625086337
 31
0.0
210
0.0
220
0.0
230
1.0
 40
0.9982459999999999
 41
0.027667154423461
 42
1.390294122199464
  0
ELLIPSE
  5
15D
330
1F
100
AcDbEntity
  8
1
100
AcDbEllipse
 10
342.174825
 20
293.921986
 30
0.0
 11
-0.4128001152130106
 21
0.1272278325216231
 31
0.0
210
0.0
220
0.0
230
1.0
 40
0.9982459999999999
 41
5.370914967967006
 42
6.310852461603081
  0
ELLIPSE
  5
15E
330
1F
100
AcDbEntity
  8
1
100
AcDbEllipse
 10
342.052328
 20
294.247026
 30
0.0
 11
-0.0804880251332458
 21
0.0248069625086336
 31
0.0
210
0.0
220
0.0
230
1.0
 40
0.9982459999999999
 41
4.008288000190888
 42
5.370914967966773
  0
ELLIPSE
  5
15F
330
1F
100
AcDbEntity
  8
1
100
AcDbEllipse
 10
342.1942850000001
 20
294.337388
 30
0.0
 11
-0.0804880251332458
 21
0.0248069625086336
 31
0.0
210
0.0
220
0.0
230
0.9999999999999998
 40
0.9982459999999999
 41
0.8666953466011426
 42
1.705723538778916
  0
ELLIPSE
  5
160
330
1F
100
AcDbEntity
  8
1
100
AcDbEllipse
 10
342.250895
 20
294.67988
 30
0.0
 11
-0.4128001152130105
 21
0.1272278325216231
 31
0.0
210
0.0
220
0.0
230
1.0
 40
0.9982459999999999
 41
1.705723538778861
 42
2.645661032414983
  0
ELLIPSE
  5
161
330
1F
100
AcDbEntity
  8
1
100
AcDbEllipse
 10
342.49452
 20
294.431944
 30
0.0
 11
-0.0804880251332459
 21
0.0248069625086337
 31
0.0
210
0.0
220
0.0
230
0.9999999999999998
 40
0.9982459999999999
 41
2.645661032415096
 42
3.484689224592659
  0
ELLIPSE
  5
162
330
1F
100
AcDbEntity
  8
1
100
AcDbEllipse
 10
342.662775
 20
294.43928
 30
0.0
 11
-0.080488025133246
 21
0.0248069625086337
 31
0.0
210
0.0
220
0.0
230
1.0
 40
0.9982459999999999
 41
5.263654910406565
 42
6.626281878182602
  0
ELLIPSE
  5
163
330
1F
100
AcDbEntity
  8
1
100
AcDbEllipse
 10
342.749734
 20
294.103048
 30
0.0
 11
-0.4128001152130106
 21
0.1272278325216231
 31
0.0
210
0.0
220
0.0
230
1.0
 40
0.9982459999999999
 41
4.323717416770404
 42
5.263654910406496
  0
ELLIPSE
  5
164
330
1F
100
AcDbEntity
  8
1
100
AcDbEllipse
 10
342.970282
 20
294.371221
 30
0.0
 11
-0.0804880251332458
 21
0.0248069625086336
 31
0.0
210
0.0
220
0.0
230
1.0
 40
0.9982459999999999
 41
2.961090448994423
 42
4.323717416770288
  0
ELLIPSE
  5
165
330
1F
100
AcDbEntity
  8
1
100
AcDbEllipse
 10
343.119751
 20
294.293565
 30
0.0
 11
-0.0804880251332458
 21
0.0248069625086336
 31
0.0
210
0.0
220
0.0
230
0.9999999999999998
 40
0.9982459999999999
 41
6.102683102584202
 42
6.941711294761915
  0
ELLIPSE
  5
166
330
1F
100
AcDbEntity
  8
1
100
AcDbEllipse
 10
343.445142
 20
294.415563
 30
0.0
 11
-0.4128001152130105
 21
0.1272278325216231
 31
0.0
210
0.0
220
0.0
230
1.0
 40
0.9982459999999999
 41
0.6585259875822916
 42
1.598463481218381
  0
ELLIPSE
  5
167
330
1F
100
AcDbEntity
  8
1
100
AcDbEllipse
 10
343.352133
 20
294.081127
 30
0.0
 11
-0.0804880251332459
 21
0.0248069625086337
 31
0.0
210
0.0
220
0.0
230
0.9999999999999998
 40
0.9982459999999999
 41
1.598463481218441
 42
2.437491673396093
  0
ELLIPSE
  5
168
330
1F
100
AcDbEntity
  8
1
100
AcDbEllipse
 10
343.442767
 20
293.939287
 30
0.0
 11
-0.080488025133246
 21
0.0248069625086337
 31
0.0
210
0.0
220
0.0
230
1.0
 40
0.9982459999999999
 41
4.21645735921002
 42
5.579084326985897
  0
ELLIPSE
  5
169
330
1F
100
AcDbEntity
  8
1
100
AcDbEllipse
 10
343.194712
 20
293.69626
 30
0.0
 11
-0.4128001152130106
 21
0.1272278325216231
 31
0.0
210
0.0
220
0.0
230
1.0
 40
0.9982459999999999
 41
3.276519865573793
 42
4.21645735920986
  0
ELLIPSE
  5
16A
330
1F
100
AcDbEntity
  8
1
100
AcDbEllipse
 10
343.537757
 20
293.639393
 30
0.0
 11
-0.0804880251332458
 21
0.0248069625086336
 31
0.0
210
0.0
220
0.0
230
1.0
 40
0.9982459999999999
 41
1.913892897797651
 42
3.276519865573888
  0
ELLIPSE
  5
16B
330
1F
100
AcDbEntity
  8
1
100
AcDbEllipse
 10
343.54527
 20
293.471375
 30
0.0
 11
-0.0804880251332458
 21
0.0248069625086336
 31
0.0
210
0.0
220
0.0
230
0.9999999999999998
 40
0.9982459999999999
 41
5.055485551387618
 42
5.89451374356538
  0
ELLIPSE
  5
16C
330
1F
100
AcDbEntity
  8
1
100
AcDbEllipse
 10
343.81405
 20
293.250881
 30
0.0
 11
-0.4128001152130105
 21
0.1272278325216231
 31
0.0
210
0.0
220
0.0
230
1.0
 40
0.9982459999999999
 41
5.89451374356529
 42
6.834451237201378
  0
ELLIPSE
  5
16D
330
1F
100
AcDbEntity
  8
1
100
AcDbEllipse
 10
342.619803
 20
293.515198
 30
0.0
 11
1.098986787269399
 21
-0.3387152807407476
 31
0.0
210
0.0
220
0.0
230
1.0
 40
0.9982459999999999
 41
0.0
 42
6.283185307179585
  0
ELLIPSE
  5
16E
330
1F
100
AcDbEntity
  8
1
100
AcDbEllipse
 10
340.583055
 20
291.4774799999999
 30
0.0
 11
-1.051204753040295
 21
0.3239885294041933
 31
0.0
210
0.0
220
0.0
230
0.9999999999999998
 40
0.9982459999999999
 41
2.54616441612331
 42
2.796647573741872
  0
ELLIPSE
  5
16F
330
1F
100
AcDbEntity
  8
1
100
AcDbEllipse
 10
340.577825
 20
291.460509
 30
0.0
 11
1.051204753040295
 21
-0.3239885294041933
 31
0.0
210
0.0
220
0.0
230
0.9999999999999998
 40
0.9982459999999999
 41
2.655094477394286
 42
4.106715103339359
  0
ELLIPSE
  5
170
330
1F
100
AcDbEntity
  8
1
100
AcDbEllipse
 10
344.868463
 20
288.864151
 30
0.0
 11
0.0001054973289098
 21
-0.3000466005961901
 31
0.0
210
0.0
220
0.0
230
0.9999999999999998
 40
0.140519
 41
3.139090475968279
 42
4.709886802775483
  0
ELLIPSE
  5
171
330
1F
100
AcDbEntity
  8
1
100
AcDbEllipse
 10
344.966895
 20
290.558654
 30
0.0
 11
0.000224656369621
 21
0.3002890065816571
 31
0.0
210
0.0
220
0.0
230
0.9999999999999998
 40
0.140039
 41
3.203590848634151
 42
4.774387175429058
  0
ELLIPSE
  5
172
330
1F
100
AcDbEntity
  8
1
100
AcDbEllipse
 10
344.670903
 20
284.268632
 30
0.0
 11
0.0323262014611202
 21
0.2994966855051403
 31
0.0
210
0.0
220
0.0
230
1.0
 40
0.139171
 41
1.583568179246986
 42
3.1543645060431
  0
ELLIPSE
  5
173
330
1F
100
AcDbEntity
  8
1
100
AcDbEllipse
 10
345.469691
 20
288.907994
 30
0.0
 11
0.7847310782973751
 21
7.249180062781233
 31
0.0
210
0.0
220
0.0
230
1.0
 40
0.138944
 41
1.979064478292153
 42
3.156632395651071
  0
ELLIPSE
  5
174
330
1F
100
AcDbEntity
  8
1
100
AcDbEllipse
 10
345.174842
 20
288.907994
 30
0.0
 11
0.0
 21
7.25000000009959
 31
0.0
210
0.0
220
0.0
230
0.9999999999999998
 40
0.140541
 41
1.43306591031825
 42
1.964024736225269
  0
ELLIPSE
  5
175
330
1F
100
AcDbEntity
  8
1
100
AcDbEllipse
 10
340.273359
 20
288.907994
 30
0.0
 11
0.2615026470252443
 21
-7.249905975296255
 31
0.0
210
0.0
220
0.0
230
1.0
 40
0.141202
 41
3.26844527755572
 42
3.289089706221236
  0
ELLIPSE
  5
176
330
1F
100
AcDbEntity
  8
1
100
AcDbEllipse
 10
340.6228089999999
 20
291.606464
 30
0.0
 11
-1.051204753040295
 21
0.3239885294041932
 31
0.0
210
0.0
220
0.0
230
0.9999999999999998
 40
0.9982459999999999
 41
0.0695815624906768
 42
1.913892576062009
  0
ELLIPSE
  5
177
330
1F
100
AcDbEntity
  8
1
100
AcDbEllipse
 10
340.6228089999999
 20
291.606464
 30
0.0
 11
-1.051204753040295
 21
0.3239885294041932
 31
0.0
210
0.0
220
0.0
230
0.9999999999999998
 40
0.9982459999999999
 41
1.913892576062009
 42
2.635477434917118
  0
ELLIPSE
  5
178
330
1F
100
AcDbEntity
  8
1
100
AcDbEllipse
 10
340.583055
 20
291.4774799999999
 30
0.0
 11
-1.051204753040295
 21
0.3239885294041933
 31
0.0
210
0.0
220
0.0
230
0.9999999999999998
 40
0.9982459999999999
 41
5.570026078279806
 42
5.796687130984089
  0
ELLIPSE
  5
179
330
1F
100
AcDbEntity
  8
1
100
AcDbEllipse
 10
340.577825
 20
291.460509
 30
0.0
 11
1.051204753040295
 21
-0.3239885294041933
 31
0.0
210
0.0
220
0.0
230
0.9999999999999998
 40
0.9982459999999999
 41
5.591643853405622
 42
5.687757069713101
  0
ELLIPSE
  5
17A
330
1F
100
AcDbEntity
  8
1
100
AcDbEllipse
 10
339.963626
 20
288.907998
 30
0.0
 11
0.3056711957306809
 21
-7.249992483770166
 31
0.0
210
0.0
220
0.0
230
0.9999999999999996
 40
0.01982
 41
3.292804846479436
 42
3.334465784890033
  0
ELLIPSE
  5
17B
330
1F
100
AcDbEntity
  8
1
100
AcDbEllipse
 10
282.83477
 20
288.910322
 30
0.0
 11
415.6775621160039
 21
-0.4105811236006564
 31
0.0
210
0.0
220
0.0
230
0.9999999999999996
 40
0.017408
 41
1.433737124250462
 42
1.437360310591659
  0
ELLIPSE
  5
17C
330
1F
100
AcDbEntity
  8
1
100
AcDbEllipse
 10
318.332423
 20
288.907941
 30
0.0
 11
103.6787034324557
 21
-5.449883846093583
 31
0.0
210
0.0
220
0.0
230
1.0
 40
0.046116
 41
4.48821620478666
 42
4.496772015067351
  0
ELLIPSE
  5
17D
330
1F
100
AcDbEntity
  8
1
100
AcDbEllipse
 10
342.426349
 20
302.790388
 30
0.0
 11
-12.0888546599634
 21
3.725868088148224
 31
0.0
210
0.0
220
0.0
230
0.9999999999999998
 40
0.9982459999999999
 41
1.455123595358895
 42
1.9138928977978
  0
ELLIPSE
  5
17E
330
1F
100
AcDbEntity
  8
1
100
AcDbEllipse
 10
295.904842
 20
283.927878
 30
0.0
 11
-0.4193610688767413
 21
-3.977956296128771
 31
0.0
210
0.0
220
0.0
230
1.0
 40
0.092037
 41
4.338928207190771
 42
5.290165306453127
  0
SPLINE
  5
18E
330
1F
100
AcDbEntity
  8
1
100
AcDbSpline
210
0.0
220
0.0
230
1.0
 70
     8
 71
     3
 72
    16
 73
    12
 74
     0
 42
0.000000001
 43
0.0000000001
 40
0.0
 40
0.0
 40
0.0
 40
0.0
 40
0.1792230374885377
 40
0.1792230374885377
 40
0.3584460749770754
 40
0.3584460749770754
 40
0.537669112465613
 40
0.537669112465613
 40
0.7168921499541508
 40
0.7168921499541508
 40
1.0
 40
1.0
 40
1.0
 40
1.0
 10
342.2343892744188
 20
292.6541913522212
 30
0.0
 10
342.2305393433222
 20
292.6573845453963
 30
0.0
 10
342.2270357905657
 20
292.6608716172573
 30
0.0
 10
342.2206858780131
 20
292.6684027535706
 30
0.0
 10
342.2178173074573
 20
292.6724911607913
 30
0.0
 10
342.2129024777363
 20
292.680985105401
 30
0.0
 10
342.2108460811282
 20
292.6853855657209
 30
0.0
 10
342.2074985570372
 20
292.6944782537334
 30
0.0
 10
342.2062006742256
 20
292.6992164982908
 30
0.0
 10
342.2039295357285
 20
292.7115184952281
 30
0.0
 10
342.2035528371808
 20
292.7191009761628
 30
0.0
 10
342.2041618409576
 20
292.7266427667954
 30
0.0
  0
SPLINE
  5
18F
330
1F
100
AcDbEntity
  8
1
100
AcDbSpline
210
0.0
220
0.0
230
1.0
 70
     8
 71
     3
 72
    14
 73
    10
 74
     0
 42
0.000000001
 43
0.0000000001
 40
0.0
 40
0.0
 40
0.0
 40
0.0
 40
0.3197055649187762
 40
0.3197055649187762
 40
0.6394111298375524
 40
0.6394111298375524
 40
0.9591166947563287
 40
0.9591166947563287
 40
1.0
 40
1.0
 40
1.0
 40
1.0
 10
342.21808131979
 20
292.8293728439212
 30
0.0
 10
342.2201978997296
 20
292.8236101411625
 30
0.0
 10
342.2216741753016
 20
292.817639309862
 30
0.0
 10
342.22333522298
 20
292.8057362101447
 30
0.0
 10
342.2235385858479
 20
292.7997810763521
 30
0.0
 10
342.2227252406635
 20
292.78786102482
 30
0.0
 10
342.2216921101196
 20
292.7819124303044
 30
0.0
 10
342.2198942282004
 20
292.7754932248779
 30
0.0
 10
342.2196811850689
 20
292.7747684864532
 30
0.0
 10
342.2194589029093
 20
292.7740468265104
 30
0.0
  0
SPLINE
  5
190
330
1F
100
AcDbEntity
  8
1
100
AcDbSpline
210
0.0
220
0.0
230
1.0
 70
     8
 71
     3
 72
    20
 73
    16
 74
     0
 42
0.000000001
 43
0.0000000001
 40
0.0
 40
0.0
 40
0.0
 40
0.0
 40
0.1250000000000089
 40
0.1250000000000089
 40
0.2500000000000178
 40
0.3124999999999779
 40
0.3124999999999779
 40
0.374999999999938
 40
0.374999999999938
 40
0.4999999999999404
 40
0.6249999999999425
 40
0.6249999999999425
 40
0.7499999999999448
 40
0.7499999999999448
 40
1.0
 40
1.0
 40
1.0
 40
1.0
 10
341.9294155294942
 20
293.0932640393968
 30
0.0
 10
341.9456471108633
 20
293.0889896325161
 30
0.0
 10
341.9616704728935
 20
293.0837318960661
 30
0.0
 10
341.9928468641341
 20
293.0713921428366
 30
0.0
 10
342.0156669282072
 20
293.0607490255336
 30
0.0
 10
342.0376348095697
 20
293.0479664113304
 30
0.0
 10
342.0520854473983
 20
293.0389529686629
 30
0.0
 10
342.0592401290387
 20
293.0341810072027
 30
0.0
 10
342.0801496061681
 20
293.0192839971282
 30
0.0
 10
342.1065962115842
 20
292.9978726522157
 30
0.0
 10
342.1302546041768
 20
292.9734463974883
 30
0.0
 10
342.1524989767316
 20
292.9474916741956
 30
0.0
 10
342.162933518189
 20
292.9336923255714
 30
0.0
 10
342.1912041808862
 20
292.8912353581671
 30
0.0
 10
342.2064015581096
 20
292.8611727271203
 30
0.0
 10
342.21808131979
 20
292.8293728439212
 30
0.0
  0
SPLINE
  5
191
330
1F
100
AcDbEntity
  8
1
100
AcDbSpline
210
0.0
220
0.0
230
1.0
 70
     8
 71
     3
 72
    19
 73
    15
 74
     0
 42
0.000000001
 43
0.0000000001
 40
0.0
 40
0.0
 40
0.0
 40
0.0
 40
0.2656088543935433
 40
0.2656088543935433
 40
0.3984132815903177
 40
0.3984132815903177
 40
0.5312177087870924
 40
0.6640221359838669
 40
0.6640221359838669
 40
0.7304243495822474
 40
0.7304243495822474
 40
0.7968265631806278
 40
0.7968265631806278
 40
1.0
 40
1.0
 40
1.0
 40
1.0
 10
341.7552421336509
 20
293.0922159330224
 30
0.0
 10
341.7313500250785
 20
293.1162812696911
 30
0.0
 10
341.7106469269691
 20
293.1428128767159
 30
0.0
 10
341.6843537559453
 20
293.1862827014915
 30
0.0
 10
341.6763943845453
 20
293.2014200550869
 30
0.0
 10
341.6624821326302
 20
293.2321877770218
 30
0.0
 10
341.6504569155815
 20
293.263626871146
 30
0.0
 10
341.6421637053763
 20
293.2963935108873
 30
0.0
 10
341.6373861474554
 20
293.3214816526433
 30
0.0
 10
341.6360357389099
 20
293.3299376746224
 30
0.0
 10
341.6338544015662
 20
293.346792289401
 30
0.0
 10
341.6330173363803
 20
293.3552192125844
 30
0.0
 10
341.6306284194234
 20
293.3894287765046
 30
0.0
 10
341.6311258149435
 20
293.4152082959221
 30
0.0
 10
341.6339639551617
 20
293.4409840667511
 30
0.0
  0
SPLINE
  5
192
330
1F
100
AcDbEntity
  8
1
100
AcDbSpline
210
0.0
220
0.0
230
1.0
 70
     8
 71
     3
 72
    16
 73
    12
 74
     0
 42
0.000000001
 43
0.0000000001
 40
0.0
 40
0.0
 40
0.0
 40
0.0
 40
0.2130552106368288
 40
0.2130552106368288
 40
0.4261104212736577
 40
0.5326380265920717
 40
0.5326380265920717
 40
0.6391656319104861
 40
0.6391656319104861
 40
0.8522208425473321
 40
1.0
 40
1.0
 40
1.0
 40
1.0
 10
341.8631403121291
 20
293.9499587115038
 30
0.0
 10
341.8674042304597
 20
293.9339592228756
 30
0.0
 10
341.8707257245411
 20
293.9176332574313
 30
0.0
 10
341.8753875875609
 20
293.8847835724004
 30
0.0
 10
341.8774251169885
 20
293.8599106861874
 30
0.0
 10
341.8772247035856
 20
293.8346588973208
 30
0.0
 10
341.8765776585567
 20
293.8177359272684
 30
0.0
 10
341.8759938800196
 20
293.8091975733422
 30
0.0
 10
341.8734782722889
 20
293.7837536475336
 30
0.0
 10
341.868931835771
 20
293.7553780505563
 30
0.0
 10
341.8615741308495
 20
293.7275820265471
 30
0.0
 10
341.8580845237733
 20
293.7162965698266
 30
0.0
  0
SPLINE
  5
193
330
1F
100
AcDbEntity
  8
1
100
AcDbSpline
210
0.0
220
0.0
230
1.0
 70
     8
 71
     3
 72
    14
 73
    10
 74
     0
 42
0.000000001
 43
0.0000000001
 40
0.0
 40
0.0
 40
0.0
 40
0.0
 40
0.25
 40
0.25
 40
0.5
 40
0.5
 40
0.75
 40
0.75
 40
1.0
 40
1.0
 40
1.0
 40
1.0
 10
341.8200212145434
 20
294.0023150524895
 30
0.0
 10
341.8252560149948
 20
293.9997352597063
 30
0.0
 10
341.8302071006476
 20
293.9966112204106
 30
0.0
 10
341.8392985807979
 20
293.9894443227116
 30
0.0
 10
341.8434245121215
 20
293.9854261048453
 30
0.0
 10
341.8508263883659
 20
293.9765056230563
 30
0.0
 10
341.8540997424379
 20
293.9715758438205
 30
0.0
 10
341.8594613055716
 20
293.9612215407967
 30
0.0
 10
341.8615967082126
 20
293.9557507720896
 30
0.0
 10
341.863140312129
 20
293.9499587115032
 30
0.0
  0
SPLINE
  5
194
330
1F
100
AcDbEntity
  8
1
100
AcDbSpline
210
0.0
220
0.0
230
1.0
 70
     8
 71
     3
 72
    20
 73
    16
 74
     0
 42
0.000000001
 43
0.0000000001
 40
0.0
 40
0.0
 40
0.0
 40
0.0
 40
0.2499999999998385
 40
0.2499999999998385
 40
0.3749999999998654
 40
0.3749999999998654
 40
0.4999999999998924
 40
0.4999999999998924
 40
0.6249999999999192
 40
0.6249999999999192
 40
0.7499999999999462
 40
0.7499999999999462
 40
0.8749999999999731
 40
0.8749999999999731
 40
1.0
 40
1.0
 40
1.0
 40
1.0
 10
341.8200212145434
 20
294.0023150524895
 30
0.0
 10
341.8116099490877
 20
294.0064602576642
 30
0.0
 10
341.8041364833666
 20
294.0118511757171
 30
0.0
 10
341.7943340481725
 20
294.0218008603937
 30
0.0
 10
341.7913221667309
 20
294.0254305321975
 30
0.0
 10
341.7860118381516
 20
294.0330811759465
 30
0.0
 10
341.7836825976328
 20
294.0371308707163
 30
0.0
 10
341.7797073426878
 20
294.0456984091222
 30
0.0
 10
341.7780804837512
 20
294.0501942570501
 30
0.0
 10
341.7756502087699
 20
294.0593491964488
 30
0.0
 10
341.7748287666652
 20
294.0640437029174
 30
0.0
 10
341.7740208336501
 20
294.0736791302429
 30
0.0
 10
341.7740465393561
 20
294.078541722971
 30
0.0
 10
341.7749507333351
 20
294.0881691607195
 30
0.0
 10
341.7758261546812
 20
294.0929630814046
 30
0.0
 10
341.7771525556147
 20
294.0977354741243
 30
0.0
  0
SPLINE
  5
195
330
1F
100
AcDbEntity
  8
1
100
AcDbSpline
210
0.0
220
0.0
230
1.0
 70
     8
 71
     3
 72
    10
 73
     6
 74
     0
 42
0.000000001
 43
0.0000000001
 40
0.0
 40
0.0
 40
0.0
 40
0.0
 40
0.6066772181101664
 40
0.6066772181101664
 40
1.0
 40
1.0
 40
1.0
 40
1.0
 10
342.5976679793461
 20
294.4973243355463
 30
0.0
 10
342.5979663821334
 20
294.4916026352771
 30
0.0
 10
342.5976506909392
 20
294.4858540633369
 30
0.0
 10
342.5961427019302
 20
294.47657526558
 30
0.0
 10
342.5953037968612
 20
294.4729858020068
 30
0.0
 10
342.5942166959698
 20
294.4694566295415
 30
0.0
  0
SPLINE
  5
196
330
1F
100
AcDbEntity
  8
1
100
AcDbSpline
210
0.0
220
0.0
230
1.0
 70
     8
 71
     3
 72
    12
 73
     8
 74
     0
 42
0.000000001
 43
0.0000000001
 40
0.0
 40
0.0
 40
0.0
 40
0.0
 40
0.3099878671765571
 40
0.3099878671765571
 40
0.6549939335882789
 40
0.6549939335882789
 40
1.0
 40
1.0
 40
1.0
 40
1.0
 10
315.0293216423944
 20
283.07778196482
 30
0.0
 10
314.895225055606
 20
283.0489992287095
 30
0.0
 10
314.7609285954393
 20
283.0209563453757
 30
0.0
 10
314.4764205198
 20
282.9637363067417
 30
0.0
 10
314.3261263525896
 20
282.9347872485533
 30
0.0
 10
314.0240935131372
 20
282.8800525593318
 30
0.0
 10
313.8723568638042
 20
282.8542643607379
 30
0.0
 10
313.7195086119625
 20
282.8305616796789
 30
0.0
  0
SPLINE
  5
197
330
1F
100
AcDbEntity
  8
1
100
AcDbSpline
210
0.0
220
0.0
230
1.0
 70
    28
 71
     4
 72
    10
 73
     5
 74
     0
 42
0.000000001
 43
0.0000000001
 40
0.0
 40
0.0
 40
0.0
 40
0.0
 40
0.0
 40
1.0
 40
1.0
 40
1.0
 40
1.0
 40
1.0
 10
313.7195086119624
 20
282.8305616796833
 30
0.0
 41
0.9970729123643161
 10
313.7195086119624
 20
282.8893557063556
 30
0.0
 41
0.9964397896465214
 10
313.7195086119624
 20
282.9486387504715
 30
0.0
 41
0.9958009446867258
 10
313.7195086119624
 20
283.0083635172599
 30
0.0
 41
0.9951623826175916
 10
313.7195086119624
 20
283.0684817305431
 30
0.0
 41
0.9945293588931628
  0
SPLINE
  5
198
330
1F
100
AcDbEntity
  8
1
100
AcDbSpline
210
0.0
220
0.0
230
1.0
 70
     8
 71
     3
 72
    81
 73
    77
 74
     0
 42
0.000000001
 43
0.0000000001
 40
0.0
 40
0.0
 40
0.0
 40
0.0
 40
0.0312500000000012
 40
0.0312500000000012
 40
0.0625000000000024
 40
0.0625000000000024
 40
0.0781250000000035
 40
0.0781250000000035
 40
0.0937500000000046
 40
0.0937500000000046
 40
0.1250000000000064
 40
0.1250000000000064
 40
0.1406250000000068
 40
0.1406250000000068
 40
0.1562500000000072
 40
0.1562500000000072
 40
0.1875000000000081
 40
0.1875000000000081
 40
0.218750000000009
 40
0.218750000000009
 40
0.2500000000000099
 40
0.2500000000000099
 40
0.2812500000000108
 40
0.2812500000000108
 40
0.3125000000000117
 40
0.3125000000000117
 40
0.3281250000000124
 40
0.3281250000000124
 40
0.3437500000000132
 40
0.3437500000000132
 40
0.3750000000000132
 40
0.3750000000000132
 40
0.4062500000000134
 40
0.4062500000000134
 40
0.4375000000000134
 40
0.4375000000000134
 40
0.4687500000000135
 40
0.4687500000000135
 40
0.5000000000000135
 40
0.5000000000000135
 40
0.5312500000000135
 40
0.5312500000000135
 40
0.5625000000000135
 40
0.5625000000000135
 40
0.5937500000000135
 40
0.5937500000000135
 40
0.6093750000000132
 40
0.6093750000000132
 40
0.6250000000000129
 40
0.6406250000000126
 40
0.6406250000000126
 40
0.6562500000000124
 40
0.6562500000000124
 40
0.6875000000000117
 40
0.6875000000000117
 40
0.7187500000000111
 40
0.7187500000000111
 40
0.7500000000000103
 40
0.7500000000000103
 40
0.7812500000000096
 40
0.7812500000000096
 40
0.7968750000000089
 40
0.7968750000000089
 40
0.8125000000000081
 40
0.8125000000000081
 40
0.8437500000000067
 40
0.8437500000000067
 40
0.8750000000000055
 40
0.8750000000000055
 40
0.9062500000000039
 40
0.9062500000000039
 40
0.9375000000000028
 40
0.9375000000000028
 40
0.9687500000000014
 40
0.9687500000000014
 40
1.0
 40
1.0
 40
1.0
 40
1.0
 10
344.311207061964
 20
286.1299935136707
 30
0.0
 10
344.3071290982762
 20
286.093130174154
 30
0.0
 10
344.3033147273516
 20
286.0562385094803
 30
0.0
 10
344.2962157017141
 20
285.9823982578772
 30
0.0
 10
344.2929500758037
 20
285.9456382053519
 30
0.0
 10
344.2884980745961
 20
285.8910143058559
 30
0.0
 10
344.2870871951293
 20
285.8728777822968
 30
0.0
 10
344.2844122588321
 20
285.8367481884952
 30
0.0
 10
344.2831475506545
 20
285.8187424684632
 30
0.0
 10
344.2795948409787
 20
285.7652398773044
 30
0.0
 10
344.2775402059419
 20
285.7301617722488
 30
0.0
 10
344.2749270381401
 20
285.6784263384716
 30
0.0
 10
344.2741333514714
 20
285.6613049228786
 30
0.0
 10
344.2727099850321
 20
285.6275077843013
 30
0.0
 10
344.272079860961
 20
285.6108281674015
 30
0.0
 10
344.270432233634
 20
285.5614409857521
 30
0.0
 10
344.2696563948427
 20
285.5293498867041
 30
0.0
 10
344.2687575058976
 20
285.4670572728584
 30
0.0
 10
344.2686364278828
 20
285.4370410592425
 30
0.0
 10
344.2690434624321
 20
285.3792428612101
 30
0.0
 10
344.2695746941229
 20
285.3514043480765
 30
0.0
 10
344.2712772638597
 20
285.2985167627036
 30
0.0
 10
344.2724474832991
 20
285.2734106188796
 30
0.0
 10
344.2754263463616
 20
285.2258759568678
 30
0.0
 10
344.2772300942674
 20
285.2035501366783
 30
0.0
 10
344.2803869194661
 20
285.1723928991182
 30
0.0
 10
344.2815151793217
 20
285.1623858288493
 30
0.0
 10
344.2839241221385
 20
285.1431312996628
 30
0.0
 10
344.2852062348165
 20
285.1338763660844
 30
0.0
 10
344.2892621267222
 20
285.1073924428259
 30
0.0
 10
344.2922494813843
 20
285.0913973203475
 30
0.0
 10
344.2987888811929
 20
285.0627160535504
 30
0.0
 10
344.3023437177318
 20
285.0500392747825
 30
0.0
 10
344.3099414500425
 20
285.0282767260083
 30
0.0
 10
344.3139928479157
 20
285.0191480573002
 30
0.0
 10
344.3226045677258
 20
285.0044227245415
 30
0.0
 10
344.3271390862903
 20
284.9988755876152
 30
0.0
 10
344.3366276374614
 20
284.9914177045138
 30
0.0
 10
344.3415963452829
 20
284.989498449263
 30
0.0
 10
344.3519273287081
 20
284.9893372055065
 30
0.0
 10
344.3572663449089
 20
284.9910882881979
 30
0.0
 10
344.3682900287367
 20
284.998239110348
 30
0.0
 10
344.3739885888769
 20
285.0036619925233
 30
0.0
 10
344.3856199978196
 20
285.0180801978635
 30
0.0
 10
344.3915623073435
 20
285.0270738146599
 30
0.0
 10
344.4006670769326
 20
285.0432607121431
 30
0.0
 10
344.4037353009792
 20
285.0491105818593
 30
0.0
 10
344.4099020553886
 20
285.0616494618877
 30
0.0
 10
344.4161072928347
 20
285.0750410461799
 30
0.0
 10
344.4223893282019
 20
285.09013431309
 30
0.0
 10
344.428709972675
 20
285.1060830776989
 30
0.0
 10
344.4318940384682
 20
285.114497742942
 30
0.0
 10
344.4414675112606
 20
285.1409369773465
 30
0.0
 10
344.4478740307574
 20
285.1601370998206
 30
0.0
 10
344.4607354332107
 20
285.2016823415291
 30
0.0
 10
344.4672038515831
 20
285.2240838169047
 30
0.0
 10
344.4800531954094
 20
285.271593421704
 30
0.0
 10
344.4864479967601
 20
285.2967401384563
 30
0.0
 10
344.4991772490882
 20
285.3498457905634
 30
0.0
 10
344.5054828960008
 20
285.3776904859227
 30
0.0
 10
344.5147985401969
 20
285.4211479349669
 30
0.0
 10
344.5178827670434
 20
285.4359278657889
 30
0.0
 10
344.5240089622685
 20
285.4660799179723
 30
0.0
 10
344.527054201989
 20
285.4814698573377
 30
0.0
 10
344.5360776799527
 20
285.528287180348
 30
0.0
 10
344.5419569786202
 20
285.5604209176794
 30
0.0
 10
344.5534425837016
 20
285.6265347014907
 30
0.0
 10
344.559050905971
 20
285.6605400249094
 30
0.0
 10
344.5698648928745
 20
285.7296356616893
 30
0.0
 10
344.5750893851757
 20
285.7648332119484
 30
0.0
 10
344.5851564230428
 20
285.8364539134421
 30
0.0
 10
344.5899599146384
 20
285.872597603795
 30
0.0
 10
344.5991107323903
 20
285.9455460277015
 30
0.0
 10
344.6034683676233
 20
285.9824510395998
 30
0.0
 10
344.6116384054004
 20
286.0561988256765
 30
0.0
 10
344.6154582293857
 20
286.0930883403396
 30
0.0
 10
344.6190122291005
 20
286.129993513701
 30
0.0
  0
SPLINE
  5
199
330
1F
100
AcDbEntity
  8
1
100
AcDbSpline
210
0.0
220
0.0
230
1.0
 70
     8
 71
     3
 72
    76
 73
    72
 74
     0
 42
0.000000001
 43
0.0000000001
 40
0.0
 40
0.0
 40
0.0
 40
0.0
 40
0.0312499999999997
 40
0.0312499999999997
 40
0.0468749999999998
 40
0.0468749999999998
 40
0.0625
 40
0.0625
 40
0.1249999999999995
 40
0.1249999999999995
 40
0.1562499999999991
 40
0.1562499999999991
 40
0.1718749999999989
 40
0.1718749999999989
 40
0.1874999999999988
 40
0.1874999999999988
 40
0.218749999999999
 40
0.218749999999999
 40
0.2499999999999992
 40
0.2499999999999992
 40
0.2812499999999993
 40
0.2812499999999993
 40
0.3124999999999994
 40
0.3124999999999994
 40
0.3437499999999994
 40
0.3437499999999994
 40
0.3749999999999994
 40
0.3749999999999994
 40
0.4062499999999994
 40
0.4062499999999994
 40
0.4374999999999994
 40
0.4374999999999994
 40
0.4687499999999994
 40
0.4687499999999994
 40
0.4999999999999994
 40
0.4999999999999994
 40
0.5312499999999995
 40
0.5312499999999995
 40
0.5624999999999995
 40
0.5624999999999995
 40
0.5937499999999995
 40
0.5937499999999995
 40
0.6249999999999995
 40
0.6249999999999995
 40
0.6562499999999995
 40
0.6562499999999995
 40
0.6874999999999995
 40
0.6874999999999995
 40
0.7031249999999996
 40
0.7031249999999996
 40
0.7187499999999996
 40
0.7187499999999996
 40
0.7499999999999996
 40
0.7499999999999996
 40
0.7812499999999997
 40
0.7812499999999997
 40
0.8124999999999996
 40
0.8124999999999996
 40
0.8437499999999996
 40
0.8437499999999996
 40
0.8749999999999996
 40
0.8749999999999996
 40
0.9062499999999996
 40
0.9062499999999996
 40
0.9374999999999996
 40
0.9374999999999996
 40
0.9687499999999996
 40
0.9687499999999996
 40
0.9843749999999998
 40
0.9843749999999998
 40
1.0
 40
1.0
 40
1.0
 40
1.0
 10
344.6190122291005
 20
286.129993513701
 30
0.0
 10
344.6186835661757
 20
286.1649640966634
 30
0.0
 10
344.6181224896005
 20
286.1997094527709
 30
0.0
 10
344.6169381981534
 20
286.2514303362578
 30
0.0
 10
344.6164861893125
 20
286.2686079000058
 30
0.0
 10
344.6154673963657
 20
286.3028372534608
 30
0.0
 10
344.6148996928676
 20
286.3199084470831
 30
0.0
 10
344.6117968742862
 20
286.4043146477565
 30
0.0
 10
344.6084643816809
 20
286.4692902842963
 30
0.0
 10
344.6022333072909
 20
286.5630587461992
 30
0.0
 10
344.5999495042485
 20
286.5936949032892
 30
0.0
 10
344.5962064743866
 20
286.6386976815136
 30
0.0
 10
344.5949046900466
 20
286.6535489374827
 30
0.0
 10
344.5922142556046
 20
286.682707201665
 30
0.0
 10
344.5908233888502
 20
286.6970423101811
 30
0.0
 10
344.5865146760486
 20
286.7393200342487
 30
0.0
 10
344.5834593256502
 20
286.7665503713328
 30
0.0
 10
344.5769903923592
 20
286.81900242133
 30
0.0
 10
344.573598216631
 20
286.8440531854361
 30
0.0
 10
344.5665019559192
 20
286.8918303405454
 30
0.0
 10
344.5627882768999
 20
286.9146079792666
 30
0.0
 10
344.5550954966337
 20
286.9575251516586
 30
0.0
 10
344.5511211426901
 20
286.9776504864752
 30
0.0
 10
344.5429173375326
 20
287.0152433047531
 30
0.0
 10
344.5386794333292
 20
287.0327350145307
 30
0.0
 10
344.5300273092905
 20
287.0647126658706
 30
0.0
 10
344.525605437035
 20
287.0792406552629
 30
0.0
 10
344.5165691707547
 20
287.1053612192536
 30
0.0
 10
344.5119601339536
 20
287.1169281590066
 30
0.0
 10
344.5026406729601
 20
287.13688203047
 30
0.0
 10
344.4979194191892
 20
287.1453020250157
 30
0.0
 10
344.4883523119843
 20
287.1589888277704
 30
0.0
 10
344.4835401239262
 20
287.164206384825
 30
0.0
 10
344.4738680622202
 20
287.1713983980666
 30
0.0
 10
344.4689955669182
 20
287.1733746970613
 30
0.0
 10
344.4592537064413
 20
287.1740237541048
 30
0.0
 10
344.4543950484482
 20
287.1727043881809
 30
0.0
 10
344.4447022864915
 20
287.1667765897293
 30
0.0
 10
344.4398571584505
 20
287.1621484905417
 30
0.0
 10
344.4302827581949
 20
287.1496518070359
 30
0.0
 10
344.4255458476557
 20
287.1417864150685
 30
0.0
 10
344.4161733415369
 20
287.122797871797
 30
0.0
 10
344.4115411100913
 20
287.1116700362973
 30
0.0
 10
344.402476628738
 20
287.0863647588887
 30
0.0
 10
344.3980319441458
 20
287.0721645678987
 30
0.0
 10
344.3893201830257
 20
287.0406249664392
 30
0.0
 10
344.3850844452089
 20
287.0233973679718
 30
0.0
 10
344.3789182288384
 20
286.9954137369993
 30
0.0
 10
344.3768936481355
 20
286.9857265475239
 30
0.0
 10
344.3729065702263
 20
286.9656284847657
 30
0.0
 10
344.3709422601027
 20
286.9552063709327
 30
0.0
 10
344.365172848667
 20
286.9230083900141
 30
0.0
 10
344.3614823497441
 20
286.9002635332238
 30
0.0
 10
344.3544129058921
 20
286.8522147205227
 30
0.0
 10
344.351029591316
 20
286.8268622086814
 30
0.0
 10
344.344647448923
 20
286.7741079202451
 30
0.0
 10
344.341639669454
 20
286.7466530807516
 30
0.0
 10
344.3359931036803
 20
286.6895738429141
 30
0.0
 10
344.3333654484213
 20
286.6600493106116
 30
0.0
 10
344.3285323529674
 20
286.5994222915714
 30
0.0
 10
344.3263177380943
 20
286.568205863286
 30
0.0
 10
344.3223211922405
 20
286.5043272777596
 30
0.0
 10
344.3205463983357
 20
286.4717956775223
 30
0.0
 10
344.3174402125793
 20
286.405557286877
 30
0.0
 10
344.316106863888
 20
286.3717664138211
 30
0.0
 10
344.3139105122322
 20
286.3036443284707
 30
0.0
 10
344.3130440864908
 20
286.2692666661158
 30
0.0
 10
344.3120916682734
 20
286.2172257960178
 30
0.0
 10
344.3118320545173
 20
286.1997806844576
 30
0.0
 10
344.3114314368413
 20
286.164901937
 30
0.0
 10
344.3112900178227
 20
286.1474526473671
 30
0.0
 10
344.3112070619672
 20
286.1299935136707
 30
0.0
  0
SPLINE
  5
19A
330
1F
100
AcDbEntity
  8
1
100
AcDbSpline
210
0.0
220
0.0
230
1.0
 70
     8
 71
     3
 72
     8
 73
     4
 74
     0
 42
0.000000001
 43
0.0000000001
 40
0.0
 40
0.0
 40
0.0
 40
0.0
 40
1.0
 40
1.0
 40
1.0
 40
1.0
 10
295.9048419452957
 20
295.731302806329
 30
0.0
 10
295.7355769958727
 20
295.731302806329
 30
0.0
 10
295.5663202393876
 20
295.735561035602
 30
0.0
 10
295.3970718713146
 20
295.7439908469957
 30
0.0
  0
SPLINE
  5
19B
330
1F
100
AcDbEntity
  8
1
100
AcDbSpline
210
0.0
220
0.0
230
1.0
 70
     8
 71
     3
 72
     8
 73
     4
 74
     0
 42
0.000000001
 43
0.0000000001
 40
0.0
 40
0.0
 40
0.0
 40
0.0
 40
1.0
 40
1.0
 40
1.0
 40
1.0
 10
295.3970718713156
 20
295.7439908469776
 30
0.0
 10
295.277874053079
 20
295.7469298328044
 30
0.0
 10
295.1587233333184
 20
295.7500522356993
 30
0.0
 10
295.039618256146
 20
295.7533454798316
 30
0.0
  0
SPLINE
  5
19C
330
1F
100
AcDbEntity
  8
1
100
AcDbSpline
210
0.0
220
0.0
230
1.0
 70
     8
 71
     3
 72
     9
 73
     5
 74
     0
 42
0.000000001
 43
0.0000000001
 40
0.0
 40
0.0
 40
0.0
 40
0.0
 40
0.5
 40
1.0
 40
1.0
 40
1.0
 40
1.0
 10
342.8898266024213
 20
289.8459094469153
 30
0.0
 10
342.6453846447369
 20
289.8348992220521
 30
0.0
 10
342.1580016832644
 20
289.827265824194
 30
0.0
 10
341.6735570814443
 20
289.8478184177057
 30
0.0
 10
341.4320638565535
 20
289.8650742385452
 30
0.0
  0
SPLINE
  5
19D
330
1F
100
AcDbEntity
  8
1
100
AcDbSpline
210
0.0
220
0.0
230
1.0
 70
     8
 71
     3
 72
    59
 73
    55
 74
     0
 42
0.000000001
 43
0.0000000001
 40
0.0
 40
0.0
 40
0.0
 40
0.0
 40
0.0624999999999861
 40
0.0624999999999861
 40
0.1249999999999722
 40
0.1249999999999722
 40
0.1562499999999653
 40
0.1562499999999653
 40
0.1874999999999584
 40
0.1874999999999584
 40
0.2499999999999513
 40
0.2499999999999513
 40
0.3124999999999443
 40
0.3124999999999443
 40
0.3281249999999469
 40
0.3281249999999469
 40
0.3437499999999497
 40
0.3437499999999497
 40
0.374999999999955
 40
0.374999999999955
 40
0.437499999999961
 40
0.437499999999961
 40
0.499999999999967
 40
0.499999999999967
 40
0.5156249999999706
 40
0.5156249999999706
 40
0.5312499999999739
 40
0.5624999999999791
 40
0.5624999999999791
 40
0.6249999999999885
 40
0.6249999999999885
 40
0.640624999999991
 40
0.640624999999991
 40
0.6562499999999933
 40
0.6562499999999933
 40
0.6874999999999974
 40
0.6874999999999974
 40
0.7500000000000063
 40
0.7500000000000063
 40
0.7812500000000094
 40
0.7812500000000094
 40
0.7968750000000109
 40
0.7968750000000109
 40
0.8125000000000124
 40
0.8125000000000124
 40
0.8750000000000149
 40
0.8750000000000149
 40
0.9062500000000135
 40
0.9062500000000135
 40
0.9218750000000104
 40
0.9218750000000104
 40
0.9375000000000072
 40
0.9375000000000072
 40
1.0
 40
1.0
 40
1.0
 40
1.0
 10
340.3488419452958
 20
290.2185144887399
 30
0.0
 10
340.4513601572562
 20
290.200243719674
 30
0.0
 10
340.5518976352215
 20
290.1832854808503
 30
0.0
 10
340.7489816589183
 20
290.1516910443036
 30
0.0
 10
340.8455289182472
 20
290.1370556547758
 30
0.0
 10
340.987182539393
 20
290.1166233644952
 30
0.0
 10
341.0338708983042
 20
290.1100660495175
 30
0.0
 10
341.1261369242376
 20
290.0974200036963
 30
0.0
 10
341.1717871528011
 20
290.0913226917229
 30
0.0
 10
341.3052766284321
 20
290.073888816962
 30
0.0
 10
341.3902214914628
 20
290.0633310083467
 30
0.0
 10
341.5517407241994
 20
290.043845071827
 30
0.0
 10
341.6283189577911
 20
290.0349181647103
 30
0.0
 10
341.7183530688554
 20
290.0244791193294
 30
0.0
 10
341.7360741257012
 20
290.0224272860066
 30
0.0
 10
341.7709273457614
 20
290.0183879670608
 30
0.0
 10
341.7880883435034
 20
290.016397124026
 30
0.0
 10
341.838451557483
 20
290.0105335673675
 30
0.0
 10
341.8703818165405
 20
290.0067874356279
 30
0.0
 10
341.9612395546387
 20
289.9959237721086
 30
0.0
 10
342.0152571082978
 20
289.9891780403445
 30
0.0
 10
342.1096651682852
 20
289.9761569652651
 30
0.0
 10
342.1500643703347
 20
289.9698823398175
 30
0.0
 10
342.1912022190793
 20
289.9620611289851
 30
0.0
 10
342.1989744612766
 20
289.9604945741207
 30
0.0
 10
342.2134178250712
 20
289.9573866957927
 30
0.0
 10
342.2334726584112
 20
289.9527561542032
 30
0.0
 10
342.2487467382676
 20
289.9481934547834
 30
0.0
 10
342.2729671710871
 20
289.9391082728286
 30
0.0
 10
342.2807082161771
 20
289.9330988937687
 30
0.0
 10
342.27957402865
 20
289.9255749666357
 30
0.0
 10
342.2788042071911
 20
289.9240700649111
 30
0.0
 10
342.2761607353118
 20
289.9210602659877
 30
0.0
 10
342.2742811268923
 20
289.9195519717294
 30
0.0
 10
342.2669978334149
 20
289.9150548093723
 30
0.0
 10
342.2599793732762
 20
289.9121027608908
 30
0.0
 10
342.2326681106377
 20
289.9034074058198
 30
0.0
 10
342.2061481510848
 20
289.8978185939518
 30
0.0
 10
342.1542538145485
 20
289.889954852037
 30
0.0
 10
342.1349292206452
 20
289.8874217492137
 30
0.0
 10
342.1028815451347
 20
289.8837951473169
 30
0.0
 10
342.0917298631812
 20
289.8826201317717
 30
0.0
 10
342.0685850552178
 20
289.8803513323249
 30
0.0
 10
342.0565806349232
 20
289.8792562619986
 30
0.0
 10
341.9944512773917
 20
289.8739922740377
 30
0.0
 10
341.9380357257018
 20
289.8704522618824
 30
0.0
 10
341.8439558239092
 20
289.8664935769001
 30
0.0
 10
341.8110135828888
 20
289.8654002520706
 30
0.0
 10
341.7592523394221
 20
289.8641526187487
 30
0.0
 10
341.741583839684
 20
289.8638020043051
 30
0.0
 10
341.7056672601316
 20
289.8632440188878
 30
0.0
 10
341.6874023277728
 20
289.8630360512027
 30
0.0
 10
341.5945815894056
 20
289.8623670546739
 30
0.0
 10
341.5155585850235
 20
289.8630150924762
 30
0.0
 10
341.4320638565535
 20
289.8650742385452
 30
0.0
  0
SPLINE
  5
19E
330
1F
100
AcDbEntity
  8
1
100
AcDbSpline
210
0.0
220
0.0
230
1.0
 70
     8
 71
     3
 72
    10
 73
     6
 74
     0
 42
0.000000001
 43
0.0000000001
 40
0.0
 40
0.0
 40
0.0
 40
0.0
 40
0.5
 40
0.5
 40
1.0
 40
1.0
 40
1.0
 40
1.0
 10
341.4320638565535
 20
289.8650742385452
 30
0.0
 10
341.255466888979
 20
289.814139173006
 30
0.0
 10
341.0768912905555
 20
289.7758749015575
 30
0.0
 10
340.7158343391659
 20
289.7245066997147
 30
0.0
 10
340.5333534309907
 20
289.7113997494177
 30
0.0
 10
340.3488419452958
 20
289.7113997494177
 30
0.0
  0
SPLINE
  5
19F
330
1F
100
AcDbEntity
  8
1
100
AcDbSpline
210
0.0
220
0.0
230
1.0
 70
    24
 71
     3
 72
    22
 73
    18
 74
     0
 42
0.000000001
 43
0.0000000001
 40
0.0
 40
0.0
 40
0.0
 40
0.0
 40
0.1256628969773552
 40
0.1256628969773552
 40
0.2513257939547104
 40
0.2513257939547104
 40
0.3769886909320657
 40
0.3769886909320657
 40
0.5026515879094209
 40
0.5026515879094209
 40
0.6283144848867761
 40
0.6283144848867761
 40
0.7539773818641314
 40
0.7539773818641314
 40
0.8796402788414866
 40
0.8796402788414866
 40
1.0
 40
1.0
 40
1.0
 40
1.0
 10
340.3488419452958
 20
290.2185144887399
 30
0.0
 10
340.3488419452958
 20
290.1168005563735
 30
0.0
 10
340.3488419452958
 20
290.0238056430837
 30
0.0
 10
340.3488419452958
 20
289.8567650585194
 30
0.0
 10
340.3488419452958
 20
289.7827201254573
 30
0.0
 10
340.3488419452958
 20
289.6547842370143
 30
0.0
 10
340.3488419452958
 20
289.6008938470283
 30
0.0
 10
340.3488419452958
 20
289.5141439155279
 30
0.0
 10
340.3488419452958
 20
289.4812847573929
 30
0.0
 10
340.3488419452958
 20
289.4371320305772
 30
0.0
 10
340.3488419452958
 20
289.4258386570232
 30
0.0
 10
340.3488419452958
 20
289.4250014113788
 30
0.0
 10
340.3488419452958
 20
289.4354575429883
 30
0.0
 10
340.3488419452958
 20
289.4779493988259
 30
0.0
 10
340.3488419452958
 20
289.5099849352671
 30
0.0
 10
340.3488419452958
 20
289.5933183302038
 30
0.0
 10
340.3488419452958
 20
289.6437458881748
 30
0.0
 10
340.3488419452958
 20
289.7034534061648
 30
0.0
  0
SPLINE
  5
1A0
330
1F
100
AcDbEntity
  8
1
100
AcDbSpline
210
0.0
220
0.0
230
1.0
 70
     8
 71
     3
 72
    14
 73
    10
 74
     0
 42
0.000000001
 43
0.0000000001
 40
0.0
 40
0.0
 40
0.0
 40
0.0
 40
0.2499999999999998
 40
0.2499999999999998
 40
0.5
 40
0.5
 40
0.75
 40
0.75
 40
1.0
 40
1.0
 40
1.0
 40
1.0
 10
280.7104667711498
 20
274.7767144949083
 30
0.0
 10
281.1490381901189
 20
275.0682579645794
 30
0.0
 10
281.5858951421057
 20
275.3609034717973
 30
0.0
 10
282.4551196089656
 20
275.9490802392473
 30
0.0
 10
282.8874945616742
 20
276.2446067185337
 30
0.0
 10
283.7462289339896
 20
276.839526385191
 30
0.0
 10
284.1726017201293
 20
277.1389109807249
 30
0.0
 10
285.0170327251712
 20
277.7430246697467
 30
0.0
 10
285.4351165065518
 20
278.0477373319993
 30
0.0
 10
285.8472301007209
 20
278.3562875545754
 30
0.0
  0
SPLINE
  5
1A1
330
1F
100
AcDbEntity
  8
1
100
AcDbSpline
210
0.0
220
0.0
230
1.0
 70
     8
 71
     3
 72
    28
 73
    24
 74
     0
 42
0.000000001
 43
0.0000000001
 40
0.0
 40
0.0
 40
0.0
 40
0.0
 40
0.1249999999999999
 40
0.1249999999999999
 40
0.2499999999999998
 40
0.2499999999999998
 40
0.3749999999999998
 40
0.3749999999999998
 40
0.4999999999999992
 40
0.4999999999999992
 40
0.5624999999999984
 40
0.5624999999999984
 40
0.5781249999999983
 40
0.5781249999999983
 40
0.5937499999999979
 40
0.5937499999999979
 40
0.6249999999999976
 40
0.6249999999999976
 40
0.7499999999999984
 40
0.7499999999999984
 40
0.8749999999999992
 40
0.8749999999999992
 40
1.0
 40
1.0
 40
1.0
 40
1.0
 10
287.322074410886
 20
298.6966589236926
 30
0.0
 10
287.5869309054106
 20
298.5013030877412
 30
0.0
 10
287.8584842232308
 20
298.3123031637703
 30
0.0
 10
288.415422785428
 20
297.9475424298424
 30
0.0
 10
288.7008073759643
 20
297.7717776315147
 30
0.0
 10
289.2863177159187
 20
297.4348268241762
 30
0.0
 10
289.5864420147753
 20
297.2736361414718
 30
0.0
 10
290.202842272199
 20
296.9681217520582
 30
0.0
 10
290.5191151681474
 20
296.8237921115746
 30
0.0
 10
291.007119934899
 20
296.622492440374
 30
0.0
 10
291.1720587722245
 20
296.5579341752747
 30
0.0
 10
291.3812648919308
 20
296.4807544902245
 30
0.0
 10
291.4232578598968
 20
296.4654946734831
 30
0.0
 10
291.5075526197743
 20
296.4353366804096
 30
0.0
 10
291.5498606277491
 20
296.4204367493421
 30
0.0
 10
291.6769005258033
 20
296.3764149162904
 30
0.0
 10
291.7618636928497
 20
296.3479290885025
 30
0.0
 10
292.1880429097204
 20
296.2099240759935
 30
0.0
 10
292.5333446486935
 20
296.1136608486627
 30
0.0
 10
293.2330884070264
 20
295.9526074259804
 30
0.0
 10
293.5875286663523
 20
295.8878183891986
 30
0.0
 10
294.3061090542916
 20
295.7932956602725
 30
0.0
 10
294.670245913552
 20
295.7635585902107
 30
0.0
 10
295.039618256146
 20
295.7533454798316
 30
0.0
  0
SPLINE
  5
1A2
330
1F
100
AcDbEntity
  8
1
100
AcDbSpline
210
0.0
220
0.0
230
1.0
 70
     8
 71
     3
 72
    34
 73
    30
 74
     0
 42
0.000000001
 43
0.0000000001
 40
0.0
 40
0.0
 40
0.0
 40
0.0
 40
0.1250000000000005
 40
0.1250000000000005
 40
0.2500000000000011
 40
0.2500000000000011
 40
0.2812500000000007
 40
0.2812500000000007
 40
0.3125000000000004
 40
0.3749999999999998
 40
0.3749999999999998
 40
0.4999999999999988
 40
0.4999999999999988
 40
0.531249999999999
 40
0.5468749999999995
 40
0.5468749999999995
 40
0.5625
 40
0.5625
 40
0.6250000000000006
 40
0.6250000000000006
 40
0.7500000000000017
 40
0.7500000000000017
 40
0.8125000000000021
 40
0.8125000000000021
 40
0.8437500000000017
 40
0.8437500000000017
 40
0.8750000000000015
 40
0.8750000000000015
 40
1.0
 40
1.0
 40
1.0
 40
1.0
 10
279.4048419452957
 20
279.3368923054217
 30
0.0
 10
279.2007117920069
 20
279.2927443056794
 30
0.0
 10
279.0031805249301
 20
279.236357976156
 30
0.0
 10
278.6207675779144
 20
279.1006924318694
 30
0.0
 10
278.4358863435901
 20
279.0214097054356
 30
0.0
 10
278.2129448572786
 20
278.9080223545066
 30
0.0
 10
278.1687129645572
 20
278.8845970102319
 30
0.0
 10
278.0813245347674
 20
278.8364273472642
 30
0.0
 10
277.9523584638615
 20
278.7624774174769
 30
0.0
 10
277.8296409146623
 20
278.6835887039038
 30
0.0
 10
277.5924181590353
 20
278.5195007336447
 30
0.0
 10
277.4451675404216
 20
278.4017317189503
 30
0.0
 10
277.2751079584316
 20
278.2443820028257
 30
0.0
 10
277.2251465602617
 20
278.1964122639799
 30
0.0
 10
277.1768001706687
 20
278.1472909337588
 30
0.0
 10
277.1449324138893
 20
278.1142863714256
 30
0.0
 10
277.1291634458839
 20
278.0976372766838
 30
0.0
 10
277.0515576840172
 20
278.0140946724296
 30
0.0
 10
276.9932747179938
 20
277.9461604560245
 30
0.0
 10
276.8295838705816
 20
277.7393160412095
 30
0.0
 10
276.7352662373346
 20
277.5973866922063
 30
0.0
 10
276.6162754547523
 20
277.379026138882
 30
0.0
 10
276.5803762028099
 20
277.305322416366
 30
0.0
 10
276.5323714118003
 20
277.1934118775961
 30
0.0
 10
276.5173273566213
 20
277.1558251054489
 30
0.0
 10
276.4894462280096
 20
277.0807948405146
 30
0.0
 10
276.476580017563
 20
277.0432909382716
 30
0.0
 10
276.417577811056
 20
276.85584998689
 30
0.0
 10
276.3873290226632
 20
276.7061598543788
 30
0.0
 10
276.3742819969054
 20
276.5569248958121
 30
0.0
  0
SPLINE
  5
1A3
330
1F
100
AcDbEntity
  8
1
100
AcDbSpline
210
0.0
220
0.0
230
1.0
 70
     8
 71
     3
 72
    12
 73
     8
 74
     0
 42
0.000000001
 43
0.0000000001
 40
0.0
 40
0.0
 40
0.0
 40
0.0
 40
0.5000000000000014
 40
0.5000000000000014
 40
0.7500000000000007
 40
0.7500000000000007
 40
1.0
 40
1.0
 40
1.0
 40
1.0
 10
281.1961943483307
 20
280.6105296419309
 30
0.0
 10
280.8941419421719
 20
280.4261769336502
 30
0.0
 10
280.5936068460933
 20
280.2305835273638
 30
0.0
 10
280.1456222613073
 20
279.9143360778219
 30
0.0
 10
279.9967615506517
 20
279.8051074718745
 30
0.0
 10
279.7000398590916
 20
279.5778942470315
 30
0.0
 10
279.5521788593533
 20
279.4599135334318
 30
0.0
 10
279.4048419452957
 20
279.3368923054217
 30
0.0
  0
SPLINE
  5
1A4
330
1F
100
AcDbEntity
  8
1
100
AcDbSpline
210
0.0
220
0.0
230
1.0
 70
     8
 71
     3
 72
    10
 73
     6
 74
     0
 42
0.000000001
 43
0.0000000001
 40
0.0
 40
0.0
 40
0.0
 40
0.0
 40
0.5
 40
0.5
 40
1.0
 40
1.0
 40
1.0
 40
1.0
 10
285.8472301007209
 20
283.4553927437821
 30
0.0
 10
285.0731678790274
 20
282.9804556234164
 30
0.0
 10
284.2983374097855
 20
282.5060673374736
 30
0.0
 10
282.7478308945724
 20
281.5578948438144
 30
0.0
 10
281.9721444998181
 20
281.0841180292466
 30
0.0
 10
281.1961943483306
 20
280.6105296419309
 30
0.0
  0
SPLINE
  5
1A5
330
1F
100
AcDbEntity
  8
1
100
AcDbSpline
210
0.0
220
0.0
230
1.0
 70
     8
 71
     3
 72
    29
 73
    25
 74
     0
 42
0.000000001
 43
0.0000000001
 40
0.0
 40
0.0
 40
0.0
 40
0.0
 40
0.1250000000000098
 40
0.1250000000000098
 40
0.1875000000000126
 40
0.1875000000000126
 40
0.2500000000000154
 40
0.2500000000000154
 40
0.3750000000000211
 40
0.3750000000000211
 40
0.4375000000000222
 40
0.4375000000000222
 40
0.5000000000000233
 40
0.5000000000000233
 40
0.6250000000000763
 40
0.6250000000000763
 40
0.6875000000000748
 40
0.6875000000000748
 40
0.7500000000000734
 40
0.8125000000000719
 40
0.8125000000000719
 40
0.8750000000000705
 40
0.8750000000000705
 40
1.0
 40
1.0
 40
1.0
 40
1.0
 10
345.3925702678369
 20
296.1550302929779
 30
0.0
 10
345.3914325035952
 20
296.1804757455796
 30
0.0
 10
345.3877276565667
 20
296.2053678328563
 30
0.0
 10
345.3785544608044
 20
296.2419265079447
 30
0.0
 10
345.3748890866422
 20
296.2539817484386
 30
0.0
 10
345.3663250954162
 20
296.2778263892039
 30
0.0
 10
345.3614133676918
 20
296.2896241581043
 30
0.0
 10
345.3451517540607
 20
296.3238559280833
 30
0.0
 10
345.3322060301202
 20
296.3454052108912
 30
0.0
 10
345.3096766746879
 20
296.3758492109417
 30
0.0
 10
345.3015996430516
 20
296.385729446321
 30
0.0
 10
345.2845972252143
 20
296.4045801221686
 30
0.0
 10
345.2756994711648
 20
296.4135313359664
 30
0.0
 10
345.2478496271251
 20
296.4390021249769
 30
0.0
 10
345.227752454131
 20
296.4541525963061
 30
0.0
 10
345.1952329469108
 20
296.4740401621136
 30
0.0
 10
345.1840423112022
 20
296.4801555537529
 30
0.0
 10
345.1613360294577
 20
296.4911748405836
 30
0.0
 10
345.1382008030085
 20
296.5010480103309
 30
0.0
 10
345.1142133485968
 20
296.5086440729928
 30
0.0
 10
345.0897896566353
 20
296.5150745324834
 30
0.0
 10
345.0773000076923
 20
296.5177152554077
 30
0.0
 10
345.0396276439519
 20
296.5237220908245
 30
0.0
 10
345.014333649783
 20
296.5252077042633
 30
0.0
 10
344.9888550589399
 20
296.5240968491445
 30
0.0
  0
SPLINE
  5
1A6
330
1F
100
AcDbEntity
  8
1
100
AcDbSpline
210
0.0
220
0.0
230
1.0
 70
     8
 71
     3
 72
    29
 73
    25
 74
     0
 42
0.000000001
 43
0.0000000001
 40
0.0
 40
0.0
 40
0.0
 40
0.0
 40
0.1249999999999066
 40
0.1249999999999066
 40
0.1874999999998939
 40
0.1874999999998939
 40
0.2499999999998812
 40
0.2499999999998812
 40
0.3749999999999176
 40
0.3749999999999176
 40
0.4374999999999359
 40
0.4374999999999359
 40
0.4999999999999541
 40
0.4999999999999541
 40
0.6249999999999907
 40
0.6249999999999907
 40
0.6874999999999912
 40
0.6874999999999912
 40
0.7499999999999916
 40
0.8124999999999921
 40
0.8124999999999921
 40
0.8749999999999925
 40
0.8749999999999925
 40
1.0
 40
1.0
 40
1.0
 40
1.0
 10
340.2121479111625
 20
296.3158345626478
 30
0.0
 10
340.1866666291307
 20
296.3147235901946
 30
0.0
 10
340.1617420526251
 20
296.3110487083555
 30
0.0
 10
340.1251393486116
 20
296.3019249303476
 30
0.0
 10
340.1130702224528
 20
296.2982767799313
 30
0.0
 10
340.0891994150113
 20
296.2897487607192
 30
0.0
 10
340.0773893659011
 20
296.2848558085322
 30
0.0
 10
340.0431239504412
 20
296.2686515858703
 30
0.0
 10
340.0215561640787
 20
296.2557459158326
 30
0.0
 10
339.9910902126419
 20
296.2332792917721
 30
0.0
 10
339.9812036095033
 20
296.2252237280592
 30
0.0
 10
339.9623423576743
 20
296.2082645765154
 30
0.0
 10
339.9533869362732
 20
296.1993885617942
 30
0.0
 10
339.9279066755595
 20
296.1716042454315
 30
0.0
 10
339.9127540599092
 20
296.1515511674004
 30
0.0
 10
339.8928697448959
 20
296.1190984382332
 30
0.0
 10
339.8867565296562
 20
296.1079300625621
 30
0.0
 10
339.875743676191
 20
296.0852675748003
 30
0.0
 10
339.8658790281261
 20
296.0621756314638
 30
0.0
 10
339.8582956362176
 20
296.0382304451678
 30
0.0
 10
339.8518799713024
 20
296.0138485017666
 30
0.0
 10
339.8492477545052
 20
296.0013795620156
 30
0.0
 10
339.8432694200498
 20
295.9637677280774
 30
0.0
 10
339.841806642394
 20
295.9385118576402
 30
0.0
 10
339.8429442864714
 20
295.9130690924429
 30
0.0
  0
SPLINE
  5
1A7
330
1F
100
AcDbEntity
  8
1
100
AcDbSpline
210
0.0
220
0.0
230
1.0
 70
     8
 71
     3
 72
    29
 73
    25
 74
     0
 42
0.000000001
 43
0.0000000001
 40
0.0
 40
0.0
 40
0.0
 40
0.0
 40
0.124999999999944
 40
0.124999999999944
 40
0.187499999999916
 40
0.187499999999916
 40
0.249999999999888
 40
0.249999999999888
 40
0.3749999999998634
 40
0.3749999999998634
 40
0.4374999999998706
 40
0.4374999999998706
 40
0.4999999999998779
 40
0.4999999999998779
 40
0.6249999999998916
 40
0.6249999999998916
 40
0.6874999999998984
 40
0.6874999999998984
 40
0.7499999999999052
 40
0.812499999999912
 40
0.812499999999912
 40
0.8749999999999189
 40
0.8749999999999189
 40
1.0
 40
1.0
 40
1.0
 40
1.0
 10
340.0562289468974
 20
291.143078509944
 30
0.0
 10
340.057366711139
 20
291.1176330573422
 30
0.0
 10
340.0610715581678
 20
291.0927409700657
 30
0.0
 10
340.07024475393
 20
291.0561822949772
 30
0.0
 10
340.0739101280922
 20
291.0441270544833
 30
0.0
 10
340.0824741193182
 20
291.020282413718
 30
0.0
 10
340.0873858470425
 20
291.0084846448177
 30
0.0
 10
340.1036474606736
 20
290.9742528748386
 30
0.0
 10
340.116593184614
 20
290.9527035920307
 30
0.0
 10
340.1391225400464
 20
290.9222595919802
 30
0.0
 10
340.1471995716827
 20
290.9123793566008
 30
0.0
 10
340.1642019895201
 20
290.8935286807533
 30
0.0
 10
340.1730997435694
 20
290.8845774669556
 30
0.0
 10
340.2009495876092
 20
290.859106677945
 30
0.0
 10
340.2210467606033
 20
290.8439562066158
 30
0.0
 10
340.2535662678234
 20
290.8240686408083
 30
0.0
 10
340.2647569035321
 20
290.817953249169
 30
0.0
 10
340.2874631852764
 20
290.8069339623383
 30
0.0
 10
340.3105984117258
 20
290.797060792591
 30
0.0
 10
340.3345858661374
 20
290.7894647299291
 30
0.0
 10
340.3590095580988
 20
290.7830342704385
 30
0.0
 10
340.3714992070419
 20
290.7803935475142
 30
0.0
 10
340.4091715707823
 20
290.7743867120974
 30
0.0
 10
340.4344655649512
 20
290.7729010986586
 30
0.0
 10
340.4599441557943
 20
290.7740119537773
 30
0.0
  0
SPLINE
  5
1A8
330
1F
100
AcDbEntity
  8
1
100
AcDbSpline
210
0.0
220
0.0
230
1.0
 70
     8
 71
     3
 72
    29
 73
    25
 74
     0
 42
0.000000001
 43
0.0000000001
 40
0.0
 40
0.0
 40
0.0
 40
0.0
 40
0.124999999999973
 40
0.124999999999973
 40
0.1874999999999932
 40
0.1874999999999932
 40
0.2500000000000134
 40
0.2500000000000134
 40
0.3749999999999916
 40
0.3749999999999916
 40
0.4374999999999803
 40
0.4374999999999803
 40
0.4999999999999689
 40
0.4999999999999689
 40
0.6249999999999459
 40
0.6249999999999459
 40
0.6874999999999531
 40
0.6874999999999531
 40
0.7499999999999604
 40
0.8124999999999676
 40
0.8124999999999676
 40
0.8749999999999749
 40
0.8749999999999749
 40
1.0
 40
1.0
 40
1.0
 40
1.0
 10
345.2366513035717
 20
290.982274240274
 30
0.0
 10
345.2621325856035
 20
290.9833852127274
 30
0.0
 10
345.2870571621093
 20
290.9870600945665
 30
0.0
 10
345.3236598661226
 20
290.9961838725743
 30
0.0
 10
345.3357289922815
 20
290.9998320229907
 30
0.0
 10
345.359599799723
 20
291.0083600422027
 30
0.0
 10
345.3714098488331
 20
291.0132529943899
 30
0.0
 10
345.4056752642931
 20
291.0294572170516
 30
0.0
 10
345.4272430506555
 20
291.0423628870894
 30
0.0
 10
345.4577090020924
 20
291.0648295111498
 30
0.0
 10
345.4675956052309
 20
291.0728850748628
 30
0.0
 10
345.4864568570599
 20
291.0898442264065
 30
0.0
 10
345.495412278461
 20
291.0987202411278
 30
0.0
 10
345.5208925391747
 20
291.1265045574905
 30
0.0
 10
345.5360451548249
 20
291.1465576355215
 30
0.0
 10
345.5559294698384
 20
291.1790103646887
 30
0.0
 10
345.5620426850782
 20
291.1901787403598
 30
0.0
 10
345.5730555385433
 20
291.2128412281216
 30
0.0
 10
345.5829201866081
 20
291.2359331714582
 30
0.0
 10
345.5905035785166
 20
291.2598783577541
 30
0.0
 10
345.5969192434318
 20
291.2842603011553
 30
0.0
 10
345.599551460229
 20
291.2967292409062
 30
0.0
 10
345.6055297946845
 20
291.3343410748445
 30
0.0
 10
345.6069925723401
 20
291.3595969452817
 30
0.0
 10
345.6058549282627
 20
291.385039710479
 30
0.0
  0
SPLINE
  5
1A9
330
1F
100
AcDbEntity
  8
1
100
AcDbSpline
210
0.0
220
0.0
230
1.0
 70
     8
 71
     3
 72
    14
 73
    10
 74
     0
 42
0.000000001
 43
0.0000000001
 40
0.0
 40
0.0
 40
0.0
 40
0.0
 40
0.0581782240424362
 40
0.0581782240424362
 40
0.2465425792338055
 40
0.2465425792338055
 40
0.6232712896169029
 40
0.6232712896169029
 40
1.0
 40
1.0
 40
1.0
 40
1.0
 10
343.6242527882921
 20
293.6499314141688
 30
0.0
 10
343.6233814981731
 20
293.6487583705718
 30
0.0
 10
343.6224801306836
 20
293.647610998824
 30
0.0
 10
343.6185349070552
 20
293.6428560118926
 30
0.0
 10
343.615175051251
 20
293.6394606973864
 30
0.0
 10
343.6044012994108
 20
293.6303240208088
 30
0.0
 10
343.5963589010747
 20
293.6256196123192
 30
0.0
 10
343.5789095555084
 20
293.6190535277469
 30
0.0
 10
343.5698738679297
 20
293.6173124357069
 30
0.0
 10
343.5605333809158
 20
293.617096367965
 30
0.0
  0
SPLINE
  5
1AA
330
1F
100
AcDbEntity
  8
1
100
AcDbSpline
210
0.0
220
0.0
230
1.0
 70
     8
 71
     3
 72
    14
 73
    10
 74
     0
 42
0.000000001
 43
0.0000000001
 40
0.0
 40
0.0
 40
0.0
 40
0.0
 40
0.25
 40
0.25
 40
0.5
 40
0.5
 40
0.75
 40
0.75
 40
1.0
 40
1.0
 40
1.0
 40
1.0
 10
343.4995841959412
 20
293.5877729294099
 30
0.0
 10
343.5034149177729
 20
293.5923804822223
 30
0.0
 10
343.507732522253
 20
293.5965249296324
 30
0.0
 10
343.51696502038
 20
293.6036624959555
 30
0.0
 10
343.5218894534893
 20
293.6066822718199
 30
0.0
 10
343.5323408181639
 20
293.6116565109063
 30
0.0
 10
343.5378636781429
 20
293.6135894371922
 30
0.0
 10
343.5490222371811
 20
293.6162261525631
 30
0.0
 10
343.5547176624384
 20
293.616961836526
 30
0.0
 10
343.5605333809158
 20
293.617096367965
 30
0.0
  0
SPLINE
  5
1AB
330
1F
100
AcDbEntity
  8
1
100
AcDbSpline
210
0.0
220
0.0
230
1.0
 70
     8
 71
     3
 72
    19
 73
    15
 74
     0
 42
0.000000001
 43
0.0000000001
 40
0.0
 40
0.0
 40
0.0
 40
0.0
 40
0.1643027588070959
 40
0.1643027588070959
 40
0.3035856323392607
 40
0.3035856323392607
 40
0.4428685058714256
 40
0.5821513794035902
 40
0.5821513794035902
 40
0.6517928161696749
 40
0.6517928161696749
 40
0.7214342529357595
 40
0.7214342529357595
 40
1.0
 40
1.0
 40
1.0
 40
1.0
 10
343.4862993509255
 20
293.0129065857176
 30
0.0
 10
343.4791235563516
 20
292.9942643995277
 30
0.0
 10
343.4706732278477
 20
292.9761731036008
 30
0.0
 10
343.4527114973982
 20
292.9437604910399
 30
0.0
 10
343.4435217163949
 20
292.9292773491401
 30
0.0
 10
343.4237424244985
 20
292.9018305181087
 30
0.0
 10
343.4024675560617
 20
292.8757098934773
 30
0.0
 10
343.3782347272118
 20
292.8522119782623
 30
0.0
 10
343.3589169389969
 20
292.8356022484024
 30
0.0
 10
343.3522796702214
 20
292.830232341065
 30
0.0
 10
343.3388024283059
 20
292.8199775240458
 30
0.0
 10
343.3319409900952
 20
292.815073200081
 30
0.0
 10
343.2970319542151
 20
292.7916452777072
 30
0.0
 10
343.2672032004636
 20
292.7763578286528
 30
0.0
 10
343.2354306523492
 20
292.7646133542885
 30
0.0
  0
SPLINE
  5
1AC
330
1F
100
AcDbEntity
  8
1
100
AcDbSpline
210
0.0
220
0.0
230
1.0
 70
     8
 71
     3
 72
    12
 73
     8
 74
     0
 42
0.000000001
 43
0.0000000001
 40
0.0
 40
0.0
 40
0.0
 40
0.0
 40
0.0926592492764528
 40
0.0926592492764528
 40
0.3951061661843372
 40
0.3951061661843372
 40
1.0
 40
1.0
 40
1.0
 40
1.0
 10
343.4212035236247
 20
293.4428500784142
 30
0.0
 10
343.422736493774
 20
293.447807593492
 30
0.0
 10
343.4243605391609
 20
293.4527399516398
 30
0.0
 10
343.4316756829916
 20
293.4736642394088
 30
0.0
 10
343.4382891486736
 20
293.4894566431329
 30
0.0
 10
343.4604582918489
 20
293.5346388674145
 30
0.0
 10
343.4784456105691
 20
293.5623476563778
 30
0.0
 10
343.4995841959412
 20
293.5877729294099
 30
0.0
  0
SPLINE
  5
1AD
330
1F
100
AcDbEntity
  8
1
100
AcDbSpline
210
0.0
220
0.0
230
1.0
 70
     8
 71
     3
 72
    18
 73
    14
 74
     0
 42
0.000000001
 43
0.0000000001
 40
0.0
 40
0.0
 40
0.0
 40
0.0
 40
0.1249999999999216
 40
0.1249999999999216
 40
0.2499999999998431
 40
0.2499999999998431
 40
0.3749999999997647
 40
0.3749999999997647
 40
0.4999999999996863
 40
0.4999999999996863
 40
0.7499999999998432
 40
0.7499999999998432
 40
1.0
 40
1.0
 40
1.0
 40
1.0
 10
343.2354306523492
 20
292.7646133542885
 30
0.0
 10
343.2307682355552
 20
292.7628899283198
 30
0.0
 10
343.2260314925608
 20
292.7616149286582
 30
0.0
 10
343.2164177080799
 20
292.7599155633949
 30
0.0
 10
343.2114917271732
 20
292.7594943423458
 30
0.0
 10
343.2017872624902
 20
292.7595246238413
 30
0.0
 10
343.1970079665527
 20
292.759964774084
 30
0.0
 10
343.1875898576925
 20
292.7616556259773
 30
0.0
 10
343.1829085500197
 20
292.7629237115322
 30
0.0
 10
343.1694224041006
 20
292.7678598969077
 30
0.0
 10
343.1611897577441
 20
292.772599539336
 30
0.0
 10
343.1464948404616
 20
292.7846927725217
 30
0.0
 10
343.1403243037764
 20
292.7917820644395
 30
0.0
 10
343.1353198135128
 20
292.7999012876517
 30
0.0
  0
SPLINE
  5
1AE
330
1F
100
AcDbEntity
  8
1
100
AcDbSpline
210
0.0
220
0.0
230
1.0
 70
     8
 71
     3
 72
    14
 73
    10
 74
     0
 42
0.000000001
 43
0.0000000001
 40
0.0
 40
0.0
 40
0.0
 40
0.0
 40
0.25
 40
0.25
 40
0.5
 40
0.5
 40
0.75
 40
0.75
 40
1.0
 40
1.0
 40
1.0
 40
1.0
 10
343.0784474920396
 20
292.8389546529757
 30
0.0
 10
343.0844194923284
 20
292.8378799957749
 30
0.0
 10
343.0902414803597
 20
292.8361448708894
 30
0.0
 10
343.1011944403936
 20
292.8315741343675
 30
0.0
 10
343.1063543109882
 20
292.8287431008468
 30
0.0
 10
343.1160612007167
 20
292.8220182416347
 30
0.0
 10
343.1205860053961
 20
292.818118418405
 30
0.0
 10
343.1286281623246
 20
292.8096059773221
 30
0.0
 10
343.1322037942105
 20
292.8049566788936
 30
0.0
 10
343.1353198135128
 20
292.7999012876517
 30
0.0
  0
SPLINE
  5
1AF
330
1F
100
AcDbEntity
  8
1
100
AcDbSpline
210
0.0
220
0.0
230
1.0
 70
     8
 71
     3
 72
    20
 73
    16
 74
     0
 42
0.000000001
 43
0.0000000001
 40
0.0
 40
0.0
 40
0.0
 40
0.0
 40
0.1249999999999475
 40
0.1249999999999475
 40
0.249999999999895
 40
0.3124999999999122
 40
0.3124999999999122
 40
0.3749999999999292
 40
0.3749999999999292
 40
0.4999999999999634
 40
0.6249999999999976
 40
0.6249999999999976
 40
0.7500000000000318
 40
0.7500000000000318
 40
1.0
 40
1.0
 40
1.0
 40
1.0
 10
342.7054932410571
 20
292.7214964482487
 30
0.0
 10
342.7175294471278
 20
292.7334439172454
 30
0.0
 10
342.7302935211497
 20
292.7447140499264
 30
0.0
 10
342.7569165237369
 20
292.7655758935855
 30
0.0
 10
342.7777688434286
 20
292.7800319779374
 30
0.0
 10
342.7999876464947
 20
292.7926650177911
 30
0.0
 10
342.8151144443173
 20
292.8006690498537
 30
0.0
 10
342.8228652203961
 20
292.8044754513245
 30
0.0
 10
342.8463199763041
 20
292.8151184286451
 30
0.0
 10
342.8781551557303
 20
292.8272794243697
 30
0.0
 10
342.9110830466023
 20
292.8354895264982
 30
0.0
 10
342.9445657741737
 20
292.8416965100218
 30
0.0
 10
342.9616435700226
 20
292.843786084024
 30
0.0
 10
343.0121980321961
 20
292.8468825904906
 30
0.0
 10
343.0454925010044
 20
292.8448848801527
 30
0.0
 10
343.0784474920396
 20
292.8389546529757
 30
0.0
  0
SPLINE
  5
1B0
330
1F
100
AcDbEntity
  8
1
100
AcDbSpline
210
0.0
220
0.0
230
1.0
 70
     8
 71
     3
 72
    12
 73
     8
 74
     0
 42
0.000000001
 43
0.0000000001
 40
0.0
 40
0.0
 40
0.0
 40
0.0
 40
0.1492778371380729
 40
0.1492778371380729
 40
0.5746389185690365
 40
0.5746389185690365
 40
1.0
 40
1.0
 40
1.0
 40
1.0
 10
342.6837927677381
 20
292.6855415323158
 30
0.0
 10
342.6844059121449
 20
292.6875309438407
 30
0.0
 10
342.6850914966849
 20
292.6895017604628
 30
0.0
 10
342.6880109316077
 20
292.6970165567366
 30
0.0
 10
342.6907883018642
 20
292.7024388119903
 30
0.0
 10
342.6973414761293
 20
292.7124832003154
 30
0.0
 10
342.7011356006985
 20
292.717170934646
 30
0.0
 10
342.7054932410573
 20
292.7214964482488
 30
0.0
  0
SPLINE
  5
1B1
330
1F
100
AcDbEntity
  8
1
100
AcDbSpline
210
0.0
220
0.0
230
1.0
 70
     8
 71
     3
 72
    14
 73
    10
 74
     0
 42
0.000000001
 43
0.0000000001
 40
0.0
 40
0.0
 40
0.0
 40
0.0
 40
0.1242140902679335
 40
0.1242140902679335
 40
0.416142726845289
 40
0.416142726845289
 40
0.7080713634226445
 40
0.7080713634226445
 40
1.0
 40
1.0
 40
1.0
 40
1.0
 10
342.658623661483
 20
292.5959228261373
 30
0.0
 10
342.657259146922
 20
292.5943594147313
 30
0.0
 10
342.6558390149391
 20
292.5928458705361
 30
0.0
 10
342.6509183430281
 20
292.5879711847098
 30
0.0
 10
342.6471751746707
 20
292.584840499372
 30
0.0
 10
342.6390722957862
 20
292.5791923753148
 30
0.0
 10
342.6347753107913
 20
292.5767255704881
 30
0.0
 10
342.6258594011533
 20
292.5725970643471
 30
0.0
 10
342.6212161645616
 20
292.5709176432489
 30
0.0
 10
342.6163757833518
 20
292.5696482255943
 30
0.0
  0
SPLINE
  5
1B2
330
1F
100
AcDbEntity
  8
1
100
AcDbSpline
210
0.0
220
0.0
230
1.0
 70
     8
 71
     3
 72
    19
 73
    15
 74
     0
 42
0.000000001
 43
0.0000000001
 40
0.0
 40
0.0
 40
0.0
 40
0.0
 40
0.2500000000002166
 40
0.2500000000002166
 40
0.3750000000002739
 40
0.3750000000002739
 40
0.5000000000003312
 40
0.6250000000003884
 40
0.6250000000003884
 40
0.6875000000003695
 40
0.6875000000003695
 40
0.7500000000003505
 40
0.7500000000003505
 40
1.0
 40
1.0
 40
1.0
 40
1.0
 10
342.6163757833518
 20
292.5696482255943
 30
0.0
 10
342.5833851262155
 20
292.5609962370856
 30
0.0
 10
342.5498967458158
 20
292.5563483984049
 30
0.0
 10
342.4989252084596
 20
292.5553495953766
 30
0.0
 10
342.481787315341
 20
292.5560398097318
 30
0.0
 10
342.448110596249
 20
292.5594080069359
 30
0.0
 10
342.4148177950883
 20
292.5647498750573
 30
0.0
 10
342.38228425929
 20
292.5739950443207
 30
0.0
 10
342.3581775729398
 20
292.5824375882411
 30
0.0
 10
342.350185297279
 20
292.5855085302312
 30
0.0
 10
342.3345157455261
 20
292.5920721959387
 30
0.0
 10
342.3268108392452
 20
292.595573826739
 30
0.0
 10
342.2889230648523
 20
292.6141594312459
 30
0.0
 10
342.2606242381188
 20
292.6324316622602
 30
0.0
 10
342.2343892744188
 20
292.6541913522212
 30
0.0
  0
SPLINE
  5
1B3
330
1F
100
AcDbEntity
  8
1
100
AcDbSpline
210
0.0
220
0.0
230
1.0
 70
     8
 71
     3
 72
    14
 73
    10
 74
     0
 42
0.000000001
 43
0.0000000001
 40
0.0
 40
0.0
 40
0.0
 40
0.0
 40
0.25
 40
0.25
 40
0.5
 40
0.5
 40
0.75
 40
0.75
 40
1.0
 40
1.0
 40
1.0
 40
1.0
 10
341.8611764765363
 20
293.0819009367485
 30
0.0
 10
341.8661500264656
 20
293.0851637868591
 30
0.0
 10
341.8714540759844
 20
293.0879087374873
 30
0.0
 10
341.8824476189481
 20
293.0922357752208
 30
0.0
 10
341.8881083120036
 20
293.0938177219679
 30
0.0
 10
341.8997644722877
 20
293.0958019993966
 30
0.0
 10
341.9057824224639
 20
293.0961883223154
 30
0.0
 10
341.9176373004355
 20
293.0956840959293
 30
0.0
 10
341.9235392824065
 20
293.0948114838761
 30
0.0
 10
341.9294155294946
 20
293.0932640393964
 30
0.0
  0
SPLINE
  5
1B4
330
1F
100
AcDbEntity
  8
1
100
AcDbSpline
210
0.0
220
0.0
230
1.0
 70
     8
 71
     3
 72
    20
 73
    16
 74
     0
 42
0.000000001
 43
0.0000000001
 40
0.0
 40
0.0
 40
0.0
 40
0.0
 40
0.2499999999997538
 40
0.2499999999997538
 40
0.3749999999997947
 40
0.3749999999997947
 40
0.4999999999998358
 40
0.4999999999998358
 40
0.6249999999998769
 40
0.6249999999998769
 40
0.7499999999999179
 40
0.7499999999999179
 40
0.8749999999999589
 40
0.8749999999999589
 40
1.0
 40
1.0
 40
1.0
 40
1.0
 10
341.8611764765363
 20
293.0819009367485
 30
0.0
 10
341.8531850329217
 20
293.076658226199
 30
0.0
 10
341.8445866276222
 20
293.072851532455
 30
0.0
 10
341.830782920149
 20
293.0692939619476
 30
0.0
 10
341.8260398216916
 20
293.0684864488143
 30
0.0
 10
341.8165790345457
 20
293.0676862836739
 30
0.0
 10
341.8118203012463
 20
293.0676812409936
 30
0.0
 10
341.8022450177875
 20
293.0684982187805
 30
0.0
 10
341.797458271752
 20
293.06932582474
 30
0.0
 10
341.7881664273749
 20
293.0717778080319
 30
0.0
 10
341.7836210697179
 20
293.0734041832463
 30
0.0
 10
341.7747448799975
 20
293.0775052222582
 30
0.0
 10
341.7704898073302
 20
293.0799510424343
 30
0.0
 10
341.7625046259972
 20
293.0855350538679
 30
0.0
 10
341.758747699992
 20
293.0886849498128
 30
0.0
 10
341.7552421336509
 20
293.0922159330224
 30
0.0
  0
SPLINE
  5
1B5
330
1F
100
AcDbEntity
  8
1
100
AcDbSpline
210
0.0
220
0.0
230
1.0
 70
     8
 71
     3
 72
    14
 73
    10
 74
     0
 42
0.000000001
 43
0.0000000001
 40
0.0
 40
0.0
 40
0.0
 40
0.0
 40
0.25
 40
0.25
 40
0.5
 40
0.5
 40
0.75
 40
0.75
 40
1.0
 40
1.0
 40
1.0
 40
1.0
 10
289.8042164632906
 20
280.5659037144472
 30
0.0
 10
289.4359335691951
 20
280.4133935254684
 30
0.0
 10
289.077505879879
 20
280.2527952691236
 30
0.0
 10
288.379394654198
 20
279.9162156187743
 30
0.0
 10
288.0397329395989
 20
279.7402163158662
 30
0.0
 10
287.3794335356929
 20
279.3726048839774
 30
0.0
 10
287.0588046715881
 20
279.1809855122418
 30
0.0
 10
286.4375850392692
 20
278.7813017051647
 30
0.0
 10
286.1369960145767
 20
278.5732358389325
 30
0.0
 10
285.8472301007209
 20
278.3562875545754
 30
0.0
  0
SPLINE
  5
1B6
330
1F
100
AcDbEntity
  8
1
100
AcDbSpline
210
0.0
220
0.0
230
1.0
 70
     8
 71
     3
 72
    13
 73
     9
 74
     0
 42
0.000000001
 43
0.0000000001
 40
0.0
 40
0.0
 40
0.0
 40
0.0
 40
0.072254402093271
 40
0.072254402093271
 40
0.1445088041865502
 40
0.289017608373084
 40
0.5780352167461269
 40
1.0
 40
1.0
 40
1.0
 40
1.0
 10
313.7195086119625
 20
283.068481730543
 30
0.0
 10
313.7286508835301
 20
283.0725216954247
 30
0.0
 10
313.7377689078227
 20
283.0765549813329
 30
0.0
 10
313.7562314207662
 20
283.0846961736804
 30
0.0
 10
313.7839356870365
 20
283.0968910975461
 30
0.0
 10
313.8486519466269
 20
283.1252283058898
 30
0.0
 10
313.9583582528389
 20
283.1727636349286
 30
0.0
 10
314.0498559907542
 20
283.2117386402392
 30
0.0
 10
314.1042690078355
 20
283.2346866551443
 30
0.0
  0
SPLINE
  5
1B7
330
1F
100
AcDbEntity
  8
1
100
AcDbSpline
210
0.0
220
0.0
230
1.0
 70
     9
 71
     3
 72
   122
 73
   118
 74
     0
 42
0.000000001
 43
0.0000000001
 40
0.0
 40
0.0
 40
0.0
 40
0.0
 40
0.031249999999959
 40
0.031249999999959
 40
0.0468749999999421
 40
0.0468749999999421
 40
0.0546874999999337
 40
0.0546874999999337
 40
0.0624999999999253
 40
0.0624999999999253
 40
0.0937499999998915
 40
0.0937499999998915
 40
0.10156249999988
 40
0.10156249999988
 40
0.1093749999998686
 40
0.1093749999998686
 40
0.1249999999998511
 40
0.1406249999998336
 40
0.1406249999998336
 40
0.1562499999998162
 40
0.1562499999998162
 40
0.1874999999997848
 40
0.1874999999997848
 40
0.2031249999997703
 40
0.2031249999997703
 40
0.2109374999997641
 40
0.2109374999997641
 40
0.2187499999997579
 40
0.2187499999997579
 40
0.2499999999997349
 40
0.2499999999997349
 40
0.2578124999997292
 40
0.2578124999997292
 40
0.2656249999997236
 40
0.2656249999997236
 40
0.2812499999997116
 40
0.2812499999997116
 40
0.3124999999996861
 40
0.3124999999996861
 40
0.3203124999996804
 40
0.3203124999996804
 40
0.3281249999996748
 40
0.3437499999996635
 40
0.3437499999996635
 40
0.3749999999996451
 40
0.3749999999996451
 40
0.3828124999996391
 40
0.3828124999996391
 40
0.3906249999996333
 40
0.406249999999616
 40
0.4218749999995985
 40
0.4218749999995985
 40
0.4296874999995898
 40
0.4296874999995898
 40
0.4374999999995812
 40
0.4374999999995812
 40
0.4687499999995535
 40
0.4687499999995535
 40
0.4843749999995395
 40
0.4843749999995395
 40
0.4921874999995363
 40
0.4921874999995363
 40
0.4999999999995329
 40
0.4999999999995329
 40
0.5312499999995422
 40
0.5312499999995422
 40
0.5390624999995426
 40
0.5390624999995426
 40
0.5468749999995432
 40
0.5624999999995511
 40
0.578124999999559
 40
0.578124999999559
 40
0.5859374999995631
 40
0.5859374999995631
 40
0.593749999999567
 40
0.593749999999567
 40
0.6249999999995947
 40
0.6249999999995947
 40
0.640624999999611
 40
0.640624999999611
 40
0.6562499999996274
 40
0.6562499999996274
 40
0.6874999999996638
 40
0.6874999999996638
 40
0.7031249999996819
 40
0.7031249999996819
 40
0.7187499999996998
 40
0.734374999999718
 40
0.734374999999718
 40
0.7421874999997267
 40
0.7421874999997267
 40
0.7499999999997355
 40
0.7499999999997355
 40
0.7812499999997722
 40
0.7812499999997722
 40
0.7968749999997897
 40
0.7968749999997897
 40
0.8124999999998072
 40
0.8124999999998072
 40
0.8437499999998424
 40
0.8437499999998424
 40
0.85937499999986
 40
0.85937499999986
 40
0.8749999999998776
 40
0.8749999999998776
 40
0.9062499999999129
 40
0.9062499999999129
 40
0.9218749999999273
 40
0.9218749999999273
 40
0.9374999999999417
 40
0.9531249999999563
 40
0.9531249999999563
 40
0.9609374999999635
 40
0.9609374999999635
 40
0.9687499999999708
 40
0.9687499999999708
 40
1.0
 40
1.0
 40
1.0
 40
1.0
 10
343.0154237619444
 20
287.6460001828444
 30
0.0
 10
343.0746632211882
 20
287.644966154237
 30
0.0
 10
343.1327643267829
 20
287.6379952851853
 30
0.0
 10
343.2182784846656
 20
287.6190124443594
 30
0.0
 10
343.2465081196709
 20
287.6112526638366
 30
0.0
 10
343.2884293161929
 20
287.5974132192932
 30
0.0
 10
343.3023713719411
 20
287.5924166190358
 30
0.0
 10
343.3298482821243
 20
287.5817770238878
 30
0.0
 10
343.3433954086313
 20
287.5761325865686
 30
0.0
 10
343.4101931845022
 20
287.5463214173752
 30
0.0
 10
343.460657814434
 20
287.517433648777
 30
0.0
 10
343.5200353784999
 20
287.4750936401965
 30
0.0
 10
343.5317240176134
 20
287.4663112745687
 30
0.0
 10
343.5547208886514
 20
287.4481079008632
 30
0.0
 10
343.5660045849613
 20
287.4387034422073
 30
0.0
 10
343.5989131660231
 20
287.4098524686083
 30
0.0
 10
343.6405252809994
 20
287.369500483323
 30
0.0
 10
343.6777365305287
 20
287.3255125164786
 30
0.0
 10
343.7127502356296
 20
287.2797204764213
 30
0.0
 10
343.7291880197399
 20
287.2558742569205
 30
0.0
 10
343.7749284980359
 20
287.1818781027516
 30
0.0
 10
343.799956150586
 20
287.1305299439277
 30
0.0
 10
343.8297694276687
 20
287.0507187584177
 30
0.0
 10
343.8384096867438
 20
287.0236464858762
 30
0.0
 10
343.8494012137756
 20
286.9823333031082
 30
0.0
 10
343.8527430653752
 20
286.968409103328
 30
0.0
 10
343.8587093448213
 20
286.9405692922672
 30
0.0
 10
343.8613391913353
 20
286.9266410528902
 30
0.0
 10
343.8727636547315
 20
286.8569611661436
 30
0.0
 10
343.8764306920437
 20
286.8010961709357
 30
0.0
 10
343.8743501886402
 20
286.7311324280739
 30
0.0
 10
343.8735979885525
 20
286.7171328873857
 30
0.0
 10
343.8714141589878
 20
286.6891200238916
 30
0.0
 10
343.869977694031
 20
286.6750774283848
 30
0.0
 10
343.8646863883803
 20
286.6333127670287
 30
0.0
 10
343.8598506125163
 20
286.6058602332482
 30
0.0
 10
343.8415460841949
 20
286.5246298013842
 30
0.0
 10
343.8243158963393
 20
286.4719700358315
 30
0.0
 10
343.7963679677977
 20
286.4080060962283
 30
0.0
 10
343.7904396994911
 20
286.3952769483751
 30
0.0
 10
343.7780007211048
 20
286.3701656854916
 30
0.0
 10
343.7584975999654
 20
286.3330728598785
 30
0.0
 10
343.7365091645552
 20
286.297661253611
 30
0.0
 10
343.6892425508923
 20
286.2290390856778
 30
0.0
 10
343.653381608842
 20
286.1862028579533
 30
0.0
 10
343.6026890458639
 20
286.1364864146407
 30
0.0
 10
343.5922816583129
 20
286.1267659195994
 30
0.0
 10
343.5710970559334
 20
286.1079216635823
 30
0.0
 10
343.5386920644534
 20
286.080482262723
 30
0.0
 10
343.4815696257098
 20
286.0388294199101
 30
0.0
 10
343.4325072267583
 20
286.0098722648942
 30
0.0
 10
343.3943927069703
 20
285.9898486474729
 30
0.0
 10
343.3814678224813
 20
285.9834570349258
 30
0.0
 10
343.3551629556787
 20
285.9712565438348
 30
0.0
 10
343.3417445098147
 20
285.9654337262859
 30
0.0
 10
343.274276235697
 20
285.9381440837734
 30
0.0
 10
343.2187008574118
 20
285.9218706070773
 30
0.0
 10
343.1329191248476
 20
285.9057754156664
 30
0.0
 10
343.1039193246639
 20
285.9018063084212
 30
0.0
 10
343.0597812691338
 20
285.8980426780521
 30
0.0
 10
343.0449563830937
 20
285.8971568950943
 30
0.0
 10
343.0154868981968
 20
285.8961435993443
 30
0.0
 10
343.000792871496
 20
285.8960109518161
 30
0.0
 10
342.9275227285082
 20
285.8971846022752
 30
0.0
 10
342.8695409412931
 20
285.903946451929
 30
0.0
 10
342.797857151298
 20
285.9197129228172
 30
0.0
 10
342.7835187148607
 20
285.92324787897
 30
0.0
 10
342.755210476339
 20
285.9309877896438
 30
0.0
 10
342.713257300148
 20
285.9436090422376
 30
0.0
 10
342.645796748942
 20
285.969546104359
 30
0.0
 10
342.5943654284111
 20
285.9953808008555
 30
0.0
 10
342.5567387022068
 20
286.0166690661257
 30
0.0
 10
342.5443231565114
 20
286.0241048407739
 30
0.0
 10
342.5199804355437
 20
286.0395140803076
 30
0.0
 10
342.5080646618309
 20
286.0474775912437
 30
0.0
 10
342.4497243735972
 20
286.0885562034023
 30
0.0
 10
342.4069780231275
 20
286.1254162339157
 30
0.0
 10
342.3484758410284
 20
286.1865502273242
 30
0.0
 10
342.3298435001762
 20
286.2080166824743
 30
0.0
 10
342.2950814726972
 20
286.2522023685582
 30
0.0
 10
342.27889659139
 20
286.2749599342123
 30
0.0
 10
342.2338064401955
 20
286.3451834401368
 30
0.0
 10
342.2083322482897
 20
286.3945820838778
 30
0.0
 10
342.1771348556365
 20
286.4727163595326
 30
0.0
 10
342.1680343224257
 20
286.4991489112306
 30
0.0
 10
342.1524554501158
 20
286.5524875035172
 30
0.0
 10
342.1394618355651
 20
286.6063933039521
 30
0.0
 10
342.1316066604711
 20
286.6614386170912
 30
0.0
 10
342.127685141571
 20
286.7031618831143
 30
0.0
 10
342.1267068506894
 20
286.7171429569874
 30
0.0
 10
342.1254224931095
 20
286.7452550881239
 30
0.0
 10
342.125117785868
 20
286.7594166914304
 30
0.0
 10
342.1253095838736
 20
286.8299048039077
 30
0.0
 10
342.1308632696216
 20
286.8856994982314
 30
0.0
 10
342.1472344680355
 20
286.9684817473672
 30
0.0
 10
342.1540405239627
 20
286.995922907787
 30
0.0
 10
342.1704530110749
 20
287.0504800943235
 30
0.0
 10
342.1801139492457
 20
287.0776935706892
 30
0.0
 10
342.2127685918674
 20
287.1570387970488
 30
0.0
 10
342.2395185223055
 20
287.2074328889174
 30
0.0
 10
342.2871719757522
 20
287.2791761735565
 30
0.0
 10
342.304319379788
 20
287.3024450187283
 30
0.0
 10
342.3412586319337
 20
287.3476181547868
 30
0.0
 10
342.3607868298525
 20
287.3691921800534
 30
0.0
 10
342.422185522061
 20
287.4306268930816
 30
0.0
 10
342.4669596053251
 20
287.4673746660839
 30
0.0
 10
342.5400274189205
 20
287.5159589444444
 30
0.0
 10
342.5654892563502
 20
287.5311010936856
 30
0.0
 10
342.6172964908756
 20
287.558473446549
 30
0.0
 10
342.6702104323316
 20
287.5831106016253
 30
0.0
 10
342.7252982499387
 20
287.6023598853477
 30
0.0
 10
342.7674392904531
 20
287.6147469513743
 30
0.0
 10
342.7816240897314
 20
287.6185336993561
 30
0.0
 10
342.8102741705291
 20
287.6254098057402
 30
0.0
 10
342.8247751829892
 20
287.6285051720024
 30
0.0
 10
342.8974437985717
 20
287.6420948144395
 30
0.0
 10
342.9561843027004
 20
287.6470342114519
 30
0.0
 10
343.0154237619444
 20
287.6460001828444
 30
0.0
  0
SPLINE
  5
1B8
330
1F
100
AcDbEntity
  8
1
100
AcDbSpline
210
0.0
220
0.0
230
1.0
 70
     8
 71
     3
 72
    40
 73
    36
 74
     0
 42
0.000000001
 43
0.0000000001
 40
0.0
 40
0.0
 40
0.0
 40
0.0
 40
0.2499999999999391
 40
0.2499999999999391
 40
0.3749999999999089
 40
0.3749999999999089
 40
0.4374999999998935
 40
0.4374999999998935
 40
0.499999999999878
 40
0.499999999999878
 40
0.5624999999998625
 40
0.5624999999998625
 40
0.5937499999998678
 40
0.5937499999998678
 40
0.6249999999998731
 40
0.6249999999998731
 40
0.6874999999999042
 40
0.6874999999999042
 40
0.7187499999999189
 40
0.7187499999999189
 40
0.7499999999999335
 40
0.7499999999999335
 40
0.7812499999999483
 40
0.7812499999999483
 40
0.8124999999999628
 40
0.8124999999999628
 40
0.8437499999999776
 40
0.8437499999999776
 40
0.8749999999999923
 40
0.8749999999999923
 40
0.9062500000000072
 40
0.9062500000000072
 40
0.9375000000000216
 40
0.9375000000000216
 40
1.0
 40
1.0
 40
1.0
 40
1.0
 10
337.3366352319256
 20
291.2333986841634
 30
0.0
 10
337.28950240677
 20
291.2557625984127
 30
0.0
 10
337.2447201739622
 20
291.2808889507876
 30
0.0
 10
337.1823671936123
 20
291.3242984336626
 30
0.0
 10
337.1623950406636
 20
291.3397319307861
 30
0.0
 10
337.1340770862062
 20
291.3648287643888
 30
0.0
 10
337.1249136624042
 20
291.3735217445106
 30
0.0
 10
337.1072681718239
 20
291.391714938347
 30
0.0
 10
337.0988661653943
 20
291.4011344509976
 30
0.0
 10
337.0831625705686
 20
291.4206768305661
 30
0.0
 10
337.0758470420564
 20
291.4308089295023
 30
0.0
 10
337.065919223492
 20
291.4467073729752
 30
0.0
 10
337.0627854050932
 20
291.4521243600575
 30
0.0
 10
337.0569319564822
 20
291.4632349209322
 30
0.0
 10
337.0542033255553
 20
291.4689504476978
 30
0.0
 10
337.0468532851893
 20
291.4863991569758
 30
0.0
 10
337.0430377260163
 20
291.4984210454346
 30
0.0
 10
337.0396481663007
 20
291.5172825337476
 30
0.0
 10
337.0389207166596
 20
291.5237060409829
 30
0.0
 10
337.0384444221078
 20
291.5365592583155
 30
0.0
 10
337.0386870882514
 20
291.5430247644132
 30
0.0
 10
337.0402989779295
 20
291.556044813341
 30
0.0
 10
337.041692692869
 20
291.5626555614604
 30
0.0
 10
337.0456660748559
 20
291.5755065710954
 30
0.0
 10
337.0482408194817
 20
291.5817856869965
 30
0.0
 10
337.0546097190216
 20
291.5940383799555
 30
0.0
 10
337.0584336469712
 20
291.6000307940088
 30
0.0
 10
337.0669742060458
 20
291.6112567551494
 30
0.0
 10
337.0717168002125
 20
291.6165534018281
 30
0.0
 10
337.0820511486863
 20
291.6265768688716
 30
0.0
 10
337.0876330131931
 20
291.6312830503495
 30
0.0
 10
337.0991939015427
 20
291.6399386735098
 30
0.0
 10
337.1052147659643
 20
291.6439297850429
 30
0.0
 10
337.1238744632337
 20
291.6550664943013
 30
0.0
 10
337.137157007107
 20
291.661396530908
 30
0.0
 10
337.1507497965349
 20
291.6668139349448
 30
0.0
  0
SPLINE
  5
1B9
330
1F
100
AcDbEntity
  8
1
100
AcDbSpline
210
0.0
220
0.0
230
1.0
 70
     8
 71
     3
 72
     8
 73
     4
 74
     0
 42
0.000000001
 43
0.0000000001
 40
0.0
 40
0.0
 40
0.0
 40
0.0
 40
1.0
 40
1.0
 40
1.0
 40
1.0
 10
295.3691128080108
 20
281.7875990240205
 30
0.0
 10
295.5476878972577
 20
281.7938650531041
 30
0.0
 10
295.7262642900876
 20
281.7971148439035
 30
0.0
 10
295.9048419452961
 20
281.7971148439034
 30
0.0
  0
SPLINE
  5
1BA
330
1F
100
AcDbEntity
  8
1
100
AcDbSpline
210
0.0
220
0.0
230
1.0
 70
     8
 71
     3
 72
    24
 73
    20
 74
     0
 42
0.000000001
 43
0.0000000001
 40
0.0
 40
0.0
 40
0.0
 40
0.0
 40
0.0625
 40
0.0625
 40
0.125
 40
0.125
 40
0.25
 40
0.25
 40
0.375
 40
0.375
 40
0.5
 40
0.5
 40
0.625
 40
0.625
 40
0.75
 40
0.75
 40
0.875
 40
0.875
 40
1.0
 40
1.0
 40
1.0
 40
1.0
 10
313.7195166320583
 20
282.8305627542105
 30
0.0
 10
313.3545221492657
 20
282.7816608115319
 30
0.0
 10
312.9888091646892
 20
282.7355402313829
 30
0.0
 10
312.256052457756
 20
282.6482318337573
 30
0.0
 10
311.8889526683249
 20
282.6070394194791
 30
0.0
 10
310.7866741303682
 20
282.4901800990093
 30
0.0
 10
310.050259892526
 20
282.4211656189723
 30
0.0
 10
308.5744636325062
 20
282.2976701604294
 30
0.0
 10
307.8350760720622
 20
282.2432108833673
 30
0.0
 10
306.3533811130646
 20
282.1463434261609
 30
0.0
 10
305.6110393594557
 20
282.1039393815953
 30
0.0
 10
304.1236434061228
 20
282.0289994832809
 30
0.0
 10
303.3791153358062
 20
281.9964881718863
 30
0.0
 10
301.8884453941613
 20
281.9394080930996
 30
0.0
 10
301.1423040916193
 20
281.9148390186095
 30
0.0
 10
299.6484703307077
 20
281.8719747173612
 30
0.0
 10
298.9007780555013
 20
281.8536804506193
 30
0.0
 10
297.4039074014464
 20
281.8219961066203
 30
0.0
 10
296.6547285955535
 20
281.8086077824155
 30
0.0
 10
295.9048419452957
 20
281.7971148439035
 30
0.0
  0
SPLINE
  5
1BB
330
1F
100
AcDbEntity
  8
1
100
AcDbSpline
210
0.0
220
0.0
230
1.0
 70
     8
 71
     3
 72
     8
 73
     4
 74
     0
 42
0.000000001
 43
0.0000000001
 40
0.0
 40
0.0
 40
0.0
 40
0.0
 40
1.0
 40
1.0
 40
1.0
 40
1.0
 10
295.039618256146
 20
281.7816711590491
 30
0.0
 10
295.1494097408266
 20
281.7837003464973
 30
0.0
 10
295.2592404764869
 20
281.7856796109018
 30
0.0
 10
295.3691128080089
 20
281.7875990240204
 30
0.0
  0
SPLINE
  5
1BC
330
1F
100
AcDbEntity
  8
1
100
AcDbSpline
210
0.0
220
0.0
230
1.0
 70
     8
 71
     3
 72
    44
 73
    40
 74
     0
 42
0.000000001
 43
0.0000000001
 40
0.0
 40
0.0
 40
0.0
 40
0.0
 40
0.0625000000000132
 40
0.0625000000000132
 40
0.0937500000000198
 40
0.0937500000000198
 40
0.1250000000000264
 40
0.1250000000000264
 40
0.2500000000000305
 40
0.2500000000000305
 40
0.3125000000000208
 40
0.3125000000000208
 40
0.3750000000000109
 40
0.3750000000000109
 40
0.4375000000000013
 40
0.4375000000000013
 40
0.4687500000000087
 40
0.4687500000000087
 40
0.5000000000000161
 40
0.5000000000000161
 40
0.5625000000000311
 40
0.5625000000000311
 40
0.5937500000000386
 40
0.5937500000000386
 40
0.6250000000000461
 40
0.6250000000000461
 40
0.6875000000000384
 40
0.6875000000000384
 40
0.7500000000000307
 40
0.7500000000000307
 40
0.8125000000000229
 40
0.8125000000000229
 40
0.8750000000000152
 40
0.8750000000000152
 40
0.9375000000000074
 40
0.9375000000000074
 40
0.9687500000000039
 40
0.9687500000000039
 40
1.0
 40
1.0
 40
1.0
 40
1.0
 10
341.1812764236643
 20
290.5417480153332
 30
0.0
 10
341.1520892661715
 20
290.522649546949
 30
0.0
 10
341.122176095719
 20
290.5049470797235
 30
0.0
 10
341.076206996075
 20
290.4804473627053
 30
0.0
 10
341.0607005006217
 20
290.4726238665407
 30
0.0
 10
341.0293155463152
 20
290.4576649374835
 30
0.0
 10
341.0134234720473
 20
290.4505267351467
 30
0.0
 10
340.9339974359891
 20
290.4169602859584
 30
0.0
 10
340.8697843779872
 20
290.3964085070905
 30
0.0
 10
340.771528685587
 20
290.374181985866
 30
0.0
 10
340.7384532169016
 20
290.3682247773397
 30
0.0
 10
340.6713901596308
 20
290.3593031763855
 30
0.0
 10
340.6377771244439
 20
290.3563882073952
 30
0.0
 10
340.5701413672566
 20
290.3537414636232
 30
0.0
 10
340.5361087387276
 20
290.3540055454783
 30
0.0
 10
340.4843980181786
 20
290.3570473009527
 30
0.0
 10
340.4670338917326
 20
290.3585064172245
 30
0.0
 10
340.4320861334806
 20
290.3623770847634
 30
0.0
 10
340.4147705907182
 20
290.364758979207
 30
0.0
 10
340.3632972152334
 20
290.3732100051406
 30
0.0
 10
340.3296170483265
 20
290.3805824395437
 30
0.0
 10
340.2799283739109
 20
290.3941165069763
 30
0.0
 10
340.2635027938702
 20
290.3990408050951
 30
0.0
 10
340.2309001509551
 20
290.4097027033548
 30
0.0
 10
340.2148165979657
 20
290.4154110770779
 30
0.0
 10
340.1674130550558
 20
290.433517460756
 30
0.0
 10
340.1367903519339
 20
290.4469371255732
 30
0.0
 10
340.077014091314
 20
290.4764155635032
 30
0.0
 10
340.0478657756701
 20
290.4924757342212
 30
0.0
 10
339.990795656708
 20
290.5273258314455
 30
0.0
 10
339.9628766201001
 20
290.5461150561759
 30
0.0
 10
339.9081362054415
 20
290.5866471682259
 30
0.0
 10
339.881625544399
 20
290.6081677174744
 30
0.0
 10
339.8304576673112
 20
290.6536106058794
 30
0.0
 10
339.8057634254781
 20
290.6775595803462
 30
0.0
 10
339.7700261756095
 20
290.7154616424128
 30
0.0
 10
339.7583295080793
 20
290.7284287421846
 30
0.0
 10
339.7353782030175
 20
290.755053945187
 30
0.0
 10
339.7242508136995
 20
290.7685647098048
 30
0.0
 10
339.7134668693083
 20
290.7822613564517
 30
0.0
  0
SPLINE
  5
1BD
330
1F
100
AcDbEntity
  8
1
100
AcDbSpline
210
0.0
220
0.0
230
1.0
 70
    12
 71
     2
 72
     6
 73
     3
 74
     0
 42
0.000000001
 43
0.0000000001
 40
0.0
 40
0.0
 40
0.0
 40
1.0
 40
1.0
 40
1.0
 10
339.63979710144
 20
296.0743501918399
 30
0.0
 41
0.49999895007676
 10
339.7520265355921
 20
296.0740524073456
 30
0.0
 41
0.5000010499232401
 10
339.8642501263304
 20
296.0737535688827
 30
0.0
 41
0.49999895007676
  0
SPLINE
  5
1BE
330
1F
100
AcDbEntity
  8
1
100
AcDbSpline
210
0.0
220
0.0
230
1.0
 70
     8
 71
     3
 72
     8
 73
     4
 74
     0
 42
0.000000001
 43
0.0000000001
 40
0.0
 40
0.0
 40
0.0
 40
0.0
 40
1.0
 40
1.0
 40
1.0
 40
1.0
 10
338.906611995321
 20
294.038500342204
 30
0.0
 10
338.6467823130101
 20
294.6993546478585
 30
0.0
 10
338.390911124102
 20
295.3617181638731
 30
0.0
 10
338.143760052486
 20
296.0274063011562
 30
0.0
  0
SPLINE
  5
1BF
330
1F
100
AcDbEntity
  8
1
100
AcDbSpline
210
0.0
220
0.0
230
1.0
 70
    28
 71
     4
 72
    13
 73
     8
 74
     0
 42
0.000000001
 43
0.0000000001
 40
0.0
 40
0.0
 40
0.0
 40
0.0
 40
0.0
 40
0.1958002182863222
 40
0.1958002182863222
 40
0.1958002182863222
 40
1.0
 40
1.0
 40
1.0
 40
1.0
 40
1.0
 10
295.9048419452957
 20
285.4063098489598
 30
0.0
 41
0.999987602061174
 10
295.9048419452959
 20
285.2364009867314
 30
0.0
 41
1.000581654095345
 10
295.9048419452957
 20
285.0640876884773
 30
0.0
 41
1.00112737661804
 10
295.9048419452957
 20
284.890898614844
 30
0.0
 41
1.001498006703475
 10
295.9048419452957
 20
284.0104550500987
 30
0.0
 41
1.001498006703475
 10
295.9048419452957
 20
283.2129504226874
 30
0.0
 41
0.9952456718652864
 10
295.9048419452957
 20
282.4446287797581
 30
0.0
 41
0.9962892373164978
 10
295.9048419452957
 20
281.7971148489657
 30
0.0
 41
0.9986050843815085
  0
SPLINE
  5
1C0
330
1F
100
AcDbEntity
  8
1
100
AcDbSpline
210
0.0
220
0.0
230
1.0
 70
     8
 71
     3
 72
    14
 73
    10
 74
     0
 42
0.000000001
 43
0.0000000001
 40
0.0
 40
0.0
 40
0.0
 40
0.0
 40
0.25
 40
0.25
 40
0.5
 40
0.5
 40
0.75
 40
0.75
 40
1.0
 40
1.0
 40
1.0
 40
1.0
 10
340.3488419452957
 20
290.2185144887056
 30
0.0
 10
340.1039114007179
 20
290.2700570895799
 30
0.0
 10
339.8566037877114
 20
290.3291242117472
 30
0.0
 10
339.3587939127319
 20
290.4633745723107
 30
0.0
 10
339.1082842125555
 20
290.5385525687687
 30
0.0
 10
338.6050945893761
 20
290.7061097061563
 30
0.0
 10
338.3524114709929
 20
290.7984838126006
 30
0.0
 10
337.8455508017101
 20
291.0016967602546
 30
0.0
 10
337.5913729206178
 20
291.1125289546878
 30
0.0
 10
337.3366352319256
 20
291.2333986841634
 30
0.0
  0
SPLINE
  5
1C1
330
1F
100
AcDbEntity
  8
1
100
AcDbSpline
210
0.0
220
0.0
230
1.0
 70
     8
 71
     3
 72
    42
 73
    38
 74
     0
 42
0.000000001
 43
0.0000000001
 40
0.0
 40
0.0
 40
0.0
 40
0.0
 40
0.1249999999999935
 40
0.1249999999999935
 40
0.249999999999987
 40
0.249999999999987
 40
0.3749999999999805
 40
0.3749999999999805
 40
0.4062499999999813
 40
0.4062499999999813
 40
0.4374999999999822
 40
0.4374999999999822
 40
0.499999999999984
 40
0.499999999999984
 40
0.5624999999999857
 40
0.5624999999999857
 40
0.5937499999999864
 40
0.5937499999999864
 40
0.6249999999999871
 40
0.6249999999999871
 40
0.6874999999999878
 40
0.6874999999999878
 40
0.7187499999999881
 40
0.7187499999999881
 40
0.7343749999999884
 40
0.7343749999999884
 40
0.7499999999999885
 40
0.7499999999999885
 40
0.81249999999999
 40
0.81249999999999
 40
0.8437499999999914
 40
0.8437499999999914
 40
0.8749999999999932
 40
0.8749999999999932
 40
0.9374999999999966
 40
0.9374999999999966
 40
1.0
 40
1.0
 40
1.0
 40
1.0
 10
337.150749796535
 20
291.6668139349446
 30
0.0
 10
337.276622773743
 20
291.7169805897354
 30
0.0
 10
337.4003404501539
 20
291.7712652967111
 30
0.0
 10
337.6426284715083
 20
291.8896695233367
 30
0.0
 10
337.7612073884206
 20
291.953772664848
 30
0.0
 10
337.9919928821162
 20
292.0941543385296
 30
0.0
 10
338.1042205928374
 20
292.1703924908792
 30
0.0
 10
338.2392571482428
 20
292.2757174961473
 30
0.0
 10
338.2659989890412
 20
292.2972897212872
 30
0.0
 10
338.3189043655314
 20
292.3415391173879
 30
0.0
 10
338.3449874897682
 20
292.3641516493575
 30
0.0
 10
338.421718392467
 20
292.433250749971
 30
0.0
 10
338.4709890585443
 20
292.4811066046711
 30
0.0
 10
338.5652391668015
 20
292.5808965308314
 30
0.0
 10
338.6102221195031
 20
292.6328272660245
 30
0.0
 10
338.6739267862508
 20
292.714306008215
 30
0.0
 10
338.6945644567966
 20
292.7421182645519
 30
0.0
 10
338.7340855687904
 20
292.7985052431988
 30
0.0
 10
338.7530121208659
 20
292.827129977359
 30
0.0
 10
338.807145815702
 20
292.9143723474922
 30
0.0
 10
338.839720003576
 20
292.9743514257452
 30
0.0
 10
338.8825393901353
 20
293.0674441724772
 30
0.0
 10
338.8958026128252
 20
293.0989972880194
 30
0.0
 10
338.9140524264856
 20
293.1471775646987
 30
0.0
 10
338.9198612498963
 20
293.1633795677694
 30
0.0
 10
338.9309045046125
 20
293.1960805792647
 30
0.0
 10
338.9361478310677
 20
293.2126101515328
 30
0.0
 10
338.9607497939514
 20
293.2956688289236
 30
0.0
 10
338.9751199741578
 20
293.3628244969623
 30
0.0
 10
338.9882670426385
 20
293.4646799486793
 30
0.0
 10
338.9912454653245
 20
293.4988190999899
 30
0.0
 10
338.9942868555978
 20
293.5674864267946
 30
0.0
 10
338.9943482739866
 20
293.6020524898508
 30
0.0
 10
338.9899689308861
 20
293.7061265858116
 30
0.0
 10
338.9810626505059
 20
293.7742433569709
 30
0.0
 10
338.9520845774791
 20
293.9081158250953
 30
0.0
 10
338.9320088315533
 20
293.9738706860948
 30
0.0
 10
338.9066119953211
 20
294.038500342204
 30
0.0
  0
SPLINE
  5
1C2
330
1F
100
AcDbEntity
  8
1
100
AcDbSpline
210
0.0
220
0.0
230
1.0
 70
    12
 71
     3
 72
    10
 73
     6
 74
     0
 42
0.000000001
 43
0.0000000001
 40
0.0
 40
0.0
 40
0.0
 40
0.0
 40
0.1901086048778139
 40
0.6254548936024103
 40
1.0
 40
1.0
 40
1.0
 40
1.0
 10
314.8260102842644
 20
294.1754017395207
 30
0.0
 41
1.001525025705183
 10
316.3254422458938
 20
294.319743531176
 30
0.0
 41
1.001548043578367
 10
321.3716669082557
 20
294.7539643418448
 30
0.0
 41
1.001458620899795
 10
329.404362080749
 20
294.2075968750413
 30
0.0
 41
1.001528324102636
 10
335.9363786645808
 20
293.858791845774
 30
0.0
 41
1.00148550145696
 10
338.9066119953211
 20
294.038500342204
 30
0.0
 41
1.001492356096022
  0
SPLINE
  5
1C3
330
1F
100
AcDbEntity
  8
1
100
AcDbSpline
210
0.0
220
0.0
230
1.0
 70
     8
 71
     3
 72
    32
 73
    28
 74
     0
 42
0.000000001
 43
0.0000000001
 40
0.0
 40
0.0
 40
0.0
 40
0.0
 40
0.1249999999999992
 40
0.1249999999999992
 40
0.2499999999999984
 40
0.2499999999999984
 40
0.3749999999999977
 40
0.3749999999999977
 40
0.4062499999999973
 40
0.4218749999999968
 40
0.4218749999999968
 40
0.4374999999999963
 40
0.4374999999999963
 40
0.4999999999999952
 40
0.4999999999999952
 40
0.6249999999999942
 40
0.6249999999999942
 40
0.7499999999999931
 40
0.7499999999999931
 40
0.8124999999999932
 40
0.8124999999999932
 40
0.8437499999999932
 40
0.8437499999999932
 40
0.8593749999999932
 40
0.8593749999999932
 40
0.8749999999999932
 40
1.0
 40
1.0
 40
1.0
 40
1.0
 10
285.8472301007209
 20
283.4553927437821
 30
0.0
 10
286.1495743858076
 20
283.6409004718353
 30
0.0
 10
286.464414728371
 20
283.814130280022
 30
0.0
 10
287.1183770115897
 20
284.1367321703762
 30
0.0
 10
287.457500915908
 20
284.2861023231592
 30
0.0
 10
288.1600732621146
 20
284.5609427128015
 30
0.0
 10
288.5235203802065
 20
284.6864142503483
 30
0.0
 10
288.9935176198142
 20
284.8278391940606
 30
0.0
 10
289.1356962493007
 20
284.869107808789
 30
0.0
 10
289.2796665547736
 20
284.9086160239492
 30
0.0
 10
289.3760477984532
 20
284.9345607947861
 30
0.0
 10
289.4244025201066
 20
284.9473260369209
 30
0.0
 10
289.6665042296393
 20
285.0099904690167
 30
0.0
 10
289.8616953735839
 20
285.0565311101441
 30
0.0
 10
290.4517172518247
 20
285.1855726937465
 30
0.0
 10
290.8509867863644
 20
285.2575162392127
 30
0.0
 10
291.6611892606371
 20
285.3736626812438
 30
0.0
 10
292.0721227997082
 20
285.4178641523223
 30
0.0
 10
292.6973645172231
 20
285.4631376442327
 30
0.0
 10
292.9072542896882
 20
285.4747185556444
 30
0.0
 10
293.2243358133913
 20
285.4867459008225
 30
0.0
 10
293.330404285457
 20
285.489863980872
 30
0.0
 10
293.4900745108064
 20
285.4931912981626
 30
0.0
 10
293.5433908731441
 20
285.4940750813129
 30
0.0
 10
293.6500012573429
 20
285.4953887780916
 30
0.0
 10
294.1298855424621
 20
285.4992596411254
 30
0.0
 10
294.6109991019838
 20
285.4848930934972
 30
0.0
 10
295.039618256146
 20
285.457840934251
 30
0.0
  0
SPLINE
  5
1C4
330
1F
100
AcDbEntity
  8
1
100
AcDbSpline
210
0.0
220
0.0
230
1.0
 70
     8
 71
     3
 72
    10
 73
     6
 74
     0
 42
0.000000001
 43
0.0000000001
 40
0.0
 40
0.0
 40
0.0
 40
0.0
 40
0.5
 40
0.5
 40
1.0
 40
1.0
 40
1.0
 40
1.0
 10
279.4048419452959
 20
273.9681105098209
 30
0.0
 10
279.619055630755
 20
274.0885901385745
 30
0.0
 10
279.8352236361504
 20
274.2175430176535
 30
0.0
 10
280.2706969791374
 20
274.4883203517423
 30
0.0
 10
280.4900049799556
 20
274.6301609513924
 30
0.0
 10
280.7104667711498
 20
274.7767144949083
 30
0.0
  0
SPLINE
  5
1C5
330
1F
100
AcDbEntity
  8
1
100
AcDbSpline
210
0.0
220
0.0
230
1.0
 70
     8
 71
     3
 72
    42
 73
    38
 74
     0
 42
0.000000001
 43
0.0000000001
 40
0.0
 40
0.0
 40
0.0
 40
0.0
 40
0.0625000000000004
 40
0.0625000000000004
 40
0.1250000000000008
 40
0.1875000000000012
 40
0.1875000000000012
 40
0.2187500000000017
 40
0.2187500000000017
 40
0.2500000000000022
 40
0.2500000000000022
 40
0.3125000000000024
 40
0.3125000000000024
 40
0.3750000000000027
 40
0.4375000000000029
 40
0.4375000000000029
 40
0.4687500000000025
 40
0.4687500000000025
 40
0.5000000000000022
 40
0.5000000000000022
 40
0.5625000000000009
 40
0.6249999999999996
 40
0.6874999999999984
 40
0.6874999999999984
 40
0.7031249999999982
 40
0.7031249999999982
 40
0.7187499999999979
 40
0.7187499999999979
 40
0.7499999999999977
 40
0.7499999999999977
 40
0.812499999999998
 40
0.8749999999999985
 40
0.9374999999999987
 40
0.9374999999999987
 40
0.9687499999999994
 40
0.9687499999999994
 40
1.0
 40
1.0
 40
1.0
 40
1.0
 10
276.3742819969051
 20
276.5569248958113
 30
0.0
 10
276.3672722070825
 20
276.4740326179784
 30
0.0
 10
276.3656875154734
 20
276.3924194276412
 30
0.0
 10
276.3729266787783
 20
276.2316637017772
 30
0.0
 10
276.3905765104965
 20
276.0733788761549
 30
0.0
 10
276.4286691005629
 20
275.9199086142942
 30
0.0
 10
276.464934845962
 20
275.806578495352
 30
0.0
 10
276.4783079098364
 20
275.7690973657754
 30
0.0
 10
276.5076497713517
 20
275.6947224983121
 30
0.0
 10
276.523653857819
 20
275.6577663964604
 30
0.0
 10
276.5750963806465
 20
275.5488154386872
 30
0.0
 10
276.6140599397323
 20
275.4784256587668
 30
0.0
 10
276.700952796809
 20
275.3418350571765
 30
0.0
 10
276.7968131565914
 20
275.2094342693971
 30
0.0
 10
276.9102957503284
 20
275.0849743785207
 30
0.0
 10
277.0020465165124
 20
274.9944923351515
 30
0.0
 10
277.0337604959613
 20
274.9647894059827
 30
0.0
 10
277.0993346239263
 20
274.9064085513801
 30
0.0
 10
277.1330183271911
 20
274.8778854807495
 30
0.0
 10
277.2366968241002
 20
274.7942336708669
 30
0.0
 10
277.381930658524
 20
274.6878032199098
 30
0.0
 10
277.620165346451
 20
274.5424121301125
 30
0.0
 10
277.7924870153618
 20
274.4544960502589
 30
0.0
 10
277.9044731021241
 20
274.4022711072244
 30
0.0
 10
277.9270849531435
 20
274.3919624798472
 30
0.0
 10
277.9727411532576
 20
274.3716165373066
 30
0.0
 10
277.9958010552541
 20
274.3615730386888
 30
0.0
 10
278.0653407409269
 20
274.3319707453023
 30
0.0
 10
278.1122652154479
 20
274.3129007487923
 30
0.0
 10
278.2547054520592
 20
274.2576117651698
 30
0.0
 10
278.4490643236981
 20
274.1890072872626
 30
0.0
 10
278.7537185802876
 20
274.1005860042196
 30
0.0
 10
278.9656279808478
 20
274.0509760987422
 30
0.0
 10
279.1279622202921
 20
274.017242738907
 30
0.0
 10
279.18264147843
 20
274.0065782620008
 30
0.0
 10
279.2931628835015
 20
273.9864169018601
 30
0.0
 10
279.3488236258315
 20
273.9769534987732
 30
0.0
 10
279.4048419452959
 20
273.9681105098209
 30
0.0
  0
SPLINE
  5
1C6
330
1F
100
AcDbEntity
  8
1
100
AcDbSpline
210
0.0
220
0.0
230
1.0
 70
     8
 71
     3
 72
    64
 73
    60
 74
     0
 42
0.000000001
 43
0.0000000001
 40
0.0
 40
0.0
 40
0.0
 40
0.0
 40
0.0624999999999998
 40
0.0624999999999998
 40
0.1249999999999997
 40
0.1249999999999997
 40
0.1874999999999995
 40
0.1874999999999995
 40
0.2187499999999994
 40
0.2187499999999994
 40
0.2499999999999993
 40
0.2499999999999993
 40
0.3124999999999997
 40
0.3124999999999997
 40
0.3437499999999996
 40
0.3437499999999996
 40
0.3749999999999995
 40
0.3749999999999995
 40
0.4062499999999994
 40
0.4062499999999994
 40
0.4374999999999993
 40
0.4374999999999993
 40
0.4531249999999993
 40
0.4531249999999993
 40
0.4687499999999992
 40
0.4687499999999992
 40
0.4999999999999992
 40
0.4999999999999992
 40
0.5312499999999991
 40
0.5312499999999991
 40
0.562499999999999
 40
0.562499999999999
 40
0.593749999999999
 40
0.593749999999999
 40
0.6249999999999988
 40
0.6249999999999988
 40
0.6562499999999987
 40
0.6562499999999987
 40
0.6874999999999986
 40
0.6874999999999986
 40
0.7031249999999988
 40
0.7031249999999988
 40
0.7187499999999991
 40
0.7187499999999991
 40
0.7499999999999993
 40
0.7499999999999993
 40
0.8125
 40
0.8125
 40
0.8437500000000003
 40
0.8437500000000003
 40
0.8593750000000003
 40
0.8593750000000003
 40
0.8750000000000003
 40
0.8750000000000003
 40
0.9062500000000001
 40
0.9062500000000001
 40
0.9375
 40
0.96875
 40
1.0
 40
1.0
 40
1.0
 40
1.0
 10
295.9048419452957
 20
285.4034127045514
 30
0.0
 10
296.7438563826793
 20
285.3267662411056
 30
0.0
 10
297.5826726454688
 20
285.2495102256856
 30
0.0
 10
299.2596961695497
 20
285.0924638246281
 30
0.0
 10
300.0979049859954
 20
285.012679944071
 30
0.0
 10
301.7733759205581
 20
284.84856420471
 30
0.0
 10
302.6106394533512
 20
284.7642342726318
 30
0.0
 10
303.8654403448445
 20
284.6321708837997
 30
0.0
 10
304.2835233724916
 20
284.5872144964583
 30
0.0
 10
305.1192386559298
 20
284.4949997638023
 30
0.0
 10
305.5368897368521
 20
284.4477376141872
 30
0.0
 10
306.7882165284565
 20
284.3019129080984
 30
0.0
 10
307.6205007697932
 20
284.1992327429952
 30
0.0
 10
308.8649427953267
 20
284.0348304851232
 30
0.0
 10
309.2790920017448
 20
283.9783089510755
 30
0.0
 10
310.1059018015164
 20
283.8617049849366
 30
0.0
 10
310.5185613866956
 20
283.8016191796906
 30
0.0
 10
311.3422799489834
 20
283.6780560448236
 30
0.0
 10
311.7533379734922
 20
283.6145764832313
 30
0.0
 10
312.5738205005114
 20
283.484779343598
 30
0.0
 10
312.9832443892141
 20
283.4184617573462
 30
0.0
 10
313.5962081485318
 20
283.3175881893481
 30
0.0
 10
313.8003349247609
 20
283.2837340889651
 30
0.0
 10
314.2082191573633
 20
283.2157252318103
 30
0.0
 10
314.4119999473383
 20
283.181548066805
 30
0.0
 10
315.0225094888383
 20
283.0791195255275
 30
0.0
 10
315.4285282058529
 20
283.011022975862
 30
0.0
 10
316.2395764596536
 20
282.8778885721699
 30
0.0
 10
316.6446059279448
 20
282.812846535494
 30
0.0
 10
317.4544878696827
 20
282.6876178192146
 30
0.0
 10
317.8593399028693
 20
282.6274258267408
 30
0.0
 10
318.669511315015
 20
282.5129589290028
 30
0.0
 10
319.0748308356514
 20
282.4586801061563
 30
0.0
 10
319.8864317678352
 20
282.3565304504332
 30
0.0
 10
320.2926884390669
 20
282.3086086310897
 30
0.0
 10
321.1061405761784
 20
282.2187326492798
 30
0.0
 10
321.5133366341559
 20
282.1767814966022
 30
0.0
 10
322.328775873508
 20
282.0986252570431
 30
0.0
 10
322.7370196550455
 20
282.0624225527005
 30
0.0
 10
323.3502989827269
 20
282.0122832380566
 30
0.0
 10
323.5548687929553
 20
281.9962652782231
 30
0.0
 10
323.9640942648471
 20
281.9656076857823
 30
0.0
 10
324.168779561572
 20
281.9509656240121
 30
0.0
 10
324.7830872895654
 20
281.909048865009
 30
0.0
 10
325.1929609285975
 20
281.8837864197829
 30
0.0
 10
326.4238876458645
 20
281.8155516647858
 30
0.0
 10
327.2462425670565
 20
281.7801829036616
 30
0.0
 10
328.483714815682
 20
281.7394732918605
 30
0.0
 10
328.8968635409179
 20
281.7279477514454
 30
0.0
 10
329.5177461424247
 20
281.7132703523041
 30
0.0
 10
329.7249015422165
 20
281.7088132120822
 30
0.0
 10
330.1396218106994
 20
281.7006826352052
 30
0.0
 10
330.3471813038127
 20
281.6970048429587
 30
0.0
 10
330.9703696112225
 20
281.6869518900372
 30
0.0
 10
331.3865085779281
 20
281.681547278964
 30
0.0
 10
332.2196656849386
 20
281.6726207311819
 30
0.0
 10
333.053701683708
 20
281.6655798953141
 30
0.0
 10
334.3059224387429
 20
281.6594363490738
 30
0.0
 10
335.1405218272804
 20
281.6579935137005
 30
0.0
 10
335.5575172900282
 20
281.6579935137005
 30
0.0
  0
SPLINE
  5
1C7
330
1F
100
AcDbEntity
  8
1
100
AcDbSpline
210
0.0
220
0.0
230
1.0
 70
     8
 71
     3
 72
    67
 73
    63
 74
     0
 42
0.000000001
 43
0.0000000001
 40
0.0
 40
0.0
 40
0.0
 40
0.0
 40
0.0625
 40
0.0625
 40
0.1250000000000001
 40
0.1250000000000001
 40
0.1406250000000001
 40
0.1406250000000001
 40
0.1562500000000002
 40
0.1562500000000002
 40
0.1875000000000003
 40
0.1875000000000003
 40
0.2187500000000004
 40
0.2187500000000004
 40
0.2500000000000003
 40
0.2500000000000003
 40
0.2812500000000002
 40
0.2812500000000002
 40
0.3125000000000001
 40
0.3125000000000001
 40
0.3437500000000001
 40
0.3437500000000001
 40
0.3749999999999999
 40
0.3749999999999999
 40
0.4062499999999999
 40
0.4062499999999999
 40
0.4374999999999998
 40
0.4374999999999998
 40
0.4687499999999998
 40
0.4687499999999998
 40
0.4999999999999997
 40
0.4999999999999997
 40
0.5312499999999995
 40
0.5312499999999995
 40
0.5624999999999993
 40
0.5624999999999993
 40
0.5937499999999992
 40
0.5937499999999992
 40
0.6249999999999992
 40
0.6249999999999992
 40
0.6874999999999995
 40
0.6874999999999995
 40
0.7499999999999997
 40
0.7499999999999997
 40
0.7812499999999996
 40
0.7812499999999996
 40
0.8124999999999994
 40
0.8124999999999994
 40
0.8437499999999992
 40
0.8437499999999992
 40
0.8749999999999992
 40
0.8749999999999992
 40
0.9062499999999992
 40
0.9062499999999992
 40
0.9218749999999987
 40
0.9374999999999992
 40
0.9531249999999992
 40
0.9687499999999996
 40
0.9687499999999996
 40
0.9843749999999998
 40
0.9843749999999998
 40
1.0
 40
1.0
 40
1.0
 40
1.0
 10
295.9048419452959
 20
295.731302806329
 30
0.0
 10
296.8456424401144
 20
295.709761166562
 30
0.0
 10
297.7853599929623
 20
295.6838066822867
 30
0.0
 10
299.6622568391926
 20
295.6197204204002
 30
0.0
 10
300.5994318985574
 20
295.5815827031791
 30
0.0
 10
301.7691072205196
 20
295.5235463468567
 30
0.0
 10
302.0029529382193
 20
295.5114187553294
 30
0.0
 10
302.4704624208032
 20
295.4860476782353
 30
0.0
 10
302.7041556258686
 20
295.4728023347913
 30
0.0
 10
303.4046830406523
 20
295.4312955712442
 30
0.0
 10
303.8709758629149
 20
295.4012610893064
 30
0.0
 10
304.8020972340252
 20
295.3359147078439
 30
0.0
 10
305.2669249872787
 20
295.3005994410767
 30
0.0
 10
306.195167229002
 20
295.224251094735
 30
0.0
 10
306.6585810041727
 20
295.1832138412472
 30
0.0
 10
307.5841355492264
 20
295.0952108661171
 30
0.0
 10
308.0462760024669
 20
295.0482411153044
 30
0.0
 10
308.9695301953347
 20
294.9485197756148
 30
0.0
 10
309.4306443682789
 20
294.8957659497418
 30
0.0
 10
310.3521978803685
 20
294.7850812626205
 30
0.0
 10
310.8126385668612
 20
294.7271516511887
 30
0.0
 10
311.7332761590748
 20
294.6071991682475
 30
0.0
 10
312.1934750699727
 20
294.545181554042
 30
0.0
 10
313.1140875854258
 20
294.418518417045
 30
0.0
 10
313.574503206868
 20
294.3538807122349
 30
0.0
 10
314.4959719771812
 20
294.2236207294378
 30
0.0
 10
314.9570497855129
 20
294.1581082654174
 30
0.0
 10
315.8795253406157
 20
294.0252001405684
 30
0.0
 10
316.3409437101386
 20
293.957785407342
 30
0.0
 10
317.2636287905895
 20
293.8202551269366
 30
0.0
 10
317.7249189188688
 20
293.7501375670704
 30
0.0
 10
318.64728605674
 20
293.6067690031576
 30
0.0
 10
319.1083626995476
 20
293.5335145060267
 30
0.0
 10
320.0303038474539
 20
293.3837992713233
 30
0.0
 10
320.4911881356352
 20
293.3074084308766
 30
0.0
 10
321.4130026189137
 20
293.1523641378847
 30
0.0
 10
321.8739319725091
 20
293.0737091538727
 30
0.0
 10
322.7959669199578
 20
292.9146751839688
 30
0.0
 10
323.257069727181
 20
292.8342951039386
 30
0.0
 10
324.640455326271
 20
292.5911008810375
 30
0.0
 10
325.5629284166993
 20
292.4262920912884
 30
0.0
 10
327.4083531347632
 20
292.0918072802241
 30
0.0
 10
328.3313030990742
 20
291.9221393538695
 30
0.0
 10
329.7157261825005
 20
291.6624514545832
 30
0.0
 10
330.1771835884632
 20
291.5750637090867
 30
0.0
 10
331.0997626472297
 20
291.3976169015197
 30
0.0
 10
331.5608778930676
 20
291.3074724737216
 30
0.0
 10
332.4826318504435
 20
291.1236794160092
 30
0.0
 10
332.9432809379263
 20
291.0300100793269
 30
0.0
 10
333.8641553866713
 20
290.8398383153967
 30
0.0
 10
334.3243847444648
 20
290.7433114660509
 30
0.0
 10
335.245020327246
 20
290.5500258410476
 30
0.0
 10
335.7054343986355
 20
290.4532425565313
 30
0.0
 10
336.3970036539724
 20
290.311843017624
 30
0.0
 10
336.8582861373135
 20
290.2188997232038
 30
0.0
 10
337.5513735339748
 20
290.0863492601469
 30
0.0
 10
338.2461768577011
 20
289.9642026082048
 30
0.0
 10
338.7109593792283
 20
289.8925175918873
 30
0.0
 10
339.1767870876313
 20
289.8273526235136
 30
0.0
 10
339.4102233393106
 20
289.7980290511362
 30
0.0
 10
339.878438489054
 20
289.7478226611208
 30
0.0
 10
340.1132168558539
 20
289.7269367769874
 30
0.0
 10
340.3488419452958
 20
289.7113997494177
 30
0.0
  0
SPLINE
  5
1C8
330
1F
100
AcDbEntity
  8
1
100
AcDbSpline
210
0.0
220
0.0
230
1.0
 70
     8
 71
     3
 72
    47
 73
    43
 74
     0
 42
0.000000001
 43
0.0000000001
 40
0.0
 40
0.0
 40
0.0
 40
0.0
 40
0.0459706699783947
 40
0.0459706699783947
 40
0.0919413399567888
 40
0.0919413399567888
 40
0.1379120099351828
 40
0.1379120099351828
 40
0.1838826799135768
 40
0.2298533498919709
 40
0.2298533498919709
 40
0.2758240198703649
 40
0.2758240198703649
 40
0.2988093548595619
 40
0.2988093548595619
 40
0.321794689848759
 40
0.321794689848759
 40
0.3677653598271537
 40
0.3677653598271537
 40
0.4597066997839433
 40
0.4597066997839433
 40
0.5516480397407327
 40
0.5516480397407327
 40
0.5976187097191274
 40
0.5976187097191274
 40
0.6435893796975221
 40
0.6435893796975221
 40
0.6895600496759168
 40
0.6895600496759168
 40
0.7355307196543116
 40
0.7355307196543116
 40
0.7815013896327063
 40
0.7815013896327063
 40
0.8274720596111009
 40
0.8274720596111009
 40
0.8734427295894958
 40
0.8734427295894958
 40
0.9194133995678905
 40
0.9194133995678905
 40
0.9653840695462852
 40
0.9653840695462852
 40
1.0
 40
1.0
 40
1.0
 40
1.0
 10
338.143760052486
 20
296.0274063011562
 30
0.0
 10
337.7152884388913
 20
296.0518758138654
 30
0.0
 10
337.2849726906606
 20
296.0714089701087
 30
0.0
 10
336.4210973434528
 20
296.1032208145324
 30
0.0
 10
335.9875364773882
 20
296.1154939042997
 30
0.0
 10
335.1176361132003
 20
296.1347395116653
 30
0.0
 10
334.681295754948
 20
296.1417090462934
 30
0.0
 10
333.8063576664124
 20
296.151779190263
 30
0.0
 10
332.9291613540714
 20
296.1579779347238
 30
0.0
 10
332.0486442267375
 20
296.1583835782804
 30
0.0
 10
331.1671474775744
 20
296.1564386901194
 30
0.0
 10
330.7259095977026
 20
296.1542912782117
 30
0.0
 10
330.0638885145153
 20
296.1493983643761
 30
0.0
 10
329.843192836031
 20
296.1474841022095
 30
0.0
 10
329.4018231534203
 20
296.1430722377557
 30
0.0
 10
329.181142644616
 20
296.1405756726139
 30
0.0
 10
328.5191263612411
 20
296.1321994603591
 30
0.0
 10
328.0778430987293
 20
296.1254345512221
 30
0.0
 10
326.7544027113988
 20
296.1014431299363
 30
0.0
 10
325.8726025807896
 20
296.080524013126
 30
0.0
 10
324.1101925826686
 20
296.0277399699937
 30
0.0
 10
323.2295722907543
 20
295.9958782553108
 30
0.0
 10
321.9095653574408
 20
295.9389244670444
 30
0.0
 10
321.4697167131137
 20
295.9184121210907
 30
0.0
 10
320.5903600410851
 20
295.8741046435788
 30
0.0
 10
320.150851083147
 20
295.8503125266535
 30
0.0
 10
319.2722541102036
 20
295.7990961326431
 30
0.0
 10
318.8331782286593
 20
295.7716500595266
 30
0.0
 10
317.955481936023
 20
295.7127740732366
 30
0.0
 10
317.5168466594027
 20
295.6813445241416
 30
0.0
 10
316.6400487164807
 20
295.6142692331217
 30
0.0
 10
316.201986469869
 20
295.5786270296619
 30
0.0
 10
315.3264390698546
 20
295.503056779842
 30
0.0
 10
314.8889545561146
 20
295.4631246896409
 30
0.0
 10
314.0143660149281
 20
295.379168102431
 30
0.0
 10
313.5772662522287
 20
295.3351294821383
 30
0.0
 10
312.7030763833685
 20
295.2436888896652
 30
0.0
 10
312.265982732845
 20
295.1962944746385
 30
0.0
 10
311.391396180863
 20
295.0992127944959
 30
0.0
 10
310.9539017379046
 20
295.0495306793523
 30
0.0
 10
310.1863031836546
 20
294.9614831991143
 30
0.0
 10
309.8563641807869
 20
294.9233564708689
 30
0.0
 10
309.5261467187536
 20
294.8851748116303
 30
0.0
  0
SPLINE
  5
1C9
330
1F
100
AcDbEntity
  8
1
100
AcDbSpline
210
0.0
220
0.0
230
1.0
 70
     8
 71
     3
 72
    19
 73
    15
 74
     0
 42
0.000000001
 43
0.0000000001
 40
0.0
 40
0.0
 40
0.0
 40
0.0
 40
0.2500000000000027
 40
0.2500000000000027
 40
0.5000000000000057
 40
0.5000000000000057
 40
0.5312500000000061
 40
0.5312500000000061
 40
0.5625000000000063
 40
0.6250000000000055
 40
0.6250000000000055
 40
0.7500000000000036
 40
0.8750000000000017
 40
1.0
 40
1.0
 40
1.0
 40
1.0
 10
295.039618256146
 20
281.7816711590491
 30
0.0
 10
294.5622717224732
 20
281.7728487481184
 30
0.0
 10
294.0952217629203
 20
281.7327849659553
 30
0.0
 10
293.1792996366808
 20
281.6019306629785
 30
0.0
 10
292.7304417822789
 20
281.5111727286581
 30
0.0
 10
292.234610749141
 20
281.3868730546417
 30
0.0
 10
292.1796082472427
 20
281.3727430320523
 30
0.0
 10
292.0700472635751
 20
281.3439363778123
 30
0.0
 10
291.9064366457085
 20
281.2999249182932
 30
0.0
 10
291.7449574758879
 20
281.2536250631324
 30
0.0
 10
291.4246897264545
 20
281.1582555376568
 30
0.0
 10
291.0048335086334
 20
281.0237295477458
 30
0.0
 10
290.3944088444561
 20
280.8036355603697
 30
0.0
 10
289.9991615486683
 20
280.6466327200245
 30
0.0
 10
289.8042164632906
 20
280.5659037144472
 30
0.0
  0
LINE
  5
1E8
330
1F
100
AcDbEntity
  8
4
100
AcDbLine
 10
272.039618
 20
288.907994
 30
0.0
 11
349.920772
 21
288.907994
 31
0.0
  0
LINE
  5
1E9
330
1F
100
AcDbEntity
  8
SK4
100
AcDbLine
 10
214.904842
 20
288.907994
 30
0.0
 11
277.404842
 21
288.907994
 31
0.0
  0
MTEXT
  5
1EA
330
1F
100
AcDbEntity
  8
SK6
100
AcDbMText
 10
258.520787
 20
241.27662
 30
0.0
 40
3.5
 41
0.0
 71
     7
 72
     5
  1
\W0.7625;803D-15,5-46,5-S25
  7
cesky
 73
     2
 44
0.8433729999999998
  0
MTEXT
  5
300
330
1F
100
AcDbEntity
  8
2
100
AcDbMText
 10
305.815342
 20
327.385163
 30
0.0
 40
3.5
 41
0.0
 71
     7
 72
     5
  1
\W0.9023;71,5
  7
cesky
 73
     2
 44
0.8433729999999998
  0
LINE
  5
301
330
1F
100
AcDbEntity
  8
2
100
AcDbLine
 10
345.904842
 20
296.657994
 30
0.0
 11
345.904842
 21
328.5109970000001
 31
0.0
  0
LINE
  5
302
330
1F
100
AcDbEntity
  8
2
100
AcDbLine
 10
274.404842
 20
289.907567
 30
0.0
 11
274.404842
 21
328.5109970000001
 31
0.0
  0
LINE
  5
303
330
1F
100
AcDbEntity
  8
2
100
AcDbLine
 10
345.904842
 20
327.510997
 30
0.0
 11
274.404842
 21
327.510997
 31
0.0
  0
SOLID
  5
304
330
1F
100
AcDbEntity
  8
2
100
AcDbTrace
 10
345.904842
 20
327.510997
 30
0.0
 11
342.404844
 21
326.893852
 31
0.0
 12
342.40484
 22
328.128141
 32
0.0
 13
342.40484
 23
328.128141
 33
0.0
  0
SOLID
  5
305
330
1F
100
AcDbEntity
  8
2
100
AcDbTrace
 10
274.404842
 20
327.510997
 30
0.0
 11
277.90484
 21
328.128141
 31
0.0
 12
277.904844
 22
326.893852
 32
0.0
 13
277.904844
 23
326.893852
 33
0.0
  0
MTEXT
  5
306
330
1F
100
AcDbEntity
  8
2
100
AcDbMText
 10
360.115801
 20
279.686187
 30
0.0
 40
3.5
 41
0.0
 71
     7
 72
     5
  1
\W0.9023;15,5
  7
cesky
 11
0.0000000000000001
 21
1.0
 31
0.0
 73
     2
 44
0.8433729999999998
  0
MTEXT
  5
307
330
1F
100
AcDbEntity
  8
2
100
AcDbMText
 10
360.115801
 20
272.948687
 30
0.0
 40
3.5
 41
0.0
 71
     7
 72
     5
  1
\W3.0115;\H2.63;%%c\H3.50;
  7
cesky
 11
0.0000000000000001
 21
1.0
 31
0.0
 73
     2
 44
0.8433729999999998
  0
LINE
  5
308
330
1F
100
AcDbEntity
  8
2
100
AcDbLine
 10
347.904842
 20
296.657994
 30
0.0
 11
361.303218
 21
296.657994
 31
0.0
  0
LINE
  5
309
330
1F
100
AcDbEntity
  8
2
100
AcDbLine
 10
360.303218
 20
296.657994
 30
0.0
 11
360.303218
 21
272.791187
 31
0.0
  0
SOLID
  5
30A
330
1F
100
AcDbEntity
  8
2
100
AcDbTrace
 10
360.303218
 20
296.657994
 30
0.0
 11
360.920362
 21
293.157996
 31
0.0
 12
359.686073
 22
293.157991
 32
0.0
 13
359.686073
 23
293.157991
 33
0.0
  0
MTEXT
  5
30B
330
1F
100
AcDbEntity
  8
2
100
AcDbMText
 10
276.552842
 20
340.562135
 30
0.0
 40
3.5
 41
0.0
 71
     7
 72
     5
  1
\W0.8654;127,5
  7
cesky
 73
     2
 44
0.8433729999999998
  0
LINE
  5
30C
330
1F
100
AcDbEntity
  8
2
100
AcDbLine
 10
345.904842
 20
298.657994
 30
0.0
 11
345.904842
 21
341.687968
 31
0.0
  0
LINE
  5
30D
330
1F
100
AcDbEntity
  8
2
100
AcDbLine
 10
218.404842
 20
299.407994
 30
0.0
 11
218.404842
 21
341.687968
 31
0.0
  0
LINE
  5
30E
330
1F
100
AcDbEntity
  8
2
100
AcDbLine
 10
345.904842
 20
340.687968
 30
0.0
 11
218.404842
 21
340.687968
 31
0.0
  0
SOLID
  5
30F
330
1F
100
AcDbEntity
  8
2
100
AcDbTrace
 10
345.904842
 20
340.687968
 30
0.0
 11
342.404844
 21
340.070823
 31
0.0
 12
342.40484
 22
341.305112
 32
0.0
 13
342.40484
 23
341.305112
 33
0.0
  0
SOLID
  5
310
330
1F
100
AcDbEntity
  8
2
100
AcDbTrace
 10
218.404842
 20
340.687968
 30
0.0
 11
221.90484
 21
341.305112
 31
0.0
 12
221.904844
 22
340.070823
 32
0.0
 13
221.904844
 23
340.070823
 33
0.0
  0
MTEXT
  5
311
330
1F
100
AcDbEntity
  8
2
100
AcDbMText
 10
244.590342
 20
327.385163
 30
0.0
 40
3.5
 41
0.0
 71
     7
 72
     5
  1
\W0.7259;56
  7
cesky
 73
     2
 44
0.8433729999999998
  0
LINE
  5
312
330
1F
100
AcDbEntity
  8
2
100
AcDbLine
 10
274.404842
 20
288.907994
 30
0.0
 11
274.404842
 21
328.5109970000001
 31
0.0
  0
LINE
  5
313
330
1F
100
AcDbEntity
  8
2
100
AcDbLine
 10
218.404842
 20
299.407994
 30
0.0
 11
218.404842
 21
328.5109970000001
 31
0.0
  0
LINE
  5
314
330
1F
100
AcDbEntity
  8
2
100
AcDbLine
 10
274.404842
 20
327.510997
 30
0.0
 11
218.404842
 21
327.510997
 31
0.0
  0
SOLID
  5
315
330
1F
100
AcDbEntity
  8
2
100
AcDbTrace
 10
274.404842
 20
327.510997
 30
0.0
 11
270.904844
 21
326.893852
 31
0.0
 12
270.90484
 22
328.128141
 32
0.0
 13
270.90484
 23
328.128141
 33
0.0
  0
SOLID
  5
316
330
1F
100
AcDbEntity
  8
2
100
AcDbTrace
 10
218.404842
 20
327.510997
 30
0.0
 11
221.90484
 21
328.128141
 31
0.0
 12
221.904844
 22
326.893852
 32
0.0
 13
221.904844
 23
326.893852
 33
0.0
  0
MTEXT
  5
317
330
1F
100
AcDbEntity
  8
2
100
AcDbMText
 10
315.976158
 20
315.788929
 30
0.0
 40
3.5
 41
0.0
 71
     7
 72
     5
  1
\W0.9023;51,2
  7
cesky
 73
     2
 44
0.8433729999999998
  0
LINE
  5
318
330
1F
100
AcDbEntity
  8
2
100
AcDbLine
 10
345.904842
 20
298.657994
 30
0.0
 11
345.904842
 21
316.914763
 31
0.0
  0
LINE
  5
319
330
1F
100
AcDbEntity
  8
2
100
AcDbLine
 10
294.726474
 20
296.323076
 30
0.0
 11
294.726474
 21
316.914763
 31
0.0
  0
LINE
  5
31A
330
1F
100
AcDbEntity
  8
2
100
AcDbLine
 10
345.904842
 20
315.914763
 30
0.0
 11
294.726474
 21
315.914763
 31
0.0
  0
SOLID
  5
31B
330
1F
100
AcDbEntity
  8
2
100
AcDbTrace
 10
345.904842
 20
315.914763
 30
0.0
 11
342.404844
 21
315.297618
 31
0.0
 12
342.40484
 22
316.531907
 32
0.0
 13
342.40484
 23
316.531907
 33
0.0
  0
SOLID
  5
31C
330
1F
100
AcDbEntity
  8
2
100
AcDbTrace
 10
294.726474
 20
315.914763
 30
0.0
 11
298.226472
 21
316.531907
 31
0.0
 12
298.226476
 22
315.297618
 32
0.0
 13
298.226476
 23
315.297618
 33
0.0
  0
MTEXT
  5
31D
330
1F
100
AcDbEntity
  8
SK2
100
AcDbMText
 10
206.117323
 20
290.434244
 30
0.0
 40
3.5
 41
0.0
 71
     7
 72
     5
  1
\W0.7045;25
  7
cesky
 11
0.0000000000000001
 21
1.0
 31
0.0
 73
     2
 44
0.8433729999999998
  0
MTEXT
  5
31E
330
1F
100
AcDbEntity
  8
SK2
100
AcDbMText
 10
206.117323
 20
283.696744
 30
0.0
 40
3.5
 41
0.0
 71
     7
 72
     5
  1
\W3.0115;\H2.63;%%c\H3.50;
  7
cesky
 11
0.0000000000000001
 21
1.0
 31
0.0
 73
     2
 44
0.8433729999999998
  0
LINE
  5
31F
330
1F
100
AcDbEntity
  8
SK2
100
AcDbLine
 10
220.404842
 20
301.407994
 30
0.0
 11
205.304739
 21
301.407994
 31
0.0
  0
LINE
  5
320
330
1F
100
AcDbEntity
  8
SK2
100
AcDbLine
 10
220.404842
 20
276.407994
 30
0.0
 11
205.304739
 21
276.407994
 31
0.0
  0
LINE
  5
321
330
1F
100
AcDbEntity
  8
SK2
100
AcDbLine
 10
206.304739
 20
301.407994
 30
0.0
 11
206.304739
 21
276.407994
 31
0.0
  0
SOLID
  5
322
330
1F
100
AcDbEntity
  8
SK2
100
AcDbTrace
 10
206.304739
 20
301.407994
 30
0.0
 11
206.921884
 21
297.9079959999999
 31
0.0
 12
205.687595
 22
297.907991
 32
0.0
 13
205.687595
 23
297.907991
 33
0.0
  0
SOLID
  5
323
330
1F
100
AcDbEntity
  8
SK2
100
AcDbTrace
 10
206.304739
 20
276.407994
 30
0.0
 11
205.687595
 21
279.9079910000001
 31
0.0
 12
206.921884
 22
279.907996
 32
0.0
 13
206.921884
 23
279.907996
 33
0.0
  0
MTEXT
  5
324
330
1F
100
AcDbEntity
  8
SK2
100
AcDbMText
 10
193.332501
 20
290.434244
 30
0.0
 40
3.5
 41
0.0
 71
     7
 72
     5
  1
\W0.7045;35
  7
cesky
 11
0.0000000000000001
 21
1.0
 31
0.0
 73
     2
 44
0.8433729999999998
  0
MTEXT
  5
325
330
1F
100
AcDbEntity
  8
SK2
100
AcDbMText
 10
193.332501
 20
283.696744
 30
0.0
 40
3.5
 41
0.0
 71
     7
 72
     5
  1
\W3.0115;\H2.63;%%c\H3.50;
  7
cesky
 11
0.0000000000000001
 21
1.0
 31
0.0
 73
     2
 44
0.8433729999999998
  0
LINE
  5
326
330
1F
100
AcDbEntity
  8
SK2
100
AcDbLine
 10
274.904842
 20
306.407994
 30
0.0
 11
192.519918
 21
306.407994
 31
0.0
  0
LINE
  5
327
330
1F
100
AcDbEntity
  8
SK2
100
AcDbLine
 10
274.904842
 20
271.407994
 30
0.0
 11
192.519918
 21
271.407994
 31
0.0
  0
LINE
  5
328
330
1F
100
AcDbEntity
  8
SK2
100
AcDbLine
 10
193.519918
 20
306.407994
 30
0.0
 11
193.519918
 21
271.407994
 31
0.0
  0
SOLID
  5
329
330
1F
100
AcDbEntity
  8
SK2
100
AcDbTrace
 10
193.519918
 20
306.407994
 30
0.0
 11
194.137062
 21
302.907996
 31
0.0
 12
192.902773
 22
302.907991
 32
0.0
 13
192.902773
 23
302.907991
 33
0.0
  0
SOLID
  5
32A
330
1F
100
AcDbEntity
  8
SK2
100
AcDbTrace
 10
193.519918
 20
271.407994
 30
0.0
 11
192.902773
 21
274.907991
 31
0.0
 12
194.137062
 22
274.9079959999999
 32
0.0
 13
194.137062
 23
274.9079959999999
 33
0.0
  0
LINE
  5
32B
330
1F
100
AcDbEntity
  8
CUT
100
AcDbLine
 10
340.2121479111625
 20
296.4328959165687
 30
0.0
 11
344.9888550589399
 21
296.654862149853
 31
0.0
  0
LINE
  5
32C
330
1F
100
AcDbEntity
  8
CUT
100
AcDbLine
 10
345.846922195296
 20
292.8604409805732
 30
0.0
 11
345.9048419452957
 21
289.5488061663523
 31
0.0
  0
LINE
  5
32E
330
1F
100
AcDbEntity
  8
CUT
100
AcDbLine
 10
345.5236363381212
 20
293.3983273991798
 30
0.0
 11
345.846922195296
 21
292.8604409805732
 31
0.0
  0
LINE
  5
32F
330
1F
100
AcDbEntity
  8
CUT
100
AcDbLine
 10
345.3925702678371
 20
296.2896855331073
 30
0.0
 11
345.5236363381211
 21
293.3983273991798
 31
0.0
  0
LINE
  5
331
330
1F
100
AcDbEntity
  8
CUT
100
AcDbLine
 10
345.904842
 20
288.907994
 30
0.0
 11
339.842944
 21
288.907994
 31
0.0
  0
LINE
  5
332
330
1F
100
AcDbEntity
  8
CUT
100
AcDbLine
 10
339.842944
 20
288.907994
 30
0.0
 11
339.842944
 21
296.031376
 31
0.0
  0
LINE
  5
333
330
1F
100
AcDbEntity
  8
CUT
100
AcDbLine
 10
345.904842
 20
289.548806
 30
0.0
 11
345.904842
 21
288.907994
 31
0.0
  0
ARC
  5
334
330
1F
100
AcDbEntity
  8
CUT
100
AcDbCircle
 10
345.0044460212658
 20
296.2657658117562
 30
0.0
 40
0.3894085751836316
100
AcDbArc
 50
10.45731267319632
 51
92.29459551947433
  0
ARC
  5
335
330
1F
100
AcDbEntity
  8
CUT
100
AcDbCircle
 10
345.0293918648379
 20
296.2730913701985
 30
0.0
 40
0.3635573113657506
100
AcDbArc
 50
2.616110072475223
 51
10.03555539289618
  0
LINE
  5
336
330
1F
100
AcDbEntity
  8
CUT
100
AcDbLine
 10
339.8429442864714
 20
296.0313761159838
 30
0.0
 11
339.8429442864714
 21
296.0313761159838
 31
0.0
  0
ARC
  5
337
330
1F
100
AcDbEntity
  8
CUT
100
AcDbCircle
 10
340.232686742678
 20
296.0435060429234
 30
0.0
 40
0.3899311699486294
100
AcDbArc
 50
93.01933594507044
 51
181.7826370720501
  0
ENDSEC
  0
SECTION
  2
OBJECTS
  0
DICTIONARY
  5
C
330
0
100
AcDbDictionary
281
     1
  3
ACAD_CIP_PREVIOUS_PRODUCT_INFO
350
2FD
  3
ACAD_COLOR
350
2F8
  3
ACAD_DETAILVIEWSTYLE
350
2F4
  3
ACAD_GROUP
350
D
  3
ACAD_LAYOUT
350
1A
  3
ACAD_MATERIAL
350
43
  3
ACAD_MLEADERSTYLE
350
6B
  3
ACAD_MLINESTYLE
350
17
  3
ACAD_PLOTSETTINGS
350
19
  3
ACAD_PLOTSTYLENAME
350
E
  3
ACAD_SCALELIST
350
47
  3
ACAD_SECTIONVIEWSTYLE
350
2F5
  3
ACAD_TABLESTYLE
350
69
  3
ACAD_VISUALSTYLE
350
2A
  3
ACDB_RECOMPOSE_DATA
350
363
  3
AcDbVariableDictionary
350
2B1
  0
DICTIONARY
  5
346
330
10
100
AcDbDictionary
280
     1
281
     1
  3
ADSK_XREC_LAYER_RECONCILED
360
347
  0
DICTIONARY
  5
348
330
338
100
AcDbDictionary
280
     1
281
     1
  3
ADSK_XREC_LAYER_RECONCILED
360
349
  0
DICTIONARY
  5
34A
330
339
100
AcDbDictionary
280
     1
281
     1
  3
ADSK_XREC_LAYER_RECONCILED
360
34B
  0
DICTIONARY
  5
34C
330
33A
100
AcDbDictionary
280
     1
281
     1
  3
ADSK_XREC_LAYER_RECONCILED
360
34D
  0
DICTIONARY
  5
34E
330
33C
100
AcDbDictionary
280
     1
281
     1
  3
ADSK_XREC_LAYER_RECONCILED
360
34F
  0
DICTIONARY
  5
350
330
33D
100
AcDbDictionary
280
     1
281
     1
  3
ADSK_XREC_LAYER_RECONCILED
360
351
  0
DICTIONARY
  5
352
330
33F
100
AcDbDictionary
280
     1
281
     1
  3
ADSK_XREC_LAYER_RECONCILED
360
353
  0
DICTIONARY
  5
354
330
340
100
AcDbDictionary
280
     1
281
     1
  3
ADSK_XREC_LAYER_RECONCILED
360
355
  0
DICTIONARY
  5
356
330
341
100
AcDbDictionary
280
     1
281
     1
  3
ADSK_XREC_LAYER_RECONCILED
360
357
  0
DICTIONARY
  5
358
330
342
100
AcDbDictionary
280
     1
281
     1
  3
ADSK_XREC_LAYER_RECONCILED
360
359
  0
DICTIONARY
  5
35A
330
343
100
AcDbDictionary
280
     1
281
     1
  3
ADSK_XREC_LAYER_RECONCILED
360
35B
  0
DICTIONARY
  5
35C
330
344
100
AcDbDictionary
280
     1
281
     1
  3
ADSK_XREC_LAYER_RECONCILED
360
35D
  0
DICTIONARY
  5
2FE
330
1F
100
AcDbDictionary
280
     1
281
     1
  3
ACAD_SORTENTS
360
2FF
  0
XRECORD
  5
2FD
102
{ACAD_REACTORS
330
C
102
}
330
C
100
AcDbXrecord
280
     1
300
ACD
300
2019
300

  0
DICTIONARY
  5
2F8
102
{ACAD_REACTORS
330
C
102
}
330
C
100
AcDbDictionary
281
     1
  0
DICTIONARY
  5
2F4
102
{ACAD_REACTORS
330
C
102
}
330
C
100
AcDbDictionary
281
     1
  3
Metric50
350
2FA
  0
DICTIONARY
  5
D
102
{ACAD_REACTORS
330
C
102
}
330
C
100
AcDbDictionary
281
     1
  3
NULOVY_BOD
350
345
  0
DICTIONARY
  5
1A
102
{ACAD_REACTORS
330
C
102
}
330
C
100
AcDbDictionary
281
     1
  3
Layout1
350
1E
  3
Layout2
350
26
  3
Model
350
22
  0
DICTIONARY
  5
43
102
{ACAD_REACTORS
330
C
102
}
330
C
100
AcDbDictionary
281
     1
  3
ByBlock
350
45
  3
ByLayer
350
44
  3
Global
350
46
  0
DICTIONARY
  5
6B
102
{ACAD_REACTORS
330
C
102
}
330
C
100
AcDbDictionary
281
     1
  3
Standard
350
6C
  0
DICTIONARY
  5
17
102
{ACAD_REACTORS
330
C
102
}
330
C
100
AcDbDictionary
281
     1
  3
Standard
350
18
  0
DICTIONARY
  5
19
102
{ACAD_REACTORS
330
C
102
}
330
C
100
AcDbDictionary
281
     1
  0
ACDBDICTIONARYWDFLT
  5
E
102
{ACAD_REACTORS
330
C
102
}
330
C
100
AcDbDictionary
281
     1
  3
Normal
350
F
100
AcDbDictionaryWithDefault
340
F
  0
DICTIONARY
  5
47
102
{ACAD_REACTORS
330
C
102
}
330
C
100
AcDbDictionary
281
     1
  3
A0
350
48
  3
A1
350
49
  3
A2
350
4A
  3
A3
350
4B
  3
A4
350
4C
  3
A5
350
4D
  3
A6
350
4E
  3
A7
350
4F
  3
A8
350
50
  3
A9
350
51
  3
B0
350
52
  3
B1
350
53
  3
B2
350
54
  3
B3
350
55
  3
B4
350
56
  3
B5
350
57
  3
B6
350
58
  3
B7
350
59
  3
B8
350
5A
  3
B9
350
5B
  3
C0
350
5C
  3
C1
350
5D
  3
C2
350
5E
  3
C3
350
5F
  3
C4
350
60
  3
C5
350
61
  3
C6
350
62
  3
C7
350
63
  3
C8
350
64
  3
C9
350
65
  3
D0
350
66
  3
D1
350
67
  3
D2
350
68
  0
DICTIONARY
  5
2F5
102
{ACAD_REACTORS
330
C
102
}
330
C
100
AcDbDictionary
281
     1
  3
Metric50
350
2F9
  0
DICTIONARY
  5
69
102
{ACAD_REACTORS
330
C
102
}
330
C
100
AcDbDictionary
281
     1
  3
Standard
350
6A
  0
DICTIONARY
  5
2A
102
{ACAD_REACTORS
330
C
102
}
330
C
100
AcDbDictionary
281
     1
  3
2dWireframe
350
2F
  3
Basic
350
32
  3
Brighten
350
36
  3
ColorChange
350
3A
  3
Conceptual
350
34
  3
Dim
350
35
  3
EdgeColorOff
350
3D
  3
Facepattern
350
39
  3
Flat
350
2B
  3
FlatWithEdges
350
2C
  3
Gouraud
350
2D
  3
GouraudWithEdges
350
2E
  3
Hidden
350
31
  3
JitterOff
350
3B
  3
Linepattern
350
38
  3
OverhangOff
350
3C
  3
Realistic
350
33
  3
Shaded
350
42
  3
Shaded with edges
350
41
  3
Shades of Gray
350
3E
  3
Sketchy
350
3F
  3
Thicken
350
37
  3
Wireframe
350
30
  3
X-Ray
350
40
  0
XRECORD
  5
363
102
{ACAD_REACTORS
330
C
102
}
330
C
100
AcDbXrecord
280
     1
 90
        1
330
6A
  0
DICTIONARY
  5
2B1
102
{ACAD_REACTORS
330
C
102
}
330
C
100
AcDbDictionary
281
     1
  3
CANNOSCALE
350
2B2
  3
CMLEADERSTYLE
350
2F3
  3
CTABLESTYLE
350
2F2
  3
CVIEWDETAILSTYLE
350
35E
  3
CVIEWSECTIONSTYLE
350
35F
  3
MSLTSCALE
350
2B3
  3
XCLIPFRAME
350
360
  0
XRECORD
  5
347
102
{ACAD_REACTORS
330
346
102
}
330
346
100
AcDbXrecord
280
     1
290
     1
  0
XRECORD
  5
349
102
{ACAD_REACTORS
330
348
102
}
330
348
100
AcDbXrecord
280
     1
290
     1
  0
XRECORD
  5
34B
102
{ACAD_REACTORS
330
34A
102
}
330
34A
100
AcDbXrecord
280
     1
290
     1
  0
XRECORD
  5
34D
102
{ACAD_REACTORS
330
34C
102
}
330
34C
100
AcDbXrecord
280
     1
290
     1
  0
XRECORD
  5
34F
102
{ACAD_REACTORS
330
34E
102
}
330
34E
100
AcDbXrecord
280
     1
290
     1
  0
XRECORD
  5
351
102
{ACAD_REACTORS
330
350
102
}
330
350
100
AcDbXrecord
280
     1
290
     1
  0
XRECORD
  5
353
102
{ACAD_REACTORS
330
352
102
}
330
352
100
AcDbXrecord
280
     1
290
     1
  0
XRECORD
  5
355
102
{ACAD_REACTORS
330
354
102
}
330
354
100
AcDbXrecord
280
     1
290
     1
  0
XRECORD
  5
357
102
{ACAD_REACTORS
330
356
102
}
330
356
100
AcDbXrecord
280
     1
290
     1
  0
XRECORD
  5
359
102
{ACAD_REACTORS
330
358
102
}
330
358
100
AcDbXrecord
280
     1
290
     1
  0
XRECORD
  5
35B
102
{ACAD_REACTORS
330
35A
102
}
330
35A
100
AcDbXrecord
280
     1
290
     1
  0
XRECORD
  5
35D
102
{ACAD_REACTORS
330
35C
102
}
330
35C
100
AcDbXrecord
280
     1
290
     1
  0
SORTENTSTABLE
  5
2FF
102
{ACAD_REACTORS
330
2FE
102
}
330
2FE
100
AcDbSortentsTable
330
1F
331
300
  5
223
331
301
  5
23C
331
302
  5
300
331
303
  5
301
331
304
  5
302
331
305
  5
303
331
306
  5
304
331
307
  5
305
331
308
  5
306
331
309
  5
307
331
30A
  5
308
331
30B
  5
319
331
30C
  5
31A
331
30D
  5
31B
331
30E
  5
31C
331
30F
  5
31D
331
310
  5
31E
331
311
  5
31F
331
312
  5
320
331
313
  5
321
331
314
  5
322
331
315
  5
323
331
316
  5
324
331
317
  5
325
331
318
  5
326
331
319
  5
327
331
31A
  5
328
331
31B
  5
329
331
31C
  5
32A
331
31D
  5
30B
331
31E
  5
30C
331
31F
  5
30D
331
320
  5
30E
331
321
  5
30F
331
322
  5
310
331
323
  5
311
331
324
  5
312
331
325
  5
313
331
326
  5
314
331
327
  5
315
331
328
  5
316
331
329
  5
317
331
32A
  5
318
331
32E
  5
331
331
32F
  5
332
331
331
  5
335
331
332
  5
336
331
333
  5
337
331
334
  5
32E
331
335
  5
32F
331
336
  5
333
331
337
  5
334
  0
ACDBDETAILVIEWSTYLE
  5
2FA
102
{ACAD_XDICTIONARY
360
397
102
}
102
{ACAD_REACTORS
330
2F4
102
}
330
2F4
100
AcDbModelDocViewStyle
 70
     0
  3
Metric50
290
     0
100
AcDbDetailViewStyle
 70
     0
 71
     0
 90
        3
 71
     1
340
11
 62
   256
 40
5.0
340
0
 62
   256
 40
5.0
300

 40
0.0
280
     1
 71
     2
340
16
 90
       25
 62
   256
 71
     3
340
11
 62
   256
 40
5.0
 90
        0
 40
15.0
 90
        1
300
%<\AcVar ViewDetailId>% (%<\AcVar ViewScale \f "%sn">%)
 71
     4
340
16
 90
       25
 62
   256
340
16
 90
       25
 62
   256
280
     0
  0
GROUP
  5
345
102
{ACAD_REACTORS
330
D
102
}
330
D
100
AcDbGroup
300

 70
     0
 71
     1
340
73
  0
LAYOUT
  5
1E
102
{ACAD_REACTORS
330
1A
102
}
330
1A
100
AcDbPlotSettings
  1

  2
none_device
  4

  6

 40
0.0
 41
0.0
 42
0.0
 43
0.0
 44
0.0
 45
0.0
 46
0.0
 47
0.0
 48
0.0
 49
0.0
140
0.0
141
0.0
142
1.0
143
1.0
 70
   688
 72
     0
 73
     0
 74
     5
  7

 75
    16
147
1.0
 76
     0
 77
     2
 78
   300
148
0.0
149
0.0
100
AcDbLayout
  1
Layout1
 70
     1
 71
     1
 10
-0.5
 20
-0.5
 11
5.0
 21
5.0
 12
0.0
 22
0.0
 32
0.0
 14
-0.5
 24
-0.5
 34
-0.5
 15
5.0
 25
5.0
 35
5.0
146
0.0
 13
0.0
 23
0.0
 33
0.0
 16
1.0
 26
0.0
 36
0.0
 17
0.0
 27
1.0
 37
0.0
 76
     0
330
1B
  0
LAYOUT
  5
26
102
{ACAD_REACTORS
330
1A
102
}
330
1A
100
AcDbPlotSettings
  1

  2
none_device
  4

  6

 40
0.0
 41
0.0
 42
0.0
 43
0.0
 44
0.0
 45
0.0
 46
0.0
 47
0.0
 48
0.0
 49
0.0
140
0.0
141
0.0
142
1.0
143
1.0
 70
   688
 72
     0
 73
     0
 74
     5
  7

 75
    16
147
1.0
 76
     0
 77
     2
 78
   300
148
0.0
149
0.0
100
AcDbLayout
  1
Layout2
 70
     1
 71
     2
 10
0.0
 20
0.0
 11
0.0
 21
0.0
 12
0.0
 22
0.0
 32
0.0
 14
0.0
 24
0.0
 34
0.0
 15
0.0
 25
0.0
 35
0.0
146
0.0
 13
0.0
 23
0.0
 33
0.0
 16
1.0
 26
0.0
 36
0.0
 17
0.0
 27
1.0
 37
0.0
 76
     0
330
23
  0
LAYOUT
  5
22
102
{ACAD_REACTORS
330
1A
102
}
330
1A
100
AcDbPlotSettings
  1

  2
none_device
  4
Letter_(8.50_x_11.00_Inches)
  6

 40
6.349999999999999
 41
6.349999999999999
 42
6.350005
 43
6.350005
 44
215.9
 45
279.4
 46
0.0
 47
0.0
 48
0.0
 49
0.0
140
0.0
141
0.0
142
1.0
143
1.0
 70
  1712
 72
     0
 73
     0
 74
     0
  7

 75
     0
147
1.0
 76
     0
 77
     2
 78
   300
148
0.0
149
0.0
100
AcDbLayout
  1
Model
 70
     1
 71
     0
 10
-0.5
 20
-0.5
 11
5.0
 21
5.0
 12
0.0
 22
0.0
 32
0.0
 14
-0.5
 24
-0.5
 34
-0.5
 15
5.0
 25
5.0
 35
5.0
146
0.0
 13
0.0
 23
0.0
 33
0.0
 16
1.0
 26
0.0
 36
0.0
 17
0.0
 27
1.0
 37
0.0
 76
     0
330
1F
331
29
  0
MATERIAL
  5
45
102
{ACAD_XDICTIONARY
360
2E7
102
}
102
{ACAD_REACTORS
330
43
102
}
330
43
100
AcDbMaterial
  1
ByBlock
  0
MATERIAL
  5
44
102
{ACAD_XDICTIONARY
360
2E5
102
}
102
{ACAD_REACTORS
330
43
102
}
330
43
100
AcDbMaterial
  1
ByLayer
  0
MATERIAL
  5
46
102
{ACAD_XDICTIONARY
360
2E9
102
}
102
{ACAD_REACTORS
330
43
102
}
330
43
100
AcDbMaterial
  1
Global
  0
MLEADERSTYLE
  5
6C
102
{ACAD_REACTORS
330
6B
102
}
330
6B
100
AcDbMLeaderStyle
170
     2
171
     1
172
     0
 90
        2
 40
0.0
 41
0.0
173
     1
 91
-1056964608
340
14
 92
       -2
290
     1
 42
0.09
291
     1
 43
0.36
  3
Standard
 44
0.18
300

342
11
174
     1
178
     6
175
     1
176
     0
 93
-1056964608
 45
0.18
292
     0
297
     0
 46
0.18
 94
-1056964608
 47
1.0
 49
1.0
140
1.0
293
     1
141
0.0
294
     1
177
     0
142
1.0
295
     0
296
     0
143
0.125
1001
ACAD_MLEADERVER
1070
     2
  0
MLINESTYLE
  5
18
102
{ACAD_REACTORS
330
17
102
}
330
17
100
AcDbMlineStyle
  2
STANDARD
 70
     0
  3

 62
   256
 51
90.0
 52
90.0
 71
     2
 49
0.5
 62
   256
  6
BYLAYER
 49
-0.5
 62
   256
  6
BYLAYER
  0
ACDBPLACEHOLDER
  5
F
102
{ACAD_REACTORS
330
E
102
}
330
E
  0
SCALE
  5
48
102
{ACAD_REACTORS
330
47
102
}
330
47
100
AcDbScale
 70
     0
300
1:1
140
1.0
141
1.0
290
     1
  0
SCALE
  5
49
102
{ACAD_REACTORS
330
47
102
}
330
47
100
AcDbScale
 70
     0
300
1:2
140
1.0
141
2.0
290
     0
  0
SCALE
  5
4A
102
{ACAD_REACTORS
330
47
102
}
330
47
100
AcDbScale
 70
     0
300
1:4
140
1.0
141
4.0
290
     0
  0
SCALE
  5
4B
102
{ACAD_REACTORS
330
47
102
}
330
47
100
AcDbScale
 70
     0
300
1:5
140
1.0
141
5.0
290
     0
  0
SCALE
  5
4C
102
{ACAD_REACTORS
330
47
102
}
330
47
100
AcDbScale
 70
     0
300
1:8
140
1.0
141
8.0
290
     0
  0
SCALE
  5
4D
102
{ACAD_REACTORS
330
47
102
}
330
47
100
AcDbScale
 70
     0
300
1:10
140
1.0
141
10.0
290
     0
  0
SCALE
  5
4E
102
{ACAD_REACTORS
330
47
102
}
330
47
100
AcDbScale
 70
     0
300
1:16
140
1.0
141
16.0
290
     0
  0
SCALE
  5
4F
102
{ACAD_REACTORS
330
47
102
}
330
47
100
AcDbScale
 70
     0
300
1:20
140
1.0
141
20.0
290
     0
  0
SCALE
  5
50
102
{ACAD_REACTORS
330
47
102
}
330
47
100
AcDbScale
 70
     0
300
1:30
140
1.0
141
30.0
290
     0
  0
SCALE
  5
51
102
{ACAD_REACTORS
330
47
102
}
330
47
100
AcDbScale
 70
     0
300
1:40
140
1.0
141
40.0
290
     0
  0
SCALE
  5
52
102
{ACAD_REACTORS
330
47
102
}
330
47
100
AcDbScale
 70
     0
300
1:50
140
1.0
141
50.0
290
     0
  0
SCALE
  5
53
102
{ACAD_REACTORS
330
47
102
}
330
47
100
AcDbScale
 70
     0
300
1:100
140
1.0
141
100.0
290
     0
  0
SCALE
  5
54
102
{ACAD_REACTORS
330
47
102
}
330
47
100
AcDbScale
 70
     0
300
2:1
140
2.0
141
1.0
290
     0
  0
SCALE
  5
55
102
{ACAD_REACTORS
330
47
102
}
330
47
100
AcDbScale
 70
     0
300
4:1
140
4.0
141
1.0
290
     0
  0
SCALE
  5
56
102
{ACAD_REACTORS
330
47
102
}
330
47
100
AcDbScale
 70
     0
300
8:1
140
8.0
141
1.0
290
     0
  0
SCALE
  5
57
102
{ACAD_REACTORS
330
47
102
}
330
47
100
AcDbScale
 70
     0
300
10:1
140
10.0
141
1.0
290
     0
  0
SCALE
  5
58
102
{ACAD_REACTORS
330
47
102
}
330
47
100
AcDbScale
 70
     0
300
100:1
140
100.0
141
1.0
290
     0
  0
SCALE
  5
59
102
{ACAD_REACTORS
330
47
102
}
330
47
100
AcDbScale
 70
     0
300
1/128" = 1'-0"
140
0.007812
141
12.0
290
     0
  0
SCALE
  5
5A
102
{ACAD_REACTORS
330
47
102
}
330
47
100
AcDbScale
 70
     0
300
1/64" = 1'-0"
140
0.015625
141
12.0
290
     0
  0
SCALE
  5
5B
102
{ACAD_REACTORS
330
47
102
}
330
47
100
AcDbScale
 70
     0
300
1/32" = 1'-0"
140
0.03125
141
12.0
290
     0
  0
SCALE
  5
5C
102
{ACAD_REACTORS
330
47
102
}
330
47
100
AcDbScale
 70
     0
300
1/16" = 1'-0"
140
0.0625
141
12.0
290
     0
  0
SCALE
  5
5D
102
{ACAD_REACTORS
330
47
102
}
330
47
100
AcDbScale
 70
     0
300
3/32" = 1'-0"
140
0.09375
141
12.0
290
     0
  0
SCALE
  5
5E
102
{ACAD_REACTORS
330
47
102
}
330
47
100
AcDbScale
 70
     0
300
1/8" = 1'-0"
140
0.125
141
12.0
290
     0
  0
SCALE
  5
5F
102
{ACAD_REACTORS
330
47
102
}
330
47
100
AcDbScale
 70
     0
300
3/16" = 1'-0"
140
0.1875
141
12.0
290
     0
  0
SCALE
  5
60
102
{ACAD_REACTORS
330
47
102
}
330
47
100
AcDbScale
 70
     0
300
1/4" = 1'-0"
140
0.25
141
12.0
290
     0
  0
SCALE
  5
61
102
{ACAD_REACTORS
330
47
102
}
330
47
100
AcDbScale
 70
     0
300
3/8" = 1'-0"
140
0.375
141
12.0
290
     0
  0
SCALE
  5
62
102
{ACAD_REACTORS
330
47
102
}
330
47
100
AcDbScale
 70
     0
300
1/2" = 1'-0"
140
0.5
141
12.0
290
     0
  0
SCALE
  5
63
102
{ACAD_REACTORS
330
47
102
}
330
47
100
AcDbScale
 70
     0
300
3/4" = 1'-0"
140
0.75
141
12.0
290
     0
  0
SCALE
  5
64
102
{ACAD_REACTORS
330
47
102
}
330
47
100
AcDbScale
 70
     0
300
1" = 1'-0"
140
1.0
141
12.0
290
     0
  0
SCALE
  5
65
102
{ACAD_REACTORS
330
47
102
}
330
47
100
AcDbScale
 70
     0
300
1-1/2" = 1'-0"
140
1.5
141
12.0
290
     0
  0
SCALE
  5
66
102
{ACAD_REACTORS
330
47
102
}
330
47
100
AcDbScale
 70
     0
300
3" = 1'-0"
140
3.0
141
12.0
290
     0
  0
SCALE
  5
67
102
{ACAD_REACTORS
330
47
102
}
330
47
100
AcDbScale
 70
     0
300
6" = 1'-0"
140
6.0
141
12.0
290
     0
  0
SCALE
  5
68
102
{ACAD_REACTORS
330
47
102
}
330
47
100
AcDbScale
 70
     0
300
1'-0" = 1'-0"
140
12.0
141
12.0
290
     0
  0
ACDBSECTIONVIEWSTYLE
  5
2F9
102
{ACAD_XDICTIONARY
360
395
102
}
102
{ACAD_REACTORS
330
2F5
102
}
330
2F5
100
AcDbModelDocViewStyle
 70
     0
  3
Metric50
290
     0
100
AcDbSectionViewStyle
 70
     0
 71
     0
 90
      102
 71
     1
340
11
 62
   256
 40
5.0
340
0
340
0
 62
   256
 40
5.0
300
I, O, Q, S, X, Z
 40
10.0
 90
        0
 40
2.5
 90
        0
 71
     2
340
16
 90
       25
 62
   256
340
16
 90
       50
 62
   256
 40
5.0
 40
2.5
 40
5.0
 71
     3
340
11
 62
   256
 40
5.0
 90
        0
 40
15.0
 90
        1
300
%<\AcVar ViewSectionStartId>%-%<\AcVar ViewSectionEndId>% (%<\AcVar ViewScale \f "%sn">%)
 71
     4
 62
   256
 62
   257
300
ANSI31
 40
1.0
 90
        0
290
     0
290
     0
 90
        6
 40
0.0
 40
1.570796326794896
 40
0.2617993877991494
 40
1.308996938995747
 40
-0.2617993877991494
 40
1.832595714594046
  0
TABLESTYLE
  5
6A
102
{ACAD_XDICTIONARY
360
2EB
102
}
102
{ACAD_REACTORS
330
69
102
}
330
69
100
AcDbTableStyle
  3
Standard
 70
     0
 71
     0
 40
0.06
 41
0.06
280
     0
281
     0
  7
Standard
140
0.18
170
     2
 62
     0
 63
     7
283
     0
274
    -2
284
     1
 64
     0
275
    -2
285
     1
 65
     0
276
    -2
286
     1
 66
     0
277
    -2
287
     1
 67
     0
278
    -2
288
     1
 68
     0
279
    -2
289
     1
 69
     0
  7
Standard
140
0.25
170
     5
 62
     0
 63
     7
283
     0
274
    -2
284
     1
 64
     0
275
    -2
285
     1
 65
     0
276
    -2
286
     1
 66
     0
277
    -2
287
     1
 67
     0
278
    -2
288
     1
 68
     0
279
    -2
289
     1
 69
     0
  7
Standard
140
0.18
170
     5
 62
     0
 63
     7
283
     0
274
    -2
284
     1
 64
     0
275
    -2
285
     1
 65
     0
276
    -2
286
     1
 66
     0
277
    -2
287
     1
 67
     0
278
    -2
288
     1
 68
     0
279
    -2
289
     1
 69
     0
  0
VISUALSTYLE
  5
2F
102
{ACAD_XDICTIONARY
360
36C
102
}
102
{ACAD_REACTORS
330
2A
102
}
330
2A
100
AcDbVisualStyle
  2

 70
     4
 71
     0
 72
     2
 73
     0
 90
        0
 40
-0.6
 41
-30.0
 62
     5
 63
     7
421
 16777215
 74
     1
 91
        4
 64
     7
 65
   257
 75
     1
175
     1
 42
1.0
 92
        0
 66
   257
 43
1.0
 76
     1
 77
     6
 78
     2
 67
     7
 79
     5
170
     0
171
     0
290
     0
174
     0
 93
        1
 44
0.0
173
     0
291
     0
 45
0.0
1001
ACAD
1000
AcDbSavedByObjectVersion
1070
     0
  0
VISUALSTYLE
  5
32
102
{ACAD_XDICTIONARY
360
372
102
}
102
{ACAD_REACTORS
330
2A
102
}
330
2A
100
AcDbVisualStyle
  2

 70
     7
 71
     1
 72
     0
 73
     1
 90
        0
 40
-0.6
 41
-30.0
 62
     5
 63
     7
421
 16777215
 74
     0
 91
        4
 64
     7
 65
   257
 75
     1
175
     1
 42
1.0
 92
        8
 66
     7
 43
1.0
 76
     1
 77
     6
 78
     2
 67
     7
 79
     5
170
     0
171
     0
290
     0
174
     0
 93
        1
 44
0.0
173
     0
291
     1
 45
0.0
1001
ACAD
1000
AcDbSavedByObjectVersion
1070
     0
  0
VISUALSTYLE
  5
36
102
{ACAD_XDICTIONARY
360
37A
102
}
102
{ACAD_REACTORS
330
2A
102
}
330
2A
100
AcDbVisualStyle
  2

 70
    12
 71
     2
 72
     2
 73
     0
 90
        0
 40
-0.6
 41
-30.0
 62
     5
 63
     7
421
 16777215
 74
     1
 91
        4
 64
     7
 65
   257
 75
     1
175
     1
 42
1.0
 92
        8
 66
     7
 43
1.0
 76
     1
 77
     6
 78
     2
 67
     7
 79
     5
170
     0
171
     0
290
     0
174
     0
 93
        1
 44
50.0
173
     0
291
     1
 45
0.0
1001
ACAD
1000
AcDbSavedByObjectVersion
1070
     0
  0
VISUALSTYLE
  5
3A
102
{ACAD_XDICTIONARY
360
382
102
}
102
{ACAD_REACTORS
330
2A
102
}
330
2A
100
AcDbVisualStyle
  2

 70
    16
 71
     2
 72
     2
 73
     3
 90
        0
 40
-0.6
 41
-30.0
 62
     5
 63
     8
421
  8421504
 74
     1
 91
        4
 64
     7
 65
   257
 75
     1
175
     1
 42
1.0
 92
        8
 66
     8
424
  8421504
 43
1.0
 76
     1
 77
     6
 78
     2
 67
     7
 79
     5
170
     0
171
     0
290
     0
174
     0
 93
        1
 44
0.0
173
     0
291
     1
 45
0.0
1001
ACAD
1000
AcDbSavedByObjectVersion
1070
     0
  0
VISUALSTYLE
  5
34
102
{ACAD_XDICTIONARY
360
376
102
}
102
{ACAD_REACTORS
330
2A
102
}
330
2A
100
AcDbVisualStyle
  2

 70
     9
 71
     3
 72
     2
 73
     0
 90
        0
 40
-0.6
 41
-30.0
 62
     5
 63
     7
421
 16777215
 74
     2
 91
        2
 64
     7
 65
   257
 75
     1
175
     1
 42
179.0
 92
        8
 66
     7
 43
1.0
 76
     1
 77
     6
 78
     2
 67
     7
 79
     3
170
     0
171
     0
290
     0
174
     0
 93
        1
 44
0.0
173
     0
291
     0
 45
0.0
1001
ACAD
1000
AcDbSavedByObjectVersion
1070
     0
  0
VISUALSTYLE
  5
35
102
{ACAD_XDICTIONARY
360
378
102
}
102
{ACAD_REACTORS
330
2A
102
}
330
2A
100
AcDbVisualStyle
  2

 70
    11
 71
     2
 72
     2
 73
     0
 90
        0
 40
-0.6
 41
-30.0
 62
     5
 63
     7
421
 16777215
 74
     1
 91
        4
 64
     7
 65
   257
 75
     1
175
     1
 42
1.0
 92
        8
 66
     7
 43
1.0
 76
     1
 77
     6
 78
     2
 67
     7
 79
     5
170
     0
171
     0
290
     0
174
     0
 93
        1
 44
-50.0
173
     0
291
     1
 45
0.0
1001
ACAD
1000
AcDbSavedByObjectVersion
1070
     0
  0
VISUALSTYLE
  5
3D
102
{ACAD_XDICTIONARY
360
388
102
}
102
{ACAD_REACTORS
330
2A
102
}
330
2A
100
AcDbVisualStyle
  2

 70
    22
 71
     2
 72
     2
 73
     0
 90
        0
 40
-0.6
 41
-30.0
 62
     5
 63
     7
421
 16777215
 74
     1
 91
        4
 64
     7
 65
   257
 75
     1
175
     1
 42
1.0
 92
        8
 66
     7
 43
1.0
 76
     1
 77
     6
 78
     2
 67
     7
 79
     5
170
     0
171
     0
290
     0
174
     0
 93
        1
 44
0.0
173
     0
291
     1
 45
0.0
1001
ACAD
1000
AcDbSavedByObjectVersion
1070
     0
  0
VISUALSTYLE
  5
39
102
{ACAD_XDICTIONARY
360
380
102
}
102
{ACAD_REACTORS
330
2A
102
}
330
2A
100
AcDbVisualStyle
  2

 70
    15
 71
     2
 72
     2
 73
     0
 90
        0
 40
-0.6
 41
-30.0
 62
     5
 63
     7
421
 16777215
 74
     1
 91
        4
 64
     7
 65
   257
 75
     1
175
     1
 42
1.0
 92
        8
 66
     7
 43
1.0
 76
     1
 77
     6
 78
     2
 67
     7
 79
     5
170
     0
171
     0
290
     0
174
     0
 93
        1
 44
0.0
173
     0
291
     1
 45
0.0
1001
ACAD
1000
AcDbSavedByObjectVersion
1070
     0
  0
VISUALSTYLE
  5
2B
102
{ACAD_XDICTIONARY
360
364
102
}
102
{ACAD_REACTORS
330
2A
102
}
330
2A
100
AcDbVisualStyle
  2

 70
     0
 71
     2
 72
     1
 73
     1
 90
        2
 40
-0.6
 41
30.0
 62
     5
 63
     7
421
 16777215
 74
     0
 91
        0
 64
     7
 65
   257
 75
     1
175
     1
 42
1.0
 92
        8
 66
     7
 43
1.0
 76
     1
 77
     6
 78
     2
 67
     7
 79
     5
170
     0
171
     0
290
     0
174
     0
 93
       13
 44
0.0
173
     0
291
     1
 45
0.0
1001
ACAD
1000
AcDbSavedByObjectVersion
1070
     0
  0
VISUALSTYLE
  5
2C
102
{ACAD_XDICTIONARY
360
366
102
}
102
{ACAD_REACTORS
330
2A
102
}
330
2A
100
AcDbVisualStyle
  2

 70
     1
 71
     2
 72
     1
 73
     1
 90
        2
 40
-0.6
 41
30.0
 62
     5
 63
     7
421
 16777215
 74
     1
 91
        0
 64
     7
 65
   257
 75
     1
175
     1
 42
1.0
 92
        0
 66
   257
 43
1.0
 76
     1
 77
     6
 78
     2
 67
     7
 79
     5
170
     0
171
     0
290
     0
174
     0
 93
       13
 44
0.0
173
     0
291
     1
 45
0.0
1001
ACAD
1000
AcDbSavedByObjectVersion
1070
     0
  0
VISUALSTYLE
  5
2D
102
{ACAD_XDICTIONARY
360
368
102
}
102
{ACAD_REACTORS
330
2A
102
}
330
2A
100
AcDbVisualStyle
  2

 70
     2
 71
     2
 72
     2
 73
     1
 90
        2
 40
-0.6
 41
30.0
 62
     5
 63
     7
421
 16777215
 74
     0
 91
        0
 64
     7
 65
   257
 75
     1
175
     1
 42
1.0
 92
        0
 66
     7
 43
1.0
 76
     1
 77
     6
 78
     2
 67
     7
 79
     5
170
     0
171
     0
290
     0
174
     0
 93
       13
 44
0.0
173
     0
291
     1
 45
0.0
1001
ACAD
1000
AcDbSavedByObjectVersion
1070
     0
  0
VISUALSTYLE
  5
2E
102
{ACAD_XDICTIONARY
360
36A
102
}
102
{ACAD_REACTORS
330
2A
102
}
330
2A
100
AcDbVisualStyle
  2

 70
     3
 71
     2
 72
     2
 73
     1
 90
        2
 40
-0.6
 41
30.0
 62
     5
 63
     7
421
 16777215
 74
     1
 91
        0
 64
     7
 65
   257
 75
     1
175
     1
 42
1.0
 92
        0
 66
   257
 43
1.0
 76
     1
 77
     6
 78
     2
 67
     7
 79
     5
170
     0
171
     0
290
     0
174
     0
 93
       13
 44
0.0
173
     0
291
     1
 45
0.0
1001
ACAD
1000
AcDbSavedByObjectVersion
1070
     0
  0
VISUALSTYLE
  5
31
102
{ACAD_XDICTIONARY
360
370
102
}
102
{ACAD_REACTORS
330
2A
102
}
330
2A
100
AcDbVisualStyle
  2

 70
     6
 71
     1
 72
     2
 73
     2
 90
        0
 40
-0.6
 41
-30.0
 62
     5
 63
     7
421
 16777215
 74
     2
 91
        2
 64
     7
 65
   257
 75
     2
175
     1
 42
40.0
 92
        0
 66
   257
 43
1.0
 76
     1
 77
     6
 78
     2
 67
     7
 79
     3
170
     0
171
     0
290
     0
174
     0
 93
        1
 44
0.0
173
     0
291
     0
 45
0.0
1001
ACAD
1000
AcDbSavedByObjectVersion
1070
     0
  0
VISUALSTYLE
  5
3B
102
{ACAD_XDICTIONARY
360
384
102
}
102
{ACAD_REACTORS
330
2A
102
}
330
2A
100
AcDbVisualStyle
  2

 70
    20
 71
     2
 72
     2
 73
     0
 90
        0
 40
-0.6
 41
-30.0
 62
     5
 63
     7
421
 16777215
 74
     1
 91
        4
 64
     7
 65
   257
 75
     1
175
     1
 42
1.0
 92
       10
 66
     7
 43
1.0
 76
     1
 77
     6
 78
     2
 67
     7
 79
     5
170
     0
171
     0
290
     0
174
     0
 93
        1
 44
0.0
173
     0
291
     1
 45
0.0
1001
ACAD
1000
AcDbSavedByObjectVersion
1070
     0
  0
VISUALSTYLE
  5
38
102
{ACAD_XDICTIONARY
360
37E
102
}
102
{ACAD_REACTORS
330
2A
102
}
330
2A
100
AcDbVisualStyle
  2

 70
    14
 71
     2
 72
     2
 73
     0
 90
        0
 40
-0.6
 41
-30.0
 62
     5
 63
     7
421
 16777215
 74
     1
 91
        4
 64
     7
 65
   257
 75
     7
175
     7
 42
1.0
 92
        8
 66
     7
 43
1.0
 76
     1
 77
     6
 78
     2
 67
     7
 79
     5
170
     0
171
     0
290
     0
174
     0
 93
        1
 44
0.0
173
     0
291
     1
 45
0.0
1001
ACAD
1000
AcDbSavedByObjectVersion
1070
     0
  0
VISUALSTYLE
  5
3C
102
{ACAD_XDICTIONARY
360
386
102
}
102
{ACAD_REACTORS
330
2A
102
}
330
2A
100
AcDbVisualStyle
  2

 70
    21
 71
     2
 72
     2
 73
     0
 90
        0
 40
-0.6
 41
-30.0
 62
     5
 63
     7
421
 16777215
 74
     1
 91
        4
 64
     7
 65
   257
 75
     1
175
     1
 42
1.0
 92
        9
 66
     7
 43
1.0
 76
     1
 77
     6
 78
     2
 67
     7
 79
     5
170
     0
171
     0
290
     0
174
     0
 93
        1
 44
0.0
173
     0
291
     1
 45
0.0
1001
ACAD
1000
AcDbSavedByObjectVersion
1070
     0
  0
VISUALSTYLE
  5
33
102
{ACAD_XDICTIONARY
360
374
102
}
102
{ACAD_REACTORS
330
2A
102
}
330
2A
100
AcDbVisualStyle
  2

 70
     8
 71
     2
 72
     3
 73
     0
 90
        2
 40
-0.6
 41
30.0
 62
     5
 63
     7
421
 16777215
 74
     0
 91
        0
 64
     7
 65
   257
 75
     1
175
     1
 42
1.0
 92
        8
 66
   257
 43
1.0
 76
     1
 77
     6
 78
     2
 67
     7
 79
     3
170
     0
171
     0
290
     0
174
     0
 93
       13
 44
0.0
173
     0
291
     0
 45
0.0
1001
ACAD
1000
AcDbSavedByObjectVersion
1070
     0
  0
VISUALSTYLE
  5
42
102
{ACAD_XDICTIONARY
360
392
102
}
102
{ACAD_REACTORS
330
2A
102
}
330
2A
100
AcDbVisualStyle
  2

 70
    27
 71
     2
 72
     2
 73
     1
 90
        2
 40
-0.6
 41
30.0
 62
     5
 63
     7
421
 16777215
 74
     0
 91
        4
 64
     7
 65
   257
 75
     1
175
     1
 42
1.0
 92
        8
 66
   257
 43
1.0
 76
     1
 77
     6
 78
     2
 67
     8
425
  7895160
 79
     3
170
     0
171
     0
290
     0
174
     0
 93
        5
 44
0.0
173
     0
291
     0
 45
0.0
1001
ACAD
1000
AcDbSavedByObjectVersion
1070
     0
  0
VISUALSTYLE
  5
41
102
{ACAD_XDICTIONARY
360
390
102
}
102
{ACAD_REACTORS
330
2A
102
}
330
2A
100
AcDbVisualStyle
  2

 70
    26
 71
     2
 72
     2
 73
     1
 90
        2
 40
-0.6
 41
30.0
 62
     5
 63
     7
421
 16777215
 74
     1
 91
       10
 64
     7
 65
   257
 75
     2
175
     1
 42
1.0
 92
        8
 66
   257
 43
1.0
 76
     1
 77
     6
 78
     2
 67
     7
 79
     3
170
     0
171
     0
290
     0
174
     0
 93
        5
 44
0.0
173
     0
291
     0
 45
0.0
1001
ACAD
1000
AcDbSavedByObjectVersion
1070
     0
  0
VISUALSTYLE
  5
3E
102
{ACAD_XDICTIONARY
360
38A
102
}
102
{ACAD_REACTORS
330
2A
102
}
330
2A
100
AcDbVisualStyle
  2

 70
    23
 71
     2
 72
     2
 73
     3
 90
        0
 40
-0.6
 41
-30.0
 62
     5
 63
     7
421
 16777215
 74
     2
 91
        2
 64
     7
 65
     7
 75
     1
175
     1
 42
40.0
 92
        8
 66
     7
 43
1.0
 76
     1
 77
     6
 78
     2
 67
     7
 79
     3
170
     0
171
     0
290
     0
174
     0
 93
        1
 44
0.0
173
     0
291
     0
 45
0.0
1001
ACAD
1000
AcDbSavedByObjectVersion
1070
     0
  0
VISUALSTYLE
  5
3F
102
{ACAD_XDICTIONARY
360
38C
102
}
102
{ACAD_REACTORS
330
2A
102
}
330
2A
100
AcDbVisualStyle
  2

 70
    24
 71
     1
 72
     2
 73
     2
 90
        0
 40
-0.6
 41
-30.0
 62
     5
 63
     7
421
 16777215
 74
     2
 91
        2
 64
     7
 65
     7
 75
     1
175
     1
 42
40.0
 92
       11
 66
     7
 43
1.0
 76
     1
 77
     6
 78
     2
 67
     7
 79
     6
170
     0
171
     0
290
     0
174
     0
 93
        1
 44
0.0
173
     0
291
     0
 45
0.0
1001
ACAD
1000
AcDbSavedByObjectVersion
1070
     0
  0
VISUALSTYLE
  5
37
102
{ACAD_XDICTIONARY
360
37C
102
}
102
{ACAD_REACTORS
330
2A
102
}
330
2A
100
AcDbVisualStyle
  2

 70
    13
 71
     2
 72
     2
 73
     0
 90
        0
 40
-0.6
 41
-30.0
 62
     5
 63
     7
421
 16777215
 74
     1
 91
        4
 64
     7
 65
   257
 75
     1
175
     1
 42
1.0
 92
       12
 66
     7
 43
1.0
 76
     1
 77
     6
 78
     2
 67
     7
 79
     5
170
     0
171
     0
290
     0
174
     0
 93
        1
 44
0.0
173
     0
291
     1
 45
0.0
1001
ACAD
1000
AcDbSavedByObjectVersion
1070
     0
  0
VISUALSTYLE
  5
30
102
{ACAD_XDICTIONARY
360
36E
102
}
102
{ACAD_REACTORS
330
2A
102
}
330
2A
100
AcDbVisualStyle
  2

 70
     5
 71
     0
 72
     2
 73
     0
 90
        0
 40
-0.6
 41
-30.0
 62
     5
 63
     7
421
 16777215
 74
     1
 91
        4
 64
     7
 65
   257
 75
     1
175
     1
 42
1.0
 92
        0
 66
   257
 43
1.0
 76
     1
 77
     6
 78
     2
 67
     7
 79
     3
170
     0
171
     0
290
     0
174
     0
 93
        1
 44
0.0
173
     0
291
     0
 45
0.0
1001
ACAD
1000
AcDbSavedByObjectVersion
1070
     0
  0
VISUALSTYLE
  5
40
102
{ACAD_XDICTIONARY
360
38E
102
}
102
{ACAD_REACTORS
330
2A
102
}
330
2A
100
AcDbVisualStyle
  2

 70
    25
 71
     2
 72
     2
 73
     1
 90
        1
 40
0.5
 41
-30.0
 62
     5
 63
     7
421
 16777215
 74
     1
 91
        0
 64
     7
 65
   257
 75
     1
175
     1
 42
1.0
 92
        8
 66
     7
 43
1.0
 76
     1
 77
     6
 78
     2
 67
     7
 79
     3
170
     0
171
     0
290
     0
174
     0
 93
       13
 44
0.0
173
     0
291
     0
 45
0.0
1001
ACAD
1000
AcDbSavedByObjectVersion
1070
     0
  0
DICTIONARYVAR
  5
2B2
102
{ACAD_REACTORS
330
2B1
102
}
330
2B1
100
DictionaryVariables
280
     0
  1
1:1
  0
DICTIONARYVAR
  5
2F3
102
{ACAD_REACTORS
330
2B1
102
}
330
2B1
100
DictionaryVariables
280
     0
  1
STANDARD
  0
DICTIONARYVAR
  5
2F2
102
{ACAD_REACTORS
330
2B1
102
}
330
2B1
100
DictionaryVariables
280
     0
  1
STANDARD
  0
DICTIONARYVAR
  5
35E
102
{ACAD_REACTORS
330
2B1
102
}
330
2B1
100
DictionaryVariables
280
     0
  1
Metric50
  0
DICTIONARYVAR
  5
35F
102
{ACAD_REACTORS
330
2B1
102
}
330
2B1
100
DictionaryVariables
280
     0
  1
Metric50
  0
DICTIONARYVAR
  5
2B3
102
{ACAD_REACTORS
330
2B1
102
}
330
2B1
100
DictionaryVariables
280
     0
  1
1
  0
DICTIONARYVAR
  5
360
102
{ACAD_REACTORS
330
2B1
102
}
330
2B1
100
DictionaryVariables
280
     0
  1
2
  0
DICTIONARY
  5
397
330
2FA
100
AcDbDictionary
280
     1
281
     1
  3
ACAD_XREC_ROUNDTRIP
360
398
  0
DICTIONARY
  5
2E7
330
45
100
AcDbDictionary
280
     1
281
     1
  3
ACAD_XREC_ROUNDTRIP
360
2E8
  0
DICTIONARY
  5
2E5
330
44
100
AcDbDictionary
280
     1
281
     1
  3
ACAD_XREC_ROUNDTRIP
360
2E6
  0
DICTIONARY
  5
2E9
330
46
100
AcDbDictionary
280
     1
281
     1
  3
ACAD_XREC_ROUNDTRIP
360
2EA
  0
DICTIONARY
  5
395
330
2F9
100
AcDbDictionary
280
     1
281
     1
  3
ACAD_XREC_ROUNDTRIP
360
396
  0
DICTIONARY
  5
2EB
330
6A
100
AcDbDictionary
280
     1
281
     1
  3
ACAD_ROUNDTRIP_2008_TABLESTYLE_CELLSTYLEMAP
360
362
  3
ACAD_XREC_ROUNDTRIP
360
394
  0
DICTIONARY
  5
36C
330
2F
100
AcDbDictionary
280
     1
281
     1
  3
ACAD_XREC_ROUNDTRIP
360
36D
  0
DICTIONARY
  5
372
330
32
100
AcDbDictionary
280
     1
281
     1
  3
ACAD_XREC_ROUNDTRIP
360
373
  0
DICTIONARY
  5
37A
330
36
100
AcDbDictionary
280
     1
281
     1
  3
ACAD_XREC_ROUNDTRIP
360
37B
  0
DICTIONARY
  5
382
330
3A
100
AcDbDictionary
280
     1
281
     1
  3
ACAD_XREC_ROUNDTRIP
360
383
  0
DICTIONARY
  5
376
330
34
100
AcDbDictionary
280
     1
281
     1
  3
ACAD_XREC_ROUNDTRIP
360
377
  0
DICTIONARY
  5
378
330
35
100
AcDbDictionary
280
     1
281
     1
  3
ACAD_XREC_ROUNDTRIP
360
379
  0
DICTIONARY
  5
388
330
3D
100
AcDbDictionary
280
     1
281
     1
  3
ACAD_XREC_ROUNDTRIP
360
389
  0
DICTIONARY
  5
380
330
39
100
AcDbDictionary
280
     1
281
     1
  3
ACAD_XREC_ROUNDTRIP
360
381
  0
DICTIONARY
  5
364
330
2B
100
AcDbDictionary
280
     1
281
     1
  3
ACAD_XREC_ROUNDTRIP
360
365
  0
DICTIONARY
  5
366
330
2C
100
AcDbDictionary
280
     1
281
     1
  3
ACAD_XREC_ROUNDTRIP
360
367
  0
DICTIONARY
  5
368
330
2D
100
AcDbDictionary
280
     1
281
     1
  3
ACAD_XREC_ROUNDTRIP
360
369
  0
DICTIONARY
  5
36A
330
2E
100
AcDbDictionary
280
     1
281
     1
  3
ACAD_XREC_ROUNDTRIP
360
36B
  0
DICTIONARY
  5
370
330
31
100
AcDbDictionary
280
     1
281
     1
  3
ACAD_XREC_ROUNDTRIP
360
371
  0
DICTIONARY
  5
384
330
3B
100
AcDbDictionary
280
     1
281
     1
  3
ACAD_XREC_ROUNDTRIP
360
385
  0
DICTIONARY
  5
37E
330
38
100
AcDbDictionary
280
     1
281
     1
  3
ACAD_XREC_ROUNDTRIP
360
37F
  0
DICTIONARY
  5
386
330
3C
100
AcDbDictionary
280
     1
281
     1
  3
ACAD_XREC_ROUNDTRIP
360
387
  0
DICTIONARY
  5
374
330
33
100
AcDbDictionary
280
     1
281
     1
  3
ACAD_XREC_ROUNDTRIP
360
375
  0
DICTIONARY
  5
392
330
42
100
AcDbDictionary
280
     1
281
     1
  3
ACAD_XREC_ROUNDTRIP
360
393
  0
DICTIONARY
  5
390
330
41
100
AcDbDictionary
280
     1
281
     1
  3
ACAD_XREC_ROUNDTRIP
360
391
  0
DICTIONARY
  5
38A
330
3E
100
AcDbDictionary
280
     1
281
     1
  3
ACAD_XREC_ROUNDTRIP
360
38B
  0
DICTIONARY
  5
38C
330
3F
100
AcDbDictionary
280
     1
281
     1
  3
ACAD_XREC_ROUNDTRIP
360
38D
  0
DICTIONARY
  5
37C
330
37
100
AcDbDictionary
280
     1
281
     1
  3
ACAD_XREC_ROUNDTRIP
360
37D
  0
DICTIONARY
  5
36E
330
30
100
AcDbDictionary
280
     1
281
     1
  3
ACAD_XREC_ROUNDTRIP
360
36F
  0
DICTIONARY
  5
38E
330
40
100
AcDbDictionary
280
     1
281
     1
  3
ACAD_XREC_ROUNDTRIP
360
38F
  0
XRECORD
  5
398
102
{ACAD_REACTORS
330
397
102
}
330
397
100
AcDbXrecord
280
     1
102
DISPLAYNAME
  1
Metric50
102
FLAGS
 90
        0
  0
XRECORD
  5
2E8
102
{ACAD_REACTORS
330
2E7
102
}
330
2E7
100
AcDbXrecord
280
     1
102
MATERIAL
148
0.0
149
0.0
149
0.0
 93
        0
 94
      127
282
     0
 72
     1
 77
     1
171
     1
175
     1
179
     1
273
     0
  0
XRECORD
  5
2E6
102
{ACAD_REACTORS
330
2E5
102
}
330
2E5
100
AcDbXrecord
280
     1
102
MATERIAL
148
0.0
149
0.0
149
0.0
 93
        0
 94
      127
282
     0
 72
     1
 77
     1
171
     1
175
     1
179
     1
273
     0
  0
XRECORD
  5
2EA
102
{ACAD_REACTORS
330
2E9
102
}
330
2E9
100
AcDbXrecord
280
     1
102
MATERIAL
148
0.0
149
0.0
149
0.0
 93
        0
 94
      127
282
     0
 72
     1
 77
     1
171
     1
175
     1
179
     1
273
     0
  0
XRECORD
  5
396
102
{ACAD_REACTORS
330
395
102
}
330
395
100
AcDbXrecord
280
     1
102
DISPLAYNAME
  1
Metric50
102
FLAGS
 90
        0
  0
CELLSTYLEMAP
  5
362
102
{ACAD_REACTORS
330
2EB
102
}
330
2EB
100
AcDbCellStyleMap
 90
        3
300
CELLSTYLE
  1
TABLEFORMAT_BEGIN
 90
        5
170
     1
 91
        0
 92
    32768
 62
   257
 93
        1
300
CONTENTFORMAT
  1
CONTENTFORMAT_BEGIN
 90
        0
 91
        0
 92
        4
 93
        0
300

 40
0.0
140
1.0
 94
        5
 62
     0
340
11
144
0.25
309
CONTENTFORMAT_END
171
     1
301
MARGIN
  1
CELLMARGIN_BEGIN
 40
0.06
 40
0.06
 40
0.06
 40
0.06
 40
0.18
 40
0.18
309
CELLMARGIN_END
 94
        6
 95
        1
302
GRIDFORMAT
  1
GRIDFORMAT_BEGIN
 90
        0
 91
        1
 62
     0
 92
       -2
340
14
 93
        0
 40
0.045
309
GRIDFORMAT_END
 95
        2
302
GRIDFORMAT
  1
GRIDFORMAT_BEGIN
 90
        0
 91
        1
 62
     0
 92
       -2
340
14
 93
        0
 40
0.045
309
GRIDFORMAT_END
 95
        4
302
GRIDFORMAT
  1
GRIDFORMAT_BEGIN
 90
        0
 91
        1
 62
     0
 92
       -2
340
14
 93
        0
 40
0.045
309
GRIDFORMAT_END
 95
        8
302
GRIDFORMAT
  1
GRIDFORMAT_BEGIN
 90
        0
 91
        1
 62
     0
 92
       -2
340
14
 93
        0
 40
0.045
309
GRIDFORMAT_END
 95
       16
302
GRIDFORMAT
  1
GRIDFORMAT_BEGIN
 90
        0
 91
        1
 62
     0
 92
       -2
340
14
 93
        0
 40
0.045
309
GRIDFORMAT_END
 95
       32
302
GRIDFORMAT
  1
GRIDFORMAT_BEGIN
 90
        0
 91
        1
 62
     0
 92
       -2
340
14
 93
        0
 40
0.045
309
GRIDFORMAT_END
309
TABLEFORMAT_END
  1
CELLSTYLE_BEGIN
 90
        1
 91
        1
300
_TITLE
309
CELLSTYLE_END
300
CELLSTYLE
  1
TABLEFORMAT_BEGIN
 90
        5
170
     1
 91
        0
 92
        0
 62
   257
 93
        1
300
CONTENTFORMAT
  1
CONTENTFORMAT_BEGIN
 90
        0
 91
        0
 92
        4
 93
        0
300

 40
0.0
140
1.0
 94
        5
 62
     0
340
11
144
0.18
309
CONTENTFORMAT_END
171
     1
301
MARGIN
  1
CELLMARGIN_BEGIN
 40
0.06
 40
0.06
 40
0.06
 40
0.06
 40
0.18
 40
0.18
309
CELLMARGIN_END
 94
        6
 95
        1
302
GRIDFORMAT
  1
GRIDFORMAT_BEGIN
 90
        0
 91
        1
 62
     0
 92
       -2
340
14
 93
        0
 40
0.045
309
GRIDFORMAT_END
 95
        2
302
GRIDFORMAT
  1
GRIDFORMAT_BEGIN
 90
        0
 91
        1
 62
     0
 92
       -2
340
14
 93
        0
 40
0.045
309
GRIDFORMAT_END
 95
        4
302
GRIDFORMAT
  1
GRIDFORMAT_BEGIN
 90
        0
 91
        1
 62
     0
 92
       -2
340
14
 93
        0
 40
0.045
309
GRIDFORMAT_END
 95
        8
302
GRIDFORMAT
  1
GRIDFORMAT_BEGIN
 90
        0
 91
        1
 62
     0
 92
       -2
340
14
 93
        0
 40
0.045
309
GRIDFORMAT_END
 95
       16
302
GRIDFORMAT
  1
GRIDFORMAT_BEGIN
 90
        0
 91
        1
 62
     0
 92
       -2
340
14
 93
        0
 40
0.045
309
GRIDFORMAT_END
 95
       32
302
GRIDFORMAT
  1
GRIDFORMAT_BEGIN
 90
        0
 91
        1
 62
     0
 92
       -2
340
14
 93
        0
 40
0.045
309
GRIDFORMAT_END
309
TABLEFORMAT_END
  1
CELLSTYLE_BEGIN
 90
        2
 91
        1
300
_HEADER
309
CELLSTYLE_END
300
CELLSTYLE
  1
TABLEFORMAT_BEGIN
 90
        5
170
     1
 91
        0
 92
        0
 62
   257
 93
        1
300
CONTENTFORMAT
  1
CONTENTFORMAT_BEGIN
 90
        0
 91
        0
 92
        4
 93
        0
300

 40
0.0
140
1.0
 94
        2
 62
     0
340
11
144
0.18
309
CONTENTFORMAT_END
171
     1
301
MARGIN
  1
CELLMARGIN_BEGIN
 40
0.06
 40
0.06
 40
0.06
 40
0.06
 40
0.18
 40
0.18
309
CELLMARGIN_END
 94
        6
 95
        1
302
GRIDFORMAT
  1
GRIDFORMAT_BEGIN
 90
        0
 91
        1
 62
     0
 92
       -2
340
14
 93
        0
 40
0.045
309
GRIDFORMAT_END
 95
        2
302
GRIDFORMAT
  1
GRIDFORMAT_BEGIN
 90
        0
 91
        1
 62
     0
 92
       -2
340
14
 93
        0
 40
0.045
309
GRIDFORMAT_END
 95
        4
302
GRIDFORMAT
  1
GRIDFORMAT_BEGIN
 90
        0
 91
        1
 62
     0
 92
       -2
340
14
 93
        0
 40
0.045
309
GRIDFORMAT_END
 95
        8
302
GRIDFORMAT
  1
GRIDFORMAT_BEGIN
 90
        0
 91
        1
 62
     0
 92
       -2
340
14
 93
        0
 40
0.045
309
GRIDFORMAT_END
 95
       16
302
GRIDFORMAT
  1
GRIDFORMAT_BEGIN
 90
        0
 91
        1
 62
     0
 92
       -2
340
14
 93
        0
 40
0.045
309
GRIDFORMAT_END
 95
       32
302
GRIDFORMAT
  1
GRIDFORMAT_BEGIN
 90
        0
 91
        1
 62
     0
 92
       -2
340
14
 93
        0
 40
0.045
309
GRIDFORMAT_END
309
TABLEFORMAT_END
  1
CELLSTYLE_BEGIN
 90
        3
 91
        2
300
_DATA
309
CELLSTYLE_END
  0
XRECORD
  5
394
102
{ACAD_REACTORS
330
2EB
102
}
330
2EB
100
AcDbXrecord
280
     1
102
ACAD_ROUNDTRIP_PRE2007_TABLESTYLE
 90
        4
 91
        0
  1

 92
        4
 93
        0
  2

 94
        4
 95
        0
  3

  0
XRECORD
  5
36D
102
{ACAD_REACTORS
330
36C
102
}
330
36C
100
AcDbXrecord
280
     1
102
RTVSPost2010Prop28
280
     1
102
RTVSPost2010PropOp28
 70
     1
102
RTVSPost2010Prop29
280
     1
102
RTVSPost2010PropOp29
 70
     1
102
RTVSPost2010Prop30
280
     0
102
RTVSPost2010PropOp30
 70
     1
102
RTVSPost2010Prop31
280
     0
102
RTVSPost2010PropOp31
 70
     1
102
RTVSPost2010Prop32
280
     0
102
RTVSPost2010PropOp32
 70
     1
102
RTVSPost2010Prop33
280
     0
102
RTVSPost2010PropOp33
 70
     1
102
RTVSPost2010Prop34
280
     0
102
RTVSPost2010PropOp34
 70
     1
102
RTVSPost2010Prop35
280
     0
102
RTVSPost2010PropOp35
 70
     1
102
RTVSPost2010Prop36
280
     0
102
RTVSPost2010PropOp36
 70
     1
102
RTVSPost2010Prop37
 90
       50
102
RTVSPost2010PropOp37
 70
     1
102
RTVSPost2010Prop38
140
0.0
102
RTVSPost2010PropOp38
 70
     1
102
RTVSPost2010Prop39
140
1.0
102
RTVSPost2010PropOp39
 70
     1
102
RTVSPost2010Prop40
 90
        0
102
RTVSPost2010PropOp40
 70
     1
102
RTVSPost2010Prop41ColorIndex
 90
       18
102
RTVSPost2010Prop41ColorRGB
 90
        0
102
RTVSPost2010PropOp41
 70
     1
102
RTVSPost2010Prop42
 90
       50
102
RTVSPost2010PropOp42
 70
     1
102
RTVSPost2010Prop43
 90
        3
102
RTVSPost2010PropOp43
 70
     1
102
RTVSPost2010Prop44ColorIndex
 90
        5
102
RTVSPost2010Prop44ColorRGB
 90
      255
102
RTVSPost2010PropOp44
 70
     1
102
RTVSPost2010Prop45
280
     0
102
RTVSPost2010PropOp45
 70
     1
102
RTVSPost2010Prop46
 90
       50
102
RTVSPost2010PropOp46
 70
     1
102
RTVSPost2010Prop47
 90
       50
102
RTVSPost2010PropOp47
 70
     1
102
RTVSPost2010Prop48
 90
       50
102
RTVSPost2010PropOp48
 70
     1
102
RTVSPost2010Prop49
280
     0
102
RTVSPost2010PropOp49
 70
     1
102
RTVSPost2010Prop50
 90
       50
102
RTVSPost2010PropOp50
 70
     1
102
RTVSPost2010Prop51ColorIndex
 90
      256
102
RTVSPost2010Prop51ColorRGB
 90
-16777216
102
RTVSPost2010PropOp51
 70
     0
102
RTVSPost2010Prop52
140
1.0
102
RTVSPost2010PropOp52
 70
     0
102
RTVSPost2010Prop53
 90
        2
102
RTVSPost2010PropOp53
 70
     1
102
RTVSPost2010Prop54
  1
strokes_ogs.tif
102
RTVSPost2010PropOp54
 70
     1
102
RTVSPost2010Prop55
280
     0
102
RTVSPost2010PropOp55
 70
     1
102
RTVSPost2010Prop56
140
1.0
102
RTVSPost2010PropOp56
 70
     1
102
RTVSPost2010Prop57
140
1.0
102
RTVSPost2010PropOp57
 70
     1
102
RTVSPropertyOp0
 70
     1
102
RTVSPropertyOp1
 70
     1
102
RTVSPropertyOp2
 70
     1
102
RTVSPropertyOp3
 70
     1
102
RTVSPropertyOp4
 70
     1
102
RTVSPropertyOp5
 70
     1
102
RTVSPropertyOp6
 70
     1
102
RTVSPropertyOp7
 70
     1
102
RTVSPropertyOp8
 70
     1
102
RTVSPropertyOp9
 70
     1
102
RTVSPropertyOp10
 70
     1
102
RTVSPropertyOp11
 70
     1
102
RTVSPropertyOp12
 70
     1
102
RTVSPropertyOp13
 70
     1
102
RTVSPropertyOp14
 70
     1
102
RTVSPropertyOp15
 70
     1
102
RTVSPropertyOp16
 70
     1
102
RTVSPropertyOp17
 70
     1
102
RTVSPropertyOp18
 70
     1
102
RTVSPropertyOp19
 70
     1
102
RTVSPropertyOp20
 70
     1
102
RTVSPropertyOp21
 70
     1
102
RTVSPropertyOp22
 70
     1
102
RTVSPropertyOp23
 70
     1
102
RTVSPropertyOp24
 70
     1
102
RTVSPropertyOp25
 70
     1
102
RTVSPropertyOp26
 70
     1
102
RTVSPropertyOp27
 70
     1
102
RTVSPropertyOp28
 70
     1
102
RTVSPropertyOp29
 70
     1
102
RTVSPropertyOp30
 70
     1
102
RTVSPropertyOp31
 70
     1
102
RTVSPropertyOp32
 70
     1
102
RTVSPropertyOp33
 70
     1
102
RTVSPropertyOp34
 70
     1
102
RTVSPropertyOp35
 70
     1
102
RTVSPropertyOp36
 70
     1
102
RTVSPropertyOp37
 70
     1
102
RTVSPropertyOp38
 70
     1
102
RTVSPropertyOp39
 70
     1
102
RTVSPropertyOp40
 70
     1
102
RTVSPropertyOp41
 70
     1
102
RTVSPropertyOp42
 70
     1
102
RTVSPropertyOp43
 70
     1
102
RTVSPropertyOp44
 70
     1
102
RTVSPropertyOp45
 70
     1
102
RTVSPropertyOp46
 70
     1
102
RTVSPropertyOp47
 70
     1
102
RTVSPropertyOp48
 70
     1
102
RTVSPropertyOp49
 70
     1
102
RTVSPropertyOp50
 70
     1
102
RTVSPropertyOp51
 70
     0
102
RTVSPropertyOp52
 70
     0
102
RTVSPropertyOp53
 70
     1
102
RTVSPropertyOp54
 70
     1
102
RTVSPropertyOp55
 70
     1
102
RTVSPropertyOp56
 70
     1
102
RTVSPropertyOp57
 70
     1
102
RTVSPropertyOp58
 70
     1
102
RTVSPropertyOp59
 70
     1
102
RTVSPropertyOp60
 70
     1
102
RTVSPropertyOp61
 70
     1
102
RTVSPropertyOp62
 70
     1
  0
XRECORD
  5
373
102
{ACAD_REACTORS
330
372
102
}
330
372
100
AcDbXrecord
280
     1
102
RTVSPost2010Prop28
280
     0
102
RTVSPost2010PropOp28
 70
     1
102
RTVSPost2010Prop29
280
     1
102
RTVSPost2010PropOp29
 70
     1
102
RTVSPost2010Prop30
280
     1
102
RTVSPost2010PropOp30
 70
     1
102
RTVSPost2010Prop31
280
     0
102
RTVSPost2010PropOp31
 70
     1
102
RTVSPost2010Prop32
280
     0
102
RTVSPost2010PropOp32
 70
     1
102
RTVSPost2010Prop33
280
     0
102
RTVSPost2010PropOp33
 70
     1
102
RTVSPost2010Prop34
280
     0
102
RTVSPost2010PropOp34
 70
     1
102
RTVSPost2010Prop35
280
     0
102
RTVSPost2010PropOp35
 70
     1
102
RTVSPost2010Prop36
280
     0
102
RTVSPost2010PropOp36
 70
     1
102
RTVSPost2010Prop37
 90
       50
102
RTVSPost2010PropOp37
 70
     1
102
RTVSPost2010Prop38
140
0.0
102
RTVSPost2010PropOp38
 70
     1
102
RTVSPost2010Prop39
140
1.0
102
RTVSPost2010PropOp39
 70
     1
102
RTVSPost2010Prop40
 90
        0
102
RTVSPost2010PropOp40
 70
     1
102
RTVSPost2010Prop41ColorIndex
 90
       18
102
RTVSPost2010Prop41ColorRGB
 90
        0
102
RTVSPost2010PropOp41
 70
     1
102
RTVSPost2010Prop42
 90
       50
102
RTVSPost2010PropOp42
 70
     1
102
RTVSPost2010Prop43
 90
        3
102
RTVSPost2010PropOp43
 70
     1
102
RTVSPost2010Prop44ColorIndex
 90
        5
102
RTVSPost2010Prop44ColorRGB
 90
      255
102
RTVSPost2010PropOp44
 70
     1
102
RTVSPost2010Prop45
280
     0
102
RTVSPost2010PropOp45
 70
     1
102
RTVSPost2010Prop46
 90
       50
102
RTVSPost2010PropOp46
 70
     1
102
RTVSPost2010Prop47
 90
       50
102
RTVSPost2010PropOp47
 70
     1
102
RTVSPost2010Prop48
 90
       50
102
RTVSPost2010PropOp48
 70
     1
102
RTVSPost2010Prop49
280
     0
102
RTVSPost2010PropOp49
 70
     1
102
RTVSPost2010Prop50
 90
       50
102
RTVSPost2010PropOp50
 70
     1
102
RTVSPost2010Prop51ColorIndex
 90
      256
102
RTVSPost2010Prop51ColorRGB
 90
-16777216
102
RTVSPost2010PropOp51
 70
     0
102
RTVSPost2010Prop52
140
1.0
102
RTVSPost2010PropOp52
 70
     0
102
RTVSPost2010Prop53
 90
        2
102
RTVSPost2010PropOp53
 70
     1
102
RTVSPost2010Prop54
  1
strokes_ogs.tif
102
RTVSPost2010PropOp54
 70
     1
102
RTVSPost2010Prop55
280
     0
102
RTVSPost2010PropOp55
 70
     1
102
RTVSPost2010Prop56
140
1.0
102
RTVSPost2010PropOp56
 70
     1
102
RTVSPost2010Prop57
140
1.0
102
RTVSPost2010PropOp57
 70
     1
102
RTVSPropertyOp0
 70
     1
102
RTVSPropertyOp1
 70
     1
102
RTVSPropertyOp2
 70
     1
102
RTVSPropertyOp3
 70
     1
102
RTVSPropertyOp4
 70
     1
102
RTVSPropertyOp5
 70
     1
102
RTVSPropertyOp6
 70
     1
102
RTVSPropertyOp7
 70
     1
102
RTVSPropertyOp8
 70
     1
102
RTVSPropertyOp9
 70
     1
102
RTVSPropertyOp10
 70
     1
102
RTVSPropertyOp11
 70
     1
102
RTVSPropertyOp12
 70
     1
102
RTVSPropertyOp13
 70
     1
102
RTVSPropertyOp14
 70
     1
102
RTVSPropertyOp15
 70
     1
102
RTVSPropertyOp16
 70
     1
102
RTVSPropertyOp17
 70
     1
102
RTVSPropertyOp18
 70
     1
102
RTVSPropertyOp19
 70
     1
102
RTVSPropertyOp20
 70
     1
102
RTVSPropertyOp21
 70
     1
102
RTVSPropertyOp22
 70
     1
102
RTVSPropertyOp23
 70
     1
102
RTVSPropertyOp24
 70
     1
102
RTVSPropertyOp25
 70
     1
102
RTVSPropertyOp26
 70
     1
102
RTVSPropertyOp27
 70
     1
102
RTVSPropertyOp28
 70
     1
102
RTVSPropertyOp29
 70
     1
102
RTVSPropertyOp30
 70
     1
102
RTVSPropertyOp31
 70
     1
102
RTVSPropertyOp32
 70
     1
102
RTVSPropertyOp33
 70
     1
102
RTVSPropertyOp34
 70
     1
102
RTVSPropertyOp35
 70
     1
102
RTVSPropertyOp36
 70
     1
102
RTVSPropertyOp37
 70
     1
102
RTVSPropertyOp38
 70
     1
102
RTVSPropertyOp39
 70
     1
102
RTVSPropertyOp40
 70
     1
102
RTVSPropertyOp41
 70
     1
102
RTVSPropertyOp42
 70
     1
102
RTVSPropertyOp43
 70
     1
102
RTVSPropertyOp44
 70
     1
102
RTVSPropertyOp45
 70
     1
102
RTVSPropertyOp46
 70
     1
102
RTVSPropertyOp47
 70
     1
102
RTVSPropertyOp48
 70
     1
102
RTVSPropertyOp49
 70
     1
102
RTVSPropertyOp50
 70
     1
102
RTVSPropertyOp51
 70
     0
102
RTVSPropertyOp52
 70
     0
102
RTVSPropertyOp53
 70
     1
102
RTVSPropertyOp54
 70
     1
102
RTVSPropertyOp55
 70
     1
102
RTVSPropertyOp56
 70
     1
102
RTVSPropertyOp57
 70
     1
102
RTVSPropertyOp58
 70
     1
102
RTVSPropertyOp59
 70
     1
102
RTVSPropertyOp60
 70
     1
102
RTVSPropertyOp61
 70
     1
102
RTVSPropertyOp62
 70
     1
  0
XRECORD
  5
37B
102
{ACAD_REACTORS
330
37A
102
}
330
37A
100
AcDbXrecord
280
     1
102
RTVSPost2010Prop28
280
     0
102
RTVSPost2010PropOp28
 70
     1
102
RTVSPost2010Prop29
280
     1
102
RTVSPost2010PropOp29
 70
     1
102
RTVSPost2010Prop30
280
     1
102
RTVSPost2010PropOp30
 70
     1
102
RTVSPost2010Prop31
280
     0
102
RTVSPost2010PropOp31
 70
     1
102
RTVSPost2010Prop32
280
     0
102
RTVSPost2010PropOp32
 70
     1
102
RTVSPost2010Prop33
280
     0
102
RTVSPost2010PropOp33
 70
     1
102
RTVSPost2010Prop34
280
     0
102
RTVSPost2010PropOp34
 70
     1
102
RTVSPost2010Prop35
280
     0
102
RTVSPost2010PropOp35
 70
     1
102
RTVSPost2010Prop36
280
     0
102
RTVSPost2010PropOp36
 70
     1
102
RTVSPost2010Prop37
 90
       50
102
RTVSPost2010PropOp37
 70
     1
102
RTVSPost2010Prop38
140
0.0
102
RTVSPost2010PropOp38
 70
     1
102
RTVSPost2010Prop39
140
1.0
102
RTVSPost2010PropOp39
 70
     1
102
RTVSPost2010Prop40
 90
        0
102
RTVSPost2010PropOp40
 70
     1
102
RTVSPost2010Prop41ColorIndex
 90
       18
102
RTVSPost2010Prop41ColorRGB
 90
        0
102
RTVSPost2010PropOp41
 70
     1
102
RTVSPost2010Prop42
 90
       50
102
RTVSPost2010PropOp42
 70
     1
102
RTVSPost2010Prop43
 90
        3
102
RTVSPost2010PropOp43
 70
     1
102
RTVSPost2010Prop44ColorIndex
 90
        5
102
RTVSPost2010Prop44ColorRGB
 90
      255
102
RTVSPost2010PropOp44
 70
     1
102
RTVSPost2010Prop45
280
     0
102
RTVSPost2010PropOp45
 70
     1
102
RTVSPost2010Prop46
 90
       50
102
RTVSPost2010PropOp46
 70
     1
102
RTVSPost2010Prop47
 90
       50
102
RTVSPost2010PropOp47
 70
     1
102
RTVSPost2010Prop48
 90
       50
102
RTVSPost2010PropOp48
 70
     1
102
RTVSPost2010Prop49
280
     0
102
RTVSPost2010PropOp49
 70
     1
102
RTVSPost2010Prop50
 90
       50
102
RTVSPost2010PropOp50
 70
     1
102
RTVSPost2010Prop51ColorIndex
 90
      256
102
RTVSPost2010Prop51ColorRGB
 90
-16777216
102
RTVSPost2010PropOp51
 70
     0
102
RTVSPost2010Prop52
140
1.0
102
RTVSPost2010PropOp52
 70
     0
102
RTVSPost2010Prop53
 90
        2
102
RTVSPost2010PropOp53
 70
     1
102
RTVSPost2010Prop54
  1
strokes_ogs.tif
102
RTVSPost2010PropOp54
 70
     1
102
RTVSPost2010Prop55
280
     0
102
RTVSPost2010PropOp55
 70
     1
102
RTVSPost2010Prop56
140
1.0
102
RTVSPost2010PropOp56
 70
     1
102
RTVSPost2010Prop57
140
1.0
102
RTVSPost2010PropOp57
 70
     1
102
RTVSPropertyOp0
 70
     1
102
RTVSPropertyOp1
 70
     1
102
RTVSPropertyOp2
 70
     1
102
RTVSPropertyOp3
 70
     1
102
RTVSPropertyOp4
 70
     1
102
RTVSPropertyOp5
 70
     1
102
RTVSPropertyOp6
 70
     1
102
RTVSPropertyOp7
 70
     1
102
RTVSPropertyOp8
 70
     1
102
RTVSPropertyOp9
 70
     1
102
RTVSPropertyOp10
 70
     1
102
RTVSPropertyOp11
 70
     1
102
RTVSPropertyOp12
 70
     1
102
RTVSPropertyOp13
 70
     1
102
RTVSPropertyOp14
 70
     1
102
RTVSPropertyOp15
 70
     1
102
RTVSPropertyOp16
 70
     1
102
RTVSPropertyOp17
 70
     1
102
RTVSPropertyOp18
 70
     1
102
RTVSPropertyOp19
 70
     1
102
RTVSPropertyOp20
 70
     1
102
RTVSPropertyOp21
 70
     1
102
RTVSPropertyOp22
 70
     1
102
RTVSPropertyOp23
 70
     1
102
RTVSPropertyOp24
 70
     1
102
RTVSPropertyOp25
 70
     1
102
RTVSPropertyOp26
 70
     1
102
RTVSPropertyOp27
 70
     1
102
RTVSPropertyOp28
 70
     1
102
RTVSPropertyOp29
 70
     1
102
RTVSPropertyOp30
 70
     1
102
RTVSPropertyOp31
 70
     1
102
RTVSPropertyOp32
 70
     1
102
RTVSPropertyOp33
 70
     1
102
RTVSPropertyOp34
 70
     1
102
RTVSPropertyOp35
 70
     1
102
RTVSPropertyOp36
 70
     1
102
RTVSPropertyOp37
 70
     1
102
RTVSPropertyOp38
 70
     1
102
RTVSPropertyOp39
 70
     1
102
RTVSPropertyOp40
 70
     1
102
RTVSPropertyOp41
 70
     1
102
RTVSPropertyOp42
 70
     1
102
RTVSPropertyOp43
 70
     1
102
RTVSPropertyOp44
 70
     1
102
RTVSPropertyOp45
 70
     1
102
RTVSPropertyOp46
 70
     1
102
RTVSPropertyOp47
 70
     1
102
RTVSPropertyOp48
 70
     1
102
RTVSPropertyOp49
 70
     1
102
RTVSPropertyOp50
 70
     1
102
RTVSPropertyOp51
 70
     0
102
RTVSPropertyOp52
 70
     0
102
RTVSPropertyOp53
 70
     1
102
RTVSPropertyOp54
 70
     1
102
RTVSPropertyOp55
 70
     1
102
RTVSPropertyOp56
 70
     1
102
RTVSPropertyOp57
 70
     1
102
RTVSPropertyOp58
 70
     1
102
RTVSPropertyOp59
 70
     1
102
RTVSPropertyOp60
 70
     1
102
RTVSPropertyOp61
 70
     1
102
RTVSPropertyOp62
 70
     1
  0
XRECORD
  5
383
102
{ACAD_REACTORS
330
382
102
}
330
382
100
AcDbXrecord
280
     1
102
RTVSPost2010Prop28
280
     0
102
RTVSPost2010PropOp28
 70
     1
102
RTVSPost2010Prop29
280
     1
102
RTVSPost2010PropOp29
 70
     1
102
RTVSPost2010Prop30
280
     1
102
RTVSPost2010PropOp30
 70
     1
102
RTVSPost2010Prop31
280
     0
102
RTVSPost2010PropOp31
 70
     1
102
RTVSPost2010Prop32
280
     0
102
RTVSPost2010PropOp32
 70
     1
102
RTVSPost2010Prop33
280
     0
102
RTVSPost2010PropOp33
 70
     1
102
RTVSPost2010Prop34
280
     0
102
RTVSPost2010PropOp34
 70
     1
102
RTVSPost2010Prop35
280
     0
102
RTVSPost2010PropOp35
 70
     1
102
RTVSPost2010Prop36
280
     0
102
RTVSPost2010PropOp36
 70
     1
102
RTVSPost2010Prop37
 90
       50
102
RTVSPost2010PropOp37
 70
     1
102
RTVSPost2010Prop38
140
0.0
102
RTVSPost2010PropOp38
 70
     1
102
RTVSPost2010Prop39
140
1.0
102
RTVSPost2010PropOp39
 70
     1
102
RTVSPost2010Prop40
 90
        0
102
RTVSPost2010PropOp40
 70
     1
102
RTVSPost2010Prop41ColorIndex
 90
       18
102
RTVSPost2010Prop41ColorRGB
 90
        0
102
RTVSPost2010PropOp41
 70
     1
102
RTVSPost2010Prop42
 90
       50
102
RTVSPost2010PropOp42
 70
     1
102
RTVSPost2010Prop43
 90
        3
102
RTVSPost2010PropOp43
 70
     1
102
RTVSPost2010Prop44ColorIndex
 90
        5
102
RTVSPost2010Prop44ColorRGB
 90
      255
102
RTVSPost2010PropOp44
 70
     1
102
RTVSPost2010Prop45
280
     0
102
RTVSPost2010PropOp45
 70
     1
102
RTVSPost2010Prop46
 90
       50
102
RTVSPost2010PropOp46
 70
     1
102
RTVSPost2010Prop47
 90
       50
102
RTVSPost2010PropOp47
 70
     1
102
RTVSPost2010Prop48
 90
       50
102
RTVSPost2010PropOp48
 70
     1
102
RTVSPost2010Prop49
280
     0
102
RTVSPost2010PropOp49
 70
     1
102
RTVSPost2010Prop50
 90
       50
102
RTVSPost2010PropOp50
 70
     1
102
RTVSPost2010Prop51ColorIndex
 90
      256
102
RTVSPost2010Prop51ColorRGB
 90
-16777216
102
RTVSPost2010PropOp51
 70
     0
102
RTVSPost2010Prop52
140
1.0
102
RTVSPost2010PropOp52
 70
     0
102
RTVSPost2010Prop53
 90
        2
102
RTVSPost2010PropOp53
 70
     1
102
RTVSPost2010Prop54
  1
strokes_ogs.tif
102
RTVSPost2010PropOp54
 70
     1
102
RTVSPost2010Prop55
280
     0
102
RTVSPost2010PropOp55
 70
     1
102
RTVSPost2010Prop56
140
1.0
102
RTVSPost2010PropOp56
 70
     1
102
RTVSPost2010Prop57
140
1.0
102
RTVSPost2010PropOp57
 70
     1
102
RTVSPropertyOp0
 70
     1
102
RTVSPropertyOp1
 70
     1
102
RTVSPropertyOp2
 70
     1
102
RTVSPropertyOp3
 70
     1
102
RTVSPropertyOp4
 70
     1
102
RTVSPropertyOp5
 70
     1
102
RTVSPropertyOp6
 70
     1
102
RTVSPropertyOp7
 70
     1
102
RTVSPropertyOp8
 70
     1
102
RTVSPropertyOp9
 70
     1
102
RTVSPropertyOp10
 70
     1
102
RTVSPropertyOp11
 70
     1
102
RTVSPropertyOp12
 70
     1
102
RTVSPropertyOp13
 70
     1
102
RTVSPropertyOp14
 70
     1
102
RTVSPropertyOp15
 70
     1
102
RTVSPropertyOp16
 70
     1
102
RTVSPropertyOp17
 70
     1
102
RTVSPropertyOp18
 70
     1
102
RTVSPropertyOp19
 70
     1
102
RTVSPropertyOp20
 70
     1
102
RTVSPropertyOp21
 70
     1
102
RTVSPropertyOp22
 70
     1
102
RTVSPropertyOp23
 70
     1
102
RTVSPropertyOp24
 70
     1
102
RTVSPropertyOp25
 70
     1
102
RTVSPropertyOp26
 70
     1
102
RTVSPropertyOp27
 70
     1
102
RTVSPropertyOp28
 70
     1
102
RTVSPropertyOp29
 70
     1
102
RTVSPropertyOp30
 70
     1
102
RTVSPropertyOp31
 70
     1
102
RTVSPropertyOp32
 70
     1
102
RTVSPropertyOp33
 70
     1
102
RTVSPropertyOp34
 70
     1
102
RTVSPropertyOp35
 70
     1
102
RTVSPropertyOp36
 70
     1
102
RTVSPropertyOp37
 70
     1
102
RTVSPropertyOp38
 70
     1
102
RTVSPropertyOp39
 70
     1
102
RTVSPropertyOp40
 70
     1
102
RTVSPropertyOp41
 70
     1
102
RTVSPropertyOp42
 70
     1
102
RTVSPropertyOp43
 70
     1
102
RTVSPropertyOp44
 70
     1
102
RTVSPropertyOp45
 70
     1
102
RTVSPropertyOp46
 70
     1
102
RTVSPropertyOp47
 70
     1
102
RTVSPropertyOp48
 70
     1
102
RTVSPropertyOp49
 70
     1
102
RTVSPropertyOp50
 70
     1
102
RTVSPropertyOp51
 70
     0
102
RTVSPropertyOp52
 70
     0
102
RTVSPropertyOp53
 70
     1
102
RTVSPropertyOp54
 70
     1
102
RTVSPropertyOp55
 70
     1
102
RTVSPropertyOp56
 70
     1
102
RTVSPropertyOp57
 70
     1
102
RTVSPropertyOp58
 70
     1
102
RTVSPropertyOp59
 70
     1
102
RTVSPropertyOp60
 70
     1
102
RTVSPropertyOp61
 70
     1
102
RTVSPropertyOp62
 70
     1
  0
XRECORD
  5
377
102
{ACAD_REACTORS
330
376
102
}
330
376
100
AcDbXrecord
280
     1
102
RTVSPost2010Prop28
280
     0
102
RTVSPost2010PropOp28
 70
     1
102
RTVSPost2010Prop29
280
     1
102
RTVSPost2010PropOp29
 70
     1
102
RTVSPost2010Prop30
280
     1
102
RTVSPost2010PropOp30
 70
     1
102
RTVSPost2010Prop31
280
     0
102
RTVSPost2010PropOp31
 70
     1
102
RTVSPost2010Prop32
280
     0
102
RTVSPost2010PropOp32
 70
     1
102
RTVSPost2010Prop33
280
     0
102
RTVSPost2010PropOp33
 70
     1
102
RTVSPost2010Prop34
280
     0
102
RTVSPost2010PropOp34
 70
     1
102
RTVSPost2010Prop35
280
     0
102
RTVSPost2010PropOp35
 70
     1
102
RTVSPost2010Prop36
280
     0
102
RTVSPost2010PropOp36
 70
     1
102
RTVSPost2010Prop37
 90
       50
102
RTVSPost2010PropOp37
 70
     1
102
RTVSPost2010Prop38
140
0.0
102
RTVSPost2010PropOp38
 70
     1
102
RTVSPost2010Prop39
140
1.0
102
RTVSPost2010PropOp39
 70
     1
102
RTVSPost2010Prop40
 90
        0
102
RTVSPost2010PropOp40
 70
     1
102
RTVSPost2010Prop41ColorIndex
 90
       18
102
RTVSPost2010Prop41ColorRGB
 90
        0
102
RTVSPost2010PropOp41
 70
     1
102
RTVSPost2010Prop42
 90
       50
102
RTVSPost2010PropOp42
 70
     1
102
RTVSPost2010Prop43
 90
        3
102
RTVSPost2010PropOp43
 70
     1
102
RTVSPost2010Prop44ColorIndex
 90
        5
102
RTVSPost2010Prop44ColorRGB
 90
      255
102
RTVSPost2010PropOp44
 70
     1
102
RTVSPost2010Prop45
280
     0
102
RTVSPost2010PropOp45
 70
     1
102
RTVSPost2010Prop46
 90
       50
102
RTVSPost2010PropOp46
 70
     1
102
RTVSPost2010Prop47
 90
       50
102
RTVSPost2010PropOp47
 70
     1
102
RTVSPost2010Prop48
 90
       50
102
RTVSPost2010PropOp48
 70
     1
102
RTVSPost2010Prop49
280
     0
102
RTVSPost2010PropOp49
 70
     1
102
RTVSPost2010Prop50
 90
       50
102
RTVSPost2010PropOp50
 70
     1
102
RTVSPost2010Prop51ColorIndex
 90
      256
102
RTVSPost2010Prop51ColorRGB
 90
-16777216
102
RTVSPost2010PropOp51
 70
     0
102
RTVSPost2010Prop52
140
1.0
102
RTVSPost2010PropOp52
 70
     0
102
RTVSPost2010Prop53
 90
        2
102
RTVSPost2010PropOp53
 70
     1
102
RTVSPost2010Prop54
  1
strokes_ogs.tif
102
RTVSPost2010PropOp54
 70
     1
102
RTVSPost2010Prop55
280
     0
102
RTVSPost2010PropOp55
 70
     1
102
RTVSPost2010Prop56
140
1.0
102
RTVSPost2010PropOp56
 70
     1
102
RTVSPost2010Prop57
140
1.0
102
RTVSPost2010PropOp57
 70
     1
102
RTVSPropertyOp0
 70
     1
102
RTVSPropertyOp1
 70
     1
102
RTVSPropertyOp2
 70
     1
102
RTVSPropertyOp3
 70
     1
102
RTVSPropertyOp4
 70
     1
102
RTVSPropertyOp5
 70
     1
102
RTVSPropertyOp6
 70
     1
102
RTVSPropertyOp7
 70
     1
102
RTVSPropertyOp8
 70
     1
102
RTVSPropertyOp9
 70
     1
102
RTVSPropertyOp10
 70
     1
102
RTVSPropertyOp11
 70
     1
102
RTVSPropertyOp12
 70
     1
102
RTVSPropertyOp13
 70
     1
102
RTVSPropertyOp14
 70
     1
102
RTVSPropertyOp15
 70
     1
102
RTVSPropertyOp16
 70
     1
102
RTVSPropertyOp17
 70
     1
102
RTVSPropertyOp18
 70
     1
102
RTVSPropertyOp19
 70
     1
102
RTVSPropertyOp20
 70
     1
102
RTVSPropertyOp21
 70
     1
102
RTVSPropertyOp22
 70
     1
102
RTVSPropertyOp23
 70
     1
102
RTVSPropertyOp24
 70
     1
102
RTVSPropertyOp25
 70
     1
102
RTVSPropertyOp26
 70
     1
102
RTVSPropertyOp27
 70
     1
102
RTVSPropertyOp28
 70
     1
102
RTVSPropertyOp29
 70
     1
102
RTVSPropertyOp30
 70
     1
102
RTVSPropertyOp31
 70
     1
102
RTVSPropertyOp32
 70
     1
102
RTVSPropertyOp33
 70
     1
102
RTVSPropertyOp34
 70
     1
102
RTVSPropertyOp35
 70
     1
102
RTVSPropertyOp36
 70
     1
102
RTVSPropertyOp37
 70
     1
102
RTVSPropertyOp38
 70
     1
102
RTVSPropertyOp39
 70
     1
102
RTVSPropertyOp40
 70
     1
102
RTVSPropertyOp41
 70
     1
102
RTVSPropertyOp42
 70
     1
102
RTVSPropertyOp43
 70
     1
102
RTVSPropertyOp44
 70
     1
102
RTVSPropertyOp45
 70
     1
102
RTVSPropertyOp46
 70
     1
102
RTVSPropertyOp47
 70
     1
102
RTVSPropertyOp48
 70
     1
102
RTVSPropertyOp49
 70
     1
102
RTVSPropertyOp50
 70
     1
102
RTVSPropertyOp51
 70
     0
102
RTVSPropertyOp52
 70
     0
102
RTVSPropertyOp53
 70
     1
102
RTVSPropertyOp54
 70
     1
102
RTVSPropertyOp55
 70
     1
102
RTVSPropertyOp56
 70
     1
102
RTVSPropertyOp57
 70
     1
102
RTVSPropertyOp58
 70
     1
102
RTVSPropertyOp59
 70
     1
102
RTVSPropertyOp60
 70
     1
102
RTVSPropertyOp61
 70
     1
102
RTVSPropertyOp62
 70
     1
  0
XRECORD
  5
379
102
{ACAD_REACTORS
330
378
102
}
330
378
100
AcDbXrecord
280
     1
102
RTVSPost2010Prop28
280
     0
102
RTVSPost2010PropOp28
 70
     1
102
RTVSPost2010Prop29
280
     1
102
RTVSPost2010PropOp29
 70
     1
102
RTVSPost2010Prop30
280
     1
102
RTVSPost2010PropOp30
 70
     1
102
RTVSPost2010Prop31
280
     0
102
RTVSPost2010PropOp31
 70
     1
102
RTVSPost2010Prop32
280
     0
102
RTVSPost2010PropOp32
 70
     1
102
RTVSPost2010Prop33
280
     0
102
RTVSPost2010PropOp33
 70
     1
102
RTVSPost2010Prop34
280
     0
102
RTVSPost2010PropOp34
 70
     1
102
RTVSPost2010Prop35
280
     0
102
RTVSPost2010PropOp35
 70
     1
102
RTVSPost2010Prop36
280
     0
102
RTVSPost2010PropOp36
 70
     1
102
RTVSPost2010Prop37
 90
       50
102
RTVSPost2010PropOp37
 70
     1
102
RTVSPost2010Prop38
140
0.0
102
RTVSPost2010PropOp38
 70
     1
102
RTVSPost2010Prop39
140
1.0
102
RTVSPost2010PropOp39
 70
     1
102
RTVSPost2010Prop40
 90
        0
102
RTVSPost2010PropOp40
 70
     1
102
RTVSPost2010Prop41ColorIndex
 90
       18
102
RTVSPost2010Prop41ColorRGB
 90
        0
102
RTVSPost2010PropOp41
 70
     1
102
RTVSPost2010Prop42
 90
       50
102
RTVSPost2010PropOp42
 70
     1
102
RTVSPost2010Prop43
 90
        3
102
RTVSPost2010PropOp43
 70
     1
102
RTVSPost2010Prop44ColorIndex
 90
        5
102
RTVSPost2010Prop44ColorRGB
 90
      255
102
RTVSPost2010PropOp44
 70
     1
102
RTVSPost2010Prop45
280
     0
102
RTVSPost2010PropOp45
 70
     1
102
RTVSPost2010Prop46
 90
       50
102
RTVSPost2010PropOp46
 70
     1
102
RTVSPost2010Prop47
 90
       50
102
RTVSPost2010PropOp47
 70
     1
102
RTVSPost2010Prop48
 90
       50
102
RTVSPost2010PropOp48
 70
     1
102
RTVSPost2010Prop49
280
     0
102
RTVSPost2010PropOp49
 70
     1
102
RTVSPost2010Prop50
 90
       50
102
RTVSPost2010PropOp50
 70
     1
102
RTVSPost2010Prop51ColorIndex
 90
      256
102
RTVSPost2010Prop51ColorRGB
 90
-16777216
102
RTVSPost2010PropOp51
 70
     0
102
RTVSPost2010Prop52
140
1.0
102
RTVSPost2010PropOp52
 70
     0
102
RTVSPost2010Prop53
 90
        2
102
RTVSPost2010PropOp53
 70
     1
102
RTVSPost2010Prop54
  1
strokes_ogs.tif
102
RTVSPost2010PropOp54
 70
     1
102
RTVSPost2010Prop55
280
     0
102
RTVSPost2010PropOp55
 70
     1
102
RTVSPost2010Prop56
140
1.0
102
RTVSPost2010PropOp56
 70
     1
102
RTVSPost2010Prop57
140
1.0
102
RTVSPost2010PropOp57
 70
     1
102
RTVSPropertyOp0
 70
     1
102
RTVSPropertyOp1
 70
     1
102
RTVSPropertyOp2
 70
     1
102
RTVSPropertyOp3
 70
     1
102
RTVSPropertyOp4
 70
     1
102
RTVSPropertyOp5
 70
     1
102
RTVSPropertyOp6
 70
     1
102
RTVSPropertyOp7
 70
     1
102
RTVSPropertyOp8
 70
     1
102
RTVSPropertyOp9
 70
     1
102
RTVSPropertyOp10
 70
     1
102
RTVSPropertyOp11
 70
     1
102
RTVSPropertyOp12
 70
     1
102
RTVSPropertyOp13
 70
     1
102
RTVSPropertyOp14
 70
     1
102
RTVSPropertyOp15
 70
     1
102
RTVSPropertyOp16
 70
     1
102
RTVSPropertyOp17
 70
     1
102
RTVSPropertyOp18
 70
     1
102
RTVSPropertyOp19
 70
     1
102
RTVSPropertyOp20
 70
     1
102
RTVSPropertyOp21
 70
     1
102
RTVSPropertyOp22
 70
     1
102
RTVSPropertyOp23
 70
     1
102
RTVSPropertyOp24
 70
     1
102
RTVSPropertyOp25
 70
     1
102
RTVSPropertyOp26
 70
     1
102
RTVSPropertyOp27
 70
     1
102
RTVSPropertyOp28
 70
     1
102
RTVSPropertyOp29
 70
     1
102
RTVSPropertyOp30
 70
     1
102
RTVSPropertyOp31
 70
     1
102
RTVSPropertyOp32
 70
     1
102
RTVSPropertyOp33
 70
     1
102
RTVSPropertyOp34
 70
     1
102
RTVSPropertyOp35
 70
     1
102
RTVSPropertyOp36
 70
     1
102
RTVSPropertyOp37
 70
     1
102
RTVSPropertyOp38
 70
     1
102
RTVSPropertyOp39
 70
     1
102
RTVSPropertyOp40
 70
     1
102
RTVSPropertyOp41
 70
     1
102
RTVSPropertyOp42
 70
     1
102
RTVSPropertyOp43
 70
     1
102
RTVSPropertyOp44
 70
     1
102
RTVSPropertyOp45
 70
     1
102
RTVSPropertyOp46
 70
     1
102
RTVSPropertyOp47
 70
     1
102
RTVSPropertyOp48
 70
     1
102
RTVSPropertyOp49
 70
     1
102
RTVSPropertyOp50
 70
     1
102
RTVSPropertyOp51
 70
     0
102
RTVSPropertyOp52
 70
     0
102
RTVSPropertyOp53
 70
     1
102
RTVSPropertyOp54
 70
     1
102
RTVSPropertyOp55
 70
     1
102
RTVSPropertyOp56
 70
     1
102
RTVSPropertyOp57
 70
     1
102
RTVSPropertyOp58
 70
     1
102
RTVSPropertyOp59
 70
     1
102
RTVSPropertyOp60
 70
     1
102
RTVSPropertyOp61
 70
     1
102
RTVSPropertyOp62
 70
     1
  0
XRECORD
  5
389
102
{ACAD_REACTORS
330
388
102
}
330
388
100
AcDbXrecord
280
     1
102
RTVSPost2010Prop28
280
     0
102
RTVSPost2010PropOp28
 70
     0
102
RTVSPost2010Prop29
280
     1
102
RTVSPost2010PropOp29
 70
     0
102
RTVSPost2010Prop30
280
     1
102
RTVSPost2010PropOp30
 70
     0
102
RTVSPost2010Prop31
280
     0
102
RTVSPost2010PropOp31
 70
     0
102
RTVSPost2010Prop32
280
     0
102
RTVSPost2010PropOp32
 70
     0
102
RTVSPost2010Prop33
280
     0
102
RTVSPost2010PropOp33
 70
     0
102
RTVSPost2010Prop34
280
     0
102
RTVSPost2010PropOp34
 70
     0
102
RTVSPost2010Prop35
280
     0
102
RTVSPost2010PropOp35
 70
     0
102
RTVSPost2010Prop36
280
     0
102
RTVSPost2010PropOp36
 70
     0
102
RTVSPost2010Prop37
 90
       50
102
RTVSPost2010PropOp37
 70
     0
102
RTVSPost2010Prop38
140
0.0
102
RTVSPost2010PropOp38
 70
     0
102
RTVSPost2010Prop39
140
1.0
102
RTVSPost2010PropOp39
 70
     0
102
RTVSPost2010Prop40
 90
        0
102
RTVSPost2010PropOp40
 70
     0
102
RTVSPost2010Prop41ColorIndex
 90
       18
102
RTVSPost2010Prop41ColorRGB
 90
        0
102
RTVSPost2010PropOp41
 70
     0
102
RTVSPost2010Prop42
 90
       50
102
RTVSPost2010PropOp42
 70
     0
102
RTVSPost2010Prop43
 90
        3
102
RTVSPost2010PropOp43
 70
     0
102
RTVSPost2010Prop44ColorIndex
 90
        5
102
RTVSPost2010Prop44ColorRGB
 90
      255
102
RTVSPost2010PropOp44
 70
     0
102
RTVSPost2010Prop45
280
     0
102
RTVSPost2010PropOp45
 70
     0
102
RTVSPost2010Prop46
 90
       50
102
RTVSPost2010PropOp46
 70
     0
102
RTVSPost2010Prop47
 90
       50
102
RTVSPost2010PropOp47
 70
     0
102
RTVSPost2010Prop48
 90
       50
102
RTVSPost2010PropOp48
 70
     0
102
RTVSPost2010Prop49
280
     0
102
RTVSPost2010PropOp49
 70
     0
102
RTVSPost2010Prop50
 90
       50
102
RTVSPost2010PropOp50
 70
     0
102
RTVSPost2010Prop51ColorIndex
 90
      256
102
RTVSPost2010Prop51ColorRGB
 90
-16777216
102
RTVSPost2010PropOp51
 70
     0
102
RTVSPost2010Prop52
140
1.0
102
RTVSPost2010PropOp52
 70
     0
102
RTVSPost2010Prop53
 90
        2
102
RTVSPost2010PropOp53
 70
     0
102
RTVSPost2010Prop54
  1
strokes_ogs.tif
102
RTVSPost2010PropOp54
 70
     0
102
RTVSPost2010Prop55
280
     0
102
RTVSPost2010PropOp55
 70
     0
102
RTVSPost2010Prop56
140
1.0
102
RTVSPost2010PropOp56
 70
     0
102
RTVSPost2010Prop57
140
1.0
102
RTVSPost2010PropOp57
 70
     0
102
RTVSPropertyOp0
 70
     0
102
RTVSPropertyOp1
 70
     0
102
RTVSPropertyOp2
 70
     0
102
RTVSPropertyOp3
 70
     0
102
RTVSPropertyOp4
 70
     0
102
RTVSPropertyOp5
 70
     0
102
RTVSPropertyOp6
 70
     0
102
RTVSPropertyOp7
 70
     0
102
RTVSPropertyOp8
 70
     0
102
RTVSPropertyOp9
 70
     0
102
RTVSPropertyOp10
 70
     0
102
RTVSPropertyOp11
 70
     0
102
RTVSPropertyOp12
 70
     0
102
RTVSPropertyOp13
 70
     0
102
RTVSPropertyOp14
 70
     2
102
RTVSPropertyOp15
 70
     0
102
RTVSPropertyOp16
 70
     0
102
RTVSPropertyOp17
 70
     0
102
RTVSPropertyOp18
 70
     0
102
RTVSPropertyOp19
 70
     0
102
RTVSPropertyOp20
 70
     0
102
RTVSPropertyOp21
 70
     0
102
RTVSPropertyOp22
 70
     0
102
RTVSPropertyOp23
 70
     0
102
RTVSPropertyOp24
 70
     0
102
RTVSPropertyOp25
 70
     0
102
RTVSPropertyOp26
 70
     0
102
RTVSPropertyOp27
 70
     0
102
RTVSPropertyOp28
 70
     0
102
RTVSPropertyOp29
 70
     0
102
RTVSPropertyOp30
 70
     0
102
RTVSPropertyOp31
 70
     0
102
RTVSPropertyOp32
 70
     0
102
RTVSPropertyOp33
 70
     0
102
RTVSPropertyOp34
 70
     0
102
RTVSPropertyOp35
 70
     0
102
RTVSPropertyOp36
 70
     0
102
RTVSPropertyOp37
 70
     0
102
RTVSPropertyOp38
 70
     0
102
RTVSPropertyOp39
 70
     0
102
RTVSPropertyOp40
 70
     0
102
RTVSPropertyOp41
 70
     0
102
RTVSPropertyOp42
 70
     0
102
RTVSPropertyOp43
 70
     0
102
RTVSPropertyOp44
 70
     0
102
RTVSPropertyOp45
 70
     0
102
RTVSPropertyOp46
 70
     0
102
RTVSPropertyOp47
 70
     0
102
RTVSPropertyOp48
 70
     0
102
RTVSPropertyOp49
 70
     0
102
RTVSPropertyOp50
 70
     0
102
RTVSPropertyOp51
 70
     0
102
RTVSPropertyOp52
 70
     0
102
RTVSPropertyOp53
 70
     0
102
RTVSPropertyOp54
 70
     0
102
RTVSPropertyOp55
 70
     0
102
RTVSPropertyOp56
 70
     0
102
RTVSPropertyOp57
 70
     0
102
RTVSPropertyOp58
 70
     1
102
RTVSPropertyOp59
 70
     1
102
RTVSPropertyOp60
 70
     1
102
RTVSPropertyOp61
 70
     1
102
RTVSPropertyOp62
 70
     1
  0
XRECORD
  5
381
102
{ACAD_REACTORS
330
380
102
}
330
380
100
AcDbXrecord
280
     1
102
RTVSPost2010Prop28
280
     0
102
RTVSPost2010PropOp28
 70
     1
102
RTVSPost2010Prop29
280
     1
102
RTVSPost2010PropOp29
 70
     1
102
RTVSPost2010Prop30
280
     1
102
RTVSPost2010PropOp30
 70
     1
102
RTVSPost2010Prop31
280
     0
102
RTVSPost2010PropOp31
 70
     1
102
RTVSPost2010Prop32
280
     0
102
RTVSPost2010PropOp32
 70
     1
102
RTVSPost2010Prop33
280
     0
102
RTVSPost2010PropOp33
 70
     1
102
RTVSPost2010Prop34
280
     0
102
RTVSPost2010PropOp34
 70
     1
102
RTVSPost2010Prop35
280
     0
102
RTVSPost2010PropOp35
 70
     1
102
RTVSPost2010Prop36
280
     0
102
RTVSPost2010PropOp36
 70
     1
102
RTVSPost2010Prop37
 90
       50
102
RTVSPost2010PropOp37
 70
     1
102
RTVSPost2010Prop38
140
0.0
102
RTVSPost2010PropOp38
 70
     1
102
RTVSPost2010Prop39
140
1.0
102
RTVSPost2010PropOp39
 70
     1
102
RTVSPost2010Prop40
 90
        0
102
RTVSPost2010PropOp40
 70
     1
102
RTVSPost2010Prop41ColorIndex
 90
       18
102
RTVSPost2010Prop41ColorRGB
 90
        0
102
RTVSPost2010PropOp41
 70
     1
102
RTVSPost2010Prop42
 90
       50
102
RTVSPost2010PropOp42
 70
     1
102
RTVSPost2010Prop43
 90
        3
102
RTVSPost2010PropOp43
 70
     1
102
RTVSPost2010Prop44ColorIndex
 90
        5
102
RTVSPost2010Prop44ColorRGB
 90
      255
102
RTVSPost2010PropOp44
 70
     1
102
RTVSPost2010Prop45
280
     0
102
RTVSPost2010PropOp45
 70
     1
102
RTVSPost2010Prop46
 90
       50
102
RTVSPost2010PropOp46
 70
     1
102
RTVSPost2010Prop47
 90
       50
102
RTVSPost2010PropOp47
 70
     1
102
RTVSPost2010Prop48
 90
       50
102
RTVSPost2010PropOp48
 70
     1
102
RTVSPost2010Prop49
280
     0
102
RTVSPost2010PropOp49
 70
     1
102
RTVSPost2010Prop50
 90
       50
102
RTVSPost2010PropOp50
 70
     1
102
RTVSPost2010Prop51ColorIndex
 90
      256
102
RTVSPost2010Prop51ColorRGB
 90
-16777216
102
RTVSPost2010PropOp51
 70
     0
102
RTVSPost2010Prop52
140
1.0
102
RTVSPost2010PropOp52
 70
     0
102
RTVSPost2010Prop53
 90
        2
102
RTVSPost2010PropOp53
 70
     1
102
RTVSPost2010Prop54
  1
strokes_ogs.tif
102
RTVSPost2010PropOp54
 70
     1
102
RTVSPost2010Prop55
280
     0
102
RTVSPost2010PropOp55
 70
     1
102
RTVSPost2010Prop56
140
1.0
102
RTVSPost2010PropOp56
 70
     1
102
RTVSPost2010Prop57
140
1.0
102
RTVSPost2010PropOp57
 70
     1
102
RTVSPropertyOp0
 70
     1
102
RTVSPropertyOp1
 70
     1
102
RTVSPropertyOp2
 70
     1
102
RTVSPropertyOp3
 70
     1
102
RTVSPropertyOp4
 70
     1
102
RTVSPropertyOp5
 70
     1
102
RTVSPropertyOp6
 70
     1
102
RTVSPropertyOp7
 70
     1
102
RTVSPropertyOp8
 70
     1
102
RTVSPropertyOp9
 70
     1
102
RTVSPropertyOp10
 70
     1
102
RTVSPropertyOp11
 70
     1
102
RTVSPropertyOp12
 70
     1
102
RTVSPropertyOp13
 70
     1
102
RTVSPropertyOp14
 70
     1
102
RTVSPropertyOp15
 70
     1
102
RTVSPropertyOp16
 70
     1
102
RTVSPropertyOp17
 70
     1
102
RTVSPropertyOp18
 70
     1
102
RTVSPropertyOp19
 70
     1
102
RTVSPropertyOp20
 70
     1
102
RTVSPropertyOp21
 70
     1
102
RTVSPropertyOp22
 70
     1
102
RTVSPropertyOp23
 70
     1
102
RTVSPropertyOp24
 70
     1
102
RTVSPropertyOp25
 70
     1
102
RTVSPropertyOp26
 70
     1
102
RTVSPropertyOp27
 70
     1
102
RTVSPropertyOp28
 70
     1
102
RTVSPropertyOp29
 70
     1
102
RTVSPropertyOp30
 70
     1
102
RTVSPropertyOp31
 70
     1
102
RTVSPropertyOp32
 70
     1
102
RTVSPropertyOp33
 70
     1
102
RTVSPropertyOp34
 70
     1
102
RTVSPropertyOp35
 70
     1
102
RTVSPropertyOp36
 70
     1
102
RTVSPropertyOp37
 70
     1
102
RTVSPropertyOp38
 70
     1
102
RTVSPropertyOp39
 70
     1
102
RTVSPropertyOp40
 70
     1
102
RTVSPropertyOp41
 70
     1
102
RTVSPropertyOp42
 70
     1
102
RTVSPropertyOp43
 70
     1
102
RTVSPropertyOp44
 70
     1
102
RTVSPropertyOp45
 70
     1
102
RTVSPropertyOp46
 70
     1
102
RTVSPropertyOp47
 70
     1
102
RTVSPropertyOp48
 70
     1
102
RTVSPropertyOp49
 70
     1
102
RTVSPropertyOp50
 70
     1
102
RTVSPropertyOp51
 70
     0
102
RTVSPropertyOp52
 70
     0
102
RTVSPropertyOp53
 70
     1
102
RTVSPropertyOp54
 70
     1
102
RTVSPropertyOp55
 70
     1
102
RTVSPropertyOp56
 70
     1
102
RTVSPropertyOp57
 70
     1
102
RTVSPropertyOp58
 70
     1
102
RTVSPropertyOp59
 70
     1
102
RTVSPropertyOp60
 70
     1
102
RTVSPropertyOp61
 70
     1
102
RTVSPropertyOp62
 70
     1
  0
XRECORD
  5
365
102
{ACAD_REACTORS
330
364
102
}
330
364
100
AcDbXrecord
280
     1
102
RTVSPost2010Prop28
280
     0
102
RTVSPost2010PropOp28
 70
     1
102
RTVSPost2010Prop29
280
     1
102
RTVSPost2010PropOp29
 70
     1
102
RTVSPost2010Prop30
280
     1
102
RTVSPost2010PropOp30
 70
     1
102
RTVSPost2010Prop31
280
     0
102
RTVSPost2010PropOp31
 70
     1
102
RTVSPost2010Prop32
280
     0
102
RTVSPost2010PropOp32
 70
     1
102
RTVSPost2010Prop33
280
     0
102
RTVSPost2010PropOp33
 70
     1
102
RTVSPost2010Prop34
280
     0
102
RTVSPost2010PropOp34
 70
     1
102
RTVSPost2010Prop35
280
     0
102
RTVSPost2010PropOp35
 70
     1
102
RTVSPost2010Prop36
280
     0
102
RTVSPost2010PropOp36
 70
     1
102
RTVSPost2010Prop37
 90
       50
102
RTVSPost2010PropOp37
 70
     1
102
RTVSPost2010Prop38
140
0.0
102
RTVSPost2010PropOp38
 70
     1
102
RTVSPost2010Prop39
140
1.0
102
RTVSPost2010PropOp39
 70
     1
102
RTVSPost2010Prop40
 90
        0
102
RTVSPost2010PropOp40
 70
     1
102
RTVSPost2010Prop41ColorIndex
 90
       18
102
RTVSPost2010Prop41ColorRGB
 90
        0
102
RTVSPost2010PropOp41
 70
     1
102
RTVSPost2010Prop42
 90
       50
102
RTVSPost2010PropOp42
 70
     1
102
RTVSPost2010Prop43
 90
        3
102
RTVSPost2010PropOp43
 70
     1
102
RTVSPost2010Prop44ColorIndex
 90
        5
102
RTVSPost2010Prop44ColorRGB
 90
      255
102
RTVSPost2010PropOp44
 70
     1
102
RTVSPost2010Prop45
280
     0
102
RTVSPost2010PropOp45
 70
     1
102
RTVSPost2010Prop46
 90
       50
102
RTVSPost2010PropOp46
 70
     1
102
RTVSPost2010Prop47
 90
       50
102
RTVSPost2010PropOp47
 70
     1
102
RTVSPost2010Prop48
 90
       50
102
RTVSPost2010PropOp48
 70
     1
102
RTVSPost2010Prop49
280
     0
102
RTVSPost2010PropOp49
 70
     1
102
RTVSPost2010Prop50
 90
       50
102
RTVSPost2010PropOp50
 70
     1
102
RTVSPost2010Prop51ColorIndex
 90
      256
102
RTVSPost2010Prop51ColorRGB
 90
-16777216
102
RTVSPost2010PropOp51
 70
     0
102
RTVSPost2010Prop52
140
1.0
102
RTVSPost2010PropOp52
 70
     0
102
RTVSPost2010Prop53
 90
        2
102
RTVSPost2010PropOp53
 70
     1
102
RTVSPost2010Prop54
  1
strokes_ogs.tif
102
RTVSPost2010PropOp54
 70
     1
102
RTVSPost2010Prop55
280
     0
102
RTVSPost2010PropOp55
 70
     1
102
RTVSPost2010Prop56
140
1.0
102
RTVSPost2010PropOp56
 70
     1
102
RTVSPost2010Prop57
140
1.0
102
RTVSPost2010PropOp57
 70
     1
102
RTVSPropertyOp0
 70
     1
102
RTVSPropertyOp1
 70
     1
102
RTVSPropertyOp2
 70
     1
102
RTVSPropertyOp3
 70
     1
102
RTVSPropertyOp4
 70
     1
102
RTVSPropertyOp5
 70
     1
102
RTVSPropertyOp6
 70
     1
102
RTVSPropertyOp7
 70
     1
102
RTVSPropertyOp8
 70
     1
102
RTVSPropertyOp9
 70
     1
102
RTVSPropertyOp10
 70
     1
102
RTVSPropertyOp11
 70
     1
102
RTVSPropertyOp12
 70
     1
102
RTVSPropertyOp13
 70
     1
102
RTVSPropertyOp14
 70
     1
102
RTVSPropertyOp15
 70
     1
102
RTVSPropertyOp16
 70
     1
102
RTVSPropertyOp17
 70
     1
102
RTVSPropertyOp18
 70
     1
102
RTVSPropertyOp19
 70
     1
102
RTVSPropertyOp20
 70
     1
102
RTVSPropertyOp21
 70
     1
102
RTVSPropertyOp22
 70
     1
102
RTVSPropertyOp23
 70
     1
102
RTVSPropertyOp24
 70
     1
102
RTVSPropertyOp25
 70
     1
102
RTVSPropertyOp26
 70
     1
102
RTVSPropertyOp27
 70
     1
102
RTVSPropertyOp28
 70
     1
102
RTVSPropertyOp29
 70
     1
102
RTVSPropertyOp30
 70
     1
102
RTVSPropertyOp31
 70
     1
102
RTVSPropertyOp32
 70
     1
102
RTVSPropertyOp33
 70
     1
102
RTVSPropertyOp34
 70
     1
102
RTVSPropertyOp35
 70
     1
102
RTVSPropertyOp36
 70
     1
102
RTVSPropertyOp37
 70
     1
102
RTVSPropertyOp38
 70
     1
102
RTVSPropertyOp39
 70
     1
102
RTVSPropertyOp40
 70
     1
102
RTVSPropertyOp41
 70
     1
102
RTVSPropertyOp42
 70
     1
102
RTVSPropertyOp43
 70
     1
102
RTVSPropertyOp44
 70
     1
102
RTVSPropertyOp45
 70
     1
102
RTVSPropertyOp46
 70
     1
102
RTVSPropertyOp47
 70
     1
102
RTVSPropertyOp48
 70
     1
102
RTVSPropertyOp49
 70
     1
102
RTVSPropertyOp50
 70
     1
102
RTVSPropertyOp51
 70
     0
102
RTVSPropertyOp52
 70
     0
102
RTVSPropertyOp53
 70
     1
102
RTVSPropertyOp54
 70
     1
102
RTVSPropertyOp55
 70
     1
102
RTVSPropertyOp56
 70
     1
102
RTVSPropertyOp57
 70
     1
102
RTVSPropertyOp58
 70
     1
102
RTVSPropertyOp59
 70
     1
102
RTVSPropertyOp60
 70
     1
102
RTVSPropertyOp61
 70
     1
102
RTVSPropertyOp62
 70
     1
  0
XRECORD
  5
367
102
{ACAD_REACTORS
330
366
102
}
330
366
100
AcDbXrecord
280
     1
102
RTVSPost2010Prop28
280
     0
102
RTVSPost2010PropOp28
 70
     1
102
RTVSPost2010Prop29
280
     1
102
RTVSPost2010PropOp29
 70
     1
102
RTVSPost2010Prop30
280
     1
102
RTVSPost2010PropOp30
 70
     1
102
RTVSPost2010Prop31
280
     0
102
RTVSPost2010PropOp31
 70
     1
102
RTVSPost2010Prop32
280
     0
102
RTVSPost2010PropOp32
 70
     1
102
RTVSPost2010Prop33
280
     0
102
RTVSPost2010PropOp33
 70
     1
102
RTVSPost2010Prop34
280
     0
102
RTVSPost2010PropOp34
 70
     1
102
RTVSPost2010Prop35
280
     0
102
RTVSPost2010PropOp35
 70
     1
102
RTVSPost2010Prop36
280
     0
102
RTVSPost2010PropOp36
 70
     1
102
RTVSPost2010Prop37
 90
       50
102
RTVSPost2010PropOp37
 70
     1
102
RTVSPost2010Prop38
140
0.0
102
RTVSPost2010PropOp38
 70
     1
102
RTVSPost2010Prop39
140
1.0
102
RTVSPost2010PropOp39
 70
     1
102
RTVSPost2010Prop40
 90
        0
102
RTVSPost2010PropOp40
 70
     1
102
RTVSPost2010Prop41ColorIndex
 90
       18
102
RTVSPost2010Prop41ColorRGB
 90
        0
102
RTVSPost2010PropOp41
 70
     1
102
RTVSPost2010Prop42
 90
       50
102
RTVSPost2010PropOp42
 70
     1
102
RTVSPost2010Prop43
 90
        3
102
RTVSPost2010PropOp43
 70
     1
102
RTVSPost2010Prop44ColorIndex
 90
        5
102
RTVSPost2010Prop44ColorRGB
 90
      255
102
RTVSPost2010PropOp44
 70
     1
102
RTVSPost2010Prop45
280
     0
102
RTVSPost2010PropOp45
 70
     1
102
RTVSPost2010Prop46
 90
       50
102
RTVSPost2010PropOp46
 70
     1
102
RTVSPost2010Prop47
 90
       50
102
RTVSPost2010PropOp47
 70
     1
102
RTVSPost2010Prop48
 90
       50
102
RTVSPost2010PropOp48
 70
     1
102
RTVSPost2010Prop49
280
     0
102
RTVSPost2010PropOp49
 70
     1
102
RTVSPost2010Prop50
 90
       50
102
RTVSPost2010PropOp50
 70
     1
102
RTVSPost2010Prop51ColorIndex
 90
      256
102
RTVSPost2010Prop51ColorRGB
 90
-16777216
102
RTVSPost2010PropOp51
 70
     0
102
RTVSPost2010Prop52
140
1.0
102
RTVSPost2010PropOp52
 70
     0
102
RTVSPost2010Prop53
 90
        2
102
RTVSPost2010PropOp53
 70
     1
102
RTVSPost2010Prop54
  1
strokes_ogs.tif
102
RTVSPost2010PropOp54
 70
     1
102
RTVSPost2010Prop55
280
     0
102
RTVSPost2010PropOp55
 70
     1
102
RTVSPost2010Prop56
140
1.0
102
RTVSPost2010PropOp56
 70
     1
102
RTVSPost2010Prop57
140
1.0
102
RTVSPost2010PropOp57
 70
     1
102
RTVSPropertyOp0
 70
     1
102
RTVSPropertyOp1
 70
     1
102
RTVSPropertyOp2
 70
     1
102
RTVSPropertyOp3
 70
     1
102
RTVSPropertyOp4
 70
     1
102
RTVSPropertyOp5
 70
     1
102
RTVSPropertyOp6
 70
     1
102
RTVSPropertyOp7
 70
     1
102
RTVSPropertyOp8
 70
     1
102
RTVSPropertyOp9
 70
     1
102
RTVSPropertyOp10
 70
     1
102
RTVSPropertyOp11
 70
     1
102
RTVSPropertyOp12
 70
     1
102
RTVSPropertyOp13
 70
     1
102
RTVSPropertyOp14
 70
     1
102
RTVSPropertyOp15
 70
     1
102
RTVSPropertyOp16
 70
     1
102
RTVSPropertyOp17
 70
     1
102
RTVSPropertyOp18
 70
     1
102
RTVSPropertyOp19
 70
     1
102
RTVSPropertyOp20
 70
     1
102
RTVSPropertyOp21
 70
     1
102
RTVSPropertyOp22
 70
     1
102
RTVSPropertyOp23
 70
     1
102
RTVSPropertyOp24
 70
     1
102
RTVSPropertyOp25
 70
     1
102
RTVSPropertyOp26
 70
     1
102
RTVSPropertyOp27
 70
     1
102
RTVSPropertyOp28
 70
     1
102
RTVSPropertyOp29
 70
     1
102
RTVSPropertyOp30
 70
     1
102
RTVSPropertyOp31
 70
     1
102
RTVSPropertyOp32
 70
     1
102
RTVSPropertyOp33
 70
     1
102
RTVSPropertyOp34
 70
     1
102
RTVSPropertyOp35
 70
     1
102
RTVSPropertyOp36
 70
     1
102
RTVSPropertyOp37
 70
     1
102
RTVSPropertyOp38
 70
     1
102
RTVSPropertyOp39
 70
     1
102
RTVSPropertyOp40
 70
     1
102
RTVSPropertyOp41
 70
     1
102
RTVSPropertyOp42
 70
     1
102
RTVSPropertyOp43
 70
     1
102
RTVSPropertyOp44
 70
     1
102
RTVSPropertyOp45
 70
     1
102
RTVSPropertyOp46
 70
     1
102
RTVSPropertyOp47
 70
     1
102
RTVSPropertyOp48
 70
     1
102
RTVSPropertyOp49
 70
     1
102
RTVSPropertyOp50
 70
     1
102
RTVSPropertyOp51
 70
     0
102
RTVSPropertyOp52
 70
     0
102
RTVSPropertyOp53
 70
     1
102
RTVSPropertyOp54
 70
     1
102
RTVSPropertyOp55
 70
     1
102
RTVSPropertyOp56
 70
     1
102
RTVSPropertyOp57
 70
     1
102
RTVSPropertyOp58
 70
     1
102
RTVSPropertyOp59
 70
     1
102
RTVSPropertyOp60
 70
     1
102
RTVSPropertyOp61
 70
     1
102
RTVSPropertyOp62
 70
     1
  0
XRECORD
  5
369
102
{ACAD_REACTORS
330
368
102
}
330
368
100
AcDbXrecord
280
     1
102
RTVSPost2010Prop28
280
     0
102
RTVSPost2010PropOp28
 70
     1
102
RTVSPost2010Prop29
280
     1
102
RTVSPost2010PropOp29
 70
     1
102
RTVSPost2010Prop30
280
     1
102
RTVSPost2010PropOp30
 70
     1
102
RTVSPost2010Prop31
280
     0
102
RTVSPost2010PropOp31
 70
     1
102
RTVSPost2010Prop32
280
     0
102
RTVSPost2010PropOp32
 70
     1
102
RTVSPost2010Prop33
280
     0
102
RTVSPost2010PropOp33
 70
     1
102
RTVSPost2010Prop34
280
     0
102
RTVSPost2010PropOp34
 70
     1
102
RTVSPost2010Prop35
280
     0
102
RTVSPost2010PropOp35
 70
     1
102
RTVSPost2010Prop36
280
     0
102
RTVSPost2010PropOp36
 70
     1
102
RTVSPost2010Prop37
 90
       50
102
RTVSPost2010PropOp37
 70
     1
102
RTVSPost2010Prop38
140
0.0
102
RTVSPost2010PropOp38
 70
     1
102
RTVSPost2010Prop39
140
1.0
102
RTVSPost2010PropOp39
 70
     1
102
RTVSPost2010Prop40
 90
        0
102
RTVSPost2010PropOp40
 70
     1
102
RTVSPost2010Prop41ColorIndex
 90
       18
102
RTVSPost2010Prop41ColorRGB
 90
        0
102
RTVSPost2010PropOp41
 70
     1
102
RTVSPost2010Prop42
 90
       50
102
RTVSPost2010PropOp42
 70
     1
102
RTVSPost2010Prop43
 90
        3
102
RTVSPost2010PropOp43
 70
     1
102
RTVSPost2010Prop44ColorIndex
 90
        5
102
RTVSPost2010Prop44ColorRGB
 90
      255
102
RTVSPost2010PropOp44
 70
     1
102
RTVSPost2010Prop45
280
     0
102
RTVSPost2010PropOp45
 70
     1
102
RTVSPost2010Prop46
 90
       50
102
RTVSPost2010PropOp46
 70
     1
102
RTVSPost2010Prop47
 90
       50
102
RTVSPost2010PropOp47
 70
     1
102
RTVSPost2010Prop48
 90
       50
102
RTVSPost2010PropOp48
 70
     1
102
RTVSPost2010Prop49
280
     0
102
RTVSPost2010PropOp49
 70
     1
102
RTVSPost2010Prop50
 90
       50
102
RTVSPost2010PropOp50
 70
     1
102
RTVSPost2010Prop51ColorIndex
 90
      256
102
RTVSPost2010Prop51ColorRGB
 90
-16777216
102
RTVSPost2010PropOp51
 70
     0
102
RTVSPost2010Prop52
140
1.0
102
RTVSPost2010PropOp52
 70
     0
102
RTVSPost2010Prop53
 90
        2
102
RTVSPost2010PropOp53
 70
     1
102
RTVSPost2010Prop54
  1
strokes_ogs.tif
102
RTVSPost2010PropOp54
 70
     1
102
RTVSPost2010Prop55
280
     0
102
RTVSPost2010PropOp55
 70
     1
102
RTVSPost2010Prop56
140
1.0
102
RTVSPost2010PropOp56
 70
     1
102
RTVSPost2010Prop57
140
1.0
102
RTVSPost2010PropOp57
 70
     1
102
RTVSPropertyOp0
 70
     1
102
RTVSPropertyOp1
 70
     1
102
RTVSPropertyOp2
 70
     1
102
RTVSPropertyOp3
 70
     1
102
RTVSPropertyOp4
 70
     1
102
RTVSPropertyOp5
 70
     1
102
RTVSPropertyOp6
 70
     1
102
RTVSPropertyOp7
 70
     1
102
RTVSPropertyOp8
 70
     1
102
RTVSPropertyOp9
 70
     1
102
RTVSPropertyOp10
 70
     1
102
RTVSPropertyOp11
 70
     1
102
RTVSPropertyOp12
 70
     1
102
RTVSPropertyOp13
 70
     1
102
RTVSPropertyOp14
 70
     1
102
RTVSPropertyOp15
 70
     1
102
RTVSPropertyOp16
 70
     1
102
RTVSPropertyOp17
 70
     1
102
RTVSPropertyOp18
 70
     1
102
RTVSPropertyOp19
 70
     1
102
RTVSPropertyOp20
 70
     1
102
RTVSPropertyOp21
 70
     1
102
RTVSPropertyOp22
 70
     1
102
RTVSPropertyOp23
 70
     1
102
RTVSPropertyOp24
 70
     1
102
RTVSPropertyOp25
 70
     1
102
RTVSPropertyOp26
 70
     1
102
RTVSPropertyOp27
 70
     1
102
RTVSPropertyOp28
 70
     1
102
RTVSPropertyOp29
 70
     1
102
RTVSPropertyOp30
 70
     1
102
RTVSPropertyOp31
 70
     1
102
RTVSPropertyOp32
 70
     1
102
RTVSPropertyOp33
 70
     1
102
RTVSPropertyOp34
 70
     1
102
RTVSPropertyOp35
 70
     1
102
RTVSPropertyOp36
 70
     1
102
RTVSPropertyOp37
 70
     1
102
RTVSPropertyOp38
 70
     1
102
RTVSPropertyOp39
 70
     1
102
RTVSPropertyOp40
 70
     1
102
RTVSPropertyOp41
 70
     1
102
RTVSPropertyOp42
 70
     1
102
RTVSPropertyOp43
 70
     1
102
RTVSPropertyOp44
 70
     1
102
RTVSPropertyOp45
 70
     1
102
RTVSPropertyOp46
 70
     1
102
RTVSPropertyOp47
 70
     1
102
RTVSPropertyOp48
 70
     1
102
RTVSPropertyOp49
 70
     1
102
RTVSPropertyOp50
 70
     1
102
RTVSPropertyOp51
 70
     0
102
RTVSPropertyOp52
 70
     0
102
RTVSPropertyOp53
 70
     1
102
RTVSPropertyOp54
 70
     1
102
RTVSPropertyOp55
 70
     1
102
RTVSPropertyOp56
 70
     1
102
RTVSPropertyOp57
 70
     1
102
RTVSPropertyOp58
 70
     1
102
RTVSPropertyOp59
 70
     1
102
RTVSPropertyOp60
 70
     1
102
RTVSPropertyOp61
 70
     1
102
RTVSPropertyOp62
 70
     1
  0
XRECORD
  5
36B
102
{ACAD_REACTORS
330
36A
102
}
330
36A
100
AcDbXrecord
280
     1
102
RTVSPost2010Prop28
280
     0
102
RTVSPost2010PropOp28
 70
     1
102
RTVSPost2010Prop29
280
     1
102
RTVSPost2010PropOp29
 70
     1
102
RTVSPost2010Prop30
280
     1
102
RTVSPost2010PropOp30
 70
     1
102
RTVSPost2010Prop31
280
     0
102
RTVSPost2010PropOp31
 70
     1
102
RTVSPost2010Prop32
280
     0
102
RTVSPost2010PropOp32
 70
     1
102
RTVSPost2010Prop33
280
     0
102
RTVSPost2010PropOp33
 70
     1
102
RTVSPost2010Prop34
280
     0
102
RTVSPost2010PropOp34
 70
     1
102
RTVSPost2010Prop35
280
     0
102
RTVSPost2010PropOp35
 70
     1
102
RTVSPost2010Prop36
280
     0
102
RTVSPost2010PropOp36
 70
     1
102
RTVSPost2010Prop37
 90
       50
102
RTVSPost2010PropOp37
 70
     1
102
RTVSPost2010Prop38
140
0.0
102
RTVSPost2010PropOp38
 70
     1
102
RTVSPost2010Prop39
140
1.0
102
RTVSPost2010PropOp39
 70
     1
102
RTVSPost2010Prop40
 90
        0
102
RTVSPost2010PropOp40
 70
     1
102
RTVSPost2010Prop41ColorIndex
 90
       18
102
RTVSPost2010Prop41ColorRGB
 90
        0
102
RTVSPost2010PropOp41
 70
     1
102
RTVSPost2010Prop42
 90
       50
102
RTVSPost2010PropOp42
 70
     1
102
RTVSPost2010Prop43
 90
        3
102
RTVSPost2010PropOp43
 70
     1
102
RTVSPost2010Prop44ColorIndex
 90
        5
102
RTVSPost2010Prop44ColorRGB
 90
      255
102
RTVSPost2010PropOp44
 70
     1
102
RTVSPost2010Prop45
280
     0
102
RTVSPost2010PropOp45
 70
     1
102
RTVSPost2010Prop46
 90
       50
102
RTVSPost2010PropOp46
 70
     1
102
RTVSPost2010Prop47
 90
       50
102
RTVSPost2010PropOp47
 70
     1
102
RTVSPost2010Prop48
 90
       50
102
RTVSPost2010PropOp48
 70
     1
102
RTVSPost2010Prop49
280
     0
102
RTVSPost2010PropOp49
 70
     1
102
RTVSPost2010Prop50
 90
       50
102
RTVSPost2010PropOp50
 70
     1
102
RTVSPost2010Prop51ColorIndex
 90
      256
102
RTVSPost2010Prop51ColorRGB
 90
-16777216
102
RTVSPost2010PropOp51
 70
     0
102
RTVSPost2010Prop52
140
1.0
102
RTVSPost2010PropOp52
 70
     0
102
RTVSPost2010Prop53
 90
        2
102
RTVSPost2010PropOp53
 70
     1
102
RTVSPost2010Prop54
  1
strokes_ogs.tif
102
RTVSPost2010PropOp54
 70
     1
102
RTVSPost2010Prop55
280
     0
102
RTVSPost2010PropOp55
 70
     1
102
RTVSPost2010Prop56
140
1.0
102
RTVSPost2010PropOp56
 70
     1
102
RTVSPost2010Prop57
140
1.0
102
RTVSPost2010PropOp57
 70
     1
102
RTVSPropertyOp0
 70
     1
102
RTVSPropertyOp1
 70
     1
102
RTVSPropertyOp2
 70
     1
102
RTVSPropertyOp3
 70
     1
102
RTVSPropertyOp4
 70
     1
102
RTVSPropertyOp5
 70
     1
102
RTVSPropertyOp6
 70
     1
102
RTVSPropertyOp7
 70
     1
102
RTVSPropertyOp8
 70
     1
102
RTVSPropertyOp9
 70
     1
102
RTVSPropertyOp10
 70
     1
102
RTVSPropertyOp11
 70
     1
102
RTVSPropertyOp12
 70
     1
102
RTVSPropertyOp13
 70
     1
102
RTVSPropertyOp14
 70
     1
102
RTVSPropertyOp15
 70
     1
102
RTVSPropertyOp16
 70
     1
102
RTVSPropertyOp17
 70
     1
102
RTVSPropertyOp18
 70
     1
102
RTVSPropertyOp19
 70
     1
102
RTVSPropertyOp20
 70
     1
102
RTVSPropertyOp21
 70
     1
102
RTVSPropertyOp22
 70
     1
102
RTVSPropertyOp23
 70
     1
102
RTVSPropertyOp24
 70
     1
102
RTVSPropertyOp25
 70
     1
102
RTVSPropertyOp26
 70
     1
102
RTVSPropertyOp27
 70
     1
102
RTVSPropertyOp28
 70
     1
102
RTVSPropertyOp29
 70
     1
102
RTVSPropertyOp30
 70
     1
102
RTVSPropertyOp31
 70
     1
102
RTVSPropertyOp32
 70
     1
102
RTVSPropertyOp33
 70
     1
102
RTVSPropertyOp34
 70
     1
102
RTVSPropertyOp35
 70
     1
102
RTVSPropertyOp36
 70
     1
102
RTVSPropertyOp37
 70
     1
102
RTVSPropertyOp38
 70
     1
102
RTVSPropertyOp39
 70
     1
102
RTVSPropertyOp40
 70
     1
102
RTVSPropertyOp41
 70
     1
102
RTVSPropertyOp42
 70
     1
102
RTVSPropertyOp43
 70
     1
102
RTVSPropertyOp44
 70
     1
102
RTVSPropertyOp45
 70
     1
102
RTVSPropertyOp46
 70
     1
102
RTVSPropertyOp47
 70
     1
102
RTVSPropertyOp48
 70
     1
102
RTVSPropertyOp49
 70
     1
102
RTVSPropertyOp50
 70
     1
102
RTVSPropertyOp51
 70
     0
102
RTVSPropertyOp52
 70
     0
102
RTVSPropertyOp53
 70
     1
102
RTVSPropertyOp54
 70
     1
102
RTVSPropertyOp55
 70
     1
102
RTVSPropertyOp56
 70
     1
102
RTVSPropertyOp57
 70
     1
102
RTVSPropertyOp58
 70
     1
102
RTVSPropertyOp59
 70
     1
102
RTVSPropertyOp60
 70
     1
102
RTVSPropertyOp61
 70
     1
102
RTVSPropertyOp62
 70
     1
  0
XRECORD
  5
371
102
{ACAD_REACTORS
330
370
102
}
330
370
100
AcDbXrecord
280
     1
102
RTVSPost2010Prop28
280
     0
102
RTVSPost2010PropOp28
 70
     1
102
RTVSPost2010Prop29
280
     1
102
RTVSPost2010PropOp29
 70
     1
102
RTVSPost2010Prop30
280
     1
102
RTVSPost2010PropOp30
 70
     1
102
RTVSPost2010Prop31
280
     0
102
RTVSPost2010PropOp31
 70
     1
102
RTVSPost2010Prop32
280
     0
102
RTVSPost2010PropOp32
 70
     1
102
RTVSPost2010Prop33
280
     0
102
RTVSPost2010PropOp33
 70
     1
102
RTVSPost2010Prop34
280
     0
102
RTVSPost2010PropOp34
 70
     1
102
RTVSPost2010Prop35
280
     0
102
RTVSPost2010PropOp35
 70
     1
102
RTVSPost2010Prop36
280
     0
102
RTVSPost2010PropOp36
 70
     1
102
RTVSPost2010Prop37
 90
       50
102
RTVSPost2010PropOp37
 70
     1
102
RTVSPost2010Prop38
140
0.0
102
RTVSPost2010PropOp38
 70
     1
102
RTVSPost2010Prop39
140
1.0
102
RTVSPost2010PropOp39
 70
     1
102
RTVSPost2010Prop40
 90
        0
102
RTVSPost2010PropOp40
 70
     1
102
RTVSPost2010Prop41ColorIndex
 90
       18
102
RTVSPost2010Prop41ColorRGB
 90
        0
102
RTVSPost2010PropOp41
 70
     1
102
RTVSPost2010Prop42
 90
       50
102
RTVSPost2010PropOp42
 70
     1
102
RTVSPost2010Prop43
 90
        3
102
RTVSPost2010PropOp43
 70
     1
102
RTVSPost2010Prop44ColorIndex
 90
        5
102
RTVSPost2010Prop44ColorRGB
 90
      255
102
RTVSPost2010PropOp44
 70
     1
102
RTVSPost2010Prop45
280
     0
102
RTVSPost2010PropOp45
 70
     1
102
RTVSPost2010Prop46
 90
       50
102
RTVSPost2010PropOp46
 70
     1
102
RTVSPost2010Prop47
 90
       50
102
RTVSPost2010PropOp47
 70
     1
102
RTVSPost2010Prop48
 90
       50
102
RTVSPost2010PropOp48
 70
     1
102
RTVSPost2010Prop49
280
     0
102
RTVSPost2010PropOp49
 70
     1
102
RTVSPost2010Prop50
 90
       50
102
RTVSPost2010PropOp50
 70
     1
102
RTVSPost2010Prop51ColorIndex
 90
      256
102
RTVSPost2010Prop51ColorRGB
 90
-16777216
102
RTVSPost2010PropOp51
 70
     0
102
RTVSPost2010Prop52
140
1.0
102
RTVSPost2010PropOp52
 70
     0
102
RTVSPost2010Prop53
 90
        2
102
RTVSPost2010PropOp53
 70
     1
102
RTVSPost2010Prop54
  1
strokes_ogs.tif
102
RTVSPost2010PropOp54
 70
     1
102
RTVSPost2010Prop55
280
     0
102
RTVSPost2010PropOp55
 70
     1
102
RTVSPost2010Prop56
140
1.0
102
RTVSPost2010PropOp56
 70
     1
102
RTVSPost2010Prop57
140
1.0
102
RTVSPost2010PropOp57
 70
     1
102
RTVSPropertyOp0
 70
     1
102
RTVSPropertyOp1
 70
     1
102
RTVSPropertyOp2
 70
     1
102
RTVSPropertyOp3
 70
     1
102
RTVSPropertyOp4
 70
     1
102
RTVSPropertyOp5
 70
     1
102
RTVSPropertyOp6
 70
     1
102
RTVSPropertyOp7
 70
     1
102
RTVSPropertyOp8
 70
     1
102
RTVSPropertyOp9
 70
     1
102
RTVSPropertyOp10
 70
     1
102
RTVSPropertyOp11
 70
     1
102
RTVSPropertyOp12
 70
     1
102
RTVSPropertyOp13
 70
     1
102
RTVSPropertyOp14
 70
     1
102
RTVSPropertyOp15
 70
     1
102
RTVSPropertyOp16
 70
     1
102
RTVSPropertyOp17
 70
     1
102
RTVSPropertyOp18
 70
     1
102
RTVSPropertyOp19
 70
     1
102
RTVSPropertyOp20
 70
     1
102
RTVSPropertyOp21
 70
     1
102
RTVSPropertyOp22
 70
     1
102
RTVSPropertyOp23
 70
     1
102
RTVSPropertyOp24
 70
     1
102
RTVSPropertyOp25
 70
     1
102
RTVSPropertyOp26
 70
     1
102
RTVSPropertyOp27
 70
     1
102
RTVSPropertyOp28
 70
     1
102
RTVSPropertyOp29
 70
     1
102
RTVSPropertyOp30
 70
     1
102
RTVSPropertyOp31
 70
     1
102
RTVSPropertyOp32
 70
     1
102
RTVSPropertyOp33
 70
     1
102
RTVSPropertyOp34
 70
     1
102
RTVSPropertyOp35
 70
     1
102
RTVSPropertyOp36
 70
     1
102
RTVSPropertyOp37
 70
     1
102
RTVSPropertyOp38
 70
     1
102
RTVSPropertyOp39
 70
     1
102
RTVSPropertyOp40
 70
     1
102
RTVSPropertyOp41
 70
     1
102
RTVSPropertyOp42
 70
     1
102
RTVSPropertyOp43
 70
     1
102
RTVSPropertyOp44
 70
     1
102
RTVSPropertyOp45
 70
     1
102
RTVSPropertyOp46
 70
     1
102
RTVSPropertyOp47
 70
     1
102
RTVSPropertyOp48
 70
     1
102
RTVSPropertyOp49
 70
     1
102
RTVSPropertyOp50
 70
     1
102
RTVSPropertyOp51
 70
     0
102
RTVSPropertyOp52
 70
     0
102
RTVSPropertyOp53
 70
     1
102
RTVSPropertyOp54
 70
     1
102
RTVSPropertyOp55
 70
     1
102
RTVSPropertyOp56
 70
     1
102
RTVSPropertyOp57
 70
     1
102
RTVSPropertyOp58
 70
     1
102
RTVSPropertyOp59
 70
     1
102
RTVSPropertyOp60
 70
     1
102
RTVSPropertyOp61
 70
     1
102
RTVSPropertyOp62
 70
     1
  0
XRECORD
  5
385
102
{ACAD_REACTORS
330
384
102
}
330
384
100
AcDbXrecord
280
     1
102
RTVSPost2010Prop28
280
     0
102
RTVSPost2010PropOp28
 70
     0
102
RTVSPost2010Prop29
280
     1
102
RTVSPost2010PropOp29
 70
     0
102
RTVSPost2010Prop30
280
     1
102
RTVSPost2010PropOp30
 70
     0
102
RTVSPost2010Prop31
280
     0
102
RTVSPost2010PropOp31
 70
     0
102
RTVSPost2010Prop32
280
     0
102
RTVSPost2010PropOp32
 70
     0
102
RTVSPost2010Prop33
280
     0
102
RTVSPost2010PropOp33
 70
     0
102
RTVSPost2010Prop34
280
     0
102
RTVSPost2010PropOp34
 70
     0
102
RTVSPost2010Prop35
280
     0
102
RTVSPost2010PropOp35
 70
     0
102
RTVSPost2010Prop36
280
     0
102
RTVSPost2010PropOp36
 70
     0
102
RTVSPost2010Prop37
 90
       50
102
RTVSPost2010PropOp37
 70
     0
102
RTVSPost2010Prop38
140
0.0
102
RTVSPost2010PropOp38
 70
     0
102
RTVSPost2010Prop39
140
1.0
102
RTVSPost2010PropOp39
 70
     0
102
RTVSPost2010Prop40
 90
        0
102
RTVSPost2010PropOp40
 70
     0
102
RTVSPost2010Prop41ColorIndex
 90
       18
102
RTVSPost2010Prop41ColorRGB
 90
        0
102
RTVSPost2010PropOp41
 70
     0
102
RTVSPost2010Prop42
 90
       50
102
RTVSPost2010PropOp42
 70
     0
102
RTVSPost2010Prop43
 90
        3
102
RTVSPost2010PropOp43
 70
     0
102
RTVSPost2010Prop44ColorIndex
 90
        5
102
RTVSPost2010Prop44ColorRGB
 90
      255
102
RTVSPost2010PropOp44
 70
     0
102
RTVSPost2010Prop45
280
     0
102
RTVSPost2010PropOp45
 70
     0
102
RTVSPost2010Prop46
 90
       50
102
RTVSPost2010PropOp46
 70
     0
102
RTVSPost2010Prop47
 90
       50
102
RTVSPost2010PropOp47
 70
     0
102
RTVSPost2010Prop48
 90
       50
102
RTVSPost2010PropOp48
 70
     0
102
RTVSPost2010Prop49
280
     0
102
RTVSPost2010PropOp49
 70
     0
102
RTVSPost2010Prop50
 90
       50
102
RTVSPost2010PropOp50
 70
     0
102
RTVSPost2010Prop51ColorIndex
 90
      256
102
RTVSPost2010Prop51ColorRGB
 90
-16777216
102
RTVSPost2010PropOp51
 70
     0
102
RTVSPost2010Prop52
140
1.0
102
RTVSPost2010PropOp52
 70
     0
102
RTVSPost2010Prop53
 90
        2
102
RTVSPost2010PropOp53
 70
     0
102
RTVSPost2010Prop54
  1
strokes_ogs.tif
102
RTVSPost2010PropOp54
 70
     0
102
RTVSPost2010Prop55
280
     0
102
RTVSPost2010PropOp55
 70
     0
102
RTVSPost2010Prop56
140
1.0
102
RTVSPost2010PropOp56
 70
     0
102
RTVSPost2010Prop57
140
1.0
102
RTVSPost2010PropOp57
 70
     0
102
RTVSPropertyOp0
 70
     0
102
RTVSPropertyOp1
 70
     0
102
RTVSPropertyOp2
 70
     0
102
RTVSPropertyOp3
 70
     0
102
RTVSPropertyOp4
 70
     0
102
RTVSPropertyOp5
 70
     0
102
RTVSPropertyOp6
 70
     0
102
RTVSPropertyOp7
 70
     0
102
RTVSPropertyOp8
 70
     0
102
RTVSPropertyOp9
 70
     0
102
RTVSPropertyOp10
 70
     0
102
RTVSPropertyOp11
 70
     0
102
RTVSPropertyOp12
 70
     0
102
RTVSPropertyOp13
 70
     0
102
RTVSPropertyOp14
 70
     2
102
RTVSPropertyOp15
 70
     0
102
RTVSPropertyOp16
 70
     0
102
RTVSPropertyOp17
 70
     0
102
RTVSPropertyOp18
 70
     0
102
RTVSPropertyOp19
 70
     0
102
RTVSPropertyOp20
 70
     0
102
RTVSPropertyOp21
 70
     0
102
RTVSPropertyOp22
 70
     0
102
RTVSPropertyOp23
 70
     0
102
RTVSPropertyOp24
 70
     0
102
RTVSPropertyOp25
 70
     0
102
RTVSPropertyOp26
 70
     0
102
RTVSPropertyOp27
 70
     0
102
RTVSPropertyOp28
 70
     0
102
RTVSPropertyOp29
 70
     0
102
RTVSPropertyOp30
 70
     0
102
RTVSPropertyOp31
 70
     0
102
RTVSPropertyOp32
 70
     0
102
RTVSPropertyOp33
 70
     0
102
RTVSPropertyOp34
 70
     0
102
RTVSPropertyOp35
 70
     0
102
RTVSPropertyOp36
 70
     0
102
RTVSPropertyOp37
 70
     0
102
RTVSPropertyOp38
 70
     0
102
RTVSPropertyOp39
 70
     0
102
RTVSPropertyOp40
 70
     0
102
RTVSPropertyOp41
 70
     0
102
RTVSPropertyOp42
 70
     0
102
RTVSPropertyOp43
 70
     0
102
RTVSPropertyOp44
 70
     0
102
RTVSPropertyOp45
 70
     0
102
RTVSPropertyOp46
 70
     0
102
RTVSPropertyOp47
 70
     0
102
RTVSPropertyOp48
 70
     0
102
RTVSPropertyOp49
 70
     0
102
RTVSPropertyOp50
 70
     0
102
RTVSPropertyOp51
 70
     0
102
RTVSPropertyOp52
 70
     0
102
RTVSPropertyOp53
 70
     0
102
RTVSPropertyOp54
 70
     0
102
RTVSPropertyOp55
 70
     0
102
RTVSPropertyOp56
 70
     0
102
RTVSPropertyOp57
 70
     0
102
RTVSPropertyOp58
 70
     1
102
RTVSPropertyOp59
 70
     1
102
RTVSPropertyOp60
 70
     1
102
RTVSPropertyOp61
 70
     1
102
RTVSPropertyOp62
 70
     1
  0
XRECORD
  5
37F
102
{ACAD_REACTORS
330
37E
102
}
330
37E
100
AcDbXrecord
280
     1
102
RTVSPost2010Prop28
280
     0
102
RTVSPost2010PropOp28
 70
     1
102
RTVSPost2010Prop29
280
     1
102
RTVSPost2010PropOp29
 70
     1
102
RTVSPost2010Prop30
280
     1
102
RTVSPost2010PropOp30
 70
     1
102
RTVSPost2010Prop31
280
     0
102
RTVSPost2010PropOp31
 70
     1
102
RTVSPost2010Prop32
280
     0
102
RTVSPost2010PropOp32
 70
     1
102
RTVSPost2010Prop33
280
     0
102
RTVSPost2010PropOp33
 70
     1
102
RTVSPost2010Prop34
280
     0
102
RTVSPost2010PropOp34
 70
     1
102
RTVSPost2010Prop35
280
     0
102
RTVSPost2010PropOp35
 70
     1
102
RTVSPost2010Prop36
280
     0
102
RTVSPost2010PropOp36
 70
     1
102
RTVSPost2010Prop37
 90
       50
102
RTVSPost2010PropOp37
 70
     1
102
RTVSPost2010Prop38
140
0.0
102
RTVSPost2010PropOp38
 70
     1
102
RTVSPost2010Prop39
140
1.0
102
RTVSPost2010PropOp39
 70
     1
102
RTVSPost2010Prop40
 90
        0
102
RTVSPost2010PropOp40
 70
     1
102
RTVSPost2010Prop41ColorIndex
 90
       18
102
RTVSPost2010Prop41ColorRGB
 90
        0
102
RTVSPost2010PropOp41
 70
     1
102
RTVSPost2010Prop42
 90
       50
102
RTVSPost2010PropOp42
 70
     1
102
RTVSPost2010Prop43
 90
        3
102
RTVSPost2010PropOp43
 70
     1
102
RTVSPost2010Prop44ColorIndex
 90
        5
102
RTVSPost2010Prop44ColorRGB
 90
      255
102
RTVSPost2010PropOp44
 70
     1
102
RTVSPost2010Prop45
280
     0
102
RTVSPost2010PropOp45
 70
     1
102
RTVSPost2010Prop46
 90
       50
102
RTVSPost2010PropOp46
 70
     1
102
RTVSPost2010Prop47
 90
       50
102
RTVSPost2010PropOp47
 70
     1
102
RTVSPost2010Prop48
 90
       50
102
RTVSPost2010PropOp48
 70
     1
102
RTVSPost2010Prop49
280
     0
102
RTVSPost2010PropOp49
 70
     1
102
RTVSPost2010Prop50
 90
       50
102
RTVSPost2010PropOp50
 70
     1
102
RTVSPost2010Prop51ColorIndex
 90
      256
102
RTVSPost2010Prop51ColorRGB
 90
-16777216
102
RTVSPost2010PropOp51
 70
     0
102
RTVSPost2010Prop52
140
1.0
102
RTVSPost2010PropOp52
 70
     0
102
RTVSPost2010Prop53
 90
        2
102
RTVSPost2010PropOp53
 70
     1
102
RTVSPost2010Prop54
  1
strokes_ogs.tif
102
RTVSPost2010PropOp54
 70
     1
102
RTVSPost2010Prop55
280
     0
102
RTVSPost2010PropOp55
 70
     1
102
RTVSPost2010Prop56
140
1.0
102
RTVSPost2010PropOp56
 70
     1
102
RTVSPost2010Prop57
140
1.0
102
RTVSPost2010PropOp57
 70
     1
102
RTVSPropertyOp0
 70
     1
102
RTVSPropertyOp1
 70
     1
102
RTVSPropertyOp2
 70
     1
102
RTVSPropertyOp3
 70
     1
102
RTVSPropertyOp4
 70
     1
102
RTVSPropertyOp5
 70
     1
102
RTVSPropertyOp6
 70
     1
102
RTVSPropertyOp7
 70
     1
102
RTVSPropertyOp8
 70
     1
102
RTVSPropertyOp9
 70
     1
102
RTVSPropertyOp10
 70
     1
102
RTVSPropertyOp11
 70
     1
102
RTVSPropertyOp12
 70
     1
102
RTVSPropertyOp13
 70
     1
102
RTVSPropertyOp14
 70
     1
102
RTVSPropertyOp15
 70
     1
102
RTVSPropertyOp16
 70
     1
102
RTVSPropertyOp17
 70
     1
102
RTVSPropertyOp18
 70
     1
102
RTVSPropertyOp19
 70
     1
102
RTVSPropertyOp20
 70
     1
102
RTVSPropertyOp21
 70
     1
102
RTVSPropertyOp22
 70
     1
102
RTVSPropertyOp23
 70
     1
102
RTVSPropertyOp24
 70
     1
102
RTVSPropertyOp25
 70
     1
102
RTVSPropertyOp26
 70
     1
102
RTVSPropertyOp27
 70
     1
102
RTVSPropertyOp28
 70
     1
102
RTVSPropertyOp29
 70
     1
102
RTVSPropertyOp30
 70
     1
102
RTVSPropertyOp31
 70
     1
102
RTVSPropertyOp32
 70
     1
102
RTVSPropertyOp33
 70
     1
102
RTVSPropertyOp34
 70
     1
102
RTVSPropertyOp35
 70
     1
102
RTVSPropertyOp36
 70
     1
102
RTVSPropertyOp37
 70
     1
102
RTVSPropertyOp38
 70
     1
102
RTVSPropertyOp39
 70
     1
102
RTVSPropertyOp40
 70
     1
102
RTVSPropertyOp41
 70
     1
102
RTVSPropertyOp42
 70
     1
102
RTVSPropertyOp43
 70
     1
102
RTVSPropertyOp44
 70
     1
102
RTVSPropertyOp45
 70
     1
102
RTVSPropertyOp46
 70
     1
102
RTVSPropertyOp47
 70
     1
102
RTVSPropertyOp48
 70
     1
102
RTVSPropertyOp49
 70
     1
102
RTVSPropertyOp50
 70
     1
102
RTVSPropertyOp51
 70
     0
102
RTVSPropertyOp52
 70
     0
102
RTVSPropertyOp53
 70
     1
102
RTVSPropertyOp54
 70
     1
102
RTVSPropertyOp55
 70
     1
102
RTVSPropertyOp56
 70
     1
102
RTVSPropertyOp57
 70
     1
102
RTVSPropertyOp58
 70
     1
102
RTVSPropertyOp59
 70
     1
102
RTVSPropertyOp60
 70
     1
102
RTVSPropertyOp61
 70
     1
102
RTVSPropertyOp62
 70
     1
  0
XRECORD
  5
387
102
{ACAD_REACTORS
330
386
102
}
330
386
100
AcDbXrecord
280
     1
102
RTVSPost2010Prop28
280
     0
102
RTVSPost2010PropOp28
 70
     0
102
RTVSPost2010Prop29
280
     1
102
RTVSPost2010PropOp29
 70
     0
102
RTVSPost2010Prop30
280
     1
102
RTVSPost2010PropOp30
 70
     0
102
RTVSPost2010Prop31
280
     0
102
RTVSPost2010PropOp31
 70
     0
102
RTVSPost2010Prop32
280
     0
102
RTVSPost2010PropOp32
 70
     0
102
RTVSPost2010Prop33
280
     0
102
RTVSPost2010PropOp33
 70
     0
102
RTVSPost2010Prop34
280
     0
102
RTVSPost2010PropOp34
 70
     0
102
RTVSPost2010Prop35
280
     0
102
RTVSPost2010PropOp35
 70
     0
102
RTVSPost2010Prop36
280
     0
102
RTVSPost2010PropOp36
 70
     0
102
RTVSPost2010Prop37
 90
       50
102
RTVSPost2010PropOp37
 70
     0
102
RTVSPost2010Prop38
140
0.0
102
RTVSPost2010PropOp38
 70
     0
102
RTVSPost2010Prop39
140
1.0
102
RTVSPost2010PropOp39
 70
     0
102
RTVSPost2010Prop40
 90
        0
102
RTVSPost2010PropOp40
 70
     0
102
RTVSPost2010Prop41ColorIndex
 90
       18
102
RTVSPost2010Prop41ColorRGB
 90
        0
102
RTVSPost2010PropOp41
 70
     0
102
RTVSPost2010Prop42
 90
       50
102
RTVSPost2010PropOp42
 70
     0
102
RTVSPost2010Prop43
 90
        3
102
RTVSPost2010PropOp43
 70
     0
102
RTVSPost2010Prop44ColorIndex
 90
        5
102
RTVSPost2010Prop44ColorRGB
 90
      255
102
RTVSPost2010PropOp44
 70
     0
102
RTVSPost2010Prop45
280
     0
102
RTVSPost2010PropOp45
 70
     0
102
RTVSPost2010Prop46
 90
       50
102
RTVSPost2010PropOp46
 70
     0
102
RTVSPost2010Prop47
 90
       50
102
RTVSPost2010PropOp47
 70
     0
102
RTVSPost2010Prop48
 90
       50
102
RTVSPost2010PropOp48
 70
     0
102
RTVSPost2010Prop49
280
     0
102
RTVSPost2010PropOp49
 70
     0
102
RTVSPost2010Prop50
 90
       50
102
RTVSPost2010PropOp50
 70
     0
102
RTVSPost2010Prop51ColorIndex
 90
      256
102
RTVSPost2010Prop51ColorRGB
 90
-16777216
102
RTVSPost2010PropOp51
 70
     0
102
RTVSPost2010Prop52
140
1.0
102
RTVSPost2010PropOp52
 70
     0
102
RTVSPost2010Prop53
 90
        2
102
RTVSPost2010PropOp53
 70
     0
102
RTVSPost2010Prop54
  1
strokes_ogs.tif
102
RTVSPost2010PropOp54
 70
     0
102
RTVSPost2010Prop55
280
     0
102
RTVSPost2010PropOp55
 70
     0
102
RTVSPost2010Prop56
140
1.0
102
RTVSPost2010PropOp56
 70
     0
102
RTVSPost2010Prop57
140
1.0
102
RTVSPost2010PropOp57
 70
     0
102
RTVSPropertyOp0
 70
     0
102
RTVSPropertyOp1
 70
     0
102
RTVSPropertyOp2
 70
     0
102
RTVSPropertyOp3
 70
     0
102
RTVSPropertyOp4
 70
     0
102
RTVSPropertyOp5
 70
     0
102
RTVSPropertyOp6
 70
     0
102
RTVSPropertyOp7
 70
     0
102
RTVSPropertyOp8
 70
     0
102
RTVSPropertyOp9
 70
     0
102
RTVSPropertyOp10
 70
     0
102
RTVSPropertyOp11
 70
     0
102
RTVSPropertyOp12
 70
     0
102
RTVSPropertyOp13
 70
     0
102
RTVSPropertyOp14
 70
     2
102
RTVSPropertyOp15
 70
     0
102
RTVSPropertyOp16
 70
     0
102
RTVSPropertyOp17
 70
     0
102
RTVSPropertyOp18
 70
     0
102
RTVSPropertyOp19
 70
     0
102
RTVSPropertyOp20
 70
     0
102
RTVSPropertyOp21
 70
     0
102
RTVSPropertyOp22
 70
     0
102
RTVSPropertyOp23
 70
     0
102
RTVSPropertyOp24
 70
     0
102
RTVSPropertyOp25
 70
     0
102
RTVSPropertyOp26
 70
     0
102
RTVSPropertyOp27
 70
     0
102
RTVSPropertyOp28
 70
     0
102
RTVSPropertyOp29
 70
     0
102
RTVSPropertyOp30
 70
     0
102
RTVSPropertyOp31
 70
     0
102
RTVSPropertyOp32
 70
     0
102
RTVSPropertyOp33
 70
     0
102
RTVSPropertyOp34
 70
     0
102
RTVSPropertyOp35
 70
     0
102
RTVSPropertyOp36
 70
     0
102
RTVSPropertyOp37
 70
     0
102
RTVSPropertyOp38
 70
     0
102
RTVSPropertyOp39
 70
     0
102
RTVSPropertyOp40
 70
     0
102
RTVSPropertyOp41
 70
     0
102
RTVSPropertyOp42
 70
     0
102
RTVSPropertyOp43
 70
     0
102
RTVSPropertyOp44
 70
     0
102
RTVSPropertyOp45
 70
     0
102
RTVSPropertyOp46
 70
     0
102
RTVSPropertyOp47
 70
     0
102
RTVSPropertyOp48
 70
     0
102
RTVSPropertyOp49
 70
     0
102
RTVSPropertyOp50
 70
     0
102
RTVSPropertyOp51
 70
     0
102
RTVSPropertyOp52
 70
     0
102
RTVSPropertyOp53
 70
     0
102
RTVSPropertyOp54
 70
     0
102
RTVSPropertyOp55
 70
     0
102
RTVSPropertyOp56
 70
     0
102
RTVSPropertyOp57
 70
     0
102
RTVSPropertyOp58
 70
     1
102
RTVSPropertyOp59
 70
     1
102
RTVSPropertyOp60
 70
     1
102
RTVSPropertyOp61
 70
     1
102
RTVSPropertyOp62
 70
     1
  0
XRECORD
  5
375
102
{ACAD_REACTORS
330
374
102
}
330
374
100
AcDbXrecord
280
     1
102
RTVSPost2010Prop28
280
     0
102
RTVSPost2010PropOp28
 70
     1
102
RTVSPost2010Prop29
280
     1
102
RTVSPost2010PropOp29
 70
     1
102
RTVSPost2010Prop30
280
     1
102
RTVSPost2010PropOp30
 70
     1
102
RTVSPost2010Prop31
280
     0
102
RTVSPost2010PropOp31
 70
     1
102
RTVSPost2010Prop32
280
     0
102
RTVSPost2010PropOp32
 70
     1
102
RTVSPost2010Prop33
280
     0
102
RTVSPost2010PropOp33
 70
     1
102
RTVSPost2010Prop34
280
     0
102
RTVSPost2010PropOp34
 70
     1
102
RTVSPost2010Prop35
280
     0
102
RTVSPost2010PropOp35
 70
     1
102
RTVSPost2010Prop36
280
     0
102
RTVSPost2010PropOp36
 70
     1
102
RTVSPost2010Prop37
 90
       50
102
RTVSPost2010PropOp37
 70
     1
102
RTVSPost2010Prop38
140
0.0
102
RTVSPost2010PropOp38
 70
     1
102
RTVSPost2010Prop39
140
1.0
102
RTVSPost2010PropOp39
 70
     1
102
RTVSPost2010Prop40
 90
        0
102
RTVSPost2010PropOp40
 70
     1
102
RTVSPost2010Prop41ColorIndex
 90
       18
102
RTVSPost2010Prop41ColorRGB
 90
        0
102
RTVSPost2010PropOp41
 70
     1
102
RTVSPost2010Prop42
 90
       50
102
RTVSPost2010PropOp42
 70
     1
102
RTVSPost2010Prop43
 90
        3
102
RTVSPost2010PropOp43
 70
     1
102
RTVSPost2010Prop44ColorIndex
 90
        5
102
RTVSPost2010Prop44ColorRGB
 90
      255
102
RTVSPost2010PropOp44
 70
     1
102
RTVSPost2010Prop45
280
     0
102
RTVSPost2010PropOp45
 70
     1
102
RTVSPost2010Prop46
 90
       50
102
RTVSPost2010PropOp46
 70
     1
102
RTVSPost2010Prop47
 90
       50
102
RTVSPost2010PropOp47
 70
     1
102
RTVSPost2010Prop48
 90
       50
102
RTVSPost2010PropOp48
 70
     1
102
RTVSPost2010Prop49
280
     0
102
RTVSPost2010PropOp49
 70
     1
102
RTVSPost2010Prop50
 90
       50
102
RTVSPost2010PropOp50
 70
     1
102
RTVSPost2010Prop51ColorIndex
 90
      256
102
RTVSPost2010Prop51ColorRGB
 90
-16777216
102
RTVSPost2010PropOp51
 70
     0
102
RTVSPost2010Prop52
140
1.0
102
RTVSPost2010PropOp52
 70
     0
102
RTVSPost2010Prop53
 90
        2
102
RTVSPost2010PropOp53
 70
     1
102
RTVSPost2010Prop54
  1
strokes_ogs.tif
102
RTVSPost2010PropOp54
 70
     1
102
RTVSPost2010Prop55
280
     0
102
RTVSPost2010PropOp55
 70
     1
102
RTVSPost2010Prop56
140
1.0
102
RTVSPost2010PropOp56
 70
     1
102
RTVSPost2010Prop57
140
1.0
102
RTVSPost2010PropOp57
 70
     1
102
RTVSPropertyOp0
 70
     1
102
RTVSPropertyOp1
 70
     1
102
RTVSPropertyOp2
 70
     1
102
RTVSPropertyOp3
 70
     1
102
RTVSPropertyOp4
 70
     1
102
RTVSPropertyOp5
 70
     1
102
RTVSPropertyOp6
 70
     1
102
RTVSPropertyOp7
 70
     1
102
RTVSPropertyOp8
 70
     1
102
RTVSPropertyOp9
 70
     1
102
RTVSPropertyOp10
 70
     1
102
RTVSPropertyOp11
 70
     1
102
RTVSPropertyOp12
 70
     1
102
RTVSPropertyOp13
 70
     1
102
RTVSPropertyOp14
 70
     1
102
RTVSPropertyOp15
 70
     1
102
RTVSPropertyOp16
 70
     1
102
RTVSPropertyOp17
 70
     1
102
RTVSPropertyOp18
 70
     1
102
RTVSPropertyOp19
 70
     1
102
RTVSPropertyOp20
 70
     1
102
RTVSPropertyOp21
 70
     1
102
RTVSPropertyOp22
 70
     1
102
RTVSPropertyOp23
 70
     1
102
RTVSPropertyOp24
 70
     1
102
RTVSPropertyOp25
 70
     1
102
RTVSPropertyOp26
 70
     1
102
RTVSPropertyOp27
 70
     1
102
RTVSPropertyOp28
 70
     1
102
RTVSPropertyOp29
 70
     1
102
RTVSPropertyOp30
 70
     1
102
RTVSPropertyOp31
 70
     1
102
RTVSPropertyOp32
 70
     1
102
RTVSPropertyOp33
 70
     1
102
RTVSPropertyOp34
 70
     1
102
RTVSPropertyOp35
 70
     1
102
RTVSPropertyOp36
 70
     1
102
RTVSPropertyOp37
 70
     1
102
RTVSPropertyOp38
 70
     1
102
RTVSPropertyOp39
 70
     1
102
RTVSPropertyOp40
 70
     1
102
RTVSPropertyOp41
 70
     1
102
RTVSPropertyOp42
 70
     1
102
RTVSPropertyOp43
 70
     1
102
RTVSPropertyOp44
 70
     1
102
RTVSPropertyOp45
 70
     1
102
RTVSPropertyOp46
 70
     1
102
RTVSPropertyOp47
 70
     1
102
RTVSPropertyOp48
 70
     1
102
RTVSPropertyOp49
 70
     1
102
RTVSPropertyOp50
 70
     1
102
RTVSPropertyOp51
 70
     0
102
RTVSPropertyOp52
 70
     0
102
RTVSPropertyOp53
 70
     1
102
RTVSPropertyOp54
 70
     1
102
RTVSPropertyOp55
 70
     1
102
RTVSPropertyOp56
 70
     1
102
RTVSPropertyOp57
 70
     1
102
RTVSPropertyOp58
 70
     1
102
RTVSPropertyOp59
 70
     1
102
RTVSPropertyOp60
 70
     1
102
RTVSPropertyOp61
 70
     1
102
RTVSPropertyOp62
 70
     1
  0
XRECORD
  5
393
102
{ACAD_REACTORS
330
392
102
}
330
392
100
AcDbXrecord
280
     1
102
RTVSPost2010Prop28
280
     0
102
RTVSPost2010PropOp28
 70
     1
102
RTVSPost2010Prop29
280
     1
102
RTVSPost2010PropOp29
 70
     1
102
RTVSPost2010Prop30
280
     1
102
RTVSPost2010PropOp30
 70
     1
102
RTVSPost2010Prop31
280
     0
102
RTVSPost2010PropOp31
 70
     1
102
RTVSPost2010Prop32
280
     0
102
RTVSPost2010PropOp32
 70
     1
102
RTVSPost2010Prop33
280
     0
102
RTVSPost2010PropOp33
 70
     1
102
RTVSPost2010Prop34
280
     0
102
RTVSPost2010PropOp34
 70
     1
102
RTVSPost2010Prop35
280
     0
102
RTVSPost2010PropOp35
 70
     1
102
RTVSPost2010Prop36
280
     0
102
RTVSPost2010PropOp36
 70
     1
102
RTVSPost2010Prop37
 90
       50
102
RTVSPost2010PropOp37
 70
     1
102
RTVSPost2010Prop38
140
0.0
102
RTVSPost2010PropOp38
 70
     1
102
RTVSPost2010Prop39
140
1.0
102
RTVSPost2010PropOp39
 70
     1
102
RTVSPost2010Prop40
 90
        0
102
RTVSPost2010PropOp40
 70
     1
102
RTVSPost2010Prop41ColorIndex
 90
       18
102
RTVSPost2010Prop41ColorRGB
 90
        0
102
RTVSPost2010PropOp41
 70
     1
102
RTVSPost2010Prop42
 90
       50
102
RTVSPost2010PropOp42
 70
     1
102
RTVSPost2010Prop43
 90
        3
102
RTVSPost2010PropOp43
 70
     1
102
RTVSPost2010Prop44ColorIndex
 90
        5
102
RTVSPost2010Prop44ColorRGB
 90
      255
102
RTVSPost2010PropOp44
 70
     1
102
RTVSPost2010Prop45
280
     0
102
RTVSPost2010PropOp45
 70
     1
102
RTVSPost2010Prop46
 90
       50
102
RTVSPost2010PropOp46
 70
     1
102
RTVSPost2010Prop47
 90
       50
102
RTVSPost2010PropOp47
 70
     1
102
RTVSPost2010Prop48
 90
       50
102
RTVSPost2010PropOp48
 70
     1
102
RTVSPost2010Prop49
280
     0
102
RTVSPost2010PropOp49
 70
     1
102
RTVSPost2010Prop50
 90
       50
102
RTVSPost2010PropOp50
 70
     1
102
RTVSPost2010Prop51ColorIndex
 90
      256
102
RTVSPost2010Prop51ColorRGB
 90
-16777216
102
RTVSPost2010PropOp51
 70
     0
102
RTVSPost2010Prop52
140
1.0
102
RTVSPost2010PropOp52
 70
     0
102
RTVSPost2010Prop53
 90
        2
102
RTVSPost2010PropOp53
 70
     1
102
RTVSPost2010Prop54
  1
strokes_ogs.tif
102
RTVSPost2010PropOp54
 70
     1
102
RTVSPost2010Prop55
280
     0
102
RTVSPost2010PropOp55
 70
     1
102
RTVSPost2010Prop56
140
1.0
102
RTVSPost2010PropOp56
 70
     1
102
RTVSPost2010Prop57
140
1.0
102
RTVSPost2010PropOp57
 70
     1
102
RTVSPropertyOp0
 70
     1
102
RTVSPropertyOp1
 70
     1
102
RTVSPropertyOp2
 70
     1
102
RTVSPropertyOp3
 70
     1
102
RTVSPropertyOp4
 70
     1
102
RTVSPropertyOp5
 70
     1
102
RTVSPropertyOp6
 70
     1
102
RTVSPropertyOp7
 70
     1
102
RTVSPropertyOp8
 70
     1
102
RTVSPropertyOp9
 70
     1
102
RTVSPropertyOp10
 70
     1
102
RTVSPropertyOp11
 70
     1
102
RTVSPropertyOp12
 70
     1
102
RTVSPropertyOp13
 70
     1
102
RTVSPropertyOp14
 70
     1
102
RTVSPropertyOp15
 70
     1
102
RTVSPropertyOp16
 70
     1
102
RTVSPropertyOp17
 70
     1
102
RTVSPropertyOp18
 70
     1
102
RTVSPropertyOp19
 70
     1
102
RTVSPropertyOp20
 70
     1
102
RTVSPropertyOp21
 70
     1
102
RTVSPropertyOp22
 70
     1
102
RTVSPropertyOp23
 70
     1
102
RTVSPropertyOp24
 70
     1
102
RTVSPropertyOp25
 70
     1
102
RTVSPropertyOp26
 70
     1
102
RTVSPropertyOp27
 70
     1
102
RTVSPropertyOp28
 70
     1
102
RTVSPropertyOp29
 70
     1
102
RTVSPropertyOp30
 70
     1
102
RTVSPropertyOp31
 70
     1
102
RTVSPropertyOp32
 70
     1
102
RTVSPropertyOp33
 70
     1
102
RTVSPropertyOp34
 70
     1
102
RTVSPropertyOp35
 70
     1
102
RTVSPropertyOp36
 70
     1
102
RTVSPropertyOp37
 70
     1
102
RTVSPropertyOp38
 70
     1
102
RTVSPropertyOp39
 70
     1
102
RTVSPropertyOp40
 70
     1
102
RTVSPropertyOp41
 70
     1
102
RTVSPropertyOp42
 70
     1
102
RTVSPropertyOp43
 70
     1
102
RTVSPropertyOp44
 70
     1
102
RTVSPropertyOp45
 70
     1
102
RTVSPropertyOp46
 70
     1
102
RTVSPropertyOp47
 70
     1
102
RTVSPropertyOp48
 70
     1
102
RTVSPropertyOp49
 70
     1
102
RTVSPropertyOp50
 70
     1
102
RTVSPropertyOp51
 70
     0
102
RTVSPropertyOp52
 70
     0
102
RTVSPropertyOp53
 70
     1
102
RTVSPropertyOp54
 70
     1
102
RTVSPropertyOp55
 70
     1
102
RTVSPropertyOp56
 70
     1
102
RTVSPropertyOp57
 70
     1
102
RTVSPropertyOp58
 70
     1
102
RTVSPropertyOp59
 70
     1
102
RTVSPropertyOp60
 70
     1
102
RTVSPropertyOp61
 70
     1
102
RTVSPropertyOp62
 70
     1
  0
XRECORD
  5
391
102
{ACAD_REACTORS
330
390
102
}
330
390
100
AcDbXrecord
280
     1
102
RTVSPost2010Prop28
280
     0
102
RTVSPost2010PropOp28
 70
     1
102
RTVSPost2010Prop29
280
     1
102
RTVSPost2010PropOp29
 70
     1
102
RTVSPost2010Prop30
280
     1
102
RTVSPost2010PropOp30
 70
     1
102
RTVSPost2010Prop31
280
     0
102
RTVSPost2010PropOp31
 70
     1
102
RTVSPost2010Prop32
280
     0
102
RTVSPost2010PropOp32
 70
     1
102
RTVSPost2010Prop33
280
     0
102
RTVSPost2010PropOp33
 70
     1
102
RTVSPost2010Prop34
280
     0
102
RTVSPost2010PropOp34
 70
     1
102
RTVSPost2010Prop35
280
     0
102
RTVSPost2010PropOp35
 70
     1
102
RTVSPost2010Prop36
280
     0
102
RTVSPost2010PropOp36
 70
     1
102
RTVSPost2010Prop37
 90
       50
102
RTVSPost2010PropOp37
 70
     1
102
RTVSPost2010Prop38
140
0.0
102
RTVSPost2010PropOp38
 70
     1
102
RTVSPost2010Prop39
140
1.0
102
RTVSPost2010PropOp39
 70
     1
102
RTVSPost2010Prop40
 90
        0
102
RTVSPost2010PropOp40
 70
     1
102
RTVSPost2010Prop41ColorIndex
 90
       18
102
RTVSPost2010Prop41ColorRGB
 90
        0
102
RTVSPost2010PropOp41
 70
     1
102
RTVSPost2010Prop42
 90
       50
102
RTVSPost2010PropOp42
 70
     1
102
RTVSPost2010Prop43
 90
        3
102
RTVSPost2010PropOp43
 70
     1
102
RTVSPost2010Prop44ColorIndex
 90
        5
102
RTVSPost2010Prop44ColorRGB
 90
      255
102
RTVSPost2010PropOp44
 70
     1
102
RTVSPost2010Prop45
280
     0
102
RTVSPost2010PropOp45
 70
     1
102
RTVSPost2010Prop46
 90
       50
102
RTVSPost2010PropOp46
 70
     1
102
RTVSPost2010Prop47
 90
       50
102
RTVSPost2010PropOp47
 70
     1
102
RTVSPost2010Prop48
 90
       50
102
RTVSPost2010PropOp48
 70
     1
102
RTVSPost2010Prop49
280
     0
102
RTVSPost2010PropOp49
 70
     1
102
RTVSPost2010Prop50
 90
       50
102
RTVSPost2010PropOp50
 70
     1
102
RTVSPost2010Prop51ColorIndex
 90
      256
102
RTVSPost2010Prop51ColorRGB
 90
-16777216
102
RTVSPost2010PropOp51
 70
     0
102
RTVSPost2010Prop52
140
1.0
102
RTVSPost2010PropOp52
 70
     0
102
RTVSPost2010Prop53
 90
        2
102
RTVSPost2010PropOp53
 70
     1
102
RTVSPost2010Prop54
  1
strokes_ogs.tif
102
RTVSPost2010PropOp54
 70
     1
102
RTVSPost2010Prop55
280
     0
102
RTVSPost2010PropOp55
 70
     1
102
RTVSPost2010Prop56
140
1.0
102
RTVSPost2010PropOp56
 70
     1
102
RTVSPost2010Prop57
140
1.0
102
RTVSPost2010PropOp57
 70
     1
102
RTVSPropertyOp0
 70
     1
102
RTVSPropertyOp1
 70
     1
102
RTVSPropertyOp2
 70
     1
102
RTVSPropertyOp3
 70
     1
102
RTVSPropertyOp4
 70
     1
102
RTVSPropertyOp5
 70
     1
102
RTVSPropertyOp6
 70
     1
102
RTVSPropertyOp7
 70
     1
102
RTVSPropertyOp8
 70
     1
102
RTVSPropertyOp9
 70
     1
102
RTVSPropertyOp10
 70
     1
102
RTVSPropertyOp11
 70
     1
102
RTVSPropertyOp12
 70
     1
102
RTVSPropertyOp13
 70
     1
102
RTVSPropertyOp14
 70
     1
102
RTVSPropertyOp15
 70
     1
102
RTVSPropertyOp16
 70
     1
102
RTVSPropertyOp17
 70
     1
102
RTVSPropertyOp18
 70
     1
102
RTVSPropertyOp19
 70
     1
102
RTVSPropertyOp20
 70
     1
102
RTVSPropertyOp21
 70
     1
102
RTVSPropertyOp22
 70
     1
102
RTVSPropertyOp23
 70
     1
102
RTVSPropertyOp24
 70
     1
102
RTVSPropertyOp25
 70
     1
102
RTVSPropertyOp26
 70
     1
102
RTVSPropertyOp27
 70
     1
102
RTVSPropertyOp28
 70
     1
102
RTVSPropertyOp29
 70
     1
102
RTVSPropertyOp30
 70
     1
102
RTVSPropertyOp31
 70
     1
102
RTVSPropertyOp32
 70
     1
102
RTVSPropertyOp33
 70
     1
102
RTVSPropertyOp34
 70
     1
102
RTVSPropertyOp35
 70
     1
102
RTVSPropertyOp36
 70
     1
102
RTVSPropertyOp37
 70
     1
102
RTVSPropertyOp38
 70
     1
102
RTVSPropertyOp39
 70
     1
102
RTVSPropertyOp40
 70
     1
102
RTVSPropertyOp41
 70
     1
102
RTVSPropertyOp42
 70
     1
102
RTVSPropertyOp43
 70
     1
102
RTVSPropertyOp44
 70
     1
102
RTVSPropertyOp45
 70
     1
102
RTVSPropertyOp46
 70
     1
102
RTVSPropertyOp47
 70
     1
102
RTVSPropertyOp48
 70
     1
102
RTVSPropertyOp49
 70
     1
102
RTVSPropertyOp50
 70
     1
102
RTVSPropertyOp51
 70
     0
102
RTVSPropertyOp52
 70
     0
102
RTVSPropertyOp53
 70
     1
102
RTVSPropertyOp54
 70
     1
102
RTVSPropertyOp55
 70
     1
102
RTVSPropertyOp56
 70
     1
102
RTVSPropertyOp57
 70
     1
102
RTVSPropertyOp58
 70
     1
102
RTVSPropertyOp59
 70
     1
102
RTVSPropertyOp60
 70
     1
102
RTVSPropertyOp61
 70
     1
102
RTVSPropertyOp62
 70
     1
  0
XRECORD
  5
38B
102
{ACAD_REACTORS
330
38A
102
}
330
38A
100
AcDbXrecord
280
     1
102
RTVSPost2010Prop28
280
     0
102
RTVSPost2010PropOp28
 70
     1
102
RTVSPost2010Prop29
280
     1
102
RTVSPost2010PropOp29
 70
     1
102
RTVSPost2010Prop30
280
     1
102
RTVSPost2010PropOp30
 70
     1
102
RTVSPost2010Prop31
280
     0
102
RTVSPost2010PropOp31
 70
     1
102
RTVSPost2010Prop32
280
     0
102
RTVSPost2010PropOp32
 70
     1
102
RTVSPost2010Prop33
280
     0
102
RTVSPost2010PropOp33
 70
     1
102
RTVSPost2010Prop34
280
     0
102
RTVSPost2010PropOp34
 70
     1
102
RTVSPost2010Prop35
280
     0
102
RTVSPost2010PropOp35
 70
     1
102
RTVSPost2010Prop36
280
     0
102
RTVSPost2010PropOp36
 70
     1
102
RTVSPost2010Prop37
 90
       50
102
RTVSPost2010PropOp37
 70
     1
102
RTVSPost2010Prop38
140
0.0
102
RTVSPost2010PropOp38
 70
     1
102
RTVSPost2010Prop39
140
1.0
102
RTVSPost2010PropOp39
 70
     1
102
RTVSPost2010Prop40
 90
        0
102
RTVSPost2010PropOp40
 70
     1
102
RTVSPost2010Prop41ColorIndex
 90
       18
102
RTVSPost2010Prop41ColorRGB
 90
        0
102
RTVSPost2010PropOp41
 70
     1
102
RTVSPost2010Prop42
 90
       50
102
RTVSPost2010PropOp42
 70
     1
102
RTVSPost2010Prop43
 90
        3
102
RTVSPost2010PropOp43
 70
     1
102
RTVSPost2010Prop44ColorIndex
 90
        5
102
RTVSPost2010Prop44ColorRGB
 90
      255
102
RTVSPost2010PropOp44
 70
     1
102
RTVSPost2010Prop45
280
     0
102
RTVSPost2010PropOp45
 70
     1
102
RTVSPost2010Prop46
 90
       50
102
RTVSPost2010PropOp46
 70
     1
102
RTVSPost2010Prop47
 90
       50
102
RTVSPost2010PropOp47
 70
     1
102
RTVSPost2010Prop48
 90
       50
102
RTVSPost2010PropOp48
 70
     1
102
RTVSPost2010Prop49
280
     0
102
RTVSPost2010PropOp49
 70
     1
102
RTVSPost2010Prop50
 90
       50
102
RTVSPost2010PropOp50
 70
     1
102
RTVSPost2010Prop51ColorIndex
 90
      256
102
RTVSPost2010Prop51ColorRGB
 90
-16777216
102
RTVSPost2010PropOp51
 70
     0
102
RTVSPost2010Prop52
140
1.0
102
RTVSPost2010PropOp52
 70
     0
102
RTVSPost2010Prop53
 90
        2
102
RTVSPost2010PropOp53
 70
     1
102
RTVSPost2010Prop54
  1
strokes_ogs.tif
102
RTVSPost2010PropOp54
 70
     1
102
RTVSPost2010Prop55
280
     0
102
RTVSPost2010PropOp55
 70
     1
102
RTVSPost2010Prop56
140
1.0
102
RTVSPost2010PropOp56
 70
     1
102
RTVSPost2010Prop57
140
1.0
102
RTVSPost2010PropOp57
 70
     1
102
RTVSPropertyOp0
 70
     1
102
RTVSPropertyOp1
 70
     1
102
RTVSPropertyOp2
 70
     1
102
RTVSPropertyOp3
 70
     1
102
RTVSPropertyOp4
 70
     1
102
RTVSPropertyOp5
 70
     1
102
RTVSPropertyOp6
 70
     1
102
RTVSPropertyOp7
 70
     1
102
RTVSPropertyOp8
 70
     1
102
RTVSPropertyOp9
 70
     1
102
RTVSPropertyOp10
 70
     1
102
RTVSPropertyOp11
 70
     1
102
RTVSPropertyOp12
 70
     1
102
RTVSPropertyOp13
 70
     1
102
RTVSPropertyOp14
 70
     1
102
RTVSPropertyOp15
 70
     1
102
RTVSPropertyOp16
 70
     1
102
RTVSPropertyOp17
 70
     1
102
RTVSPropertyOp18
 70
     1
102
RTVSPropertyOp19
 70
     1
102
RTVSPropertyOp20
 70
     1
102
RTVSPropertyOp21
 70
     1
102
RTVSPropertyOp22
 70
     1
102
RTVSPropertyOp23
 70
     1
102
RTVSPropertyOp24
 70
     1
102
RTVSPropertyOp25
 70
     1
102
RTVSPropertyOp26
 70
     1
102
RTVSPropertyOp27
 70
     1
102
RTVSPropertyOp28
 70
     1
102
RTVSPropertyOp29
 70
     1
102
RTVSPropertyOp30
 70
     1
102
RTVSPropertyOp31
 70
     1
102
RTVSPropertyOp32
 70
     1
102
RTVSPropertyOp33
 70
     1
102
RTVSPropertyOp34
 70
     1
102
RTVSPropertyOp35
 70
     1
102
RTVSPropertyOp36
 70
     1
102
RTVSPropertyOp37
 70
     1
102
RTVSPropertyOp38
 70
     1
102
RTVSPropertyOp39
 70
     1
102
RTVSPropertyOp40
 70
     1
102
RTVSPropertyOp41
 70
     1
102
RTVSPropertyOp42
 70
     1
102
RTVSPropertyOp43
 70
     1
102
RTVSPropertyOp44
 70
     1
102
RTVSPropertyOp45
 70
     1
102
RTVSPropertyOp46
 70
     1
102
RTVSPropertyOp47
 70
     1
102
RTVSPropertyOp48
 70
     1
102
RTVSPropertyOp49
 70
     1
102
RTVSPropertyOp50
 70
     1
102
RTVSPropertyOp51
 70
     0
102
RTVSPropertyOp52
 70
     0
102
RTVSPropertyOp53
 70
     1
102
RTVSPropertyOp54
 70
     1
102
RTVSPropertyOp55
 70
     1
102
RTVSPropertyOp56
 70
     1
102
RTVSPropertyOp57
 70
     1
102
RTVSPropertyOp58
 70
     1
102
RTVSPropertyOp59
 70
     1
102
RTVSPropertyOp60
 70
     1
102
RTVSPropertyOp61
 70
     1
102
RTVSPropertyOp62
 70
     1
  0
XRECORD
  5
38D
102
{ACAD_REACTORS
330
38C
102
}
330
38C
100
AcDbXrecord
280
     1
102
RTVSPost2010Prop28
280
     0
102
RTVSPost2010PropOp28
 70
     1
102
RTVSPost2010Prop29
280
     1
102
RTVSPost2010PropOp29
 70
     1
102
RTVSPost2010Prop30
280
     1
102
RTVSPost2010PropOp30
 70
     1
102
RTVSPost2010Prop31
280
     0
102
RTVSPost2010PropOp31
 70
     1
102
RTVSPost2010Prop32
280
     0
102
RTVSPost2010PropOp32
 70
     1
102
RTVSPost2010Prop33
280
     0
102
RTVSPost2010PropOp33
 70
     1
102
RTVSPost2010Prop34
280
     0
102
RTVSPost2010PropOp34
 70
     1
102
RTVSPost2010Prop35
280
     0
102
RTVSPost2010PropOp35
 70
     1
102
RTVSPost2010Prop36
280
     0
102
RTVSPost2010PropOp36
 70
     1
102
RTVSPost2010Prop37
 90
       50
102
RTVSPost2010PropOp37
 70
     1
102
RTVSPost2010Prop38
140
0.0
102
RTVSPost2010PropOp38
 70
     1
102
RTVSPost2010Prop39
140
1.0
102
RTVSPost2010PropOp39
 70
     1
102
RTVSPost2010Prop40
 90
        0
102
RTVSPost2010PropOp40
 70
     1
102
RTVSPost2010Prop41ColorIndex
 90
       18
102
RTVSPost2010Prop41ColorRGB
 90
        0
102
RTVSPost2010PropOp41
 70
     1
102
RTVSPost2010Prop42
 90
       50
102
RTVSPost2010PropOp42
 70
     1
102
RTVSPost2010Prop43
 90
        3
102
RTVSPost2010PropOp43
 70
     1
102
RTVSPost2010Prop44ColorIndex
 90
        5
102
RTVSPost2010Prop44ColorRGB
 90
      255
102
RTVSPost2010PropOp44
 70
     1
102
RTVSPost2010Prop45
280
     0
102
RTVSPost2010PropOp45
 70
     1
102
RTVSPost2010Prop46
 90
       50
102
RTVSPost2010PropOp46
 70
     1
102
RTVSPost2010Prop47
 90
       50
102
RTVSPost2010PropOp47
 70
     1
102
RTVSPost2010Prop48
 90
       50
102
RTVSPost2010PropOp48
 70
     1
102
RTVSPost2010Prop49
280
     0
102
RTVSPost2010PropOp49
 70
     1
102
RTVSPost2010Prop50
 90
       50
102
RTVSPost2010PropOp50
 70
     1
102
RTVSPost2010Prop51ColorIndex
 90
      256
102
RTVSPost2010Prop51ColorRGB
 90
-16777216
102
RTVSPost2010PropOp51
 70
     0
102
RTVSPost2010Prop52
140
1.0
102
RTVSPost2010PropOp52
 70
     0
102
RTVSPost2010Prop53
 90
        2
102
RTVSPost2010PropOp53
 70
     1
102
RTVSPost2010Prop54
  1
strokes_ogs.tif
102
RTVSPost2010PropOp54
 70
     1
102
RTVSPost2010Prop55
280
     0
102
RTVSPost2010PropOp55
 70
     1
102
RTVSPost2010Prop56
140
1.0
102
RTVSPost2010PropOp56
 70
     1
102
RTVSPost2010Prop57
140
1.0
102
RTVSPost2010PropOp57
 70
     1
102
RTVSPropertyOp0
 70
     1
102
RTVSPropertyOp1
 70
     1
102
RTVSPropertyOp2
 70
     1
102
RTVSPropertyOp3
 70
     1
102
RTVSPropertyOp4
 70
     1
102
RTVSPropertyOp5
 70
     1
102
RTVSPropertyOp6
 70
     1
102
RTVSPropertyOp7
 70
     1
102
RTVSPropertyOp8
 70
     1
102
RTVSPropertyOp9
 70
     1
102
RTVSPropertyOp10
 70
     1
102
RTVSPropertyOp11
 70
     1
102
RTVSPropertyOp12
 70
     1
102
RTVSPropertyOp13
 70
     1
102
RTVSPropertyOp14
 70
     1
102
RTVSPropertyOp15
 70
     1
102
RTVSPropertyOp16
 70
     1
102
RTVSPropertyOp17
 70
     1
102
RTVSPropertyOp18
 70
     1
102
RTVSPropertyOp19
 70
     1
102
RTVSPropertyOp20
 70
     1
102
RTVSPropertyOp21
 70
     1
102
RTVSPropertyOp22
 70
     1
102
RTVSPropertyOp23
 70
     1
102
RTVSPropertyOp24
 70
     1
102
RTVSPropertyOp25
 70
     1
102
RTVSPropertyOp26
 70
     1
102
RTVSPropertyOp27
 70
     1
102
RTVSPropertyOp28
 70
     1
102
RTVSPropertyOp29
 70
     1
102
RTVSPropertyOp30
 70
     1
102
RTVSPropertyOp31
 70
     1
102
RTVSPropertyOp32
 70
     1
102
RTVSPropertyOp33
 70
     1
102
RTVSPropertyOp34
 70
     1
102
RTVSPropertyOp35
 70
     1
102
RTVSPropertyOp36
 70
     1
102
RTVSPropertyOp37
 70
     1
102
RTVSPropertyOp38
 70
     1
102
RTVSPropertyOp39
 70
     1
102
RTVSPropertyOp40
 70
     1
102
RTVSPropertyOp41
 70
     1
102
RTVSPropertyOp42
 70
     1
102
RTVSPropertyOp43
 70
     1
102
RTVSPropertyOp44
 70
     1
102
RTVSPropertyOp45
 70
     1
102
RTVSPropertyOp46
 70
     1
102
RTVSPropertyOp47
 70
     1
102
RTVSPropertyOp48
 70
     1
102
RTVSPropertyOp49
 70
     1
102
RTVSPropertyOp50
 70
     1
102
RTVSPropertyOp51
 70
     0
102
RTVSPropertyOp52
 70
     0
102
RTVSPropertyOp53
 70
     1
102
RTVSPropertyOp54
 70
     1
102
RTVSPropertyOp55
 70
     1
102
RTVSPropertyOp56
 70
     1
102
RTVSPropertyOp57
 70
     1
102
RTVSPropertyOp58
 70
     1
102
RTVSPropertyOp59
 70
     1
102
RTVSPropertyOp60
 70
     1
102
RTVSPropertyOp61
 70
     1
102
RTVSPropertyOp62
 70
     1
  0
XRECORD
  5
37D
102
{ACAD_REACTORS
330
37C
102
}
330
37C
100
AcDbXrecord
280
     1
102
RTVSPost2010Prop28
280
     0
102
RTVSPost2010PropOp28
 70
     1
102
RTVSPost2010Prop29
280
     1
102
RTVSPost2010PropOp29
 70
     1
102
RTVSPost2010Prop30
280
     1
102
RTVSPost2010PropOp30
 70
     1
102
RTVSPost2010Prop31
280
     0
102
RTVSPost2010PropOp31
 70
     1
102
RTVSPost2010Prop32
280
     0
102
RTVSPost2010PropOp32
 70
     1
102
RTVSPost2010Prop33
280
     0
102
RTVSPost2010PropOp33
 70
     1
102
RTVSPost2010Prop34
280
     0
102
RTVSPost2010PropOp34
 70
     1
102
RTVSPost2010Prop35
280
     0
102
RTVSPost2010PropOp35
 70
     1
102
RTVSPost2010Prop36
280
     0
102
RTVSPost2010PropOp36
 70
     1
102
RTVSPost2010Prop37
 90
       50
102
RTVSPost2010PropOp37
 70
     1
102
RTVSPost2010Prop38
140
0.0
102
RTVSPost2010PropOp38
 70
     1
102
RTVSPost2010Prop39
140
1.0
102
RTVSPost2010PropOp39
 70
     1
102
RTVSPost2010Prop40
 90
        0
102
RTVSPost2010PropOp40
 70
     1
102
RTVSPost2010Prop41ColorIndex
 90
       18
102
RTVSPost2010Prop41ColorRGB
 90
        0
102
RTVSPost2010PropOp41
 70
     1
102
RTVSPost2010Prop42
 90
       50
102
RTVSPost2010PropOp42
 70
     1
102
RTVSPost2010Prop43
 90
        3
102
RTVSPost2010PropOp43
 70
     1
102
RTVSPost2010Prop44ColorIndex
 90
        5
102
RTVSPost2010Prop44ColorRGB
 90
      255
102
RTVSPost2010PropOp44
 70
     1
102
RTVSPost2010Prop45
280
     0
102
RTVSPost2010PropOp45
 70
     1
102
RTVSPost2010Prop46
 90
       50
102
RTVSPost2010PropOp46
 70
     1
102
RTVSPost2010Prop47
 90
       50
102
RTVSPost2010PropOp47
 70
     1
102
RTVSPost2010Prop48
 90
       50
102
RTVSPost2010PropOp48
 70
     1
102
RTVSPost2010Prop49
280
     0
102
RTVSPost2010PropOp49
 70
     1
102
RTVSPost2010Prop50
 90
       50
102
RTVSPost2010PropOp50
 70
     1
102
RTVSPost2010Prop51ColorIndex
 90
      256
102
RTVSPost2010Prop51ColorRGB
 90
-16777216
102
RTVSPost2010PropOp51
 70
     0
102
RTVSPost2010Prop52
140
1.0
102
RTVSPost2010PropOp52
 70
     0
102
RTVSPost2010Prop53
 90
        2
102
RTVSPost2010PropOp53
 70
     1
102
RTVSPost2010Prop54
  1
strokes_ogs.tif
102
RTVSPost2010PropOp54
 70
     1
102
RTVSPost2010Prop55
280
     0
102
RTVSPost2010PropOp55
 70
     1
102
RTVSPost2010Prop56
140
1.0
102
RTVSPost2010PropOp56
 70
     1
102
RTVSPost2010Prop57
140
1.0
102
RTVSPost2010PropOp57
 70
     1
102
RTVSPropertyOp0
 70
     1
102
RTVSPropertyOp1
 70
     1
102
RTVSPropertyOp2
 70
     1
102
RTVSPropertyOp3
 70
     1
102
RTVSPropertyOp4
 70
     1
102
RTVSPropertyOp5
 70
     1
102
RTVSPropertyOp6
 70
     1
102
RTVSPropertyOp7
 70
     1
102
RTVSPropertyOp8
 70
     1
102
RTVSPropertyOp9
 70
     1
102
RTVSPropertyOp10
 70
     1
102
RTVSPropertyOp11
 70
     1
102
RTVSPropertyOp12
 70
     1
102
RTVSPropertyOp13
 70
     1
102
RTVSPropertyOp14
 70
     1
102
RTVSPropertyOp15
 70
     1
102
RTVSPropertyOp16
 70
     1
102
RTVSPropertyOp17
 70
     1
102
RTVSPropertyOp18
 70
     1
102
RTVSPropertyOp19
 70
     1
102
RTVSPropertyOp20
 70
     1
102
RTVSPropertyOp21
 70
     1
102
RTVSPropertyOp22
 70
     1
102
RTVSPropertyOp23
 70
     1
102
RTVSPropertyOp24
 70
     1
102
RTVSPropertyOp25
 70
     1
102
RTVSPropertyOp26
 70
     1
102
RTVSPropertyOp27
 70
     1
102
RTVSPropertyOp28
 70
     1
102
RTVSPropertyOp29
 70
     1
102
RTVSPropertyOp30
 70
     1
102
RTVSPropertyOp31
 70
     1
102
RTVSPropertyOp32
 70
     1
102
RTVSPropertyOp33
 70
     1
102
RTVSPropertyOp34
 70
     1
102
RTVSPropertyOp35
 70
     1
102
RTVSPropertyOp36
 70
     1
102
RTVSPropertyOp37
 70
     1
102
RTVSPropertyOp38
 70
     1
102
RTVSPropertyOp39
 70
     1
102
RTVSPropertyOp40
 70
     1
102
RTVSPropertyOp41
 70
     1
102
RTVSPropertyOp42
 70
     1
102
RTVSPropertyOp43
 70
     1
102
RTVSPropertyOp44
 70
     1
102
RTVSPropertyOp45
 70
     1
102
RTVSPropertyOp46
 70
     1
102
RTVSPropertyOp47
 70
     1
102
RTVSPropertyOp48
 70
     1
102
RTVSPropertyOp49
 70
     1
102
RTVSPropertyOp50
 70
     1
102
RTVSPropertyOp51
 70
     0
102
RTVSPropertyOp52
 70
     0
102
RTVSPropertyOp53
 70
     1
102
RTVSPropertyOp54
 70
     1
102
RTVSPropertyOp55
 70
     1
102
RTVSPropertyOp56
 70
     1
102
RTVSPropertyOp57
 70
     1
102
RTVSPropertyOp58
 70
     1
102
RTVSPropertyOp59
 70
     1
102
RTVSPropertyOp60
 70
     1
102
RTVSPropertyOp61
 70
     1
102
RTVSPropertyOp62
 70
     1
  0
XRECORD
  5
36F
102
{ACAD_REACTORS
330
36E
102
}
330
36E
100
AcDbXrecord
280
     1
102
RTVSPost2010Prop28
280
     0
102
RTVSPost2010PropOp28
 70
     1
102
RTVSPost2010Prop29
280
     1
102
RTVSPost2010PropOp29
 70
     1
102
RTVSPost2010Prop30
280
     1
102
RTVSPost2010PropOp30
 70
     1
102
RTVSPost2010Prop31
280
     0
102
RTVSPost2010PropOp31
 70
     1
102
RTVSPost2010Prop32
280
     0
102
RTVSPost2010PropOp32
 70
     1
102
RTVSPost2010Prop33
280
     0
102
RTVSPost2010PropOp33
 70
     1
102
RTVSPost2010Prop34
280
     0
102
RTVSPost2010PropOp34
 70
     1
102
RTVSPost2010Prop35
280
     0
102
RTVSPost2010PropOp35
 70
     1
102
RTVSPost2010Prop36
280
     0
102
RTVSPost2010PropOp36
 70
     1
102
RTVSPost2010Prop37
 90
       50
102
RTVSPost2010PropOp37
 70
     1
102
RTVSPost2010Prop38
140
0.0
102
RTVSPost2010PropOp38
 70
     1
102
RTVSPost2010Prop39
140
1.0
102
RTVSPost2010PropOp39
 70
     1
102
RTVSPost2010Prop40
 90
        0
102
RTVSPost2010PropOp40
 70
     1
102
RTVSPost2010Prop41ColorIndex
 90
       18
102
RTVSPost2010Prop41ColorRGB
 90
        0
102
RTVSPost2010PropOp41
 70
     1
102
RTVSPost2010Prop42
 90
       50
102
RTVSPost2010PropOp42
 70
     1
102
RTVSPost2010Prop43
 90
        3
102
RTVSPost2010PropOp43
 70
     1
102
RTVSPost2010Prop44ColorIndex
 90
        5
102
RTVSPost2010Prop44ColorRGB
 90
      255
102
RTVSPost2010PropOp44
 70
     1
102
RTVSPost2010Prop45
280
     0
102
RTVSPost2010PropOp45
 70
     1
102
RTVSPost2010Prop46
 90
       50
102
RTVSPost2010PropOp46
 70
     1
102
RTVSPost2010Prop47
 90
       50
102
RTVSPost2010PropOp47
 70
     1
102
RTVSPost2010Prop48
 90
       50
102
RTVSPost2010PropOp48
 70
     1
102
RTVSPost2010Prop49
280
     0
102
RTVSPost2010PropOp49
 70
     1
102
RTVSPost2010Prop50
 90
       50
102
RTVSPost2010PropOp50
 70
     1
102
RTVSPost2010Prop51ColorIndex
 90
      256
102
RTVSPost2010Prop51ColorRGB
 90
-16777216
102
RTVSPost2010PropOp51
 70
     0
102
RTVSPost2010Prop52
140
1.0
102
RTVSPost2010PropOp52
 70
     0
102
RTVSPost2010Prop53
 90
        2
102
RTVSPost2010PropOp53
 70
     1
102
RTVSPost2010Prop54
  1
strokes_ogs.tif
102
RTVSPost2010PropOp54
 70
     1
102
RTVSPost2010Prop55
280
     0
102
RTVSPost2010PropOp55
 70
     1
102
RTVSPost2010Prop56
140
1.0
102
RTVSPost2010PropOp56
 70
     1
102
RTVSPost2010Prop57
140
1.0
102
RTVSPost2010PropOp57
 70
     1
102
RTVSPropertyOp0
 70
     1
102
RTVSPropertyOp1
 70
     1
102
RTVSPropertyOp2
 70
     1
102
RTVSPropertyOp3
 70
     1
102
RTVSPropertyOp4
 70
     1
102
RTVSPropertyOp5
 70
     1
102
RTVSPropertyOp6
 70
     1
102
RTVSPropertyOp7
 70
     1
102
RTVSPropertyOp8
 70
     1
102
RTVSPropertyOp9
 70
     1
102
RTVSPropertyOp10
 70
     1
102
RTVSPropertyOp11
 70
     1
102
RTVSPropertyOp12
 70
     1
102
RTVSPropertyOp13
 70
     1
102
RTVSPropertyOp14
 70
     1
102
RTVSPropertyOp15
 70
     1
102
RTVSPropertyOp16
 70
     1
102
RTVSPropertyOp17
 70
     1
102
RTVSPropertyOp18
 70
     1
102
RTVSPropertyOp19
 70
     1
102
RTVSPropertyOp20
 70
     1
102
RTVSPropertyOp21
 70
     1
102
RTVSPropertyOp22
 70
     1
102
RTVSPropertyOp23
 70
     1
102
RTVSPropertyOp24
 70
     1
102
RTVSPropertyOp25
 70
     1
102
RTVSPropertyOp26
 70
     1
102
RTVSPropertyOp27
 70
     1
102
RTVSPropertyOp28
 70
     1
102
RTVSPropertyOp29
 70
     1
102
RTVSPropertyOp30
 70
     1
102
RTVSPropertyOp31
 70
     1
102
RTVSPropertyOp32
 70
     1
102
RTVSPropertyOp33
 70
     1
102
RTVSPropertyOp34
 70
     1
102
RTVSPropertyOp35
 70
     1
102
RTVSPropertyOp36
 70
     1
102
RTVSPropertyOp37
 70
     1
102
RTVSPropertyOp38
 70
     1
102
RTVSPropertyOp39
 70
     1
102
RTVSPropertyOp40
 70
     1
102
RTVSPropertyOp41
 70
     1
102
RTVSPropertyOp42
 70
     1
102
RTVSPropertyOp43
 70
     1
102
RTVSPropertyOp44
 70
     1
102
RTVSPropertyOp45
 70
     1
102
RTVSPropertyOp46
 70
     1
102
RTVSPropertyOp47
 70
     1
102
RTVSPropertyOp48
 70
     1
102
RTVSPropertyOp49
 70
     1
102
RTVSPropertyOp50
 70
     1
102
RTVSPropertyOp51
 70
     0
102
RTVSPropertyOp52
 70
     0
102
RTVSPropertyOp53
 70
     1
102
RTVSPropertyOp54
 70
     1
102
RTVSPropertyOp55
 70
     1
102
RTVSPropertyOp56
 70
     1
102
RTVSPropertyOp57
 70
     1
102
RTVSPropertyOp58
 70
     1
102
RTVSPropertyOp59
 70
     1
102
RTVSPropertyOp60
 70
     1
102
RTVSPropertyOp61
 70
     1
102
RTVSPropertyOp62
 70
     1
  0
XRECORD
  5
38F
102
{ACAD_REACTORS
330
38E
102
}
330
38E
100
AcDbXrecord
280
     1
102
RTVSPost2010Prop28
280
     0
102
RTVSPost2010PropOp28
 70
     1
102
RTVSPost2010Prop29
280
     1
102
RTVSPost2010PropOp29
 70
     1
102
RTVSPost2010Prop30
280
     1
102
RTVSPost2010PropOp30
 70
     1
102
RTVSPost2010Prop31
280
     0
102
RTVSPost2010PropOp31
 70
     1
102
RTVSPost2010Prop32
280
     0
102
RTVSPost2010PropOp32
 70
     1
102
RTVSPost2010Prop33
280
     0
102
RTVSPost2010PropOp33
 70
     1
102
RTVSPost2010Prop34
280
     0
102
RTVSPost2010PropOp34
 70
     1
102
RTVSPost2010Prop35
280
     0
102
RTVSPost2010PropOp35
 70
     1
102
RTVSPost2010Prop36
280
     0
102
RTVSPost2010PropOp36
 70
     1
102
RTVSPost2010Prop37
 90
       50
102
RTVSPost2010PropOp37
 70
     1
102
RTVSPost2010Prop38
140
0.0
102
RTVSPost2010PropOp38
 70
     1
102
RTVSPost2010Prop39
140
1.0
102
RTVSPost2010PropOp39
 70
     1
102
RTVSPost2010Prop40
 90
        0
102
RTVSPost2010PropOp40
 70
     1
102
RTVSPost2010Prop41ColorIndex
 90
       18
102
RTVSPost2010Prop41ColorRGB
 90
        0
102
RTVSPost2010PropOp41
 70
     1
102
RTVSPost2010Prop42
 90
       50
102
RTVSPost2010PropOp42
 70
     1
102
RTVSPost2010Prop43
 90
        3
102
RTVSPost2010PropOp43
 70
     1
102
RTVSPost2010Prop44ColorIndex
 90
        5
102
RTVSPost2010Prop44ColorRGB
 90
      255
102
RTVSPost2010PropOp44
 70
     1
102
RTVSPost2010Prop45
280
     0
102
RTVSPost2010PropOp45
 70
     1
102
RTVSPost2010Prop46
 90
       50
102
RTVSPost2010PropOp46
 70
     1
102
RTVSPost2010Prop47
 90
       50
102
RTVSPost2010PropOp47
 70
     1
102
RTVSPost2010Prop48
 90
       50
102
RTVSPost2010PropOp48
 70
     1
102
RTVSPost2010Prop49
280
     0
102
RTVSPost2010PropOp49
 70
     1
102
RTVSPost2010Prop50
 90
       50
102
RTVSPost2010PropOp50
 70
     1
102
RTVSPost2010Prop51ColorIndex
 90
      256
102
RTVSPost2010Prop51ColorRGB
 90
-16777216
102
RTVSPost2010PropOp51
 70
     0
102
RTVSPost2010Prop52
140
1.0
102
RTVSPost2010PropOp52
 70
     0
102
RTVSPost2010Prop53
 90
        2
102
RTVSPost2010PropOp53
 70
     1
102
RTVSPost2010Prop54
  1
strokes_ogs.tif
102
RTVSPost2010PropOp54
 70
     1
102
RTVSPost2010Prop55
280
     0
102
RTVSPost2010PropOp55
 70
     1
102
RTVSPost2010Prop56
140
1.0
102
RTVSPost2010PropOp56
 70
     1
102
RTVSPost2010Prop57
140
1.0
102
RTVSPost2010PropOp57
 70
     1
102
RTVSPropertyOp0
 70
     1
102
RTVSPropertyOp1
 70
     1
102
RTVSPropertyOp2
 70
     1
102
RTVSPropertyOp3
 70
     1
102
RTVSPropertyOp4
 70
     1
102
RTVSPropertyOp5
 70
     1
102
RTVSPropertyOp6
 70
     1
102
RTVSPropertyOp7
 70
     1
102
RTVSPropertyOp8
 70
     1
102
RTVSPropertyOp9
 70
     1
102
RTVSPropertyOp10
 70
     1
102
RTVSPropertyOp11
 70
     1
102
RTVSPropertyOp12
 70
     1
102
RTVSPropertyOp13
 70
     1
102
RTVSPropertyOp14
 70
     1
102
RTVSPropertyOp15
 70
     1
102
RTVSPropertyOp16
 70
     1
102
RTVSPropertyOp17
 70
     1
102
RTVSPropertyOp18
 70
     1
102
RTVSPropertyOp19
 70
     1
102
RTVSPropertyOp20
 70
     1
102
RTVSPropertyOp21
 70
     1
102
RTVSPropertyOp22
 70
     1
102
RTVSPropertyOp23
 70
     1
102
RTVSPropertyOp24
 70
     1
102
RTVSPropertyOp25
 70
     1
102
RTVSPropertyOp26
 70
     1
102
RTVSPropertyOp27
 70
     1
102
RTVSPropertyOp28
 70
     1
102
RTVSPropertyOp29
 70
     1
102
RTVSPropertyOp30
 70
     1
102
RTVSPropertyOp31
 70
     1
102
RTVSPropertyOp32
 70
     1
102
RTVSPropertyOp33
 70
     1
102
RTVSPropertyOp34
 70
     1
102
RTVSPropertyOp35
 70
     1
102
RTVSPropertyOp36
 70
     1
102
RTVSPropertyOp37
 70
     1
102
RTVSPropertyOp38
 70
     1
102
RTVSPropertyOp39
 70
     1
102
RTVSPropertyOp40
 70
     1
102
RTVSPropertyOp41
 70
     1
102
RTVSPropertyOp42
 70
     1
102
RTVSPropertyOp43
 70
     1
102
RTVSPropertyOp44
 70
     1
102
RTVSPropertyOp45
 70
     1
102
RTVSPropertyOp46
 70
     1
102
RTVSPropertyOp47
 70
     1
102
RTVSPropertyOp48
 70
     1
102
RTVSPropertyOp49
 70
     1
102
RTVSPropertyOp50
 70
     1
102
RTVSPropertyOp51
 70
     0
102
RTVSPropertyOp52
 70
     0
102
RTVSPropertyOp53
 70
     1
102
RTVSPropertyOp54
 70
     1
102
RTVSPropertyOp55
 70
     1
102
RTVSPropertyOp56
 70
     1
102
RTVSPropertyOp57
 70
     1
102
RTVSPropertyOp58
 70
     1
102
RTVSPropertyOp59
 70
     1
102
RTVSPropertyOp60
 70
     1
102
RTVSPropertyOp61
 70
     1
102
RTVSPropertyOp62
 70
     1
  0
ENDSEC
  0
EOF
