  0
SECTION
  2
HEADER
  9
$ACADVER
  1
AC1018
  9
$ACADMAINTVER
 70
   104
  9
$DWGCODEPAGE
  3
ANSI_1250
  9
$LASTSAVEDBY
  1
wq7085
  9
$INSBASE
 10
0.0
 20
0.0
 30
0.0
  9
$EXTMIN
 10
186.4339033333333
 20
122.034924
 30
0.0
  9
$EXTMAX
 10
364.492201
 20
345.2288016666667
 30
0.0
  9
$LIMMIN
 10
-0.5
 20
-0.5
  9
$LIMMAX
 10
5.0
 20
5.0
  9
$ORTHOMODE
 70
     0
  9
$REGENMODE
 70
     1
  9
$FILLMODE
 70
     1
  9
$QTEXTMODE
 70
     0
  9
$MIRRTEXT
 70
     1
  9
$LTSCALE
 40
1.0
  9
$ATTMODE
 70
     1
  9
$TEXTSIZE
 40
0.2
  9
$TRACEWID
 40
0.05
  9
$TEXTSTYLE
  7
Standard
  9
$CLAYER
  8
0
  9
$CELTYPE
  6
ByLayer
  9
$CECOLOR
 62
   256
  9
$CELTSCALE
 40
1.0
  9
$DISPSILH
 70
     0
  9
$DIMSCALE
 40
1.0
  9
$DIMASZ
 40
0.18
  9
$DIMEXO
 40
0.0625
  9
$DIMDLI
 40
0.38
  9
$DIMRND
 40
0.0
  9
$DIMDLE
 40
0.0
  9
$DIMEXE
 40
0.18
  9
$DIMTP
 40
0.0
  9
$DIMTM
 40
0.0
  9
$DIMTXT
 40
0.18
  9
$DIMCEN
 40
0.09
  9
$DIMTSZ
 40
0.0
  9
$DIMTOL
 70
     0
  9
$DIMLIM
 70
     0
  9
$DIMTIH
 70
     1
  9
$DIMTOH
 70
     1
  9
$DIMSE1
 70
     0
  9
$DIMSE2
 70
     0
  9
$DIMTAD
 70
     0
  9
$DIMZIN
 70
     0
  9
$DIMBLK
  1

  9
$DIMASO
 70
     1
  9
$DIMSHO
 70
     1
  9
$DIMPOST
  1

  9
$DIMAPOST
  1

  9
$DIMALT
 70
     0
  9
$DIMALTD
 70
     2
  9
$DIMALTF
 40
25.4
  9
$DIMLFAC
 40
1.0
  9
$DIMTOFL
 70
     0
  9
$DIMTVP
 40
0.0
  9
$DIMTIX
 70
     0
  9
$DIMSOXD
 70
     0
  9
$DIMSAH
 70
     0
  9
$DIMBLK1
  1

  9
$DIMBLK2
  1

  9
$DIMSTYLE
  2
Standard
  9
$DIMCLRD
 70
     0
  9
$DIMCLRE
 70
     0
  9
$DIMCLRT
 70
     0
  9
$DIMTFAC
 40
1.0
  9
$DIMGAP
 40
0.09
  9
$DIMJUST
 70
     0
  9
$DIMSD1
 70
     0
  9
$DIMSD2
 70
     0
  9
$DIMTOLJ
 70
     1
  9
$DIMTZIN
 70
     0
  9
$DIMALTZ
 70
     0
  9
$DIMALTTZ
 70
     0
  9
$DIMUPT
 70
     0
  9
$DIMDEC
 70
     4
  9
$DIMTDEC
 70
     4
  9
$DIMALTU
 70
     2
  9
$DIMALTTD
 70
     2
  9
$DIMTXSTY
  7
Standard
  9
$DIMAUNIT
 70
     0
  9
$DIMADEC
 70
     0
  9
$DIMALTRND
 40
0.0
  9
$DIMAZIN
 70
     0
  9
$DIMDSEP
 70
    46
  9
$DIMATFIT
 70
     3
  9
$DIMFRAC
 70
     0
  9
$DIMLDRBLK
  1

  9
$DIMLUNIT
 70
     2
  9
$DIMLWD
 70
    -2
  9
$DIMLWE
 70
    -2
  9
$DIMTMOVE
 70
     0
  9
$LUNITS
 70
     2
  9
$LUPREC
 70
     4
  9
$SKETCHINC
 40
0.1
  9
$FILLETRAD
 40
0.5
  9
$AUNITS
 70
     0
  9
$AUPREC
 70
     0
  9
$MENU
  1
.
  9
$ELEVATION
 40
0.0
  9
$PELEVATION
 40
0.0
  9
$THICKNESS
 40
0.0
  9
$LIMCHECK
 70
     0
  9
$CHAMFERA
 40
0.0
  9
$CHAMFERB
 40
0.0
  9
$CHAMFERC
 40
0.0
  9
$CHAMFERD
 40
0.0
  9
$SKPOLY
 70
     0
  9
$TDCREATE
 40
2458954.333969908
  9
$TDUCREATE
 40
2458954.250642500
  9
$TDUPDATE
 40
2458954.337824074
  9
$TDUUPDATE
 40
2458954.254490741
  9
$TDINDWG
 40
0.0023379745
  9
$TDUSRTIMER
 40
0.0023264005
  9
$USRTIMER
 70
     1
  9
$ANGBASE
 50
0.0
  9
$ANGDIR
 70
     0
  9
$PDMODE
 70
     0
  9
$PDSIZE
 40
0.0
  9
$PLINEWID
 40
0.0
  9
$SPLFRAME
 70
     0
  9
$SPLINETYPE
 70
     6
  9
$SPLINESEGS
 70
     8
  9
$HANDSEED
  5
39B
  9
$SURFTAB1
 70
     6
  9
$SURFTAB2
 70
     6
  9
$SURFTYPE
 70
     6
  9
$SURFU
 70
     6
  9
$SURFV
 70
     6
  9
$UCSBASE
  2

  9
$UCSNAME
  2

  9
$UCSORG
 10
274.404842
 20
288.907994
 30
0.0
  9
$UCSXDIR
 10
1.0
 20
0.0
 30
0.0
  9
$UCSYDIR
 10
0.0
 20
1.0
 30
0.0
  9
$UCSORTHOREF
  2

  9
$UCSORTHOVIEW
 70
     0
  9
$UCSORGTOP
 10
0.0
 20
0.0
 30
0.0
  9
$UCSORGBOTTOM
 10
0.0
 20
0.0
 30
0.0
  9
$UCSORGLEFT
 10
0.0
 20
0.0
 30
0.0
  9
$UCSORGRIGHT
 10
0.0
 20
0.0
 30
0.0
  9
$UCSORGFRONT
 10
0.0
 20
0.0
 30
0.0
  9
$UCSORGBACK
 10
0.0
 20
0.0
 30
0.0
  9
$PUCSBASE
  2

  9
$PUCSNAME
  2

  9
$PUCSORG
 10
0.0
 20
0.0
 30
0.0
  9
$PUCSXDIR
 10
1.0
 20
0.0
 30
0.0
  9
$PUCSYDIR
 10
0.0
 20
1.0
 30
0.0
  9
$PUCSORTHOREF
  2

  9
$PUCSORTHOVIEW
 70
     0
  9
$PUCSORGTOP
 10
0.0
 20
0.0
 30
0.0
  9
$PUCSORGBOTTOM
 10
0.0
 20
0.0
 30
0.0
  9
$PUCSORGLEFT
 10
0.0
 20
0.0
 30
0.0
  9
$PUCSORGRIGHT
 10
0.0
 20
0.0
 30
0.0
  9
$PUCSORGFRONT
 10
0.0
 20
0.0
 30
0.0
  9
$PUCSORGBACK
 10
0.0
 20
0.0
 30
0.0
  9
$USERI1
 70
     0
  9
$USERI2
 70
     0
  9
$USERI3
 70
     0
  9
$USERI4
 70
     0
  9
$USERI5
 70
     0
  9
$USERR1
 40
0.0
  9
$USERR2
 40
0.0
  9
$USERR3
 40
0.0
  9
$USERR4
 40
0.0
  9
$USERR5
 40
0.0
  9
$WORLDVIEW
 70
     1
  9
$SHADEDGE
 70
     3
  9
$SHADEDIF
 70
    70
  9
$TILEMODE
 70
     1
  9
$MAXACTVP
 70
    64
  9
$PINSBASE
 10
0.0
 20
0.0
 30
0.0
  9
$PLIMCHECK
 70
     0
  9
$PEXTMIN
 10
-0.5
 20
-0.5
 30
-0.5
  9
$PEXTMAX
 10
5.0
 20
5.0
 30
5.0
  9
$PLIMMIN
 10
-0.5
 20
-0.5
  9
$PLIMMAX
 10
5.0
 20
5.0
  9
$UNITMODE
 70
     0
  9
$VISRETAIN
 70
     1
  9
$PLINEGEN
 70
     0
  9
$PSLTSCALE
 70
     1
  9
$TREEDEPTH
 70
  3020
  9
$CMLSTYLE
  2
Standard
  9
$CMLJUST
 70
     0
  9
$CMLSCALE
 40
1.0
  9
$PROXYGRAPHICS
 70
     1
  9
$MEASUREMENT
 70
     1
  9
$CELWEIGHT
370
    13
  9
$ENDCAPS
280
     0
  9
$JOINSTYLE
280
     0
  9
$LWDISPLAY
290
     0
  9
$INSUNITS
 70
     4
  9
$HYPERLINKBASE
  1

  9
$STYLESHEET
  1

  9
$XEDIT
290
     1
  9
$CEPSNTYPE
380
     0
  9
$PSTYLEMODE
290
     1
  9
$FINGERPRINTGUID
  2
{68216C9F-E2B4-4872-A466-E1159516CDA9}
  9
$VERSIONGUID
  2
{98BE7A82-475D-7747-B59D-449DFFC3EF99}
  9
$EXTNAMES
290
     1
  9
$PSVPSCALE
 40
0.0
  9
$OLESTARTUP
290
     0
  9
$SORTENTS
280
   127
  9
$INDEXCTL
280
     0
  9
$HIDETEXT
280
     1
  9
$XCLIPFRAME
290
     0
  9
$HALOGAP
280
     0
  9
$OBSCOLOR
 70
   257
  9
$OBSLTYPE
280
     0
  9
$INTERSECTIONDISPLAY
280
     0
  9
$INTERSECTIONCOLOR
 70
   257
  9
$DIMASSOC
280
     2
  9
$PROJECTNAME
  1

  0
ENDSEC
  0
SECTION
  2
CLASSES
  0
CLASS
  1
ACDBDICTIONARYWDFLT
  2
AcDbDictionaryWithDefault
  3
ObjectDBX Classes
 90
        0
 91
        1
280
     0
281
     0
  0
CLASS
  1
VISUALSTYLE
  2
AcDbVisualStyle
  3
ObjectDBX Classes
 90
     4095
 91
       24
280
     0
281
     0
  0
CLASS
  1
MATERIAL
  2
AcDbMaterial
  3
ObjectDBX Classes
 90
     1153
 91
        3
280
     0
281
     0
  0
CLASS
  1
SCALE
  2
AcDbScale
  3
ObjectDBX Classes
 90
     1153
 91
       33
280
     0
281
     0
  0
CLASS
  1
TABLESTYLE
  2
AcDbTableStyle
  3
ObjectDBX Classes
 90
     4095
 91
        1
280
     0
281
     0
  0
CLASS
  1
MLEADERSTYLE
  2
AcDbMLeaderStyle
  3
ACDB_MLEADERSTYLE_CLASS
 90
     4095
 91
        1
280
     0
281
     0
  0
CLASS
  1
SUN
  2
AcDbSun
  3
SCENEOE
 90
     1153
 91
        0
280
     0
281
     0
  0
CLASS
  1
DIMASSOC
  2
AcDbDimAssoc
  3
"AcDbDimAssoc|Product Desc:     AcDim ARX App For Dimension|Company:          Autodesk, Inc.|WEB Address:      www.autodesk.com"
 90
        0
 91
        7
280
     0
281
     0
  0
CLASS
  1
DICTIONARYVAR
  2
AcDbDictionaryVar
  3
ObjectDBX Classes
 90
        0
 91
        8
280
     0
281
     0
  0
CLASS
  1
CELLSTYLEMAP
  2
AcDbCellStyleMap
  3
ObjectDBX Classes
 90
     1152
 91
        2
280
     0
281
     0
  0
CLASS
  1
ACDBSECTIONVIEWSTYLE
  2
AcDbSectionViewStyle
  3
ObjectDBX Classes
 90
     1025
 91
        1
280
     0
281
     0
  0
CLASS
  1
ACDBDETAILVIEWSTYLE
  2
AcDbDetailViewStyle
  3
ObjectDBX Classes
 90
     1025
 91
        1
280
     0
281
     0
  0
CLASS
  1
SORTENTSTABLE
  2
AcDbSortentsTable
  3
ObjectDBX Classes
 90
        0
 91
        1
280
     0
281
     0
  0
ENDSEC
  0
SECTION
  2
TABLES
  0
TABLE
  2
VPORT
  5
8
330
0
100
AcDbSymbolTable
 70
    16
  0
VPORT
  5
29
330
8
100
AcDbSymbolTableRecord
100
AcDbViewportTableRecord
  2
*Active
 70
     0
 10
0.0
 20
0.0
 11
1.0
 21
1.0
 12
302.6943116846963
 22
280.3598475387214
 13
0.0
 23
0.0
 14
0.5
 24
0.5
 15
0.5
 25
0.5
 16
0.0
 26
0.0
 36
1.0
 17
0.0
 27
0.0
 37
0.0
 40
173.2214357937792
 41
2.179019384264538
 42
50.0
 43
361.292455
 44
-361.292455
 50
0.0
 51
0.0
 71
     0
 72
   100
 73
     1
 74
     3
 75
     0
 76
     0
 77
     0
 78
     0
281
     0
 65
     1
110
274.404842
120
288.907994
130
0.0
111
1.0
121
0.0
131
0.0
112
0.0
122
1.0
132
0.0
 79
     0
146
0.0
1001
ACAD_NAV_VCDISPLAY
1070
     3
  0
VPORT
  5
29F
330
8
100
AcDbSymbolTableRecord
100
AcDbViewportTableRecord
  2
L1
 70
     0
 10
0.0
 20
0.0
 11
1.0
 21
1.0
 12
274.958839
 22
233.581599
 13
0.0
 23
0.0
 14
0.5
 24
0.5
 15
0.5
 25
0.5
 16
0.0
 26
0.0
 36
1.0
 17
0.0
 27
0.0
 37
0.0
 40
207.433333
 41
0.085602
 42
50.0
 43
361.292455
 44
-361.292455
 50
0.0
 51
0.0
 71
     0
 72
   100
 73
     1
 74
     3
 75
     0
 76
     0
 77
     0
 78
     0
281
     0
 65
     1
110
0.0
120
0.0
130
0.0
111
1.0
121
0.0
131
0.0
112
0.0
122
1.0
132
0.0
 79
     0
146
0.0
  0
VPORT
  5
2A0
330
8
100
AcDbSymbolTableRecord
100
AcDbViewportTableRecord
  2
L2
 70
     0
 10
0.0
 20
0.0
 11
0.5
 21
1.0
 12
0.0
 22
0.0
 13
0.0
 23
0.0
 14
0.5
 24
0.5
 15
0.5
 25
0.5
 16
0.0
 26
-1.0
 36
0.0
 17
0.0
 27
0.0
 37
0.0
 40
1319.143726
 41
0.013461
 42
50.0
 43
679.601336
 44
-679.601336
 50
0.0
 51
0.0
 71
     0
 72
   100
 73
     1
 74
     3
 75
     0
 76
     0
 77
     0
 78
     0
281
     0
 65
     1
110
0.0
120
0.0
130
0.0
111
1.0
121
0.0
131
0.0
112
0.0
122
1.0
132
0.0
 79
     0
146
0.0
  0
VPORT
  5
2A1
330
8
100
AcDbSymbolTableRecord
100
AcDbViewportTableRecord
  2
L2
 70
     0
 10
0.5
 20
0.0
 11
1.0
 21
1.0
 12
0.0
 22
0.0
 13
0.0
 23
0.0
 14
0.5
 24
0.5
 15
0.5
 25
0.5
 16
1.0
 26
0.0
 36
0.0
 17
0.0
 27
0.0
 37
0.0
 40
1319.143726
 41
0.013461
 42
50.0
 43
667.6767099999999
 44
-667.6767099999999
 50
0.0
 51
0.0
 71
     0
 72
   100
 73
     1
 74
     3
 75
     0
 76
     0
 77
     0
 78
     0
281
     0
 65
     1
110
0.0
120
0.0
130
0.0
111
1.0
121
0.0
131
0.0
112
0.0
122
1.0
132
0.0
 79
     0
146
0.0
  0
VPORT
  5
2A2
330
8
100
AcDbSymbolTableRecord
100
AcDbViewportTableRecord
  2
L3
 70
     0
 10
0.0
 20
0.5
 11
1.0
 21
1.0
 12
274.958839
 22
233.581599
 13
0.0
 23
0.0
 14
0.5
 24
0.5
 15
0.5
 25
0.5
 16
0.0
 26
0.0
 36
1.0
 17
0.0
 27
0.0
 37
0.0
 40
207.433333
 41
0.085602
 42
50.0
 43
361.292455
 44
-361.292455
 50
0.0
 51
0.0
 71
     0
 72
   100
 73
     1
 74
     3
 75
     0
 76
     0
 77
     0
 78
     0
281
     0
 65
     1
110
0.0
120
0.0
130
0.0
111
1.0
121
0.0
131
0.0
112
0.0
122
1.0
132
0.0
 79
     0
146
0.0
  0
VPORT
  5
2A3
330
8
100
AcDbSymbolTableRecord
100
AcDbViewportTableRecord
  2
L3
 70
     0
 10
0.0
 20
0.0
 11
1.0
 21
0.5
 12
0.0
 22
0.0
 13
0.0
 23
0.0
 14
0.5
 24
0.5
 15
0.5
 25
0.5
 16
0.0
 26
-1.0
 36
0.0
 17
0.0
 27
0.0
 37
0.0
 40
1319.143726
 41
0.013461
 42
50.0
 43
679.601336
 44
-679.601336
 50
0.0
 51
0.0
 71
     0
 72
   100
 73
     1
 74
     3
 75
     0
 76
     0
 77
     0
 78
     0
281
     0
 65
     1
110
0.0
120
0.0
130
0.0
111
1.0
121
0.0
131
0.0
112
0.0
122
1.0
132
0.0
 79
     0
146
0.0
  0
VPORT
  5
2A4
330
8
100
AcDbSymbolTableRecord
100
AcDbViewportTableRecord
  2
L4
 70
     0
 10
0.0
 20
0.5
 11
0.5
 21
1.0
 12
274.958839
 22
233.581599
 13
0.0
 23
0.0
 14
0.5
 24
0.5
 15
0.5
 25
0.5
 16
0.0
 26
0.0
 36
1.0
 17
0.0
 27
0.0
 37
0.0
 40
207.433333
 41
0.085602
 42
50.0
 43
361.292455
 44
-361.292455
 50
0.0
 51
0.0
 71
     0
 72
   100
 73
     1
 74
     3
 75
     0
 76
     0
 77
     0
 78
     0
281
     0
 65
     1
110
0.0
120
0.0
130
0.0
111
1.0
121
0.0
131
0.0
112
0.0
122
1.0
132
0.0
 79
     0
146
0.0
  0
VPORT
  5
2A5
330
8
100
AcDbSymbolTableRecord
100
AcDbViewportTableRecord
  2
L4
 70
     0
 10
0.0
 20
0.0
 11
0.5
 21
0.5
 12
0.0
 22
0.0
 13
0.0
 23
0.0
 14
0.5
 24
0.5
 15
0.5
 25
0.5
 16
0.0
 26
-1.0
 36
0.0
 17
0.0
 27
0.0
 37
0.0
 40
1319.143726
 41
0.013461
 42
50.0
 43
679.601336
 44
-679.601336
 50
0.0
 51
0.0
 71
     0
 72
   100
 73
     1
 74
     3
 75
     0
 76
     0
 77
     0
 78
     0
281
     0
 65
     1
110
0.0
120
0.0
130
0.0
111
1.0
121
0.0
131
0.0
112
0.0
122
1.0
132
0.0
 79
     0
146
0.0
  0
VPORT
  5
2A6
330
8
100
AcDbSymbolTableRecord
100
AcDbViewportTableRecord
  2
L4
 70
     0
 10
0.5
 20
0.0
 11
1.0
 21
0.5
 12
0.0
 22
0.0
 13
0.0
 23
0.0
 14
0.5
 24
0.5
 15
0.5
 25
0.5
 16
1.0
 26
0.0
 36
0.0
 17
0.0
 27
0.0
 37
0.0
 40
1319.143726
 41
0.013461
 42
50.0
 43
667.6767099999999
 44
-667.6767099999999
 50
0.0
 51
0.0
 71
     0
 72
   100
 73
     1
 74
     3
 75
     0
 76
     0
 77
     0
 78
     0
281
     0
 65
     1
110
0.0
120
0.0
130
0.0
111
1.0
121
0.0
131
0.0
112
0.0
122
1.0
132
0.0
 79
     0
146
0.0
  0
VPORT
  5
2A7
330
8
100
AcDbSymbolTableRecord
100
AcDbViewportTableRecord
  2
L4
 70
     0
 10
0.5
 20
0.5
 11
1.0
 21
1.0
 12
0.0
 22
0.0
 13
0.0
 23
0.0
 14
0.5
 24
0.5
 15
0.5
 25
0.5
 16
0.5773502691896259
 26
-0.5773502691896259
 36
0.5773502691896259
 17
0.0
 27
0.0
 37
0.0
 40
1295.484074
 41
0.013707
 42
50.0
 43
674.79345
 44
-674.79345
 50
0.0
 51
0.0
 71
     0
 72
   100
 73
     1
 74
     3
 75
     0
 76
     0
 77
     0
 78
     0
281
     0
 65
     1
110
0.0
120
0.0
130
0.0
111
1.0
121
0.0
131
0.0
112
0.0
122
1.0
132
0.0
 79
     0
146
0.0
  0
VPORT
  5
2A8
330
8
100
AcDbSymbolTableRecord
100
AcDbViewportTableRecord
  2
L6
 70
     0
 10
0.0
 20
0.5
 11
0.333333
 21
1.0
 12
0.0
 22
0.0
 13
0.0
 23
0.0
 14
0.5
 24
0.5
 15
0.5
 25
0.5
 16
0.7188730927569434
 26
-0.5850486126764433
 36
0.3754192287502549
 17
0.0
 27
0.0
 37
0.0
 40
1367.187154
 41
0.012988
 42
50.0
 43
707.8776949999999
 44
-707.8776949999999
 50
0.0
 51
0.0
 71
     0
 72
   100
 73
     1
 74
     3
 75
     0
 76
     0
 77
     0
 78
     0
281
     0
 65
     1
110
0.0
120
0.0
130
0.0
111
1.0
121
0.0
131
0.0
112
0.0
122
1.0
132
0.0
 79
     0
146
0.0
  0
VPORT
  5
2A9
330
8
100
AcDbSymbolTableRecord
100
AcDbViewportTableRecord
  2
L6
 70
     0
 10
0.0
 20
0.0
 11
0.333333
 21
0.5
 12
0.0
 22
0.0
 13
0.0
 23
0.0
 14
0.5
 24
0.5
 15
0.5
 25
0.5
 16
-1.0
 26
0.0
 36
0.0
 17
0.0
 27
0.0
 37
0.0
 40
1319.143726
 41
0.013461
 42
50.0
 43
667.6767099999999
 44
-667.6767099999999
 50
0.0
 51
0.0
 71
     0
 72
   100
 73
     1
 74
     3
 75
     0
 76
     0
 77
     0
 78
     0
281
     0
 65
     1
110
0.0
120
0.0
130
0.0
111
1.0
121
0.0
131
0.0
112
0.0
122
1.0
132
0.0
 79
     0
146
0.0
  0
VPORT
  5
2AA
330
8
100
AcDbSymbolTableRecord
100
AcDbViewportTableRecord
  2
L6
 70
     0
 10
0.333333
 20
0.5
 11
0.666667
 21
1.0
 12
274.958839
 22
233.581599
 13
0.0
 23
0.0
 14
0.5
 24
0.5
 15
0.5
 25
0.5
 16
0.0
 26
0.0
 36
1.0
 17
0.0
 27
0.0
 37
0.0
 40
207.433333
 41
0.085602
 42
50.0
 43
361.292455
 44
-361.292455
 50
0.0
 51
0.0
 71
     0
 72
   100
 73
     1
 74
     3
 75
     0
 76
     0
 77
     0
 78
     0
281
     0
 65
     1
110
0.0
120
0.0
130
0.0
111
1.0
121
0.0
131
0.0
112
0.0
122
1.0
132
0.0
 79
     0
146
0.0
  0
VPORT
  5
2AB
330
8
100
AcDbSymbolTableRecord
100
AcDbViewportTableRecord
  2
L6
 70
     0
 10
0.333333
 20
0.0
 11
0.666667
 21
0.5
 12
0.0
 22
0.0
 13
0.0
 23
0.0
 14
0.5
 24
0.5
 15
0.5
 25
0.5
 16
0.0
 26
-1.0
 36
0.0
 17
0.0
 27
0.0
 37
0.0
 40
1319.143726
 41
0.013461
 42
50.0
 43
679.601336
 44
-679.601336
 50
0.0
 51
0.0
 71
     0
 72
   100
 73
     1
 74
     3
 75
     0
 76
     0
 77
     0
 78
     0
281
     0
 65
     1
110
0.0
120
0.0
130
0.0
111
1.0
121
0.0
131
0.0
112
0.0
122
1.0
132
0.0
 79
     0
146
0.0
  0
VPORT
  5
2AC
330
8
100
AcDbSymbolTableRecord
100
AcDbViewportTableRecord
  2
L6
 70
     0
 10
0.666667
 20
0.5
 11
1.0
 21
1.0
 12
0.0
 22
0.0
 13
0.0
 23
0.0
 14
0.5
 24
0.5
 15
0.5
 25
0.5
 16
0.5773502691896259
 26
-0.5773502691896259
 36
0.5773502691896259
 17
0.0
 27
0.0
 37
0.0
 40
1295.484074
 41
0.013707
 42
50.0
 43
674.79345
 44
-674.79345
 50
0.0
 51
0.0
 71
     0
 72
   100
 73
     1
 74
     3
 75
     0
 76
     0
 77
     0
 78
     0
281
     0
 65
     1
110
0.0
120
0.0
130
0.0
111
1.0
121
0.0
131
0.0
112
0.0
122
1.0
132
0.0
 79
     0
146
0.0
  0
VPORT
  5
2AD
330
8
100
AcDbSymbolTableRecord
100
AcDbViewportTableRecord
  2
L6
 70
     0
 10
0.666667
 20
0.0
 11
1.0
 21
0.5
 12
0.0
 22
0.0
 13
0.0
 23
0.0
 14
0.5
 24
0.5
 15
0.5
 25
0.5
 16
1.0
 26
0.0
 36
0.0
 17
0.0
 27
0.0
 37
0.0
 40
1319.143726
 41
0.013461
 42
50.0
 43
667.6767099999999
 44
-667.6767099999999
 50
0.0
 51
0.0
 71
     0
 72
   100
 73
     1
 74
     3
 75
     0
 76
     0
 77
     0
 78
     0
281
     0
 65
     1
110
0.0
120
0.0
130
0.0
111
1.0
121
0.0
131
0.0
112
0.0
122
1.0
132
0.0
 79
     0
146
0.0
  0
ENDTAB
  0
TABLE
  2
LTYPE
  5
5
330
0
100
AcDbSymbolTable
 70
     7
  0
LTYPE
  5
14
330
5
100
AcDbSymbolTableRecord
100
AcDbLinetypeTableRecord
  2
ByBlock
 70
     0
  3

 72
    65
 73
     0
 40
0.0
  0
LTYPE
  5
15
330
5
100
AcDbSymbolTableRecord
100
AcDbLinetypeTableRecord
  2
ByLayer
 70
     0
  3

 72
    65
 73
     0
 40
0.0
  0
LTYPE
  5
16
330
5
100
AcDbSymbolTableRecord
100
AcDbLinetypeTableRecord
  2
Continuous
 70
     0
  3
Solid line
 72
    65
 73
     0
 40
0.0
  0
LTYPE
  5
6E
330
5
100
AcDbSymbolTableRecord
100
AcDbLinetypeTableRecord
  2
CENTER
 70
     0
  3
____ _ ____ _ ____ _ ____
 72
    65
 73
     4
 40
47.4
 49
22.0
 74
     4
 75
     0
340
0
 46
0.0
 50
0.0
 44
0.0
 45
0.0
 49
-8.5
 74
     4
 75
     0
340
0
 46
0.0
 50
0.0
 44
0.0
 45
0.0
 49
8.5
 74
     4
 75
     0
340
0
 46
0.0
 50
0.0
 44
0.0
 45
0.0
 49
-8.5
 74
     4
 75
     0
340
0
 46
0.0
 50
0.0
 44
0.0
 45
0.0
  0
LTYPE
  5
6F
330
5
100
AcDbSymbolTableRecord
100
AcDbLinetypeTableRecord
  2
DASHDOT
 70
     0
  3
_._._._._._._._._._._._._._._._.
 72
    65
 73
     4
 40
70.0
 49
31.0
 74
     4
 75
     0
340
0
 46
0.0
 50
0.0
 44
0.0
 45
0.0
 49
-13.0
 74
     4
 75
     0
340
0
 46
0.0
 50
0.0
 44
0.0
 45
0.0
 49
13.0
 74
     4
 75
     0
340
0
 46
0.0
 50
0.0
 44
0.0
 45
0.0
 49
-13.0
 74
     4
 75
     0
340
0
 46
0.0
 50
0.0
 44
0.0
 45
0.0
  0
LTYPE
  5
70
330
5
100
AcDbSymbolTableRecord
100
AcDbLinetypeTableRecord
  2
DASHED
 70
     0
  3
__ __ __ __ __ __ __ __ __
 72
    65
 73
     2
 40
25.72
 49
12.86
 74
     4
 75
     0
340
0
 46
0.0
 50
0.0
 44
0.0
 45
0.0
 49
-12.86
 74
     4
 75
     0
340
0
 46
0.0
 50
0.0
 44
0.0
 45
0.0
  0
LTYPE
  5
71
330
5
100
AcDbSymbolTableRecord
100
AcDbLinetypeTableRecord
  2
DOT
 70
     0
  3
.........................
 72
    65
 73
     2
 40
10.0
 49
0.0
 74
     4
 75
     0
340
0
 46
0.0
 50
0.0
 44
0.0
 45
0.0
 49
-10.0
 74
     4
 75
     0
340
0
 46
0.0
 50
0.0
 44
0.0
 45
0.0
  0
LTYPE
  5
72
330
5
100
AcDbSymbolTableRecord
100
AcDbLinetypeTableRecord
  2
PHANTOM
 70
     0
  3
____ _ _ ____ _ _ _____ _ _ ____
 72
    65
 73
     6
 40
50.5
 49
18.0
 74
     4
 75
     0
340
0
 46
0.0
 50
0.0
 44
0.0
 45
0.0
 49
-6.5
 74
     4
 75
     0
340
0
 46
0.0
 50
0.0
 44
0.0
 45
0.0
 49
6.5
 74
     4
 75
     0
340
0
 46
0.0
 50
0.0
 44
0.0
 45
0.0
 49
-6.5
 74
     4
 75
     0
340
0
 46
0.0
 50
0.0
 44
0.0
 45
0.0
 49
6.5
 74
     4
 75
     0
340
0
 46
0.0
 50
0.0
 44
0.0
 45
0.0
 49
-6.5
 74
     4
 75
     0
340
0
 46
0.0
 50
0.0
 44
0.0
 45
0.0
  0
LTYPE
  5
33D
330
5
100
AcDbSymbolTableRecord
100
AcDbLinetypeTableRecord
  2
CENTER2
 70
     0
  3
Center (.5x) ___ _ ___ _ ___ _ ___ _ ___ _ ___
 72
    65
 73
     4
 40
1.125
 49
0.75
 74
     0
 49
-0.125
 74
     0
 49
0.125
 74
     0
 49
-0.125
 74
     0
  0
ENDTAB
  0
TABLE
  2
LAYER
  5
2
330
0
100
AcDbSymbolTable
 70
    22
  0
LAYER
  5
10
102
{ACAD_XDICTIONARY
360
348
102
}
330
2
100
AcDbSymbolTableRecord
100
AcDbLayerTableRecord
  2
0
 70
     0
 62
     7
  6
Continuous
370
    -3
390
F
  0
LAYER
  5
1F9
330
2
100
AcDbSymbolTableRecord
100
AcDbLayerTableRecord
  2
Defpoints
 70
     0
 62
     7
  6
Continuous
290
     0
370
    -3
390
F
  0
LAYER
  5
33A
102
{ACAD_XDICTIONARY
360
34A
102
}
330
2
100
AcDbSymbolTableRecord
100
AcDbLayerTableRecord
  2
1
 70
     0
 62
     4
  6
Continuous
370
    -3
390
F
  0
LAYER
  5
33B
102
{ACAD_XDICTIONARY
360
34C
102
}
330
2
100
AcDbSymbolTableRecord
100
AcDbLayerTableRecord
  2
2
 70
     0
 62
     7
  6
Continuous
370
    -3
390
F
  0
LAYER
  5
33C
102
{ACAD_XDICTIONARY
360
34E
102
}
330
2
100
AcDbSymbolTableRecord
100
AcDbLayerTableRecord
  2
4
 70
     0
 62
     2
  6
CENTER2
370
    -3
390
F
  0
LAYER
  5
33E
102
{ACAD_XDICTIONARY
360
350
102
}
330
2
100
AcDbSymbolTableRecord
100
AcDbLayerTableRecord
  2
SK1
 70
     0
 62
     4
  6
Continuous
370
    -3
390
F
  0
LAYER
  5
33F
102
{ACAD_XDICTIONARY
360
352
102
}
330
2
100
AcDbSymbolTableRecord
100
AcDbLayerTableRecord
  2
SK2
 70
     0
 62
     7
  6
Continuous
370
    -3
390
F
  0
LAYER
  5
341
102
{ACAD_XDICTIONARY
360
354
102
}
330
2
100
AcDbSymbolTableRecord
100
AcDbLayerTableRecord
  2
SK4
 70
     0
 62
     2
  6
CENTER2
370
    -3
390
F
  0
LAYER
  5
342
102
{ACAD_XDICTIONARY
360
356
102
}
330
2
100
AcDbSymbolTableRecord
100
AcDbLayerTableRecord
  2
SK6
 70
     0
 62
     5
  6
Continuous
370
    -3
390
F
  0
LAYER
  5
343
102
{ACAD_XDICTIONARY
360
358
102
}
330
2
100
AcDbSymbolTableRecord
100
AcDbLayerTableRecord
  2
CUT
 70
     0
 62
     1
  6
Continuous
370
    -3
390
F
  0
LAYER
  5
344
102
{ACAD_XDICTIONARY
360
35A
102
}
330
2
100
AcDbSymbolTableRecord
100
AcDbLayerTableRecord
  2
NOCUT
 70
     0
 62
     7
  6
Continuous
370
    -3
390
F
  0
LAYER
  5
345
102
{ACAD_XDICTIONARY
360
35C
102
}
330
2
100
AcDbSymbolTableRecord
100
AcDbLayerTableRecord
  2
80
 70
     0
 62
     6
  6
Continuous
370
    -3
390
F
  0
LAYER
  5
346
102
{ACAD_XDICTIONARY
360
35E
102
}
330
2
100
AcDbSymbolTableRecord
100
AcDbLayerTableRecord
  2
81
 70
     0
 62
     3
  6
Continuous
370
    -3
390
F
  0
ENDTAB
  0
TABLE
  2
STYLE
  5
3
330
0
100
AcDbSymbolTable
 70
     3
  0
STYLE
  5
11
330
3
100
AcDbSymbolTableRecord
100
AcDbTextStyleTableRecord
  2
Standard
 70
     0
 40
0.0
 41
1.0
 50
0.0
 71
     0
 42
0.2
  3
txt
  4

  0
STYLE
  5
1ED
330
3
100
AcDbSymbolTableRecord
100
AcDbTextStyleTableRecord
  2
cesky
 70
     0
 40
0.0
 41
1.0
 50
0.0
 71
     0
 42
0.2
  3
simplex.shx
  4

  0
STYLE
  5
1EE
330
3
100
AcDbSymbolTableRecord
100
AcDbTextStyleTableRecord
  2
DWGDirectTextStyle
 70
     0
 40
0.0
 41
1.0
 50
0.0
 71
     0
 42
0.2
  3
simplex
  4

  0
ENDTAB
  0
TABLE
  2
VIEW
  5
6
330
0
100
AcDbSymbolTable
 70
     0
  0
ENDTAB
  0
TABLE
  2
UCS
  5
7
330
0
100
AcDbSymbolTable
 70
     0
  0
ENDTAB
  0
TABLE
  2
APPID
  5
9
330
0
100
AcDbSymbolTable
 70
     7
  0
APPID
  5
12
330
9
100
AcDbSymbolTableRecord
100
AcDbRegAppTableRecord
  2
ACAD
 70
     0
  0
APPID
  5
1F5
330
9
100
AcDbSymbolTableRecord
100
AcDbRegAppTableRecord
  2
ACAD_DSTYLE_DIMBREAK
 70
     0
  0
APPID
  5
2AE
330
9
100
AcDbSymbolTableRecord
100
AcDbRegAppTableRecord
  2
ACAD_DSTYLE_DIM_LINETYPE
 70
     0
  0
APPID
  5
2AF
330
9
100
AcDbSymbolTableRecord
100
AcDbRegAppTableRecord
  2
ACAD_DSTYLE_DIM_EXT1_LINETYPE
 70
     0
  0
APPID
  5
2B0
330
9
100
AcDbSymbolTableRecord
100
AcDbRegAppTableRecord
  2
ACAD_DSTYLE_DIM_EXT2_LINETYPE
 70
     0
  0
APPID
  5
2F0
330
9
100
AcDbSymbolTableRecord
100
AcDbRegAppTableRecord
  2
ACAD_MLEADERVER
 70
     0
  0
APPID
  5
363
330
9
100
AcDbSymbolTableRecord
100
AcDbRegAppTableRecord
  2
ACAD_NAV_VCDISPLAY
 70
     0
  0
ENDTAB
  0
TABLE
  2
DIMSTYLE
  5
A
330
0
100
AcDbSymbolTable
 70
     1
100
AcDbDimStyleTable
 71
     0
  0
DIMSTYLE
105
27
330
A
100
AcDbSymbolTableRecord
100
AcDbDimStyleTableRecord
  2
Standard
 70
     0
340
11
1001
ACAD_DSTYLE_DIMBREAK
1070
   391
1040
6.349999999999999
  0
ENDTAB
  0
TABLE
  2
BLOCK_RECORD
  5
1
330
0
100
AcDbSymbolTable
 70
    16
  0
BLOCK_RECORD
  5
1F
102
{ACAD_XDICTIONARY
360
300
102
}
330
1
100
AcDbSymbolTableRecord
100
AcDbBlockTableRecord
  2
*Model_Space
340
22
  0
BLOCK_RECORD
  5
1B
330
1
100
AcDbSymbolTableRecord
100
AcDbBlockTableRecord
  2
*Paper_Space
340
1E
  0
BLOCK_RECORD
  5
23
330
1
100
AcDbSymbolTableRecord
100
AcDbBlockTableRecord
  2
*Paper_Space0
340
26
  0
BLOCK_RECORD
  5
1F0
330
1
100
AcDbSymbolTableRecord
100
AcDbBlockTableRecord
  2
ASSORTED_DRAFT1
340
0
  0
BLOCK_RECORD
  5
1FA
330
1
100
AcDbSymbolTableRecord
100
AcDbBlockTableRecord
  2
*D2
340
0
  0
BLOCK_RECORD
  5
206
330
1
100
AcDbSymbolTableRecord
100
AcDbBlockTableRecord
  2
_U0
340
0
  0
BLOCK_RECORD
  5
212
330
1
100
AcDbSymbolTableRecord
100
AcDbBlockTableRecord
  2
*D4
340
0
  0
BLOCK_RECORD
  5
21E
330
1
100
AcDbSymbolTableRecord
100
AcDbBlockTableRecord
  2
_U1
340
0
  0
BLOCK_RECORD
  5
22A
330
1
100
AcDbSymbolTableRecord
100
AcDbBlockTableRecord
  2
*D6
340
0
  0
BLOCK_RECORD
  5
236
330
1
100
AcDbSymbolTableRecord
100
AcDbBlockTableRecord
  2
_U2
340
0
  0
BLOCK_RECORD
  5
242
330
1
100
AcDbSymbolTableRecord
100
AcDbBlockTableRecord
  2
*D8
340
0
  0
BLOCK_RECORD
  5
24D
330
1
100
AcDbSymbolTableRecord
100
AcDbBlockTableRecord
  2
_U3
340
0
  0
BLOCK_RECORD
  5
258
330
1
100
AcDbSymbolTableRecord
100
AcDbBlockTableRecord
  2
*D10
340
0
  0
BLOCK_RECORD
  5
264
330
1
100
AcDbSymbolTableRecord
100
AcDbBlockTableRecord
  2
_U4
340
0
  0
BLOCK_RECORD
  5
271
330
1
100
AcDbSymbolTableRecord
100
AcDbBlockTableRecord
  2
*D12
340
0
  0
BLOCK_RECORD
  5
27D
330
1
100
AcDbSymbolTableRecord
100
AcDbBlockTableRecord
  2
_U5
340
0
  0
BLOCK_RECORD
  5
28A
330
1
100
AcDbSymbolTableRecord
100
AcDbBlockTableRecord
  2
*D14
340
0
  0
BLOCK_RECORD
  5
296
330
1
100
AcDbSymbolTableRecord
100
AcDbBlockTableRecord
  2
_U6
340
0
  0
ENDTAB
  0
ENDSEC
  0
SECTION
  2
BLOCKS
  0
BLOCK
  5
20
330
1F
100
AcDbEntity
  8
0
100
AcDbBlockBegin
  2
*Model_Space
 70
     0
 10
0.0
 20
0.0
 30
0.0
  3
*Model_Space
  1

  0
ENDBLK
  5
21
330
1F
100
AcDbEntity
  8
0
100
AcDbBlockEnd
  0
BLOCK
  5
1C
330
1B
100
AcDbEntity
 67
     1
  8
0
100
AcDbBlockBegin
  2
*Paper_Space
 70
     0
 10
0.0
 20
0.0
 30
0.0
  3
*Paper_Space
  1

  0
ENDBLK
  5
1D
330
1B
100
AcDbEntity
 67
     1
  8
0
100
AcDbBlockEnd
  0
BLOCK
  5
24
330
23
100
AcDbEntity
 67
     1
  8
0
100
AcDbBlockBegin
  2
*Paper_Space0
 70
     0
 10
0.0
 20
0.0
 30
0.0
  3
*Paper_Space0
  1

  0
ENDBLK
  5
25
330
23
100
AcDbEntity
 67
     1
  8
0
100
AcDbBlockEnd
  0
BLOCK
  5
1F3
330
1F0
100
AcDbEntity
  8
0
100
AcDbBlockBegin
  2
ASSORTED_DRAFT1
 70
     0
 10
0.0
 20
0.0
 30
0.0
  3
ASSORTED_DRAFT1
  1

  0
SOLID
  5
1F1
330
1F0
100
AcDbEntity
  8
0
 62
   254
370
    13
100
AcDbTrace
 10
270.185042
 20
162.101237
 30
0.0
 11
265.185046
 21
160.992764
 31
0.0
 12
265.1850379999999
 22
163.209711
 32
0.0
 13
270.185042
 23
162.101237
 33
0.0
  0
ENDBLK
  5
1F4
330
1F0
100
AcDbEntity
  8
0
100
AcDbBlockEnd
  0
BLOCK
  5
1FB
330
1FA
100
AcDbEntity
  8
0
100
AcDbBlockBegin
  2
*D2
 70
     1
 10
0.0
 20
0.0
 30
0.0
  3
*D2
  1

  0
LINE
  5
1FD
330
1FA
100
AcDbEntity
  8
0
 62
   254
370
    -2
100
AcDbLine
 10
347.404842
 20
302.907994
 30
0.0
 11
347.404842
 21
341.687968
 31
0.0
  0
LINE
  5
1FE
330
1FA
100
AcDbEntity
  8
0
 62
   254
370
    -2
100
AcDbLine
 10
218.404842
 20
299.407994
 30
0.0
 11
218.404842
 21
341.687968
 31
0.0
  0
LINE
  5
1FF
330
1FA
100
AcDbEntity
  8
0
 62
   254
370
    -2
100
AcDbLine
 10
343.904842
 20
340.687968
 30
0.0
 11
221.904842
 21
340.687968
 31
0.0
  0
SOLID
  5
200
330
1FA
100
AcDbEntity
  8
0
 62
   254
100
AcDbTrace
 10
343.904842
 20
340.104634
 30
0.0
 11
343.904842
 21
341.271301
 31
0.0
 12
347.404842
 22
340.687968
 32
0.0
 13
347.404842
 23
340.687968
 33
0.0
  0
SOLID
  5
201
330
1FA
100
AcDbEntity
  8
0
 62
   254
100
AcDbTrace
 10
221.904842
 20
341.271301
 30
0.0
 11
221.904842
 21
340.104634
 31
0.0
 12
218.404842
 22
340.687968
 32
0.0
 13
218.404842
 23
340.687968
 33
0.0
  0
MTEXT
  5
202
330
1FA
100
AcDbEntity
  8
0
 62
   254
370
    13
100
AcDbMText
 10
282.904842
 20
345.937968
 30
0.0
 40
3.5
 41
0.0
 71
     5
 72
     1
  1
\A1;129
  7
cesky
 73
     1
 44
1.0
  0
POINT
  5
203
330
1FA
100
AcDbEntity
  8
Defpoints
 62
     0
100
AcDbPoint
 10
347.404842
 20
302.907994
 30
0.0
  0
POINT
  5
204
330
1FA
100
AcDbEntity
  8
Defpoints
 62
     0
100
AcDbPoint
 10
218.404842
 20
299.407994
 30
0.0
  0
POINT
  5
205
330
1FA
100
AcDbEntity
  8
Defpoints
 62
     0
100
AcDbPoint
 10
218.404842
 20
340.687968
 30
0.0
  0
ENDBLK
  5
1FC
330
1FA
100
AcDbEntity
  8
0
100
AcDbBlockEnd
  0
BLOCK
  5
20D
330
206
100
AcDbEntity
  8
0
100
AcDbBlockBegin
  2
_U0
 70
     0
 10
0.0
 20
0.0
 30
0.0
  3
_U0
  1

  0
ENDBLK
  5
20E
330
206
100
AcDbEntity
  8
0
100
AcDbBlockEnd
  0
BLOCK
  5
213
330
212
100
AcDbEntity
  8
0
100
AcDbBlockBegin
  2
*D4
 70
     1
 10
0.0
 20
0.0
 30
0.0
  3
*D4
  1

  0
LINE
  5
215
330
212
100
AcDbEntity
  8
0
 62
   254
370
    -2
100
AcDbLine
 10
274.404842
 20
288.907994
 30
0.0
 11
274.404842
 21
328.5109970000001
 31
0.0
  0
LINE
  5
216
330
212
100
AcDbEntity
  8
0
 62
   254
370
    -2
100
AcDbLine
 10
218.404842
 20
294.157994
 30
0.0
 11
218.404842
 21
328.5109970000001
 31
0.0
  0
LINE
  5
217
330
212
100
AcDbEntity
  8
0
 62
   254
370
    -2
100
AcDbLine
 10
270.904842
 20
327.510997
 30
0.0
 11
221.904842
 21
327.510997
 31
0.0
  0
SOLID
  5
218
330
212
100
AcDbEntity
  8
0
 62
   254
100
AcDbTrace
 10
270.904842
 20
326.927663
 30
0.0
 11
270.904842
 21
328.09433
 31
0.0
 12
274.404842
 22
327.510997
 32
0.0
 13
274.404842
 23
327.510997
 33
0.0
  0
SOLID
  5
219
330
212
100
AcDbEntity
  8
0
 62
   254
100
AcDbTrace
 10
221.904842
 20
328.09433
 30
0.0
 11
221.904842
 21
326.927663
 31
0.0
 12
218.404842
 22
327.510997
 32
0.0
 13
218.404842
 23
327.510997
 33
0.0
  0
MTEXT
  5
21A
330
212
100
AcDbEntity
  8
0
 62
   254
370
    13
100
AcDbMText
 10
246.404842
 20
332.7609970000001
 30
0.0
 40
3.5
 41
0.0
 71
     5
 72
     1
  1
\A1;56
  7
cesky
 73
     1
 44
1.0
  0
POINT
  5
21B
330
212
100
AcDbEntity
  8
Defpoints
 62
     0
100
AcDbPoint
 10
274.404842
 20
288.907994
 30
0.0
  0
POINT
  5
21C
330
212
100
AcDbEntity
  8
Defpoints
 62
     0
100
AcDbPoint
 10
218.404842
 20
294.157994
 30
0.0
  0
POINT
  5
21D
330
212
100
AcDbEntity
  8
Defpoints
 62
     0
100
AcDbPoint
 10
218.404842
 20
327.510997
 30
0.0
  0
ENDBLK
  5
214
330
212
100
AcDbEntity
  8
0
100
AcDbBlockEnd
  0
BLOCK
  5
225
330
21E
100
AcDbEntity
  8
0
100
AcDbBlockBegin
  2
_U1
 70
     0
 10
0.0
 20
0.0
 30
0.0
  3
_U1
  1

  0
ENDBLK
  5
226
330
21E
100
AcDbEntity
  8
0
100
AcDbBlockEnd
  0
BLOCK
  5
22B
330
22A
100
AcDbEntity
  8
0
100
AcDbBlockBegin
  2
*D6
 70
     1
 10
0.0
 20
0.0
 30
0.0
  3
*D6
  1

  0
LINE
  5
22D
330
22A
100
AcDbEntity
  8
0
 62
   254
370
    -2
100
AcDbLine
 10
347.404842
 20
300.907994
 30
0.0
 11
347.404842
 21
317.637587
 31
0.0
  0
LINE
  5
22E
330
22A
100
AcDbEntity
  8
0
 62
   254
370
    -2
100
AcDbLine
 10
290.405193
 20
300.745081
 30
0.0
 11
290.405193
 21
317.637587
 31
0.0
  0
LINE
  5
22F
330
22A
100
AcDbEntity
  8
0
 62
   254
370
    -2
100
AcDbLine
 10
343.904842
 20
316.637587
 30
0.0
 11
293.905193
 21
316.637587
 31
0.0
  0
SOLID
  5
230
330
22A
100
AcDbEntity
  8
0
 62
   254
100
AcDbTrace
 10
343.904842
 20
316.054254
 30
0.0
 11
343.904842
 21
317.220921
 31
0.0
 12
347.404842
 22
316.637587
 32
0.0
 13
347.404842
 23
316.637587
 33
0.0
  0
SOLID
  5
231
330
22A
100
AcDbEntity
  8
0
 62
   254
100
AcDbTrace
 10
293.905193
 20
317.220921
 30
0.0
 11
293.905193
 21
316.054254
 31
0.0
 12
290.405193
 22
316.637587
 32
0.0
 13
290.405193
 23
316.637587
 33
0.0
  0
MTEXT
  5
232
330
22A
100
AcDbEntity
  8
0
 62
   254
370
    13
100
AcDbMText
 10
318.9050180000001
 20
321.887587
 30
0.0
 40
3.5
 41
0.0
 71
     5
 72
     1
  1
\A1;57
  7
cesky
 73
     1
 44
1.0
  0
POINT
  5
233
330
22A
100
AcDbEntity
  8
Defpoints
 62
     0
100
AcDbPoint
 10
347.404842
 20
300.907994
 30
0.0
  0
POINT
  5
234
330
22A
100
AcDbEntity
  8
Defpoints
 62
     0
100
AcDbPoint
 10
290.405193
 20
300.745081
 30
0.0
  0
POINT
  5
235
330
22A
100
AcDbEntity
  8
Defpoints
 62
     0
100
AcDbPoint
 10
290.405193
 20
316.637587
 30
0.0
  0
ENDBLK
  5
22C
330
22A
100
AcDbEntity
  8
0
100
AcDbBlockEnd
  0
BLOCK
  5
23D
330
236
100
AcDbEntity
  8
0
100
AcDbBlockBegin
  2
_U2
 70
     0
 10
0.0
 20
0.0
 30
0.0
  3
_U2
  1

  0
ENDBLK
  5
23E
330
236
100
AcDbEntity
  8
0
100
AcDbBlockEnd
  0
BLOCK
  5
243
330
242
100
AcDbEntity
  8
0
100
AcDbBlockBegin
  2
*D8
 70
     1
 10
0.0
 20
0.0
 30
0.0
  3
*D8
  1

  0
LINE
  5
245
330
242
100
AcDbEntity
  8
0
 62
   254
370
    -2
100
AcDbLine
 10
292.032259
 20
288.907994
 30
0.0
 11
364.492201
 21
288.907994
 31
0.0
  0
LINE
  5
246
330
242
100
AcDbEntity
  8
0
 62
   254
370
    -2
100
AcDbLine
 10
330.83929
 20
300.907994
 30
0.0
 11
364.492201
 21
300.907994
 31
0.0
  0
LINE
  5
247
330
242
100
AcDbEntity
  8
0
 62
   254
370
    -2
100
AcDbLine
 10
363.492201
 20
304.407994
 30
0.0
 11
363.492201
 21
307.907994
 31
0.0
  0
SOLID
  5
248
330
242
100
AcDbEntity
  8
0
 62
   254
100
AcDbTrace
 10
362.9088680000001
 20
304.407994
 30
0.0
 11
364.075535
 21
304.407994
 31
0.0
 12
363.492201
 22
300.907994
 32
0.0
 13
363.492201
 23
300.907994
 33
0.0
  0
MTEXT
  5
249
330
242
100
AcDbEntity
  8
0
 62
   254
370
    13
100
AcDbMText
 10
358.242201
 20
275.491327
 30
0.0
 40
3.5
 41
0.0
 71
     5
 72
     1
  1
\A1;24
  7
cesky
 11
0.0
 21
1.0
 31
0.0
 73
     1
 44
1.0
  0
POINT
  5
24A
330
242
100
AcDbEntity
  8
Defpoints
 62
     0
100
AcDbPoint
 10
292.032259
 20
288.907994
 30
0.0
  0
POINT
  5
24B
330
242
100
AcDbEntity
  8
Defpoints
 62
     0
100
AcDbPoint
 10
330.83929
 20
300.907994
 30
0.0
  0
POINT
  5
24C
330
242
100
AcDbEntity
  8
Defpoints
 62
     0
100
AcDbPoint
 10
363.492201
 20
300.907994
 30
0.0
  0
ENDBLK
  5
244
330
242
100
AcDbEntity
  8
0
100
AcDbBlockEnd
  0
BLOCK
  5
253
330
24D
100
AcDbEntity
  8
0
100
AcDbBlockBegin
  2
_U3
 70
     0
 10
0.0
 20
0.0
 30
0.0
  3
_U3
  1

  0
ENDBLK
  5
254
330
24D
100
AcDbEntity
  8
0
100
AcDbBlockEnd
  0
BLOCK
  5
259
330
258
100
AcDbEntity
  8
0
100
AcDbBlockBegin
  2
*D10
 70
     1
 10
0.0
 20
0.0
 30
0.0
  3
*D10
  1

  0
LINE
  5
25B
330
258
100
AcDbEntity
  8
0
 62
    95
370
    -2
100
AcDbLine
 10
220.404842
 20
301.407994
 30
0.0
 11
203.427812
 21
301.407994
 31
0.0
  0
LINE
  5
25C
330
258
100
AcDbEntity
  8
0
 62
    95
370
    -2
100
AcDbLine
 10
220.404842
 20
276.407994
 30
0.0
 11
203.427812
 21
276.407994
 31
0.0
  0
LINE
  5
25D
330
258
100
AcDbEntity
  8
0
 62
    95
370
    -2
100
AcDbLine
 10
204.427812
 20
297.907994
 30
0.0
 11
204.427812
 21
279.907994
 31
0.0
  0
SOLID
  5
25E
330
258
100
AcDbEntity
  8
0
 62
    95
100
AcDbTrace
 10
205.011145
 20
297.907994
 30
0.0
 11
203.844479
 21
297.907994
 31
0.0
 12
204.427812
 22
301.407994
 32
0.0
 13
204.427812
 23
301.407994
 33
0.0
  0
SOLID
  5
25F
330
258
100
AcDbEntity
  8
0
 62
    95
100
AcDbTrace
 10
203.844479
 20
279.907994
 30
0.0
 11
205.011145
 21
279.907994
 31
0.0
 12
204.427812
 22
276.407994
 32
0.0
 13
204.427812
 23
276.407994
 33
0.0
  0
MTEXT
  5
260
330
258
100
AcDbEntity
  8
0
 62
    95
370
    13
100
AcDbMText
 10
199.177812
 20
288.907994
 30
0.0
 40
3.5
 41
0.0
 71
     5
 72
     1
  1
\A1;25
  7
cesky
 11
0.0
 21
1.0
 31
0.0
 73
     1
 44
1.0
  0
POINT
  5
261
330
258
100
AcDbEntity
  8
Defpoints
 62
     0
100
AcDbPoint
 10
220.404842
 20
301.407994
 30
0.0
  0
POINT
  5
262
330
258
100
AcDbEntity
  8
Defpoints
 62
     0
100
AcDbPoint
 10
220.404842
 20
276.407994
 30
0.0
  0
POINT
  5
263
330
258
100
AcDbEntity
  8
Defpoints
 62
     0
100
AcDbPoint
 10
204.427812
 20
276.407994
 30
0.0
  0
ENDBLK
  5
25A
330
258
100
AcDbEntity
  8
0
100
AcDbBlockEnd
  0
BLOCK
  5
26C
330
264
100
AcDbEntity
  8
0
100
AcDbBlockBegin
  2
_U4
 70
     0
 10
0.0
 20
0.0
 30
0.0
  3
_U4
  1

  0
ENDBLK
  5
26D
330
264
100
AcDbEntity
  8
0
100
AcDbBlockEnd
  0
BLOCK
  5
272
330
271
100
AcDbEntity
  8
0
100
AcDbBlockBegin
  2
*D12
 70
     1
 10
0.0
 20
0.0
 30
0.0
  3
*D12
  1

  0
LINE
  5
274
330
271
100
AcDbEntity
  8
0
 62
    95
370
    -2
100
AcDbLine
 10
277.154842
 20
306.407994
 30
0.0
 11
190.287987
 21
306.407994
 31
0.0
  0
LINE
  5
275
330
271
100
AcDbEntity
  8
0
 62
    95
370
    -2
100
AcDbLine
 10
277.154842
 20
271.407994
 30
0.0
 11
190.287987
 21
271.407994
 31
0.0
  0
LINE
  5
276
330
271
100
AcDbEntity
  8
0
 62
    95
370
    -2
100
AcDbLine
 10
191.287987
 20
302.907994
 30
0.0
 11
191.287987
 21
274.907994
 31
0.0
  0
SOLID
  5
277
330
271
100
AcDbEntity
  8
0
 62
    95
100
AcDbTrace
 10
191.87132
 20
302.907994
 30
0.0
 11
190.704653
 21
302.907994
 31
0.0
 12
191.287987
 22
306.407994
 32
0.0
 13
191.287987
 23
306.407994
 33
0.0
  0
SOLID
  5
278
330
271
100
AcDbEntity
  8
0
 62
    95
100
AcDbTrace
 10
190.704653
 20
274.907994
 30
0.0
 11
191.87132
 21
274.907994
 31
0.0
 12
191.287987
 22
271.407994
 32
0.0
 13
191.287987
 23
271.407994
 33
0.0
  0
MTEXT
  5
279
330
271
100
AcDbEntity
  8
0
 62
    95
370
    13
100
AcDbMText
 10
186.037987
 20
288.907994
 30
0.0
 40
3.5
 41
0.0
 71
     5
 72
     1
  1
\A1;35
  7
cesky
 11
0.0
 21
1.0
 31
0.0
 73
     1
 44
1.0
  0
POINT
  5
27A
330
271
100
AcDbEntity
  8
Defpoints
 62
     0
100
AcDbPoint
 10
277.154842
 20
306.407994
 30
0.0
  0
POINT
  5
27B
330
271
100
AcDbEntity
  8
Defpoints
 62
     0
100
AcDbPoint
 10
277.154842
 20
271.407994
 30
0.0
  0
POINT
  5
27C
330
271
100
AcDbEntity
  8
Defpoints
 62
     0
100
AcDbPoint
 10
191.287987
 20
271.407994
 30
0.0
  0
ENDBLK
  5
273
330
271
100
AcDbEntity
  8
0
100
AcDbBlockEnd
  0
BLOCK
  5
285
330
27D
100
AcDbEntity
  8
0
100
AcDbBlockBegin
  2
_U5
 70
     0
 10
0.0
 20
0.0
 30
0.0
  3
_U5
  1

  0
ENDBLK
  5
286
330
27D
100
AcDbEntity
  8
0
100
AcDbBlockEnd
  0
BLOCK
  5
28B
330
28A
100
AcDbEntity
  8
0
100
AcDbBlockBegin
  2
*D14
 70
     1
 10
0.0
 20
0.0
 30
0.0
  3
*D14
  1

  0
LINE
  5
28D
330
28A
100
AcDbEntity
  8
0
 62
   254
370
    -2
100
AcDbLine
 10
347.404842
 20
300.907994
 30
0.0
 11
347.404842
 21
328.5109970000001
 31
0.0
  0
LINE
  5
28E
330
28A
100
AcDbEntity
  8
0
 62
   254
370
    -2
100
AcDbLine
 10
274.404842
 20
288.907994
 30
0.0
 11
274.404842
 21
328.5109970000001
 31
0.0
  0
LINE
  5
28F
330
28A
100
AcDbEntity
  8
0
 62
   254
370
    -2
100
AcDbLine
 10
343.904842
 20
327.510997
 30
0.0
 11
277.904842
 21
327.510997
 31
0.0
  0
SOLID
  5
290
330
28A
100
AcDbEntity
  8
0
 62
   254
100
AcDbTrace
 10
343.904842
 20
326.927663
 30
0.0
 11
343.904842
 21
328.09433
 31
0.0
 12
347.404842
 22
327.510997
 32
0.0
 13
347.404842
 23
327.510997
 33
0.0
  0
SOLID
  5
291
330
28A
100
AcDbEntity
  8
0
 62
   254
100
AcDbTrace
 10
277.904842
 20
328.09433
 30
0.0
 11
277.904842
 21
326.927663
 31
0.0
 12
274.404842
 22
327.510997
 32
0.0
 13
274.404842
 23
327.510997
 33
0.0
  0
MTEXT
  5
292
330
28A
100
AcDbEntity
  8
0
 62
   254
370
    13
100
AcDbMText
 10
310.904842
 20
332.7609970000001
 30
0.0
 40
3.5
 41
0.0
 71
     5
 72
     1
  1
\A1;73
  7
cesky
 73
     1
 44
1.0
  0
POINT
  5
293
330
28A
100
AcDbEntity
  8
Defpoints
 62
     0
100
AcDbPoint
 10
347.404842
 20
300.907994
 30
0.0
  0
POINT
  5
294
330
28A
100
AcDbEntity
  8
Defpoints
 62
     0
100
AcDbPoint
 10
274.404842
 20
288.907994
 30
0.0
  0
POINT
  5
295
330
28A
100
AcDbEntity
  8
Defpoints
 62
     0
100
AcDbPoint
 10
274.404842
 20
327.510997
 30
0.0
  0
ENDBLK
  5
28C
330
28A
100
AcDbEntity
  8
0
100
AcDbBlockEnd
  0
BLOCK
  5
29D
330
296
100
AcDbEntity
  8
0
100
AcDbBlockBegin
  2
_U6
 70
     0
 10
0.0
 20
0.0
 30
0.0
  3
_U6
  1

  0
ENDBLK
  5
29E
330
296
100
AcDbEntity
  8
0
100
AcDbBlockEnd
  0
ENDSEC
  0
SECTION
  2
ENTITIES
  0
POINT
  5
73
102
{ACAD_REACTORS
330
347
102
}
330
1F
100
AcDbEntity
  8
80
100
AcDbPoint
 10
274.404842
 20
288.907994
 30
0.0
  0
POINT
  5
76
330
1F
100
AcDbEntity
  8
SK4
 60
     1
100
AcDbPoint
 10
220.404842
 20
288.907994
 30
0.0
  0
POINT
  5
78
330
1F
100
AcDbEntity
  8
SK4
 60
     1
100
AcDbPoint
 10
274.404842
 20
288.907994
 30
0.0
  0
POINT
  5
79
330
1F
100
AcDbEntity
  8
4
 60
     1
100
AcDbPoint
 10
292.032259
 20
288.907994
 30
0.0
  0
POINT
  5
7A
330
1F
100
AcDbEntity
  8
4
 60
     1
100
AcDbPoint
 10
346.208589
 20
288.907994
 30
0.0
  0
POINT
  5
7B
330
1F
100
AcDbEntity
  8
SK6
 60
     1
100
AcDbPoint
 10
274.404842
 20
288.907994
 30
0.0
  0
POINT
  5
7C
330
1F
100
AcDbEntity
  8
SK6
 60
     1
100
AcDbPoint
 10
290.405193
 20
300.745081
 30
0.0
  0
LINE
  5
7D
330
1F
100
AcDbEntity
  8
1
100
AcDbLine
 10
341.94323
 20
295.978132
 30
0.0
 11
341.968051
 21
296.0785
 31
0.0
  0
LINE
  5
7F
330
1F
100
AcDbEntity
  8
1
100
AcDbLine
 10
343.50727
 20
295.743325
 30
0.0
 11
343.482427
 21
295.64287
 31
0.0
  0
LINE
  5
80
330
1F
100
AcDbEntity
  8
1
100
AcDbLine
 10
342.264411
 20
297.431585
 30
0.0
 11
342.289254
 21
297.532039
 31
0.0
  0
LINE
  5
81
330
1F
100
AcDbEntity
  8
1
100
AcDbLine
 10
343.82843
 20
297.19669
 30
0.0
 11
343.803608
 21
297.096323
 31
0.0
  0
LINE
  5
82
330
1F
100
AcDbEntity
  8
1
100
AcDbLine
 10
344.9147910000001
 20
296.044342
 30
0.0
 11
344.92944
 21
296.1035779999999
 31
0.0
  0
LINE
  5
83
330
1F
100
AcDbEntity
  8
SK1
100
AcDbLine
 10
218.404842
 20
278.407994
 30
0.0
 11
220.404842
 21
276.407994
 31
0.0
  0
LINE
  5
85
330
1F
100
AcDbEntity
  8
SK1
100
AcDbLine
 10
220.404842
 20
301.407994
 30
0.0
 11
218.404842
 21
299.407994
 31
0.0
  0
LINE
  5
86
330
1F
100
AcDbEntity
  8
1
100
AcDbLine
 10
279.404842
 20
271.407994
 30
0.0
 11
280.71855
 21
272.721702
 31
0.0
  0
LINE
  5
87
330
1F
100
AcDbEntity
  8
1
100
AcDbLine
 10
280.71855
 20
305.094285
 30
0.0
 11
279.404842
 21
306.407994
 31
0.0
  0
LINE
  5
88
330
1F
100
AcDbEntity
  8
SK1
100
AcDbLine
 10
274.404842
 20
301.407994
 30
0.0
 11
220.404842
 21
301.407994
 31
0.0
  0
LINE
  5
89
330
1F
100
AcDbEntity
  8
1
100
AcDbLine
 10
274.904842
 20
271.407994
 30
0.0
 11
274.404842
 21
271.907994
 31
0.0
  0
LINE
  5
8A
330
1F
100
AcDbEntity
  8
1
100
AcDbLine
 10
274.404842
 20
305.907994
 30
0.0
 11
274.904842
 21
306.407994
 31
0.0
  0
LINE
  5
8B
330
1F
100
AcDbEntity
  8
1
100
AcDbLine
 10
279.404842
 20
306.407994
 30
0.0
 11
274.904842
 21
306.407994
 31
0.0
  0
LINE
  5
90
330
1F
100
AcDbEntity
  8
80
100
AcDbLine
 10
275.404416
 20
288.907994
 30
0.0
 11
273.405268
 21
288.907994
 31
0.0
  0
LINE
  5
91
330
1F
100
AcDbEntity
  8
80
100
AcDbLine
 10
274.404842
 20
287.90842
 30
0.0
 11
274.404842
 21
289.907567
 31
0.0
  0
LINE
  5
92
330
1F
100
AcDbEntity
  8
81
100
AcDbLine
 10
347.404842
 20
302.907994
 30
0.0
 11
347.404842
 21
298.907994
 31
0.0
  0
LINE
  5
93
330
1F
100
AcDbEntity
  8
81
100
AcDbLine
 10
345.404842
 20
300.907994
 30
0.0
 11
349.404842
 21
300.907994
 31
0.0
  0
LINE
  5
94
330
1F
100
AcDbEntity
  8
SK1
100
AcDbLine
 10
220.404842
 20
276.407994
 30
0.0
 11
274.404842
 21
276.407994
 31
0.0
  0
LINE
  5
95
330
1F
100
AcDbEntity
  8
1
100
AcDbLine
 10
274.904842
 20
271.407994
 30
0.0
 11
279.404842
 21
271.407994
 31
0.0
  0
LINE
  5
96
330
1F
100
AcDbEntity
  8
1
100
AcDbLine
 10
274.404842
 20
305.907994
 30
0.0
 11
274.404842
 21
288.907994
 31
0.0
  0
LINE
  5
97
330
1F
100
AcDbEntity
  8
1
100
AcDbLine
 10
274.404842
 20
288.907994
 30
0.0
 11
274.404842
 21
271.907994
 31
0.0
  0
LINE
  5
98
330
1F
100
AcDbEntity
  8
1
100
AcDbLine
 10
341.884422
 20
295.894109
 30
0.0
 11
341.881846
 21
295.901712
 31
0.0
  0
LINE
  5
99
330
1F
100
AcDbEntity
  8
1
100
AcDbLine
 10
343.507269
 20
295.743325
 30
0.0
 11
343.508283
 21
295.747114
 31
0.0
  0
LINE
  5
9A
330
1F
100
AcDbEntity
  8
1
100
AcDbLine
 10
339.148937
 20
300.295972
 30
0.0
 11
339.14689
 21
300.34299
 31
0.0
  0
LINE
  5
9B
330
1F
100
AcDbEntity
  8
1
100
AcDbLine
 10
346.536792
 20
292.677837
 30
0.0
 11
340.566161
 21
292.417749
 31
0.0
  0
LINE
  5
9C
330
1F
100
AcDbEntity
  8
1
100
AcDbLine
 10
340.56093
 20
292.396598
 30
0.0
 11
340.566161
 21
292.417749
 31
0.0
  0
LINE
  5
9D
330
1F
100
AcDbEntity
  8
1
100
AcDbLine
 10
340.56093
 20
292.396598
 30
0.0
 11
346.494847
 21
292.655087
 31
0.0
  0
LINE
  5
9E
330
1F
100
AcDbEntity
  8
1
100
AcDbLine
 10
338.902913
 20
299.879932
 30
0.0
 11
338.8839700000001
 21
300.315
 31
0.0
  0
LINE
  5
9F
330
1F
100
AcDbEntity
  8
1
100
AcDbLine
 10
339.130278
 20
300.273862
 30
0.0
 11
339.124563
 21
300.405109
 31
0.0
  0
LINE
  5
A0
330
1F
100
AcDbEntity
  8
1
100
AcDbLine
 10
338.939475
 20
293.885492
 30
0.0
 11
338.934245
 21
293.864341
 31
0.0
  0
LINE
  5
A1
330
1F
100
AcDbEntity
  8
1
100
AcDbLine
 10
338.939475
 20
293.885492
 30
0.0
 11
338.659522
 21
300.315497
 31
0.0
  0
LINE
  5
A2
330
1F
100
AcDbEntity
  8
1
100
AcDbLine
 10
338.6551970000001
 20
300.27354
 30
0.0
 11
338.934245
 21
293.864341
 31
0.0
  0
LINE
  5
A3
330
1F
100
AcDbEntity
  8
1
100
AcDbLine
 10
339.087921
 20
300.407994
 30
0.0
 11
334.14209
 21
300.407994
 31
0.0
  0
LINE
  5
A4
330
1F
100
AcDbEntity
  8
1
100
AcDbLine
 10
346.536792
 20
292.677837
 30
0.0
 11
346.534573
 21
292.90167
 31
0.0
  0
LINE
  5
A5
330
1F
100
AcDbEntity
  8
1
100
AcDbLine
 10
346.536792
 20
292.677837
 30
0.0
 11
346.494847
 21
292.655087
 31
0.0
  0
LINE
  5
A6
330
1F
100
AcDbEntity
  8
1
100
AcDbLine
 10
343.481593
 20
295.636329
 30
0.0
 11
343.480216
 21
295.630758
 31
0.0
  0
LINE
  5
A7
330
1F
100
AcDbEntity
  8
1
100
AcDbLine
 10
342.36939
 20
295.620242
 30
0.0
 11
342.344958
 21
295.521448
 31
0.0
  0
LINE
  5
A8
330
1F
100
AcDbEntity
  8
1
100
AcDbLine
 10
342.266622
 20
297.4436970000001
 30
0.0
 11
342.291404
 21
297.543902
 31
0.0
  0
LINE
  5
A9
330
1F
100
AcDbEntity
  8
1
100
AcDbLine
 10
341.68906
 20
296.59756
 30
0.0
 11
341.665014
 21
296.500331
 31
0.0
  0
LINE
  5
AA
330
1F
100
AcDbEntity
  8
1
100
AcDbLine
 10
341.776391
 20
296.582505
 30
0.0
 11
341.751805
 21
296.483086
 31
0.0
  0
LINE
  5
AB
330
1F
100
AcDbEntity
  8
1
100
AcDbLine
 10
343.955908
 20
295.994491
 30
0.0
 11
343.979941
 21
296.09167
 31
0.0
  0
LINE
  5
AC
330
1F
100
AcDbEntity
  8
1
100
AcDbLine
 10
343.867108
 20
296.015315
 30
0.0
 11
343.891703
 21
296.114768
 31
0.0
  0
LINE
  5
AD
330
1F
100
AcDbEntity
  8
1
100
AcDbLine
 10
342.92409
 20
295.3971259999999
 30
0.0
 11
342.948551
 21
295.496034
 31
0.0
  0
LINE
  5
AE
330
1F
100
AcDbEntity
  8
1
100
AcDbLine
 10
336.509815
 20
290.580093
 30
0.0
 11
336.530558
 21
289.973826
 31
0.0
  0
LINE
  5
AF
330
1F
100
AcDbEntity
  8
1
100
AcDbLine
 10
344.953061
 20
292.027994
 30
0.0
 11
340.106063
 21
291.816852
 31
0.0
  0
LINE
  5
B0
330
1F
100
AcDbEntity
  8
1
100
AcDbLine
 10
285.404842
 20
300.344835
 30
0.0
 11
285.404842
 21
285.014338
 31
0.0
  0
LINE
  5
B1
330
1F
100
AcDbEntity
  8
1
100
AcDbLine
 10
341.969824
 20
296.087292
 30
0.0
 11
341.968046
 21
296.078486
 31
0.0
  0
LINE
  5
B2
330
1F
100
AcDbEntity
  8
1
100
AcDbLine
 10
339.169892
 20
293.3099509999999
 30
0.0
 11
338.882883
 21
299.688125
 31
0.0
  0
LINE
  5
B4
330
1F
100
AcDbEntity
  8
1
100
AcDbLine
 10
340.378462
 20
299.043763
 30
0.0
 11
345.372671
 21
299.261318
 31
0.0
  0
LINE
  5
B5
330
1F
100
AcDbEntity
  8
1
100
AcDbLine
 10
340.602681
 20
294.060953
 30
0.0
 11
340.378462
 21
299.043763
 31
0.0
  0
LINE
  5
B6
330
1F
100
AcDbEntity
  8
1
100
AcDbLine
 10
345.59689
 20
294.278507
 30
0.0
 11
340.602681
 21
294.060953
 31
0.0
  0
LINE
  5
B7
330
1F
100
AcDbEntity
  8
1
100
AcDbLine
 10
345.372671
 20
299.261318
 30
0.0
 11
345.59689
 21
294.278507
 31
0.0
  0
LINE
  5
B8
330
1F
100
AcDbEntity
  8
1
100
AcDbLine
 10
339.615946
 20
300.487329
 30
0.0
 11
346.00871
 21
300.765806
 31
0.0
  0
LINE
  5
B9
330
1F
100
AcDbEntity
  8
1
100
AcDbLine
 10
346.810691
 20
300.03347
 30
0.0
 11
347.0977
 21
293.655297
 31
0.0
  0
LINE
  5
BA
330
1F
100
AcDbEntity
  8
1
100
AcDbLine
 10
346.364636
 20
292.856092
 30
0.0
 11
339.971872
 21
292.577615
 31
0.0
  0
LINE
  5
BB
330
1F
100
AcDbEntity
  8
1
100
AcDbLine
 10
347.323222
 20
283.317809
 30
0.0
 11
346.715638
 21
282.30662
 31
0.0
  0
LINE
  5
BC
330
1F
100
AcDbEntity
  8
1
100
AcDbLine
 10
346.801122
 20
283.467519
 30
0.0
 11
347.323222
 21
283.317809
 31
0.0
  0
LINE
  5
BD
330
1F
100
AcDbEntity
  8
1
100
AcDbLine
 10
346.877836
 20
287.862412
 30
0.0
 11
347.404842
 21
287.99381
 31
0.0
  0
LINE
  5
BE
330
1F
100
AcDbEntity
  8
1
100
AcDbLine
 10
346.819673
 20
289.049483
 30
0.0
 11
347.404842
 21
287.99381
 31
0.0
  0
LINE
  5
BF
330
1F
100
AcDbEntity
  8
1
100
AcDbLine
 10
346.428971
 20
288.672186
 30
0.0
 11
346.819673
 21
289.049483
 31
0.0
  0
LINE
  5
C0
330
1F
100
AcDbEntity
  8
1
100
AcDbLine
 10
346.413585
 20
289.2934850000001
 30
0.0
 11
346.819673
 21
289.049483
 31
0.0
  0
LINE
  5
C1
330
1F
100
AcDbEntity
  8
1
100
AcDbLine
 10
346.338341
 20
282.6973220000001
 30
0.0
 11
346.715638
 21
282.30662
 31
0.0
  0
LINE
  5
C2
330
1F
100
AcDbEntity
  8
1
100
AcDbLine
 10
346.715638
 20
282.30662
 30
0.0
 11
346.050531
 21
281.937945
 31
0.0
  0
LINE
  5
C3
330
1F
100
AcDbEntity
  8
1
100
AcDbLine
 10
346.801122
 20
283.467519
 30
0.0
 11
346.338341
 21
282.6973220000001
 31
0.0
  0
LINE
  5
C4
330
1F
100
AcDbEntity
  8
1
100
AcDbLine
 10
346.428971
 20
288.672186
 30
0.0
 11
346.877836
 21
287.862412
 31
0.0
  0
LINE
  5
C5
330
1F
100
AcDbEntity
  8
1
100
AcDbLine
 10
346.877836
 20
287.862412
 30
0.0
 11
346.291699
 21
287.716272
 31
0.0
  0
LINE
  5
C6
330
1F
100
AcDbEntity
  8
1
100
AcDbLine
 10
346.801122
 20
283.467519
 30
0.0
 11
346.220443
 21
283.634026
 31
0.0
  0
LINE
  5
C7
330
1F
100
AcDbEntity
  8
1
100
AcDbLine
 10
346.877836
 20
287.862412
 30
0.0
 11
346.801122
 21
283.467519
 31
0.0
  0
LINE
  5
C8
330
1F
100
AcDbEntity
  8
1
100
AcDbLine
 10
346.338341
 20
282.6973220000001
 30
0.0
 11
346.020793
 21
283.026152
 31
0.0
  0
LINE
  5
C9
330
1F
100
AcDbEntity
  8
1
100
AcDbLine
 10
346.338341
 20
282.6973220000001
 30
0.0
 11
345.963846
 21
282.489736
 31
0.0
  0
LINE
  5
CA
330
1F
100
AcDbEntity
  8
1
100
AcDbLine
 10
346.428971
 20
288.672186
 30
0.0
 11
346.223861
 21
288.474115
 31
0.0
  0
LINE
  5
CB
330
1F
100
AcDbEntity
  8
1
100
AcDbLine
 10
346.223857
 20
288.795431
 30
0.0
 11
346.428971
 21
288.672186
 31
0.0
  0
LINE
  5
CC
330
1F
100
AcDbEntity
  8
1
100
AcDbLine
 10
346.05632
 20
283.360879
 30
0.0
 11
346.220443
 21
283.634026
 31
0.0
  0
LINE
  5
CD
330
1F
100
AcDbEntity
  8
1
100
AcDbLine
 10
346.220443
 20
283.634026
 30
0.0
 11
346.291699
 21
287.716272
 31
0.0
  0
LINE
  5
CE
330
1F
100
AcDbEntity
  8
1
100
AcDbLine
 10
346.291699
 20
287.716272
 30
0.0
 11
346.223867
 21
287.838646
 31
0.0
  0
LINE
  5
CF
330
1F
100
AcDbEntity
  8
1
100
AcDbLine
 10
347.404842
 20
287.99381
 30
0.0
 11
347.323222
 21
283.317809
 31
0.0
  0
LINE
  5
D0
330
1F
100
AcDbEntity
  8
SK1
100
AcDbLine
 10
218.404842
 20
299.407994
 30
0.0
 11
218.404842
 21
278.407994
 31
0.0
  0
LINE
  5
D1
330
1F
100
AcDbEntity
  8
SK1
100
AcDbLine
 10
220.404842
 20
301.407994
 30
0.0
 11
220.404842
 21
276.407994
 31
0.0
  0
LINE
  5
D2
330
1F
100
AcDbEntity
  8
1
100
AcDbLine
 10
345.167906
 20
284.939494
 30
0.0
 11
345.4586
 21
284.939494
 31
0.0
  0
LINE
  5
D3
330
1F
100
AcDbEntity
  8
1
100
AcDbLine
 10
346.495448
 20
292.59444
 30
0.0
 11
346.494847
 21
292.655087
 31
0.0
  0
LINE
  5
D4
330
1F
100
AcDbEntity
  8
1
100
AcDbLine
 10
346.410119
 20
292.046434
 30
0.0
 11
340.113652
 21
291.772152
 31
0.0
  0
LINE
  5
D5
330
1F
100
AcDbEntity
  8
1
100
AcDbLine
 10
346.410119
 20
292.046434
 30
0.0
 11
345.073709
 21
289.81963
 31
0.0
  0
LINE
  5
D6
330
1F
100
AcDbEntity
  8
1
100
AcDbLine
 10
346.305399
 20
281.364467
 30
0.0
 11
346.263308
 21
281.36514
 31
0.0
  0
LINE
  5
D7
330
1F
100
AcDbEntity
  8
1
100
AcDbLine
 10
346.08304
 20
281.93742
 30
0.0
 11
345.947629
 21
281.939587
 31
0.0
  0
LINE
  5
D8
330
1F
100
AcDbEntity
  8
1
100
AcDbLine
 10
345.834221
 20
284.939494
 30
0.0
 11
346.223868
 21
284.939494
 31
0.0
  0
LINE
  5
D9
330
1F
100
AcDbEntity
  8
1
100
AcDbLine
 10
346.26603
 20
289.279702
 30
0.0
 11
346.401672
 21
289.277334
 31
0.0
  0
LINE
  5
DA
330
1F
100
AcDbEntity
  8
1
100
AcDbLine
 10
346.64268
 20
289.842537
 30
0.0
 11
346.684842
 21
289.841801
 31
0.0
  0
LINE
  5
DB
330
1F
100
AcDbEntity
  8
1
100
AcDbLine
 10
346.410119
 20
292.046434
 30
0.0
 11
346.430485
 21
292.05748
 31
0.0
  0
LINE
  5
DC
330
1F
100
AcDbEntity
  8
1
100
AcDbLine
 10
345.937329
 20
282.23979
 30
0.0
 11
346.223868
 21
284.939494
 31
0.0
  0
LINE
  5
DD
330
1F
100
AcDbEntity
  8
1
100
AcDbLine
 10
346.223868
 20
284.939494
 30
0.0
 11
346.223868
 21
288.980392
 31
0.0
  0
LINE
  5
DE
330
1F
100
AcDbEntity
  8
1
100
AcDbLine
 10
346.28859
 20
281.603341
 30
0.0
 11
346.08304
 21
281.93742
 31
0.0
  0
LINE
  5
DF
330
1F
100
AcDbEntity
  8
1
100
AcDbLine
 10
346.28859
 20
281.603341
 30
0.0
 11
346.263308
 21
281.36514
 31
0.0
  0
LINE
  5
E0
330
1F
100
AcDbEntity
  8
1
100
AcDbLine
 10
346.401672
 20
289.277334
 30
0.0
 11
346.64268
 21
289.603926
 31
0.0
  0
LINE
  5
E1
330
1F
100
AcDbEntity
  8
1
100
AcDbLine
 10
346.64268
 20
289.842537
 30
0.0
 11
346.64268
 21
289.603926
 31
0.0
  0
LINE
  5
E2
330
1F
100
AcDbEntity
  8
1
100
AcDbLine
 10
345.88547
 20
277.407994
 30
0.0
 11
346.305399
 21
281.364467
 31
0.0
  0
LINE
  5
E3
330
1F
100
AcDbEntity
  8
1
100
AcDbLine
 10
345.88547
 20
277.407994
 30
0.0
 11
334.617036
 21
277.407994
 31
0.0
  0
LINE
  5
E4
330
1F
100
AcDbEntity
  8
1
100
AcDbLine
 10
346.684842
 20
292.954434
 30
0.0
 11
346.684842
 21
289.841801
 31
0.0
  0
LINE
  5
E5
330
1F
100
AcDbEntity
  8
1
100
AcDbLine
 10
274.904842
 20
271.407994
 30
0.0
 11
274.904842
 21
288.907994
 31
0.0
  0
LINE
  5
E6
330
1F
100
AcDbEntity
  8
1
100
AcDbLine
 10
274.904842
 20
288.907994
 30
0.0
 11
274.904842
 21
306.407994
 31
0.0
  0
LINE
  5
E7
330
1F
100
AcDbEntity
  8
1
100
AcDbLine
 10
279.404842
 20
271.407994
 30
0.0
 11
279.404842
 21
272.532644
 31
0.0
  0
LINE
  5
E8
330
1F
100
AcDbEntity
  8
1
100
AcDbLine
 10
279.404842
 20
306.407994
 30
0.0
 11
279.404842
 21
279.419364
 31
0.0
  0
LINE
  5
11A
330
1F
100
AcDbEntity
  8
NOCUT
100
AcDbLine
 10
292.032259
 20
300.407994
 30
0.0
 11
346.36748
 21
300.407994
 31
0.0
  0
LINE
  5
11B
330
1F
100
AcDbEntity
  8
NOCUT
100
AcDbLine
 10
346.36748
 20
300.407994
 30
0.0
 11
346.684842
 21
293.192924
 31
0.0
  0
LINE
  5
11C
330
1F
100
AcDbEntity
  8
NOCUT
100
AcDbLine
 10
346.684842
 20
293.192924
 30
0.0
 11
346.684842
 21
288.907994
 31
0.0
  0
LINE
  5
11D
330
1F
100
AcDbEntity
  8
NOCUT
100
AcDbLine
 10
346.684842
 20
288.907994
 30
0.0
 11
218.404842
 21
288.907994
 31
0.0
  0
LINE
  5
11E
330
1F
100
AcDbEntity
  8
NOCUT
100
AcDbLine
 10
279.404842
 20
306.407994
 30
0.0
 11
274.904842
 21
306.407994
 31
0.0
  0
LINE
  5
11F
330
1F
100
AcDbEntity
  8
NOCUT
100
AcDbLine
 10
274.404842
 20
301.407994
 30
0.0
 11
220.404842
 21
301.407994
 31
0.0
  0
LINE
  5
120
330
1F
100
AcDbEntity
  8
NOCUT
100
AcDbLine
 10
218.404842
 20
299.407994
 30
0.0
 11
218.404842
 21
288.907994
 31
0.0
  0
LINE
  5
121
330
1F
100
AcDbEntity
  8
NOCUT
100
AcDbLine
 10
279.404842
 20
306.407994
 30
0.0
 11
280.71855
 21
305.094285
 31
0.0
  0
LINE
  5
122
330
1F
100
AcDbEntity
  8
NOCUT
100
AcDbLine
 10
218.404842
 20
299.407994
 30
0.0
 11
220.404842
 21
301.407994
 31
0.0
  0
LINE
  5
123
330
1F
100
AcDbEntity
  8
NOCUT
100
AcDbLine
 10
274.404842
 20
301.407994
 30
0.0
 11
274.404842
 21
305.907994
 31
0.0
  0
LINE
  5
124
330
1F
100
AcDbEntity
  8
NOCUT
100
AcDbLine
 10
274.404842
 20
305.907994
 30
0.0
 11
274.904842
 21
306.407994
 31
0.0
  0
ARC
  5
12D
330
1F
100
AcDbEntity
  8
1
100
AcDbCircle
 10
292.032259
 20
261.407994
 30
0.0
 40
16.0
100
AcDbArc
 50
111.380362
 51
135.0
  0
ARC
  5
12E
330
1F
100
AcDbEntity
  8
1
100
AcDbCircle
 10
292.032259
 20
316.407994
 30
0.0
 40
16.0
100
AcDbArc
 50
225.0
 51
267.6429720000001
  0
ARC
  5
12F
330
1F
100
AcDbEntity
  8
1
100
AcDbCircle
 10
343.278336
 20
285.852145
 30
0.0
 40
1.25
100
AcDbArc
 50
75.0
 51
345.0
  0
CIRCLE
  5
130
330
1F
100
AcDbEntity
  8
1
100
AcDbCircle
 10
343.278336
 20
285.852145
 30
0.0
 40
0.8499999999999991
  0
ARC
  5
13F
330
1F
100
AcDbEntity
  8
NOCUT
100
AcDbCircle
 10
292.032259
 20
316.407994
 30
0.0
 40
16.0
100
AcDbArc
 50
225.0
 51
270.0
  0
ELLIPSE
  5
140
330
1F
100
AcDbEntity
  8
1
100
AcDbEllipse
 10
339.814562
 20
293.219748
 30
0.0
 11
-1.06783033710145
 21
0.2640802362271789
 31
0.0
210
0.0
220
0.0
230
1.0
 40
0.9973589999999999
 41
2.564998284414828
 42
2.796152521219764
  0
ELLIPSE
  5
141
330
1F
100
AcDbEntity
  8
1
100
AcDbEllipse
 10
339.868264
 20
293.436898
 30
0.0
 11
-1.067830337101449
 21
0.2640802362271787
 31
0.0
210
0.0
220
0.0
230
1.0
 40
0.9973589999999999
 41
0.1120380090731408
 42
1.857487186952516
  0
ELLIPSE
  5
142
330
1F
100
AcDbEntity
  8
1
100
AcDbEllipse
 10
339.868264
 20
293.436898
 30
0.0
 11
-1.067830337101449
 21
0.2640802362271787
 31
0.0
210
0.0
220
0.0
230
1.0
 40
0.9973589999999999
 41
1.857487186952516
 42
2.523308550747958
  0
ELLIPSE
  5
143
330
1F
100
AcDbEntity
  8
1
100
AcDbEllipse
 10
339.809331
 20
293.198597
 30
0.0
 11
1.06783033710145
 21
-0.2640802362271795
 31
0.0
210
0.0
220
0.0
230
0.9999999999999998
 40
0.9973589999999999
 41
5.616764553212994
 42
5.706590938004636
  0
ELLIPSE
  5
144
330
1F
100
AcDbEntity
  8
1
100
AcDbEllipse
 10
339.814562
 20
293.219748
 30
0.0
 11
-1.06783033710145
 21
0.2640802362271789
 31
0.0
210
0.0
220
0.0
230
1.0
 40
0.9973589999999999
 41
5.620155368642783
 42
5.874300523311315
  0
ELLIPSE
  5
145
330
1F
100
AcDbEntity
  8
1
100
AcDbEllipse
 10
339.809331
 20
293.198597
 30
0.0
 11
1.06783033710145
 21
-0.2640802362271795
 31
0.0
210
0.0
220
0.0
230
0.9999999999999998
 40
0.9973589999999999
 41
2.732707869721529
 42
4.327726013559086
  0
ELLIPSE
  5
146
330
1F
100
AcDbEntity
  8
1
100
AcDbEllipse
 10
339.1696490000001
 20
288.907993
 30
0.0
 11
0.4844442669353473
 21
-11.49999586574759
 31
0.0
210
0.0
220
0.0
230
1.0
 40
0.020422
 41
3.267649297090106
 42
3.293797381796613
  0
ELLIPSE
  5
147
330
1F
100
AcDbEntity
  8
1
100
AcDbEllipse
 10
339.474518
 20
288.907994
 30
0.0
 11
0.3945249134717281
 21
-11.49986408503074
 31
0.0
210
0.0
220
0.0
230
0.9999999999999998
 40
0.141717
 41
3.114330817602683
 42
3.263988672033806
  0
ELLIPSE
  5
148
330
1F
100
AcDbEntity
  8
1
100
AcDbEllipse
 10
339.603414
 20
288.907993
 30
0.0
 11
0.4844442724044167
 21
-11.49999603319852
 31
0.0
210
0.0
220
0.0
230
1.0
 40
0.020422
 41
3.034357686128584
 42
3.118332340552358
  0
ELLIPSE
  5
149
330
1F
100
AcDbEntity
  8
1
100
AcDbEllipse
 10
339.548154
 20
304.373845
 30
0.0
 11
-12.23151113407117
 21
3.024919069511321
 31
0.0
210
0.0
220
0.0
230
0.9999999999999998
 40
0.9973589999999999
 41
1.586180065881018
 42
1.856921512808033
  0
ELLIPSE
  5
14A
330
1F
100
AcDbEntity
  8
1
100
AcDbEllipse
 10
342.990553
 20
296.672768
 30
0.0
 11
2.091721596912266
 21
-0.5172941002345816
 31
0.0
210
0.0
220
0.0
230
1.0
 40
0.9973589999999997
 41
0.0
 42
6.283185307179585
  0
ELLIPSE
  5
14B
330
1F
100
AcDbEntity
  8
1
100
AcDbEllipse
 10
343.010343
 20
296.75279
 30
0.0
 11
2.033978351583129
 21
-0.5030138823598631
 31
0.0
210
0.0
220
0.0
230
1.0
 40
0.9973589999999999
 41
2.351895531162235
 42
2.715829348081399
  0
ELLIPSE
  5
14C
330
1F
100
AcDbEntity
  8
1
100
AcDbEllipse
 10
343.010343
 20
296.75279
 30
0.0
 11
2.033978351583129
 21
-0.5030138823598631
 31
0.0
210
0.0
220
0.0
230
1.0
 40
0.9973589999999999
 41
5.906313044786994
 42
6.283185307179585
  0
ELLIPSE
  5
14D
330
1F
100
AcDbEntity
  8
1
100
AcDbEllipse
 10
343.010343
 20
296.75279
 30
0.0
 11
2.033978351583129
 21
-0.5030138823598631
 31
0.0
210
0.0
220
0.0
230
1.0
 40
0.9973589999999999
 41
0.0
 42
0.7897386948597403
  0
ELLIPSE
  5
14E
330
1F
100
AcDbEntity
  8
1
100
AcDbEllipse
 10
340.085311
 20
293.453132
 30
0.0
 11
0.9538123847332146
 21
1.042195465572965
 31
0.0
210
0.0
220
0.0
230
1.0
 40
0.024613
 41
0.9708236130347883
 42
1.525634646411211
  0
ELLIPSE
  5
14F
330
1F
100
AcDbEntity
  8
1
100
AcDbEllipse
 10
339.813845
 20
299.485886
 30
0.0
 11
1.04294225991224
 21
-0.954495847378245
 31
0.0
210
0.0
220
0.0
230
1.0
 40
0.045128
 41
1.040557921604781
 42
1.595368954627429
  0
ELLIPSE
  5
150
330
1F
100
AcDbEntity
  8
1
100
AcDbEllipse
 10
345.8604
 20
299.749282
 30
0.0
 11
0.953812384414183
 21
1.042195465274754
 31
0.0
210
0.0
220
0.0
230
1.0
 40
0.024613
 41
1.525634645393811
 42
2.08044567895841
  0
ELLIPSE
  5
151
330
1F
100
AcDbEntity
  8
1
100
AcDbEllipse
 10
346.131865
 20
293.716528
 30
0.0
 11
1.0429422601822
 21
-0.9544958476317242
 31
0.0
210
0.0
220
0.0
230
1.0
 40
0.045128
 41
1.595368954698597
 42
2.150179987584944
  0
ELLIPSE
  5
152
330
1F
100
AcDbEntity
  8
1
100
AcDbEllipse
 10
342.9876759999999
 20
296.661135
 30
0.0
 11
-2.184198416798423
 21
0.5401641195555936
 31
0.0
210
0.0
220
0.0
230
1.0
 40
0.9973589999999999
 41
0.0
 42
6.283185307179585
  0
ELLIPSE
  5
153
330
1F
100
AcDbEntity
  8
1
100
AcDbEllipse
 10
343.367939
 20
297.076365
 30
0.0
 11
-0.5397109347785423
 21
0.1334734425485497
 31
0.0
210
0.0
220
0.0
230
1.0
 40
0.9973590000000001
 41
3.75362024398777
 42
4.673743817157623
  0
ELLIPSE
  5
154
330
1F
100
AcDbEntity
  8
1
100
AcDbEllipse
 10
343.793042
 20
297.240438
 30
0.0
 11
-0.0969839493716004
 21
0.0239846568976657
 31
0.0
210
0.0
220
0.0
230
1.0
 40
0.9973589999999999
 41
2.381086315978586
 42
3.753620243987856
  0
ELLIPSE
  5
155
330
1F
100
AcDbEntity
  8
1
100
AcDbEllipse
 10
343.900592
 20
297.072338
 30
0.0
 11
-0.0969839493716005
 21
0.0239846568976657
 31
0.0
210
0.0
220
0.0
230
1.0
 40
0.9973589999999999
 41
5.522678969568429
 42
6.371614121979247
  0
ELLIPSE
  5
156
330
1F
100
AcDbEntity
  8
1
100
AcDbEllipse
 10
344.351233
 20
297.002273
 30
0.0
 11
-0.5397109347785421
 21
0.1334734425485497
 31
0.0
210
0.0
220
0.0
230
0.9999999999999998
 40
0.9973590000000001
 41
0.0884288147996925
 42
1.008552387969534
  0
ELLIPSE
  5
157
330
1F
100
AcDbEntity
  8
1
100
AcDbEllipse
 10
344.022832
 20
296.687055
 30
0.0
 11
-0.0969839493716005
 21
0.0239846568976657
 31
0.0
210
0.0
220
0.0
230
0.9999999999999998
 40
0.9973589999999999
 41
1.008552387969327
 42
1.857487540380171
  0
ELLIPSE
  5
158
330
1F
100
AcDbEntity
  8
1
100
AcDbEllipse
 10
344.031792
 20
296.48793
 30
0.0
 11
-0.0969839493716006
 21
0.0239846568976657
 31
0.0
210
0.0
220
0.0
230
1.0
 40
0.9973589999999999
 41
3.626546265960956
 42
4.999080193970131
  0
ELLIPSE
  5
159
330
1F
100
AcDbEntity
  8
1
100
AcDbEllipse
 10
343.589208
 20
296.3789549999999
 30
0.0
 11
-0.5397109347785423
 21
0.1334734425485497
 31
0.0
210
0.0
220
0.0
230
1.0
 40
0.9973590000000001
 41
2.706422692791165
 42
3.626546265961033
  0
ELLIPSE
  5
15A
330
1F
100
AcDbEntity
  8
1
100
AcDbEllipse
 10
343.944637
 20
296.093525
 30
0.0
 11
-0.0969839493716004
 21
0.0239846568976657
 31
0.0
210
0.0
220
0.0
230
1.0
 40
0.9973589999999999
 41
1.333888764781944
 42
2.706422692790971
  0
ELLIPSE
  5
15B
330
1F
100
AcDbEntity
  8
1
100
AcDbEllipse
 10
343.852607
 20
295.916732
 30
0.0
 11
-0.0969839493716005
 21
0.0239846568976657
 31
0.0
210
0.0
220
0.0
230
1.0
 40
0.9973589999999999
 41
4.475481418371849
 42
5.32441657078266
  0
ELLIPSE
  5
15C
330
1F
100
AcDbEntity
  8
1
100
AcDbEllipse
 10
344.017588
 20
295.492419
 30
0.0
 11
-0.5397109347785421
 21
0.1334734425485497
 31
0.0
210
0.0
220
0.0
230
0.9999999999999998
 40
0.9973590000000001
 41
5.324416570782707
 42
6.244540143952531
  0
ELLIPSE
  5
15D
330
1F
100
AcDbEntity
  8
1
100
AcDbEllipse
 10
343.579411
 20
295.618886
 30
0.0
 11
-0.0969839493716005
 21
0.0239846568976657
 31
0.0
210
0.0
220
0.0
230
0.9999999999999998
 40
0.9973589999999999
 41
6.24454014395253
 42
7.093475296363212
  0
ELLIPSE
  5
15E
330
1F
100
AcDbEntity
  8
1
100
AcDbEllipse
 10
343.4110490000001
 20
295.511794
 30
0.0
 11
-0.0969839493716006
 21
0.0239846568976657
 31
0.0
210
0.0
220
0.0
230
1.0
 40
0.9973589999999999
 41
2.579348714764642
 42
3.951882642773571
  0
ELLIPSE
  5
15F
330
1F
100
AcDbEntity
  8
1
100
AcDbEllipse
 10
343.094688
 20
295.839817
 30
0.0
 11
-0.5397109347785423
 21
0.1334734425485497
 31
0.0
210
0.0
220
0.0
230
1.0
 40
0.9973590000000001
 41
1.659225141594594
 42
2.579348714764426
  0
ELLIPSE
  5
160
330
1F
100
AcDbEntity
  8
1
100
AcDbEllipse
 10
343.025014
 20
295.390315
 30
0.0
 11
-0.0969839493716004
 21
0.0239846568976657
 31
0.0
210
0.0
220
0.0
230
1.0
 40
0.9973589999999999
 41
0.2866912135854603
 42
1.659225141594729
  0
ELLIPSE
  5
161
330
1F
100
AcDbEntity
  8
1
100
AcDbEllipse
 10
342.825434
 20
295.381621
 30
0.0
 11
-0.0969839493716005
 21
0.0239846568976657
 31
0.0
210
0.0
220
0.0
230
1.0
 40
0.9973589999999999
 41
3.428283867175252
 42
4.277219019586003
  0
ELLIPSE
  5
162
330
1F
100
AcDbEntity
  8
1
100
AcDbEllipse
 10
342.539774
 20
295.027374
 30
0.0
 11
-0.5397109347785421
 21
0.1334734425485497
 31
0.0
210
0.0
220
0.0
230
0.9999999999999998
 40
0.9973590000000001
 41
4.277219019586078
 42
5.197342592755931
  0
ELLIPSE
  5
163
330
1F
100
AcDbEntity
  8
1
100
AcDbEllipse
 10
342.873419
 20
296.5372270000001
 30
0.0
 11
1.456132277865614
 21
-0.360109413037063
 31
0.0
210
0.0
220
0.0
230
1.0
 40
0.9973589999999999
 41
0.0
 42
6.283185307179585
  0
ELLIPSE
  5
164
330
1F
100
AcDbEntity
  8
1
100
AcDbEllipse
 10
342.876206
 20
296.548495
 30
0.0
 11
2.03858518901186
 21
-0.5041531782518883
 31
0.0
210
0.0
220
0.0
230
0.9999999999999998
 40
0.9973589999999999
 41
0.0
 42
6.283185307179585
  0
ELLIPSE
  5
165
330
1F
100
AcDbEntity
  8
1
100
AcDbEllipse
 10
296.852372
 20
270.327008
 30
0.0
 11
-20.74106254860346
 21
4.514671534185912
 31
0.0
210
0.0
220
0.0
230
0.9999999999999996
 40
0.6988770000000001
 41
6.123590070932815
 42
6.204712806782599
  0
ELLIPSE
  5
166
330
1F
100
AcDbEntity
  8
1
100
AcDbEllipse
 10
341.665887
 20
288.907994
 30
0.0
 11
19.73186833837354
 21
-11.3454479722512
 31
0.0
210
0.0
220
0.0
230
1.0
 40
0.095229
 41
3.972115273775409
 42
4.334521621327488
  0
ELLIPSE
  5
167
330
1F
100
AcDbEntity
  8
1
100
AcDbEllipse
 10
272.13206
 20
288.907994
 30
0.0
 11
244.4927753805105
 21
11.21493528840083
 31
0.0
210
0.0
220
0.0
230
1.0
 40
0.010408
 41
4.993995942702448
 42
5.014863116919793
  0
ELLIPSE
  5
168
330
1F
100
AcDbEntity
  8
1
100
AcDbEllipse
 10
342.890855
 20
296.607731
 30
0.0
 11
-2.038585189011861
 21
0.5041531782518872
 31
0.0
210
0.0
220
0.0
230
1.0
 40
0.9973589999999999
 41
3.141613722820887
 42
6.283108437511087
  0
ELLIPSE
  5
169
330
1F
100
AcDbEntity
  8
1
100
AcDbEllipse
 10
342.429998
 20
295.469058
 30
0.0
 11
-0.0969839493716005
 21
0.0239846568976657
 31
0.0
210
0.0
220
0.0
230
0.9999999999999998
 40
0.9973589999999999
 41
5.197342592755941
 42
6.046277745166811
  0
ELLIPSE
  5
16A
330
1F
100
AcDbEntity
  8
1
100
AcDbEllipse
 10
342.252676
 20
295.561091
 30
0.0
 11
-0.0969839493716006
 21
0.0239846568976657
 31
0.0
210
0.0
220
0.0
230
1.0
 40
0.9973589999999999
 41
1.532151163567485
 42
2.904685091576914
  0
ELLIPSE
  5
16B
330
1F
100
AcDbEntity
  8
1
100
AcDbEllipse
 10
342.3788990000001
 20
295.998089
 30
0.0
 11
-0.5397109347785423
 21
0.1334734425485497
 31
0.0
210
0.0
220
0.0
230
1.0
 40
0.9973590000000001
 41
0.6120275903979965
 42
1.532151163567804
  0
ELLIPSE
  5
16C
330
1F
100
AcDbEntity
  8
1
100
AcDbEllipse
 10
341.953796
 20
295.834017
 30
0.0
 11
-0.0969839493716004
 21
0.0239846568976657
 31
0.0
210
0.0
220
0.0
230
1.0
 40
0.9973589999999999
 41
5.522678969568306
 42
6.895212897577619
  0
ELLIPSE
  5
16D
330
1F
100
AcDbEntity
  8
1
100
AcDbEllipse
 10
341.846246
 20
296.002117
 30
0.0
 11
-0.0969839493716005
 21
0.0239846568976657
 31
0.0
210
0.0
220
0.0
230
1.0
 40
0.9973589999999999
 41
2.381086315978688
 42
3.230021468389435
  0
ELLIPSE
  5
16E
330
1F
100
AcDbEntity
  8
1
100
AcDbEllipse
 10
341.395605
 20
296.072182
 30
0.0
 11
-0.5397109347785421
 21
0.1334734425485497
 31
0.0
210
0.0
220
0.0
230
0.9999999999999998
 40
0.9973590000000001
 41
3.230021468389479
 42
4.150145041559308
  0
ELLIPSE
  5
16F
330
1F
100
AcDbEntity
  8
1
100
AcDbEllipse
 10
341.7240060000001
 20
296.3874
 30
0.0
 11
-0.0969839493716005
 21
0.0239846568976657
 31
0.0
210
0.0
220
0.0
230
0.9999999999999998
 40
0.9973589999999999
 41
4.150145041559281
 42
4.999080193970033
  0
ELLIPSE
  5
170
330
1F
100
AcDbEntity
  8
1
100
AcDbEllipse
 10
341.715046
 20
296.586525
 30
0.0
 11
-0.0969839493716006
 21
0.0239846568976657
 31
0.0
210
0.0
220
0.0
230
1.0
 40
0.9973589999999999
 41
0.4849536123712257
 42
1.857487540380533
  0
ELLIPSE
  5
171
330
1F
100
AcDbEntity
  8
1
100
AcDbEllipse
 10
342.15763
 20
296.6955
 30
0.0
 11
-0.5397109347785423
 21
0.1334734425485497
 31
0.0
210
0.0
220
0.0
230
1.0
 40
0.9973590000000001
 41
5.848015346380969
 42
6.768138919550815
  0
ELLIPSE
  5
172
330
1F
100
AcDbEntity
  8
1
100
AcDbEllipse
 10
341.802201
 20
296.980929
 30
0.0
 11
-0.0969839493716004
 21
0.0239846568976657
 31
0.0
210
0.0
220
0.0
230
1.0
 40
0.9973589999999999
 41
4.475481418371781
 42
5.848015346380794
  0
ELLIPSE
  5
173
330
1F
100
AcDbEntity
  8
1
100
AcDbEllipse
 10
341.894231
 20
297.157723
 30
0.0
 11
-0.0969839493716005
 21
0.0239846568976657
 31
0.0
210
0.0
220
0.0
230
1.0
 40
0.9973589999999999
 41
1.333888764781857
 42
2.182823917192905
  0
ELLIPSE
  5
174
330
1F
100
AcDbEntity
  8
1
100
AcDbEllipse
 10
341.72925
 20
297.582036
 30
0.0
 11
-0.5397109347785421
 21
0.1334734425485497
 31
0.0
210
0.0
220
0.0
230
0.9999999999999998
 40
0.9973590000000001
 41
2.182823917192876
 42
3.10294749036272
  0
ELLIPSE
  5
175
330
1F
100
AcDbEntity
  8
1
100
AcDbEllipse
 10
342.167427
 20
297.455569
 30
0.0
 11
-0.0969839493716005
 21
0.0239846568976657
 31
0.0
210
0.0
220
0.0
230
0.9999999999999998
 40
0.9973589999999999
 41
3.102947490362728
 42
3.951882642773496
  0
ELLIPSE
  5
176
330
1F
100
AcDbEntity
  8
1
100
AcDbEllipse
 10
342.335788
 20
297.562661
 30
0.0
 11
-0.0969839493716006
 21
0.0239846568976657
 31
0.0
210
0.0
220
0.0
230
1.0
 40
0.9973589999999999
 41
5.720941368354262
 42
7.093475296363365
  0
ELLIPSE
  5
177
330
1F
100
AcDbEntity
  8
1
100
AcDbEllipse
 10
342.65215
 20
297.234638
 30
0.0
 11
-0.5397109347785423
 21
0.1334734425485497
 31
0.0
210
0.0
220
0.0
230
1.0
 40
0.9973590000000001
 41
4.800817795184387
 42
5.720941368354232
  0
ELLIPSE
  5
178
330
1F
100
AcDbEntity
  8
1
100
AcDbEllipse
 10
342.721824
 20
297.68414
 30
0.0
 11
-0.0969839493716004
 21
0.0239846568976657
 31
0.0
210
0.0
220
0.0
230
1.0
 40
0.9973589999999999
 41
3.428283867175212
 42
4.800817795184231
  0
ELLIPSE
  5
179
330
1F
100
AcDbEntity
  8
1
100
AcDbEllipse
 10
342.921404
 20
297.692834
 30
0.0
 11
-0.0969839493716005
 21
0.0239846568976657
 31
0.0
210
0.0
220
0.0
230
1.0
 40
0.9973589999999999
 41
0.2866912135854202
 42
1.135626365996438
  0
ELLIPSE
  5
17A
330
1F
100
AcDbEntity
  8
1
100
AcDbEllipse
 10
343.207064
 20
298.047081
 30
0.0
 11
-0.5397109347785421
 21
0.1334734425485497
 31
0.0
210
0.0
220
0.0
230
0.9999999999999998
 40
0.9973590000000001
 41
1.135626365996242
 42
2.055749939166138
  0
ELLIPSE
  5
17B
330
1F
100
AcDbEntity
  8
1
100
AcDbEllipse
 10
343.31684
 20
297.605396
 30
0.0
 11
-0.0969839493716005
 21
0.0239846568976657
 31
0.0
210
0.0
220
0.0
230
0.9999999999999998
 40
0.9973589999999999
 41
2.055749939166005
 42
2.904685091576879
  0
ELLIPSE
  5
17C
330
1F
100
AcDbEntity
  8
1
100
AcDbEllipse
 10
343.494162
 20
297.513363
 30
0.0
 11
-0.0969839493716006
 21
0.0239846568976657
 31
0.0
210
0.0
220
0.0
230
1.0
 40
0.9973589999999999
 41
4.673743817157701
 42
6.046277745166709
  0
ELLIPSE
  5
17D
330
1F
100
AcDbEntity
  8
1
100
AcDbEllipse
 10
339.744718
 20
290.612361
 30
0.0
 11
-1.126900844436666
 21
-0.0543582171872533
 31
0.0
210
0.0
220
0.0
230
0.9999999999999998
 40
0.221492
 41
1.938109552285878
 42
4.338874104747288
  0
ELLIPSE
  5
17E
330
1F
100
AcDbEntity
  8
1
100
AcDbEllipse
 10
346.42554
 20
292.556523
 30
0.0
 11
0.0003720974354496
 21
0.5004807490616015
 31
0.0
210
0.0
220
0.0
230
1.0
 40
0.140029
 41
3.217531031709218
 42
4.788327358502103
  0
ELLIPSE
  5
17F
330
1F
100
AcDbEntity
  8
1
100
AcDbEllipse
 10
316.542997
 20
288.907994
 30
0.0
 11
74.71146043611874
 21
-8.227456766727319
 31
0.0
210
0.0
220
0.0
230
1.0
 40
0.107545
 41
4.389994101758055
 42
4.472118348134026
  0
ELLIPSE
  5
180
330
1F
100
AcDbEntity
  8
1
100
AcDbEllipse
 10
347.1060470000001
 20
288.907994
 30
0.0
 11
1.24474584833416
 21
11.49869940993049
 31
0.0
210
0.0
220
0.0
230
1.0
 40
0.138944
 41
1.938167500185774
 42
3.156632395651066
  0
ELLIPSE
  5
181
330
1F
100
AcDbEntity
  8
1
100
AcDbEllipse
 10
346.684842
 20
288.907994
 30
0.0
 11
0.0
 21
11.50000000026608
 31
0.0
210
0.0
220
0.0
230
1.0
 40
0.140541
 41
1.491440314817504
 42
1.923127758115958
  0
ELLIPSE
  5
182
330
1F
100
AcDbEntity
  8
1
100
AcDbEllipse
 10
297.904842
 20
280.253379
 30
0.0
 11
-1.523250634696339
 21
-6.832254935517068
 31
0.0
210
0.0
220
0.0
230
0.9999999999999998
 40
0.212631
 41
4.319861446031961
 42
5.101906981580873
  0
ELLIPSE
  5
183
330
1F
100
AcDbEntity
  8
1
100
AcDbEllipse
 10
345.97942
 20
282.2391169999999
 30
0.0
 11
0.0323262014611719
 21
0.2994966855051223
 31
0.0
210
0.0
220
0.0
230
1.0
 40
0.139171
 41
1.583568179246975
 42
3.154364506042541
  0
ELLIPSE
  5
184
330
1F
100
AcDbEntity
  8
1
100
AcDbEllipse
 10
346.26603
 20
288.979656
 30
0.0
 11
0.0001054973293702
 21
-0.3000466005998909
 31
0.0
210
0.0
220
0.0
230
0.9999999999999998
 40
0.140519
 41
3.139090475970036
 42
4.709886802762957
  0
SPLINE
  5
190
330
1F
100
AcDbEntity
  8
1
100
AcDbSpline
210
0.0
220
0.0
230
1.0
 70
     8
 71
     3
 72
    12
 73
     8
 74
     0
 42
0.000000001
 43
0.0000000001
 40
0.0
 40
0.0
 40
0.0
 40
0.0
 40
0.3216674082653165
 40
0.5879456945416263
 40
0.7985988658150718
 40
0.9535039663640088
 40
1.0
 40
1.0
 40
1.0
 40
1.0
 10
346.4932815918098
 20
300.6369019941524
 30
0.0
 10
346.4846827519315
 20
300.6406811295832
 30
0.0
 10
346.4686283624342
 20
300.6477416523343
 30
0.0
 10
346.4448366231308
 20
300.6582110461625
 30
0.0
 10
346.4271018311837
 20
300.6660304066833
 30
0.0
 10
346.4188280930859
 20
300.6696104974147
 30
0.0
 10
346.4166447337537
 20
300.6705315241648
 30
0.0
 10
346.4165148339148
 20
300.6705580714646
 30
0.0
  0
SPLINE
  5
191
330
1F
100
AcDbEntity
  8
1
100
AcDbSpline
210
0.0
220
0.0
230
1.0
 70
     8
 71
     3
 72
    11
 73
     7
 74
     0
 42
0.000000001
 43
0.0000000001
 40
0.0
 40
0.0
 40
0.0
 40
0.0
 40
0.0210202850872073
 40
0.2895905230553002
 40
0.6158707867991107
 40
1.0
 40
1.0
 40
1.0
 40
1.0
 10
346.5265880959175
 20
300.6004914854188
 30
0.0
 10
346.5266019599879
 20
300.6005097126307
 30
0.0
 10
346.5266561459543
 20
300.6008823981201
 30
0.0
 10
346.5231258620149
 20
300.6049821926142
 30
0.0
 10
346.5112048170058
 20
300.6177155205149
 30
0.0
 10
346.5002039516317
 20
300.629514035212
 30
0.0
 10
346.4932815918098
 20
300.6369019941524
 30
0.0
  0
SPLINE
  5
192
330
1F
100
AcDbEntity
  8
1
100
AcDbSpline
210
0.0
220
0.0
230
1.0
 70
     8
 71
     3
 72
    26
 73
    22
 74
     0
 42
0.000000001
 43
0.0000000001
 40
0.0
 40
0.0
 40
0.0
 40
0.0
 40
0.125
 40
0.125
 40
0.2499999999999999
 40
0.2499999999999999
 40
0.3124999999999999
 40
0.3124999999999999
 40
0.3749999999999999
 40
0.3749999999999999
 40
0.5
 40
0.5
 40
0.6250000000000001
 40
0.6250000000000001
 40
0.6875000000000001
 40
0.6875000000000001
 40
0.75
 40
0.75
 40
0.875
 40
0.875
 40
1.0
 40
1.0
 40
1.0
 40
1.0
 10
340.098115655895
 20
292.1373644286147
 30
0.0
 10
340.0583089398604
 20
292.1263595701096
 30
0.0
 10
340.018230014196
 20
292.1177006772855
 30
0.0
 10
339.9375340868137
 20
292.1049776614656
 30
0.0
 10
339.8969170134401
 20
292.1009141028946
 30
0.0
 10
339.8355807999532
 20
292.0983111204906
 30
0.0
 10
339.8150668476832
 20
292.0980266877923
 30
0.0
 10
339.7738992947812
 20
292.0986462551874
 30
0.0
 10
339.7531774308724
 20
292.0995571139528
 30
0.0
 10
339.6915016260038
 20
292.1040579037036
 30
0.0
 10
339.6509417897892
 20
292.1093937179266
 30
0.0
 10
339.5708532483167
 20
292.1245440935743
 30
0.0
 10
339.5313244659518
 20
292.1343586764871
 30
0.0
 10
339.4727569638341
 20
292.1524282313224
 30
0.0
 10
339.4533555739273
 20
292.1590107288563
 30
0.0
 10
339.4147891758018
 20
292.1733099172256
 30
0.0
 10
339.3956380154104
 20
292.1810261747174
 30
0.0
 10
339.3392205142005
 20
292.205585685528
 30
0.0
 10
339.3027518773847
 20
292.2239181462665
 30
0.0
 10
339.2319940772848
 20
292.2643684897448
 30
0.0
 10
339.1977052486437
 20
292.2864866064712
 30
0.0
 10
339.1644947816749
 20
292.3105073357406
 30
0.0
  0
SPLINE
  5
193
330
1F
100
AcDbEntity
  8
1
100
AcDbSpline
210
0.0
220
0.0
230
1.0
 70
     8
 71
     3
 72
    16
 73
    12
 74
     0
 42
0.000000001
 43
0.0000000001
 40
0.0
 40
0.0
 40
0.0
 40
0.0
 40
0.2500000000000003
 40
0.2500000000000003
 40
0.5000000000000006
 40
0.5000000000000006
 40
0.7500000000000009
 40
0.7500000000000009
 40
0.8750000000000003
 40
0.8750000000000003
 40
1.0
 40
1.0
 40
1.0
 40
1.0
 10
340.4858702999281
 20
292.3326549144237
 30
0.0
 10
340.4568967054694
 20
292.3101382077746
 30
0.0
 10
340.4270716421365
 20
292.2892059431652
 30
0.0
 10
340.3657515432795
 20
292.2504052405525
 30
0.0
 10
340.3342563977341
 20
292.2325372370021
 30
0.0
 10
340.2695720461426
 20
292.19987240455
 30
0.0
 10
340.2363829905597
 20
292.1850754108493
 30
0.0
 10
340.1852680647042
 20
292.1652687274187
 30
0.0
 10
340.1680161351679
 20
292.1590708328275
 30
0.0
 10
340.1332813567058
 20
292.1475646441852
 30
0.0
 10
340.11577150408
 20
292.1422455172956
 30
0.0
 10
340.098115655895
 20
292.1373644286147
 30
0.0
  0
SPLINE
  5
194
330
1F
100
AcDbEntity
  8
1
100
AcDbSpline
210
0.0
220
0.0
230
1.0
 70
    12
 71
     2
 72
     6
 73
     3
 74
     0
 42
0.000000001
 43
0.0000000001
 40
0.0
 40
0.0
 40
0.0
 40
1.0
 40
1.0
 40
1.0
 10
338.659521642814
 20
300.3154972767202
 30
0.0
 41
0.5000000970366228
 10
338.7717471206126
 20
300.315249166828
 30
0.0
 41
0.4999999029633772
 10
338.8839704332368
 20
300.3150003941146
 30
0.0
 41
0.5000000970366228
  0
SPLINE
  5
195
330
1F
100
AcDbEntity
  8
1
100
AcDbSpline
210
0.0
220
0.0
230
1.0
 70
     8
 71
     3
 72
    15
 73
    11
 74
     0
 42
0.000000001
 43
0.0000000001
 40
0.0
 40
0.0
 40
0.0
 40
0.0
 40
0.0478449178787041
 40
0.0478449178787041
 40
0.238275934302952
 40
0.4287069507271998
 40
0.4287069507271998
 40
0.6191379671514477
 40
0.6191379671514477
 40
1.0
 40
1.0
 40
1.0
 40
1.0
 10
339.1893071277508
 20
300.3262039684658
 30
0.0
 10
339.1880446571045
 20
300.3264608820999
 30
0.0
 10
339.1868101340747
 20
300.3267186229271
 30
0.0
 10
339.1808055913914
 20
300.3280051416772
 30
0.0
 10
339.1720766831555
 20
300.3300879032989
 30
0.0
 10
339.1650641227193
 20
300.3322170288653
 30
0.0
 10
339.1589238698105
 20
300.3343672884091
 30
0.0
 10
339.1562815533018
 20
300.3354579514165
 30
0.0
 10
339.1498076611132
 20
300.338713172007
 30
0.0
 10
339.147386561802
 20
300.3408634905784
 30
0.0
 10
339.1468895026527
 20
300.3429903245037
 30
0.0
  0
SPLINE
  5
196
330
1F
100
AcDbEntity
  8
1
100
AcDbSpline
210
0.0
220
0.0
230
1.0
 70
     8
 71
     3
 72
     8
 73
     4
 74
     0
 42
0.000000001
 43
0.0000000001
 40
0.0
 40
0.0
 40
0.0
 40
0.0
 40
1.0
 40
1.0
 40
1.0
 40
1.0
 10
291.372510756865
 20
300.4215990800984
 30
0.0
 10
291.5904763589078
 20
300.4125728597044
 30
0.0
 10
291.8103393704792
 20
300.4074361394478
 30
0.0
 10
292.0322589432653
 20
300.4065702153511
 30
0.0
  0
SPLINE
  5
197
330
1F
100
AcDbEntity
  8
1
100
AcDbSpline
210
0.0
220
0.0
230
1.0
 70
     8
 71
     3
 72
    20
 73
    16
 74
     0
 42
0.000000001
 43
0.0000000001
 40
0.0
 40
0.0
 40
0.0
 40
0.0
 40
0.1249999999999979
 40
0.1249999999999979
 40
0.2499999999999959
 40
0.2499999999999959
 40
0.3749999999999938
 40
0.3749999999999938
 40
0.4999999999999919
 40
0.4999999999999919
 40
0.6249999999999898
 40
0.6249999999999898
 40
0.7499999999999878
 40
0.7499999999999878
 40
1.0
 40
1.0
 40
1.0
 40
1.0
 10
343.0335009398886
 20
295.3878811038178
 30
0.0
 10
343.0276157712384
 20
295.3888373342533
 30
0.0
 10
343.0219167674433
 20
295.3903114603752
 30
0.0
 10
343.0108715032919
 20
295.3942392226283
 30
0.0
 10
343.0054753370343
 20
295.3967246855062
 30
0.0
 10
342.9953266174535
 20
295.4025427376474
 30
0.0
 10
342.9905826745678
 20
295.405855459737
 30
0.0
 10
342.9817235246982
 20
295.4132469964181
 30
0.0
 10
342.9775755353049
 20
295.4173670973477
 30
0.0
 10
342.9700997141166
 20
295.426196216112
 30
0.0
 10
342.9667916123955
 20
295.4308656552862
 30
0.0
 10
342.9609908479451
 20
295.4406863579765
 30
0.0
 10
342.9584885965101
 20
295.4458637963033
 30
0.0
 10
342.9523094781353
 20
295.4619700489268
 30
0.0
 10
342.9500444906151
 20
295.4730887044993
 30
0.0
 10
342.9496116631034
 20
295.4845814845313
 30
0.0
  0
SPLINE
  5
198
330
1F
100
AcDbEntity
  8
1
100
AcDbSpline
210
0.0
220
0.0
230
1.0
 70
     8
 71
     3
 72
    21
 73
    17
 74
     0
 42
0.000000001
 43
0.0000000001
 40
0.0
 40
0.0
 40
0.0
 40
0.0
 40
0.2499999999999637
 40
0.2499999999999637
 40
0.3124999999999722
 40
0.3124999999999722
 40
0.3749999999999807
 40
0.3749999999999807
 40
0.4999999999999977
 40
0.6250000000000147
 40
0.6250000000000147
 40
0.6875000000000214
 40
0.6875000000000214
 40
0.750000000000028
 40
0.750000000000028
 40
1.0
 40
1.0
 40
1.0
 40
1.0
 10
342.2487754350809
 20
295.5613967469201
 30
0.0
 10
342.2075214039997
 20
295.572998033859
 30
0.0
 10
342.1681807564636
 20
295.5892035903008
 30
0.0
 10
342.1214001342544
 20
295.6152089384613
 30
0.0
 10
342.112146796605
 20
295.6207144989981
 30
0.0
 10
342.0940914634158
 20
295.6321865004904
 30
0.0
 10
342.0852665426958
 20
295.6381641733589
 30
0.0
 10
342.0593889653766
 20
295.6568089632361
 30
0.0
 10
342.0264741770389
 20
295.6835621391617
 30
0.0
 10
341.9967152105988
 20
295.7140763361818
 30
0.0
 10
341.9756189488104
 20
295.7384195931327
 30
0.0
 10
341.9688068029629
 20
295.7467632303155
 30
0.0
 10
341.955767863784
 20
295.7637174585117
 30
0.0
 10
341.9495186095325
 20
295.7723534078391
 30
0.0
 10
341.9195991491972
 20
295.816313039022
 30
0.0
 10
341.8998571345562
 20
295.8539457030209
 30
0.0
 10
341.8844220907488
 20
295.8941093722887
 30
0.0
  0
SPLINE
  5
199
330
1F
100
AcDbEntity
  8
1
100
AcDbSpline
210
0.0
220
0.0
230
1.0
 70
     8
 71
     3
 72
    14
 73
    10
 74
     0
 42
0.000000001
 43
0.0000000001
 40
0.0
 40
0.0
 40
0.0
 40
0.0
 40
0.25
 40
0.25
 40
0.5
 40
0.5
 40
0.75
 40
0.75
 40
1.0
 40
1.0
 40
1.0
 40
1.0
 10
342.9128709733507
 20
295.5597466759731
 30
0.0
 10
342.9185291117172
 20
295.555059911069
 30
0.0
 10
342.9236395685991
 20
295.5497579263223
 30
0.0
 10
342.9324826329845
 20
295.5383876682438
 30
0.0
 10
342.9362412492681
 20
295.5323162475014
 30
0.0
 10
342.9424764698155
 20
295.5194225004154
 30
0.0
 10
342.9449297915742
 20
295.5125968545498
 30
0.0
 10
342.9483415065468
 20
295.4988075566594
 30
0.0
 10
342.9493409763296
 20
295.4917689748434
 30
0.0
 10
342.9496116631034
 20
295.4845814845313
 30
0.0
  0
SPLINE
  5
19A
330
1F
100
AcDbEntity
  8
1
100
AcDbSpline
210
0.0
220
0.0
230
1.0
 70
     8
 71
     3
 72
    21
 73
    17
 74
     0
 42
0.000000001
 43
0.0000000001
 40
0.0
 40
0.0
 40
0.0
 40
0.0
 40
0.2499999999999765
 40
0.2499999999999765
 40
0.3124999999999706
 40
0.3124999999999706
 40
0.3749999999999647
 40
0.3749999999999647
 40
0.4999999999999858
 40
0.625000000000007
 40
0.625000000000007
 40
0.6875000000000075
 40
0.6875000000000075
 40
0.7500000000000079
 40
0.7500000000000079
 40
1.0
 40
1.0
 40
1.0
 40
1.0
 10
341.8208058448432
 20
296.5569760458457
 30
0.0
 10
341.8503265607457
 20
296.5272360285514
 30
0.0
 10
341.8760877413936
 20
296.494372705772
 30
0.0
 10
341.9035276404885
 20
296.4492064601533
 30
0.0
 10
341.9087743734399
 20
296.4399662860239
 30
0.0
 10
341.9187703313743
 20
296.421056669932
 30
0.0
 10
341.9235284449956
 20
296.411362353165
 30
0.0
 10
341.9368335617157
 20
296.3820570163978
 30
0.0
 10
341.9521398617758
 20
296.3421456041506
 30
0.0
 10
341.9626874668135
 20
296.3005934987722
 30
0.0
 10
341.9687824861576
 20
296.2688045358623
 30
0.0
 10
341.9705154272977
 20
296.2580649514792
 30
0.0
 10
341.9733350653903
 20
296.2365765818571
 30
0.0
 10
341.9744218270967
 20
296.2258489853727
 30
0.0
 10
341.9782938992564
 20
296.1722890501251
 30
0.0
 10
341.9764588889652
 20
296.1296884047453
 30
0.0
 10
341.9698235463012
 20
296.0872924018777
 30
0.0
  0
SPLINE
  5
19B
330
1F
100
AcDbEntity
  8
1
100
AcDbSpline
210
0.0
220
0.0
230
1.0
 70
     8
 71
     3
 72
    22
 73
    18
 74
     0
 42
0.000000001
 43
0.0000000001
 40
0.0
 40
0.0
 40
0.0
 40
0.0
 40
0.125
 40
0.125
 40
0.25
 40
0.25
 40
0.375
 40
0.375
 40
0.5
 40
0.5
 40
0.625
 40
0.625
 40
0.75
 40
0.75
 40
0.875
 40
0.875
 40
1.0
 40
1.0
 40
1.0
 40
1.0
 10
341.7439134936566
 20
296.5855759164448
 30
0.0
 10
341.7382661744619
 20
296.5851872963151
 30
0.0
 10
341.7326170724217
 20
296.5852744630239
 30
0.0
 10
341.7215119805986
 20
296.5863684865137
 30
0.0
 10
341.716028544293
 20
296.5873725400328
 30
0.0
 10
341.7052049204607
 20
296.5903209064438
 30
0.0
 10
341.6998695761848
 20
296.5922751861086
 30
0.0
 10
341.6897170989316
 20
296.5970185539443
 30
0.0
 10
341.6848513666724
 20
296.5998180966128
 30
0.0
 10
341.6755611925849
 20
296.6063096874087
 30
0.0
 10
341.6711615796492
 20
296.6099973418835
 30
0.0
 10
341.6631397685117
 20
296.6180303492412
 30
0.0
 10
341.6594750950161
 20
296.62240278615
 30
0.0
 10
341.6528799022682
 20
296.6318996948424
 30
0.0
 10
341.6500055910943
 20
296.6369562951463
 30
0.0
 10
341.6452203283094
 20
296.6474686058485
 30
0.0
 10
341.6432869088661
 20
296.6529551565082
 30
0.0
 10
341.6418427515559
 20
296.6586866464556
 30
0.0
  0
SPLINE
  5
19C
330
1F
100
AcDbEntity
  8
1
100
AcDbSpline
210
0.0
220
0.0
230
1.0
 70
     8
 71
     3
 72
    12
 73
     8
 74
     0
 42
0.000000001
 43
0.0000000001
 40
0.0
 40
0.0
 40
0.0
 40
0.0
 40
0.7250992048772064
 40
0.7250992048772064
 40
0.9063740060964933
 40
0.9063740060964933
 40
1.0
 40
1.0
 40
1.0
 40
1.0
 10
341.6418427515559
 20
296.6586866464556
 30
0.0
 10
341.6314546065984
 20
296.6999145293059
 30
0.0
 10
341.6259675562395
 20
296.7418387621372
 30
0.0
 10
341.6252348555305
 20
296.7951043468637
 30
0.0
 10
341.6254009120133
 20
296.8058236094214
 30
0.0
 10
341.6261222457605
 20
296.8219629216342
 30
0.0
 10
341.6264500660838
 20
296.8274459815289
 30
0.0
 10
341.6268592634112
 20
296.8329154819863
 30
0.0
  0
SPLINE
  5
19D
330
1F
100
AcDbEntity
  8
1
100
AcDbSpline
210
0.0
220
0.0
230
1.0
 70
     8
 71
     3
 72
    36
 73
    32
 74
     0
 42
0.000000001
 43
0.0000000001
 40
0.0
 40
0.0
 40
0.0
 40
0.0
 40
0.1249999999999696
 40
0.1249999999999696
 40
0.1874999999999502
 40
0.1874999999999502
 40
0.2187499999999463
 40
0.2187499999999463
 40
0.2499999999999424
 40
0.2499999999999424
 40
0.3749999999999775
 40
0.3749999999999775
 40
0.4062499999999817
 40
0.4062499999999817
 40
0.4374999999999857
 40
0.4374999999999857
 40
0.4999999999999707
 40
0.4999999999999707
 40
0.6249999999999664
 40
0.6249999999999664
 40
0.6562499999999804
 40
0.6562499999999804
 40
0.6874999999999943
 40
0.7500000000000222
 40
0.8125000000000502
 40
0.8125000000000502
 40
0.8437500000000476
 40
0.8437500000000476
 40
0.8750000000000447
 40
0.8750000000000447
 40
1.0
 40
1.0
 40
1.0
 40
1.0
 10
339.169891863453
 20
293.3099514024931
 30
0.0
 10
339.1721626983957
 20
293.2594868397233
 30
0.0
 10
339.1795960105387
 20
293.2101345423916
 30
0.0
 10
339.1979589286599
 20
293.1376601400394
 30
0.0
 10
339.2052924387778
 20
293.1137632493914
 30
0.0
 10
339.2181329146152
 20
293.0783143902729
 30
0.0
 10
339.2227342771504
 20
293.0665325603724
 30
0.0
 10
339.2324808494425
 20
293.0432926430467
 30
0.0
 10
339.2376235720593
 20
293.0318345997791
 30
0.0
 10
339.2646529713269
 20
292.9753350931745
 30
0.0
 10
339.2904474865467
 20
292.9326420098641
 30
0.0
 10
339.3278173641409
 20
292.8823565196113
 30
0.0
 10
339.3355501197058
 20
292.8724549330746
 30
0.0
 10
339.3515409289793
 20
292.8529674331402
 30
0.0
 10
339.3598052983707
 20
292.8433773809368
 30
0.0
 10
339.3851256561195
 20
292.8153825916179
 30
0.0
 10
339.4027896916193
 20
292.7976469599409
 30
0.0
 10
339.4580709029168
 20
292.7471490377657
 30
0.0
 10
339.4979539894642
 20
292.7170682718179
 30
0.0
 10
339.551736904494
 20
292.6841170396169
 30
0.0
 10
339.5626947671536
 20
292.6777623725856
 30
0.0
 10
339.5847690803771
 20
292.6656629854987
 30
0.0
 10
339.618207040989
 20
292.6483737860499
 30
0.0
 10
339.6755437321571
 20
292.6237901809802
 30
0.0
 10
339.7231209893754
 20
292.6086214171091
 30
0.0
 10
339.7594621396398
 20
292.5989783697895
 30
0.0
 10
339.7716857669887
 20
292.5960534930299
 30
0.0
 10
339.7963585399104
 20
292.5907976885312
 30
0.0
 10
339.8088208021972
 20
292.5884662695865
 30
0.0
 10
339.8711057891377
 20
292.5784270437485
 30
0.0
 10
339.9212991278225
 20
292.5754123711849
 30
0.0
 10
339.9718724540478
 20
292.5776154106812
 30
0.0
  0
SPLINE
  5
19E
330
1F
100
AcDbEntity
  8
1
100
AcDbSpline
210
0.0
220
0.0
230
1.0
 70
     8
 71
     3
 72
    36
 73
    32
 74
     0
 42
0.000000001
 43
0.0000000001
 40
0.0
 40
0.0
 40
0.0
 40
0.0
 40
0.1249999999999931
 40
0.1249999999999931
 40
0.1874999999999897
 40
0.1874999999999897
 40
0.2187499999999801
 40
0.2187499999999801
 40
0.2499999999999705
 40
0.2499999999999705
 40
0.3749999999999133
 40
0.3749999999999133
 40
0.4062499999998966
 40
0.4062499999998966
 40
0.4374999999998798
 40
0.4374999999998798
 40
0.4999999999998659
 40
0.4999999999998659
 40
0.6249999999998384
 40
0.6249999999998384
 40
0.6562499999998474
 40
0.6562499999998474
 40
0.6874999999998562
 40
0.7499999999998721
 40
0.8124999999998879
 40
0.8124999999998879
 40
0.8437499999999122
 40
0.8437499999999122
 40
0.8749999999999362
 40
0.8749999999999362
 40
1.0
 40
1.0
 40
1.0
 40
1.0
 10
346.8106906244817
 20
300.0334700837246
 30
0.0
 10
346.8084197895391
 20
300.0839346464943
 30
0.0
 10
346.8009864773961
 20
300.133286943826
 30
0.0
 10
346.7826235592748
 20
300.2057613461782
 30
0.0
 10
346.7752900491569
 20
300.2296582368263
 30
0.0
 10
346.7624495733195
 20
300.2651070959448
 30
0.0
 10
346.7578482107843
 20
300.2768889258453
 30
0.0
 10
346.7481016384923
 20
300.300128843171
 30
0.0
 10
346.7429589158755
 20
300.3115868864385
 30
0.0
 10
346.7159295166078
 20
300.3680863930431
 30
0.0
 10
346.690135001388
 20
300.4107794763535
 30
0.0
 10
346.6527651237939
 20
300.4610649666063
 30
0.0
 10
346.645032368229
 20
300.4709665531431
 30
0.0
 10
346.6290415589556
 20
300.4904540530775
 30
0.0
 10
346.6207771895641
 20
300.5000441052808
 30
0.0
 10
346.5954568318152
 20
300.5280388945998
 30
0.0
 10
346.5777927963155
 20
300.5457745262767
 30
0.0
 10
346.522511585018
 20
300.5962724484519
 30
0.0
 10
346.4826284984706
 20
300.6263532143998
 30
0.0
 10
346.4288455834408
 20
300.6593044466007
 30
0.0
 10
346.4178877207811
 20
300.6656591136321
 30
0.0
 10
346.3958134075577
 20
300.6777585007189
 30
0.0
 10
346.3623754469458
 20
300.6950477001677
 30
0.0
 10
346.3050387557777
 20
300.7196313052374
 30
0.0
 10
346.2574614985595
 20
300.7348000691085
 30
0.0
 10
346.2211203482949
 20
300.7444431164281
 30
0.0
 10
346.2088967209462
 20
300.7473679931878
 30
0.0
 10
346.1842239480243
 20
300.7526237976865
 30
0.0
 10
346.1717616857376
 20
300.7549552166311
 30
0.0
 10
346.1094766987971
 20
300.7649944424691
 30
0.0
 10
346.0592833601123
 20
300.7680091150327
 30
0.0
 10
346.0087100338869
 20
300.7658060755365
 30
0.0
  0
SPLINE
  5
19F
330
1F
100
AcDbEntity
  8
1
100
AcDbSpline
210
0.0
220
0.0
230
1.0
 70
     8
 71
     3
 72
    36
 73
    32
 74
     0
 42
0.000000001
 43
0.0000000001
 40
0.0
 40
0.0
 40
0.0
 40
0.0
 40
0.1250000000000327
 40
0.1250000000000327
 40
0.1875000000000496
 40
0.1875000000000496
 40
0.218750000000058
 40
0.218750000000058
 40
0.2500000000000664
 40
0.2500000000000664
 40
0.3750000000000944
 40
0.3750000000000944
 40
0.4062500000001077
 40
0.4062500000001077
 40
0.437500000000121
 40
0.437500000000121
 40
0.5000000000001221
 40
0.5000000000001221
 40
0.6250000000001475
 40
0.6250000000001475
 40
0.6562500000001404
 40
0.6562500000001404
 40
0.6875000000001333
 40
0.7500000000001077
 40
0.812500000000082
 40
0.812500000000082
 40
0.8437500000000694
 40
0.8437500000000694
 40
0.8750000000000564
 40
0.8750000000000564
 40
1.0
 40
1.0
 40
1.0
 40
1.0
 10
339.6159463730311
 20
300.487329022787
 30
0.0
 10
339.5653663689105
 20
300.4851256923931
 30
0.0
 10
339.515907599284
 20
300.4777705736503
 30
0.0
 10
339.4432860199453
 20
300.4595398799622
 30
0.0
 10
339.4193421769098
 20
300.4522529552005
 30
0.0
 10
339.3838260863095
 20
300.4394861675332
 30
0.0
 10
339.3720223225457
 20
300.4349100755983
 30
0.0
 10
339.348739966349
 20
300.4252149159306
 30
0.0
 10
339.3372614151116
 20
300.4200983294732
 30
0.0
 10
339.280662843083
 20
300.3932017101512
 30
0.0
 10
339.2379015212378
 20
300.3675200731145
 30
0.0
 10
339.1875442703127
 20
300.3302994722186
 30
0.0
 10
339.1776290149681
 20
300.3225969848397
 30
0.0
 10
339.1581155645046
 20
300.3066675499765
 30
0.0
 10
339.1485132286668
 20
300.2984343066643
 30
0.0
 10
339.1204840550154
 20
300.2732076031561
 30
0.0
 10
339.102728639823
 20
300.2556066915402
 30
0.0
 10
339.0521805357423
 20
300.2005168604138
 30
0.0
 10
339.0220784471455
 20
300.1607640183214
 30
0.0
 10
338.9891162988383
 20
300.1071473563157
 30
0.0
 10
338.9827602486425
 20
300.0962229240968
 30
0.0
 10
338.9706597198208
 20
300.0742150904366
 30
0.0
 10
338.9533712249157
 20
300.0408765520248
 30
0.0
 10
338.9288006895704
 20
299.9837041021872
 30
0.0
 10
338.9136550258001
 20
299.9362566836408
 30
0.0
 10
338.9040341765373
 20
299.9000123133347
 30
0.0
 10
338.9011175128434
 20
299.8878208459406
 30
0.0
 10
338.8958798040809
 20
299.86321218768
 30
0.0
 10
338.8935582828227
 20
299.8507819113466
 30
0.0
 10
338.8835723036948
 20
299.7886547985835
 30
0.0
 10
338.8806124331324
 20
299.7385824293995
 30
0.0
 10
338.8828829682649
 20
299.6881245292838
 30
0.0
  0
SPLINE
  5
1A0
330
1F
100
AcDbEntity
  8
1
100
AcDbSpline
210
0.0
220
0.0
230
1.0
 70
     8
 71
     3
 72
    36
 73
    32
 74
     0
 42
0.000000001
 43
0.0000000001
 40
0.0
 40
0.0
 40
0.0
 40
0.0
 40
0.1250000000000587
 40
0.1250000000000587
 40
0.1875000000001052
 40
0.1875000000001052
 40
0.2187500000001118
 40
0.2187500000001118
 40
0.2500000000001185
 40
0.2500000000001185
 40
0.3750000000001121
 40
0.3750000000001121
 40
0.4062500000001185
 40
0.4062500000001185
 40
0.4375000000001247
 40
0.4375000000001247
 40
0.5000000000001118
 40
0.5000000000001118
 40
0.6250000000000858
 40
0.6250000000000858
 40
0.6562500000000839
 40
0.6562500000000839
 40
0.6875000000000818
 40
0.7500000000000627
 40
0.8125000000000435
 40
0.8125000000000435
 40
0.8437500000000339
 40
0.8437500000000339
 40
0.8750000000000241
 40
0.8750000000000241
 40
1.0
 40
1.0
 40
1.0
 40
1.0
 10
346.3646361149037
 20
292.8560924634306
 30
0.0
 10
346.4152161190242
 20
292.8582957938246
 30
0.0
 10
346.4646748886507
 20
292.8656509125671
 30
0.0
 10
346.5372964679897
 20
292.8838816062555
 30
0.0
 10
346.561240311025
 20
292.8911685310171
 30
0.0
 10
346.5967564016253
 20
292.9039353186844
 30
0.0
 10
346.608560165389
 20
292.9085114106194
 30
0.0
 10
346.6318425215858
 20
292.9182065702871
 30
0.0
 10
346.6433210728231
 20
292.9233231567444
 30
0.0
 10
346.6999196448518
 20
292.9502197760664
 30
0.0
 10
346.742680966697
 20
292.9759014131032
 30
0.0
 10
346.7930382176222
 20
293.0131220139992
 30
0.0
 10
346.8029534729666
 20
293.0208245013779
 30
0.0
 10
346.8224669234302
 20
293.0367539362411
 30
0.0
 10
346.832069259268
 20
293.0449871795534
 30
0.0
 10
346.8600984329193
 20
293.0702138830617
 30
0.0
 10
346.8778538481118
 20
293.0878147946774
 30
0.0
 10
346.9284019521924
 20
293.1429046258038
 30
0.0
 10
346.9585040407894
 20
293.1826574678962
 30
0.0
 10
346.9914661890965
 20
293.2362741299018
 30
0.0
 10
346.9978222392922
 20
293.2471985621209
 30
0.0
 10
347.0099227681141
 20
293.2692063957811
 30
0.0
 10
347.027211263019
 20
293.3025449341928
 30
0.0
 10
347.0517817983644
 20
293.3597173840304
 30
0.0
 10
347.0669274621347
 20
293.4071648025767
 30
0.0
 10
347.0765483113975
 20
293.4434091728828
 30
0.0
 10
347.0794649750914
 20
293.4556006402771
 30
0.0
 10
347.0847026838538
 20
293.4802092985377
 30
0.0
 10
347.0870242051121
 20
293.492639574871
 30
0.0
 10
347.0970101842399
 20
293.5547666876342
 30
0.0
 10
347.0999700548023
 20
293.6048390568182
 30
0.0
 10
347.0976995196698
 20
293.6552969569338
 30
0.0
  0
SPLINE
  5
1A1
330
1F
100
AcDbEntity
  8
1
100
AcDbSpline
210
0.0
220
0.0
230
1.0
 70
     8
 71
     3
 72
    14
 73
    10
 74
     0
 42
0.000000001
 43
0.0000000001
 40
0.0
 40
0.0
 40
0.0
 40
0.0
 40
0.25
 40
0.25
 40
0.5
 40
0.5
 40
0.75
 40
0.75
 40
1.0
 40
1.0
 40
1.0
 40
1.0
 10
296.1567136089497
 20
300.3572802220115
 30
0.0
 10
295.8105433752907
 20
300.3632536570802
 30
0.0
 10
295.4651614976587
 20
300.3690351532871
 30
0.0
 10
294.7756452043853
 20
300.3797480202067
 30
0.0
 10
294.4315096761372
 20
300.3846801255085
 30
0.0
 10
293.7442773745553
 20
300.3933351931396
 30
0.0
 10
293.4011801654541
 20
300.3970600128917
 30
0.0
 10
292.7159636517377
 20
300.4030098519915
 30
0.0
 10
292.3738446803007
 20
300.405237357158
 30
0.0
 10
292.0322589432653
 20
300.4065702153511
 30
0.0
  0
SPLINE
  5
1A2
330
1F
100
AcDbEntity
  8
1
100
AcDbSpline
210
0.0
220
0.0
230
1.0
 70
    24
 71
     3
 72
    10
 73
     6
 74
     0
 42
0.000000001
 43
0.0000000001
 40
0.0
 40
0.0
 40
0.0
 40
0.0
 40
0.5
 40
0.5
 40
1.0
 40
1.0
 40
1.0
 40
1.0
 10
339.4678419461063
 20
290.8815358804437
 30
0.0
 10
339.467841946119
 20
290.7172805266381
 30
0.0
 10
339.4678419461263
 20
290.5896201052808
 30
0.0
 10
339.4678419461297
 20
290.4125647827458
 30
0.0
 10
339.4678419461259
 20
290.3631745934852
 30
0.0
 10
339.4678419461166
 20
290.3539037293867
 30
0.0
  0
SPLINE
  5
1A3
330
1F
100
AcDbEntity
  8
1
100
AcDbSpline
210
0.0
220
0.0
230
1.0
 70
     8
 71
     3
 72
    26
 73
    22
 74
     0
 42
0.000000001
 43
0.0000000001
 40
0.0
 40
0.0
 40
0.0
 40
0.0
 40
0.2500000000000007
 40
0.2500000000000007
 40
0.3750000000000039
 40
0.3750000000000039
 40
0.5000000000000072
 40
0.5000000000000072
 40
0.6250000000000107
 40
0.6250000000000107
 40
0.6875000000000151
 40
0.6875000000000151
 40
0.7187500000000146
 40
0.7187500000000146
 40
0.7500000000000142
 40
0.7500000000000142
 40
0.8750000000000072
 40
0.8750000000000072
 40
0.9375000000000035
 40
0.9375000000000035
 40
1.0
 40
1.0
 40
1.0
 40
1.0
 10
336.0242593043509
 20
292.248488294391
 30
0.0
 10
336.3558038327117
 20
292.0920189213701
 30
0.0
 10
336.6824772215956
 20
291.9498152409844
 30
0.0
 10
337.1599265209337
 20
291.7544057416346
 30
0.0
 10
337.3169660025416
 20
291.6922442364649
 30
0.0
 10
337.6257143642717
 20
291.5731606677649
 30
0.0
 10
337.7774192515034
 20
291.5162390441271
 30
0.0
 10
338.0742119823661
 20
291.4068090051098
 30
0.0
 10
338.2193360159562
 20
291.3543054873247
 30
0.0
 10
338.4309101961337
 20
291.2781331927003
 30
0.0
 10
338.5004133343394
 20
291.2531715486564
 30
0.0
 10
338.6029466403475
 20
291.2162650917202
 30
0.0
 10
338.6368580284146
 20
291.2040446046462
 30
0.0
 10
338.7039661006927
 20
291.1797998518605
 30
0.0
 10
338.7371440046196
 20
291.167782395635
 30
0.0
 10
338.9010611921824
 20
291.1081665918638
 30
0.0
 10
339.0259456851798
 20
291.061996317664
 30
0.0
 10
339.2015076942485
 20
290.9938631289746
 30
0.0
 10
339.2580565889343
 20
290.9713366526223
 30
0.0
 10
339.3665897238784
 20
290.9264123878082
 30
0.0
 10
339.4185787259972
 20
290.9040154893394
 30
0.0
 10
339.4678419452958
 20
290.8815358804569
 30
0.0
  0
SPLINE
  5
1A4
330
1F
100
AcDbEntity
  8
1
100
AcDbSpline
210
0.0
220
0.0
230
1.0
 70
     8
 71
     3
 72
    31
 73
    27
 74
     0
 42
0.000000001
 43
0.0000000001
 40
0.0
 40
0.0
 40
0.0
 40
0.0
 40
0.1250000000000021
 40
0.1250000000000021
 40
0.2500000000000042
 40
0.2500000000000042
 40
0.3750000000000065
 40
0.3750000000000065
 40
0.406250000000007
 40
0.406250000000007
 40
0.4218750000000068
 40
0.4218750000000068
 40
0.4375000000000066
 40
0.5000000000000062
 40
0.5000000000000062
 40
0.6250000000000053
 40
0.6250000000000053
 40
0.7500000000000044
 40
0.7500000000000044
 40
0.8125000000000033
 40
0.8125000000000033
 40
0.8437500000000028
 40
0.8437500000000028
 40
0.8750000000000021
 40
0.8750000000000021
 40
1.0
 40
1.0
 40
1.0
 40
1.0
 10
279.4048419452961
 20
279.419363737431
 30
0.0
 10
279.2096791139186
 20
279.3096569479796
 30
0.0
 10
279.0220766509755
 20
279.1939283317961
 30
0.0
 10
278.6618431451662
 20
278.9512291949329
 30
0.0
 10
278.4892115413242
 20
278.8242578068284
 30
0.0
 10
278.1592246959631
 20
278.5595522751824
 30
0.0
 10
278.0018662739707
 20
278.4218188823256
 30
0.0
 10
277.815222143427
 20
278.2430276674272
 30
0.0
 10
277.7783974141132
 20
278.2069373774286
 30
0.0
 10
277.7239305046903
 20
278.1523031994304
 30
0.0
 10
277.7058943815356
 20
278.133999281076
 30
0.0
 10
277.6701868274709
 20
278.0973341974465
 30
0.0
 10
277.5817710390577
 20
278.0054700827133
 30
0.0
 10
277.4976035271727
 20
277.9126232102268
 30
0.0
 10
277.3037009586226
 20
277.6880630587301
 30
0.0
 10
277.1852107103739
 20
277.5360590570577
 30
0.0
 10
276.9699881149407
 20
277.2281389577935
 30
0.0
 10
276.8732525095898
 20
277.0722222310866
 30
0.0
 10
276.7451537203765
 20
276.8357770462547
 30
0.0
 10
276.7052940945334
 20
276.7565321758803
 30
0.0
 10
276.6499105729709
 20
276.6370524223973
 30
0.0
 10
276.632164883468
 20
276.5970752376293
 30
0.0
 10
276.5983311495296
 20
276.5173049552197
 30
0.0
 10
276.5822275746474
 20
276.4774826164342
 30
0.0
 10
276.5057690421648
 20
276.2787052831862
 30
0.0
 10
276.4575585888346
 20
276.1207566900651
 30
0.0
 10
276.4224798243481
 20
275.964113226509
 30
0.0
  0
SPLINE
  5
1A5
330
1F
100
AcDbEntity
  8
1
100
AcDbSpline
210
0.0
220
0.0
230
1.0
 70
     8
 71
     3
 72
    30
 73
    26
 74
     0
 42
0.000000001
 43
0.0000000001
 40
0.0
 40
0.0
 40
0.0
 40
0.0
 40
0.1249999999999994
 40
0.1249999999999994
 40
0.2499999999999987
 40
0.2499999999999987
 40
0.3749999999999981
 40
0.3749999999999981
 40
0.4374999999999981
 40
0.4374999999999981
 40
0.4687499999999978
 40
0.4843749999999976
 40
0.4843749999999976
 40
0.4999999999999976
 40
0.4999999999999976
 40
0.6249999999999984
 40
0.6249999999999984
 40
0.7499999999999993
 40
0.7499999999999993
 40
0.8750000000000003
 40
0.8750000000000003
 40
0.9062500000000003
 40
0.9062500000000003
 40
0.9375000000000003
 40
1.0
 40
1.0
 40
1.0
 40
1.0
 10
280.7185504442805
 20
280.7370631886122
 30
0.0
 10
281.0052165312819
 20
281.002889051844
 30
0.0
 10
281.3022673452032
 20
281.2545443034557
 30
0.0
 10
281.9174116964842
 20
281.7300654373235
 30
0.0
 10
282.2355028073382
 20
281.9539327078902
 30
0.0
 10
282.8935336150872
 20
282.3735644735019
 30
0.0
 10
283.2334685166947
 20
282.5693350135262
 30
0.0
 10
283.7608413982943
 20
282.8409523170522
 30
0.0
 10
283.9395495533397
 20
282.9278102066428
 30
0.0
 10
284.2121800898969
 20
283.0523702635227
 30
0.0
 10
284.349638077305
 20
283.1132176396168
 30
0.0
 10
284.4888525078492
 20
283.171868237951
 30
0.0
 10
284.5820576282211
 20
283.2104744441025
 30
0.0
 10
284.6288870934884
 20
283.2295420862323
 30
0.0
 10
285.0514972874507
 20
283.3986367233364
 30
0.0
 10
285.4336860988307
 20
283.5305090638562
 30
0.0
 10
286.2114207250428
 20
283.7565859212705
 30
0.0
 10
286.6069678148169
 20
283.8507924106795
 30
0.0
 10
287.4119553842035
 20
283.9994298480423
 30
0.0
 10
287.8213979594865
 20
284.0538632771731
 30
0.0
 10
288.3423449693964
 20
284.0948631940499
 30
0.0
 10
288.4470995073459
 20
284.1017120550675
 30
0.0
 10
288.6568518411061
 20
284.112599144129
 30
0.0
 10
288.9718940071067
 20
284.1247276499672
 30
0.0
 10
289.2881520095138
 20
284.1241585258481
 30
0.0
 10
289.4995046146497
 20
284.1180375403188
 30
0.0
  0
SPLINE
  5
1A6
330
1F
100
AcDbEntity
  8
1
100
AcDbSpline
210
0.0
220
0.0
230
1.0
 70
     8
 71
     3
 72
    10
 73
     6
 74
     0
 42
0.000000001
 43
0.0000000001
 40
0.0
 40
0.0
 40
0.0
 40
0.0
 40
0.5
 40
0.5
 40
1.0
 40
1.0
 40
1.0
 40
1.0
 10
280.7185504442805
 20
280.7370631886122
 30
0.0
 10
280.4954562150381
 20
280.530187597953
 30
0.0
 10
280.2743150087476
 20
280.3175265888605
 30
0.0
 10
279.8362882819956
 20
279.8789315416263
 30
0.0
 10
279.6194015756499
 20
279.6530052250921
 30
0.0
 10
279.404841945296
 20
279.4193637374308
 30
0.0
  0
SPLINE
  5
1A7
330
1F
100
AcDbEntity
  8
1
100
AcDbSpline
210
0.0
220
0.0
230
1.0
 70
     8
 71
     3
 72
    20
 73
    16
 74
     0
 42
0.000000001
 43
0.0000000001
 40
0.0
 40
0.0
 40
0.0
 40
0.0
 40
0.125
 40
0.125
 40
0.2500000000000001
 40
0.2500000000000001
 40
0.3750000000000001
 40
0.3750000000000001
 40
0.5000000000000001
 40
0.5000000000000001
 40
0.6250000000000001
 40
0.6250000000000001
 40
0.7500000000000002
 40
0.7500000000000002
 40
1.0
 40
1.0
 40
1.0
 40
1.0
 10
333.3668052445115
 20
291.786520748144
 30
0.0
 10
333.12286533935
 20
291.9197801601485
 30
0.0
 10
332.8793139872715
 20
292.0545955726494
 30
0.0
 10
332.3927936272666
 20
292.3265584542714
 30
0.0
 10
332.1498260225187
 20
292.4637115425642
 30
0.0
 10
331.6643605656535
 20
292.7398988915263
 30
0.0
 10
331.4218634072768
 20
292.8789359303505
 30
0.0
 10
330.9372738784843
 20
293.1586310227209
 30
0.0
 10
330.6951818777583
 20
293.2992905567278
 30
0.0
 10
330.2113705903102
 20
293.5821021960292
 30
0.0
 10
329.9696515078721
 20
293.7242551193992
 30
0.0
 10
329.4865787781018
 20
294.0100243883356
 30
0.0
 10
329.2452263086155
 20
294.1536454507066
 30
0.0
 10
328.5217241810587
 20
294.5867323168906
 30
0.0
 10
328.0401281183426
 20
294.8784150498292
 30
0.0
 10
327.5592857386262
 20
295.1731159832988
 30
0.0
  0
SPLINE
  5
1A8
330
1F
100
AcDbEntity
  8
1
100
AcDbSpline
210
0.0
220
0.0
230
1.0
 70
     8
 71
     3
 72
    17
 73
    13
 74
     0
 42
0.000000001
 43
0.0000000001
 40
0.0
 40
0.0
 40
0.0
 40
0.0
 40
0.2499999999999912
 40
0.2499999999999912
 40
0.3124999999999902
 40
0.3124999999999902
 40
0.3749999999999893
 40
0.4999999999999875
 40
0.4999999999999875
 40
0.7499999999999937
 40
0.7499999999999937
 40
1.0
 40
1.0
 40
1.0
 40
1.0
 10
336.0242593043509
 20
292.248488294391
 30
0.0
 10
336.3541667316241
 20
292.1548076636503
 30
0.0
 10
336.6880736090775
 20
292.074224742469
 30
0.0
 10
337.1105056036605
 20
291.9901043715805
 30
0.0
 10
337.1952566658744
 20
291.9741114019349
 30
0.0
 10
337.3647761172454
 20
291.9438813615581
 30
0.0
 10
337.6192628959132
 20
291.9011329868629
 30
0.0
 10
337.8743684812024
 20
291.8661307900155
 30
0.0
 10
338.3853981642341
 20
291.806386257762
 30
0.0
 10
338.7271745818497
 20
291.7802196461548
 30
0.0
 10
339.4129063735988
 20
291.7552554401243
 30
0.0
 10
339.7568616746722
 20
291.7564567437059
 30
0.0
 10
340.1019286334728
 20
291.7716383713182
 30
0.0
  0
SPLINE
  5
1A9
330
1F
100
AcDbEntity
  8
1
100
AcDbSpline
210
0.0
220
0.0
230
1.0
 70
     8
 71
     3
 72
     8
 73
     4
 74
     0
 42
0.000000001
 43
0.0000000001
 40
0.0
 40
0.0
 40
0.0
 40
0.0
 40
1.0
 40
1.0
 40
1.0
 40
1.0
 10
340.1019286334729
 20
291.7716383713182
 30
0.0
 10
340.1058354220233
 20
291.7718102550857
 30
0.0
 10
340.1097433009423
 20
291.7719813375575
 30
0.0
 10
340.113652272052
 20
291.7721516173945
 30
0.0
  0
SPLINE
  5
1AA
330
1F
100
AcDbEntity
  8
1
100
AcDbSpline
210
0.0
220
0.0
230
1.0
 70
     8
 71
     3
 72
    27
 73
    23
 74
     0
 42
0.000000001
 43
0.0000000001
 40
0.0
 40
0.0
 40
0.0
 40
0.0
 40
0.1249999999999951
 40
0.1249999999999951
 40
0.2499999999999903
 40
0.2499999999999903
 40
0.2812499999999905
 40
0.2812499999999905
 40
0.3124999999999906
 40
0.3749999999999909
 40
0.3749999999999909
 40
0.4999999999999915
 40
0.4999999999999915
 40
0.5624999999999904
 40
0.5624999999999904
 40
0.6249999999999893
 40
0.6249999999999893
 40
0.7499999999999928
 40
0.7499999999999928
 40
0.8749999999999964
 40
0.8749999999999964
 40
1.0
 40
1.0
 40
1.0
 40
1.0
 10
333.3818331838758
 20
291.3472879769443
 30
0.0
 10
333.6338125855874
 20
291.1894491674364
 30
0.0
 10
333.891448279631
 20
291.0415371028357
 30
0.0
 10
334.4178296231589
 20
290.7656293025835
 30
0.0
 10
334.6865748802185
 20
290.6376322442918
 30
0.0
 10
335.0294257764293
 20
290.4902692680266
 30
0.0
 10
335.0983722217408
 20
290.4614174575868
 30
0.0
 10
335.2366663351249
 20
290.4051023783611
 30
0.0
 10
335.4447949139991
 20
290.3226741646934
 30
0.0
 10
335.6549719997218
 20
290.2463530812333
 30
0.0
 10
336.0780323908981
 20
290.1018145687743
 30
0.0
 10
336.3636767937231
 20
290.0162491421142
 30
0.0
 10
336.7975232356439
 20
289.9041339043355
 30
0.0
 10
336.9431960607024
 20
289.8694418791879
 30
0.0
 10
337.2347606562008
 20
289.8058368981444
 30
0.0
 10
337.3808085567099
 20
289.7768772050019
 30
0.0
 10
337.8197369130412
 20
289.6984098855051
 30
0.0
 10
338.1134007272526
 20
289.6573009769028
 30
0.0
 10
338.7027854481262
 20
289.5971884462227
 30
0.0
 10
338.9985063551661
 20
289.5781847682083
 30
0.0
 10
339.5920141678569
 20
289.5624021062216
 30
0.0
 10
339.8898009558699
 20
289.5656218914376
 30
0.0
 10
340.1886467620958
 20
289.5802318279748
 30
0.0
  0
SPLINE
  5
1AB
330
1F
100
AcDbEntity
  8
1
100
AcDbSpline
210
0.0
220
0.0
230
1.0
 70
     8
 71
     3
 72
    39
 73
    35
 74
     0
 42
0.000000001
 43
0.0000000001
 40
0.0
 40
0.0
 40
0.0
 40
0.0
 40
0.0312499999999969
 40
0.0312499999999969
 40
0.0624999999999938
 40
0.0624999999999938
 40
0.0937499999999907
 40
0.0937499999999907
 40
0.1249999999999876
 40
0.1249999999999876
 40
0.1562499999999845
 40
0.1562499999999845
 40
0.1874999999999814
 40
0.1874999999999814
 40
0.2499999999999814
 40
0.2499999999999814
 40
0.3124999999999814
 40
0.3124999999999814
 40
0.3749999999999814
 40
0.3749999999999814
 40
0.4374999999999816
 40
0.4374999999999816
 40
0.4999999999999816
 40
0.4999999999999816
 40
0.6249999999999846
 40
0.6249999999999846
 40
0.6562499999999846
 40
0.6562499999999846
 40
0.6874999999999846
 40
0.7499999999999876
 40
0.7499999999999876
 40
0.8749999999999937
 40
0.8749999999999937
 40
1.0
 40
1.0
 40
1.0
 40
1.0
 10
339.4678419452958
 20
290.3539037293858
 30
0.0
 10
339.4166020744121
 20
290.3439893768029
 30
0.0
 10
339.3624599348909
 20
290.3354821775675
 30
0.0
 10
339.2495947637062
 20
290.3210176323554
 30
0.0
 10
339.1908667764164
 20
290.3150618703454
 30
0.0
 10
339.0697276913588
 20
290.3055203433973
 30
0.0
 10
339.0072728393915
 20
290.3019338314056
 30
0.0
 10
338.8795452332622
 20
290.2970022557592
 30
0.0
 10
338.8151271197098
 20
290.2956855727755
 30
0.0
 10
338.685483515465
 20
290.2950706682101
 30
0.0
 10
338.620256603677
 20
290.2957737894003
 30
0.0
 10
338.4892061966949
 20
290.2990027064491
 30
0.0
 10
338.423381922518
 20
290.3015292286727
 30
0.0
 10
338.2252490636101
 20
290.3116239647992
 30
0.0
 10
338.0922920268683
 20
290.3216966952363
 30
0.0
 10
337.8254987984788
 20
290.3477231037081
 30
0.0
 10
337.6915987669877
 20
290.3636904533745
 30
0.0
 10
337.4236903865688
 20
290.4009703581842
 30
0.0
 10
337.2901554971882
 20
290.422214717818
 30
0.0
 10
337.0240452483422
 20
290.4694910561232
 30
0.0
 10
336.8914691649445
 20
290.495525056158
 30
0.0
 10
336.6273543851185
 20
290.5521046301826
 30
0.0
 10
336.495815288675
 20
290.5826513096831
 30
0.0
 10
336.1028340045526
 20
290.6807851353023
 30
0.0
 10
335.8430320600247
 20
290.7548410430545
 30
0.0
 10
335.5211764676707
 20
290.857767575236
 30
0.0
 10
335.4569207014274
 20
290.878882437767
 30
0.0
 10
335.3288498800175
 20
290.9220971440883
 30
0.0
 10
335.1374692136051
 20
290.9883739200915
 30
0.0
 10
334.9482608860345
 20
291.0589687533885
 30
0.0
 10
334.5727269290382
 20
291.2058455044747
 30
0.0
 10
334.3262136035542
 20
291.3113320768438
 30
0.0
 10
333.8408044552935
 20
291.5374528012853
 30
0.0
 10
333.6019075579998
 20
291.6580891328426
 30
0.0
 10
333.3668052445115
 20
291.786520748144
 30
0.0
  0
SPLINE
  5
1AC
330
1F
100
AcDbEntity
  8
1
100
AcDbSpline
210
0.0
220
0.0
230
1.0
 70
     8
 71
     3
 72
    39
 73
    35
 74
     0
 42
0.000000001
 43
0.0000000001
 40
0.0
 40
0.0
 40
0.0
 40
0.0
 40
0.1250000000000142
 40
0.1250000000000142
 40
0.2500000000000285
 40
0.2500000000000285
 40
0.3125000000000288
 40
0.3125000000000288
 40
0.3750000000000289
 40
0.3750000000000289
 40
0.4375000000000294
 40
0.4375000000000294
 40
0.5000000000000297
 40
0.5000000000000297
 40
0.5625000000000301
 40
0.5625000000000301
 40
0.6250000000000303
 40
0.6250000000000303
 40
0.6562500000000307
 40
0.6562500000000307
 40
0.6875000000000321
 40
0.6875000000000321
 40
0.7187500000000333
 40
0.7187500000000333
 40
0.7500000000000347
 40
0.7812500000000361
 40
0.7812500000000361
 40
0.8125000000000374
 40
0.8125000000000374
 40
0.875000000000025
 40
0.875000000000025
 40
0.9375000000000124
 40
0.9375000000000124
 40
1.0
 40
1.0
 40
1.0
 40
1.0
 10
335.4948837879015
 20
292.4402653163569
 30
0.0
 10
335.4595460915012
 20
292.4539246883524
 30
0.0
 10
335.4253542323931
 20
292.4689070344912
 30
0.0
 10
335.3597737299569
 20
292.5020847790096
 30
0.0
 10
335.3283712139821
 20
292.5202643898127
 30
0.0
 10
335.2840965139948
 20
292.5507615179812
 30
0.0
 10
335.2698141749016
 20
292.5614701890662
 30
0.0
 10
335.2424286906714
 20
292.5842310379731
 30
0.0
 10
335.2294590691244
 20
292.5961737850857
 30
0.0
 10
335.2053572330091
 20
292.6213717357431
 30
0.0
 10
335.1942068600069
 20
292.6346356219891
 30
0.0
 10
335.1742733823835
 20
292.6628705000828
 30
0.0
 10
335.1656688295499
 20
292.6775889351863
 30
0.0
 10
335.1518899266744
 20
292.7085393073854
 30
0.0
 10
335.1466944416667
 20
292.7247923775118
 30
0.0
 10
335.1410272289478
 20
292.7592598762143
 30
0.0
 10
335.1406718072188
 20
292.776840853923
 30
0.0
 10
335.1445820965935
 20
292.8038364147036
 30
0.0
 10
335.1466560305989
 20
292.8129813541866
 30
0.0
 10
335.1522409999771
 20
292.8308933511709
 30
0.0
 10
335.1557549312672
 20
292.8397296471209
 30
0.0
 10
335.1641984808554
 20
292.8571677305357
 30
0.0
 10
335.1691444738717
 20
292.8657938043742
 30
0.0
 10
335.1803752510357
 20
292.8827103155915
 30
0.0
 10
335.1927454255149
 20
292.8990104185329
 30
0.0
 10
335.2071281143068
 20
292.9142225855962
 30
0.0
 10
335.2224164826239
 20
292.9289456080366
 30
0.0
 10
335.2304923069651
 20
292.9360351743554
 30
0.0
 10
335.2554120598342
 20
292.9562461535602
 30
0.0
 10
335.2731007545394
 20
292.968480347623
 30
0.0
 10
335.3100777800319
 20
292.9911070070107
 30
0.0
 10
335.3294453408728
 20
293.0015227881936
 30
0.0
 10
335.3688322444528
 20
293.0205953059214
 30
0.0
 10
335.3889125859733
 20
293.0292937918092
 30
0.0
 10
335.409295999725
 20
293.0373360334069
 30
0.0
  0
SPLINE
  5
1AD
330
1F
100
AcDbEntity
  8
1
100
AcDbSpline
210
0.0
220
0.0
230
1.0
 70
     8
 71
     3
 72
    15
 73
    11
 74
     0
 42
0.000000001
 43
0.0000000001
 40
0.0
 40
0.0
 40
0.0
 40
0.0
 40
0.25
 40
0.5
 40
0.5
 40
0.75
 40
0.75
 40
0.875
 40
0.875
 40
1.0
 40
1.0
 40
1.0
 40
1.0
 10
295.9824711889116
 20
277.9585097465324
 30
0.0
 10
296.136872942304
 20
277.9755553828854
 30
0.0
 10
296.4486022004367
 20
278.0062848827322
 30
0.0
 10
296.766206860649
 20
278.0292746294959
 30
0.0
 10
297.0868048667119
 20
278.0479526392134
 30
0.0
 10
297.2486003418252
 20
278.0551359207119
 30
0.0
 10
297.4936157806611
 20
278.0623908468524
 30
0.0
 10
297.5756750207087
 20
278.0642229441206
 30
0.0
 10
297.7405863617912
 20
278.0666724155827
 30
0.0
 10
297.8228406054038
 20
278.067280580517
 30
0.0
 10
297.9048419452957
 20
278.067280580517
 30
0.0
  0
SPLINE
  5
1AE
330
1F
100
AcDbEntity
  8
1
100
AcDbSpline
210
0.0
220
0.0
230
1.0
 70
     8
 71
     3
 72
    28
 73
    24
 74
     0
 42
0.000000001
 43
0.0000000001
 40
0.0
 40
0.0
 40
0.0
 40
0.0
 40
0.0562699398647073
 40
0.0562699398647073
 40
0.1152530686231625
 40
0.1152530686231625
 40
0.1742361973816175
 40
0.1742361973816175
 40
0.2922024548985289
 40
0.2922024548985289
 40
0.4101687124154403
 40
0.4101687124154403
 40
0.5281349699323526
 40
0.5281349699323526
 40
0.5871180986908083
 40
0.5871180986908083
 40
0.6461012274492642
 40
0.6461012274492642
 40
0.7640674849661762
 40
0.7640674849661762
 40
0.8820337424830881
 40
0.8820337424830881
 40
1.0
 40
1.0
 40
1.0
 40
1.0
 10
311.3265278256557
 20
280.0325686708746
 30
0.0
 10
311.0807632834035
 20
279.9728255364508
 30
0.0
 10
310.8348742451904
 20
279.914150028928
 30
0.0
 10
310.3307932997583
 20
279.7964490034439
 30
0.0
 10
310.0725815749061
 20
279.7375349478761
 30
0.0
 10
309.5554947524112
 20
279.6225770758471
 30
0.0
 10
309.2966013783422
 20
279.5665298016341
 30
0.0
 10
308.5190952464307
 20
279.4030123979401
 30
0.0
 10
307.9995209643446
 20
279.3001685486814
 30
0.0
 10
306.9569713758724
 20
279.107232055398
 30
0.0
 10
306.4339971400989
 20
279.0171293979097
 30
0.0
 10
305.384091743448
 20
278.849234330464
 30
0.0
 10
304.8571631264924
 20
278.7714319551541
 30
0.0
 10
304.0636220732793
 20
278.6632323001318
 30
0.0
 10
303.7985346981055
 20
278.6285736236496
 30
0.0
 10
303.2676021309403
 20
278.5619741752762
 30
0.0
 10
303.0017636264167
 20
278.5300332766352
 30
0.0
 10
302.2031309240596
 20
278.4380384847639
 30
0.0
 10
301.669216886188
 20
278.3818113746101
 30
0.0
 10
300.5984828332356
 20
278.278216264045
 30
0.0
 10
300.0616641290211
 20
278.2308455360424
 30
0.0
 10
298.9852716270099
 20
278.1436760022594
 30
0.0
 10
298.4456986815595
 20
278.1038760643869
 30
0.0
 10
297.9048419452957
 20
278.067280580517
 30
0.0
  0
SPLINE
  5
1AF
330
1F
100
AcDbEntity
  8
1
100
AcDbSpline
210
0.0
220
0.0
230
1.0
 70
     8
 71
     3
 72
    12
 73
     8
 74
     0
 42
0.000000001
 43
0.0000000001
 40
0.0
 40
0.0
 40
0.0
 40
0.0
 40
0.2499999999999994
 40
0.2499999999999994
 40
0.4999999999999988
 40
0.4999999999999988
 40
1.0
 40
1.0
 40
1.0
 40
1.0
 10
292.0322589432653
 20
277.7091296611719
 30
0.0
 10
292.3576427654217
 20
277.7305103974095
 30
0.0
 10
292.6838578115474
 20
277.7522050802897
 30
0.0
 10
293.3380871973127
 20
277.7955809169299
 30
0.0
 10
293.6661020358584
 20
277.8172623430476
 30
0.0
 10
294.6531687512564
 20
277.8811774948999
 30
0.0
 10
295.3152262194853
 20
277.9223113978852
 30
0.0
 10
295.9824711889114
 20
277.9585097465325
 30
0.0
  0
SPLINE
  5
1B0
330
1F
100
AcDbEntity
  8
1
100
AcDbSpline
210
0.0
220
0.0
230
1.0
 70
     8
 71
     3
 72
    17
 73
    13
 74
     0
 42
0.000000001
 43
0.0000000001
 40
0.0
 40
0.0
 40
0.0
 40
0.0
 40
0.25
 40
0.25
 40
0.5
 40
0.75
 40
0.75
 40
0.875
 40
0.875
 40
0.9375
 40
0.9375
 40
1.0
 40
1.0
 40
1.0
 40
1.0
 10
297.9048419452959
 20
300.3229694511789
 30
0.0
 10
297.7549463982725
 20
300.3229694511789
 30
0.0
 10
297.6061278842351
 20
300.3238081126566
 30
0.0
 10
297.3105730905252
 20
300.3270363927334
 30
0.0
 10
297.0171008000405
 20
300.3318151989283
 30
0.0
 10
296.7277272842157
 20
300.3392350840355
 30
0.0
 10
296.5122360246444
 20
300.3455388494764
 30
0.0
 10
296.4406623577518
 20
300.3477624120695
 30
0.0
 10
296.3336897175267
 20
300.3512418227197
 30
0.0
 10
296.2980818844296
 20
300.3524261144452
 30
0.0
 10
296.2271888945462
 20
300.3548286801122
 30
0.0
 10
296.1918819246791
 20
300.3560476407933
 30
0.0
 10
296.1567136089488
 20
300.357280222012
 30
0.0
  0
SPLINE
  5
1B1
330
1F
100
AcDbEntity
  8
1
100
AcDbSpline
210
0.0
220
0.0
230
1.0
 70
     8
 71
     3
 72
    14
 73
    10
 74
     0
 42
0.000000001
 43
0.0000000001
 40
0.0
 40
0.0
 40
0.0
 40
0.0
 40
0.2616088242611165
 40
0.2616088242611165
 40
0.5232176485222331
 40
0.5232176485222331
 40
0.7848264727833496
 40
0.7848264727833496
 40
1.0
 40
1.0
 40
1.0
 40
1.0
 10
342.2759955337104
 20
297.6077284341433
 30
0.0
 10
342.2798232721369
 20
297.6019957735982
 30
0.0
 10
342.2830194776215
 20
297.5958696550596
 30
0.0
 10
342.2880126001529
 20
297.5831193359057
 30
0.0
 10
342.2898022215271
 20
297.5765453188919
 30
0.0
 10
342.2919525460018
 20
297.5629918561594
 30
0.0
 10
342.2922939827019
 20
297.5559783012441
 30
0.0
 10
342.2915148346929
 20
297.5433760382451
 30
0.0
 10
342.2906572403961
 20
297.5377046741622
 30
0.0
 10
342.2892572705858
 20
297.5320488939524
 30
0.0
  0
SPLINE
  5
1B2
330
1F
100
AcDbEntity
  8
1
100
AcDbSpline
210
0.0
220
0.0
230
1.0
 70
     8
 71
     3
 72
    10
 73
     6
 74
     0
 42
0.000000001
 43
0.0000000001
 40
0.0
 40
0.0
 40
0.0
 40
0.0
 40
0.5887477868432235
 40
0.5887477868432235
 40
1.0
 40
1.0
 40
1.0
 40
1.0
 10
342.2759955337098
 20
297.6077284341445
 30
0.0
 10
342.2729358101623
 20
297.612310867557
 30
0.0
 10
342.2702880948962
 20
297.6171321223363
 30
0.0
 10
342.2665470054968
 20
297.625573168148
 30
0.0
 10
342.2652180895933
 20
297.6291275566193
 30
0.0
 10
342.2641031304672
 20
297.6327664230906
 30
0.0
  0
SPLINE
  5
1B3
330
1F
100
AcDbEntity
  8
1
100
AcDbSpline
210
0.0
220
0.0
230
1.0
 70
     8
 71
     3
 72
    14
 73
    10
 74
     0
 42
0.000000001
 43
0.0000000001
 40
0.0
 40
0.0
 40
0.0
 40
0.0
 40
0.002619407424055
 40
0.002619407424055
 40
0.1688495061866812
 40
0.1688495061866812
 40
0.3350796049493074
 40
0.3350796049493074
 40
1.0
 40
1.0
 40
1.0
 40
1.0
 10
344.1383921541449
 20
296.2930792719073
 30
0.0
 10
344.1383371888602
 20
296.2929200710288
 30
0.0
 10
344.1382821472829
 20
296.2927608852405
 30
0.0
 10
344.1347291954602
 20
296.2825005901382
 30
0.0
 10
344.1309279474307
 20
296.272481217604
 30
0.0
 10
344.1228110970062
 20
296.2528260225472
 30
0.0
 10
344.1184848116744
 20
296.2431582464267
 30
0.0
 10
344.0955383836903
 20
296.1956043795062
 30
0.0
 10
344.0730246922204
 20
296.1600420998589
 30
0.0
 10
344.0462475640152
 20
296.127033418982
 30
0.0
  0
SPLINE
  5
1B4
330
1F
100
AcDbEntity
  8
1
100
AcDbSpline
210
0.0
220
0.0
230
1.0
 70
     8
 71
     3
 72
    20
 73
    16
 74
     0
 42
0.000000001
 43
0.0000000001
 40
0.0
 40
0.0
 40
0.0
 40
0.0
 40
0.1249999999999662
 40
0.1249999999999662
 40
0.2499999999999325
 40
0.2499999999999325
 40
0.3749999999998986
 40
0.3749999999998986
 40
0.4999999999998649
 40
0.4999999999998649
 40
0.6249999999998312
 40
0.6249999999998312
 40
0.7499999999997974
 40
0.7499999999997974
 40
1.0
 40
1.0
 40
1.0
 40
1.0
 10
344.0462475640152
 20
296.127033418982
 30
0.0
 10
344.0425203944265
 20
296.1224388653546
 30
0.0
 10
344.0384477988483
 20
296.1182678887914
 30
0.0
 10
344.0296498700341
 20
296.1107277768452
 30
0.0
 10
344.0248727640379
 20
296.1073317317008
 30
0.0
 10
344.0149248817936
 20
296.101526712675
 30
0.0
 10
344.0097737268942
 20
296.0991141480948
 30
0.0
 10
343.9991362954884
 20
296.0952207517943
 30
0.0
 10
343.9935984120424
 20
296.0937325623419
 30
0.0
 10
343.982436387106
 20
296.0917641139113
 30
0.0
 10
343.9768535412285
 20
296.0912803063212
 30
0.0
 10
343.9656862611422
 20
296.0912616698179
 30
0.0
 10
343.9600740483534
 20
296.0917320414475
 30
0.0
 10
343.9434198574945
 20
296.0945805593289
 30
0.0
 10
343.9329169607291
 20
296.0982745387688
 30
0.0
 10
343.923009862471
 20
296.1037420707243
 30
0.0
  0
SPLINE
  5
1B5
330
1F
100
AcDbEntity
  8
1
100
AcDbSpline
210
0.0
220
0.0
230
1.0
 70
     8
 71
     3
 72
    14
 73
    10
 74
     0
 42
0.000000001
 43
0.0000000001
 40
0.0
 40
0.0
 40
0.0
 40
0.0
 40
0.25
 40
0.25
 40
0.5
 40
0.5
 40
0.75
 40
0.75
 40
1.0
 40
1.0
 40
1.0
 40
1.0
 10
343.8413265228308
 20
296.1102058788327
 30
0.0
 10
343.8480994847656
 20
296.1127120708034
 30
0.0
 10
343.8551171527242
 20
296.114432160419
 30
0.0
 10
343.869109696431
 20
296.1162923011309
 30
0.0
 10
343.8761012735469
 20
296.1164534135607
 30
0.0
 10
343.890079560853
 20
296.1152862172935
 30
0.0
 10
343.8970557358126
 20
296.113936385519
 30
0.0
 10
343.9103811582423
 20
296.1098753656921
 30
0.0
 10
343.9168139414833
 20
296.1071614772055
 30
0.0
 10
343.923009862471
 20
296.1037420707243
 30
0.0
  0
SPLINE
  5
1B6
330
1F
100
AcDbEntity
  8
1
100
AcDbSpline
210
0.0
220
0.0
230
1.0
 70
     8
 71
     3
 72
    21
 73
    17
 74
     0
 42
0.000000001
 43
0.0000000001
 40
0.0
 40
0.0
 40
0.0
 40
0.0
 40
0.2499999999999735
 40
0.2499999999999735
 40
0.312499999999969
 40
0.312499999999969
 40
0.3749999999999646
 40
0.3749999999999646
 40
0.4999999999999986
 40
0.6250000000000327
 40
0.6250000000000327
 40
0.6875000000000496
 40
0.6875000000000496
 40
0.7500000000000667
 40
0.7500000000000667
 40
1.0
 40
1.0
 40
1.0
 40
1.0
 10
343.5082834214561
 20
295.7471137623547
 30
0.0
 10
343.5201644179553
 20
295.7883464915752
 30
0.0
 10
343.5364683910141
 20
295.8277111287359
 30
0.0
 10
343.562519466195
 20
295.874569834727
 30
0.0
 10
343.5680169315341
 20
295.8838226382917
 30
0.0
 10
343.5796055809749
 20
295.9020833331192
 30
0.0
 10
343.585713911404
 20
295.9111113029626
 30
0.0
 10
343.6046701691197
 20
295.937419565919
 30
0.0
 10
343.6317685972298
 20
295.9706846331819
 30
0.0
 10
343.6624307383648
 20
296.0004026391845
 30
0.0
 10
343.6867876677744
 20
296.0213388746067
 30
0.0
 10
343.6951650444387
 20
296.0281147532148
 30
0.0
 10
343.7122224557097
 20
296.0410825810681
 30
0.0
 10
343.7208844932342
 20
296.047264430822
 30
0.0
 10
343.7648431004834
 20
296.0767165594476
 30
0.0
 10
343.8020565589182
 20
296.0956748554478
 30
0.0
 10
343.8413265228308
 20
296.1102058788327
 30
0.0
  0
SPLINE
  5
1B7
330
1F
100
AcDbEntity
  8
1
100
AcDbSpline
210
0.0
220
0.0
230
1.0
 70
     8
 71
     3
 72
     8
 73
     4
 74
     0
 42
0.000000001
 43
0.0000000001
 40
0.0
 40
0.0
 40
0.0
 40
0.0
 40
1.0
 40
1.0
 40
1.0
 40
1.0
 10
343.8878040811693
 20
297.2678144294335
 30
0.0
 10
343.8827843533581
 20
297.262960047312
 30
0.0
 10
343.8772497471989
 20
297.2586903485787
 30
0.0
 10
343.8712047902713
 20
297.2550015782696
 30
0.0
  0
SPLINE
  5
1B8
330
1F
100
AcDbEntity
  8
1
100
AcDbSpline
210
0.0
220
0.0
230
1.0
 70
     8
 71
     3
 72
    14
 73
    10
 74
     0
 42
0.000000001
 43
0.0000000001
 40
0.0
 40
0.0
 40
0.0
 40
0.0
 40
0.1653519721282214
 40
0.1653519721282214
 40
0.4435679814188143
 40
0.4435679814188143
 40
0.7217839907094072
 40
0.7217839907094072
 40
1.0
 40
1.0
 40
1.0
 40
1.0
 10
343.8284365585585
 20
297.1967116638481
 30
0.0
 10
343.8294497278746
 20
297.200802971004
 30
0.0
 10
343.8307237248414
 20
297.2047952394405
 30
0.0
 10
343.8347718227114
 20
297.2151095125891
 30
0.0
 10
343.8379662388015
 20
297.2211866853688
 30
0.0
 10
343.845627449461
 20
297.2325853200689
 30
0.0
 10
343.8501076492702
 20
297.2378868908086
 30
0.0
 10
343.8599349691304
 20
297.2472656500723
 30
0.0
 10
343.8653242091745
 20
297.2514131138338
 30
0.0
 10
343.8712047902713
 20
297.2550015782696
 30
0.0
  0
SPLINE
  5
1B9
330
1F
100
AcDbEntity
  8
1
100
AcDbSpline
210
0.0
220
0.0
230
1.0
 70
     8
 71
     3
 72
    21
 73
    17
 74
     0
 42
0.000000001
 43
0.0000000001
 40
0.0
 40
0.0
 40
0.0
 40
0.0
 40
0.2499999999999104
 40
0.2499999999999104
 40
0.3124999999998868
 40
0.3124999999998868
 40
0.3749999999998631
 40
0.3749999999998631
 40
0.4999999999998901
 40
0.6249999999999171
 40
0.6249999999999171
 40
0.6874999999999309
 40
0.6874999999999309
 40
0.749999999999945
 40
0.749999999999945
 40
1.0
 40
1.0
 40
1.0
 40
1.0
 10
343.5041013984003
 20
295.5359717879174
 30
0.0
 10
343.4731648830862
 20
295.506059746135
 30
0.0
 10
343.4392587076837
 20
295.4801288964655
 30
0.0
 10
343.393166591913
 20
295.4526897260714
 30
0.0
 10
343.3837393979727
 20
295.4474444826539
 30
0.0
 10
343.3647193890629
 20
295.4375775418069
 30
0.0
 10
343.3551053239497
 20
295.4329416564493
 30
0.0
 10
343.3259566024016
 20
295.4199104696071
 30
0.0
 10
343.2862762057471
 20
295.4048671472344
 30
0.0
 10
343.2449759001624
 20
295.3944551996995
 30
0.0
 10
343.2133729519989
 20
295.3884410935405
 30
0.0
 10
343.2027538357789
 20
295.3867425641645
 30
0.0
 10
343.1815845683708
 20
295.3839874982504
 30
0.0
 10
343.1710012211429
 20
295.3829242693093
 30
0.0
 10
343.1180910106289
 20
295.379151450252
 30
0.0
 10
343.0757832030178
 20
295.3810110225538
 30
0.0
 10
343.0335009398886
 20
295.3878811038178
 30
0.0
  0
SPLINE
  5
1BA
330
1F
100
AcDbEntity
  8
1
100
AcDbSpline
210
0.0
220
0.0
230
1.0
 70
     8
 71
     3
 72
    21
 73
    17
 74
     0
 42
0.000000001
 43
0.0000000001
 40
0.0
 40
0.0
 40
0.0
 40
0.0
 40
0.2500000000000401
 40
0.2500000000000401
 40
0.3125000000000702
 40
0.3125000000000702
 40
0.3750000000001001
 40
0.3750000000001001
 40
0.5000000000000802
 40
0.6250000000000603
 40
0.6250000000000603
 40
0.6875000000000501
 40
0.6875000000000501
 40
0.7500000000000401
 40
0.7500000000000401
 40
1.0
 40
1.0
 40
1.0
 40
1.0
 10
342.4308101705179
 20
295.6663382034632
 30
0.0
 10
342.4720404174524
 20
295.6771395430035
 30
0.0
 10
342.5139687843889
 20
295.6830882817727
 30
0.0
 10
342.5673415663534
 20
295.6843017599965
 30
0.0
 10
342.5780647906975
 20
295.6842292796078
 30
0.0
 10
342.599613115736
 20
295.6834328696288
 30
0.0
 10
342.6104641123292
 20
295.6827041739382
 30
0.0
 10
342.6426884405578
 20
295.67955838738
 30
0.0
 10
342.6850685829352
 20
295.6728131034648
 30
0.0
 10
342.7263028858542
 20
295.6610776849739
 30
0.0
 10
342.7567917008901
 20
295.6503730043784
 30
0.0
 10
342.7669174855008
 20
295.6464712336586
 30
0.0
 10
342.7868308578553
 20
295.6380983179741
 30
0.0
 10
342.7966006639134
 20
295.6336377881248
 30
0.0
 10
342.844549715804
 20
295.6100095741318
 30
0.0
 10
342.8800651365777
 20
295.5869204979054
 30
0.0
 10
342.9128709733507
 20
295.5597466759731
 30
0.0
  0
SPLINE
  5
1BB
330
1F
100
AcDbEntity
  8
1
100
AcDbSpline
210
0.0
220
0.0
230
1.0
 70
     8
 71
     3
 72
    14
 73
    10
 74
     0
 42
0.000000001
 43
0.0000000001
 40
0.0
 40
0.0
 40
0.0
 40
0.0
 40
0.25
 40
0.25
 40
0.5
 40
0.5
 40
0.75
 40
0.75
 40
1.0
 40
1.0
 40
1.0
 40
1.0
 10
342.36572455085
 20
295.6136884743782
 30
0.0
 10
342.3690063756376
 20
295.6200876745822
 30
0.0
 10
342.3729458799928
 20
295.6261371994559
 30
0.0
 10
342.3819478319565
 20
295.6372649007472
 30
0.0
 10
342.3869686183303
 20
295.6423098119508
 30
0.0
 10
342.3980630538445
 20
295.6513518090178
 30
0.0
 10
342.4041768038261
 20
295.6553500550755
 30
0.0
 10
342.4169689511718
 20
295.6618834160982
 30
0.0
 10
342.4237042223019
 20
295.6644766148203
 30
0.0
 10
342.4308101705179
 20
295.6663382034632
 30
0.0
  0
SPLINE
  5
1BC
330
1F
100
AcDbEntity
  8
1
100
AcDbSpline
210
0.0
220
0.0
230
1.0
 70
     8
 71
     3
 72
    22
 73
    18
 74
     0
 42
0.000000001
 43
0.0000000001
 40
0.0
 40
0.0
 40
0.0
 40
0.0
 40
0.125
 40
0.125
 40
0.25
 40
0.25
 40
0.375
 40
0.375
 40
0.5
 40
0.5
 40
0.625
 40
0.625
 40
0.75
 40
0.75
 40
0.875
 40
0.875
 40
1.0
 40
1.0
 40
1.0
 40
1.0
 10
342.3657245508496
 20
295.6136884743774
 30
0.0
 10
342.3631012100579
 20
295.6085732461081
 30
0.0
 10
342.3600646324175
 20
295.6036953057065
 30
0.0
 10
342.3532951797986
 20
295.5945684511923
 30
0.0
 10
342.3495503850674
 20
295.59029431379
 30
0.0
 10
342.3413202968561
 20
295.5823421037272
 30
0.0
 10
342.3368291566636
 20
295.578673471823
 30
0.0
 10
342.3273940235323
 20
295.5722059343774
 30
0.0
 10
342.3224154899774
 20
295.5693699486572
 30
0.0
 10
342.3119146875052
 20
295.5645295857436
 30
0.0
 10
342.3064096150489
 20
295.5625447821113
 30
0.0
 10
342.295234990825
 20
295.559581688218
 30
0.0
 10
342.2895197464653
 20
295.558580011603
 30
0.0
 10
342.2778197990565
 20
295.5575927863259
 30
0.0
 10
342.2719240265367
 20
295.557622197898
 30
0.0
 10
342.2602886471184
 20
295.5587198001699
 30
0.0
 10
342.2545107130479
 20
295.559783895918
 30
0.0
 10
342.2487754350809
 20
295.5613967469201
 30
0.0
  0
SPLINE
  5
1BD
330
1F
100
AcDbEntity
  8
1
100
AcDbSpline
210
0.0
220
0.0
230
1.0
 70
     8
 71
     3
 72
    14
 73
    10
 74
     0
 42
0.000000001
 43
0.0000000001
 40
0.0
 40
0.0
 40
0.0
 40
0.0
 40
0.25
 40
0.25
 40
0.5
 40
0.5
 40
0.75
 40
0.75
 40
1.0
 40
1.0
 40
1.0
 40
1.0
 10
341.7439134936567
 20
296.5855759164448
 30
0.0
 10
341.7509780846162
 20
296.5860620660958
 30
0.0
 10
341.7580694911009
 20
296.5858054273762
 30
0.0
 10
341.7719770989888
 20
296.5838311079007
 30
0.0
 10
341.7787453895243
 20
296.5821319144769
 30
0.0
 10
341.7919093875708
 20
296.5772922041868
 30
0.0
 10
341.7983251608768
 20
296.5741182476663
 30
0.0
 10
341.8101905206885
 20
296.5665325818817
 30
0.0
 10
341.8157177074089
 20
296.5621019816726
 30
0.0
 10
341.8208058448432
 20
296.5569760458457
 30
0.0
  0
SPLINE
  5
1BE
330
1F
100
AcDbEntity
  8
1
100
AcDbSpline
210
0.0
220
0.0
230
1.0
 70
     8
 71
     3
 72
    12
 73
     8
 74
     0
 42
0.000000001
 43
0.0000000001
 40
0.0
 40
0.0
 40
0.0
 40
0.0
 40
0.25
 40
0.25
 40
0.5
 40
0.5
 40
1.0
 40
1.0
 40
1.0
 40
1.0
 10
340.1447037840518
 20
290.8645859601842
 30
0.0
 10
340.0902144891849
 20
290.8666787762573
 30
0.0
 10
340.0351969182177
 20
290.8685183688262
 30
0.0
 10
339.9242030200304
 20
290.8718446549871
 30
0.0
 10
339.8682261901118
 20
290.8733306727395
 30
0.0
 10
339.6989364882435
 20
290.8774069180339
 30
0.0
 10
339.5842786412377
 20
290.8796306184322
 30
0.0
 10
339.4678419461063
 20
290.8815358804437
 30
0.0
  0
SPLINE
  5
1BF
330
1F
100
AcDbEntity
  8
1
100
AcDbSpline
210
0.0
220
0.0
230
1.0
 70
     8
 71
     3
 72
   106
 73
   102
 74
     0
 42
0.000000001
 43
0.0000000001
 40
0.0
 40
0.0
 40
0.0
 40
0.0
 40
0.031249999999999
 40
0.031249999999999
 40
0.0468749999999986
 40
0.0468749999999986
 40
0.0624999999999981
 40
0.0624999999999981
 40
0.0781249999999976
 40
0.0781249999999976
 40
0.0937499999999971
 40
0.1093749999999966
 40
0.1093749999999966
 40
0.1249999999999961
 40
0.1249999999999961
 40
0.1406249999999957
 40
0.1406249999999957
 40
0.1562499999999952
 40
0.1562499999999952
 40
0.1874999999999946
 40
0.1874999999999946
 40
0.2031249999999943
 40
0.2031249999999943
 40
0.2187499999999941
 40
0.2187499999999941
 40
0.2343749999999938
 40
0.2343749999999938
 40
0.2499999999999935
 40
0.2656249999999932
 40
0.2656249999999932
 40
0.281249999999993
 40
0.281249999999993
 40
0.2968749999999927
 40
0.2968749999999927
 40
0.3124999999999925
 40
0.3124999999999925
 40
0.3437499999999922
 40
0.374999999999992
 40
0.374999999999992
 40
0.390624999999992
 40
0.390624999999992
 40
0.406249999999992
 40
0.421874999999992
 40
0.421874999999992
 40
0.4374999999999926
 40
0.4374999999999926
 40
0.468749999999994
 40
0.468749999999994
 40
0.4843749999999948
 40
0.4843749999999948
 40
0.4999999999999958
 40
0.4999999999999958
 40
0.5312499999999968
 40
0.5312499999999968
 40
0.5468749999999969
 40
0.5468749999999969
 40
0.5624999999999972
 40
0.5624999999999972
 40
0.5937499999999983
 40
0.5937499999999983
 40
0.6093749999999982
 40
0.6093749999999982
 40
0.6249999999999979
 40
0.6249999999999979
 40
0.6562499999999979
 40
0.6562499999999979
 40
0.6718749999999974
 40
0.6718749999999974
 40
0.6874999999999969
 40
0.6874999999999969
 40
0.7031249999999965
 40
0.7031249999999965
 40
0.718749999999996
 40
0.7343749999999955
 40
0.7343749999999955
 40
0.7499999999999949
 40
0.7499999999999949
 40
0.7656249999999945
 40
0.7656249999999945
 40
0.781249999999994
 40
0.781249999999994
 40
0.8124999999999939
 40
0.8124999999999939
 40
0.8281249999999944
 40
0.8281249999999944
 40
0.8437499999999948
 40
0.8437499999999948
 40
0.8593749999999955
 40
0.8593749999999955
 40
0.874999999999996
 40
0.8906249999999966
 40
0.8906249999999966
 40
0.9062499999999971
 40
0.9062499999999971
 40
0.9218749999999975
 40
0.9218749999999975
 40
0.937499999999998
 40
0.937499999999998
 40
0.9687499999999992
 40
0.9687499999999992
 40
1.0
 40
1.0
 40
1.0
 40
1.0
 10
345.4586001032319
 20
284.9394935136797
 30
0.0
 10
345.4487007203019
 20
284.8830518482813
 30
0.0
 10
345.4391735922304
 20
284.8249844044346
 30
0.0
 10
345.4254416377107
 20
284.7354430192623
 30
0.0
 10
345.4209569417997
 20
284.7051775450808
 30
0.0
 10
345.4122408558559
 20
284.6442735845318
 30
0.0
 10
345.4080008747047
 20
284.6135805210279
 30
0.0
 10
345.3997566805405
 20
284.5517129535007
 30
0.0
 10
345.3957477281552
 20
284.5204998839291
 30
0.0
 10
345.3879896921386
 20
284.4577617438336
 30
0.0
 10
345.3805122574269
 20
284.3948857068715
 30
0.0
 10
345.3735906976062
 20
284.3317364943956
 30
0.0
 10
345.3669479046612
 20
284.268450286553
 30
0.0
 10
345.3637657176403
 20
284.2367299848074
 30
0.0
 10
345.3577261260299
 20
284.1736132980648
 30
0.0
 10
345.3548624520532
 20
284.1421591156153
 30
0.0
 10
345.3494458449891
 20
284.0794580699476
 30
0.0
 10
345.3468900701197
 20
284.0481738727034
 30
0.0
 10
345.3397117904556
 20
283.954888745303
 30
0.0
 10
345.3356000848951
 20
283.8937819995915
 30
0.0
 10
345.3304312166873
 20
283.8037275464541
 30
0.0
 10
345.328875625282
 20
283.7739719975107
 30
0.0
 10
345.3261190415976
 20
283.7154110394942
 30
0.0
 10
345.3249148005509
 20
283.6865524847984
 30
0.0
 10
345.3228521301257
 20
283.6296736729273
 30
0.0
 10
345.3219929478728
 20
283.6016216626998
 30
0.0
 10
345.320625807816
 20
283.5465051556653
 30
0.0
 10
345.3196124246838
 20
283.4925117693326
 30
0.0
 10
345.3192975822383
 20
283.4407361360726
 30
0.0
 10
345.3193318064299
 20
283.3900687326143
 30
0.0
 10
345.3195242513465
 20
283.3652866105274
 30
0.0
 10
345.3202544880759
 20
283.3171546274292
 30
0.0
 10
345.3207920954272
 20
283.2937618103614
 30
0.0
 10
345.3222101529811
 20
283.2483141924267
 30
0.0
 10
345.3230924327269
 20
283.2262235638538
 30
0.0
 10
345.3262440744177
 20
283.1622159892896
 30
0.0
 10
345.3317535799175
 20
283.0834670488207
 30
0.0
 10
345.3397758978923
 20
283.0173934792151
 30
0.0
 10
345.346741968987
 20
282.9726270170752
 30
0.0
 10
345.3492247116892
 20
282.9584950619011
 30
0.0
 10
345.3545058895834
 20
282.9319095170584
 30
0.0
 10
345.3600719609387
 20
282.9071523113488
 30
0.0
 10
345.366201853318
 20
282.8860134970122
 30
0.0
 10
345.3726140317954
 20
282.8666862887321
 30
0.0
 10
345.3759687052062
 20
282.8579138038702
 30
0.0
 10
345.3863908604617
 20
282.8344967991733
 30
0.0
 10
345.3938174119768
 20
282.8227075294344
 30
0.0
 10
345.4056655601505
 20
282.8106820238192
 30
0.0
 10
345.409733344916
 20
282.8076193728868
 30
0.0
 10
345.4181083672648
 20
282.8034069322429
 30
0.0
 10
345.422425065933
 20
282.8022582075596
 30
0.0
 10
345.4356555149646
 20
282.8017427767235
 30
0.0
 10
345.4448492207941
 20
282.80527300745
 30
0.0
 10
345.4592035237849
 20
282.81641683641
 30
0.0
 10
345.4640821221669
 20
282.821112806888
 30
0.0
 10
345.4739621882881
 20
282.8324055004738
 30
0.0
 10
345.4789717534708
 20
282.8390075820175
 30
0.0
 10
345.4942095545264
 20
282.8616880291407
 30
0.0
 10
345.5046748357313
 20
282.8807074881526
 30
0.0
 10
345.5205926431792
 20
282.9146965630929
 30
0.0
 10
345.5259418546566
 20
282.9269443021047
 30
0.0
 10
345.5367274726656
 20
282.953289530932
 30
0.0
 10
345.542173481959
 20
282.967414507106
 30
0.0
 10
345.5585517866183
 20
283.0123564548399
 30
0.0
 10
345.5695313369702
 20
283.0457335949977
 30
0.0
 10
345.5860928267622
 20
283.1009874319789
 30
0.0
 10
345.5916220830463
 20
283.1202536890572
 30
0.0
 10
345.6026343211075
 20
283.1602607370962
 30
0.0
 10
345.6081263310691
 20
283.1810311669137
 30
0.0
 10
345.6190819953663
 20
283.2241133113503
 30
0.0
 10
345.6245538559555
 20
283.2464601237363
 30
0.0
 10
345.6354290332217
 20
283.2925521812123
 30
0.0
 10
345.6462163584854
 20
283.3399551004692
 30
0.0
 10
345.6568284848515
 20
283.3899722064491
 30
0.0
 10
345.6673521730551
 20
283.4413089204523
 30
0.0
 10
345.6725699865799
 20
283.4676423396613
 30
0.0
 10
345.6828405085943
 20
283.5212511570164
 30
0.0
 10
345.6879029481793
 20
283.5485729153433
 30
0.0
 10
345.697881945322
 20
283.604252830537
 30
0.0
 10
345.7028045397809
 20
283.6326471849214
 30
0.0
 10
345.7173091704132
 20
283.7191598915917
 30
0.0
 10
345.7265781735074
 20
283.7782878709764
 30
0.0
 10
345.7398807278681
 20
283.8691584654562
 30
0.0
 10
345.7442150574994
 20
283.899822482109
 30
0.0
 10
345.7526185474304
 20
283.9614293770984
 30
0.0
 10
345.7566960545939
 20
283.9924278031656
 30
0.0
 10
345.7646030832097
 20
284.0548138436071
 30
0.0
 10
345.7684371511569
 20
284.086240482392
 30
0.0
 10
345.775834020594
 20
284.149309920678
 30
0.0
 10
345.7829401602793
 20
284.2124227721908
 30
0.0
 10
345.7894706155428
 20
284.275621587793
 30
0.0
 10
345.7957124916695
 20
284.3388634954813
 30
0.0
 10
345.798689204881
 20
284.370514081999
 30
0.0
 10
345.8043113154143
 20
284.4334002195632
 30
0.0
 10
345.8069626018946
 20
284.4646934091114
 30
0.0
 10
345.8119472856192
 20
284.5269815760465
 30
0.0
 10
345.8142845628696
 20
284.5580323019671
 30
0.0
 10
345.8207896232545
 20
284.6503542226866
 30
0.0
 10
345.8244209180712
 20
284.7103121159939
 30
0.0
 10
345.8303345296148
 20
284.827187200911
 30
0.0
 10
345.832616620563
 20
284.8841038835981
 30
0.0
 10
345.8342212493059
 20
284.939493513701
 30
0.0
  0
SPLINE
  5
1C0
330
1F
100
AcDbEntity
  8
1
100
AcDbSpline
210
0.0
220
0.0
230
1.0
 70
     8
 71
     3
 72
    61
 73
    57
 74
     0
 42
0.000000001
 43
0.0000000001
 40
0.0
 40
0.0
 40
0.0
 40
0.0
 40
0.0624999999999998
 40
0.0624999999999998
 40
0.0937499999999998
 40
0.0937499999999998
 40
0.1249999999999998
 40
0.1562499999999998
 40
0.1562499999999998
 40
0.1874999999999998
 40
0.1874999999999998
 40
0.2187499999999998
 40
0.2187499999999998
 40
0.2499999999999997
 40
0.2499999999999997
 40
0.3124999999999991
 40
0.3124999999999991
 40
0.3437499999999991
 40
0.3437499999999991
 40
0.3749999999999992
 40
0.3749999999999992
 40
0.4062499999999993
 40
0.4062499999999993
 40
0.4374999999999994
 40
0.4687499999999994
 40
0.4687499999999994
 40
0.4999999999999997
 40
0.4999999999999997
 40
0.5312499999999997
 40
0.5312499999999997
 40
0.5624999999999999
 40
0.5624999999999999
 40
0.625
 40
0.625
 40
0.65625
 40
0.65625
 40
0.6875
 40
0.6875
 40
0.7187500000000001
 40
0.7187500000000001
 40
0.7500000000000001
 40
0.7500000000000001
 40
0.7812500000000001
 40
0.7812500000000001
 40
0.8125000000000001
 40
0.8437500000000001
 40
0.8437500000000001
 40
0.8750000000000001
 40
0.8750000000000001
 40
0.9062500000000001
 40
0.9062500000000001
 40
0.9375000000000001
 40
0.9375000000000001
 40
0.9687500000000003
 40
0.9687500000000003
 40
1.0
 40
1.0
 40
1.0
 40
1.0
 10
345.8342212493059
 20
284.9394935137011
 30
0.0
 10
345.8296659486713
 20
284.9997264065848
 30
0.0
 10
345.8245657622355
 20
285.0576739160022
 30
0.0
 10
345.8160935081334
 20
285.1411476195396
 30
0.0
 10
345.8131253803322
 20
285.1684513493846
 30
0.0
 10
345.8069388793404
 20
285.2216134541633
 30
0.0
 10
345.800521649717
 20
285.2731792902402
 30
0.0
 10
345.7936475454084
 20
285.321584292933
 30
0.0
 10
345.7865441229361
 20
285.3684027850775
 30
0.0
 10
345.7828785224265
 20
285.3910066390136
 30
0.0
 10
345.7753705724203
 20
285.4343037437701
 30
0.0
 10
345.7715219461464
 20
285.4550398510141
 30
0.0
 10
345.7636355650932
 20
285.4946888529606
 30
0.0
 10
345.7595912723431
 20
285.5136295743506
 30
0.0
 10
345.7472194817569
 20
285.5674744983266
 30
0.0
 10
345.738680377593
 20
285.5993203931556
 30
0.0
 10
345.7254337543089
 20
285.6409978353013
 30
0.0
 10
345.7209480344778
 20
285.6538565530922
 30
0.0
 10
345.7118940466949
 20
285.6773451442891
 30
0.0
 10
345.707318074212
 20
285.6880002345806
 30
0.0
 10
345.698067851474
 20
285.707124875163
 30
0.0
 10
345.6933854464064
 20
285.7156063842077
 30
0.0
 10
345.6839628015582
 20
285.7302834931005
 30
0.0
 10
345.6744929197517
 20
285.7426678672722
 30
0.0
 10
345.6649287536386
 20
285.7504759750887
 30
0.0
 10
345.6553168781537
 20
285.7559684187108
 30
0.0
 10
345.650493321465
 20
285.757548510586
 30
0.0
 10
345.6408688792453
 20
285.7583569852475
 30
0.0
 10
345.6360597956674
 20
285.7575907641754
 30
0.0
 10
345.6264479441678
 20
285.7537022622781
 30
0.0
 10
345.6216360591047
 20
285.7505704130651
 30
0.0
 10
345.6072904294158
 20
285.7376479905234
 30
0.0
 10
345.5978483824654
 20
285.7243730253948
 30
0.0
 10
345.5838707489462
 20
285.6973603702711
 30
0.0
 10
345.5792608077538
 20
285.6872014980068
 30
0.0
 10
345.5701647670959
 20
285.664636098856
 30
0.0
 10
345.5656745530208
 20
285.652221742002
 30
0.0
 10
345.5568107812942
 20
285.6251092772747
 30
0.0
 10
345.5524321470576
 20
285.6103879125953
 30
0.0
 10
345.5438584422587
 20
285.5788616483292
 30
0.0
 10
345.5396558023753
 20
285.5620369217443
 30
0.0
 10
345.5314194153862
 20
285.5262583832013
 30
0.0
 10
345.5273793084997
 20
285.5072717081201
 30
0.0
 10
345.5195014931796
 20
285.4672897871189
 30
0.0
 10
345.5118415727846
 20
285.4253889783295
 30
0.0
 10
345.5046158463618
 20
285.3796644480392
 30
0.0
 10
345.4976095999585
 20
285.3320070708556
 30
0.0
 10
345.494227452064
 20
285.3072836155238
 30
0.0
 10
345.4877317404048
 20
285.2562612566346
 30
0.0
 10
345.4846136669456
 20
285.229932019771
 30
0.0
 10
345.4786382246716
 20
285.1756302460481
 30
0.0
 10
345.4757783114927
 20
285.1476226824129
 30
0.0
 10
345.4703645172177
 20
285.0903916343522
 30
0.0
 10
345.4678049764987
 20
285.0611214503
 30
0.0
 10
345.462979951879
 20
285.0012746766456
 30
0.0
 10
345.4607106572398
 20
284.9706398850937
 30
0.0
 10
345.4586001032342
 20
284.9394935136796
 30
0.0
  0
SPLINE
  5
1C1
330
1F
100
AcDbEntity
  8
1
100
AcDbSpline
210
0.0
220
0.0
230
1.0
 70
     8
 71
     3
 72
    12
 73
     8
 74
     0
 42
0.000000001
 43
0.0000000001
 40
0.0
 40
0.0
 40
0.0
 40
0.0
 40
0.5000000000000295
 40
0.5000000000000295
 40
0.7500000000000148
 40
0.7500000000000148
 40
1.0
 40
1.0
 40
1.0
 40
1.0
 10
339.4678419461166
 20
290.3539037293867
 30
0.0
 10
339.5873253280868
 20
290.3540345278493
 30
0.0
 10
339.7048352090683
 20
290.3579196509511
 30
0.0
 10
339.878116600046
 20
290.3691689363159
 30
0.0
 10
339.9353756790937
 20
290.373826817483
 30
0.0
 10
340.0488304250196
 20
290.3849820200412
 30
0.0
 10
340.1050266951207
 20
290.3914788318762
 30
0.0
 10
340.160635728997
 20
290.3989311448914
 30
0.0
  0
SPLINE
  5
1C2
330
1F
100
AcDbEntity
  8
1
100
AcDbSpline
210
0.0
220
0.0
230
1.0
 70
     8
 71
     3
 72
    10
 73
     6
 74
     0
 42
0.000000001
 43
0.0000000001
 40
0.0
 40
0.0
 40
0.0
 40
0.0
 40
0.5
 40
0.5
 40
1.0
 40
1.0
 40
1.0
 40
1.0
 10
338.2438537824941
 20
297.1331522704308
 30
0.0
 10
338.1571108471126
 20
297.6550751264523
 30
0.0
 10
338.0777159215838
 20
298.1781047589527
 30
0.0
 10
337.9305217992124
 20
299.225910602962
 30
0.0
 10
337.8627488637649
 20
299.750567522564
 30
0.0
 10
337.7996385741008
 20
300.2758129072858
 30
0.0
  0
SPLINE
  5
1C3
330
1F
100
AcDbEntity
  8
1
100
AcDbSpline
210
0.0
220
0.0
230
1.0
 70
    12
 71
     2
 72
     6
 73
     3
 74
     0
 42
0.000000001
 43
0.0000000001
 40
0.0
 40
0.0
 40
0.0
 40
1.0
 40
1.0
 40
1.0
 10
337.799638574101
 20
300.2758129072859
 30
0.0
 41
0.4999998014663686
 10
338.2274405002187
 20
300.2746813307363
 30
0.0
 41
0.5000001985336314
 10
338.6551967508085
 20
300.2735401239025
 30
0.0
 41
0.4999998014663686
  0
SPLINE
  5
1C4
330
1F
100
AcDbEntity
  8
1
100
AcDbSpline
210
0.0
220
0.0
230
1.0
 70
    28
 71
     4
 72
    13
 73
     8
 74
     0
 42
0.000000001
 43
0.0000000001
 40
0.0
 40
0.0
 40
0.0
 40
0.0
 40
0.0
 40
0.2121169346731813
 40
0.2121169346731813
 40
0.2121169346731813
 40
1.0
 40
1.0
 40
1.0
 40
1.0
 40
1.0
 10
297.9048419452959
 20
283.0639495805264
 30
0.0
 41
1.000346595495509
 10
297.9048419452959
 20
282.8174810119323
 30
0.0
 41
1.000821791634509
 10
297.9048419452959
 20
282.5677429462506
 30
0.0
 41
1.001233249382874
 10
297.9048419452957
 20
282.3163613006751
 30
0.0
 41
1.001498006703475
 10
297.9048419452957
 20
281.1318789304677
 30
0.0
 41
1.001498006703475
 10
297.9048419452957
 20
280.0994394415234
 30
0.0
 41
0.997845249346046
 10
297.9048419452957
 20
279.0507472441088
 30
0.0
 41
0.9965896683837147
 10
297.9048419452957
 20
278.067280580517
 30
0.0
 41
0.997101002339593
  0
SPLINE
  5
1C5
330
1F
100
AcDbEntity
  8
1
100
AcDbSpline
210
0.0
220
0.0
230
1.0
 70
     9
 71
     3
 72
   121
 73
   117
 74
     0
 42
0.000000001
 43
0.0000000001
 40
0.0
 40
0.0
 40
0.0
 40
0.0
 40
0.0312499999999827
 40
0.0312499999999827
 40
0.0468749999999741
 40
0.0468749999999741
 40
0.0546874999999697
 40
0.0546874999999697
 40
0.0624999999999654
 40
0.0624999999999654
 40
0.09374999999996
 40
0.09374999999996
 40
0.10156249999996
 40
0.10156249999996
 40
0.10937499999996
 40
0.10937499999996
 40
0.1249999999999599
 40
0.1249999999999599
 40
0.1562499999999554
 40
0.1562499999999554
 40
0.1874999999999509
 40
0.1874999999999509
 40
0.2031249999999476
 40
0.2031249999999476
 40
0.2109374999999459
 40
0.2109374999999459
 40
0.2187499999999443
 40
0.2187499999999443
 40
0.2499999999999357
 40
0.2499999999999357
 40
0.2578124999999337
 40
0.2578124999999337
 40
0.2656249999999317
 40
0.2656249999999317
 40
0.2812499999999268
 40
0.2812499999999268
 40
0.3124999999999169
 40
0.3124999999999169
 40
0.3281249999999119
 40
0.3281249999999119
 40
0.3437499999999069
 40
0.3437499999999069
 40
0.3749999999998972
 40
0.3749999999998972
 40
0.3828124999998936
 40
0.3828124999998936
 40
0.3906249999998901
 40
0.406249999999883
 40
0.4218749999998758
 40
0.4218749999998758
 40
0.4296874999998721
 40
0.4296874999998721
 40
0.4374999999998685
 40
0.4374999999998685
 40
0.4687499999998718
 40
0.4687499999998718
 40
0.4843749999998734
 40
0.4843749999998734
 40
0.4921874999998743
 40
0.4921874999998743
 40
0.499999999999875
 40
0.499999999999875
 40
0.5312499999998718
 40
0.5312499999998718
 40
0.5390624999998711
 40
0.5390624999998711
 40
0.5468749999998703
 40
0.5624999999998746
 40
0.5781249999998792
 40
0.5781249999998792
 40
0.5937499999998836
 40
0.5937499999998836
 40
0.6249999999998975
 40
0.6249999999998975
 40
0.6328124999998979
 40
0.6328124999998979
 40
0.6406249999998983
 40
0.6406249999998983
 40
0.6562499999999032
 40
0.6562499999999032
 40
0.6874999999999165
 40
0.6874999999999165
 40
0.6953124999999187
 40
0.6953124999999187
 40
0.7031249999999208
 40
0.7187499999999264
 40
0.7343749999999321
 40
0.7343749999999321
 40
0.742187499999935
 40
0.742187499999935
 40
0.7499999999999379
 40
0.7499999999999379
 40
0.7812499999999498
 40
0.7812499999999498
 40
0.7968749999999563
 40
0.7968749999999563
 40
0.8124999999999628
 40
0.8124999999999628
 40
0.8437499999999735
 40
0.8437499999999735
 40
0.859374999999977
 40
0.859374999999977
 40
0.8749999999999806
 40
0.8749999999999806
 40
0.9062499999999875
 40
0.9062499999999875
 40
0.9218749999999936
 40
0.9218749999999936
 40
0.9374999999999998
 40
0.953125000000006
 40
0.953125000000006
 40
0.960937500000006
 40
0.960937500000006
 40
0.968750000000006
 40
0.968750000000006
 40
1.0
 40
1.0
 40
1.0
 40
1.0
 10
343.2962249652844
 20
286.8769886193043
 30
0.0
 10
343.3652616077211
 20
286.8757835802281
 30
0.0
 10
343.4329768757747
 20
286.867694916927
 30
0.0
 10
343.5326501365917
 20
286.8456774045828
 30
0.0
 10
343.5655554692092
 20
286.8366780849902
 30
0.0
 10
343.6144229852153
 20
286.820630486228
 30
0.0
 10
343.6306764982449
 20
286.8148369468203
 30
0.0
 10
343.6627300522963
 20
286.8024927501947
 30
0.0
 10
343.6785349617428
 20
286.7959438707404
 30
0.0
 10
343.7564724461721
 20
286.7613553625557
 30
0.0
 10
343.8153755209159
 20
286.7278365225957
 30
0.0
 10
343.8847219373015
 20
286.678710089088
 30
0.0
 10
343.8983751308955
 20
286.6685201124887
 30
0.0
 10
343.9252419548454
 20
286.6473993985489
 30
0.0
 10
343.9384468593274
 20
286.6364716003473
 30
0.0
 10
343.9769595149928
 20
286.6029504003644
 30
0.0
 10
344.0013216446148
 20
286.5795035595288
 30
0.0
 10
344.0705873636725
 20
286.5059781654403
 30
0.0
 10
344.1117130869492
 20
286.4527325696253
 30
0.0
 10
344.1835655205522
 20
286.3377193098627
 30
0.0
 10
344.2131339579765
 20
286.2778141971959
 30
0.0
 10
344.2484880835095
 20
286.1846119935585
 30
0.0
 10
344.2587618871995
 20
286.1529827818542
 30
0.0
 10
344.2718773576304
 20
286.1046903832783
 30
0.0
 10
344.2758742202561
 20
286.088412202627
 30
0.0
 10
344.2830467255609
 20
286.0557649178206
 30
0.0
 10
344.2862176803498
 20
286.0394278925593
 30
0.0
 10
344.3000441021362
 20
285.9576789154505
 30
0.0
 10
344.30467009593
 20
285.8920784835009
 30
0.0
 10
344.3025951223892
 20
285.8098429699997
 30
0.0
 10
344.3017838225081
 20
285.7933839295327
 30
0.0
 10
344.2993594164099
 20
285.7604416281533
 30
0.0
 10
344.2977408927289
 20
285.7439176432005
 30
0.0
 10
344.2917024072759
 20
285.6946336127698
 30
0.0
 10
344.2861214170268
 20
285.6622355364148
 30
0.0
 10
344.2648657854799
 20
285.5663646326325
 30
0.0
 10
344.2447206621299
 20
285.5042039555036
 30
0.0
 10
344.2053686003272
 20
285.4136014914895
 30
0.0
 10
344.190652750604
 20
285.3837555884552
 30
0.0
 10
344.1587004488696
 20
285.3261517049318
 30
0.0
 10
344.1414131961442
 20
285.2982508815398
 30
0.0
 10
344.0856620701931
 20
285.2172030996912
 30
0.0
 10
344.0433502044568
 20
285.1666836346654
 30
0.0
 10
343.9835886667939
 20
285.1081528510917
 30
0.0
 10
343.9713118481127
 20
285.0967053120669
 30
0.0
 10
343.9463343713494
 20
285.0745304795723
 30
0.0
 10
343.9081377926283
 20
285.042260024501
 30
0.0
 10
343.8408677632264
 20
284.993361703349
 30
0.0
 10
343.7831787090259
 20
284.9594557242416
 30
0.0
 10
343.7384061156842
 20
284.9360419204203
 30
0.0
 10
343.7232304797149
 20
284.9285739026192
 30
0.0
 10
343.6923612085844
 20
284.91432956563
 30
0.0
 10
343.676642648702
 20
284.907546062559
 30
0.0
 10
343.5976969208336
 20
284.8757903351718
 30
0.0
 10
343.5327209673099
 20
284.8568912199108
 30
0.0
 10
343.4325290152208
 20
284.8382395955593
 30
0.0
 10
343.398673853509
 20
284.8336502497103
 30
0.0
 10
343.3471735592436
 20
284.8293137525965
 30
0.0
 10
343.3299268985616
 20
284.8283000238039
 30
0.0
 10
343.2956195424562
 20
284.8271467469226
 30
0.0
 10
343.2785094278354
 20
284.827002624299
 30
0.0
 10
343.1931731304392
 20
284.8284093307618
 30
0.0
 10
343.1255836352116
 20
284.8362788944732
 30
0.0
 10
343.0419522529957
 20
284.8546273927715
 30
0.0
 10
343.0252200533851
 20
284.858741061974
 30
0.0
 10
342.9921539473525
 20
284.8677566153802
 30
0.0
 10
342.9431300839274
 20
284.8824623315249
 30
0.0
 10
342.8642133194898
 20
284.9127141041117
 30
0.0
 10
342.8039716903001
 20
284.9428908056014
 30
0.0
 10
342.7451768553359
 20
284.9760708206255
 30
0.0
 10
342.7164084903998
 20
284.9942465725435
 30
0.0
 10
342.6340094764462
 20
285.0521595824592
 30
0.0
 10
342.583694474418
 20
285.0955057327536
 30
0.0
 10
342.5263351517541
 20
285.1554420345587
 30
0.0
 10
342.5151426536753
 20
285.1677197005399
 30
0.0
 10
342.4933209452886
 20
285.1928625006493
 30
0.0
 10
342.4826730939559
 20
285.2057538595232
 30
0.0
 10
342.4518772001215
 20
285.2449425388235
 30
0.0
 10
342.4327846929549
 20
285.2718463830548
 30
0.0
 10
342.3796632110001
 20
285.3548257204528
 30
0.0
 10
342.3497510999671
 20
285.4131481684714
 30
0.0
 10
342.3193343574823
 20
285.4899112673702
 30
0.0
 10
342.313597724492
 20
285.5054797562092
 30
0.0
 10
342.3029430694502
 20
285.5366981308908
 30
0.0
 10
342.2881469802181
 20
285.5837554201025
 30
0.0
 10
342.269293165324
 20
285.6633158458356
 30
0.0
 10
342.2603311098787
 20
285.7281668597474
 30
0.0
 10
342.2559429228344
 20
285.7772656218583
 30
0.0
 10
342.2548697603842
 20
285.7937087418256
 30
0.0
 10
342.2535174281146
 20
285.8267517681691
 30
0.0
 10
342.2532392634896
 20
285.8433965322824
 30
0.0
 10
342.2538743101796
 20
285.9263639840023
 30
0.0
 10
342.260763925946
 20
285.9918775623625
 30
0.0
 10
342.280499811917
 20
286.0888636989935
 30
0.0
 10
342.2886560290319
 20
286.1209766879156
 30
0.0
 10
342.3082277291261
 20
286.1847511329365
 30
0.0
 10
342.3197102637401
 20
286.2165361875049
 30
0.0
 10
342.3584254352467
 20
286.3091663323809
 30
0.0
 10
342.3900109216658
 20
286.367894979692
 30
0.0
 10
342.4460758459957
 20
286.4513871062121
 30
0.0
 10
342.4662215195079
 20
286.4784458510801
 30
0.0
 10
342.5095579192488
 20
286.5309402131817
 30
0.0
 10
342.5324520719815
 20
286.5560067606277
 30
0.0
 10
342.6043572179448
 20
286.6273460662822
 30
0.0
 10
342.6567094879747
 20
286.6699769711055
 30
0.0
 10
342.7420179447605
 20
286.726300768874
 30
0.0
 10
342.7717379071411
 20
286.743856065482
 30
0.0
 10
342.8322075603265
 20
286.7755948510548
 30
0.0
 10
342.8939399327054
 20
286.8041519516182
 30
0.0
 10
342.9581514746567
 20
286.8264494029047
 30
0.0
 10
343.0072504019964
 20
286.8407944089316
 30
0.0
 10
343.0237737111529
 20
286.8451790117397
 30
0.0
 10
343.0571397352772
 20
286.8531398712018
 30
0.0
 10
343.0740208566546
 20
286.856722894217
 30
0.0
 10
343.1587464756603
 20
286.8724762016367
 30
0.0
 10
343.2271883228476
 20
286.8781936583804
 30
0.0
 10
343.2962249652844
 20
286.8769886193043
 30
0.0
  0
SPLINE
  5
1C6
330
1F
100
AcDbEntity
  8
1
100
AcDbSpline
210
0.0
220
0.0
230
1.0
 70
     8
 71
     3
 72
     8
 73
     4
 74
     0
 42
0.000000001
 43
0.0000000001
 40
0.0
 40
0.0
 40
0.0
 40
0.0
 40
1.0
 40
1.0
 40
1.0
 40
1.0
 10
336.0242593043509
 20
292.2484882943911
 30
0.0
 10
335.8474764821999
 20
292.3083108463424
 30
0.0
 10
335.6709525557105
 20
292.3722079996307
 30
0.0
 10
335.4948837879015
 20
292.4402653163569
 30
0.0
  0
SPLINE
  5
1C7
330
1F
100
AcDbEntity
  8
1
100
AcDbSpline
210
0.0
220
0.0
230
1.0
 70
     8
 71
     3
 72
    38
 73
    34
 74
     0
 42
0.000000001
 43
0.0000000001
 40
0.0
 40
0.0
 40
0.0
 40
0.0
 40
0.1249999999999935
 40
0.1249999999999935
 40
0.2499999999999871
 40
0.2499999999999871
 40
0.2656249999999859
 40
0.2656249999999859
 40
0.2812499999999848
 40
0.2812499999999848
 40
0.3124999999999858
 40
0.3749999999999849
 40
0.3749999999999849
 40
0.499999999999983
 40
0.499999999999983
 40
0.5624999999999844
 40
0.5624999999999844
 40
0.6249999999999858
 40
0.6249999999999858
 40
0.6874999999999872
 40
0.6874999999999872
 40
0.7499999999999886
 40
0.7499999999999886
 40
0.7656249999999897
 40
0.7656249999999897
 40
0.7812499999999908
 40
0.7812499999999908
 40
0.8124999999999925
 40
0.8124999999999925
 40
0.8749999999999948
 40
0.9374999999999971
 40
0.9374999999999971
 40
1.0
 40
1.0
 40
1.0
 40
1.0
 10
335.4092959997249
 20
293.0373360334069
 30
0.0
 10
335.6196644325869
 20
293.1203365446192
 30
0.0
 10
335.824496139096
 20
293.2134148474229
 30
0.0
 10
336.2212790723877
 20
293.4230161353223
 30
0.0
 10
336.4132430930634
 20
293.539515833338
 30
0.0
 10
336.6206711620195
 20
293.6861067037078
 30
0.0
 10
336.6435997347576
 20
293.7026111612742
 30
0.0
 10
336.6892134213113
 20
293.7360632134024
 30
0.0
 10
336.7119203398597
 20
293.7530275866286
 30
0.0
 10
336.7794788667273
 20
293.8044566407167
 30
0.0
 10
336.9123138257845
 20
293.9094251025691
 30
0.0
 10
337.0382196400127
 20
294.0208012504865
 30
0.0
 10
337.2804912364908
 20
294.2523756349733
 30
0.0
 10
337.4293489058223
 20
294.4184627932909
 30
0.0
 10
337.6316155415509
 20
294.6870315307391
 30
0.0
 10
337.6955215214915
 20
294.7798060581245
 30
0.0
 10
337.8157150161372
 20
294.9724002439655
 30
0.0
 10
337.8710469740867
 20
295.0706952846358
 30
0.0
 10
337.9720787542312
 20
295.2712873343769
 30
0.0
 10
338.0177833786905
 20
295.3735884485505
 30
0.0
 10
338.0992272872502
 20
295.5823437208082
 30
0.0
 10
338.1349695932382
 20
295.6887966195244
 30
0.0
 10
338.1730029285786
 20
295.8246318501512
 30
0.0
 10
338.1802764262654
 20
295.8519377442254
 30
0.0
 10
338.1941425417044
 20
295.9068332882886
 30
0.0
 10
338.2007419621716
 20
295.9344534845684
 30
0.0
 10
338.2194475490233
 20
296.0175403314121
 30
0.0
 10
338.2304091669586
 20
296.072983781348
 30
0.0
 10
338.2587827304164
 20
296.2394702671022
 30
0.0
 10
338.284605807744
 20
296.4618678572763
 30
0.0
 10
338.2860346412027
 20
296.6851097332458
 30
0.0
 10
338.2747245530417
 20
296.9087925038227
 30
0.0
 10
338.2627009383798
 20
297.020854305604
 30
0.0
 10
338.2438537824942
 20
297.133152270431
 30
0.0
  0
SPLINE
  5
1C8
330
1F
100
AcDbEntity
  8
1
100
AcDbSpline
210
0.0
220
0.0
230
1.0
 70
    12
 71
     3
 72
     9
 73
     5
 74
     0
 42
0.000000001
 43
0.0000000001
 40
0.0
 40
0.0
 40
0.0
 40
0.0
 40
0.5095127550750708
 40
1.0
 40
1.0
 40
1.0
 40
1.0
 10
320.3314322985751
 20
297.2228925344778
 30
0.0
 41
1.001530069605805
 10
323.3854628603581
 20
297.4032097880246
 30
0.0
 41
1.001753471099992
 10
329.4196747419531
 20
296.865141836329
 30
0.0
 41
1.001104105472504
 10
335.4245571286924
 20
296.4382601452203
 30
0.0
 41
1.001695973805317
 10
338.2438537824942
 20
297.1331522704308
 30
0.0
 41
1.001577819624557
  0
SPLINE
  5
1C9
330
1F
100
AcDbEntity
  8
1
100
AcDbSpline
210
0.0
220
0.0
230
1.0
 70
     8
 71
     3
 72
     9
 73
     5
 74
     0
 42
0.000000001
 43
0.0000000001
 40
0.0
 40
0.0
 40
0.0
 40
0.0
 40
0.5
 40
1.0
 40
1.0
 40
1.0
 40
1.0
 10
289.4995046146497
 20
284.1180375403188
 30
0.0
 10
289.9190413425129
 20
284.1058873317203
 30
0.0
 10
290.7607452706749
 20
284.0559727607088
 30
0.0
 10
291.6075750281468
 20
283.9561455661783
 30
0.0
 10
292.0322589432652
 20
283.8938747616473
 30
0.0
  0
SPLINE
  5
1CA
330
1F
100
AcDbEntity
  8
1
100
AcDbSpline
210
0.0
220
0.0
230
1.0
 70
     8
 71
     3
 72
    10
 73
     6
 74
     0
 42
0.000000001
 43
0.0000000001
 40
0.0
 40
0.0
 40
0.0
 40
0.0
 40
0.5
 40
0.5
 40
1.0
 40
1.0
 40
1.0
 40
1.0
 10
279.4048419452957
 20
272.5326438396783
 30
0.0
 10
279.6204518423589
 20
272.6596792046336
 30
0.0
 10
279.8380702879405
 20
272.7953365342993
 30
0.0
 10
280.2762872503858
 20
273.0809763955964
 30
0.0
 10
280.496885862767
 20
273.230966424814
 30
0.0
 10
280.7185504442805
 20
273.3871177021243
 30
0.0
  0
SPLINE
  5
1CB
330
1F
100
AcDbEntity
  8
1
100
AcDbSpline
210
0.0
220
0.0
230
1.0
 70
     8
 71
     3
 72
    36
 73
    32
 74
     0
 42
0.000000001
 43
0.0000000001
 40
0.0
 40
0.0
 40
0.0
 40
0.0
 40
0.1250000000000033
 40
0.1250000000000033
 40
0.2500000000000066
 40
0.2500000000000066
 40
0.2656250000000066
 40
0.2656250000000066
 40
0.2812500000000067
 40
0.2812500000000067
 40
0.3125000000000063
 40
0.3125000000000063
 40
0.3750000000000056
 40
0.3750000000000056
 40
0.5000000000000043
 40
0.5000000000000043
 40
0.5312500000000038
 40
0.5312500000000038
 40
0.5625000000000035
 40
0.5625000000000035
 40
0.6250000000000029
 40
0.6250000000000029
 40
0.7500000000000025
 40
0.7500000000000025
 40
0.8125000000000024
 40
0.8125000000000024
 40
0.8437500000000021
 40
0.8437500000000021
 40
0.8750000000000019
 40
0.8750000000000019
 40
1.0
 40
1.0
 40
1.0
 40
1.0
 10
276.4224798243481
 20
275.9641132265089
 30
0.0
 10
276.379952621675
 20
275.7513552759748
 30
0.0
 10
276.362466287108
 20
275.5458203397981
 30
0.0
 10
276.3745712269275
 20
275.1488631988869
 30
0.0
 10
276.4041788075509
 20
274.9574421836828
 30
0.0
 10
276.4638785946266
 20
274.7499486142464
 30
0.0
 10
276.470880127204
 20
274.7270029769809
 30
0.0
 10
276.4856221414427
 20
274.6813299937533
 30
0.0
 10
276.4933701472178
 20
274.6585834217253
 30
0.0
 10
276.5176260552399
 20
274.5909428681484
 30
0.0
 10
276.5351657226899
 20
274.5465763747548
 30
0.0
 10
276.5917799475649
 20
274.4155835048709
 30
0.0
 10
276.6348444877617
 20
274.3310618262261
 30
0.0
 10
276.7793172583692
 20
274.0853958627709
 30
0.0
 10
276.8959407880854
 20
273.9321303826279
 30
0.0
 10
277.0659440165281
 20
273.7523403659891
 30
0.0
 10
277.1011610018448
 20
273.716973605552
 30
0.0
 10
277.1740183578332
 20
273.6473949030171
 30
0.0
 10
277.2117043108812
 20
273.6131479786859
 30
0.0
 10
277.3276335094168
 20
273.5127329092312
 30
0.0
 10
277.4089383177634
 20
273.4486866427272
 30
0.0
 10
277.6643203971852
 20
273.2644875189271
 30
0.0
 10
277.8498197652318
 20
273.1522460252541
 30
0.0
 10
278.1495712821786
 20
272.9973748344969
 30
0.0
 10
278.2530844289123
 20
272.9480074907691
 30
0.0
 10
278.4136765025851
 20
272.8771067150248
 30
0.0
 10
278.468140664818
 20
272.8539800083638
 30
0.0
 10
278.5786169745135
 20
272.8088323601471
 30
0.0
 10
278.6345769912326
 20
272.7868310036718
 30
0.0
 10
278.9179277301499
 20
272.6795552057626
 30
0.0
 10
279.1559304045444
 20
272.6024401163319
 30
0.0
 10
279.4048419452957
 20
272.5326438396783
 30
0.0
  0
SPLINE
  5
1CC
330
1F
100
AcDbEntity
  8
1
100
AcDbSpline
210
0.0
220
0.0
230
1.0
 70
     8
 71
     3
 72
    58
 73
    54
 74
     0
 42
0.000000001
 43
0.0000000001
 40
0.0
 40
0.0
 40
0.0
 40
0.0
 40
0.0625000000000007
 40
0.0625000000000007
 40
0.1250000000000015
 40
0.1250000000000015
 40
0.1875000000000022
 40
0.1875000000000022
 40
0.2187500000000027
 40
0.2187500000000027
 40
0.2500000000000032
 40
0.2500000000000032
 40
0.2812500000000037
 40
0.2812500000000037
 40
0.3125000000000042
 40
0.3125000000000042
 40
0.3437500000000047
 40
0.3437500000000047
 40
0.3750000000000052
 40
0.3750000000000052
 40
0.3906250000000051
 40
0.3906250000000051
 40
0.4062500000000052
 40
0.4062500000000052
 40
0.4375000000000049
 40
0.4375000000000049
 40
0.4687500000000048
 40
0.4687500000000048
 40
0.5000000000000047
 40
0.5000000000000047
 40
0.5312500000000046
 40
0.5312500000000046
 40
0.5625000000000046
 40
0.5625000000000046
 40
0.5937500000000045
 40
0.5937500000000045
 40
0.6250000000000044
 40
0.6250000000000044
 40
0.6875000000000037
 40
0.6875000000000037
 40
0.7500000000000031
 40
0.7500000000000031
 40
0.7812500000000026
 40
0.7812500000000026
 40
0.8125000000000021
 40
0.8125000000000021
 40
0.8437500000000017
 40
0.8437500000000017
 40
0.8750000000000014
 40
0.8750000000000014
 40
0.9375000000000007
 40
0.9375000000000007
 40
1.0
 40
1.0
 40
1.0
 40
1.0
 10
297.9048419452957
 20
283.0617980521586
 30
0.0
 10
298.6959722521782
 20
282.9230612821785
 30
0.0
 10
299.4836823198067
 20
282.7767414590682
 30
0.0
 10
301.0514570834896
 20
282.4687371880544
 30
0.0
 10
301.8315119812754
 20
282.3070282088078
 30
0.0
 10
303.383493857436
 20
281.9695028187957
 30
0.0
 10
304.155408719909
 20
281.7936652129106
 30
0.0
 10
305.3073270980981
 20
281.5219381081769
 30
0.0
 10
305.6903140734079
 20
281.4300536051583
 30
0.0
 10
306.4544342718431
 20
281.2443507352124
 30
0.0
 10
306.8355673383918
 20
281.1505328554638
 30
0.0
 10
307.596168036726
 20
280.9618060754158
 30
0.0
 10
307.9756357171567
 20
280.8668982806546
 30
0.0
 10
308.73316684588
 20
280.6769700541725
 30
0.0
 10
309.1112305879677
 20
280.5819513173922
 30
0.0
 10
309.866282912446
 20
280.3928728831788
 30
0.0
 10
310.2432720311333
 20
280.2988153077985
 30
0.0
 10
310.9965595406537
 20
280.1127661467727
 30
0.0
 10
311.3728586570131
 20
280.0207768330048
 30
0.0
 10
311.9371047414367
 20
279.885148714583
 30
0.0
 10
312.1251532162969
 20
279.8403315156801
 30
0.0
 10
312.5012369650649
 20
279.751606951365
 30
0.0
 10
312.6892996799521
 20
279.7076933693238
 30
0.0
 10
313.2533025009295
 20
279.5775502786063
 30
0.0
 10
313.6290584413493
 20
279.4929234692619
 30
0.0
 10
314.3805550915906
 20
279.3287195875381
 30
0.0
 10
314.7562927001517
 20
279.2491377275377
 30
0.0
 10
315.5082538942167
 20
279.0956715068165
 30
0.0
 10
315.8844802326553
 20
279.0217893414103
 30
0.0
 10
316.6378215925603
 20
278.8800615007302
 30
0.0
 10
317.0149361205545
 20
278.812213039966
 30
0.0
 10
317.7703293906217
 20
278.682607020108
 30
0.0
 10
318.1486070784197
 20
278.6208464723586
 30
0.0
 10
318.9065032584908
 20
278.5032824353166
 30
0.0
 10
319.2861370517342
 20
278.4474955185308
 30
0.0
 10
320.0467801568473
 20
278.341550208428
 30
0.0
 10
320.4277496362203
 20
278.2913413642391
 30
0.0
 10
321.5721616919546
 20
278.1480859296821
 30
0.0
 10
322.3370827799446
 20
278.0623530060777
 30
0.0
 10
323.8694242630007
 20
277.9075919473996
 30
0.0
 10
324.6368643145188
 20
277.8385992600295
 30
0.0
 10
325.7892595764403
 20
277.7466682478628
 30
0.0
 10
326.1736334429825
 20
277.7179573515533
 30
0.0
 10
326.9421110090267
 20
277.6643545017866
 30
0.0
 10
327.3262864618566
 20
277.63945646463
 30
0.0
 10
328.094437538274
 20
277.593413011654
 30
0.0
 10
328.4784127744449
 20
277.5722676239906
 30
0.0
 10
329.246103601016
 20
277.5337231019648
 30
0.0
 10
329.6298057456332
 20
277.5163194742197
 30
0.0
 10
330.7806009372375
 20
277.4698337681805
 30
0.0
 10
331.5474388831724
 20
277.4465303968648
 30
0.0
 10
333.0816324753025
 20
277.4156165727414
 30
0.0
 10
333.8489946919177
 20
277.4079935137005
 30
0.0
 10
334.6170361731081
 20
277.4079935137005
 30
0.0
  0
SPLINE
  5
1CD
330
1F
100
AcDbEntity
  8
1
100
AcDbSpline
210
0.0
220
0.0
230
1.0
 70
     8
 71
     3
 72
    44
 73
    40
 74
     0
 42
0.000000001
 43
0.0000000001
 40
0.0
 40
0.0
 40
0.0
 40
0.0
 40
0.0625
 40
0.0625
 40
0.1250000000000001
 40
0.1250000000000001
 40
0.1875000000000001
 40
0.1875000000000001
 40
0.2500000000000001
 40
0.2500000000000001
 40
0.3124999999999998
 40
0.3124999999999998
 40
0.3749999999999995
 40
0.3749999999999995
 40
0.4374999999999992
 40
0.4374999999999992
 40
0.499999999999999
 40
0.499999999999999
 40
0.5312499999999988
 40
0.5312499999999988
 40
0.5624999999999987
 40
0.5624999999999987
 40
0.5937499999999986
 40
0.5937499999999986
 40
0.6249999999999984
 40
0.6249999999999984
 40
0.6874999999999983
 40
0.6874999999999983
 40
0.7187499999999984
 40
0.7187499999999984
 40
0.7499999999999987
 40
0.7499999999999987
 40
0.8124999999999989
 40
0.8124999999999989
 40
0.8749999999999992
 40
0.8749999999999992
 40
0.9374999999999998
 40
0.9374999999999998
 40
1.0
 40
1.0
 40
1.0
 40
1.0
 10
297.9048419452956
 20
300.3229694511789
 30
0.0
 10
298.5458524959667
 20
300.3075240262819
 30
0.0
 10
299.1847921471428
 20
300.2890325469273
 30
0.0
 10
300.4582215073747
 20
300.2440720026989
 30
0.0
 10
301.0927083495718
 20
300.2176002924486
 30
0.0
 10
302.3570415244976
 20
300.1544870031882
 30
0.0
 10
302.9868839289541
 20
300.1178380855372
 30
0.0
 10
304.2419612312362
 20
300.0320127679132
 30
0.0
 10
304.867191805748
 20
299.982822539873
 30
0.0
 10
306.1134293406218
 20
299.8697033248939
 30
0.0
 10
306.7333531815128
 20
299.8058519343747
 30
0.0
 10
307.9678213813528
 20
299.6622033646051
 30
0.0
 10
308.5823745801632
 20
299.5823873523369
 30
0.0
 10
309.8078724974749
 20
299.4066460803957
 30
0.0
 10
310.4188241233171
 20
299.3107111541379
 30
0.0
 10
311.6394711747791
 20
299.1042612776423
 30
0.0
 10
312.2491793630108
 20
298.9937525690393
 30
0.0
 10
313.1647864090435
 20
298.8195270118723
 30
0.0
 10
313.4700723381915
 20
298.7600720467557
 30
0.0
 10
314.0811368030665
 20
298.638947421745
 30
0.0
 10
314.38694387648
 20
298.5773171390281
 30
0.0
 10
314.9992427882271
 20
298.4522434579308
 30
0.0
 10
315.3056806769896
 20
298.388725154807
 30
0.0
 10
315.9188370623659
 20
298.2593600359572
 30
0.0
 10
316.2255557500397
 20
298.1935124771359
 30
0.0
 10
317.1458250484666
 20
297.9920259374999
 30
0.0
 10
317.7590788051106
 20
297.8524822284037
 30
0.0
 10
318.6780288157951
 20
297.6343204543468
 30
0.0
 10
318.9841995620513
 20
297.5601366216976
 30
0.0
 10
319.5962401593296
 20
297.4087844668722
 30
0.0
 10
319.9021036327064
 20
297.3316024100743
 30
0.0
 10
320.81955641361
 20
297.096099925667
 30
0.0
 10
321.4310367033359
 20
296.9338663789187
 30
0.0
 10
322.6548151870361
 20
296.6011378665367
 30
0.0
 10
323.2671031452913
 20
296.430634866852
 30
0.0
 10
324.4929692962344
 20
296.0825672006732
 30
0.0
 10
325.1060176048596
 20
295.9051482947422
 30
0.0
 10
326.3324515118345
 20
295.5439733253277
 30
0.0
 10
326.9458370128726
 20
295.3602200607232
 30
0.0
 10
327.5592857386019
 20
295.1731159833137
 30
0.0
  0
SPLINE
  5
1CE
330
1F
100
AcDbEntity
  8
1
100
AcDbSpline
210
0.0
220
0.0
230
1.0
 70
     8
 71
     3
 72
    46
 73
    42
 74
     0
 42
0.000000001
 43
0.0000000001
 40
0.0
 40
0.0
 40
0.0
 40
0.0
 40
0.0528974592220055
 40
0.0528974592220055
 40
0.1057949184440111
 40
0.1057949184440111
 40
0.1586923776660167
 40
0.1586923776660167
 40
0.2115898368880222
 40
0.2115898368880222
 40
0.2380385664990246
 40
0.2380385664990246
 40
0.264487296110027
 40
0.264487296110027
 40
0.3173847553320318
 40
0.3173847553320318
 40
0.3438334849430342
 40
0.3438334849430342
 40
0.3702822145540365
 40
0.3702822145540365
 40
0.4231796737760422
 40
0.4231796737760422
 40
0.5289745922200525
 40
0.5289745922200525
 40
0.6347695106640631
 40
0.6347695106640631
 40
0.6876669698860686
 40
0.6876669698860686
 40
0.7405644291080741
 40
0.7405644291080741
 40
0.7934618883300797
 40
0.7934618883300797
 40
0.8463593475520852
 40
0.8463593475520852
 40
0.8992568067740908
 40
0.8992568067740908
 40
0.9521542659960962
 40
0.9521542659960962
 40
0.9786029956070988
 40
0.9786029956070988
 40
1.0
 40
1.0
 40
1.0
 40
1.0
 10
337.7996385741008
 20
300.2758129072859
 30
0.0
 10
337.4209169351097
 20
300.3089214554151
 30
0.0
 10
337.0377025469606
 20
300.3343637309839
 30
0.0
 10
336.2618611108574
 20
300.3730327838558
 30
0.0
 10
335.8692334518192
 20
300.3862682701051
 30
0.0
 10
335.0747566408314
 20
300.4034453298274
 30
0.0
 10
334.6729073518909
 20
300.4073939003395
 30
0.0
 10
333.8608116617937
 20
300.4084665172151
 30
0.0
 10
333.4505663202222
 20
300.4055956111665
 30
0.0
 10
332.8299853269387
 20
300.3975475342584
 30
0.0
 10
332.6222609283569
 20
300.394235808052
 30
0.0
 10
332.2053185533866
 20
300.3865132878662
 30
0.0
 10
331.996015168039
 20
300.3821004172472
 30
0.0
 10
331.3670560353054
 20
300.3673970546105
 30
0.0
 10
330.9462957602733
 20
300.3556701693443
 30
0.0
 10
330.3142125602729
 20
300.335402565978
 30
0.0
 10
330.1033633811008
 20
300.3281937821478
 30
0.0
 10
329.6815859995521
 20
300.3128253996326
 30
0.0
 10
329.4706692408247
 20
300.3046607068479
 30
0.0
 10
328.838071741448
 20
300.2786347887515
 30
0.0
 10
328.4164833990018
 20
300.2592665207185
 30
0.0
 10
327.152443275241
 20
300.194881215831
 30
0.0
 10
326.3107431749617
 20
300.1436006636378
 30
0.0
 10
324.6304784403461
 20
300.0223999975434
 30
0.0
 10
323.7918987902858
 20
299.9524737749819
 30
0.0
 10
322.5367579964019
 20
299.8318169818991
 30
0.0
 10
322.1188287605735
 20
299.7889684123508
 30
0.0
 10
321.2839551304731
 20
299.6976271285828
 30
0.0
 10
320.8670085300825
 20
299.6491384250065
 30
0.0
 10
320.0342613389814
 20
299.5459755703347
 30
0.0
 10
319.61846370146
 20
299.4913006843692
 30
0.0
 10
318.7883049797796
 20
299.374942159892
 30
0.0
 10
318.3739221679003
 20
299.3132775381933
 30
0.0
 10
317.5463753045931
 20
299.1826755844503
 30
0.0
 10
317.1332146990815
 20
299.1137315765272
 30
0.0
 10
316.3078464285632
 20
298.9684396819353
 30
0.0
 10
315.8956404266139
 20
298.8920854958874
 30
0.0
 10
315.2777134123894
 20
298.7721885046661
 30
0.0
 10
315.0717682536273
 20
298.7313255356615
 30
0.0
 10
314.6994927824811
 20
298.6559161512696
 30
0.0
 10
314.5330954327216
 20
298.6216518851006
 30
0.0
 10
314.3667639117198
 20
298.5868799451599
 30
0.0
  0
SPLINE
  5
1CF
330
1F
100
AcDbEntity
  8
1
100
AcDbSpline
210
0.0
220
0.0
230
1.0
 70
     8
 71
     3
 72
    33
 73
    29
 74
     0
 42
0.000000001
 43
0.0000000001
 40
0.0
 40
0.0
 40
0.0
 40
0.0
 40
0.0625000000000006
 40
0.0625000000000006
 40
0.1250000000000011
 40
0.1250000000000011
 40
0.1875000000000017
 40
0.1875000000000017
 40
0.2500000000000022
 40
0.2500000000000022
 40
0.3125000000000027
 40
0.3125000000000027
 40
0.343750000000003
 40
0.343750000000003
 40
0.3593750000000031
 40
0.3593750000000031
 40
0.3750000000000033
 40
0.4375000000000031
 40
0.4375000000000031
 40
0.5000000000000027
 40
0.5000000000000027
 40
0.6250000000000022
 40
0.6250000000000022
 40
0.7500000000000014
 40
0.7500000000000014
 40
0.8750000000000007
 40
0.8750000000000007
 40
1.0
 40
1.0
 40
1.0
 40
1.0
 10
292.0322589432653
 20
277.7091296611719
 30
0.0
 10
291.7411418952948
 20
277.6900005699476
 30
0.0
 10
291.4543152199478
 20
277.6622541070172
 30
0.0
 10
290.8882721945714
 20
277.5920835791757
 30
0.0
 10
290.6090576716243
 20
277.5496570229478
 30
0.0
 10
290.0574673553876
 20
277.4522393766369
 30
0.0
 10
289.7850926450364
 20
277.397246544313
 30
0.0
 10
289.2465611089281
 20
277.2764342958311
 30
0.0
 10
288.9804049213361
 20
277.2106134802868
 30
0.0
 10
288.4538155725941
 20
277.06955384291
 30
0.0
 10
288.1933827961197
 20
276.9943137507237
 30
0.0
 10
287.8067382470788
 20
276.8752290193299
 30
0.0
 10
287.6785250037494
 20
276.8344945278301
 30
0.0
 10
287.4871787995136
 20
276.7719203547688
 30
0.0
 10
287.4235430760753
 20
276.7508110624155
 30
0.0
 10
287.2968733637372
 20
276.7082104651245
 30
0.0
 10
286.9815342639958
 20
276.6006964495928
 30
0.0
 10
286.6726975312491
 20
276.4883342663324
 30
0.0
 10
286.1862533431047
 20
276.3031519247489
 30
0.0
 10
285.9468799576525
 20
276.2078572196281
 30
0.0
 10
285.2396504627939
 20
275.9147570565841
 30
0.0
 10
284.7826266807014
 20
275.7097834713969
 30
0.0
 10
283.8957397039711
 20
275.2838216280334
 30
0.0
 10
283.4658986558866
 20
275.062801783532
 30
0.0
 10
282.6332796145922
 20
274.6066261964577
 30
0.0
 10
282.2305143128225
 20
274.3714512084865
 30
0.0
 10
281.4530352822131
 20
273.8884260194101
 30
0.0
 10
281.0783267925047
 20
273.6405616034353
 30
0.0
 10
280.7185504442805
 20
273.3871177021243
 30
0.0
  0
LINE
  5
1EA
330
1F
100
AcDbEntity
  8
SK4
100
AcDbLine
 10
214.904842
 20
288.907994
 30
0.0
 11
277.404842
 21
288.907994
 31
0.0
  0
LINE
  5
1EB
330
1F
100
AcDbEntity
  8
4
100
AcDbLine
 10
269.032259
 20
288.907994
 30
0.0
 11
351.008589
 21
288.907994
 31
0.0
  0
MTEXT
  5
1EC
330
1F
100
AcDbEntity
  8
SK6
100
AcDbMText
 10
258.520787
 20
241.27662
 30
0.0
 40
3.5
 41
0.0
 71
     7
 72
     5
  1
\W0.7022;802D-24-48-S25
  7
cesky
 73
     2
 44
0.8433729999999998
  0
MTEXT
  5
302
330
1F
100
AcDbEntity
  8
2
100
AcDbMText
 10
279.827842
 20
340.562135
 30
0.0
 40
3.5
 41
0.0
 71
     7
 72
     5
  1
\W0.7969;129
  7
cesky
 73
     2
 44
0.8433729999999998
  0
LINE
  5
303
330
1F
100
AcDbEntity
  8
2
100
AcDbLine
 10
347.404842
 20
302.907994
 30
0.0
 11
347.404842
 21
341.687968
 31
0.0
  0
LINE
  5
304
330
1F
100
AcDbEntity
  8
2
100
AcDbLine
 10
218.404842
 20
299.407994
 30
0.0
 11
218.404842
 21
341.687968
 31
0.0
  0
LINE
  5
305
330
1F
100
AcDbEntity
  8
2
100
AcDbLine
 10
347.404842
 20
340.687968
 30
0.0
 11
218.404842
 21
340.687968
 31
0.0
  0
SOLID
  5
306
330
1F
100
AcDbEntity
  8
2
100
AcDbTrace
 10
347.404842
 20
340.687968
 30
0.0
 11
343.904844
 21
340.070823
 31
0.0
 12
343.90484
 22
341.305112
 32
0.0
 13
343.90484
 23
341.305112
 33
0.0
  0
SOLID
  5
307
330
1F
100
AcDbEntity
  8
2
100
AcDbTrace
 10
218.404842
 20
340.687968
 30
0.0
 11
221.90484
 21
341.305112
 31
0.0
 12
221.904844
 22
340.070823
 32
0.0
 13
221.904844
 23
340.070823
 33
0.0
  0
MTEXT
  5
308
330
1F
100
AcDbEntity
  8
2
100
AcDbMText
 10
244.590342
 20
327.385163
 30
0.0
 40
3.5
 41
0.0
 71
     7
 72
     5
  1
\W0.7259;56
  7
cesky
 73
     2
 44
0.8433729999999998
  0
LINE
  5
309
330
1F
100
AcDbEntity
  8
2
100
AcDbLine
 10
274.404842
 20
288.907994
 30
0.0
 11
274.404842
 21
328.5109970000001
 31
0.0
  0
LINE
  5
30A
330
1F
100
AcDbEntity
  8
2
100
AcDbLine
 10
218.404842
 20
299.407994
 30
0.0
 11
218.404842
 21
328.5109970000001
 31
0.0
  0
LINE
  5
30B
330
1F
100
AcDbEntity
  8
2
100
AcDbLine
 10
274.404842
 20
327.510997
 30
0.0
 11
218.404842
 21
327.510997
 31
0.0
  0
SOLID
  5
30C
330
1F
100
AcDbEntity
  8
2
100
AcDbTrace
 10
274.404842
 20
327.510997
 30
0.0
 11
270.904844
 21
326.893852
 31
0.0
 12
270.90484
 22
328.128141
 32
0.0
 13
270.90484
 23
328.128141
 33
0.0
  0
SOLID
  5
30D
330
1F
100
AcDbEntity
  8
2
100
AcDbTrace
 10
218.404842
 20
327.510997
 30
0.0
 11
221.90484
 21
328.128141
 31
0.0
 12
221.904844
 22
326.893852
 32
0.0
 13
221.904844
 23
326.893852
 33
0.0
  0
MTEXT
  5
30E
330
1F
100
AcDbEntity
  8
2
100
AcDbMText
 10
317.090518
 20
316.511754
 30
0.0
 40
3.5
 41
0.0
 71
     7
 72
     5
  1
\W0.7045;57
  7
cesky
 73
     2
 44
0.8433729999999998
  0
LINE
  5
30F
330
1F
100
AcDbEntity
  8
2
100
AcDbLine
 10
347.404842
 20
302.907994
 30
0.0
 11
347.404842
 21
317.637587
 31
0.0
  0
LINE
  5
310
330
1F
100
AcDbEntity
  8
2
100
AcDbLine
 10
290.405193
 20
300.745081
 30
0.0
 11
290.405193
 21
317.637587
 31
0.0
  0
LINE
  5
311
330
1F
100
AcDbEntity
  8
2
100
AcDbLine
 10
347.404842
 20
316.637587
 30
0.0
 11
290.405193
 21
316.637587
 31
0.0
  0
SOLID
  5
312
330
1F
100
AcDbEntity
  8
2
100
AcDbTrace
 10
347.404842
 20
316.637587
 30
0.0
 11
343.904844
 21
316.020443
 31
0.0
 12
343.90484
 22
317.254732
 32
0.0
 13
343.90484
 23
317.254732
 33
0.0
  0
SOLID
  5
313
330
1F
100
AcDbEntity
  8
2
100
AcDbTrace
 10
290.405193
 20
316.637587
 30
0.0
 11
293.905191
 21
317.254732
 31
0.0
 12
293.905195
 22
316.020443
 32
0.0
 13
293.905195
 23
316.020443
 33
0.0
  0
MTEXT
  5
314
330
1F
100
AcDbEntity
  8
2
100
AcDbMText
 10
363.304785
 20
287.571548
 30
0.0
 40
3.5
 41
0.0
 71
     7
 72
     5
  1
\W0.6844;24
  7
cesky
 11
0.0000000000000001
 21
1.0
 31
0.0
 73
     2
 44
0.8433729999999998
  0
MTEXT
  5
315
330
1F
100
AcDbEntity
  8
2
100
AcDbMText
 10
363.304785
 20
280.834048
 30
0.0
 40
3.5
 41
0.0
 71
     7
 72
     5
  1
\W3.0115;\H2.63;%%c\H3.50;
  7
cesky
 11
0.0000000000000001
 21
1.0
 31
0.0
 73
     2
 44
0.8433729999999998
  0
LINE
  5
316
330
1F
100
AcDbEntity
  8
2
100
AcDbLine
 10
349.404842
 20
300.907994
 30
0.0
 11
364.492201
 21
300.907994
 31
0.0
  0
LINE
  5
317
330
1F
100
AcDbEntity
  8
2
100
AcDbLine
 10
363.492201
 20
300.907994
 30
0.0
 11
363.492201
 21
280.676548
 31
0.0
  0
SOLID
  5
318
330
1F
100
AcDbEntity
  8
2
100
AcDbTrace
 10
363.492201
 20
300.907994
 30
0.0
 11
364.109346
 21
297.407996
 31
0.0
 12
362.875057
 22
297.407991
 32
0.0
 13
362.875057
 23
297.407991
 33
0.0
  0
MTEXT
  5
319
330
1F
100
AcDbEntity
  8
2
100
AcDbMText
 10
309.090342
 20
327.385163
 30
0.0
 40
3.5
 41
0.0
 71
     7
 72
     5
  1
\W0.7045;73
  7
cesky
 73
     2
 44
0.8433729999999998
  0
LINE
  5
31A
330
1F
100
AcDbEntity
  8
2
100
AcDbLine
 10
347.404842
 20
300.907994
 30
0.0
 11
347.404842
 21
328.5109970000001
 31
0.0
  0
LINE
  5
31B
330
1F
100
AcDbEntity
  8
2
100
AcDbLine
 10
274.404842
 20
289.907567
 30
0.0
 11
274.404842
 21
328.5109970000001
 31
0.0
  0
LINE
  5
31C
330
1F
100
AcDbEntity
  8
2
100
AcDbLine
 10
347.404842
 20
327.510997
 30
0.0
 11
274.404842
 21
327.510997
 31
0.0
  0
SOLID
  5
31D
330
1F
100
AcDbEntity
  8
2
100
AcDbTrace
 10
347.404842
 20
327.510997
 30
0.0
 11
343.904844
 21
326.893852
 31
0.0
 12
343.90484
 22
328.128141
 32
0.0
 13
343.90484
 23
328.128141
 33
0.0
  0
SOLID
  5
31E
330
1F
100
AcDbEntity
  8
2
100
AcDbTrace
 10
274.404842
 20
327.510997
 30
0.0
 11
277.90484
 21
328.128141
 31
0.0
 12
277.904844
 22
326.893852
 32
0.0
 13
277.904844
 23
326.893852
 33
0.0
  0
MTEXT
  5
31F
330
1F
100
AcDbEntity
  8
SK2
100
AcDbMText
 10
204.240395
 20
290.434244
 30
0.0
 40
3.5
 41
0.0
 71
     7
 72
     5
  1
\W0.7045;25
  7
cesky
 11
0.0000000000000001
 21
1.0
 31
0.0
 73
     2
 44
0.8433729999999998
  0
MTEXT
  5
320
330
1F
100
AcDbEntity
  8
SK2
100
AcDbMText
 10
204.240395
 20
283.696744
 30
0.0
 40
3.5
 41
0.0
 71
     7
 72
     5
  1
\W3.0115;\H2.63;%%c\H3.50;
  7
cesky
 11
0.0000000000000001
 21
1.0
 31
0.0
 73
     2
 44
0.8433729999999998
  0
LINE
  5
321
330
1F
100
AcDbEntity
  8
SK2
100
AcDbLine
 10
220.404842
 20
301.407994
 30
0.0
 11
203.427812
 21
301.407994
 31
0.0
  0
LINE
  5
322
330
1F
100
AcDbEntity
  8
SK2
100
AcDbLine
 10
220.404842
 20
276.407994
 30
0.0
 11
203.427812
 21
276.407994
 31
0.0
  0
LINE
  5
323
330
1F
100
AcDbEntity
  8
SK2
100
AcDbLine
 10
204.427812
 20
301.407994
 30
0.0
 11
204.427812
 21
276.407994
 31
0.0
  0
SOLID
  5
324
330
1F
100
AcDbEntity
  8
SK2
100
AcDbTrace
 10
204.427812
 20
301.407994
 30
0.0
 11
205.044956
 21
297.9079959999999
 31
0.0
 12
203.810668
 22
297.907991
 32
0.0
 13
203.810668
 23
297.907991
 33
0.0
  0
SOLID
  5
325
330
1F
100
AcDbEntity
  8
SK2
100
AcDbTrace
 10
204.427812
 20
276.407994
 30
0.0
 11
203.810668
 21
279.9079910000001
 31
0.0
 12
205.044956
 22
279.907996
 32
0.0
 13
205.044956
 23
279.907996
 33
0.0
  0
MTEXT
  5
326
330
1F
100
AcDbEntity
  8
SK2
100
AcDbMText
 10
191.10057
 20
290.434244
 30
0.0
 40
3.5
 41
0.0
 71
     7
 72
     5
  1
\W0.7045;35
  7
cesky
 11
0.0000000000000001
 21
1.0
 31
0.0
 73
     2
 44
0.8433729999999998
  0
MTEXT
  5
327
330
1F
100
AcDbEntity
  8
SK2
100
AcDbMText
 10
191.10057
 20
283.696744
 30
0.0
 40
3.5
 41
0.0
 71
     7
 72
     5
  1
\W3.0115;\H2.63;%%c\H3.50;
  7
cesky
 11
0.0000000000000001
 21
1.0
 31
0.0
 73
     2
 44
0.8433729999999998
  0
LINE
  5
328
330
1F
100
AcDbEntity
  8
SK2
100
AcDbLine
 10
274.904842
 20
306.407994
 30
0.0
 11
190.287987
 21
306.407994
 31
0.0
  0
LINE
  5
329
330
1F
100
AcDbEntity
  8
SK2
100
AcDbLine
 10
274.904842
 20
271.407994
 30
0.0
 11
190.287987
 21
271.407994
 31
0.0
  0
LINE
  5
32A
330
1F
100
AcDbEntity
  8
SK2
100
AcDbLine
 10
191.287987
 20
306.407994
 30
0.0
 11
191.287987
 21
271.407994
 31
0.0
  0
SOLID
  5
32B
330
1F
100
AcDbEntity
  8
SK2
100
AcDbTrace
 10
191.287987
 20
306.407994
 30
0.0
 11
191.905131
 21
302.907996
 31
0.0
 12
190.670842
 22
302.907991
 32
0.0
 13
190.670842
 23
302.907991
 33
0.0
  0
SOLID
  5
32C
330
1F
100
AcDbEntity
  8
SK2
100
AcDbTrace
 10
191.287987
 20
271.407994
 30
0.0
 11
190.670842
 21
274.907991
 31
0.0
 12
191.905131
 22
274.9079959999999
 32
0.0
 13
191.905131
 23
274.9079959999999
 33
0.0
  0
LINE
  5
32D
330
1F
100
AcDbEntity
  8
CUT
100
AcDbLine
 10
346.0087100338871
 20
300.9041297180009
 30
0.0
 11
339.6159463730311
 21
300.6092893673482
 31
0.0
  0
LINE
  5
330
330
1F
100
AcDbEntity
  8
CUT
100
AcDbLine
 10
347.4048419452957
 20
289.8276302906288
 30
0.0
 11
347.3232220537611
 21
294.4990720017853
 31
0.0
  0
LINE
  5
331
330
1F
100
AcDbEntity
  8
CUT
100
AcDbLine
 10
347.3232220537611
 20
294.4990720017853
 30
0.0
 11
347.0465327619589
 21
294.9594922577519
 31
0.0
  0
LINE
  5
332
330
1F
100
AcDbEntity
  8
CUT
100
AcDbLine
 10
347.0465327619589
 20
294.9594922577519
 30
0.0
 11
346.8106906244817
 21
300.1747623657955
 31
0.0
  0
LINE
  5
333
330
1F
100
AcDbEntity
  8
CUT
100
AcDbLine
 10
338.882883
 20
288.907994
 30
0.0
 11
347.404842
 21
288.907994
 31
0.0
  0
LINE
  5
334
330
1F
100
AcDbEntity
  8
CUT
100
AcDbLine
 10
338.882883
 20
299.808533
 30
0.0
 11
338.882883
 21
288.907994
 31
0.0
  0
LINE
  5
335
330
1F
100
AcDbEntity
  8
CUT
100
AcDbLine
 10
347.404842
 20
288.907994
 30
0.0
 11
347.404842
 21
289.82763
 31
0.0
  0
ARC
  5
336
330
1F
100
AcDbEntity
  8
CUT
100
AcDbCircle
 10
346.0348437984121
 20
300.127834695488
 30
0.0
 40
0.7772647578288577
100
AcDbArc
 50
3.461360641935037
 51
87.78739011660496
  0
ARC
  5
337
330
1F
100
AcDbEntity
  8
CUT
100
AcDbCircle
 10
346.0417717929198
 20
300.1863403060417
 30
0.0
 40
0.7185504295671043
100
AcDbArc
 50
88.15929561803734
 51
92.63720987818745
  0
ARC
  5
338
330
1F
100
AcDbEntity
  8
CUT
100
AcDbCircle
 10
339.6620998002507
 20
299.8300491299651
 30
0.0
 40
0.7806058457383906
100
AcDbArc
 50
93.3895976291984
 51
174.7012929714143
  0
ARC
  5
339
330
1F
100
AcDbEntity
  8
CUT
100
AcDbCircle
 10
339.5987843858659
 20
299.8404663463256
 30
0.0
 40
0.7166132721579063
100
AcDbArc
 50
175.0631365497291
 51
182.5540347311265
  0
ENDSEC
  0
SECTION
  2
OBJECTS
  0
DICTIONARY
  5
C
330
0
100
AcDbDictionary
281
     1
  3
ACAD_CIP_PREVIOUS_PRODUCT_INFO
350
2FF
  3
ACAD_COLOR
350
2FA
  3
ACAD_DETAILVIEWSTYLE
350
2F6
  3
ACAD_GROUP
350
D
  3
ACAD_LAYOUT
350
1A
  3
ACAD_MATERIAL
350
43
  3
ACAD_MLEADERSTYLE
350
6B
  3
ACAD_MLINESTYLE
350
17
  3
ACAD_PLOTSETTINGS
350
19
  3
ACAD_PLOTSTYLENAME
350
E
  3
ACAD_SCALELIST
350
47
  3
ACAD_SECTIONVIEWSTYLE
350
2F7
  3
ACAD_TABLESTYLE
350
69
  3
ACAD_VISUALSTYLE
350
2A
  3
ACDB_RECOMPOSE_DATA
350
365
  3
AcDbVariableDictionary
350
2B3
  0
DICTIONARY
  5
348
330
10
100
AcDbDictionary
280
     1
281
     1
  3
ADSK_XREC_LAYER_RECONCILED
360
349
  0
DICTIONARY
  5
34A
330
33A
100
AcDbDictionary
280
     1
281
     1
  3
ADSK_XREC_LAYER_RECONCILED
360
34B
  0
DICTIONARY
  5
34C
330
33B
100
AcDbDictionary
280
     1
281
     1
  3
ADSK_XREC_LAYER_RECONCILED
360
34D
  0
DICTIONARY
  5
34E
330
33C
100
AcDbDictionary
280
     1
281
     1
  3
ADSK_XREC_LAYER_RECONCILED
360
34F
  0
DICTIONARY
  5
350
330
33E
100
AcDbDictionary
280
     1
281
     1
  3
ADSK_XREC_LAYER_RECONCILED
360
351
  0
DICTIONARY
  5
352
330
33F
100
AcDbDictionary
280
     1
281
     1
  3
ADSK_XREC_LAYER_RECONCILED
360
353
  0
DICTIONARY
  5
354
330
341
100
AcDbDictionary
280
     1
281
     1
  3
ADSK_XREC_LAYER_RECONCILED
360
355
  0
DICTIONARY
  5
356
330
342
100
AcDbDictionary
280
     1
281
     1
  3
ADSK_XREC_LAYER_RECONCILED
360
357
  0
DICTIONARY
  5
358
330
343
100
AcDbDictionary
280
     1
281
     1
  3
ADSK_XREC_LAYER_RECONCILED
360
359
  0
DICTIONARY
  5
35A
330
344
100
AcDbDictionary
280
     1
281
     1
  3
ADSK_XREC_LAYER_RECONCILED
360
35B
  0
DICTIONARY
  5
35C
330
345
100
AcDbDictionary
280
     1
281
     1
  3
ADSK_XREC_LAYER_RECONCILED
360
35D
  0
DICTIONARY
  5
35E
330
346
100
AcDbDictionary
280
     1
281
     1
  3
ADSK_XREC_LAYER_RECONCILED
360
35F
  0
DICTIONARY
  5
300
330
1F
100
AcDbDictionary
280
     1
281
     1
  3
ACAD_SORTENTS
360
301
  0
XRECORD
  5
2FF
102
{ACAD_REACTORS
330
C
102
}
330
C
100
AcDbXrecord
280
     1
300
ACD
300
2019
300

  0
DICTIONARY
  5
2FA
102
{ACAD_REACTORS
330
C
102
}
330
C
100
AcDbDictionary
281
     1
  0
DICTIONARY
  5
2F6
102
{ACAD_REACTORS
330
C
102
}
330
C
100
AcDbDictionary
281
     1
  3
Metric50
350
2FC
  0
DICTIONARY
  5
D
102
{ACAD_REACTORS
330
C
102
}
330
C
100
AcDbDictionary
281
     1
  3
NULOVY_BOD
350
347
  0
DICTIONARY
  5
1A
102
{ACAD_REACTORS
330
C
102
}
330
C
100
AcDbDictionary
281
     1
  3
Layout1
350
1E
  3
Layout2
350
26
  3
Model
350
22
  0
DICTIONARY
  5
43
102
{ACAD_REACTORS
330
C
102
}
330
C
100
AcDbDictionary
281
     1
  3
ByBlock
350
45
  3
ByLayer
350
44
  3
Global
350
46
  0
DICTIONARY
  5
6B
102
{ACAD_REACTORS
330
C
102
}
330
C
100
AcDbDictionary
281
     1
  3
Standard
350
6C
  0
DICTIONARY
  5
17
102
{ACAD_REACTORS
330
C
102
}
330
C
100
AcDbDictionary
281
     1
  3
Standard
350
18
  0
DICTIONARY
  5
19
102
{ACAD_REACTORS
330
C
102
}
330
C
100
AcDbDictionary
281
     1
  0
ACDBDICTIONARYWDFLT
  5
E
102
{ACAD_REACTORS
330
C
102
}
330
C
100
AcDbDictionary
281
     1
  3
Normal
350
F
100
AcDbDictionaryWithDefault
340
F
  0
DICTIONARY
  5
47
102
{ACAD_REACTORS
330
C
102
}
330
C
100
AcDbDictionary
281
     1
  3
A0
350
48
  3
A1
350
49
  3
A2
350
4A
  3
A3
350
4B
  3
A4
350
4C
  3
A5
350
4D
  3
A6
350
4E
  3
A7
350
4F
  3
A8
350
50
  3
A9
350
51
  3
B0
350
52
  3
B1
350
53
  3
B2
350
54
  3
B3
350
55
  3
B4
350
56
  3
B5
350
57
  3
B6
350
58
  3
B7
350
59
  3
B8
350
5A
  3
B9
350
5B
  3
C0
350
5C
  3
C1
350
5D
  3
C2
350
5E
  3
C3
350
5F
  3
C4
350
60
  3
C5
350
61
  3
C6
350
62
  3
C7
350
63
  3
C8
350
64
  3
C9
350
65
  3
D0
350
66
  3
D1
350
67
  3
D2
350
68
  0
DICTIONARY
  5
2F7
102
{ACAD_REACTORS
330
C
102
}
330
C
100
AcDbDictionary
281
     1
  3
Metric50
350
2FB
  0
DICTIONARY
  5
69
102
{ACAD_REACTORS
330
C
102
}
330
C
100
AcDbDictionary
281
     1
  3
Standard
350
6A
  0
DICTIONARY
  5
2A
102
{ACAD_REACTORS
330
C
102
}
330
C
100
AcDbDictionary
281
     1
  3
2dWireframe
350
2F
  3
Basic
350
32
  3
Brighten
350
36
  3
ColorChange
350
3A
  3
Conceptual
350
34
  3
Dim
350
35
  3
EdgeColorOff
350
3D
  3
Facepattern
350
39
  3
Flat
350
2B
  3
FlatWithEdges
350
2C
  3
Gouraud
350
2D
  3
GouraudWithEdges
350
2E
  3
Hidden
350
31
  3
JitterOff
350
3B
  3
Linepattern
350
38
  3
OverhangOff
350
3C
  3
Realistic
350
33
  3
Shaded
350
42
  3
Shaded with edges
350
41
  3
Shades of Gray
350
3E
  3
Sketchy
350
3F
  3
Thicken
350
37
  3
Wireframe
350
30
  3
X-Ray
350
40
  0
XRECORD
  5
365
102
{ACAD_REACTORS
330
C
102
}
330
C
100
AcDbXrecord
280
     1
 90
        1
330
6A
  0
DICTIONARY
  5
2B3
102
{ACAD_REACTORS
330
C
102
}
330
C
100
AcDbDictionary
281
     1
  3
CANNOSCALE
350
2B4
  3
CMLEADERSTYLE
350
2F5
  3
CTABLESTYLE
350
2F4
  3
CVIEWDETAILSTYLE
350
360
  3
CVIEWSECTIONSTYLE
350
361
  3
MSLTSCALE
350
2B5
  3
XCLIPFRAME
350
362
  0
XRECORD
  5
349
102
{ACAD_REACTORS
330
348
102
}
330
348
100
AcDbXrecord
280
     1
290
     1
  0
XRECORD
  5
34B
102
{ACAD_REACTORS
330
34A
102
}
330
34A
100
AcDbXrecord
280
     1
290
     1
  0
XRECORD
  5
34D
102
{ACAD_REACTORS
330
34C
102
}
330
34C
100
AcDbXrecord
280
     1
290
     1
  0
XRECORD
  5
34F
102
{ACAD_REACTORS
330
34E
102
}
330
34E
100
AcDbXrecord
280
     1
290
     1
  0
XRECORD
  5
351
102
{ACAD_REACTORS
330
350
102
}
330
350
100
AcDbXrecord
280
     1
290
     1
  0
XRECORD
  5
353
102
{ACAD_REACTORS
330
352
102
}
330
352
100
AcDbXrecord
280
     1
290
     1
  0
XRECORD
  5
355
102
{ACAD_REACTORS
330
354
102
}
330
354
100
AcDbXrecord
280
     1
290
     1
  0
XRECORD
  5
357
102
{ACAD_REACTORS
330
356
102
}
330
356
100
AcDbXrecord
280
     1
290
     1
  0
XRECORD
  5
359
102
{ACAD_REACTORS
330
358
102
}
330
358
100
AcDbXrecord
280
     1
290
     1
  0
XRECORD
  5
35B
102
{ACAD_REACTORS
330
35A
102
}
330
35A
100
AcDbXrecord
280
     1
290
     1
  0
XRECORD
  5
35D
102
{ACAD_REACTORS
330
35C
102
}
330
35C
100
AcDbXrecord
280
     1
290
     1
  0
XRECORD
  5
35F
102
{ACAD_REACTORS
330
35E
102
}
330
35E
100
AcDbXrecord
280
     1
290
     1
  0
SORTENTSTABLE
  5
301
102
{ACAD_REACTORS
330
300
102
}
330
300
100
AcDbSortentsTable
330
1F
331
302
  5
255
331
303
  5
26E
331
304
  5
302
331
305
  5
303
331
306
  5
304
331
307
  5
305
331
308
  5
306
331
309
  5
307
331
30A
  5
308
331
30B
  5
309
331
30C
  5
30A
331
30D
  5
30B
331
30E
  5
30C
331
30F
  5
30D
331
310
  5
30E
331
311
  5
30F
331
312
  5
310
331
313
  5
311
331
314
  5
312
331
315
  5
313
331
316
  5
314
331
317
  5
315
331
318
  5
316
331
319
  5
327
331
31A
  5
328
331
31B
  5
329
331
31C
  5
32A
331
31D
  5
32B
331
31E
  5
32C
331
31F
  5
319
331
320
  5
31A
331
321
  5
31B
331
322
  5
31C
331
323
  5
31D
331
324
  5
31E
331
325
  5
31F
331
326
  5
320
331
327
  5
321
331
328
  5
322
331
329
  5
323
331
32A
  5
324
331
32B
  5
325
331
32C
  5
326
331
330
  5
334
331
331
  5
335
331
332
  5
336
331
333
  5
337
331
334
  5
338
331
335
  5
339
331
336
  5
330
331
337
  5
331
331
338
  5
332
331
339
  5
333
  0
ACDBDETAILVIEWSTYLE
  5
2FC
102
{ACAD_XDICTIONARY
360
399
102
}
102
{ACAD_REACTORS
330
2F6
102
}
330
2F6
100
AcDbModelDocViewStyle
 70
     0
  3
Metric50
290
     0
100
AcDbDetailViewStyle
 70
     0
 71
     0
 90
        3
 71
     1
340
11
 62
   256
 40
5.0
340
0
 62
   256
 40
5.0
300

 40
0.0
280
     1
 71
     2
340
16
 90
       25
 62
   256
 71
     3
340
11
 62
   256
 40
5.0
 90
        0
 40
15.0
 90
        1
300
%<\AcVar ViewDetailId>% (%<\AcVar ViewScale \f "%sn">%)
 71
     4
340
16
 90
       25
 62
   256
340
16
 90
       25
 62
   256
280
     0
  0
GROUP
  5
347
102
{ACAD_REACTORS
330
D
102
}
330
D
100
AcDbGroup
300

 70
     0
 71
     1
340
73
  0
LAYOUT
  5
1E
102
{ACAD_REACTORS
330
1A
102
}
330
1A
100
AcDbPlotSettings
  1

  2
none_device
  4

  6

 40
0.0
 41
0.0
 42
0.0
 43
0.0
 44
0.0
 45
0.0
 46
0.0
 47
0.0
 48
0.0
 49
0.0
140
0.0
141
0.0
142
1.0
143
1.0
 70
   688
 72
     0
 73
     0
 74
     5
  7

 75
    16
147
1.0
 76
     0
 77
     2
 78
   300
148
0.0
149
0.0
100
AcDbLayout
  1
Layout1
 70
     1
 71
     1
 10
-0.5
 20
-0.5
 11
5.0
 21
5.0
 12
0.0
 22
0.0
 32
0.0
 14
-0.5
 24
-0.5
 34
-0.5
 15
5.0
 25
5.0
 35
5.0
146
0.0
 13
0.0
 23
0.0
 33
0.0
 16
1.0
 26
0.0
 36
0.0
 17
0.0
 27
1.0
 37
0.0
 76
     0
330
1B
  0
LAYOUT
  5
26
102
{ACAD_REACTORS
330
1A
102
}
330
1A
100
AcDbPlotSettings
  1

  2
none_device
  4

  6

 40
0.0
 41
0.0
 42
0.0
 43
0.0
 44
0.0
 45
0.0
 46
0.0
 47
0.0
 48
0.0
 49
0.0
140
0.0
141
0.0
142
1.0
143
1.0
 70
   688
 72
     0
 73
     0
 74
     5
  7

 75
    16
147
1.0
 76
     0
 77
     2
 78
   300
148
0.0
149
0.0
100
AcDbLayout
  1
Layout2
 70
     1
 71
     2
 10
0.0
 20
0.0
 11
0.0
 21
0.0
 12
0.0
 22
0.0
 32
0.0
 14
0.0
 24
0.0
 34
0.0
 15
0.0
 25
0.0
 35
0.0
146
0.0
 13
0.0
 23
0.0
 33
0.0
 16
1.0
 26
0.0
 36
0.0
 17
0.0
 27
1.0
 37
0.0
 76
     0
330
23
  0
LAYOUT
  5
22
102
{ACAD_REACTORS
330
1A
102
}
330
1A
100
AcDbPlotSettings
  1

  2
none_device
  4
Letter_(8.50_x_11.00_Inches)
  6

 40
6.349999999999999
 41
6.349999999999999
 42
6.350005
 43
6.350005
 44
215.9
 45
279.4
 46
0.0
 47
0.0
 48
0.0
 49
0.0
140
0.0
141
0.0
142
1.0
143
1.0
 70
  1712
 72
     0
 73
     0
 74
     0
  7

 75
     0
147
1.0
 76
     0
 77
     2
 78
   300
148
0.0
149
0.0
100
AcDbLayout
  1
Model
 70
     1
 71
     0
 10
-0.5
 20
-0.5
 11
5.0
 21
5.0
 12
0.0
 22
0.0
 32
0.0
 14
-0.5
 24
-0.5
 34
-0.5
 15
5.0
 25
5.0
 35
5.0
146
0.0
 13
0.0
 23
0.0
 33
0.0
 16
1.0
 26
0.0
 36
0.0
 17
0.0
 27
1.0
 37
0.0
 76
     0
330
1F
331
29
  0
MATERIAL
  5
45
102
{ACAD_XDICTIONARY
360
2E9
102
}
102
{ACAD_REACTORS
330
43
102
}
330
43
100
AcDbMaterial
  1
ByBlock
  0
MATERIAL
  5
44
102
{ACAD_XDICTIONARY
360
2E7
102
}
102
{ACAD_REACTORS
330
43
102
}
330
43
100
AcDbMaterial
  1
ByLayer
  0
MATERIAL
  5
46
102
{ACAD_XDICTIONARY
360
2EB
102
}
102
{ACAD_REACTORS
330
43
102
}
330
43
100
AcDbMaterial
  1
Global
  0
MLEADERSTYLE
  5
6C
102
{ACAD_REACTORS
330
6B
102
}
330
6B
100
AcDbMLeaderStyle
170
     2
171
     1
172
     0
 90
        2
 40
0.0
 41
0.0
173
     1
 91
-1056964608
340
14
 92
       -2
290
     1
 42
0.09
291
     1
 43
0.36
  3
Standard
 44
0.18
300

342
11
174
     1
178
     6
175
     1
176
     0
 93
-1056964608
 45
0.18
292
     0
297
     0
 46
0.18
 94
-1056964608
 47
1.0
 49
1.0
140
1.0
293
     1
141
0.0
294
     1
177
     0
142
1.0
295
     0
296
     0
143
0.125
1001
ACAD_MLEADERVER
1070
     2
  0
MLINESTYLE
  5
18
102
{ACAD_REACTORS
330
17
102
}
330
17
100
AcDbMlineStyle
  2
STANDARD
 70
     0
  3

 62
   256
 51
90.0
 52
90.0
 71
     2
 49
0.5
 62
   256
  6
BYLAYER
 49
-0.5
 62
   256
  6
BYLAYER
  0
ACDBPLACEHOLDER
  5
F
102
{ACAD_REACTORS
330
E
102
}
330
E
  0
SCALE
  5
48
102
{ACAD_REACTORS
330
47
102
}
330
47
100
AcDbScale
 70
     0
300
1:1
140
1.0
141
1.0
290
     1
  0
SCALE
  5
49
102
{ACAD_REACTORS
330
47
102
}
330
47
100
AcDbScale
 70
     0
300
1:2
140
1.0
141
2.0
290
     0
  0
SCALE
  5
4A
102
{ACAD_REACTORS
330
47
102
}
330
47
100
AcDbScale
 70
     0
300
1:4
140
1.0
141
4.0
290
     0
  0
SCALE
  5
4B
102
{ACAD_REACTORS
330
47
102
}
330
47
100
AcDbScale
 70
     0
300
1:5
140
1.0
141
5.0
290
     0
  0
SCALE
  5
4C
102
{ACAD_REACTORS
330
47
102
}
330
47
100
AcDbScale
 70
     0
300
1:8
140
1.0
141
8.0
290
     0
  0
SCALE
  5
4D
102
{ACAD_REACTORS
330
47
102
}
330
47
100
AcDbScale
 70
     0
300
1:10
140
1.0
141
10.0
290
     0
  0
SCALE
  5
4E
102
{ACAD_REACTORS
330
47
102
}
330
47
100
AcDbScale
 70
     0
300
1:16
140
1.0
141
16.0
290
     0
  0
SCALE
  5
4F
102
{ACAD_REACTORS
330
47
102
}
330
47
100
AcDbScale
 70
     0
300
1:20
140
1.0
141
20.0
290
     0
  0
SCALE
  5
50
102
{ACAD_REACTORS
330
47
102
}
330
47
100
AcDbScale
 70
     0
300
1:30
140
1.0
141
30.0
290
     0
  0
SCALE
  5
51
102
{ACAD_REACTORS
330
47
102
}
330
47
100
AcDbScale
 70
     0
300
1:40
140
1.0
141
40.0
290
     0
  0
SCALE
  5
52
102
{ACAD_REACTORS
330
47
102
}
330
47
100
AcDbScale
 70
     0
300
1:50
140
1.0
141
50.0
290
     0
  0
SCALE
  5
53
102
{ACAD_REACTORS
330
47
102
}
330
47
100
AcDbScale
 70
     0
300
1:100
140
1.0
141
100.0
290
     0
  0
SCALE
  5
54
102
{ACAD_REACTORS
330
47
102
}
330
47
100
AcDbScale
 70
     0
300
2:1
140
2.0
141
1.0
290
     0
  0
SCALE
  5
55
102
{ACAD_REACTORS
330
47
102
}
330
47
100
AcDbScale
 70
     0
300
4:1
140
4.0
141
1.0
290
     0
  0
SCALE
  5
56
102
{ACAD_REACTORS
330
47
102
}
330
47
100
AcDbScale
 70
     0
300
8:1
140
8.0
141
1.0
290
     0
  0
SCALE
  5
57
102
{ACAD_REACTORS
330
47
102
}
330
47
100
AcDbScale
 70
     0
300
10:1
140
10.0
141
1.0
290
     0
  0
SCALE
  5
58
102
{ACAD_REACTORS
330
47
102
}
330
47
100
AcDbScale
 70
     0
300
100:1
140
100.0
141
1.0
290
     0
  0
SCALE
  5
59
102
{ACAD_REACTORS
330
47
102
}
330
47
100
AcDbScale
 70
     0
300
1/128" = 1'-0"
140
0.007812
141
12.0
290
     0
  0
SCALE
  5
5A
102
{ACAD_REACTORS
330
47
102
}
330
47
100
AcDbScale
 70
     0
300
1/64" = 1'-0"
140
0.015625
141
12.0
290
     0
  0
SCALE
  5
5B
102
{ACAD_REACTORS
330
47
102
}
330
47
100
AcDbScale
 70
     0
300
1/32" = 1'-0"
140
0.03125
141
12.0
290
     0
  0
SCALE
  5
5C
102
{ACAD_REACTORS
330
47
102
}
330
47
100
AcDbScale
 70
     0
300
1/16" = 1'-0"
140
0.0625
141
12.0
290
     0
  0
SCALE
  5
5D
102
{ACAD_REACTORS
330
47
102
}
330
47
100
AcDbScale
 70
     0
300
3/32" = 1'-0"
140
0.09375
141
12.0
290
     0
  0
SCALE
  5
5E
102
{ACAD_REACTORS
330
47
102
}
330
47
100
AcDbScale
 70
     0
300
1/8" = 1'-0"
140
0.125
141
12.0
290
     0
  0
SCALE
  5
5F
102
{ACAD_REACTORS
330
47
102
}
330
47
100
AcDbScale
 70
     0
300
3/16" = 1'-0"
140
0.1875
141
12.0
290
     0
  0
SCALE
  5
60
102
{ACAD_REACTORS
330
47
102
}
330
47
100
AcDbScale
 70
     0
300
1/4" = 1'-0"
140
0.25
141
12.0
290
     0
  0
SCALE
  5
61
102
{ACAD_REACTORS
330
47
102
}
330
47
100
AcDbScale
 70
     0
300
3/8" = 1'-0"
140
0.375
141
12.0
290
     0
  0
SCALE
  5
62
102
{ACAD_REACTORS
330
47
102
}
330
47
100
AcDbScale
 70
     0
300
1/2" = 1'-0"
140
0.5
141
12.0
290
     0
  0
SCALE
  5
63
102
{ACAD_REACTORS
330
47
102
}
330
47
100
AcDbScale
 70
     0
300
3/4" = 1'-0"
140
0.75
141
12.0
290
     0
  0
SCALE
  5
64
102
{ACAD_REACTORS
330
47
102
}
330
47
100
AcDbScale
 70
     0
300
1" = 1'-0"
140
1.0
141
12.0
290
     0
  0
SCALE
  5
65
102
{ACAD_REACTORS
330
47
102
}
330
47
100
AcDbScale
 70
     0
300
1-1/2" = 1'-0"
140
1.5
141
12.0
290
     0
  0
SCALE
  5
66
102
{ACAD_REACTORS
330
47
102
}
330
47
100
AcDbScale
 70
     0
300
3" = 1'-0"
140
3.0
141
12.0
290
     0
  0
SCALE
  5
67
102
{ACAD_REACTORS
330
47
102
}
330
47
100
AcDbScale
 70
     0
300
6" = 1'-0"
140
6.0
141
12.0
290
     0
  0
SCALE
  5
68
102
{ACAD_REACTORS
330
47
102
}
330
47
100
AcDbScale
 70
     0
300
1'-0" = 1'-0"
140
12.0
141
12.0
290
     0
  0
ACDBSECTIONVIEWSTYLE
  5
2FB
102
{ACAD_XDICTIONARY
360
397
102
}
102
{ACAD_REACTORS
330
2F7
102
}
330
2F7
100
AcDbModelDocViewStyle
 70
     0
  3
Metric50
290
     0
100
AcDbSectionViewStyle
 70
     0
 71
     0
 90
      102
 71
     1
340
11
 62
   256
 40
5.0
340
0
340
0
 62
   256
 40
5.0
300
I, O, Q, S, X, Z
 40
10.0
 90
        0
 40
2.5
 90
        0
 71
     2
340
16
 90
       25
 62
   256
340
16
 90
       50
 62
   256
 40
5.0
 40
2.5
 40
5.0
 71
     3
340
11
 62
   256
 40
5.0
 90
        0
 40
15.0
 90
        1
300
%<\AcVar ViewSectionStartId>%-%<\AcVar ViewSectionEndId>% (%<\AcVar ViewScale \f "%sn">%)
 71
     4
 62
   256
 62
   257
300
ANSI31
 40
1.0
 90
        0
290
     0
290
     0
 90
        6
 40
0.0
 40
1.570796326794896
 40
0.2617993877991494
 40
1.308996938995747
 40
-0.2617993877991494
 40
1.832595714594046
  0
TABLESTYLE
  5
6A
102
{ACAD_XDICTIONARY
360
2ED
102
}
102
{ACAD_REACTORS
330
69
102
}
330
69
100
AcDbTableStyle
  3
Standard
 70
     0
 71
     0
 40
0.06
 41
0.06
280
     0
281
     0
  7
Standard
140
0.18
170
     2
 62
     0
 63
     7
283
     0
274
    -2
284
     1
 64
     0
275
    -2
285
     1
 65
     0
276
    -2
286
     1
 66
     0
277
    -2
287
     1
 67
     0
278
    -2
288
     1
 68
     0
279
    -2
289
     1
 69
     0
  7
Standard
140
0.25
170
     5
 62
     0
 63
     7
283
     0
274
    -2
284
     1
 64
     0
275
    -2
285
     1
 65
     0
276
    -2
286
     1
 66
     0
277
    -2
287
     1
 67
     0
278
    -2
288
     1
 68
     0
279
    -2
289
     1
 69
     0
  7
Standard
140
0.18
170
     5
 62
     0
 63
     7
283
     0
274
    -2
284
     1
 64
     0
275
    -2
285
     1
 65
     0
276
    -2
286
     1
 66
     0
277
    -2
287
     1
 67
     0
278
    -2
288
     1
 68
     0
279
    -2
289
     1
 69
     0
  0
VISUALSTYLE
  5
2F
102
{ACAD_XDICTIONARY
360
36E
102
}
102
{ACAD_REACTORS
330
2A
102
}
330
2A
100
AcDbVisualStyle
  2

 70
     4
 71
     0
 72
     2
 73
     0
 90
        0
 40
-0.6
 41
-30.0
 62
     5
 63
     7
421
 16777215
 74
     1
 91
        4
 64
     7
 65
   257
 75
     1
175
     1
 42
1.0
 92
        0
 66
   257
 43
1.0
 76
     1
 77
     6
 78
     2
 67
     7
 79
     5
170
     0
171
     0
290
     0
174
     0
 93
        1
 44
0.0
173
     0
291
     0
 45
0.0
1001
ACAD
1000
AcDbSavedByObjectVersion
1070
     0
  0
VISUALSTYLE
  5
32
102
{ACAD_XDICTIONARY
360
374
102
}
102
{ACAD_REACTORS
330
2A
102
}
330
2A
100
AcDbVisualStyle
  2

 70
     7
 71
     1
 72
     0
 73
     1
 90
        0
 40
-0.6
 41
-30.0
 62
     5
 63
     7
421
 16777215
 74
     0
 91
        4
 64
     7
 65
   257
 75
     1
175
     1
 42
1.0
 92
        8
 66
     7
 43
1.0
 76
     1
 77
     6
 78
     2
 67
     7
 79
     5
170
     0
171
     0
290
     0
174
     0
 93
        1
 44
0.0
173
     0
291
     1
 45
0.0
1001
ACAD
1000
AcDbSavedByObjectVersion
1070
     0
  0
VISUALSTYLE
  5
36
102
{ACAD_XDICTIONARY
360
37C
102
}
102
{ACAD_REACTORS
330
2A
102
}
330
2A
100
AcDbVisualStyle
  2

 70
    12
 71
     2
 72
     2
 73
     0
 90
        0
 40
-0.6
 41
-30.0
 62
     5
 63
     7
421
 16777215
 74
     1
 91
        4
 64
     7
 65
   257
 75
     1
175
     1
 42
1.0
 92
        8
 66
     7
 43
1.0
 76
     1
 77
     6
 78
     2
 67
     7
 79
     5
170
     0
171
     0
290
     0
174
     0
 93
        1
 44
50.0
173
     0
291
     1
 45
0.0
1001
ACAD
1000
AcDbSavedByObjectVersion
1070
     0
  0
VISUALSTYLE
  5
3A
102
{ACAD_XDICTIONARY
360
384
102
}
102
{ACAD_REACTORS
330
2A
102
}
330
2A
100
AcDbVisualStyle
  2

 70
    16
 71
     2
 72
     2
 73
     3
 90
        0
 40
-0.6
 41
-30.0
 62
     5
 63
     8
421
  8421504
 74
     1
 91
        4
 64
     7
 65
   257
 75
     1
175
     1
 42
1.0
 92
        8
 66
     8
424
  8421504
 43
1.0
 76
     1
 77
     6
 78
     2
 67
     7
 79
     5
170
     0
171
     0
290
     0
174
     0
 93
        1
 44
0.0
173
     0
291
     1
 45
0.0
1001
ACAD
1000
AcDbSavedByObjectVersion
1070
     0
  0
VISUALSTYLE
  5
34
102
{ACAD_XDICTIONARY
360
378
102
}
102
{ACAD_REACTORS
330
2A
102
}
330
2A
100
AcDbVisualStyle
  2

 70
     9
 71
     3
 72
     2
 73
     0
 90
        0
 40
-0.6
 41
-30.0
 62
     5
 63
     7
421
 16777215
 74
     2
 91
        2
 64
     7
 65
   257
 75
     1
175
     1
 42
179.0
 92
        8
 66
     7
 43
1.0
 76
     1
 77
     6
 78
     2
 67
     7
 79
     3
170
     0
171
     0
290
     0
174
     0
 93
        1
 44
0.0
173
     0
291
     0
 45
0.0
1001
ACAD
1000
AcDbSavedByObjectVersion
1070
     0
  0
VISUALSTYLE
  5
35
102
{ACAD_XDICTIONARY
360
37A
102
}
102
{ACAD_REACTORS
330
2A
102
}
330
2A
100
AcDbVisualStyle
  2

 70
    11
 71
     2
 72
     2
 73
     0
 90
        0
 40
-0.6
 41
-30.0
 62
     5
 63
     7
421
 16777215
 74
     1
 91
        4
 64
     7
 65
   257
 75
     1
175
     1
 42
1.0
 92
        8
 66
     7
 43
1.0
 76
     1
 77
     6
 78
     2
 67
     7
 79
     5
170
     0
171
     0
290
     0
174
     0
 93
        1
 44
-50.0
173
     0
291
     1
 45
0.0
1001
ACAD
1000
AcDbSavedByObjectVersion
1070
     0
  0
VISUALSTYLE
  5
3D
102
{ACAD_XDICTIONARY
360
38A
102
}
102
{ACAD_REACTORS
330
2A
102
}
330
2A
100
AcDbVisualStyle
  2

 70
    22
 71
     2
 72
     2
 73
     0
 90
        0
 40
-0.6
 41
-30.0
 62
     5
 63
     7
421
 16777215
 74
     1
 91
        4
 64
     7
 65
   257
 75
     1
175
     1
 42
1.0
 92
        8
 66
     7
 43
1.0
 76
     1
 77
     6
 78
     2
 67
     7
 79
     5
170
     0
171
     0
290
     0
174
     0
 93
        1
 44
0.0
173
     0
291
     1
 45
0.0
1001
ACAD
1000
AcDbSavedByObjectVersion
1070
     0
  0
VISUALSTYLE
  5
39
102
{ACAD_XDICTIONARY
360
382
102
}
102
{ACAD_REACTORS
330
2A
102
}
330
2A
100
AcDbVisualStyle
  2

 70
    15
 71
     2
 72
     2
 73
     0
 90
        0
 40
-0.6
 41
-30.0
 62
     5
 63
     7
421
 16777215
 74
     1
 91
        4
 64
     7
 65
   257
 75
     1
175
     1
 42
1.0
 92
        8
 66
     7
 43
1.0
 76
     1
 77
     6
 78
     2
 67
     7
 79
     5
170
     0
171
     0
290
     0
174
     0
 93
        1
 44
0.0
173
     0
291
     1
 45
0.0
1001
ACAD
1000
AcDbSavedByObjectVersion
1070
     0
  0
VISUALSTYLE
  5
2B
102
{ACAD_XDICTIONARY
360
366
102
}
102
{ACAD_REACTORS
330
2A
102
}
330
2A
100
AcDbVisualStyle
  2

 70
     0
 71
     2
 72
     1
 73
     1
 90
        2
 40
-0.6
 41
30.0
 62
     5
 63
     7
421
 16777215
 74
     0
 91
        0
 64
     7
 65
   257
 75
     1
175
     1
 42
1.0
 92
        8
 66
     7
 43
1.0
 76
     1
 77
     6
 78
     2
 67
     7
 79
     5
170
     0
171
     0
290
     0
174
     0
 93
       13
 44
0.0
173
     0
291
     1
 45
0.0
1001
ACAD
1000
AcDbSavedByObjectVersion
1070
     0
  0
VISUALSTYLE
  5
2C
102
{ACAD_XDICTIONARY
360
368
102
}
102
{ACAD_REACTORS
330
2A
102
}
330
2A
100
AcDbVisualStyle
  2

 70
     1
 71
     2
 72
     1
 73
     1
 90
        2
 40
-0.6
 41
30.0
 62
     5
 63
     7
421
 16777215
 74
     1
 91
        0
 64
     7
 65
   257
 75
     1
175
     1
 42
1.0
 92
        0
 66
   257
 43
1.0
 76
     1
 77
     6
 78
     2
 67
     7
 79
     5
170
     0
171
     0
290
     0
174
     0
 93
       13
 44
0.0
173
     0
291
     1
 45
0.0
1001
ACAD
1000
AcDbSavedByObjectVersion
1070
     0
  0
VISUALSTYLE
  5
2D
102
{ACAD_XDICTIONARY
360
36A
102
}
102
{ACAD_REACTORS
330
2A
102
}
330
2A
100
AcDbVisualStyle
  2

 70
     2
 71
     2
 72
     2
 73
     1
 90
        2
 40
-0.6
 41
30.0
 62
     5
 63
     7
421
 16777215
 74
     0
 91
        0
 64
     7
 65
   257
 75
     1
175
     1
 42
1.0
 92
        0
 66
     7
 43
1.0
 76
     1
 77
     6
 78
     2
 67
     7
 79
     5
170
     0
171
     0
290
     0
174
     0
 93
       13
 44
0.0
173
     0
291
     1
 45
0.0
1001
ACAD
1000
AcDbSavedByObjectVersion
1070
     0
  0
VISUALSTYLE
  5
2E
102
{ACAD_XDICTIONARY
360
36C
102
}
102
{ACAD_REACTORS
330
2A
102
}
330
2A
100
AcDbVisualStyle
  2

 70
     3
 71
     2
 72
     2
 73
     1
 90
        2
 40
-0.6
 41
30.0
 62
     5
 63
     7
421
 16777215
 74
     1
 91
        0
 64
     7
 65
   257
 75
     1
175
     1
 42
1.0
 92
        0
 66
   257
 43
1.0
 76
     1
 77
     6
 78
     2
 67
     7
 79
     5
170
     0
171
     0
290
     0
174
     0
 93
       13
 44
0.0
173
     0
291
     1
 45
0.0
1001
ACAD
1000
AcDbSavedByObjectVersion
1070
     0
  0
VISUALSTYLE
  5
31
102
{ACAD_XDICTIONARY
360
372
102
}
102
{ACAD_REACTORS
330
2A
102
}
330
2A
100
AcDbVisualStyle
  2

 70
     6
 71
     1
 72
     2
 73
     2
 90
        0
 40
-0.6
 41
-30.0
 62
     5
 63
     7
421
 16777215
 74
     2
 91
        2
 64
     7
 65
   257
 75
     2
175
     1
 42
40.0
 92
        0
 66
   257
 43
1.0
 76
     1
 77
     6
 78
     2
 67
     7
 79
     3
170
     0
171
     0
290
     0
174
     0
 93
        1
 44
0.0
173
     0
291
     0
 45
0.0
1001
ACAD
1000
AcDbSavedByObjectVersion
1070
     0
  0
VISUALSTYLE
  5
3B
102
{ACAD_XDICTIONARY
360
386
102
}
102
{ACAD_REACTORS
330
2A
102
}
330
2A
100
AcDbVisualStyle
  2

 70
    20
 71
     2
 72
     2
 73
     0
 90
        0
 40
-0.6
 41
-30.0
 62
     5
 63
     7
421
 16777215
 74
     1
 91
        4
 64
     7
 65
   257
 75
     1
175
     1
 42
1.0
 92
       10
 66
     7
 43
1.0
 76
     1
 77
     6
 78
     2
 67
     7
 79
     5
170
     0
171
     0
290
     0
174
     0
 93
        1
 44
0.0
173
     0
291
     1
 45
0.0
1001
ACAD
1000
AcDbSavedByObjectVersion
1070
     0
  0
VISUALSTYLE
  5
38
102
{ACAD_XDICTIONARY
360
380
102
}
102
{ACAD_REACTORS
330
2A
102
}
330
2A
100
AcDbVisualStyle
  2

 70
    14
 71
     2
 72
     2
 73
     0
 90
        0
 40
-0.6
 41
-30.0
 62
     5
 63
     7
421
 16777215
 74
     1
 91
        4
 64
     7
 65
   257
 75
     7
175
     7
 42
1.0
 92
        8
 66
     7
 43
1.0
 76
     1
 77
     6
 78
     2
 67
     7
 79
     5
170
     0
171
     0
290
     0
174
     0
 93
        1
 44
0.0
173
     0
291
     1
 45
0.0
1001
ACAD
1000
AcDbSavedByObjectVersion
1070
     0
  0
VISUALSTYLE
  5
3C
102
{ACAD_XDICTIONARY
360
388
102
}
102
{ACAD_REACTORS
330
2A
102
}
330
2A
100
AcDbVisualStyle
  2

 70
    21
 71
     2
 72
     2
 73
     0
 90
        0
 40
-0.6
 41
-30.0
 62
     5
 63
     7
421
 16777215
 74
     1
 91
        4
 64
     7
 65
   257
 75
     1
175
     1
 42
1.0
 92
        9
 66
     7
 43
1.0
 76
     1
 77
     6
 78
     2
 67
     7
 79
     5
170
     0
171
     0
290
     0
174
     0
 93
        1
 44
0.0
173
     0
291
     1
 45
0.0
1001
ACAD
1000
AcDbSavedByObjectVersion
1070
     0
  0
VISUALSTYLE
  5
33
102
{ACAD_XDICTIONARY
360
376
102
}
102
{ACAD_REACTORS
330
2A
102
}
330
2A
100
AcDbVisualStyle
  2

 70
     8
 71
     2
 72
     3
 73
     0
 90
        2
 40
-0.6
 41
30.0
 62
     5
 63
     7
421
 16777215
 74
     0
 91
        0
 64
     7
 65
   257
 75
     1
175
     1
 42
1.0
 92
        8
 66
   257
 43
1.0
 76
     1
 77
     6
 78
     2
 67
     7
 79
     3
170
     0
171
     0
290
     0
174
     0
 93
       13
 44
0.0
173
     0
291
     0
 45
0.0
1001
ACAD
1000
AcDbSavedByObjectVersion
1070
     0
  0
VISUALSTYLE
  5
42
102
{ACAD_XDICTIONARY
360
394
102
}
102
{ACAD_REACTORS
330
2A
102
}
330
2A
100
AcDbVisualStyle
  2

 70
    27
 71
     2
 72
     2
 73
     1
 90
        2
 40
-0.6
 41
30.0
 62
     5
 63
     7
421
 16777215
 74
     0
 91
        4
 64
     7
 65
   257
 75
     1
175
     1
 42
1.0
 92
        8
 66
   257
 43
1.0
 76
     1
 77
     6
 78
     2
 67
     8
425
  7895160
 79
     3
170
     0
171
     0
290
     0
174
     0
 93
        5
 44
0.0
173
     0
291
     0
 45
0.0
1001
ACAD
1000
AcDbSavedByObjectVersion
1070
     0
  0
VISUALSTYLE
  5
41
102
{ACAD_XDICTIONARY
360
392
102
}
102
{ACAD_REACTORS
330
2A
102
}
330
2A
100
AcDbVisualStyle
  2

 70
    26
 71
     2
 72
     2
 73
     1
 90
        2
 40
-0.6
 41
30.0
 62
     5
 63
     7
421
 16777215
 74
     1
 91
       10
 64
     7
 65
   257
 75
     2
175
     1
 42
1.0
 92
        8
 66
   257
 43
1.0
 76
     1
 77
     6
 78
     2
 67
     7
 79
     3
170
     0
171
     0
290
     0
174
     0
 93
        5
 44
0.0
173
     0
291
     0
 45
0.0
1001
ACAD
1000
AcDbSavedByObjectVersion
1070
     0
  0
VISUALSTYLE
  5
3E
102
{ACAD_XDICTIONARY
360
38C
102
}
102
{ACAD_REACTORS
330
2A
102
}
330
2A
100
AcDbVisualStyle
  2

 70
    23
 71
     2
 72
     2
 73
     3
 90
        0
 40
-0.6
 41
-30.0
 62
     5
 63
     7
421
 16777215
 74
     2
 91
        2
 64
     7
 65
     7
 75
     1
175
     1
 42
40.0
 92
        8
 66
     7
 43
1.0
 76
     1
 77
     6
 78
     2
 67
     7
 79
     3
170
     0
171
     0
290
     0
174
     0
 93
        1
 44
0.0
173
     0
291
     0
 45
0.0
1001
ACAD
1000
AcDbSavedByObjectVersion
1070
     0
  0
VISUALSTYLE
  5
3F
102
{ACAD_XDICTIONARY
360
38E
102
}
102
{ACAD_REACTORS
330
2A
102
}
330
2A
100
AcDbVisualStyle
  2

 70
    24
 71
     1
 72
     2
 73
     2
 90
        0
 40
-0.6
 41
-30.0
 62
     5
 63
     7
421
 16777215
 74
     2
 91
        2
 64
     7
 65
     7
 75
     1
175
     1
 42
40.0
 92
       11
 66
     7
 43
1.0
 76
     1
 77
     6
 78
     2
 67
     7
 79
     6
170
     0
171
     0
290
     0
174
     0
 93
        1
 44
0.0
173
     0
291
     0
 45
0.0
1001
ACAD
1000
AcDbSavedByObjectVersion
1070
     0
  0
VISUALSTYLE
  5
37
102
{ACAD_XDICTIONARY
360
37E
102
}
102
{ACAD_REACTORS
330
2A
102
}
330
2A
100
AcDbVisualStyle
  2

 70
    13
 71
     2
 72
     2
 73
     0
 90
        0
 40
-0.6
 41
-30.0
 62
     5
 63
     7
421
 16777215
 74
     1
 91
        4
 64
     7
 65
   257
 75
     1
175
     1
 42
1.0
 92
       12
 66
     7
 43
1.0
 76
     1
 77
     6
 78
     2
 67
     7
 79
     5
170
     0
171
     0
290
     0
174
     0
 93
        1
 44
0.0
173
     0
291
     1
 45
0.0
1001
ACAD
1000
AcDbSavedByObjectVersion
1070
     0
  0
VISUALSTYLE
  5
30
102
{ACAD_XDICTIONARY
360
370
102
}
102
{ACAD_REACTORS
330
2A
102
}
330
2A
100
AcDbVisualStyle
  2

 70
     5
 71
     0
 72
     2
 73
     0
 90
        0
 40
-0.6
 41
-30.0
 62
     5
 63
     7
421
 16777215
 74
     1
 91
        4
 64
     7
 65
   257
 75
     1
175
     1
 42
1.0
 92
        0
 66
   257
 43
1.0
 76
     1
 77
     6
 78
     2
 67
     7
 79
     3
170
     0
171
     0
290
     0
174
     0
 93
        1
 44
0.0
173
     0
291
     0
 45
0.0
1001
ACAD
1000
AcDbSavedByObjectVersion
1070
     0
  0
VISUALSTYLE
  5
40
102
{ACAD_XDICTIONARY
360
390
102
}
102
{ACAD_REACTORS
330
2A
102
}
330
2A
100
AcDbVisualStyle
  2

 70
    25
 71
     2
 72
     2
 73
     1
 90
        1
 40
0.5
 41
-30.0
 62
     5
 63
     7
421
 16777215
 74
     1
 91
        0
 64
     7
 65
   257
 75
     1
175
     1
 42
1.0
 92
        8
 66
     7
 43
1.0
 76
     1
 77
     6
 78
     2
 67
     7
 79
     3
170
     0
171
     0
290
     0
174
     0
 93
       13
 44
0.0
173
     0
291
     0
 45
0.0
1001
ACAD
1000
AcDbSavedByObjectVersion
1070
     0
  0
DICTIONARYVAR
  5
2B4
102
{ACAD_REACTORS
330
2B3
102
}
330
2B3
100
DictionaryVariables
280
     0
  1
1:1
  0
DICTIONARYVAR
  5
2F5
102
{ACAD_REACTORS
330
2B3
102
}
330
2B3
100
DictionaryVariables
280
     0
  1
STANDARD
  0
DICTIONARYVAR
  5
2F4
102
{ACAD_REACTORS
330
2B3
102
}
330
2B3
100
DictionaryVariables
280
     0
  1
STANDARD
  0
DICTIONARYVAR
  5
360
102
{ACAD_REACTORS
330
2B3
102
}
330
2B3
100
DictionaryVariables
280
     0
  1
Metric50
  0
DICTIONARYVAR
  5
361
102
{ACAD_REACTORS
330
2B3
102
}
330
2B3
100
DictionaryVariables
280
     0
  1
Metric50
  0
DICTIONARYVAR
  5
2B5
102
{ACAD_REACTORS
330
2B3
102
}
330
2B3
100
DictionaryVariables
280
     0
  1
1
  0
DICTIONARYVAR
  5
362
102
{ACAD_REACTORS
330
2B3
102
}
330
2B3
100
DictionaryVariables
280
     0
  1
2
  0
DICTIONARY
  5
399
330
2FC
100
AcDbDictionary
280
     1
281
     1
  3
ACAD_XREC_ROUNDTRIP
360
39A
  0
DICTIONARY
  5
2E9
330
45
100
AcDbDictionary
280
     1
281
     1
  3
ACAD_XREC_ROUNDTRIP
360
2EA
  0
DICTIONARY
  5
2E7
330
44
100
AcDbDictionary
280
     1
281
     1
  3
ACAD_XREC_ROUNDTRIP
360
2E8
  0
DICTIONARY
  5
2EB
330
46
100
AcDbDictionary
280
     1
281
     1
  3
ACAD_XREC_ROUNDTRIP
360
2EC
  0
DICTIONARY
  5
397
330
2FB
100
AcDbDictionary
280
     1
281
     1
  3
ACAD_XREC_ROUNDTRIP
360
398
  0
DICTIONARY
  5
2ED
330
6A
100
AcDbDictionary
280
     1
281
     1
  3
ACAD_ROUNDTRIP_2008_TABLESTYLE_CELLSTYLEMAP
360
364
  3
ACAD_XREC_ROUNDTRIP
360
396
  0
DICTIONARY
  5
36E
330
2F
100
AcDbDictionary
280
     1
281
     1
  3
ACAD_XREC_ROUNDTRIP
360
36F
  0
DICTIONARY
  5
374
330
32
100
AcDbDictionary
280
     1
281
     1
  3
ACAD_XREC_ROUNDTRIP
360
375
  0
DICTIONARY
  5
37C
330
36
100
AcDbDictionary
280
     1
281
     1
  3
ACAD_XREC_ROUNDTRIP
360
37D
  0
DICTIONARY
  5
384
330
3A
100
AcDbDictionary
280
     1
281
     1
  3
ACAD_XREC_ROUNDTRIP
360
385
  0
DICTIONARY
  5
378
330
34
100
AcDbDictionary
280
     1
281
     1
  3
ACAD_XREC_ROUNDTRIP
360
379
  0
DICTIONARY
  5
37A
330
35
100
AcDbDictionary
280
     1
281
     1
  3
ACAD_XREC_ROUNDTRIP
360
37B
  0
DICTIONARY
  5
38A
330
3D
100
AcDbDictionary
280
     1
281
     1
  3
ACAD_XREC_ROUNDTRIP
360
38B
  0
DICTIONARY
  5
382
330
39
100
AcDbDictionary
280
     1
281
     1
  3
ACAD_XREC_ROUNDTRIP
360
383
  0
DICTIONARY
  5
366
330
2B
100
AcDbDictionary
280
     1
281
     1
  3
ACAD_XREC_ROUNDTRIP
360
367
  0
DICTIONARY
  5
368
330
2C
100
AcDbDictionary
280
     1
281
     1
  3
ACAD_XREC_ROUNDTRIP
360
369
  0
DICTIONARY
  5
36A
330
2D
100
AcDbDictionary
280
     1
281
     1
  3
ACAD_XREC_ROUNDTRIP
360
36B
  0
DICTIONARY
  5
36C
330
2E
100
AcDbDictionary
280
     1
281
     1
  3
ACAD_XREC_ROUNDTRIP
360
36D
  0
DICTIONARY
  5
372
330
31
100
AcDbDictionary
280
     1
281
     1
  3
ACAD_XREC_ROUNDTRIP
360
373
  0
DICTIONARY
  5
386
330
3B
100
AcDbDictionary
280
     1
281
     1
  3
ACAD_XREC_ROUNDTRIP
360
387
  0
DICTIONARY
  5
380
330
38
100
AcDbDictionary
280
     1
281
     1
  3
ACAD_XREC_ROUNDTRIP
360
381
  0
DICTIONARY
  5
388
330
3C
100
AcDbDictionary
280
     1
281
     1
  3
ACAD_XREC_ROUNDTRIP
360
389
  0
DICTIONARY
  5
376
330
33
100
AcDbDictionary
280
     1
281
     1
  3
ACAD_XREC_ROUNDTRIP
360
377
  0
DICTIONARY
  5
394
330
42
100
AcDbDictionary
280
     1
281
     1
  3
ACAD_XREC_ROUNDTRIP
360
395
  0
DICTIONARY
  5
392
330
41
100
AcDbDictionary
280
     1
281
     1
  3
ACAD_XREC_ROUNDTRIP
360
393
  0
DICTIONARY
  5
38C
330
3E
100
AcDbDictionary
280
     1
281
     1
  3
ACAD_XREC_ROUNDTRIP
360
38D
  0
DICTIONARY
  5
38E
330
3F
100
AcDbDictionary
280
     1
281
     1
  3
ACAD_XREC_ROUNDTRIP
360
38F
  0
DICTIONARY
  5
37E
330
37
100
AcDbDictionary
280
     1
281
     1
  3
ACAD_XREC_ROUNDTRIP
360
37F
  0
DICTIONARY
  5
370
330
30
100
AcDbDictionary
280
     1
281
     1
  3
ACAD_XREC_ROUNDTRIP
360
371
  0
DICTIONARY
  5
390
330
40
100
AcDbDictionary
280
     1
281
     1
  3
ACAD_XREC_ROUNDTRIP
360
391
  0
XRECORD
  5
39A
102
{ACAD_REACTORS
330
399
102
}
330
399
100
AcDbXrecord
280
     1
102
DISPLAYNAME
  1
Metric50
102
FLAGS
 90
        0
  0
XRECORD
  5
2EA
102
{ACAD_REACTORS
330
2E9
102
}
330
2E9
100
AcDbXrecord
280
     1
102
MATERIAL
148
0.0
149
0.0
149
0.0
 93
        0
 94
      127
282
     0
 72
     1
 77
     1
171
     1
175
     1
179
     1
273
     0
  0
XRECORD
  5
2E8
102
{ACAD_REACTORS
330
2E7
102
}
330
2E7
100
AcDbXrecord
280
     1
102
MATERIAL
148
0.0
149
0.0
149
0.0
 93
        0
 94
      127
282
     0
 72
     1
 77
     1
171
     1
175
     1
179
     1
273
     0
  0
XRECORD
  5
2EC
102
{ACAD_REACTORS
330
2EB
102
}
330
2EB
100
AcDbXrecord
280
     1
102
MATERIAL
148
0.0
149
0.0
149
0.0
 93
        0
 94
      127
282
     0
 72
     1
 77
     1
171
     1
175
     1
179
     1
273
     0
  0
XRECORD
  5
398
102
{ACAD_REACTORS
330
397
102
}
330
397
100
AcDbXrecord
280
     1
102
DISPLAYNAME
  1
Metric50
102
FLAGS
 90
        0
  0
CELLSTYLEMAP
  5
364
102
{ACAD_REACTORS
330
2ED
102
}
330
2ED
100
AcDbCellStyleMap
 90
        3
300
CELLSTYLE
  1
TABLEFORMAT_BEGIN
 90
        5
170
     1
 91
        0
 92
    32768
 62
   257
 93
        1
300
CONTENTFORMAT
  1
CONTENTFORMAT_BEGIN
 90
        0
 91
        0
 92
        4
 93
        0
300

 40
0.0
140
1.0
 94
        5
 62
     0
340
11
144
0.25
309
CONTENTFORMAT_END
171
     1
301
MARGIN
  1
CELLMARGIN_BEGIN
 40
0.06
 40
0.06
 40
0.06
 40
0.06
 40
0.18
 40
0.18
309
CELLMARGIN_END
 94
        6
 95
        1
302
GRIDFORMAT
  1
GRIDFORMAT_BEGIN
 90
        0
 91
        1
 62
     0
 92
       -2
340
14
 93
        0
 40
0.045
309
GRIDFORMAT_END
 95
        2
302
GRIDFORMAT
  1
GRIDFORMAT_BEGIN
 90
        0
 91
        1
 62
     0
 92
       -2
340
14
 93
        0
 40
0.045
309
GRIDFORMAT_END
 95
        4
302
GRIDFORMAT
  1
GRIDFORMAT_BEGIN
 90
        0
 91
        1
 62
     0
 92
       -2
340
14
 93
        0
 40
0.045
309
GRIDFORMAT_END
 95
        8
302
GRIDFORMAT
  1
GRIDFORMAT_BEGIN
 90
        0
 91
        1
 62
     0
 92
       -2
340
14
 93
        0
 40
0.045
309
GRIDFORMAT_END
 95
       16
302
GRIDFORMAT
  1
GRIDFORMAT_BEGIN
 90
        0
 91
        1
 62
     0
 92
       -2
340
14
 93
        0
 40
0.045
309
GRIDFORMAT_END
 95
       32
302
GRIDFORMAT
  1
GRIDFORMAT_BEGIN
 90
        0
 91
        1
 62
     0
 92
       -2
340
14
 93
        0
 40
0.045
309
GRIDFORMAT_END
309
TABLEFORMAT_END
  1
CELLSTYLE_BEGIN
 90
        1
 91
        1
300
_TITLE
309
CELLSTYLE_END
300
CELLSTYLE
  1
TABLEFORMAT_BEGIN
 90
        5
170
     1
 91
        0
 92
        0
 62
   257
 93
        1
300
CONTENTFORMAT
  1
CONTENTFORMAT_BEGIN
 90
        0
 91
        0
 92
        4
 93
        0
300

 40
0.0
140
1.0
 94
        5
 62
     0
340
11
144
0.18
309
CONTENTFORMAT_END
171
     1
301
MARGIN
  1
CELLMARGIN_BEGIN
 40
0.06
 40
0.06
 40
0.06
 40
0.06
 40
0.18
 40
0.18
309
CELLMARGIN_END
 94
        6
 95
        1
302
GRIDFORMAT
  1
GRIDFORMAT_BEGIN
 90
        0
 91
        1
 62
     0
 92
       -2
340
14
 93
        0
 40
0.045
309
GRIDFORMAT_END
 95
        2
302
GRIDFORMAT
  1
GRIDFORMAT_BEGIN
 90
        0
 91
        1
 62
     0
 92
       -2
340
14
 93
        0
 40
0.045
309
GRIDFORMAT_END
 95
        4
302
GRIDFORMAT
  1
GRIDFORMAT_BEGIN
 90
        0
 91
        1
 62
     0
 92
       -2
340
14
 93
        0
 40
0.045
309
GRIDFORMAT_END
 95
        8
302
GRIDFORMAT
  1
GRIDFORMAT_BEGIN
 90
        0
 91
        1
 62
     0
 92
       -2
340
14
 93
        0
 40
0.045
309
GRIDFORMAT_END
 95
       16
302
GRIDFORMAT
  1
GRIDFORMAT_BEGIN
 90
        0
 91
        1
 62
     0
 92
       -2
340
14
 93
        0
 40
0.045
309
GRIDFORMAT_END
 95
       32
302
GRIDFORMAT
  1
GRIDFORMAT_BEGIN
 90
        0
 91
        1
 62
     0
 92
       -2
340
14
 93
        0
 40
0.045
309
GRIDFORMAT_END
309
TABLEFORMAT_END
  1
CELLSTYLE_BEGIN
 90
        2
 91
        1
300
_HEADER
309
CELLSTYLE_END
300
CELLSTYLE
  1
TABLEFORMAT_BEGIN
 90
        5
170
     1
 91
        0
 92
        0
 62
   257
 93
        1
300
CONTENTFORMAT
  1
CONTENTFORMAT_BEGIN
 90
        0
 91
        0
 92
        4
 93
        0
300

 40
0.0
140
1.0
 94
        2
 62
     0
340
11
144
0.18
309
CONTENTFORMAT_END
171
     1
301
MARGIN
  1
CELLMARGIN_BEGIN
 40
0.06
 40
0.06
 40
0.06
 40
0.06
 40
0.18
 40
0.18
309
CELLMARGIN_END
 94
        6
 95
        1
302
GRIDFORMAT
  1
GRIDFORMAT_BEGIN
 90
        0
 91
        1
 62
     0
 92
       -2
340
14
 93
        0
 40
0.045
309
GRIDFORMAT_END
 95
        2
302
GRIDFORMAT
  1
GRIDFORMAT_BEGIN
 90
        0
 91
        1
 62
     0
 92
       -2
340
14
 93
        0
 40
0.045
309
GRIDFORMAT_END
 95
        4
302
GRIDFORMAT
  1
GRIDFORMAT_BEGIN
 90
        0
 91
        1
 62
     0
 92
       -2
340
14
 93
        0
 40
0.045
309
GRIDFORMAT_END
 95
        8
302
GRIDFORMAT
  1
GRIDFORMAT_BEGIN
 90
        0
 91
        1
 62
     0
 92
       -2
340
14
 93
        0
 40
0.045
309
GRIDFORMAT_END
 95
       16
302
GRIDFORMAT
  1
GRIDFORMAT_BEGIN
 90
        0
 91
        1
 62
     0
 92
       -2
340
14
 93
        0
 40
0.045
309
GRIDFORMAT_END
 95
       32
302
GRIDFORMAT
  1
GRIDFORMAT_BEGIN
 90
        0
 91
        1
 62
     0
 92
       -2
340
14
 93
        0
 40
0.045
309
GRIDFORMAT_END
309
TABLEFORMAT_END
  1
CELLSTYLE_BEGIN
 90
        3
 91
        2
300
_DATA
309
CELLSTYLE_END
  0
XRECORD
  5
396
102
{ACAD_REACTORS
330
2ED
102
}
330
2ED
100
AcDbXrecord
280
     1
102
ACAD_ROUNDTRIP_PRE2007_TABLESTYLE
 90
        4
 91
        0
  1

 92
        4
 93
        0
  2

 94
        4
 95
        0
  3

  0
XRECORD
  5
36F
102
{ACAD_REACTORS
330
36E
102
}
330
36E
100
AcDbXrecord
280
     1
102
RTVSPost2010Prop28
280
     1
102
RTVSPost2010PropOp28
 70
     1
102
RTVSPost2010Prop29
280
     1
102
RTVSPost2010PropOp29
 70
     1
102
RTVSPost2010Prop30
280
     0
102
RTVSPost2010PropOp30
 70
     1
102
RTVSPost2010Prop31
280
     0
102
RTVSPost2010PropOp31
 70
     1
102
RTVSPost2010Prop32
280
     0
102
RTVSPost2010PropOp32
 70
     1
102
RTVSPost2010Prop33
280
     0
102
RTVSPost2010PropOp33
 70
     1
102
RTVSPost2010Prop34
280
     0
102
RTVSPost2010PropOp34
 70
     1
102
RTVSPost2010Prop35
280
     0
102
RTVSPost2010PropOp35
 70
     1
102
RTVSPost2010Prop36
280
     0
102
RTVSPost2010PropOp36
 70
     1
102
RTVSPost2010Prop37
 90
       50
102
RTVSPost2010PropOp37
 70
     1
102
RTVSPost2010Prop38
140
0.0
102
RTVSPost2010PropOp38
 70
     1
102
RTVSPost2010Prop39
140
1.0
102
RTVSPost2010PropOp39
 70
     1
102
RTVSPost2010Prop40
 90
        0
102
RTVSPost2010PropOp40
 70
     1
102
RTVSPost2010Prop41ColorIndex
 90
       18
102
RTVSPost2010Prop41ColorRGB
 90
        0
102
RTVSPost2010PropOp41
 70
     1
102
RTVSPost2010Prop42
 90
       50
102
RTVSPost2010PropOp42
 70
     1
102
RTVSPost2010Prop43
 90
        3
102
RTVSPost2010PropOp43
 70
     1
102
RTVSPost2010Prop44ColorIndex
 90
        5
102
RTVSPost2010Prop44ColorRGB
 90
      255
102
RTVSPost2010PropOp44
 70
     1
102
RTVSPost2010Prop45
280
     0
102
RTVSPost2010PropOp45
 70
     1
102
RTVSPost2010Prop46
 90
       50
102
RTVSPost2010PropOp46
 70
     1
102
RTVSPost2010Prop47
 90
       50
102
RTVSPost2010PropOp47
 70
     1
102
RTVSPost2010Prop48
 90
       50
102
RTVSPost2010PropOp48
 70
     1
102
RTVSPost2010Prop49
280
     0
102
RTVSPost2010PropOp49
 70
     1
102
RTVSPost2010Prop50
 90
       50
102
RTVSPost2010PropOp50
 70
     1
102
RTVSPost2010Prop51ColorIndex
 90
      256
102
RTVSPost2010Prop51ColorRGB
 90
-16777216
102
RTVSPost2010PropOp51
 70
     0
102
RTVSPost2010Prop52
140
1.0
102
RTVSPost2010PropOp52
 70
     0
102
RTVSPost2010Prop53
 90
        2
102
RTVSPost2010PropOp53
 70
     1
102
RTVSPost2010Prop54
  1
strokes_ogs.tif
102
RTVSPost2010PropOp54
 70
     1
102
RTVSPost2010Prop55
280
     0
102
RTVSPost2010PropOp55
 70
     1
102
RTVSPost2010Prop56
140
1.0
102
RTVSPost2010PropOp56
 70
     1
102
RTVSPost2010Prop57
140
1.0
102
RTVSPost2010PropOp57
 70
     1
102
RTVSPropertyOp0
 70
     1
102
RTVSPropertyOp1
 70
     1
102
RTVSPropertyOp2
 70
     1
102
RTVSPropertyOp3
 70
     1
102
RTVSPropertyOp4
 70
     1
102
RTVSPropertyOp5
 70
     1
102
RTVSPropertyOp6
 70
     1
102
RTVSPropertyOp7
 70
     1
102
RTVSPropertyOp8
 70
     1
102
RTVSPropertyOp9
 70
     1
102
RTVSPropertyOp10
 70
     1
102
RTVSPropertyOp11
 70
     1
102
RTVSPropertyOp12
 70
     1
102
RTVSPropertyOp13
 70
     1
102
RTVSPropertyOp14
 70
     1
102
RTVSPropertyOp15
 70
     1
102
RTVSPropertyOp16
 70
     1
102
RTVSPropertyOp17
 70
     1
102
RTVSPropertyOp18
 70
     1
102
RTVSPropertyOp19
 70
     1
102
RTVSPropertyOp20
 70
     1
102
RTVSPropertyOp21
 70
     1
102
RTVSPropertyOp22
 70
     1
102
RTVSPropertyOp23
 70
     1
102
RTVSPropertyOp24
 70
     1
102
RTVSPropertyOp25
 70
     1
102
RTVSPropertyOp26
 70
     1
102
RTVSPropertyOp27
 70
     1
102
RTVSPropertyOp28
 70
     1
102
RTVSPropertyOp29
 70
     1
102
RTVSPropertyOp30
 70
     1
102
RTVSPropertyOp31
 70
     1
102
RTVSPropertyOp32
 70
     1
102
RTVSPropertyOp33
 70
     1
102
RTVSPropertyOp34
 70
     1
102
RTVSPropertyOp35
 70
     1
102
RTVSPropertyOp36
 70
     1
102
RTVSPropertyOp37
 70
     1
102
RTVSPropertyOp38
 70
     1
102
RTVSPropertyOp39
 70
     1
102
RTVSPropertyOp40
 70
     1
102
RTVSPropertyOp41
 70
     1
102
RTVSPropertyOp42
 70
     1
102
RTVSPropertyOp43
 70
     1
102
RTVSPropertyOp44
 70
     1
102
RTVSPropertyOp45
 70
     1
102
RTVSPropertyOp46
 70
     1
102
RTVSPropertyOp47
 70
     1
102
RTVSPropertyOp48
 70
     1
102
RTVSPropertyOp49
 70
     1
102
RTVSPropertyOp50
 70
     1
102
RTVSPropertyOp51
 70
     0
102
RTVSPropertyOp52
 70
     0
102
RTVSPropertyOp53
 70
     1
102
RTVSPropertyOp54
 70
     1
102
RTVSPropertyOp55
 70
     1
102
RTVSPropertyOp56
 70
     1
102
RTVSPropertyOp57
 70
     1
102
RTVSPropertyOp58
 70
     1
102
RTVSPropertyOp59
 70
     1
102
RTVSPropertyOp60
 70
     1
102
RTVSPropertyOp61
 70
     1
102
RTVSPropertyOp62
 70
     1
  0
XRECORD
  5
375
102
{ACAD_REACTORS
330
374
102
}
330
374
100
AcDbXrecord
280
     1
102
RTVSPost2010Prop28
280
     0
102
RTVSPost2010PropOp28
 70
     1
102
RTVSPost2010Prop29
280
     1
102
RTVSPost2010PropOp29
 70
     1
102
RTVSPost2010Prop30
280
     1
102
RTVSPost2010PropOp30
 70
     1
102
RTVSPost2010Prop31
280
     0
102
RTVSPost2010PropOp31
 70
     1
102
RTVSPost2010Prop32
280
     0
102
RTVSPost2010PropOp32
 70
     1
102
RTVSPost2010Prop33
280
     0
102
RTVSPost2010PropOp33
 70
     1
102
RTVSPost2010Prop34
280
     0
102
RTVSPost2010PropOp34
 70
     1
102
RTVSPost2010Prop35
280
     0
102
RTVSPost2010PropOp35
 70
     1
102
RTVSPost2010Prop36
280
     0
102
RTVSPost2010PropOp36
 70
     1
102
RTVSPost2010Prop37
 90
       50
102
RTVSPost2010PropOp37
 70
     1
102
RTVSPost2010Prop38
140
0.0
102
RTVSPost2010PropOp38
 70
     1
102
RTVSPost2010Prop39
140
1.0
102
RTVSPost2010PropOp39
 70
     1
102
RTVSPost2010Prop40
 90
        0
102
RTVSPost2010PropOp40
 70
     1
102
RTVSPost2010Prop41ColorIndex
 90
       18
102
RTVSPost2010Prop41ColorRGB
 90
        0
102
RTVSPost2010PropOp41
 70
     1
102
RTVSPost2010Prop42
 90
       50
102
RTVSPost2010PropOp42
 70
     1
102
RTVSPost2010Prop43
 90
        3
102
RTVSPost2010PropOp43
 70
     1
102
RTVSPost2010Prop44ColorIndex
 90
        5
102
RTVSPost2010Prop44ColorRGB
 90
      255
102
RTVSPost2010PropOp44
 70
     1
102
RTVSPost2010Prop45
280
     0
102
RTVSPost2010PropOp45
 70
     1
102
RTVSPost2010Prop46
 90
       50
102
RTVSPost2010PropOp46
 70
     1
102
RTVSPost2010Prop47
 90
       50
102
RTVSPost2010PropOp47
 70
     1
102
RTVSPost2010Prop48
 90
       50
102
RTVSPost2010PropOp48
 70
     1
102
RTVSPost2010Prop49
280
     0
102
RTVSPost2010PropOp49
 70
     1
102
RTVSPost2010Prop50
 90
       50
102
RTVSPost2010PropOp50
 70
     1
102
RTVSPost2010Prop51ColorIndex
 90
      256
102
RTVSPost2010Prop51ColorRGB
 90
-16777216
102
RTVSPost2010PropOp51
 70
     0
102
RTVSPost2010Prop52
140
1.0
102
RTVSPost2010PropOp52
 70
     0
102
RTVSPost2010Prop53
 90
        2
102
RTVSPost2010PropOp53
 70
     1
102
RTVSPost2010Prop54
  1
strokes_ogs.tif
102
RTVSPost2010PropOp54
 70
     1
102
RTVSPost2010Prop55
280
     0
102
RTVSPost2010PropOp55
 70
     1
102
RTVSPost2010Prop56
140
1.0
102
RTVSPost2010PropOp56
 70
     1
102
RTVSPost2010Prop57
140
1.0
102
RTVSPost2010PropOp57
 70
     1
102
RTVSPropertyOp0
 70
     1
102
RTVSPropertyOp1
 70
     1
102
RTVSPropertyOp2
 70
     1
102
RTVSPropertyOp3
 70
     1
102
RTVSPropertyOp4
 70
     1
102
RTVSPropertyOp5
 70
     1
102
RTVSPropertyOp6
 70
     1
102
RTVSPropertyOp7
 70
     1
102
RTVSPropertyOp8
 70
     1
102
RTVSPropertyOp9
 70
     1
102
RTVSPropertyOp10
 70
     1
102
RTVSPropertyOp11
 70
     1
102
RTVSPropertyOp12
 70
     1
102
RTVSPropertyOp13
 70
     1
102
RTVSPropertyOp14
 70
     1
102
RTVSPropertyOp15
 70
     1
102
RTVSPropertyOp16
 70
     1
102
RTVSPropertyOp17
 70
     1
102
RTVSPropertyOp18
 70
     1
102
RTVSPropertyOp19
 70
     1
102
RTVSPropertyOp20
 70
     1
102
RTVSPropertyOp21
 70
     1
102
RTVSPropertyOp22
 70
     1
102
RTVSPropertyOp23
 70
     1
102
RTVSPropertyOp24
 70
     1
102
RTVSPropertyOp25
 70
     1
102
RTVSPropertyOp26
 70
     1
102
RTVSPropertyOp27
 70
     1
102
RTVSPropertyOp28
 70
     1
102
RTVSPropertyOp29
 70
     1
102
RTVSPropertyOp30
 70
     1
102
RTVSPropertyOp31
 70
     1
102
RTVSPropertyOp32
 70
     1
102
RTVSPropertyOp33
 70
     1
102
RTVSPropertyOp34
 70
     1
102
RTVSPropertyOp35
 70
     1
102
RTVSPropertyOp36
 70
     1
102
RTVSPropertyOp37
 70
     1
102
RTVSPropertyOp38
 70
     1
102
RTVSPropertyOp39
 70
     1
102
RTVSPropertyOp40
 70
     1
102
RTVSPropertyOp41
 70
     1
102
RTVSPropertyOp42
 70
     1
102
RTVSPropertyOp43
 70
     1
102
RTVSPropertyOp44
 70
     1
102
RTVSPropertyOp45
 70
     1
102
RTVSPropertyOp46
 70
     1
102
RTVSPropertyOp47
 70
     1
102
RTVSPropertyOp48
 70
     1
102
RTVSPropertyOp49
 70
     1
102
RTVSPropertyOp50
 70
     1
102
RTVSPropertyOp51
 70
     0
102
RTVSPropertyOp52
 70
     0
102
RTVSPropertyOp53
 70
     1
102
RTVSPropertyOp54
 70
     1
102
RTVSPropertyOp55
 70
     1
102
RTVSPropertyOp56
 70
     1
102
RTVSPropertyOp57
 70
     1
102
RTVSPropertyOp58
 70
     1
102
RTVSPropertyOp59
 70
     1
102
RTVSPropertyOp60
 70
     1
102
RTVSPropertyOp61
 70
     1
102
RTVSPropertyOp62
 70
     1
  0
XRECORD
  5
37D
102
{ACAD_REACTORS
330
37C
102
}
330
37C
100
AcDbXrecord
280
     1
102
RTVSPost2010Prop28
280
     0
102
RTVSPost2010PropOp28
 70
     1
102
RTVSPost2010Prop29
280
     1
102
RTVSPost2010PropOp29
 70
     1
102
RTVSPost2010Prop30
280
     1
102
RTVSPost2010PropOp30
 70
     1
102
RTVSPost2010Prop31
280
     0
102
RTVSPost2010PropOp31
 70
     1
102
RTVSPost2010Prop32
280
     0
102
RTVSPost2010PropOp32
 70
     1
102
RTVSPost2010Prop33
280
     0
102
RTVSPost2010PropOp33
 70
     1
102
RTVSPost2010Prop34
280
     0
102
RTVSPost2010PropOp34
 70
     1
102
RTVSPost2010Prop35
280
     0
102
RTVSPost2010PropOp35
 70
     1
102
RTVSPost2010Prop36
280
     0
102
RTVSPost2010PropOp36
 70
     1
102
RTVSPost2010Prop37
 90
       50
102
RTVSPost2010PropOp37
 70
     1
102
RTVSPost2010Prop38
140
0.0
102
RTVSPost2010PropOp38
 70
     1
102
RTVSPost2010Prop39
140
1.0
102
RTVSPost2010PropOp39
 70
     1
102
RTVSPost2010Prop40
 90
        0
102
RTVSPost2010PropOp40
 70
     1
102
RTVSPost2010Prop41ColorIndex
 90
       18
102
RTVSPost2010Prop41ColorRGB
 90
        0
102
RTVSPost2010PropOp41
 70
     1
102
RTVSPost2010Prop42
 90
       50
102
RTVSPost2010PropOp42
 70
     1
102
RTVSPost2010Prop43
 90
        3
102
RTVSPost2010PropOp43
 70
     1
102
RTVSPost2010Prop44ColorIndex
 90
        5
102
RTVSPost2010Prop44ColorRGB
 90
      255
102
RTVSPost2010PropOp44
 70
     1
102
RTVSPost2010Prop45
280
     0
102
RTVSPost2010PropOp45
 70
     1
102
RTVSPost2010Prop46
 90
       50
102
RTVSPost2010PropOp46
 70
     1
102
RTVSPost2010Prop47
 90
       50
102
RTVSPost2010PropOp47
 70
     1
102
RTVSPost2010Prop48
 90
       50
102
RTVSPost2010PropOp48
 70
     1
102
RTVSPost2010Prop49
280
     0
102
RTVSPost2010PropOp49
 70
     1
102
RTVSPost2010Prop50
 90
       50
102
RTVSPost2010PropOp50
 70
     1
102
RTVSPost2010Prop51ColorIndex
 90
      256
102
RTVSPost2010Prop51ColorRGB
 90
-16777216
102
RTVSPost2010PropOp51
 70
     0
102
RTVSPost2010Prop52
140
1.0
102
RTVSPost2010PropOp52
 70
     0
102
RTVSPost2010Prop53
 90
        2
102
RTVSPost2010PropOp53
 70
     1
102
RTVSPost2010Prop54
  1
strokes_ogs.tif
102
RTVSPost2010PropOp54
 70
     1
102
RTVSPost2010Prop55
280
     0
102
RTVSPost2010PropOp55
 70
     1
102
RTVSPost2010Prop56
140
1.0
102
RTVSPost2010PropOp56
 70
     1
102
RTVSPost2010Prop57
140
1.0
102
RTVSPost2010PropOp57
 70
     1
102
RTVSPropertyOp0
 70
     1
102
RTVSPropertyOp1
 70
     1
102
RTVSPropertyOp2
 70
     1
102
RTVSPropertyOp3
 70
     1
102
RTVSPropertyOp4
 70
     1
102
RTVSPropertyOp5
 70
     1
102
RTVSPropertyOp6
 70
     1
102
RTVSPropertyOp7
 70
     1
102
RTVSPropertyOp8
 70
     1
102
RTVSPropertyOp9
 70
     1
102
RTVSPropertyOp10
 70
     1
102
RTVSPropertyOp11
 70
     1
102
RTVSPropertyOp12
 70
     1
102
RTVSPropertyOp13
 70
     1
102
RTVSPropertyOp14
 70
     1
102
RTVSPropertyOp15
 70
     1
102
RTVSPropertyOp16
 70
     1
102
RTVSPropertyOp17
 70
     1
102
RTVSPropertyOp18
 70
     1
102
RTVSPropertyOp19
 70
     1
102
RTVSPropertyOp20
 70
     1
102
RTVSPropertyOp21
 70
     1
102
RTVSPropertyOp22
 70
     1
102
RTVSPropertyOp23
 70
     1
102
RTVSPropertyOp24
 70
     1
102
RTVSPropertyOp25
 70
     1
102
RTVSPropertyOp26
 70
     1
102
RTVSPropertyOp27
 70
     1
102
RTVSPropertyOp28
 70
     1
102
RTVSPropertyOp29
 70
     1
102
RTVSPropertyOp30
 70
     1
102
RTVSPropertyOp31
 70
     1
102
RTVSPropertyOp32
 70
     1
102
RTVSPropertyOp33
 70
     1
102
RTVSPropertyOp34
 70
     1
102
RTVSPropertyOp35
 70
     1
102
RTVSPropertyOp36
 70
     1
102
RTVSPropertyOp37
 70
     1
102
RTVSPropertyOp38
 70
     1
102
RTVSPropertyOp39
 70
     1
102
RTVSPropertyOp40
 70
     1
102
RTVSPropertyOp41
 70
     1
102
RTVSPropertyOp42
 70
     1
102
RTVSPropertyOp43
 70
     1
102
RTVSPropertyOp44
 70
     1
102
RTVSPropertyOp45
 70
     1
102
RTVSPropertyOp46
 70
     1
102
RTVSPropertyOp47
 70
     1
102
RTVSPropertyOp48
 70
     1
102
RTVSPropertyOp49
 70
     1
102
RTVSPropertyOp50
 70
     1
102
RTVSPropertyOp51
 70
     0
102
RTVSPropertyOp52
 70
     0
102
RTVSPropertyOp53
 70
     1
102
RTVSPropertyOp54
 70
     1
102
RTVSPropertyOp55
 70
     1
102
RTVSPropertyOp56
 70
     1
102
RTVSPropertyOp57
 70
     1
102
RTVSPropertyOp58
 70
     1
102
RTVSPropertyOp59
 70
     1
102
RTVSPropertyOp60
 70
     1
102
RTVSPropertyOp61
 70
     1
102
RTVSPropertyOp62
 70
     1
  0
XRECORD
  5
385
102
{ACAD_REACTORS
330
384
102
}
330
384
100
AcDbXrecord
280
     1
102
RTVSPost2010Prop28
280
     0
102
RTVSPost2010PropOp28
 70
     1
102
RTVSPost2010Prop29
280
     1
102
RTVSPost2010PropOp29
 70
     1
102
RTVSPost2010Prop30
280
     1
102
RTVSPost2010PropOp30
 70
     1
102
RTVSPost2010Prop31
280
     0
102
RTVSPost2010PropOp31
 70
     1
102
RTVSPost2010Prop32
280
     0
102
RTVSPost2010PropOp32
 70
     1
102
RTVSPost2010Prop33
280
     0
102
RTVSPost2010PropOp33
 70
     1
102
RTVSPost2010Prop34
280
     0
102
RTVSPost2010PropOp34
 70
     1
102
RTVSPost2010Prop35
280
     0
102
RTVSPost2010PropOp35
 70
     1
102
RTVSPost2010Prop36
280
     0
102
RTVSPost2010PropOp36
 70
     1
102
RTVSPost2010Prop37
 90
       50
102
RTVSPost2010PropOp37
 70
     1
102
RTVSPost2010Prop38
140
0.0
102
RTVSPost2010PropOp38
 70
     1
102
RTVSPost2010Prop39
140
1.0
102
RTVSPost2010PropOp39
 70
     1
102
RTVSPost2010Prop40
 90
        0
102
RTVSPost2010PropOp40
 70
     1
102
RTVSPost2010Prop41ColorIndex
 90
       18
102
RTVSPost2010Prop41ColorRGB
 90
        0
102
RTVSPost2010PropOp41
 70
     1
102
RTVSPost2010Prop42
 90
       50
102
RTVSPost2010PropOp42
 70
     1
102
RTVSPost2010Prop43
 90
        3
102
RTVSPost2010PropOp43
 70
     1
102
RTVSPost2010Prop44ColorIndex
 90
        5
102
RTVSPost2010Prop44ColorRGB
 90
      255
102
RTVSPost2010PropOp44
 70
     1
102
RTVSPost2010Prop45
280
     0
102
RTVSPost2010PropOp45
 70
     1
102
RTVSPost2010Prop46
 90
       50
102
RTVSPost2010PropOp46
 70
     1
102
RTVSPost2010Prop47
 90
       50
102
RTVSPost2010PropOp47
 70
     1
102
RTVSPost2010Prop48
 90
       50
102
RTVSPost2010PropOp48
 70
     1
102
RTVSPost2010Prop49
280
     0
102
RTVSPost2010PropOp49
 70
     1
102
RTVSPost2010Prop50
 90
       50
102
RTVSPost2010PropOp50
 70
     1
102
RTVSPost2010Prop51ColorIndex
 90
      256
102
RTVSPost2010Prop51ColorRGB
 90
-16777216
102
RTVSPost2010PropOp51
 70
     0
102
RTVSPost2010Prop52
140
1.0
102
RTVSPost2010PropOp52
 70
     0
102
RTVSPost2010Prop53
 90
        2
102
RTVSPost2010PropOp53
 70
     1
102
RTVSPost2010Prop54
  1
strokes_ogs.tif
102
RTVSPost2010PropOp54
 70
     1
102
RTVSPost2010Prop55
280
     0
102
RTVSPost2010PropOp55
 70
     1
102
RTVSPost2010Prop56
140
1.0
102
RTVSPost2010PropOp56
 70
     1
102
RTVSPost2010Prop57
140
1.0
102
RTVSPost2010PropOp57
 70
     1
102
RTVSPropertyOp0
 70
     1
102
RTVSPropertyOp1
 70
     1
102
RTVSPropertyOp2
 70
     1
102
RTVSPropertyOp3
 70
     1
102
RTVSPropertyOp4
 70
     1
102
RTVSPropertyOp5
 70
     1
102
RTVSPropertyOp6
 70
     1
102
RTVSPropertyOp7
 70
     1
102
RTVSPropertyOp8
 70
     1
102
RTVSPropertyOp9
 70
     1
102
RTVSPropertyOp10
 70
     1
102
RTVSPropertyOp11
 70
     1
102
RTVSPropertyOp12
 70
     1
102
RTVSPropertyOp13
 70
     1
102
RTVSPropertyOp14
 70
     1
102
RTVSPropertyOp15
 70
     1
102
RTVSPropertyOp16
 70
     1
102
RTVSPropertyOp17
 70
     1
102
RTVSPropertyOp18
 70
     1
102
RTVSPropertyOp19
 70
     1
102
RTVSPropertyOp20
 70
     1
102
RTVSPropertyOp21
 70
     1
102
RTVSPropertyOp22
 70
     1
102
RTVSPropertyOp23
 70
     1
102
RTVSPropertyOp24
 70
     1
102
RTVSPropertyOp25
 70
     1
102
RTVSPropertyOp26
 70
     1
102
RTVSPropertyOp27
 70
     1
102
RTVSPropertyOp28
 70
     1
102
RTVSPropertyOp29
 70
     1
102
RTVSPropertyOp30
 70
     1
102
RTVSPropertyOp31
 70
     1
102
RTVSPropertyOp32
 70
     1
102
RTVSPropertyOp33
 70
     1
102
RTVSPropertyOp34
 70
     1
102
RTVSPropertyOp35
 70
     1
102
RTVSPropertyOp36
 70
     1
102
RTVSPropertyOp37
 70
     1
102
RTVSPropertyOp38
 70
     1
102
RTVSPropertyOp39
 70
     1
102
RTVSPropertyOp40
 70
     1
102
RTVSPropertyOp41
 70
     1
102
RTVSPropertyOp42
 70
     1
102
RTVSPropertyOp43
 70
     1
102
RTVSPropertyOp44
 70
     1
102
RTVSPropertyOp45
 70
     1
102
RTVSPropertyOp46
 70
     1
102
RTVSPropertyOp47
 70
     1
102
RTVSPropertyOp48
 70
     1
102
RTVSPropertyOp49
 70
     1
102
RTVSPropertyOp50
 70
     1
102
RTVSPropertyOp51
 70
     0
102
RTVSPropertyOp52
 70
     0
102
RTVSPropertyOp53
 70
     1
102
RTVSPropertyOp54
 70
     1
102
RTVSPropertyOp55
 70
     1
102
RTVSPropertyOp56
 70
     1
102
RTVSPropertyOp57
 70
     1
102
RTVSPropertyOp58
 70
     1
102
RTVSPropertyOp59
 70
     1
102
RTVSPropertyOp60
 70
     1
102
RTVSPropertyOp61
 70
     1
102
RTVSPropertyOp62
 70
     1
  0
XRECORD
  5
379
102
{ACAD_REACTORS
330
378
102
}
330
378
100
AcDbXrecord
280
     1
102
RTVSPost2010Prop28
280
     0
102
RTVSPost2010PropOp28
 70
     1
102
RTVSPost2010Prop29
280
     1
102
RTVSPost2010PropOp29
 70
     1
102
RTVSPost2010Prop30
280
     1
102
RTVSPost2010PropOp30
 70
     1
102
RTVSPost2010Prop31
280
     0
102
RTVSPost2010PropOp31
 70
     1
102
RTVSPost2010Prop32
280
     0
102
RTVSPost2010PropOp32
 70
     1
102
RTVSPost2010Prop33
280
     0
102
RTVSPost2010PropOp33
 70
     1
102
RTVSPost2010Prop34
280
     0
102
RTVSPost2010PropOp34
 70
     1
102
RTVSPost2010Prop35
280
     0
102
RTVSPost2010PropOp35
 70
     1
102
RTVSPost2010Prop36
280
     0
102
RTVSPost2010PropOp36
 70
     1
102
RTVSPost2010Prop37
 90
       50
102
RTVSPost2010PropOp37
 70
     1
102
RTVSPost2010Prop38
140
0.0
102
RTVSPost2010PropOp38
 70
     1
102
RTVSPost2010Prop39
140
1.0
102
RTVSPost2010PropOp39
 70
     1
102
RTVSPost2010Prop40
 90
        0
102
RTVSPost2010PropOp40
 70
     1
102
RTVSPost2010Prop41ColorIndex
 90
       18
102
RTVSPost2010Prop41ColorRGB
 90
        0
102
RTVSPost2010PropOp41
 70
     1
102
RTVSPost2010Prop42
 90
       50
102
RTVSPost2010PropOp42
 70
     1
102
RTVSPost2010Prop43
 90
        3
102
RTVSPost2010PropOp43
 70
     1
102
RTVSPost2010Prop44ColorIndex
 90
        5
102
RTVSPost2010Prop44ColorRGB
 90
      255
102
RTVSPost2010PropOp44
 70
     1
102
RTVSPost2010Prop45
280
     0
102
RTVSPost2010PropOp45
 70
     1
102
RTVSPost2010Prop46
 90
       50
102
RTVSPost2010PropOp46
 70
     1
102
RTVSPost2010Prop47
 90
       50
102
RTVSPost2010PropOp47
 70
     1
102
RTVSPost2010Prop48
 90
       50
102
RTVSPost2010PropOp48
 70
     1
102
RTVSPost2010Prop49
280
     0
102
RTVSPost2010PropOp49
 70
     1
102
RTVSPost2010Prop50
 90
       50
102
RTVSPost2010PropOp50
 70
     1
102
RTVSPost2010Prop51ColorIndex
 90
      256
102
RTVSPost2010Prop51ColorRGB
 90
-16777216
102
RTVSPost2010PropOp51
 70
     0
102
RTVSPost2010Prop52
140
1.0
102
RTVSPost2010PropOp52
 70
     0
102
RTVSPost2010Prop53
 90
        2
102
RTVSPost2010PropOp53
 70
     1
102
RTVSPost2010Prop54
  1
strokes_ogs.tif
102
RTVSPost2010PropOp54
 70
     1
102
RTVSPost2010Prop55
280
     0
102
RTVSPost2010PropOp55
 70
     1
102
RTVSPost2010Prop56
140
1.0
102
RTVSPost2010PropOp56
 70
     1
102
RTVSPost2010Prop57
140
1.0
102
RTVSPost2010PropOp57
 70
     1
102
RTVSPropertyOp0
 70
     1
102
RTVSPropertyOp1
 70
     1
102
RTVSPropertyOp2
 70
     1
102
RTVSPropertyOp3
 70
     1
102
RTVSPropertyOp4
 70
     1
102
RTVSPropertyOp5
 70
     1
102
RTVSPropertyOp6
 70
     1
102
RTVSPropertyOp7
 70
     1
102
RTVSPropertyOp8
 70
     1
102
RTVSPropertyOp9
 70
     1
102
RTVSPropertyOp10
 70
     1
102
RTVSPropertyOp11
 70
     1
102
RTVSPropertyOp12
 70
     1
102
RTVSPropertyOp13
 70
     1
102
RTVSPropertyOp14
 70
     1
102
RTVSPropertyOp15
 70
     1
102
RTVSPropertyOp16
 70
     1
102
RTVSPropertyOp17
 70
     1
102
RTVSPropertyOp18
 70
     1
102
RTVSPropertyOp19
 70
     1
102
RTVSPropertyOp20
 70
     1
102
RTVSPropertyOp21
 70
     1
102
RTVSPropertyOp22
 70
     1
102
RTVSPropertyOp23
 70
     1
102
RTVSPropertyOp24
 70
     1
102
RTVSPropertyOp25
 70
     1
102
RTVSPropertyOp26
 70
     1
102
RTVSPropertyOp27
 70
     1
102
RTVSPropertyOp28
 70
     1
102
RTVSPropertyOp29
 70
     1
102
RTVSPropertyOp30
 70
     1
102
RTVSPropertyOp31
 70
     1
102
RTVSPropertyOp32
 70
     1
102
RTVSPropertyOp33
 70
     1
102
RTVSPropertyOp34
 70
     1
102
RTVSPropertyOp35
 70
     1
102
RTVSPropertyOp36
 70
     1
102
RTVSPropertyOp37
 70
     1
102
RTVSPropertyOp38
 70
     1
102
RTVSPropertyOp39
 70
     1
102
RTVSPropertyOp40
 70
     1
102
RTVSPropertyOp41
 70
     1
102
RTVSPropertyOp42
 70
     1
102
RTVSPropertyOp43
 70
     1
102
RTVSPropertyOp44
 70
     1
102
RTVSPropertyOp45
 70
     1
102
RTVSPropertyOp46
 70
     1
102
RTVSPropertyOp47
 70
     1
102
RTVSPropertyOp48
 70
     1
102
RTVSPropertyOp49
 70
     1
102
RTVSPropertyOp50
 70
     1
102
RTVSPropertyOp51
 70
     0
102
RTVSPropertyOp52
 70
     0
102
RTVSPropertyOp53
 70
     1
102
RTVSPropertyOp54
 70
     1
102
RTVSPropertyOp55
 70
     1
102
RTVSPropertyOp56
 70
     1
102
RTVSPropertyOp57
 70
     1
102
RTVSPropertyOp58
 70
     1
102
RTVSPropertyOp59
 70
     1
102
RTVSPropertyOp60
 70
     1
102
RTVSPropertyOp61
 70
     1
102
RTVSPropertyOp62
 70
     1
  0
XRECORD
  5
37B
102
{ACAD_REACTORS
330
37A
102
}
330
37A
100
AcDbXrecord
280
     1
102
RTVSPost2010Prop28
280
     0
102
RTVSPost2010PropOp28
 70
     1
102
RTVSPost2010Prop29
280
     1
102
RTVSPost2010PropOp29
 70
     1
102
RTVSPost2010Prop30
280
     1
102
RTVSPost2010PropOp30
 70
     1
102
RTVSPost2010Prop31
280
     0
102
RTVSPost2010PropOp31
 70
     1
102
RTVSPost2010Prop32
280
     0
102
RTVSPost2010PropOp32
 70
     1
102
RTVSPost2010Prop33
280
     0
102
RTVSPost2010PropOp33
 70
     1
102
RTVSPost2010Prop34
280
     0
102
RTVSPost2010PropOp34
 70
     1
102
RTVSPost2010Prop35
280
     0
102
RTVSPost2010PropOp35
 70
     1
102
RTVSPost2010Prop36
280
     0
102
RTVSPost2010PropOp36
 70
     1
102
RTVSPost2010Prop37
 90
       50
102
RTVSPost2010PropOp37
 70
     1
102
RTVSPost2010Prop38
140
0.0
102
RTVSPost2010PropOp38
 70
     1
102
RTVSPost2010Prop39
140
1.0
102
RTVSPost2010PropOp39
 70
     1
102
RTVSPost2010Prop40
 90
        0
102
RTVSPost2010PropOp40
 70
     1
102
RTVSPost2010Prop41ColorIndex
 90
       18
102
RTVSPost2010Prop41ColorRGB
 90
        0
102
RTVSPost2010PropOp41
 70
     1
102
RTVSPost2010Prop42
 90
       50
102
RTVSPost2010PropOp42
 70
     1
102
RTVSPost2010Prop43
 90
        3
102
RTVSPost2010PropOp43
 70
     1
102
RTVSPost2010Prop44ColorIndex
 90
        5
102
RTVSPost2010Prop44ColorRGB
 90
      255
102
RTVSPost2010PropOp44
 70
     1
102
RTVSPost2010Prop45
280
     0
102
RTVSPost2010PropOp45
 70
     1
102
RTVSPost2010Prop46
 90
       50
102
RTVSPost2010PropOp46
 70
     1
102
RTVSPost2010Prop47
 90
       50
102
RTVSPost2010PropOp47
 70
     1
102
RTVSPost2010Prop48
 90
       50
102
RTVSPost2010PropOp48
 70
     1
102
RTVSPost2010Prop49
280
     0
102
RTVSPost2010PropOp49
 70
     1
102
RTVSPost2010Prop50
 90
       50
102
RTVSPost2010PropOp50
 70
     1
102
RTVSPost2010Prop51ColorIndex
 90
      256
102
RTVSPost2010Prop51ColorRGB
 90
-16777216
102
RTVSPost2010PropOp51
 70
     0
102
RTVSPost2010Prop52
140
1.0
102
RTVSPost2010PropOp52
 70
     0
102
RTVSPost2010Prop53
 90
        2
102
RTVSPost2010PropOp53
 70
     1
102
RTVSPost2010Prop54
  1
strokes_ogs.tif
102
RTVSPost2010PropOp54
 70
     1
102
RTVSPost2010Prop55
280
     0
102
RTVSPost2010PropOp55
 70
     1
102
RTVSPost2010Prop56
140
1.0
102
RTVSPost2010PropOp56
 70
     1
102
RTVSPost2010Prop57
140
1.0
102
RTVSPost2010PropOp57
 70
     1
102
RTVSPropertyOp0
 70
     1
102
RTVSPropertyOp1
 70
     1
102
RTVSPropertyOp2
 70
     1
102
RTVSPropertyOp3
 70
     1
102
RTVSPropertyOp4
 70
     1
102
RTVSPropertyOp5
 70
     1
102
RTVSPropertyOp6
 70
     1
102
RTVSPropertyOp7
 70
     1
102
RTVSPropertyOp8
 70
     1
102
RTVSPropertyOp9
 70
     1
102
RTVSPropertyOp10
 70
     1
102
RTVSPropertyOp11
 70
     1
102
RTVSPropertyOp12
 70
     1
102
RTVSPropertyOp13
 70
     1
102
RTVSPropertyOp14
 70
     1
102
RTVSPropertyOp15
 70
     1
102
RTVSPropertyOp16
 70
     1
102
RTVSPropertyOp17
 70
     1
102
RTVSPropertyOp18
 70
     1
102
RTVSPropertyOp19
 70
     1
102
RTVSPropertyOp20
 70
     1
102
RTVSPropertyOp21
 70
     1
102
RTVSPropertyOp22
 70
     1
102
RTVSPropertyOp23
 70
     1
102
RTVSPropertyOp24
 70
     1
102
RTVSPropertyOp25
 70
     1
102
RTVSPropertyOp26
 70
     1
102
RTVSPropertyOp27
 70
     1
102
RTVSPropertyOp28
 70
     1
102
RTVSPropertyOp29
 70
     1
102
RTVSPropertyOp30
 70
     1
102
RTVSPropertyOp31
 70
     1
102
RTVSPropertyOp32
 70
     1
102
RTVSPropertyOp33
 70
     1
102
RTVSPropertyOp34
 70
     1
102
RTVSPropertyOp35
 70
     1
102
RTVSPropertyOp36
 70
     1
102
RTVSPropertyOp37
 70
     1
102
RTVSPropertyOp38
 70
     1
102
RTVSPropertyOp39
 70
     1
102
RTVSPropertyOp40
 70
     1
102
RTVSPropertyOp41
 70
     1
102
RTVSPropertyOp42
 70
     1
102
RTVSPropertyOp43
 70
     1
102
RTVSPropertyOp44
 70
     1
102
RTVSPropertyOp45
 70
     1
102
RTVSPropertyOp46
 70
     1
102
RTVSPropertyOp47
 70
     1
102
RTVSPropertyOp48
 70
     1
102
RTVSPropertyOp49
 70
     1
102
RTVSPropertyOp50
 70
     1
102
RTVSPropertyOp51
 70
     0
102
RTVSPropertyOp52
 70
     0
102
RTVSPropertyOp53
 70
     1
102
RTVSPropertyOp54
 70
     1
102
RTVSPropertyOp55
 70
     1
102
RTVSPropertyOp56
 70
     1
102
RTVSPropertyOp57
 70
     1
102
RTVSPropertyOp58
 70
     1
102
RTVSPropertyOp59
 70
     1
102
RTVSPropertyOp60
 70
     1
102
RTVSPropertyOp61
 70
     1
102
RTVSPropertyOp62
 70
     1
  0
XRECORD
  5
38B
102
{ACAD_REACTORS
330
38A
102
}
330
38A
100
AcDbXrecord
280
     1
102
RTVSPost2010Prop28
280
     0
102
RTVSPost2010PropOp28
 70
     0
102
RTVSPost2010Prop29
280
     1
102
RTVSPost2010PropOp29
 70
     0
102
RTVSPost2010Prop30
280
     1
102
RTVSPost2010PropOp30
 70
     0
102
RTVSPost2010Prop31
280
     0
102
RTVSPost2010PropOp31
 70
     0
102
RTVSPost2010Prop32
280
     0
102
RTVSPost2010PropOp32
 70
     0
102
RTVSPost2010Prop33
280
     0
102
RTVSPost2010PropOp33
 70
     0
102
RTVSPost2010Prop34
280
     0
102
RTVSPost2010PropOp34
 70
     0
102
RTVSPost2010Prop35
280
     0
102
RTVSPost2010PropOp35
 70
     0
102
RTVSPost2010Prop36
280
     0
102
RTVSPost2010PropOp36
 70
     0
102
RTVSPost2010Prop37
 90
       50
102
RTVSPost2010PropOp37
 70
     0
102
RTVSPost2010Prop38
140
0.0
102
RTVSPost2010PropOp38
 70
     0
102
RTVSPost2010Prop39
140
1.0
102
RTVSPost2010PropOp39
 70
     0
102
RTVSPost2010Prop40
 90
        0
102
RTVSPost2010PropOp40
 70
     0
102
RTVSPost2010Prop41ColorIndex
 90
       18
102
RTVSPost2010Prop41ColorRGB
 90
        0
102
RTVSPost2010PropOp41
 70
     0
102
RTVSPost2010Prop42
 90
       50
102
RTVSPost2010PropOp42
 70
     0
102
RTVSPost2010Prop43
 90
        3
102
RTVSPost2010PropOp43
 70
     0
102
RTVSPost2010Prop44ColorIndex
 90
        5
102
RTVSPost2010Prop44ColorRGB
 90
      255
102
RTVSPost2010PropOp44
 70
     0
102
RTVSPost2010Prop45
280
     0
102
RTVSPost2010PropOp45
 70
     0
102
RTVSPost2010Prop46
 90
       50
102
RTVSPost2010PropOp46
 70
     0
102
RTVSPost2010Prop47
 90
       50
102
RTVSPost2010PropOp47
 70
     0
102
RTVSPost2010Prop48
 90
       50
102
RTVSPost2010PropOp48
 70
     0
102
RTVSPost2010Prop49
280
     0
102
RTVSPost2010PropOp49
 70
     0
102
RTVSPost2010Prop50
 90
       50
102
RTVSPost2010PropOp50
 70
     0
102
RTVSPost2010Prop51ColorIndex
 90
      256
102
RTVSPost2010Prop51ColorRGB
 90
-16777216
102
RTVSPost2010PropOp51
 70
     0
102
RTVSPost2010Prop52
140
1.0
102
RTVSPost2010PropOp52
 70
     0
102
RTVSPost2010Prop53
 90
        2
102
RTVSPost2010PropOp53
 70
     0
102
RTVSPost2010Prop54
  1
strokes_ogs.tif
102
RTVSPost2010PropOp54
 70
     0
102
RTVSPost2010Prop55
280
     0
102
RTVSPost2010PropOp55
 70
     0
102
RTVSPost2010Prop56
140
1.0
102
RTVSPost2010PropOp56
 70
     0
102
RTVSPost2010Prop57
140
1.0
102
RTVSPost2010PropOp57
 70
     0
102
RTVSPropertyOp0
 70
     0
102
RTVSPropertyOp1
 70
     0
102
RTVSPropertyOp2
 70
     0
102
RTVSPropertyOp3
 70
     0
102
RTVSPropertyOp4
 70
     0
102
RTVSPropertyOp5
 70
     0
102
RTVSPropertyOp6
 70
     0
102
RTVSPropertyOp7
 70
     0
102
RTVSPropertyOp8
 70
     0
102
RTVSPropertyOp9
 70
     0
102
RTVSPropertyOp10
 70
     0
102
RTVSPropertyOp11
 70
     0
102
RTVSPropertyOp12
 70
     0
102
RTVSPropertyOp13
 70
     0
102
RTVSPropertyOp14
 70
     2
102
RTVSPropertyOp15
 70
     0
102
RTVSPropertyOp16
 70
     0
102
RTVSPropertyOp17
 70
     0
102
RTVSPropertyOp18
 70
     0
102
RTVSPropertyOp19
 70
     0
102
RTVSPropertyOp20
 70
     0
102
RTVSPropertyOp21
 70
     0
102
RTVSPropertyOp22
 70
     0
102
RTVSPropertyOp23
 70
     0
102
RTVSPropertyOp24
 70
     0
102
RTVSPropertyOp25
 70
     0
102
RTVSPropertyOp26
 70
     0
102
RTVSPropertyOp27
 70
     0
102
RTVSPropertyOp28
 70
     0
102
RTVSPropertyOp29
 70
     0
102
RTVSPropertyOp30
 70
     0
102
RTVSPropertyOp31
 70
     0
102
RTVSPropertyOp32
 70
     0
102
RTVSPropertyOp33
 70
     0
102
RTVSPropertyOp34
 70
     0
102
RTVSPropertyOp35
 70
     0
102
RTVSPropertyOp36
 70
     0
102
RTVSPropertyOp37
 70
     0
102
RTVSPropertyOp38
 70
     0
102
RTVSPropertyOp39
 70
     0
102
RTVSPropertyOp40
 70
     0
102
RTVSPropertyOp41
 70
     0
102
RTVSPropertyOp42
 70
     0
102
RTVSPropertyOp43
 70
     0
102
RTVSPropertyOp44
 70
     0
102
RTVSPropertyOp45
 70
     0
102
RTVSPropertyOp46
 70
     0
102
RTVSPropertyOp47
 70
     0
102
RTVSPropertyOp48
 70
     0
102
RTVSPropertyOp49
 70
     0
102
RTVSPropertyOp50
 70
     0
102
RTVSPropertyOp51
 70
     0
102
RTVSPropertyOp52
 70
     0
102
RTVSPropertyOp53
 70
     0
102
RTVSPropertyOp54
 70
     0
102
RTVSPropertyOp55
 70
     0
102
RTVSPropertyOp56
 70
     0
102
RTVSPropertyOp57
 70
     0
102
RTVSPropertyOp58
 70
     1
102
RTVSPropertyOp59
 70
     1
102
RTVSPropertyOp60
 70
     1
102
RTVSPropertyOp61
 70
     1
102
RTVSPropertyOp62
 70
     1
  0
XRECORD
  5
383
102
{ACAD_REACTORS
330
382
102
}
330
382
100
AcDbXrecord
280
     1
102
RTVSPost2010Prop28
280
     0
102
RTVSPost2010PropOp28
 70
     1
102
RTVSPost2010Prop29
280
     1
102
RTVSPost2010PropOp29
 70
     1
102
RTVSPost2010Prop30
280
     1
102
RTVSPost2010PropOp30
 70
     1
102
RTVSPost2010Prop31
280
     0
102
RTVSPost2010PropOp31
 70
     1
102
RTVSPost2010Prop32
280
     0
102
RTVSPost2010PropOp32
 70
     1
102
RTVSPost2010Prop33
280
     0
102
RTVSPost2010PropOp33
 70
     1
102
RTVSPost2010Prop34
280
     0
102
RTVSPost2010PropOp34
 70
     1
102
RTVSPost2010Prop35
280
     0
102
RTVSPost2010PropOp35
 70
     1
102
RTVSPost2010Prop36
280
     0
102
RTVSPost2010PropOp36
 70
     1
102
RTVSPost2010Prop37
 90
       50
102
RTVSPost2010PropOp37
 70
     1
102
RTVSPost2010Prop38
140
0.0
102
RTVSPost2010PropOp38
 70
     1
102
RTVSPost2010Prop39
140
1.0
102
RTVSPost2010PropOp39
 70
     1
102
RTVSPost2010Prop40
 90
        0
102
RTVSPost2010PropOp40
 70
     1
102
RTVSPost2010Prop41ColorIndex
 90
       18
102
RTVSPost2010Prop41ColorRGB
 90
        0
102
RTVSPost2010PropOp41
 70
     1
102
RTVSPost2010Prop42
 90
       50
102
RTVSPost2010PropOp42
 70
     1
102
RTVSPost2010Prop43
 90
        3
102
RTVSPost2010PropOp43
 70
     1
102
RTVSPost2010Prop44ColorIndex
 90
        5
102
RTVSPost2010Prop44ColorRGB
 90
      255
102
RTVSPost2010PropOp44
 70
     1
102
RTVSPost2010Prop45
280
     0
102
RTVSPost2010PropOp45
 70
     1
102
RTVSPost2010Prop46
 90
       50
102
RTVSPost2010PropOp46
 70
     1
102
RTVSPost2010Prop47
 90
       50
102
RTVSPost2010PropOp47
 70
     1
102
RTVSPost2010Prop48
 90
       50
102
RTVSPost2010PropOp48
 70
     1
102
RTVSPost2010Prop49
280
     0
102
RTVSPost2010PropOp49
 70
     1
102
RTVSPost2010Prop50
 90
       50
102
RTVSPost2010PropOp50
 70
     1
102
RTVSPost2010Prop51ColorIndex
 90
      256
102
RTVSPost2010Prop51ColorRGB
 90
-16777216
102
RTVSPost2010PropOp51
 70
     0
102
RTVSPost2010Prop52
140
1.0
102
RTVSPost2010PropOp52
 70
     0
102
RTVSPost2010Prop53
 90
        2
102
RTVSPost2010PropOp53
 70
     1
102
RTVSPost2010Prop54
  1
strokes_ogs.tif
102
RTVSPost2010PropOp54
 70
     1
102
RTVSPost2010Prop55
280
     0
102
RTVSPost2010PropOp55
 70
     1
102
RTVSPost2010Prop56
140
1.0
102
RTVSPost2010PropOp56
 70
     1
102
RTVSPost2010Prop57
140
1.0
102
RTVSPost2010PropOp57
 70
     1
102
RTVSPropertyOp0
 70
     1
102
RTVSPropertyOp1
 70
     1
102
RTVSPropertyOp2
 70
     1
102
RTVSPropertyOp3
 70
     1
102
RTVSPropertyOp4
 70
     1
102
RTVSPropertyOp5
 70
     1
102
RTVSPropertyOp6
 70
     1
102
RTVSPropertyOp7
 70
     1
102
RTVSPropertyOp8
 70
     1
102
RTVSPropertyOp9
 70
     1
102
RTVSPropertyOp10
 70
     1
102
RTVSPropertyOp11
 70
     1
102
RTVSPropertyOp12
 70
     1
102
RTVSPropertyOp13
 70
     1
102
RTVSPropertyOp14
 70
     1
102
RTVSPropertyOp15
 70
     1
102
RTVSPropertyOp16
 70
     1
102
RTVSPropertyOp17
 70
     1
102
RTVSPropertyOp18
 70
     1
102
RTVSPropertyOp19
 70
     1
102
RTVSPropertyOp20
 70
     1
102
RTVSPropertyOp21
 70
     1
102
RTVSPropertyOp22
 70
     1
102
RTVSPropertyOp23
 70
     1
102
RTVSPropertyOp24
 70
     1
102
RTVSPropertyOp25
 70
     1
102
RTVSPropertyOp26
 70
     1
102
RTVSPropertyOp27
 70
     1
102
RTVSPropertyOp28
 70
     1
102
RTVSPropertyOp29
 70
     1
102
RTVSPropertyOp30
 70
     1
102
RTVSPropertyOp31
 70
     1
102
RTVSPropertyOp32
 70
     1
102
RTVSPropertyOp33
 70
     1
102
RTVSPropertyOp34
 70
     1
102
RTVSPropertyOp35
 70
     1
102
RTVSPropertyOp36
 70
     1
102
RTVSPropertyOp37
 70
     1
102
RTVSPropertyOp38
 70
     1
102
RTVSPropertyOp39
 70
     1
102
RTVSPropertyOp40
 70
     1
102
RTVSPropertyOp41
 70
     1
102
RTVSPropertyOp42
 70
     1
102
RTVSPropertyOp43
 70
     1
102
RTVSPropertyOp44
 70
     1
102
RTVSPropertyOp45
 70
     1
102
RTVSPropertyOp46
 70
     1
102
RTVSPropertyOp47
 70
     1
102
RTVSPropertyOp48
 70
     1
102
RTVSPropertyOp49
 70
     1
102
RTVSPropertyOp50
 70
     1
102
RTVSPropertyOp51
 70
     0
102
RTVSPropertyOp52
 70
     0
102
RTVSPropertyOp53
 70
     1
102
RTVSPropertyOp54
 70
     1
102
RTVSPropertyOp55
 70
     1
102
RTVSPropertyOp56
 70
     1
102
RTVSPropertyOp57
 70
     1
102
RTVSPropertyOp58
 70
     1
102
RTVSPropertyOp59
 70
     1
102
RTVSPropertyOp60
 70
     1
102
RTVSPropertyOp61
 70
     1
102
RTVSPropertyOp62
 70
     1
  0
XRECORD
  5
367
102
{ACAD_REACTORS
330
366
102
}
330
366
100
AcDbXrecord
280
     1
102
RTVSPost2010Prop28
280
     0
102
RTVSPost2010PropOp28
 70
     1
102
RTVSPost2010Prop29
280
     1
102
RTVSPost2010PropOp29
 70
     1
102
RTVSPost2010Prop30
280
     1
102
RTVSPost2010PropOp30
 70
     1
102
RTVSPost2010Prop31
280
     0
102
RTVSPost2010PropOp31
 70
     1
102
RTVSPost2010Prop32
280
     0
102
RTVSPost2010PropOp32
 70
     1
102
RTVSPost2010Prop33
280
     0
102
RTVSPost2010PropOp33
 70
     1
102
RTVSPost2010Prop34
280
     0
102
RTVSPost2010PropOp34
 70
     1
102
RTVSPost2010Prop35
280
     0
102
RTVSPost2010PropOp35
 70
     1
102
RTVSPost2010Prop36
280
     0
102
RTVSPost2010PropOp36
 70
     1
102
RTVSPost2010Prop37
 90
       50
102
RTVSPost2010PropOp37
 70
     1
102
RTVSPost2010Prop38
140
0.0
102
RTVSPost2010PropOp38
 70
     1
102
RTVSPost2010Prop39
140
1.0
102
RTVSPost2010PropOp39
 70
     1
102
RTVSPost2010Prop40
 90
        0
102
RTVSPost2010PropOp40
 70
     1
102
RTVSPost2010Prop41ColorIndex
 90
       18
102
RTVSPost2010Prop41ColorRGB
 90
        0
102
RTVSPost2010PropOp41
 70
     1
102
RTVSPost2010Prop42
 90
       50
102
RTVSPost2010PropOp42
 70
     1
102
RTVSPost2010Prop43
 90
        3
102
RTVSPost2010PropOp43
 70
     1
102
RTVSPost2010Prop44ColorIndex
 90
        5
102
RTVSPost2010Prop44ColorRGB
 90
      255
102
RTVSPost2010PropOp44
 70
     1
102
RTVSPost2010Prop45
280
     0
102
RTVSPost2010PropOp45
 70
     1
102
RTVSPost2010Prop46
 90
       50
102
RTVSPost2010PropOp46
 70
     1
102
RTVSPost2010Prop47
 90
       50
102
RTVSPost2010PropOp47
 70
     1
102
RTVSPost2010Prop48
 90
       50
102
RTVSPost2010PropOp48
 70
     1
102
RTVSPost2010Prop49
280
     0
102
RTVSPost2010PropOp49
 70
     1
102
RTVSPost2010Prop50
 90
       50
102
RTVSPost2010PropOp50
 70
     1
102
RTVSPost2010Prop51ColorIndex
 90
      256
102
RTVSPost2010Prop51ColorRGB
 90
-16777216
102
RTVSPost2010PropOp51
 70
     0
102
RTVSPost2010Prop52
140
1.0
102
RTVSPost2010PropOp52
 70
     0
102
RTVSPost2010Prop53
 90
        2
102
RTVSPost2010PropOp53
 70
     1
102
RTVSPost2010Prop54
  1
strokes_ogs.tif
102
RTVSPost2010PropOp54
 70
     1
102
RTVSPost2010Prop55
280
     0
102
RTVSPost2010PropOp55
 70
     1
102
RTVSPost2010Prop56
140
1.0
102
RTVSPost2010PropOp56
 70
     1
102
RTVSPost2010Prop57
140
1.0
102
RTVSPost2010PropOp57
 70
     1
102
RTVSPropertyOp0
 70
     1
102
RTVSPropertyOp1
 70
     1
102
RTVSPropertyOp2
 70
     1
102
RTVSPropertyOp3
 70
     1
102
RTVSPropertyOp4
 70
     1
102
RTVSPropertyOp5
 70
     1
102
RTVSPropertyOp6
 70
     1
102
RTVSPropertyOp7
 70
     1
102
RTVSPropertyOp8
 70
     1
102
RTVSPropertyOp9
 70
     1
102
RTVSPropertyOp10
 70
     1
102
RTVSPropertyOp11
 70
     1
102
RTVSPropertyOp12
 70
     1
102
RTVSPropertyOp13
 70
     1
102
RTVSPropertyOp14
 70
     1
102
RTVSPropertyOp15
 70
     1
102
RTVSPropertyOp16
 70
     1
102
RTVSPropertyOp17
 70
     1
102
RTVSPropertyOp18
 70
     1
102
RTVSPropertyOp19
 70
     1
102
RTVSPropertyOp20
 70
     1
102
RTVSPropertyOp21
 70
     1
102
RTVSPropertyOp22
 70
     1
102
RTVSPropertyOp23
 70
     1
102
RTVSPropertyOp24
 70
     1
102
RTVSPropertyOp25
 70
     1
102
RTVSPropertyOp26
 70
     1
102
RTVSPropertyOp27
 70
     1
102
RTVSPropertyOp28
 70
     1
102
RTVSPropertyOp29
 70
     1
102
RTVSPropertyOp30
 70
     1
102
RTVSPropertyOp31
 70
     1
102
RTVSPropertyOp32
 70
     1
102
RTVSPropertyOp33
 70
     1
102
RTVSPropertyOp34
 70
     1
102
RTVSPropertyOp35
 70
     1
102
RTVSPropertyOp36
 70
     1
102
RTVSPropertyOp37
 70
     1
102
RTVSPropertyOp38
 70
     1
102
RTVSPropertyOp39
 70
     1
102
RTVSPropertyOp40
 70
     1
102
RTVSPropertyOp41
 70
     1
102
RTVSPropertyOp42
 70
     1
102
RTVSPropertyOp43
 70
     1
102
RTVSPropertyOp44
 70
     1
102
RTVSPropertyOp45
 70
     1
102
RTVSPropertyOp46
 70
     1
102
RTVSPropertyOp47
 70
     1
102
RTVSPropertyOp48
 70
     1
102
RTVSPropertyOp49
 70
     1
102
RTVSPropertyOp50
 70
     1
102
RTVSPropertyOp51
 70
     0
102
RTVSPropertyOp52
 70
     0
102
RTVSPropertyOp53
 70
     1
102
RTVSPropertyOp54
 70
     1
102
RTVSPropertyOp55
 70
     1
102
RTVSPropertyOp56
 70
     1
102
RTVSPropertyOp57
 70
     1
102
RTVSPropertyOp58
 70
     1
102
RTVSPropertyOp59
 70
     1
102
RTVSPropertyOp60
 70
     1
102
RTVSPropertyOp61
 70
     1
102
RTVSPropertyOp62
 70
     1
  0
XRECORD
  5
369
102
{ACAD_REACTORS
330
368
102
}
330
368
100
AcDbXrecord
280
     1
102
RTVSPost2010Prop28
280
     0
102
RTVSPost2010PropOp28
 70
     1
102
RTVSPost2010Prop29
280
     1
102
RTVSPost2010PropOp29
 70
     1
102
RTVSPost2010Prop30
280
     1
102
RTVSPost2010PropOp30
 70
     1
102
RTVSPost2010Prop31
280
     0
102
RTVSPost2010PropOp31
 70
     1
102
RTVSPost2010Prop32
280
     0
102
RTVSPost2010PropOp32
 70
     1
102
RTVSPost2010Prop33
280
     0
102
RTVSPost2010PropOp33
 70
     1
102
RTVSPost2010Prop34
280
     0
102
RTVSPost2010PropOp34
 70
     1
102
RTVSPost2010Prop35
280
     0
102
RTVSPost2010PropOp35
 70
     1
102
RTVSPost2010Prop36
280
     0
102
RTVSPost2010PropOp36
 70
     1
102
RTVSPost2010Prop37
 90
       50
102
RTVSPost2010PropOp37
 70
     1
102
RTVSPost2010Prop38
140
0.0
102
RTVSPost2010PropOp38
 70
     1
102
RTVSPost2010Prop39
140
1.0
102
RTVSPost2010PropOp39
 70
     1
102
RTVSPost2010Prop40
 90
        0
102
RTVSPost2010PropOp40
 70
     1
102
RTVSPost2010Prop41ColorIndex
 90
       18
102
RTVSPost2010Prop41ColorRGB
 90
        0
102
RTVSPost2010PropOp41
 70
     1
102
RTVSPost2010Prop42
 90
       50
102
RTVSPost2010PropOp42
 70
     1
102
RTVSPost2010Prop43
 90
        3
102
RTVSPost2010PropOp43
 70
     1
102
RTVSPost2010Prop44ColorIndex
 90
        5
102
RTVSPost2010Prop44ColorRGB
 90
      255
102
RTVSPost2010PropOp44
 70
     1
102
RTVSPost2010Prop45
280
     0
102
RTVSPost2010PropOp45
 70
     1
102
RTVSPost2010Prop46
 90
       50
102
RTVSPost2010PropOp46
 70
     1
102
RTVSPost2010Prop47
 90
       50
102
RTVSPost2010PropOp47
 70
     1
102
RTVSPost2010Prop48
 90
       50
102
RTVSPost2010PropOp48
 70
     1
102
RTVSPost2010Prop49
280
     0
102
RTVSPost2010PropOp49
 70
     1
102
RTVSPost2010Prop50
 90
       50
102
RTVSPost2010PropOp50
 70
     1
102
RTVSPost2010Prop51ColorIndex
 90
      256
102
RTVSPost2010Prop51ColorRGB
 90
-16777216
102
RTVSPost2010PropOp51
 70
     0
102
RTVSPost2010Prop52
140
1.0
102
RTVSPost2010PropOp52
 70
     0
102
RTVSPost2010Prop53
 90
        2
102
RTVSPost2010PropOp53
 70
     1
102
RTVSPost2010Prop54
  1
strokes_ogs.tif
102
RTVSPost2010PropOp54
 70
     1
102
RTVSPost2010Prop55
280
     0
102
RTVSPost2010PropOp55
 70
     1
102
RTVSPost2010Prop56
140
1.0
102
RTVSPost2010PropOp56
 70
     1
102
RTVSPost2010Prop57
140
1.0
102
RTVSPost2010PropOp57
 70
     1
102
RTVSPropertyOp0
 70
     1
102
RTVSPropertyOp1
 70
     1
102
RTVSPropertyOp2
 70
     1
102
RTVSPropertyOp3
 70
     1
102
RTVSPropertyOp4
 70
     1
102
RTVSPropertyOp5
 70
     1
102
RTVSPropertyOp6
 70
     1
102
RTVSPropertyOp7
 70
     1
102
RTVSPropertyOp8
 70
     1
102
RTVSPropertyOp9
 70
     1
102
RTVSPropertyOp10
 70
     1
102
RTVSPropertyOp11
 70
     1
102
RTVSPropertyOp12
 70
     1
102
RTVSPropertyOp13
 70
     1
102
RTVSPropertyOp14
 70
     1
102
RTVSPropertyOp15
 70
     1
102
RTVSPropertyOp16
 70
     1
102
RTVSPropertyOp17
 70
     1
102
RTVSPropertyOp18
 70
     1
102
RTVSPropertyOp19
 70
     1
102
RTVSPropertyOp20
 70
     1
102
RTVSPropertyOp21
 70
     1
102
RTVSPropertyOp22
 70
     1
102
RTVSPropertyOp23
 70
     1
102
RTVSPropertyOp24
 70
     1
102
RTVSPropertyOp25
 70
     1
102
RTVSPropertyOp26
 70
     1
102
RTVSPropertyOp27
 70
     1
102
RTVSPropertyOp28
 70
     1
102
RTVSPropertyOp29
 70
     1
102
RTVSPropertyOp30
 70
     1
102
RTVSPropertyOp31
 70
     1
102
RTVSPropertyOp32
 70
     1
102
RTVSPropertyOp33
 70
     1
102
RTVSPropertyOp34
 70
     1
102
RTVSPropertyOp35
 70
     1
102
RTVSPropertyOp36
 70
     1
102
RTVSPropertyOp37
 70
     1
102
RTVSPropertyOp38
 70
     1
102
RTVSPropertyOp39
 70
     1
102
RTVSPropertyOp40
 70
     1
102
RTVSPropertyOp41
 70
     1
102
RTVSPropertyOp42
 70
     1
102
RTVSPropertyOp43
 70
     1
102
RTVSPropertyOp44
 70
     1
102
RTVSPropertyOp45
 70
     1
102
RTVSPropertyOp46
 70
     1
102
RTVSPropertyOp47
 70
     1
102
RTVSPropertyOp48
 70
     1
102
RTVSPropertyOp49
 70
     1
102
RTVSPropertyOp50
 70
     1
102
RTVSPropertyOp51
 70
     0
102
RTVSPropertyOp52
 70
     0
102
RTVSPropertyOp53
 70
     1
102
RTVSPropertyOp54
 70
     1
102
RTVSPropertyOp55
 70
     1
102
RTVSPropertyOp56
 70
     1
102
RTVSPropertyOp57
 70
     1
102
RTVSPropertyOp58
 70
     1
102
RTVSPropertyOp59
 70
     1
102
RTVSPropertyOp60
 70
     1
102
RTVSPropertyOp61
 70
     1
102
RTVSPropertyOp62
 70
     1
  0
XRECORD
  5
36B
102
{ACAD_REACTORS
330
36A
102
}
330
36A
100
AcDbXrecord
280
     1
102
RTVSPost2010Prop28
280
     0
102
RTVSPost2010PropOp28
 70
     1
102
RTVSPost2010Prop29
280
     1
102
RTVSPost2010PropOp29
 70
     1
102
RTVSPost2010Prop30
280
     1
102
RTVSPost2010PropOp30
 70
     1
102
RTVSPost2010Prop31
280
     0
102
RTVSPost2010PropOp31
 70
     1
102
RTVSPost2010Prop32
280
     0
102
RTVSPost2010PropOp32
 70
     1
102
RTVSPost2010Prop33
280
     0
102
RTVSPost2010PropOp33
 70
     1
102
RTVSPost2010Prop34
280
     0
102
RTVSPost2010PropOp34
 70
     1
102
RTVSPost2010Prop35
280
     0
102
RTVSPost2010PropOp35
 70
     1
102
RTVSPost2010Prop36
280
     0
102
RTVSPost2010PropOp36
 70
     1
102
RTVSPost2010Prop37
 90
       50
102
RTVSPost2010PropOp37
 70
     1
102
RTVSPost2010Prop38
140
0.0
102
RTVSPost2010PropOp38
 70
     1
102
RTVSPost2010Prop39
140
1.0
102
RTVSPost2010PropOp39
 70
     1
102
RTVSPost2010Prop40
 90
        0
102
RTVSPost2010PropOp40
 70
     1
102
RTVSPost2010Prop41ColorIndex
 90
       18
102
RTVSPost2010Prop41ColorRGB
 90
        0
102
RTVSPost2010PropOp41
 70
     1
102
RTVSPost2010Prop42
 90
       50
102
RTVSPost2010PropOp42
 70
     1
102
RTVSPost2010Prop43
 90
        3
102
RTVSPost2010PropOp43
 70
     1
102
RTVSPost2010Prop44ColorIndex
 90
        5
102
RTVSPost2010Prop44ColorRGB
 90
      255
102
RTVSPost2010PropOp44
 70
     1
102
RTVSPost2010Prop45
280
     0
102
RTVSPost2010PropOp45
 70
     1
102
RTVSPost2010Prop46
 90
       50
102
RTVSPost2010PropOp46
 70
     1
102
RTVSPost2010Prop47
 90
       50
102
RTVSPost2010PropOp47
 70
     1
102
RTVSPost2010Prop48
 90
       50
102
RTVSPost2010PropOp48
 70
     1
102
RTVSPost2010Prop49
280
     0
102
RTVSPost2010PropOp49
 70
     1
102
RTVSPost2010Prop50
 90
       50
102
RTVSPost2010PropOp50
 70
     1
102
RTVSPost2010Prop51ColorIndex
 90
      256
102
RTVSPost2010Prop51ColorRGB
 90
-16777216
102
RTVSPost2010PropOp51
 70
     0
102
RTVSPost2010Prop52
140
1.0
102
RTVSPost2010PropOp52
 70
     0
102
RTVSPost2010Prop53
 90
        2
102
RTVSPost2010PropOp53
 70
     1
102
RTVSPost2010Prop54
  1
strokes_ogs.tif
102
RTVSPost2010PropOp54
 70
     1
102
RTVSPost2010Prop55
280
     0
102
RTVSPost2010PropOp55
 70
     1
102
RTVSPost2010Prop56
140
1.0
102
RTVSPost2010PropOp56
 70
     1
102
RTVSPost2010Prop57
140
1.0
102
RTVSPost2010PropOp57
 70
     1
102
RTVSPropertyOp0
 70
     1
102
RTVSPropertyOp1
 70
     1
102
RTVSPropertyOp2
 70
     1
102
RTVSPropertyOp3
 70
     1
102
RTVSPropertyOp4
 70
     1
102
RTVSPropertyOp5
 70
     1
102
RTVSPropertyOp6
 70
     1
102
RTVSPropertyOp7
 70
     1
102
RTVSPropertyOp8
 70
     1
102
RTVSPropertyOp9
 70
     1
102
RTVSPropertyOp10
 70
     1
102
RTVSPropertyOp11
 70
     1
102
RTVSPropertyOp12
 70
     1
102
RTVSPropertyOp13
 70
     1
102
RTVSPropertyOp14
 70
     1
102
RTVSPropertyOp15
 70
     1
102
RTVSPropertyOp16
 70
     1
102
RTVSPropertyOp17
 70
     1
102
RTVSPropertyOp18
 70
     1
102
RTVSPropertyOp19
 70
     1
102
RTVSPropertyOp20
 70
     1
102
RTVSPropertyOp21
 70
     1
102
RTVSPropertyOp22
 70
     1
102
RTVSPropertyOp23
 70
     1
102
RTVSPropertyOp24
 70
     1
102
RTVSPropertyOp25
 70
     1
102
RTVSPropertyOp26
 70
     1
102
RTVSPropertyOp27
 70
     1
102
RTVSPropertyOp28
 70
     1
102
RTVSPropertyOp29
 70
     1
102
RTVSPropertyOp30
 70
     1
102
RTVSPropertyOp31
 70
     1
102
RTVSPropertyOp32
 70
     1
102
RTVSPropertyOp33
 70
     1
102
RTVSPropertyOp34
 70
     1
102
RTVSPropertyOp35
 70
     1
102
RTVSPropertyOp36
 70
     1
102
RTVSPropertyOp37
 70
     1
102
RTVSPropertyOp38
 70
     1
102
RTVSPropertyOp39
 70
     1
102
RTVSPropertyOp40
 70
     1
102
RTVSPropertyOp41
 70
     1
102
RTVSPropertyOp42
 70
     1
102
RTVSPropertyOp43
 70
     1
102
RTVSPropertyOp44
 70
     1
102
RTVSPropertyOp45
 70
     1
102
RTVSPropertyOp46
 70
     1
102
RTVSPropertyOp47
 70
     1
102
RTVSPropertyOp48
 70
     1
102
RTVSPropertyOp49
 70
     1
102
RTVSPropertyOp50
 70
     1
102
RTVSPropertyOp51
 70
     0
102
RTVSPropertyOp52
 70
     0
102
RTVSPropertyOp53
 70
     1
102
RTVSPropertyOp54
 70
     1
102
RTVSPropertyOp55
 70
     1
102
RTVSPropertyOp56
 70
     1
102
RTVSPropertyOp57
 70
     1
102
RTVSPropertyOp58
 70
     1
102
RTVSPropertyOp59
 70
     1
102
RTVSPropertyOp60
 70
     1
102
RTVSPropertyOp61
 70
     1
102
RTVSPropertyOp62
 70
     1
  0
XRECORD
  5
36D
102
{ACAD_REACTORS
330
36C
102
}
330
36C
100
AcDbXrecord
280
     1
102
RTVSPost2010Prop28
280
     0
102
RTVSPost2010PropOp28
 70
     1
102
RTVSPost2010Prop29
280
     1
102
RTVSPost2010PropOp29
 70
     1
102
RTVSPost2010Prop30
280
     1
102
RTVSPost2010PropOp30
 70
     1
102
RTVSPost2010Prop31
280
     0
102
RTVSPost2010PropOp31
 70
     1
102
RTVSPost2010Prop32
280
     0
102
RTVSPost2010PropOp32
 70
     1
102
RTVSPost2010Prop33
280
     0
102
RTVSPost2010PropOp33
 70
     1
102
RTVSPost2010Prop34
280
     0
102
RTVSPost2010PropOp34
 70
     1
102
RTVSPost2010Prop35
280
     0
102
RTVSPost2010PropOp35
 70
     1
102
RTVSPost2010Prop36
280
     0
102
RTVSPost2010PropOp36
 70
     1
102
RTVSPost2010Prop37
 90
       50
102
RTVSPost2010PropOp37
 70
     1
102
RTVSPost2010Prop38
140
0.0
102
RTVSPost2010PropOp38
 70
     1
102
RTVSPost2010Prop39
140
1.0
102
RTVSPost2010PropOp39
 70
     1
102
RTVSPost2010Prop40
 90
        0
102
RTVSPost2010PropOp40
 70
     1
102
RTVSPost2010Prop41ColorIndex
 90
       18
102
RTVSPost2010Prop41ColorRGB
 90
        0
102
RTVSPost2010PropOp41
 70
     1
102
RTVSPost2010Prop42
 90
       50
102
RTVSPost2010PropOp42
 70
     1
102
RTVSPost2010Prop43
 90
        3
102
RTVSPost2010PropOp43
 70
     1
102
RTVSPost2010Prop44ColorIndex
 90
        5
102
RTVSPost2010Prop44ColorRGB
 90
      255
102
RTVSPost2010PropOp44
 70
     1
102
RTVSPost2010Prop45
280
     0
102
RTVSPost2010PropOp45
 70
     1
102
RTVSPost2010Prop46
 90
       50
102
RTVSPost2010PropOp46
 70
     1
102
RTVSPost2010Prop47
 90
       50
102
RTVSPost2010PropOp47
 70
     1
102
RTVSPost2010Prop48
 90
       50
102
RTVSPost2010PropOp48
 70
     1
102
RTVSPost2010Prop49
280
     0
102
RTVSPost2010PropOp49
 70
     1
102
RTVSPost2010Prop50
 90
       50
102
RTVSPost2010PropOp50
 70
     1
102
RTVSPost2010Prop51ColorIndex
 90
      256
102
RTVSPost2010Prop51ColorRGB
 90
-16777216
102
RTVSPost2010PropOp51
 70
     0
102
RTVSPost2010Prop52
140
1.0
102
RTVSPost2010PropOp52
 70
     0
102
RTVSPost2010Prop53
 90
        2
102
RTVSPost2010PropOp53
 70
     1
102
RTVSPost2010Prop54
  1
strokes_ogs.tif
102
RTVSPost2010PropOp54
 70
     1
102
RTVSPost2010Prop55
280
     0
102
RTVSPost2010PropOp55
 70
     1
102
RTVSPost2010Prop56
140
1.0
102
RTVSPost2010PropOp56
 70
     1
102
RTVSPost2010Prop57
140
1.0
102
RTVSPost2010PropOp57
 70
     1
102
RTVSPropertyOp0
 70
     1
102
RTVSPropertyOp1
 70
     1
102
RTVSPropertyOp2
 70
     1
102
RTVSPropertyOp3
 70
     1
102
RTVSPropertyOp4
 70
     1
102
RTVSPropertyOp5
 70
     1
102
RTVSPropertyOp6
 70
     1
102
RTVSPropertyOp7
 70
     1
102
RTVSPropertyOp8
 70
     1
102
RTVSPropertyOp9
 70
     1
102
RTVSPropertyOp10
 70
     1
102
RTVSPropertyOp11
 70
     1
102
RTVSPropertyOp12
 70
     1
102
RTVSPropertyOp13
 70
     1
102
RTVSPropertyOp14
 70
     1
102
RTVSPropertyOp15
 70
     1
102
RTVSPropertyOp16
 70
     1
102
RTVSPropertyOp17
 70
     1
102
RTVSPropertyOp18
 70
     1
102
RTVSPropertyOp19
 70
     1
102
RTVSPropertyOp20
 70
     1
102
RTVSPropertyOp21
 70
     1
102
RTVSPropertyOp22
 70
     1
102
RTVSPropertyOp23
 70
     1
102
RTVSPropertyOp24
 70
     1
102
RTVSPropertyOp25
 70
     1
102
RTVSPropertyOp26
 70
     1
102
RTVSPropertyOp27
 70
     1
102
RTVSPropertyOp28
 70
     1
102
RTVSPropertyOp29
 70
     1
102
RTVSPropertyOp30
 70
     1
102
RTVSPropertyOp31
 70
     1
102
RTVSPropertyOp32
 70
     1
102
RTVSPropertyOp33
 70
     1
102
RTVSPropertyOp34
 70
     1
102
RTVSPropertyOp35
 70
     1
102
RTVSPropertyOp36
 70
     1
102
RTVSPropertyOp37
 70
     1
102
RTVSPropertyOp38
 70
     1
102
RTVSPropertyOp39
 70
     1
102
RTVSPropertyOp40
 70
     1
102
RTVSPropertyOp41
 70
     1
102
RTVSPropertyOp42
 70
     1
102
RTVSPropertyOp43
 70
     1
102
RTVSPropertyOp44
 70
     1
102
RTVSPropertyOp45
 70
     1
102
RTVSPropertyOp46
 70
     1
102
RTVSPropertyOp47
 70
     1
102
RTVSPropertyOp48
 70
     1
102
RTVSPropertyOp49
 70
     1
102
RTVSPropertyOp50
 70
     1
102
RTVSPropertyOp51
 70
     0
102
RTVSPropertyOp52
 70
     0
102
RTVSPropertyOp53
 70
     1
102
RTVSPropertyOp54
 70
     1
102
RTVSPropertyOp55
 70
     1
102
RTVSPropertyOp56
 70
     1
102
RTVSPropertyOp57
 70
     1
102
RTVSPropertyOp58
 70
     1
102
RTVSPropertyOp59
 70
     1
102
RTVSPropertyOp60
 70
     1
102
RTVSPropertyOp61
 70
     1
102
RTVSPropertyOp62
 70
     1
  0
XRECORD
  5
373
102
{ACAD_REACTORS
330
372
102
}
330
372
100
AcDbXrecord
280
     1
102
RTVSPost2010Prop28
280
     0
102
RTVSPost2010PropOp28
 70
     1
102
RTVSPost2010Prop29
280
     1
102
RTVSPost2010PropOp29
 70
     1
102
RTVSPost2010Prop30
280
     1
102
RTVSPost2010PropOp30
 70
     1
102
RTVSPost2010Prop31
280
     0
102
RTVSPost2010PropOp31
 70
     1
102
RTVSPost2010Prop32
280
     0
102
RTVSPost2010PropOp32
 70
     1
102
RTVSPost2010Prop33
280
     0
102
RTVSPost2010PropOp33
 70
     1
102
RTVSPost2010Prop34
280
     0
102
RTVSPost2010PropOp34
 70
     1
102
RTVSPost2010Prop35
280
     0
102
RTVSPost2010PropOp35
 70
     1
102
RTVSPost2010Prop36
280
     0
102
RTVSPost2010PropOp36
 70
     1
102
RTVSPost2010Prop37
 90
       50
102
RTVSPost2010PropOp37
 70
     1
102
RTVSPost2010Prop38
140
0.0
102
RTVSPost2010PropOp38
 70
     1
102
RTVSPost2010Prop39
140
1.0
102
RTVSPost2010PropOp39
 70
     1
102
RTVSPost2010Prop40
 90
        0
102
RTVSPost2010PropOp40
 70
     1
102
RTVSPost2010Prop41ColorIndex
 90
       18
102
RTVSPost2010Prop41ColorRGB
 90
        0
102
RTVSPost2010PropOp41
 70
     1
102
RTVSPost2010Prop42
 90
       50
102
RTVSPost2010PropOp42
 70
     1
102
RTVSPost2010Prop43
 90
        3
102
RTVSPost2010PropOp43
 70
     1
102
RTVSPost2010Prop44ColorIndex
 90
        5
102
RTVSPost2010Prop44ColorRGB
 90
      255
102
RTVSPost2010PropOp44
 70
     1
102
RTVSPost2010Prop45
280
     0
102
RTVSPost2010PropOp45
 70
     1
102
RTVSPost2010Prop46
 90
       50
102
RTVSPost2010PropOp46
 70
     1
102
RTVSPost2010Prop47
 90
       50
102
RTVSPost2010PropOp47
 70
     1
102
RTVSPost2010Prop48
 90
       50
102
RTVSPost2010PropOp48
 70
     1
102
RTVSPost2010Prop49
280
     0
102
RTVSPost2010PropOp49
 70
     1
102
RTVSPost2010Prop50
 90
       50
102
RTVSPost2010PropOp50
 70
     1
102
RTVSPost2010Prop51ColorIndex
 90
      256
102
RTVSPost2010Prop51ColorRGB
 90
-16777216
102
RTVSPost2010PropOp51
 70
     0
102
RTVSPost2010Prop52
140
1.0
102
RTVSPost2010PropOp52
 70
     0
102
RTVSPost2010Prop53
 90
        2
102
RTVSPost2010PropOp53
 70
     1
102
RTVSPost2010Prop54
  1
strokes_ogs.tif
102
RTVSPost2010PropOp54
 70
     1
102
RTVSPost2010Prop55
280
     0
102
RTVSPost2010PropOp55
 70
     1
102
RTVSPost2010Prop56
140
1.0
102
RTVSPost2010PropOp56
 70
     1
102
RTVSPost2010Prop57
140
1.0
102
RTVSPost2010PropOp57
 70
     1
102
RTVSPropertyOp0
 70
     1
102
RTVSPropertyOp1
 70
     1
102
RTVSPropertyOp2
 70
     1
102
RTVSPropertyOp3
 70
     1
102
RTVSPropertyOp4
 70
     1
102
RTVSPropertyOp5
 70
     1
102
RTVSPropertyOp6
 70
     1
102
RTVSPropertyOp7
 70
     1
102
RTVSPropertyOp8
 70
     1
102
RTVSPropertyOp9
 70
     1
102
RTVSPropertyOp10
 70
     1
102
RTVSPropertyOp11
 70
     1
102
RTVSPropertyOp12
 70
     1
102
RTVSPropertyOp13
 70
     1
102
RTVSPropertyOp14
 70
     1
102
RTVSPropertyOp15
 70
     1
102
RTVSPropertyOp16
 70
     1
102
RTVSPropertyOp17
 70
     1
102
RTVSPropertyOp18
 70
     1
102
RTVSPropertyOp19
 70
     1
102
RTVSPropertyOp20
 70
     1
102
RTVSPropertyOp21
 70
     1
102
RTVSPropertyOp22
 70
     1
102
RTVSPropertyOp23
 70
     1
102
RTVSPropertyOp24
 70
     1
102
RTVSPropertyOp25
 70
     1
102
RTVSPropertyOp26
 70
     1
102
RTVSPropertyOp27
 70
     1
102
RTVSPropertyOp28
 70
     1
102
RTVSPropertyOp29
 70
     1
102
RTVSPropertyOp30
 70
     1
102
RTVSPropertyOp31
 70
     1
102
RTVSPropertyOp32
 70
     1
102
RTVSPropertyOp33
 70
     1
102
RTVSPropertyOp34
 70
     1
102
RTVSPropertyOp35
 70
     1
102
RTVSPropertyOp36
 70
     1
102
RTVSPropertyOp37
 70
     1
102
RTVSPropertyOp38
 70
     1
102
RTVSPropertyOp39
 70
     1
102
RTVSPropertyOp40
 70
     1
102
RTVSPropertyOp41
 70
     1
102
RTVSPropertyOp42
 70
     1
102
RTVSPropertyOp43
 70
     1
102
RTVSPropertyOp44
 70
     1
102
RTVSPropertyOp45
 70
     1
102
RTVSPropertyOp46
 70
     1
102
RTVSPropertyOp47
 70
     1
102
RTVSPropertyOp48
 70
     1
102
RTVSPropertyOp49
 70
     1
102
RTVSPropertyOp50
 70
     1
102
RTVSPropertyOp51
 70
     0
102
RTVSPropertyOp52
 70
     0
102
RTVSPropertyOp53
 70
     1
102
RTVSPropertyOp54
 70
     1
102
RTVSPropertyOp55
 70
     1
102
RTVSPropertyOp56
 70
     1
102
RTVSPropertyOp57
 70
     1
102
RTVSPropertyOp58
 70
     1
102
RTVSPropertyOp59
 70
     1
102
RTVSPropertyOp60
 70
     1
102
RTVSPropertyOp61
 70
     1
102
RTVSPropertyOp62
 70
     1
  0
XRECORD
  5
387
102
{ACAD_REACTORS
330
386
102
}
330
386
100
AcDbXrecord
280
     1
102
RTVSPost2010Prop28
280
     0
102
RTVSPost2010PropOp28
 70
     0
102
RTVSPost2010Prop29
280
     1
102
RTVSPost2010PropOp29
 70
     0
102
RTVSPost2010Prop30
280
     1
102
RTVSPost2010PropOp30
 70
     0
102
RTVSPost2010Prop31
280
     0
102
RTVSPost2010PropOp31
 70
     0
102
RTVSPost2010Prop32
280
     0
102
RTVSPost2010PropOp32
 70
     0
102
RTVSPost2010Prop33
280
     0
102
RTVSPost2010PropOp33
 70
     0
102
RTVSPost2010Prop34
280
     0
102
RTVSPost2010PropOp34
 70
     0
102
RTVSPost2010Prop35
280
     0
102
RTVSPost2010PropOp35
 70
     0
102
RTVSPost2010Prop36
280
     0
102
RTVSPost2010PropOp36
 70
     0
102
RTVSPost2010Prop37
 90
       50
102
RTVSPost2010PropOp37
 70
     0
102
RTVSPost2010Prop38
140
0.0
102
RTVSPost2010PropOp38
 70
     0
102
RTVSPost2010Prop39
140
1.0
102
RTVSPost2010PropOp39
 70
     0
102
RTVSPost2010Prop40
 90
        0
102
RTVSPost2010PropOp40
 70
     0
102
RTVSPost2010Prop41ColorIndex
 90
       18
102
RTVSPost2010Prop41ColorRGB
 90
        0
102
RTVSPost2010PropOp41
 70
     0
102
RTVSPost2010Prop42
 90
       50
102
RTVSPost2010PropOp42
 70
     0
102
RTVSPost2010Prop43
 90
        3
102
RTVSPost2010PropOp43
 70
     0
102
RTVSPost2010Prop44ColorIndex
 90
        5
102
RTVSPost2010Prop44ColorRGB
 90
      255
102
RTVSPost2010PropOp44
 70
     0
102
RTVSPost2010Prop45
280
     0
102
RTVSPost2010PropOp45
 70
     0
102
RTVSPost2010Prop46
 90
       50
102
RTVSPost2010PropOp46
 70
     0
102
RTVSPost2010Prop47
 90
       50
102
RTVSPost2010PropOp47
 70
     0
102
RTVSPost2010Prop48
 90
       50
102
RTVSPost2010PropOp48
 70
     0
102
RTVSPost2010Prop49
280
     0
102
RTVSPost2010PropOp49
 70
     0
102
RTVSPost2010Prop50
 90
       50
102
RTVSPost2010PropOp50
 70
     0
102
RTVSPost2010Prop51ColorIndex
 90
      256
102
RTVSPost2010Prop51ColorRGB
 90
-16777216
102
RTVSPost2010PropOp51
 70
     0
102
RTVSPost2010Prop52
140
1.0
102
RTVSPost2010PropOp52
 70
     0
102
RTVSPost2010Prop53
 90
        2
102
RTVSPost2010PropOp53
 70
     0
102
RTVSPost2010Prop54
  1
strokes_ogs.tif
102
RTVSPost2010PropOp54
 70
     0
102
RTVSPost2010Prop55
280
     0
102
RTVSPost2010PropOp55
 70
     0
102
RTVSPost2010Prop56
140
1.0
102
RTVSPost2010PropOp56
 70
     0
102
RTVSPost2010Prop57
140
1.0
102
RTVSPost2010PropOp57
 70
     0
102
RTVSPropertyOp0
 70
     0
102
RTVSPropertyOp1
 70
     0
102
RTVSPropertyOp2
 70
     0
102
RTVSPropertyOp3
 70
     0
102
RTVSPropertyOp4
 70
     0
102
RTVSPropertyOp5
 70
     0
102
RTVSPropertyOp6
 70
     0
102
RTVSPropertyOp7
 70
     0
102
RTVSPropertyOp8
 70
     0
102
RTVSPropertyOp9
 70
     0
102
RTVSPropertyOp10
 70
     0
102
RTVSPropertyOp11
 70
     0
102
RTVSPropertyOp12
 70
     0
102
RTVSPropertyOp13
 70
     0
102
RTVSPropertyOp14
 70
     2
102
RTVSPropertyOp15
 70
     0
102
RTVSPropertyOp16
 70
     0
102
RTVSPropertyOp17
 70
     0
102
RTVSPropertyOp18
 70
     0
102
RTVSPropertyOp19
 70
     0
102
RTVSPropertyOp20
 70
     0
102
RTVSPropertyOp21
 70
     0
102
RTVSPropertyOp22
 70
     0
102
RTVSPropertyOp23
 70
     0
102
RTVSPropertyOp24
 70
     0
102
RTVSPropertyOp25
 70
     0
102
RTVSPropertyOp26
 70
     0
102
RTVSPropertyOp27
 70
     0
102
RTVSPropertyOp28
 70
     0
102
RTVSPropertyOp29
 70
     0
102
RTVSPropertyOp30
 70
     0
102
RTVSPropertyOp31
 70
     0
102
RTVSPropertyOp32
 70
     0
102
RTVSPropertyOp33
 70
     0
102
RTVSPropertyOp34
 70
     0
102
RTVSPropertyOp35
 70
     0
102
RTVSPropertyOp36
 70
     0
102
RTVSPropertyOp37
 70
     0
102
RTVSPropertyOp38
 70
     0
102
RTVSPropertyOp39
 70
     0
102
RTVSPropertyOp40
 70
     0
102
RTVSPropertyOp41
 70
     0
102
RTVSPropertyOp42
 70
     0
102
RTVSPropertyOp43
 70
     0
102
RTVSPropertyOp44
 70
     0
102
RTVSPropertyOp45
 70
     0
102
RTVSPropertyOp46
 70
     0
102
RTVSPropertyOp47
 70
     0
102
RTVSPropertyOp48
 70
     0
102
RTVSPropertyOp49
 70
     0
102
RTVSPropertyOp50
 70
     0
102
RTVSPropertyOp51
 70
     0
102
RTVSPropertyOp52
 70
     0
102
RTVSPropertyOp53
 70
     0
102
RTVSPropertyOp54
 70
     0
102
RTVSPropertyOp55
 70
     0
102
RTVSPropertyOp56
 70
     0
102
RTVSPropertyOp57
 70
     0
102
RTVSPropertyOp58
 70
     1
102
RTVSPropertyOp59
 70
     1
102
RTVSPropertyOp60
 70
     1
102
RTVSPropertyOp61
 70
     1
102
RTVSPropertyOp62
 70
     1
  0
XRECORD
  5
381
102
{ACAD_REACTORS
330
380
102
}
330
380
100
AcDbXrecord
280
     1
102
RTVSPost2010Prop28
280
     0
102
RTVSPost2010PropOp28
 70
     1
102
RTVSPost2010Prop29
280
     1
102
RTVSPost2010PropOp29
 70
     1
102
RTVSPost2010Prop30
280
     1
102
RTVSPost2010PropOp30
 70
     1
102
RTVSPost2010Prop31
280
     0
102
RTVSPost2010PropOp31
 70
     1
102
RTVSPost2010Prop32
280
     0
102
RTVSPost2010PropOp32
 70
     1
102
RTVSPost2010Prop33
280
     0
102
RTVSPost2010PropOp33
 70
     1
102
RTVSPost2010Prop34
280
     0
102
RTVSPost2010PropOp34
 70
     1
102
RTVSPost2010Prop35
280
     0
102
RTVSPost2010PropOp35
 70
     1
102
RTVSPost2010Prop36
280
     0
102
RTVSPost2010PropOp36
 70
     1
102
RTVSPost2010Prop37
 90
       50
102
RTVSPost2010PropOp37
 70
     1
102
RTVSPost2010Prop38
140
0.0
102
RTVSPost2010PropOp38
 70
     1
102
RTVSPost2010Prop39
140
1.0
102
RTVSPost2010PropOp39
 70
     1
102
RTVSPost2010Prop40
 90
        0
102
RTVSPost2010PropOp40
 70
     1
102
RTVSPost2010Prop41ColorIndex
 90
       18
102
RTVSPost2010Prop41ColorRGB
 90
        0
102
RTVSPost2010PropOp41
 70
     1
102
RTVSPost2010Prop42
 90
       50
102
RTVSPost2010PropOp42
 70
     1
102
RTVSPost2010Prop43
 90
        3
102
RTVSPost2010PropOp43
 70
     1
102
RTVSPost2010Prop44ColorIndex
 90
        5
102
RTVSPost2010Prop44ColorRGB
 90
      255
102
RTVSPost2010PropOp44
 70
     1
102
RTVSPost2010Prop45
280
     0
102
RTVSPost2010PropOp45
 70
     1
102
RTVSPost2010Prop46
 90
       50
102
RTVSPost2010PropOp46
 70
     1
102
RTVSPost2010Prop47
 90
       50
102
RTVSPost2010PropOp47
 70
     1
102
RTVSPost2010Prop48
 90
       50
102
RTVSPost2010PropOp48
 70
     1
102
RTVSPost2010Prop49
280
     0
102
RTVSPost2010PropOp49
 70
     1
102
RTVSPost2010Prop50
 90
       50
102
RTVSPost2010PropOp50
 70
     1
102
RTVSPost2010Prop51ColorIndex
 90
      256
102
RTVSPost2010Prop51ColorRGB
 90
-16777216
102
RTVSPost2010PropOp51
 70
     0
102
RTVSPost2010Prop52
140
1.0
102
RTVSPost2010PropOp52
 70
     0
102
RTVSPost2010Prop53
 90
        2
102
RTVSPost2010PropOp53
 70
     1
102
RTVSPost2010Prop54
  1
strokes_ogs.tif
102
RTVSPost2010PropOp54
 70
     1
102
RTVSPost2010Prop55
280
     0
102
RTVSPost2010PropOp55
 70
     1
102
RTVSPost2010Prop56
140
1.0
102
RTVSPost2010PropOp56
 70
     1
102
RTVSPost2010Prop57
140
1.0
102
RTVSPost2010PropOp57
 70
     1
102
RTVSPropertyOp0
 70
     1
102
RTVSPropertyOp1
 70
     1
102
RTVSPropertyOp2
 70
     1
102
RTVSPropertyOp3
 70
     1
102
RTVSPropertyOp4
 70
     1
102
RTVSPropertyOp5
 70
     1
102
RTVSPropertyOp6
 70
     1
102
RTVSPropertyOp7
 70
     1
102
RTVSPropertyOp8
 70
     1
102
RTVSPropertyOp9
 70
     1
102
RTVSPropertyOp10
 70
     1
102
RTVSPropertyOp11
 70
     1
102
RTVSPropertyOp12
 70
     1
102
RTVSPropertyOp13
 70
     1
102
RTVSPropertyOp14
 70
     1
102
RTVSPropertyOp15
 70
     1
102
RTVSPropertyOp16
 70
     1
102
RTVSPropertyOp17
 70
     1
102
RTVSPropertyOp18
 70
     1
102
RTVSPropertyOp19
 70
     1
102
RTVSPropertyOp20
 70
     1
102
RTVSPropertyOp21
 70
     1
102
RTVSPropertyOp22
 70
     1
102
RTVSPropertyOp23
 70
     1
102
RTVSPropertyOp24
 70
     1
102
RTVSPropertyOp25
 70
     1
102
RTVSPropertyOp26
 70
     1
102
RTVSPropertyOp27
 70
     1
102
RTVSPropertyOp28
 70
     1
102
RTVSPropertyOp29
 70
     1
102
RTVSPropertyOp30
 70
     1
102
RTVSPropertyOp31
 70
     1
102
RTVSPropertyOp32
 70
     1
102
RTVSPropertyOp33
 70
     1
102
RTVSPropertyOp34
 70
     1
102
RTVSPropertyOp35
 70
     1
102
RTVSPropertyOp36
 70
     1
102
RTVSPropertyOp37
 70
     1
102
RTVSPropertyOp38
 70
     1
102
RTVSPropertyOp39
 70
     1
102
RTVSPropertyOp40
 70
     1
102
RTVSPropertyOp41
 70
     1
102
RTVSPropertyOp42
 70
     1
102
RTVSPropertyOp43
 70
     1
102
RTVSPropertyOp44
 70
     1
102
RTVSPropertyOp45
 70
     1
102
RTVSPropertyOp46
 70
     1
102
RTVSPropertyOp47
 70
     1
102
RTVSPropertyOp48
 70
     1
102
RTVSPropertyOp49
 70
     1
102
RTVSPropertyOp50
 70
     1
102
RTVSPropertyOp51
 70
     0
102
RTVSPropertyOp52
 70
     0
102
RTVSPropertyOp53
 70
     1
102
RTVSPropertyOp54
 70
     1
102
RTVSPropertyOp55
 70
     1
102
RTVSPropertyOp56
 70
     1
102
RTVSPropertyOp57
 70
     1
102
RTVSPropertyOp58
 70
     1
102
RTVSPropertyOp59
 70
     1
102
RTVSPropertyOp60
 70
     1
102
RTVSPropertyOp61
 70
     1
102
RTVSPropertyOp62
 70
     1
  0
XRECORD
  5
389
102
{ACAD_REACTORS
330
388
102
}
330
388
100
AcDbXrecord
280
     1
102
RTVSPost2010Prop28
280
     0
102
RTVSPost2010PropOp28
 70
     0
102
RTVSPost2010Prop29
280
     1
102
RTVSPost2010PropOp29
 70
     0
102
RTVSPost2010Prop30
280
     1
102
RTVSPost2010PropOp30
 70
     0
102
RTVSPost2010Prop31
280
     0
102
RTVSPost2010PropOp31
 70
     0
102
RTVSPost2010Prop32
280
     0
102
RTVSPost2010PropOp32
 70
     0
102
RTVSPost2010Prop33
280
     0
102
RTVSPost2010PropOp33
 70
     0
102
RTVSPost2010Prop34
280
     0
102
RTVSPost2010PropOp34
 70
     0
102
RTVSPost2010Prop35
280
     0
102
RTVSPost2010PropOp35
 70
     0
102
RTVSPost2010Prop36
280
     0
102
RTVSPost2010PropOp36
 70
     0
102
RTVSPost2010Prop37
 90
       50
102
RTVSPost2010PropOp37
 70
     0
102
RTVSPost2010Prop38
140
0.0
102
RTVSPost2010PropOp38
 70
     0
102
RTVSPost2010Prop39
140
1.0
102
RTVSPost2010PropOp39
 70
     0
102
RTVSPost2010Prop40
 90
        0
102
RTVSPost2010PropOp40
 70
     0
102
RTVSPost2010Prop41ColorIndex
 90
       18
102
RTVSPost2010Prop41ColorRGB
 90
        0
102
RTVSPost2010PropOp41
 70
     0
102
RTVSPost2010Prop42
 90
       50
102
RTVSPost2010PropOp42
 70
     0
102
RTVSPost2010Prop43
 90
        3
102
RTVSPost2010PropOp43
 70
     0
102
RTVSPost2010Prop44ColorIndex
 90
        5
102
RTVSPost2010Prop44ColorRGB
 90
      255
102
RTVSPost2010PropOp44
 70
     0
102
RTVSPost2010Prop45
280
     0
102
RTVSPost2010PropOp45
 70
     0
102
RTVSPost2010Prop46
 90
       50
102
RTVSPost2010PropOp46
 70
     0
102
RTVSPost2010Prop47
 90
       50
102
RTVSPost2010PropOp47
 70
     0
102
RTVSPost2010Prop48
 90
       50
102
RTVSPost2010PropOp48
 70
     0
102
RTVSPost2010Prop49
280
     0
102
RTVSPost2010PropOp49
 70
     0
102
RTVSPost2010Prop50
 90
       50
102
RTVSPost2010PropOp50
 70
     0
102
RTVSPost2010Prop51ColorIndex
 90
      256
102
RTVSPost2010Prop51ColorRGB
 90
-16777216
102
RTVSPost2010PropOp51
 70
     0
102
RTVSPost2010Prop52
140
1.0
102
RTVSPost2010PropOp52
 70
     0
102
RTVSPost2010Prop53
 90
        2
102
RTVSPost2010PropOp53
 70
     0
102
RTVSPost2010Prop54
  1
strokes_ogs.tif
102
RTVSPost2010PropOp54
 70
     0
102
RTVSPost2010Prop55
280
     0
102
RTVSPost2010PropOp55
 70
     0
102
RTVSPost2010Prop56
140
1.0
102
RTVSPost2010PropOp56
 70
     0
102
RTVSPost2010Prop57
140
1.0
102
RTVSPost2010PropOp57
 70
     0
102
RTVSPropertyOp0
 70
     0
102
RTVSPropertyOp1
 70
     0
102
RTVSPropertyOp2
 70
     0
102
RTVSPropertyOp3
 70
     0
102
RTVSPropertyOp4
 70
     0
102
RTVSPropertyOp5
 70
     0
102
RTVSPropertyOp6
 70
     0
102
RTVSPropertyOp7
 70
     0
102
RTVSPropertyOp8
 70
     0
102
RTVSPropertyOp9
 70
     0
102
RTVSPropertyOp10
 70
     0
102
RTVSPropertyOp11
 70
     0
102
RTVSPropertyOp12
 70
     0
102
RTVSPropertyOp13
 70
     0
102
RTVSPropertyOp14
 70
     2
102
RTVSPropertyOp15
 70
     0
102
RTVSPropertyOp16
 70
     0
102
RTVSPropertyOp17
 70
     0
102
RTVSPropertyOp18
 70
     0
102
RTVSPropertyOp19
 70
     0
102
RTVSPropertyOp20
 70
     0
102
RTVSPropertyOp21
 70
     0
102
RTVSPropertyOp22
 70
     0
102
RTVSPropertyOp23
 70
     0
102
RTVSPropertyOp24
 70
     0
102
RTVSPropertyOp25
 70
     0
102
RTVSPropertyOp26
 70
     0
102
RTVSPropertyOp27
 70
     0
102
RTVSPropertyOp28
 70
     0
102
RTVSPropertyOp29
 70
     0
102
RTVSPropertyOp30
 70
     0
102
RTVSPropertyOp31
 70
     0
102
RTVSPropertyOp32
 70
     0
102
RTVSPropertyOp33
 70
     0
102
RTVSPropertyOp34
 70
     0
102
RTVSPropertyOp35
 70
     0
102
RTVSPropertyOp36
 70
     0
102
RTVSPropertyOp37
 70
     0
102
RTVSPropertyOp38
 70
     0
102
RTVSPropertyOp39
 70
     0
102
RTVSPropertyOp40
 70
     0
102
RTVSPropertyOp41
 70
     0
102
RTVSPropertyOp42
 70
     0
102
RTVSPropertyOp43
 70
     0
102
RTVSPropertyOp44
 70
     0
102
RTVSPropertyOp45
 70
     0
102
RTVSPropertyOp46
 70
     0
102
RTVSPropertyOp47
 70
     0
102
RTVSPropertyOp48
 70
     0
102
RTVSPropertyOp49
 70
     0
102
RTVSPropertyOp50
 70
     0
102
RTVSPropertyOp51
 70
     0
102
RTVSPropertyOp52
 70
     0
102
RTVSPropertyOp53
 70
     0
102
RTVSPropertyOp54
 70
     0
102
RTVSPropertyOp55
 70
     0
102
RTVSPropertyOp56
 70
     0
102
RTVSPropertyOp57
 70
     0
102
RTVSPropertyOp58
 70
     1
102
RTVSPropertyOp59
 70
     1
102
RTVSPropertyOp60
 70
     1
102
RTVSPropertyOp61
 70
     1
102
RTVSPropertyOp62
 70
     1
  0
XRECORD
  5
377
102
{ACAD_REACTORS
330
376
102
}
330
376
100
AcDbXrecord
280
     1
102
RTVSPost2010Prop28
280
     0
102
RTVSPost2010PropOp28
 70
     1
102
RTVSPost2010Prop29
280
     1
102
RTVSPost2010PropOp29
 70
     1
102
RTVSPost2010Prop30
280
     1
102
RTVSPost2010PropOp30
 70
     1
102
RTVSPost2010Prop31
280
     0
102
RTVSPost2010PropOp31
 70
     1
102
RTVSPost2010Prop32
280
     0
102
RTVSPost2010PropOp32
 70
     1
102
RTVSPost2010Prop33
280
     0
102
RTVSPost2010PropOp33
 70
     1
102
RTVSPost2010Prop34
280
     0
102
RTVSPost2010PropOp34
 70
     1
102
RTVSPost2010Prop35
280
     0
102
RTVSPost2010PropOp35
 70
     1
102
RTVSPost2010Prop36
280
     0
102
RTVSPost2010PropOp36
 70
     1
102
RTVSPost2010Prop37
 90
       50
102
RTVSPost2010PropOp37
 70
     1
102
RTVSPost2010Prop38
140
0.0
102
RTVSPost2010PropOp38
 70
     1
102
RTVSPost2010Prop39
140
1.0
102
RTVSPost2010PropOp39
 70
     1
102
RTVSPost2010Prop40
 90
        0
102
RTVSPost2010PropOp40
 70
     1
102
RTVSPost2010Prop41ColorIndex
 90
       18
102
RTVSPost2010Prop41ColorRGB
 90
        0
102
RTVSPost2010PropOp41
 70
     1
102
RTVSPost2010Prop42
 90
       50
102
RTVSPost2010PropOp42
 70
     1
102
RTVSPost2010Prop43
 90
        3
102
RTVSPost2010PropOp43
 70
     1
102
RTVSPost2010Prop44ColorIndex
 90
        5
102
RTVSPost2010Prop44ColorRGB
 90
      255
102
RTVSPost2010PropOp44
 70
     1
102
RTVSPost2010Prop45
280
     0
102
RTVSPost2010PropOp45
 70
     1
102
RTVSPost2010Prop46
 90
       50
102
RTVSPost2010PropOp46
 70
     1
102
RTVSPost2010Prop47
 90
       50
102
RTVSPost2010PropOp47
 70
     1
102
RTVSPost2010Prop48
 90
       50
102
RTVSPost2010PropOp48
 70
     1
102
RTVSPost2010Prop49
280
     0
102
RTVSPost2010PropOp49
 70
     1
102
RTVSPost2010Prop50
 90
       50
102
RTVSPost2010PropOp50
 70
     1
102
RTVSPost2010Prop51ColorIndex
 90
      256
102
RTVSPost2010Prop51ColorRGB
 90
-16777216
102
RTVSPost2010PropOp51
 70
     0
102
RTVSPost2010Prop52
140
1.0
102
RTVSPost2010PropOp52
 70
     0
102
RTVSPost2010Prop53
 90
        2
102
RTVSPost2010PropOp53
 70
     1
102
RTVSPost2010Prop54
  1
strokes_ogs.tif
102
RTVSPost2010PropOp54
 70
     1
102
RTVSPost2010Prop55
280
     0
102
RTVSPost2010PropOp55
 70
     1
102
RTVSPost2010Prop56
140
1.0
102
RTVSPost2010PropOp56
 70
     1
102
RTVSPost2010Prop57
140
1.0
102
RTVSPost2010PropOp57
 70
     1
102
RTVSPropertyOp0
 70
     1
102
RTVSPropertyOp1
 70
     1
102
RTVSPropertyOp2
 70
     1
102
RTVSPropertyOp3
 70
     1
102
RTVSPropertyOp4
 70
     1
102
RTVSPropertyOp5
 70
     1
102
RTVSPropertyOp6
 70
     1
102
RTVSPropertyOp7
 70
     1
102
RTVSPropertyOp8
 70
     1
102
RTVSPropertyOp9
 70
     1
102
RTVSPropertyOp10
 70
     1
102
RTVSPropertyOp11
 70
     1
102
RTVSPropertyOp12
 70
     1
102
RTVSPropertyOp13
 70
     1
102
RTVSPropertyOp14
 70
     1
102
RTVSPropertyOp15
 70
     1
102
RTVSPropertyOp16
 70
     1
102
RTVSPropertyOp17
 70
     1
102
RTVSPropertyOp18
 70
     1
102
RTVSPropertyOp19
 70
     1
102
RTVSPropertyOp20
 70
     1
102
RTVSPropertyOp21
 70
     1
102
RTVSPropertyOp22
 70
     1
102
RTVSPropertyOp23
 70
     1
102
RTVSPropertyOp24
 70
     1
102
RTVSPropertyOp25
 70
     1
102
RTVSPropertyOp26
 70
     1
102
RTVSPropertyOp27
 70
     1
102
RTVSPropertyOp28
 70
     1
102
RTVSPropertyOp29
 70
     1
102
RTVSPropertyOp30
 70
     1
102
RTVSPropertyOp31
 70
     1
102
RTVSPropertyOp32
 70
     1
102
RTVSPropertyOp33
 70
     1
102
RTVSPropertyOp34
 70
     1
102
RTVSPropertyOp35
 70
     1
102
RTVSPropertyOp36
 70
     1
102
RTVSPropertyOp37
 70
     1
102
RTVSPropertyOp38
 70
     1
102
RTVSPropertyOp39
 70
     1
102
RTVSPropertyOp40
 70
     1
102
RTVSPropertyOp41
 70
     1
102
RTVSPropertyOp42
 70
     1
102
RTVSPropertyOp43
 70
     1
102
RTVSPropertyOp44
 70
     1
102
RTVSPropertyOp45
 70
     1
102
RTVSPropertyOp46
 70
     1
102
RTVSPropertyOp47
 70
     1
102
RTVSPropertyOp48
 70
     1
102
RTVSPropertyOp49
 70
     1
102
RTVSPropertyOp50
 70
     1
102
RTVSPropertyOp51
 70
     0
102
RTVSPropertyOp52
 70
     0
102
RTVSPropertyOp53
 70
     1
102
RTVSPropertyOp54
 70
     1
102
RTVSPropertyOp55
 70
     1
102
RTVSPropertyOp56
 70
     1
102
RTVSPropertyOp57
 70
     1
102
RTVSPropertyOp58
 70
     1
102
RTVSPropertyOp59
 70
     1
102
RTVSPropertyOp60
 70
     1
102
RTVSPropertyOp61
 70
     1
102
RTVSPropertyOp62
 70
     1
  0
XRECORD
  5
395
102
{ACAD_REACTORS
330
394
102
}
330
394
100
AcDbXrecord
280
     1
102
RTVSPost2010Prop28
280
     0
102
RTVSPost2010PropOp28
 70
     1
102
RTVSPost2010Prop29
280
     1
102
RTVSPost2010PropOp29
 70
     1
102
RTVSPost2010Prop30
280
     1
102
RTVSPost2010PropOp30
 70
     1
102
RTVSPost2010Prop31
280
     0
102
RTVSPost2010PropOp31
 70
     1
102
RTVSPost2010Prop32
280
     0
102
RTVSPost2010PropOp32
 70
     1
102
RTVSPost2010Prop33
280
     0
102
RTVSPost2010PropOp33
 70
     1
102
RTVSPost2010Prop34
280
     0
102
RTVSPost2010PropOp34
 70
     1
102
RTVSPost2010Prop35
280
     0
102
RTVSPost2010PropOp35
 70
     1
102
RTVSPost2010Prop36
280
     0
102
RTVSPost2010PropOp36
 70
     1
102
RTVSPost2010Prop37
 90
       50
102
RTVSPost2010PropOp37
 70
     1
102
RTVSPost2010Prop38
140
0.0
102
RTVSPost2010PropOp38
 70
     1
102
RTVSPost2010Prop39
140
1.0
102
RTVSPost2010PropOp39
 70
     1
102
RTVSPost2010Prop40
 90
        0
102
RTVSPost2010PropOp40
 70
     1
102
RTVSPost2010Prop41ColorIndex
 90
       18
102
RTVSPost2010Prop41ColorRGB
 90
        0
102
RTVSPost2010PropOp41
 70
     1
102
RTVSPost2010Prop42
 90
       50
102
RTVSPost2010PropOp42
 70
     1
102
RTVSPost2010Prop43
 90
        3
102
RTVSPost2010PropOp43
 70
     1
102
RTVSPost2010Prop44ColorIndex
 90
        5
102
RTVSPost2010Prop44ColorRGB
 90
      255
102
RTVSPost2010PropOp44
 70
     1
102
RTVSPost2010Prop45
280
     0
102
RTVSPost2010PropOp45
 70
     1
102
RTVSPost2010Prop46
 90
       50
102
RTVSPost2010PropOp46
 70
     1
102
RTVSPost2010Prop47
 90
       50
102
RTVSPost2010PropOp47
 70
     1
102
RTVSPost2010Prop48
 90
       50
102
RTVSPost2010PropOp48
 70
     1
102
RTVSPost2010Prop49
280
     0
102
RTVSPost2010PropOp49
 70
     1
102
RTVSPost2010Prop50
 90
       50
102
RTVSPost2010PropOp50
 70
     1
102
RTVSPost2010Prop51ColorIndex
 90
      256
102
RTVSPost2010Prop51ColorRGB
 90
-16777216
102
RTVSPost2010PropOp51
 70
     0
102
RTVSPost2010Prop52
140
1.0
102
RTVSPost2010PropOp52
 70
     0
102
RTVSPost2010Prop53
 90
        2
102
RTVSPost2010PropOp53
 70
     1
102
RTVSPost2010Prop54
  1
strokes_ogs.tif
102
RTVSPost2010PropOp54
 70
     1
102
RTVSPost2010Prop55
280
     0
102
RTVSPost2010PropOp55
 70
     1
102
RTVSPost2010Prop56
140
1.0
102
RTVSPost2010PropOp56
 70
     1
102
RTVSPost2010Prop57
140
1.0
102
RTVSPost2010PropOp57
 70
     1
102
RTVSPropertyOp0
 70
     1
102
RTVSPropertyOp1
 70
     1
102
RTVSPropertyOp2
 70
     1
102
RTVSPropertyOp3
 70
     1
102
RTVSPropertyOp4
 70
     1
102
RTVSPropertyOp5
 70
     1
102
RTVSPropertyOp6
 70
     1
102
RTVSPropertyOp7
 70
     1
102
RTVSPropertyOp8
 70
     1
102
RTVSPropertyOp9
 70
     1
102
RTVSPropertyOp10
 70
     1
102
RTVSPropertyOp11
 70
     1
102
RTVSPropertyOp12
 70
     1
102
RTVSPropertyOp13
 70
     1
102
RTVSPropertyOp14
 70
     1
102
RTVSPropertyOp15
 70
     1
102
RTVSPropertyOp16
 70
     1
102
RTVSPropertyOp17
 70
     1
102
RTVSPropertyOp18
 70
     1
102
RTVSPropertyOp19
 70
     1
102
RTVSPropertyOp20
 70
     1
102
RTVSPropertyOp21
 70
     1
102
RTVSPropertyOp22
 70
     1
102
RTVSPropertyOp23
 70
     1
102
RTVSPropertyOp24
 70
     1
102
RTVSPropertyOp25
 70
     1
102
RTVSPropertyOp26
 70
     1
102
RTVSPropertyOp27
 70
     1
102
RTVSPropertyOp28
 70
     1
102
RTVSPropertyOp29
 70
     1
102
RTVSPropertyOp30
 70
     1
102
RTVSPropertyOp31
 70
     1
102
RTVSPropertyOp32
 70
     1
102
RTVSPropertyOp33
 70
     1
102
RTVSPropertyOp34
 70
     1
102
RTVSPropertyOp35
 70
     1
102
RTVSPropertyOp36
 70
     1
102
RTVSPropertyOp37
 70
     1
102
RTVSPropertyOp38
 70
     1
102
RTVSPropertyOp39
 70
     1
102
RTVSPropertyOp40
 70
     1
102
RTVSPropertyOp41
 70
     1
102
RTVSPropertyOp42
 70
     1
102
RTVSPropertyOp43
 70
     1
102
RTVSPropertyOp44
 70
     1
102
RTVSPropertyOp45
 70
     1
102
RTVSPropertyOp46
 70
     1
102
RTVSPropertyOp47
 70
     1
102
RTVSPropertyOp48
 70
     1
102
RTVSPropertyOp49
 70
     1
102
RTVSPropertyOp50
 70
     1
102
RTVSPropertyOp51
 70
     0
102
RTVSPropertyOp52
 70
     0
102
RTVSPropertyOp53
 70
     1
102
RTVSPropertyOp54
 70
     1
102
RTVSPropertyOp55
 70
     1
102
RTVSPropertyOp56
 70
     1
102
RTVSPropertyOp57
 70
     1
102
RTVSPropertyOp58
 70
     1
102
RTVSPropertyOp59
 70
     1
102
RTVSPropertyOp60
 70
     1
102
RTVSPropertyOp61
 70
     1
102
RTVSPropertyOp62
 70
     1
  0
XRECORD
  5
393
102
{ACAD_REACTORS
330
392
102
}
330
392
100
AcDbXrecord
280
     1
102
RTVSPost2010Prop28
280
     0
102
RTVSPost2010PropOp28
 70
     1
102
RTVSPost2010Prop29
280
     1
102
RTVSPost2010PropOp29
 70
     1
102
RTVSPost2010Prop30
280
     1
102
RTVSPost2010PropOp30
 70
     1
102
RTVSPost2010Prop31
280
     0
102
RTVSPost2010PropOp31
 70
     1
102
RTVSPost2010Prop32
280
     0
102
RTVSPost2010PropOp32
 70
     1
102
RTVSPost2010Prop33
280
     0
102
RTVSPost2010PropOp33
 70
     1
102
RTVSPost2010Prop34
280
     0
102
RTVSPost2010PropOp34
 70
     1
102
RTVSPost2010Prop35
280
     0
102
RTVSPost2010PropOp35
 70
     1
102
RTVSPost2010Prop36
280
     0
102
RTVSPost2010PropOp36
 70
     1
102
RTVSPost2010Prop37
 90
       50
102
RTVSPost2010PropOp37
 70
     1
102
RTVSPost2010Prop38
140
0.0
102
RTVSPost2010PropOp38
 70
     1
102
RTVSPost2010Prop39
140
1.0
102
RTVSPost2010PropOp39
 70
     1
102
RTVSPost2010Prop40
 90
        0
102
RTVSPost2010PropOp40
 70
     1
102
RTVSPost2010Prop41ColorIndex
 90
       18
102
RTVSPost2010Prop41ColorRGB
 90
        0
102
RTVSPost2010PropOp41
 70
     1
102
RTVSPost2010Prop42
 90
       50
102
RTVSPost2010PropOp42
 70
     1
102
RTVSPost2010Prop43
 90
        3
102
RTVSPost2010PropOp43
 70
     1
102
RTVSPost2010Prop44ColorIndex
 90
        5
102
RTVSPost2010Prop44ColorRGB
 90
      255
102
RTVSPost2010PropOp44
 70
     1
102
RTVSPost2010Prop45
280
     0
102
RTVSPost2010PropOp45
 70
     1
102
RTVSPost2010Prop46
 90
       50
102
RTVSPost2010PropOp46
 70
     1
102
RTVSPost2010Prop47
 90
       50
102
RTVSPost2010PropOp47
 70
     1
102
RTVSPost2010Prop48
 90
       50
102
RTVSPost2010PropOp48
 70
     1
102
RTVSPost2010Prop49
280
     0
102
RTVSPost2010PropOp49
 70
     1
102
RTVSPost2010Prop50
 90
       50
102
RTVSPost2010PropOp50
 70
     1
102
RTVSPost2010Prop51ColorIndex
 90
      256
102
RTVSPost2010Prop51ColorRGB
 90
-16777216
102
RTVSPost2010PropOp51
 70
     0
102
RTVSPost2010Prop52
140
1.0
102
RTVSPost2010PropOp52
 70
     0
102
RTVSPost2010Prop53
 90
        2
102
RTVSPost2010PropOp53
 70
     1
102
RTVSPost2010Prop54
  1
strokes_ogs.tif
102
RTVSPost2010PropOp54
 70
     1
102
RTVSPost2010Prop55
280
     0
102
RTVSPost2010PropOp55
 70
     1
102
RTVSPost2010Prop56
140
1.0
102
RTVSPost2010PropOp56
 70
     1
102
RTVSPost2010Prop57
140
1.0
102
RTVSPost2010PropOp57
 70
     1
102
RTVSPropertyOp0
 70
     1
102
RTVSPropertyOp1
 70
     1
102
RTVSPropertyOp2
 70
     1
102
RTVSPropertyOp3
 70
     1
102
RTVSPropertyOp4
 70
     1
102
RTVSPropertyOp5
 70
     1
102
RTVSPropertyOp6
 70
     1
102
RTVSPropertyOp7
 70
     1
102
RTVSPropertyOp8
 70
     1
102
RTVSPropertyOp9
 70
     1
102
RTVSPropertyOp10
 70
     1
102
RTVSPropertyOp11
 70
     1
102
RTVSPropertyOp12
 70
     1
102
RTVSPropertyOp13
 70
     1
102
RTVSPropertyOp14
 70
     1
102
RTVSPropertyOp15
 70
     1
102
RTVSPropertyOp16
 70
     1
102
RTVSPropertyOp17
 70
     1
102
RTVSPropertyOp18
 70
     1
102
RTVSPropertyOp19
 70
     1
102
RTVSPropertyOp20
 70
     1
102
RTVSPropertyOp21
 70
     1
102
RTVSPropertyOp22
 70
     1
102
RTVSPropertyOp23
 70
     1
102
RTVSPropertyOp24
 70
     1
102
RTVSPropertyOp25
 70
     1
102
RTVSPropertyOp26
 70
     1
102
RTVSPropertyOp27
 70
     1
102
RTVSPropertyOp28
 70
     1
102
RTVSPropertyOp29
 70
     1
102
RTVSPropertyOp30
 70
     1
102
RTVSPropertyOp31
 70
     1
102
RTVSPropertyOp32
 70
     1
102
RTVSPropertyOp33
 70
     1
102
RTVSPropertyOp34
 70
     1
102
RTVSPropertyOp35
 70
     1
102
RTVSPropertyOp36
 70
     1
102
RTVSPropertyOp37
 70
     1
102
RTVSPropertyOp38
 70
     1
102
RTVSPropertyOp39
 70
     1
102
RTVSPropertyOp40
 70
     1
102
RTVSPropertyOp41
 70
     1
102
RTVSPropertyOp42
 70
     1
102
RTVSPropertyOp43
 70
     1
102
RTVSPropertyOp44
 70
     1
102
RTVSPropertyOp45
 70
     1
102
RTVSPropertyOp46
 70
     1
102
RTVSPropertyOp47
 70
     1
102
RTVSPropertyOp48
 70
     1
102
RTVSPropertyOp49
 70
     1
102
RTVSPropertyOp50
 70
     1
102
RTVSPropertyOp51
 70
     0
102
RTVSPropertyOp52
 70
     0
102
RTVSPropertyOp53
 70
     1
102
RTVSPropertyOp54
 70
     1
102
RTVSPropertyOp55
 70
     1
102
RTVSPropertyOp56
 70
     1
102
RTVSPropertyOp57
 70
     1
102
RTVSPropertyOp58
 70
     1
102
RTVSPropertyOp59
 70
     1
102
RTVSPropertyOp60
 70
     1
102
RTVSPropertyOp61
 70
     1
102
RTVSPropertyOp62
 70
     1
  0
XRECORD
  5
38D
102
{ACAD_REACTORS
330
38C
102
}
330
38C
100
AcDbXrecord
280
     1
102
RTVSPost2010Prop28
280
     0
102
RTVSPost2010PropOp28
 70
     1
102
RTVSPost2010Prop29
280
     1
102
RTVSPost2010PropOp29
 70
     1
102
RTVSPost2010Prop30
280
     1
102
RTVSPost2010PropOp30
 70
     1
102
RTVSPost2010Prop31
280
     0
102
RTVSPost2010PropOp31
 70
     1
102
RTVSPost2010Prop32
280
     0
102
RTVSPost2010PropOp32
 70
     1
102
RTVSPost2010Prop33
280
     0
102
RTVSPost2010PropOp33
 70
     1
102
RTVSPost2010Prop34
280
     0
102
RTVSPost2010PropOp34
 70
     1
102
RTVSPost2010Prop35
280
     0
102
RTVSPost2010PropOp35
 70
     1
102
RTVSPost2010Prop36
280
     0
102
RTVSPost2010PropOp36
 70
     1
102
RTVSPost2010Prop37
 90
       50
102
RTVSPost2010PropOp37
 70
     1
102
RTVSPost2010Prop38
140
0.0
102
RTVSPost2010PropOp38
 70
     1
102
RTVSPost2010Prop39
140
1.0
102
RTVSPost2010PropOp39
 70
     1
102
RTVSPost2010Prop40
 90
        0
102
RTVSPost2010PropOp40
 70
     1
102
RTVSPost2010Prop41ColorIndex
 90
       18
102
RTVSPost2010Prop41ColorRGB
 90
        0
102
RTVSPost2010PropOp41
 70
     1
102
RTVSPost2010Prop42
 90
       50
102
RTVSPost2010PropOp42
 70
     1
102
RTVSPost2010Prop43
 90
        3
102
RTVSPost2010PropOp43
 70
     1
102
RTVSPost2010Prop44ColorIndex
 90
        5
102
RTVSPost2010Prop44ColorRGB
 90
      255
102
RTVSPost2010PropOp44
 70
     1
102
RTVSPost2010Prop45
280
     0
102
RTVSPost2010PropOp45
 70
     1
102
RTVSPost2010Prop46
 90
       50
102
RTVSPost2010PropOp46
 70
     1
102
RTVSPost2010Prop47
 90
       50
102
RTVSPost2010PropOp47
 70
     1
102
RTVSPost2010Prop48
 90
       50
102
RTVSPost2010PropOp48
 70
     1
102
RTVSPost2010Prop49
280
     0
102
RTVSPost2010PropOp49
 70
     1
102
RTVSPost2010Prop50
 90
       50
102
RTVSPost2010PropOp50
 70
     1
102
RTVSPost2010Prop51ColorIndex
 90
      256
102
RTVSPost2010Prop51ColorRGB
 90
-16777216
102
RTVSPost2010PropOp51
 70
     0
102
RTVSPost2010Prop52
140
1.0
102
RTVSPost2010PropOp52
 70
     0
102
RTVSPost2010Prop53
 90
        2
102
RTVSPost2010PropOp53
 70
     1
102
RTVSPost2010Prop54
  1
strokes_ogs.tif
102
RTVSPost2010PropOp54
 70
     1
102
RTVSPost2010Prop55
280
     0
102
RTVSPost2010PropOp55
 70
     1
102
RTVSPost2010Prop56
140
1.0
102
RTVSPost2010PropOp56
 70
     1
102
RTVSPost2010Prop57
140
1.0
102
RTVSPost2010PropOp57
 70
     1
102
RTVSPropertyOp0
 70
     1
102
RTVSPropertyOp1
 70
     1
102
RTVSPropertyOp2
 70
     1
102
RTVSPropertyOp3
 70
     1
102
RTVSPropertyOp4
 70
     1
102
RTVSPropertyOp5
 70
     1
102
RTVSPropertyOp6
 70
     1
102
RTVSPropertyOp7
 70
     1
102
RTVSPropertyOp8
 70
     1
102
RTVSPropertyOp9
 70
     1
102
RTVSPropertyOp10
 70
     1
102
RTVSPropertyOp11
 70
     1
102
RTVSPropertyOp12
 70
     1
102
RTVSPropertyOp13
 70
     1
102
RTVSPropertyOp14
 70
     1
102
RTVSPropertyOp15
 70
     1
102
RTVSPropertyOp16
 70
     1
102
RTVSPropertyOp17
 70
     1
102
RTVSPropertyOp18
 70
     1
102
RTVSPropertyOp19
 70
     1
102
RTVSPropertyOp20
 70
     1
102
RTVSPropertyOp21
 70
     1
102
RTVSPropertyOp22
 70
     1
102
RTVSPropertyOp23
 70
     1
102
RTVSPropertyOp24
 70
     1
102
RTVSPropertyOp25
 70
     1
102
RTVSPropertyOp26
 70
     1
102
RTVSPropertyOp27
 70
     1
102
RTVSPropertyOp28
 70
     1
102
RTVSPropertyOp29
 70
     1
102
RTVSPropertyOp30
 70
     1
102
RTVSPropertyOp31
 70
     1
102
RTVSPropertyOp32
 70
     1
102
RTVSPropertyOp33
 70
     1
102
RTVSPropertyOp34
 70
     1
102
RTVSPropertyOp35
 70
     1
102
RTVSPropertyOp36
 70
     1
102
RTVSPropertyOp37
 70
     1
102
RTVSPropertyOp38
 70
     1
102
RTVSPropertyOp39
 70
     1
102
RTVSPropertyOp40
 70
     1
102
RTVSPropertyOp41
 70
     1
102
RTVSPropertyOp42
 70
     1
102
RTVSPropertyOp43
 70
     1
102
RTVSPropertyOp44
 70
     1
102
RTVSPropertyOp45
 70
     1
102
RTVSPropertyOp46
 70
     1
102
RTVSPropertyOp47
 70
     1
102
RTVSPropertyOp48
 70
     1
102
RTVSPropertyOp49
 70
     1
102
RTVSPropertyOp50
 70
     1
102
RTVSPropertyOp51
 70
     0
102
RTVSPropertyOp52
 70
     0
102
RTVSPropertyOp53
 70
     1
102
RTVSPropertyOp54
 70
     1
102
RTVSPropertyOp55
 70
     1
102
RTVSPropertyOp56
 70
     1
102
RTVSPropertyOp57
 70
     1
102
RTVSPropertyOp58
 70
     1
102
RTVSPropertyOp59
 70
     1
102
RTVSPropertyOp60
 70
     1
102
RTVSPropertyOp61
 70
     1
102
RTVSPropertyOp62
 70
     1
  0
XRECORD
  5
38F
102
{ACAD_REACTORS
330
38E
102
}
330
38E
100
AcDbXrecord
280
     1
102
RTVSPost2010Prop28
280
     0
102
RTVSPost2010PropOp28
 70
     1
102
RTVSPost2010Prop29
280
     1
102
RTVSPost2010PropOp29
 70
     1
102
RTVSPost2010Prop30
280
     1
102
RTVSPost2010PropOp30
 70
     1
102
RTVSPost2010Prop31
280
     0
102
RTVSPost2010PropOp31
 70
     1
102
RTVSPost2010Prop32
280
     0
102
RTVSPost2010PropOp32
 70
     1
102
RTVSPost2010Prop33
280
     0
102
RTVSPost2010PropOp33
 70
     1
102
RTVSPost2010Prop34
280
     0
102
RTVSPost2010PropOp34
 70
     1
102
RTVSPost2010Prop35
280
     0
102
RTVSPost2010PropOp35
 70
     1
102
RTVSPost2010Prop36
280
     0
102
RTVSPost2010PropOp36
 70
     1
102
RTVSPost2010Prop37
 90
       50
102
RTVSPost2010PropOp37
 70
     1
102
RTVSPost2010Prop38
140
0.0
102
RTVSPost2010PropOp38
 70
     1
102
RTVSPost2010Prop39
140
1.0
102
RTVSPost2010PropOp39
 70
     1
102
RTVSPost2010Prop40
 90
        0
102
RTVSPost2010PropOp40
 70
     1
102
RTVSPost2010Prop41ColorIndex
 90
       18
102
RTVSPost2010Prop41ColorRGB
 90
        0
102
RTVSPost2010PropOp41
 70
     1
102
RTVSPost2010Prop42
 90
       50
102
RTVSPost2010PropOp42
 70
     1
102
RTVSPost2010Prop43
 90
        3
102
RTVSPost2010PropOp43
 70
     1
102
RTVSPost2010Prop44ColorIndex
 90
        5
102
RTVSPost2010Prop44ColorRGB
 90
      255
102
RTVSPost2010PropOp44
 70
     1
102
RTVSPost2010Prop45
280
     0
102
RTVSPost2010PropOp45
 70
     1
102
RTVSPost2010Prop46
 90
       50
102
RTVSPost2010PropOp46
 70
     1
102
RTVSPost2010Prop47
 90
       50
102
RTVSPost2010PropOp47
 70
     1
102
RTVSPost2010Prop48
 90
       50
102
RTVSPost2010PropOp48
 70
     1
102
RTVSPost2010Prop49
280
     0
102
RTVSPost2010PropOp49
 70
     1
102
RTVSPost2010Prop50
 90
       50
102
RTVSPost2010PropOp50
 70
     1
102
RTVSPost2010Prop51ColorIndex
 90
      256
102
RTVSPost2010Prop51ColorRGB
 90
-16777216
102
RTVSPost2010PropOp51
 70
     0
102
RTVSPost2010Prop52
140
1.0
102
RTVSPost2010PropOp52
 70
     0
102
RTVSPost2010Prop53
 90
        2
102
RTVSPost2010PropOp53
 70
     1
102
RTVSPost2010Prop54
  1
strokes_ogs.tif
102
RTVSPost2010PropOp54
 70
     1
102
RTVSPost2010Prop55
280
     0
102
RTVSPost2010PropOp55
 70
     1
102
RTVSPost2010Prop56
140
1.0
102
RTVSPost2010PropOp56
 70
     1
102
RTVSPost2010Prop57
140
1.0
102
RTVSPost2010PropOp57
 70
     1
102
RTVSPropertyOp0
 70
     1
102
RTVSPropertyOp1
 70
     1
102
RTVSPropertyOp2
 70
     1
102
RTVSPropertyOp3
 70
     1
102
RTVSPropertyOp4
 70
     1
102
RTVSPropertyOp5
 70
     1
102
RTVSPropertyOp6
 70
     1
102
RTVSPropertyOp7
 70
     1
102
RTVSPropertyOp8
 70
     1
102
RTVSPropertyOp9
 70
     1
102
RTVSPropertyOp10
 70
     1
102
RTVSPropertyOp11
 70
     1
102
RTVSPropertyOp12
 70
     1
102
RTVSPropertyOp13
 70
     1
102
RTVSPropertyOp14
 70
     1
102
RTVSPropertyOp15
 70
     1
102
RTVSPropertyOp16
 70
     1
102
RTVSPropertyOp17
 70
     1
102
RTVSPropertyOp18
 70
     1
102
RTVSPropertyOp19
 70
     1
102
RTVSPropertyOp20
 70
     1
102
RTVSPropertyOp21
 70
     1
102
RTVSPropertyOp22
 70
     1
102
RTVSPropertyOp23
 70
     1
102
RTVSPropertyOp24
 70
     1
102
RTVSPropertyOp25
 70
     1
102
RTVSPropertyOp26
 70
     1
102
RTVSPropertyOp27
 70
     1
102
RTVSPropertyOp28
 70
     1
102
RTVSPropertyOp29
 70
     1
102
RTVSPropertyOp30
 70
     1
102
RTVSPropertyOp31
 70
     1
102
RTVSPropertyOp32
 70
     1
102
RTVSPropertyOp33
 70
     1
102
RTVSPropertyOp34
 70
     1
102
RTVSPropertyOp35
 70
     1
102
RTVSPropertyOp36
 70
     1
102
RTVSPropertyOp37
 70
     1
102
RTVSPropertyOp38
 70
     1
102
RTVSPropertyOp39
 70
     1
102
RTVSPropertyOp40
 70
     1
102
RTVSPropertyOp41
 70
     1
102
RTVSPropertyOp42
 70
     1
102
RTVSPropertyOp43
 70
     1
102
RTVSPropertyOp44
 70
     1
102
RTVSPropertyOp45
 70
     1
102
RTVSPropertyOp46
 70
     1
102
RTVSPropertyOp47
 70
     1
102
RTVSPropertyOp48
 70
     1
102
RTVSPropertyOp49
 70
     1
102
RTVSPropertyOp50
 70
     1
102
RTVSPropertyOp51
 70
     0
102
RTVSPropertyOp52
 70
     0
102
RTVSPropertyOp53
 70
     1
102
RTVSPropertyOp54
 70
     1
102
RTVSPropertyOp55
 70
     1
102
RTVSPropertyOp56
 70
     1
102
RTVSPropertyOp57
 70
     1
102
RTVSPropertyOp58
 70
     1
102
RTVSPropertyOp59
 70
     1
102
RTVSPropertyOp60
 70
     1
102
RTVSPropertyOp61
 70
     1
102
RTVSPropertyOp62
 70
     1
  0
XRECORD
  5
37F
102
{ACAD_REACTORS
330
37E
102
}
330
37E
100
AcDbXrecord
280
     1
102
RTVSPost2010Prop28
280
     0
102
RTVSPost2010PropOp28
 70
     1
102
RTVSPost2010Prop29
280
     1
102
RTVSPost2010PropOp29
 70
     1
102
RTVSPost2010Prop30
280
     1
102
RTVSPost2010PropOp30
 70
     1
102
RTVSPost2010Prop31
280
     0
102
RTVSPost2010PropOp31
 70
     1
102
RTVSPost2010Prop32
280
     0
102
RTVSPost2010PropOp32
 70
     1
102
RTVSPost2010Prop33
280
     0
102
RTVSPost2010PropOp33
 70
     1
102
RTVSPost2010Prop34
280
     0
102
RTVSPost2010PropOp34
 70
     1
102
RTVSPost2010Prop35
280
     0
102
RTVSPost2010PropOp35
 70
     1
102
RTVSPost2010Prop36
280
     0
102
RTVSPost2010PropOp36
 70
     1
102
RTVSPost2010Prop37
 90
       50
102
RTVSPost2010PropOp37
 70
     1
102
RTVSPost2010Prop38
140
0.0
102
RTVSPost2010PropOp38
 70
     1
102
RTVSPost2010Prop39
140
1.0
102
RTVSPost2010PropOp39
 70
     1
102
RTVSPost2010Prop40
 90
        0
102
RTVSPost2010PropOp40
 70
     1
102
RTVSPost2010Prop41ColorIndex
 90
       18
102
RTVSPost2010Prop41ColorRGB
 90
        0
102
RTVSPost2010PropOp41
 70
     1
102
RTVSPost2010Prop42
 90
       50
102
RTVSPost2010PropOp42
 70
     1
102
RTVSPost2010Prop43
 90
        3
102
RTVSPost2010PropOp43
 70
     1
102
RTVSPost2010Prop44ColorIndex
 90
        5
102
RTVSPost2010Prop44ColorRGB
 90
      255
102
RTVSPost2010PropOp44
 70
     1
102
RTVSPost2010Prop45
280
     0
102
RTVSPost2010PropOp45
 70
     1
102
RTVSPost2010Prop46
 90
       50
102
RTVSPost2010PropOp46
 70
     1
102
RTVSPost2010Prop47
 90
       50
102
RTVSPost2010PropOp47
 70
     1
102
RTVSPost2010Prop48
 90
       50
102
RTVSPost2010PropOp48
 70
     1
102
RTVSPost2010Prop49
280
     0
102
RTVSPost2010PropOp49
 70
     1
102
RTVSPost2010Prop50
 90
       50
102
RTVSPost2010PropOp50
 70
     1
102
RTVSPost2010Prop51ColorIndex
 90
      256
102
RTVSPost2010Prop51ColorRGB
 90
-16777216
102
RTVSPost2010PropOp51
 70
     0
102
RTVSPost2010Prop52
140
1.0
102
RTVSPost2010PropOp52
 70
     0
102
RTVSPost2010Prop53
 90
        2
102
RTVSPost2010PropOp53
 70
     1
102
RTVSPost2010Prop54
  1
strokes_ogs.tif
102
RTVSPost2010PropOp54
 70
     1
102
RTVSPost2010Prop55
280
     0
102
RTVSPost2010PropOp55
 70
     1
102
RTVSPost2010Prop56
140
1.0
102
RTVSPost2010PropOp56
 70
     1
102
RTVSPost2010Prop57
140
1.0
102
RTVSPost2010PropOp57
 70
     1
102
RTVSPropertyOp0
 70
     1
102
RTVSPropertyOp1
 70
     1
102
RTVSPropertyOp2
 70
     1
102
RTVSPropertyOp3
 70
     1
102
RTVSPropertyOp4
 70
     1
102
RTVSPropertyOp5
 70
     1
102
RTVSPropertyOp6
 70
     1
102
RTVSPropertyOp7
 70
     1
102
RTVSPropertyOp8
 70
     1
102
RTVSPropertyOp9
 70
     1
102
RTVSPropertyOp10
 70
     1
102
RTVSPropertyOp11
 70
     1
102
RTVSPropertyOp12
 70
     1
102
RTVSPropertyOp13
 70
     1
102
RTVSPropertyOp14
 70
     1
102
RTVSPropertyOp15
 70
     1
102
RTVSPropertyOp16
 70
     1
102
RTVSPropertyOp17
 70
     1
102
RTVSPropertyOp18
 70
     1
102
RTVSPropertyOp19
 70
     1
102
RTVSPropertyOp20
 70
     1
102
RTVSPropertyOp21
 70
     1
102
RTVSPropertyOp22
 70
     1
102
RTVSPropertyOp23
 70
     1
102
RTVSPropertyOp24
 70
     1
102
RTVSPropertyOp25
 70
     1
102
RTVSPropertyOp26
 70
     1
102
RTVSPropertyOp27
 70
     1
102
RTVSPropertyOp28
 70
     1
102
RTVSPropertyOp29
 70
     1
102
RTVSPropertyOp30
 70
     1
102
RTVSPropertyOp31
 70
     1
102
RTVSPropertyOp32
 70
     1
102
RTVSPropertyOp33
 70
     1
102
RTVSPropertyOp34
 70
     1
102
RTVSPropertyOp35
 70
     1
102
RTVSPropertyOp36
 70
     1
102
RTVSPropertyOp37
 70
     1
102
RTVSPropertyOp38
 70
     1
102
RTVSPropertyOp39
 70
     1
102
RTVSPropertyOp40
 70
     1
102
RTVSPropertyOp41
 70
     1
102
RTVSPropertyOp42
 70
     1
102
RTVSPropertyOp43
 70
     1
102
RTVSPropertyOp44
 70
     1
102
RTVSPropertyOp45
 70
     1
102
RTVSPropertyOp46
 70
     1
102
RTVSPropertyOp47
 70
     1
102
RTVSPropertyOp48
 70
     1
102
RTVSPropertyOp49
 70
     1
102
RTVSPropertyOp50
 70
     1
102
RTVSPropertyOp51
 70
     0
102
RTVSPropertyOp52
 70
     0
102
RTVSPropertyOp53
 70
     1
102
RTVSPropertyOp54
 70
     1
102
RTVSPropertyOp55
 70
     1
102
RTVSPropertyOp56
 70
     1
102
RTVSPropertyOp57
 70
     1
102
RTVSPropertyOp58
 70
     1
102
RTVSPropertyOp59
 70
     1
102
RTVSPropertyOp60
 70
     1
102
RTVSPropertyOp61
 70
     1
102
RTVSPropertyOp62
 70
     1
  0
XRECORD
  5
371
102
{ACAD_REACTORS
330
370
102
}
330
370
100
AcDbXrecord
280
     1
102
RTVSPost2010Prop28
280
     0
102
RTVSPost2010PropOp28
 70
     1
102
RTVSPost2010Prop29
280
     1
102
RTVSPost2010PropOp29
 70
     1
102
RTVSPost2010Prop30
280
     1
102
RTVSPost2010PropOp30
 70
     1
102
RTVSPost2010Prop31
280
     0
102
RTVSPost2010PropOp31
 70
     1
102
RTVSPost2010Prop32
280
     0
102
RTVSPost2010PropOp32
 70
     1
102
RTVSPost2010Prop33
280
     0
102
RTVSPost2010PropOp33
 70
     1
102
RTVSPost2010Prop34
280
     0
102
RTVSPost2010PropOp34
 70
     1
102
RTVSPost2010Prop35
280
     0
102
RTVSPost2010PropOp35
 70
     1
102
RTVSPost2010Prop36
280
     0
102
RTVSPost2010PropOp36
 70
     1
102
RTVSPost2010Prop37
 90
       50
102
RTVSPost2010PropOp37
 70
     1
102
RTVSPost2010Prop38
140
0.0
102
RTVSPost2010PropOp38
 70
     1
102
RTVSPost2010Prop39
140
1.0
102
RTVSPost2010PropOp39
 70
     1
102
RTVSPost2010Prop40
 90
        0
102
RTVSPost2010PropOp40
 70
     1
102
RTVSPost2010Prop41ColorIndex
 90
       18
102
RTVSPost2010Prop41ColorRGB
 90
        0
102
RTVSPost2010PropOp41
 70
     1
102
RTVSPost2010Prop42
 90
       50
102
RTVSPost2010PropOp42
 70
     1
102
RTVSPost2010Prop43
 90
        3
102
RTVSPost2010PropOp43
 70
     1
102
RTVSPost2010Prop44ColorIndex
 90
        5
102
RTVSPost2010Prop44ColorRGB
 90
      255
102
RTVSPost2010PropOp44
 70
     1
102
RTVSPost2010Prop45
280
     0
102
RTVSPost2010PropOp45
 70
     1
102
RTVSPost2010Prop46
 90
       50
102
RTVSPost2010PropOp46
 70
     1
102
RTVSPost2010Prop47
 90
       50
102
RTVSPost2010PropOp47
 70
     1
102
RTVSPost2010Prop48
 90
       50
102
RTVSPost2010PropOp48
 70
     1
102
RTVSPost2010Prop49
280
     0
102
RTVSPost2010PropOp49
 70
     1
102
RTVSPost2010Prop50
 90
       50
102
RTVSPost2010PropOp50
 70
     1
102
RTVSPost2010Prop51ColorIndex
 90
      256
102
RTVSPost2010Prop51ColorRGB
 90
-16777216
102
RTVSPost2010PropOp51
 70
     0
102
RTVSPost2010Prop52
140
1.0
102
RTVSPost2010PropOp52
 70
     0
102
RTVSPost2010Prop53
 90
        2
102
RTVSPost2010PropOp53
 70
     1
102
RTVSPost2010Prop54
  1
strokes_ogs.tif
102
RTVSPost2010PropOp54
 70
     1
102
RTVSPost2010Prop55
280
     0
102
RTVSPost2010PropOp55
 70
     1
102
RTVSPost2010Prop56
140
1.0
102
RTVSPost2010PropOp56
 70
     1
102
RTVSPost2010Prop57
140
1.0
102
RTVSPost2010PropOp57
 70
     1
102
RTVSPropertyOp0
 70
     1
102
RTVSPropertyOp1
 70
     1
102
RTVSPropertyOp2
 70
     1
102
RTVSPropertyOp3
 70
     1
102
RTVSPropertyOp4
 70
     1
102
RTVSPropertyOp5
 70
     1
102
RTVSPropertyOp6
 70
     1
102
RTVSPropertyOp7
 70
     1
102
RTVSPropertyOp8
 70
     1
102
RTVSPropertyOp9
 70
     1
102
RTVSPropertyOp10
 70
     1
102
RTVSPropertyOp11
 70
     1
102
RTVSPropertyOp12
 70
     1
102
RTVSPropertyOp13
 70
     1
102
RTVSPropertyOp14
 70
     1
102
RTVSPropertyOp15
 70
     1
102
RTVSPropertyOp16
 70
     1
102
RTVSPropertyOp17
 70
     1
102
RTVSPropertyOp18
 70
     1
102
RTVSPropertyOp19
 70
     1
102
RTVSPropertyOp20
 70
     1
102
RTVSPropertyOp21
 70
     1
102
RTVSPropertyOp22
 70
     1
102
RTVSPropertyOp23
 70
     1
102
RTVSPropertyOp24
 70
     1
102
RTVSPropertyOp25
 70
     1
102
RTVSPropertyOp26
 70
     1
102
RTVSPropertyOp27
 70
     1
102
RTVSPropertyOp28
 70
     1
102
RTVSPropertyOp29
 70
     1
102
RTVSPropertyOp30
 70
     1
102
RTVSPropertyOp31
 70
     1
102
RTVSPropertyOp32
 70
     1
102
RTVSPropertyOp33
 70
     1
102
RTVSPropertyOp34
 70
     1
102
RTVSPropertyOp35
 70
     1
102
RTVSPropertyOp36
 70
     1
102
RTVSPropertyOp37
 70
     1
102
RTVSPropertyOp38
 70
     1
102
RTVSPropertyOp39
 70
     1
102
RTVSPropertyOp40
 70
     1
102
RTVSPropertyOp41
 70
     1
102
RTVSPropertyOp42
 70
     1
102
RTVSPropertyOp43
 70
     1
102
RTVSPropertyOp44
 70
     1
102
RTVSPropertyOp45
 70
     1
102
RTVSPropertyOp46
 70
     1
102
RTVSPropertyOp47
 70
     1
102
RTVSPropertyOp48
 70
     1
102
RTVSPropertyOp49
 70
     1
102
RTVSPropertyOp50
 70
     1
102
RTVSPropertyOp51
 70
     0
102
RTVSPropertyOp52
 70
     0
102
RTVSPropertyOp53
 70
     1
102
RTVSPropertyOp54
 70
     1
102
RTVSPropertyOp55
 70
     1
102
RTVSPropertyOp56
 70
     1
102
RTVSPropertyOp57
 70
     1
102
RTVSPropertyOp58
 70
     1
102
RTVSPropertyOp59
 70
     1
102
RTVSPropertyOp60
 70
     1
102
RTVSPropertyOp61
 70
     1
102
RTVSPropertyOp62
 70
     1
  0
XRECORD
  5
391
102
{ACAD_REACTORS
330
390
102
}
330
390
100
AcDbXrecord
280
     1
102
RTVSPost2010Prop28
280
     0
102
RTVSPost2010PropOp28
 70
     1
102
RTVSPost2010Prop29
280
     1
102
RTVSPost2010PropOp29
 70
     1
102
RTVSPost2010Prop30
280
     1
102
RTVSPost2010PropOp30
 70
     1
102
RTVSPost2010Prop31
280
     0
102
RTVSPost2010PropOp31
 70
     1
102
RTVSPost2010Prop32
280
     0
102
RTVSPost2010PropOp32
 70
     1
102
RTVSPost2010Prop33
280
     0
102
RTVSPost2010PropOp33
 70
     1
102
RTVSPost2010Prop34
280
     0
102
RTVSPost2010PropOp34
 70
     1
102
RTVSPost2010Prop35
280
     0
102
RTVSPost2010PropOp35
 70
     1
102
RTVSPost2010Prop36
280
     0
102
RTVSPost2010PropOp36
 70
     1
102
RTVSPost2010Prop37
 90
       50
102
RTVSPost2010PropOp37
 70
     1
102
RTVSPost2010Prop38
140
0.0
102
RTVSPost2010PropOp38
 70
     1
102
RTVSPost2010Prop39
140
1.0
102
RTVSPost2010PropOp39
 70
     1
102
RTVSPost2010Prop40
 90
        0
102
RTVSPost2010PropOp40
 70
     1
102
RTVSPost2010Prop41ColorIndex
 90
       18
102
RTVSPost2010Prop41ColorRGB
 90
        0
102
RTVSPost2010PropOp41
 70
     1
102
RTVSPost2010Prop42
 90
       50
102
RTVSPost2010PropOp42
 70
     1
102
RTVSPost2010Prop43
 90
        3
102
RTVSPost2010PropOp43
 70
     1
102
RTVSPost2010Prop44ColorIndex
 90
        5
102
RTVSPost2010Prop44ColorRGB
 90
      255
102
RTVSPost2010PropOp44
 70
     1
102
RTVSPost2010Prop45
280
     0
102
RTVSPost2010PropOp45
 70
     1
102
RTVSPost2010Prop46
 90
       50
102
RTVSPost2010PropOp46
 70
     1
102
RTVSPost2010Prop47
 90
       50
102
RTVSPost2010PropOp47
 70
     1
102
RTVSPost2010Prop48
 90
       50
102
RTVSPost2010PropOp48
 70
     1
102
RTVSPost2010Prop49
280
     0
102
RTVSPost2010PropOp49
 70
     1
102
RTVSPost2010Prop50
 90
       50
102
RTVSPost2010PropOp50
 70
     1
102
RTVSPost2010Prop51ColorIndex
 90
      256
102
RTVSPost2010Prop51ColorRGB
 90
-16777216
102
RTVSPost2010PropOp51
 70
     0
102
RTVSPost2010Prop52
140
1.0
102
RTVSPost2010PropOp52
 70
     0
102
RTVSPost2010Prop53
 90
        2
102
RTVSPost2010PropOp53
 70
     1
102
RTVSPost2010Prop54
  1
strokes_ogs.tif
102
RTVSPost2010PropOp54
 70
     1
102
RTVSPost2010Prop55
280
     0
102
RTVSPost2010PropOp55
 70
     1
102
RTVSPost2010Prop56
140
1.0
102
RTVSPost2010PropOp56
 70
     1
102
RTVSPost2010Prop57
140
1.0
102
RTVSPost2010PropOp57
 70
     1
102
RTVSPropertyOp0
 70
     1
102
RTVSPropertyOp1
 70
     1
102
RTVSPropertyOp2
 70
     1
102
RTVSPropertyOp3
 70
     1
102
RTVSPropertyOp4
 70
     1
102
RTVSPropertyOp5
 70
     1
102
RTVSPropertyOp6
 70
     1
102
RTVSPropertyOp7
 70
     1
102
RTVSPropertyOp8
 70
     1
102
RTVSPropertyOp9
 70
     1
102
RTVSPropertyOp10
 70
     1
102
RTVSPropertyOp11
 70
     1
102
RTVSPropertyOp12
 70
     1
102
RTVSPropertyOp13
 70
     1
102
RTVSPropertyOp14
 70
     1
102
RTVSPropertyOp15
 70
     1
102
RTVSPropertyOp16
 70
     1
102
RTVSPropertyOp17
 70
     1
102
RTVSPropertyOp18
 70
     1
102
RTVSPropertyOp19
 70
     1
102
RTVSPropertyOp20
 70
     1
102
RTVSPropertyOp21
 70
     1
102
RTVSPropertyOp22
 70
     1
102
RTVSPropertyOp23
 70
     1
102
RTVSPropertyOp24
 70
     1
102
RTVSPropertyOp25
 70
     1
102
RTVSPropertyOp26
 70
     1
102
RTVSPropertyOp27
 70
     1
102
RTVSPropertyOp28
 70
     1
102
RTVSPropertyOp29
 70
     1
102
RTVSPropertyOp30
 70
     1
102
RTVSPropertyOp31
 70
     1
102
RTVSPropertyOp32
 70
     1
102
RTVSPropertyOp33
 70
     1
102
RTVSPropertyOp34
 70
     1
102
RTVSPropertyOp35
 70
     1
102
RTVSPropertyOp36
 70
     1
102
RTVSPropertyOp37
 70
     1
102
RTVSPropertyOp38
 70
     1
102
RTVSPropertyOp39
 70
     1
102
RTVSPropertyOp40
 70
     1
102
RTVSPropertyOp41
 70
     1
102
RTVSPropertyOp42
 70
     1
102
RTVSPropertyOp43
 70
     1
102
RTVSPropertyOp44
 70
     1
102
RTVSPropertyOp45
 70
     1
102
RTVSPropertyOp46
 70
     1
102
RTVSPropertyOp47
 70
     1
102
RTVSPropertyOp48
 70
     1
102
RTVSPropertyOp49
 70
     1
102
RTVSPropertyOp50
 70
     1
102
RTVSPropertyOp51
 70
     0
102
RTVSPropertyOp52
 70
     0
102
RTVSPropertyOp53
 70
     1
102
RTVSPropertyOp54
 70
     1
102
RTVSPropertyOp55
 70
     1
102
RTVSPropertyOp56
 70
     1
102
RTVSPropertyOp57
 70
     1
102
RTVSPropertyOp58
 70
     1
102
RTVSPropertyOp59
 70
     1
102
RTVSPropertyOp60
 70
     1
102
RTVSPropertyOp61
 70
     1
102
RTVSPropertyOp62
 70
     1
  0
ENDSEC
  0
EOF
