  0
SECTION
  2
HEADER
  9
$ACADVER
  1
AC1018
  9
$ACADMAINTVER
 70
   104
  9
$DWGCODEPAGE
  3
ANSI_1250
  9
$LASTSAVEDBY
  1
pp0701
  9
$INSBASE
 10
0.0
 20
0.0
 30
0.0
  9
$EXTMIN
 10
217.3970533333334
 20
21.404126
 30
0.0
  9
$EXTMAX
 10
587.478648
 20
294.1443076666667
 30
0.0
  9
$LIMMIN
 10
-0.5
 20
-0.5
  9
$LIMMAX
 10
5.0
 20
5.0
  9
$ORTHOMODE
 70
     0
  9
$REGENMODE
 70
     1
  9
$FILLMODE
 70
     1
  9
$QTEXTMODE
 70
     0
  9
$MIRRTEXT
 70
     1
  9
$LTSCALE
 40
1.0
  9
$ATTMODE
 70
     1
  9
$TEXTSIZE
 40
0.2
  9
$TRACEWID
 40
0.05
  9
$TEXTSTYLE
  7
Standard
  9
$CLAYER
  8
0
  9
$CELTYPE
  6
ByLayer
  9
$CECOLOR
 62
   256
  9
$CELTSCALE
 40
1.0
  9
$DISPSILH
 70
     0
  9
$DIMSCALE
 40
1.0
  9
$DIMASZ
 40
0.18
  9
$DIMEXO
 40
0.0625
  9
$DIMDLI
 40
0.38
  9
$DIMRND
 40
0.0
  9
$DIMDLE
 40
0.0
  9
$DIMEXE
 40
0.18
  9
$DIMTP
 40
0.0
  9
$DIMTM
 40
0.0
  9
$DIMTXT
 40
0.18
  9
$DIMCEN
 40
0.09
  9
$DIMTSZ
 40
0.0
  9
$DIMTOL
 70
     0
  9
$DIMLIM
 70
     0
  9
$DIMTIH
 70
     1
  9
$DIMTOH
 70
     1
  9
$DIMSE1
 70
     0
  9
$DIMSE2
 70
     0
  9
$DIMTAD
 70
     0
  9
$DIMZIN
 70
     0
  9
$DIMBLK
  1

  9
$DIMASO
 70
     1
  9
$DIMSHO
 70
     1
  9
$DIMPOST
  1

  9
$DIMAPOST
  1

  9
$DIMALT
 70
     0
  9
$DIMALTD
 70
     2
  9
$DIMALTF
 40
25.4
  9
$DIMLFAC
 40
1.0
  9
$DIMTOFL
 70
     0
  9
$DIMTVP
 40
0.0
  9
$DIMTIX
 70
     0
  9
$DIMSOXD
 70
     0
  9
$DIMSAH
 70
     0
  9
$DIMBLK1
  1

  9
$DIMBLK2
  1

  9
$DIMSTYLE
  2
Standard
  9
$DIMCLRD
 70
     0
  9
$DIMCLRE
 70
     0
  9
$DIMCLRT
 70
     0
  9
$DIMTFAC
 40
1.0
  9
$DIMGAP
 40
0.09
  9
$DIMJUST
 70
     0
  9
$DIMSD1
 70
     0
  9
$DIMSD2
 70
     0
  9
$DIMTOLJ
 70
     1
  9
$DIMTZIN
 70
     0
  9
$DIMALTZ
 70
     0
  9
$DIMALTTZ
 70
     0
  9
$DIMUPT
 70
     0
  9
$DIMDEC
 70
     4
  9
$DIMTDEC
 70
     4
  9
$DIMALTU
 70
     2
  9
$DIMALTTD
 70
     2
  9
$DIMTXSTY
  7
Standard
  9
$DIMAUNIT
 70
     0
  9
$DIMADEC
 70
     0
  9
$DIMALTRND
 40
0.0
  9
$DIMAZIN
 70
     0
  9
$DIMDSEP
 70
    46
  9
$DIMATFIT
 70
     3
  9
$DIMFRAC
 70
     0
  9
$DIMLDRBLK
  1

  9
$DIMLUNIT
 70
     2
  9
$DIMLWD
 70
    -2
  9
$DIMLWE
 70
    -2
  9
$DIMTMOVE
 70
     0
  9
$LUNITS
 70
     2
  9
$LUPREC
 70
     4
  9
$SKETCHINC
 40
0.1
  9
$FILLETRAD
 40
0.5
  9
$AUNITS
 70
     0
  9
$AUPREC
 70
     0
  9
$MENU
  1
.
  9
$ELEVATION
 40
0.0
  9
$PELEVATION
 40
0.0
  9
$THICKNESS
 40
0.0
  9
$LIMCHECK
 70
     0
  9
$CHAMFERA
 40
0.0
  9
$CHAMFERB
 40
0.0
  9
$CHAMFERC
 40
0.0
  9
$CHAMFERD
 40
0.0
  9
$SKPOLY
 70
     0
  9
$TDCREATE
 40
2458859.536053241
  9
$TDUCREATE
 40
2458859.494395926
  9
$TDUPDATE
 40
2458859.540856482
  9
$TDUUPDATE
 40
2458859.499189815
  9
$TDINDWG
 40
0.0029861227
  9
$TDUSRTIMER
 40
0.0029861227
  9
$USRTIMER
 70
     1
  9
$ANGBASE
 50
0.0
  9
$ANGDIR
 70
     0
  9
$PDMODE
 70
     0
  9
$PDSIZE
 40
0.0
  9
$PLINEWID
 40
0.0
  9
$SPLFRAME
 70
     0
  9
$SPLINETYPE
 70
     6
  9
$SPLINESEGS
 70
     8
  9
$HANDSEED
  5
3B8
  9
$SURFTAB1
 70
     6
  9
$SURFTAB2
 70
     6
  9
$SURFTYPE
 70
     6
  9
$SURFU
 70
     6
  9
$SURFV
 70
     6
  9
$UCSBASE
  2

  9
$UCSNAME
  2

  9
$UCSORG
 10
249.444248
 20
244.434018
 30
0.0
  9
$UCSXDIR
 10
1.0
 20
0.0
 30
0.0
  9
$UCSYDIR
 10
0.0
 20
1.0
 30
0.0
  9
$UCSORTHOREF
  2

  9
$UCSORTHOVIEW
 70
     0
  9
$UCSORGTOP
 10
0.0
 20
0.0
 30
0.0
  9
$UCSORGBOTTOM
 10
0.0
 20
0.0
 30
0.0
  9
$UCSORGLEFT
 10
0.0
 20
0.0
 30
0.0
  9
$UCSORGRIGHT
 10
0.0
 20
0.0
 30
0.0
  9
$UCSORGFRONT
 10
0.0
 20
0.0
 30
0.0
  9
$UCSORGBACK
 10
0.0
 20
0.0
 30
0.0
  9
$PUCSBASE
  2

  9
$PUCSNAME
  2

  9
$PUCSORG
 10
0.0
 20
0.0
 30
0.0
  9
$PUCSXDIR
 10
1.0
 20
0.0
 30
0.0
  9
$PUCSYDIR
 10
0.0
 20
1.0
 30
0.0
  9
$PUCSORTHOREF
  2

  9
$PUCSORTHOVIEW
 70
     0
  9
$PUCSORGTOP
 10
0.0
 20
0.0
 30
0.0
  9
$PUCSORGBOTTOM
 10
0.0
 20
0.0
 30
0.0
  9
$PUCSORGLEFT
 10
0.0
 20
0.0
 30
0.0
  9
$PUCSORGRIGHT
 10
0.0
 20
0.0
 30
0.0
  9
$PUCSORGFRONT
 10
0.0
 20
0.0
 30
0.0
  9
$PUCSORGBACK
 10
0.0
 20
0.0
 30
0.0
  9
$USERI1
 70
     0
  9
$USERI2
 70
     0
  9
$USERI3
 70
     0
  9
$USERI4
 70
     0
  9
$USERI5
 70
     0
  9
$USERR1
 40
0.0
  9
$USERR2
 40
0.0
  9
$USERR3
 40
0.0
  9
$USERR4
 40
0.0
  9
$USERR5
 40
0.0
  9
$WORLDVIEW
 70
     1
  9
$SHADEDGE
 70
     3
  9
$SHADEDIF
 70
    70
  9
$TILEMODE
 70
     1
  9
$MAXACTVP
 70
    64
  9
$PINSBASE
 10
0.0
 20
0.0
 30
0.0
  9
$PLIMCHECK
 70
     0
  9
$PEXTMIN
 10
-0.5
 20
-0.5
 30
-0.5
  9
$PEXTMAX
 10
5.0
 20
5.0
 30
5.0
  9
$PLIMMIN
 10
-0.5
 20
-0.5
  9
$PLIMMAX
 10
5.0
 20
5.0
  9
$UNITMODE
 70
     0
  9
$VISRETAIN
 70
     1
  9
$PLINEGEN
 70
     0
  9
$PSLTSCALE
 70
     1
  9
$TREEDEPTH
 70
  3020
  9
$CMLSTYLE
  2
Standard
  9
$CMLJUST
 70
     0
  9
$CMLSCALE
 40
1.0
  9
$PROXYGRAPHICS
 70
     1
  9
$MEASUREMENT
 70
     1
  9
$CELWEIGHT
370
    13
  9
$ENDCAPS
280
     0
  9
$JOINSTYLE
280
     0
  9
$LWDISPLAY
290
     0
  9
$INSUNITS
 70
     4
  9
$HYPERLINKBASE
  1

  9
$STYLESHEET
  1

  9
$XEDIT
290
     1
  9
$CEPSNTYPE
380
     0
  9
$PSTYLEMODE
290
     1
  9
$FINGERPRINTGUID
  2
{239716F3-BC92-44D9-A5E6-38C7E0AECC5D}
  9
$VERSIONGUID
  2
{6FDB396A-58B3-184A-BB69-85CAE0856610}
  9
$EXTNAMES
290
     1
  9
$PSVPSCALE
 40
0.0
  9
$OLESTARTUP
290
     0
  9
$SORTENTS
280
   127
  9
$INDEXCTL
280
     0
  9
$HIDETEXT
280
     1
  9
$XCLIPFRAME
290
     0
  9
$HALOGAP
280
     0
  9
$OBSCOLOR
 70
   257
  9
$OBSLTYPE
280
     0
  9
$INTERSECTIONDISPLAY
280
     0
  9
$INTERSECTIONCOLOR
 70
   257
  9
$DIMASSOC
280
     2
  9
$PROJECTNAME
  1

  0
ENDSEC
  0
SECTION
  2
CLASSES
  0
CLASS
  1
ACDBDICTIONARYWDFLT
  2
AcDbDictionaryWithDefault
  3
ObjectDBX Classes
 90
        0
 91
        1
280
     0
281
     0
  0
CLASS
  1
VISUALSTYLE
  2
AcDbVisualStyle
  3
ObjectDBX Classes
 90
     4095
 91
       24
280
     0
281
     0
  0
CLASS
  1
MATERIAL
  2
AcDbMaterial
  3
ObjectDBX Classes
 90
     1153
 91
        3
280
     0
281
     0
  0
CLASS
  1
SCALE
  2
AcDbScale
  3
ObjectDBX Classes
 90
     1153
 91
       33
280
     0
281
     0
  0
CLASS
  1
TABLESTYLE
  2
AcDbTableStyle
  3
ObjectDBX Classes
 90
     4095
 91
        1
280
     0
281
     0
  0
CLASS
  1
MLEADERSTYLE
  2
AcDbMLeaderStyle
  3
ACDB_MLEADERSTYLE_CLASS
 90
     4095
 91
        1
280
     0
281
     0
  0
CLASS
  1
SUN
  2
AcDbSun
  3
SCENEOE
 90
     1153
 91
        0
280
     0
281
     0
  0
CLASS
  1
IMAGEDEF
  2
AcDbRasterImageDef
  3
ISM
 90
        0
 91
        1
280
     0
281
     0
  0
CLASS
  1
IMAGE
  2
AcDbRasterImage
  3
ISM
 90
     2175
 91
        1
280
     0
281
     1
  0
CLASS
  1
IMAGEDEF_REACTOR
  2
AcDbRasterImageDefReactor
  3
ISM
 90
        1
 91
        1
280
     0
281
     0
  0
CLASS
  1
DIMASSOC
  2
AcDbDimAssoc
  3
"AcDbDimAssoc|Product Desc:     AcDim ARX App For Dimension|Company:          Autodesk, Inc.|WEB Address:      www.autodesk.com"
 90
        0
 91
        7
280
     0
281
     0
  0
CLASS
  1
DICTIONARYVAR
  2
AcDbDictionaryVar
  3
ObjectDBX Classes
 90
        0
 91
        8
280
     0
281
     0
  0
CLASS
  1
CELLSTYLEMAP
  2
AcDbCellStyleMap
  3
ObjectDBX Classes
 90
     1152
 91
        2
280
     0
281
     0
  0
CLASS
  1
ACDBSECTIONVIEWSTYLE
  2
AcDbSectionViewStyle
  3
ObjectDBX Classes
 90
     1025
 91
        1
280
     0
281
     0
  0
CLASS
  1
ACDBDETAILVIEWSTYLE
  2
AcDbDetailViewStyle
  3
ObjectDBX Classes
 90
     1025
 91
        1
280
     0
281
     0
  0
CLASS
  1
RASTERVARIABLES
  2
AcDbRasterVariables
  3
ISM
 90
        0
 91
        1
280
     0
281
     0
  0
CLASS
  1
SORTENTSTABLE
  2
AcDbSortentsTable
  3
ObjectDBX Classes
 90
        0
 91
        1
280
     0
281
     0
  0
ENDSEC
  0
SECTION
  2
TABLES
  0
TABLE
  2
VPORT
  5
8
330
0
100
AcDbSymbolTable
 70
    16
  0
VPORT
  5
29
330
8
100
AcDbSymbolTableRecord
100
AcDbViewportTableRecord
  2
*Active
 70
     0
 10
0.0
 20
0.0
 11
1.0
 21
1.0
 12
283.5879667270538
 22
264.1936139026821
 13
0.0
 23
0.0
 14
0.5
 24
0.5
 15
0.5
 25
0.5
 16
0.0
 26
0.0
 36
1.0
 17
0.0
 27
0.0
 37
0.0
 40
172.9806586793865
 41
2.292712066905615
 42
50.0
 43
673.7849209999999
 44
-673.7849209999999
 50
0.0
 51
0.0
 71
     0
 72
   100
 73
     1
 74
     3
 75
     0
 76
     0
 77
     0
 78
     0
281
     0
 65
     1
110
249.444248
120
244.434018
130
0.0
111
1.0
121
0.0
131
0.0
112
0.0
122
1.0
132
0.0
 79
     0
146
0.0
1001
ACAD_NAV_VCDISPLAY
1070
     3
  0
VPORT
  5
283
330
8
100
AcDbSymbolTableRecord
100
AcDbViewportTableRecord
  2
L1
 70
     0
 10
0.0
 20
0.0
 11
1.0
 21
1.0
 12
401.9336449999999
 22
157.778799
 13
0.0
 23
0.0
 14
0.5
 24
0.5
 15
0.5
 25
0.5
 16
0.0
 26
0.0
 36
1.0
 17
0.0
 27
0.0
 37
0.0
 40
207.433333
 41
0.085602
 42
50.0
 43
673.7849209999999
 44
-673.7849209999999
 50
0.0
 51
0.0
 71
     0
 72
   100
 73
     1
 74
     3
 75
     0
 76
     0
 77
     0
 78
     0
281
     0
 65
     1
110
0.0
120
0.0
130
0.0
111
1.0
121
0.0
131
0.0
112
0.0
122
1.0
132
0.0
 79
     0
146
0.0
  0
VPORT
  5
284
330
8
100
AcDbSymbolTableRecord
100
AcDbViewportTableRecord
  2
L2
 70
     0
 10
0.0
 20
0.0
 11
0.5
 21
1.0
 12
0.0
 22
0.0
 13
0.0
 23
0.0
 14
0.5
 24
0.5
 15
0.5
 25
0.5
 16
0.0
 26
-1.0
 36
0.0
 17
0.0
 27
0.0
 37
0.0
 40
1478.660809
 41
0.012009
 42
50.0
 43
765.39502
 44
-765.39502
 50
0.0
 51
0.0
 71
     0
 72
   100
 73
     1
 74
     3
 75
     0
 76
     0
 77
     0
 78
     0
281
     0
 65
     1
110
0.0
120
0.0
130
0.0
111
1.0
121
0.0
131
0.0
112
0.0
122
1.0
132
0.0
 79
     0
146
0.0
  0
VPORT
  5
285
330
8
100
AcDbSymbolTableRecord
100
AcDbViewportTableRecord
  2
L2
 70
     0
 10
0.5
 20
0.0
 11
1.0
 21
1.0
 12
0.0
 22
0.0
 13
0.0
 23
0.0
 14
0.5
 24
0.5
 15
0.5
 25
0.5
 16
1.0
 26
0.0
 36
0.0
 17
0.0
 27
0.0
 37
0.0
 40
1478.660809
 41
0.012009
 42
50.0
 43
746.5698859999999
 44
-746.5698859999999
 50
0.0
 51
0.0
 71
     0
 72
   100
 73
     1
 74
     3
 75
     0
 76
     0
 77
     0
 78
     0
281
     0
 65
     1
110
0.0
120
0.0
130
0.0
111
1.0
121
0.0
131
0.0
112
0.0
122
1.0
132
0.0
 79
     0
146
0.0
  0
VPORT
  5
286
330
8
100
AcDbSymbolTableRecord
100
AcDbViewportTableRecord
  2
L3
 70
     0
 10
0.0
 20
0.5
 11
1.0
 21
1.0
 12
401.9336449999999
 22
157.778799
 13
0.0
 23
0.0
 14
0.5
 24
0.5
 15
0.5
 25
0.5
 16
0.0
 26
0.0
 36
1.0
 17
0.0
 27
0.0
 37
0.0
 40
207.433333
 41
0.085602
 42
50.0
 43
673.7849209999999
 44
-673.7849209999999
 50
0.0
 51
0.0
 71
     0
 72
   100
 73
     1
 74
     3
 75
     0
 76
     0
 77
     0
 78
     0
281
     0
 65
     1
110
0.0
120
0.0
130
0.0
111
1.0
121
0.0
131
0.0
112
0.0
122
1.0
132
0.0
 79
     0
146
0.0
  0
VPORT
  5
287
330
8
100
AcDbSymbolTableRecord
100
AcDbViewportTableRecord
  2
L3
 70
     0
 10
0.0
 20
0.0
 11
1.0
 21
0.5
 12
0.0
 22
0.0
 13
0.0
 23
0.0
 14
0.5
 24
0.5
 15
0.5
 25
0.5
 16
0.0
 26
-1.0
 36
0.0
 17
0.0
 27
0.0
 37
0.0
 40
1478.660809
 41
0.012009
 42
50.0
 43
765.39502
 44
-765.39502
 50
0.0
 51
0.0
 71
     0
 72
   100
 73
     1
 74
     3
 75
     0
 76
     0
 77
     0
 78
     0
281
     0
 65
     1
110
0.0
120
0.0
130
0.0
111
1.0
121
0.0
131
0.0
112
0.0
122
1.0
132
0.0
 79
     0
146
0.0
  0
VPORT
  5
288
330
8
100
AcDbSymbolTableRecord
100
AcDbViewportTableRecord
  2
L4
 70
     0
 10
0.0
 20
0.5
 11
0.5
 21
1.0
 12
401.9336449999999
 22
157.778799
 13
0.0
 23
0.0
 14
0.5
 24
0.5
 15
0.5
 25
0.5
 16
0.0
 26
0.0
 36
1.0
 17
0.0
 27
0.0
 37
0.0
 40
207.433333
 41
0.085602
 42
50.0
 43
673.7849209999999
 44
-673.7849209999999
 50
0.0
 51
0.0
 71
     0
 72
   100
 73
     1
 74
     3
 75
     0
 76
     0
 77
     0
 78
     0
281
     0
 65
     1
110
0.0
120
0.0
130
0.0
111
1.0
121
0.0
131
0.0
112
0.0
122
1.0
132
0.0
 79
     0
146
0.0
  0
VPORT
  5
289
330
8
100
AcDbSymbolTableRecord
100
AcDbViewportTableRecord
  2
L4
 70
     0
 10
0.0
 20
0.0
 11
0.5
 21
0.5
 12
0.0
 22
0.0
 13
0.0
 23
0.0
 14
0.5
 24
0.5
 15
0.5
 25
0.5
 16
0.0
 26
-1.0
 36
0.0
 17
0.0
 27
0.0
 37
0.0
 40
1478.660809
 41
0.012009
 42
50.0
 43
765.39502
 44
-765.39502
 50
0.0
 51
0.0
 71
     0
 72
   100
 73
     1
 74
     3
 75
     0
 76
     0
 77
     0
 78
     0
281
     0
 65
     1
110
0.0
120
0.0
130
0.0
111
1.0
121
0.0
131
0.0
112
0.0
122
1.0
132
0.0
 79
     0
146
0.0
  0
VPORT
  5
28A
330
8
100
AcDbSymbolTableRecord
100
AcDbViewportTableRecord
  2
L4
 70
     0
 10
0.5
 20
0.0
 11
1.0
 21
0.5
 12
0.0
 22
0.0
 13
0.0
 23
0.0
 14
0.5
 24
0.5
 15
0.5
 25
0.5
 16
1.0
 26
0.0
 36
0.0
 17
0.0
 27
0.0
 37
0.0
 40
1478.660809
 41
0.012009
 42
50.0
 43
746.5698859999999
 44
-746.5698859999999
 50
0.0
 51
0.0
 71
     0
 72
   100
 73
     1
 74
     3
 75
     0
 76
     0
 77
     0
 78
     0
281
     0
 65
     1
110
0.0
120
0.0
130
0.0
111
1.0
121
0.0
131
0.0
112
0.0
122
1.0
132
0.0
 79
     0
146
0.0
  0
VPORT
  5
28B
330
8
100
AcDbSymbolTableRecord
100
AcDbViewportTableRecord
  2
L4
 70
     0
 10
0.5
 20
0.5
 11
1.0
 21
1.0
 12
0.0
 22
0.0
 13
0.0
 23
0.0
 14
0.5
 24
0.5
 15
0.5
 25
0.5
 16
0.5773502691896259
 26
-0.5773502691896259
 36
0.5773502691896259
 17
0.0
 27
0.0
 37
0.0
 40
1453.705292
 41
0.012215
 42
50.0
 43
757.5245879999999
 44
-757.5245879999999
 50
0.0
 51
0.0
 71
     0
 72
   100
 73
     1
 74
     3
 75
     0
 76
     0
 77
     0
 78
     0
281
     0
 65
     1
110
0.0
120
0.0
130
0.0
111
1.0
121
0.0
131
0.0
112
0.0
122
1.0
132
0.0
 79
     0
146
0.0
  0
VPORT
  5
28C
330
8
100
AcDbSymbolTableRecord
100
AcDbViewportTableRecord
  2
L6
 70
     0
 10
0.0
 20
0.5
 11
0.333333
 21
1.0
 12
0.0
 22
0.0
 13
0.0
 23
0.0
 14
0.5
 24
0.5
 15
0.5
 25
0.5
 16
0.7188730927569434
 26
-0.5850486126764433
 36
0.3754192287502549
 17
0.0
 27
0.0
 37
0.0
 40
1534.989881
 41
0.011568
 42
50.0
 43
794.5176169999999
 44
-794.5176169999999
 50
0.0
 51
0.0
 71
     0
 72
   100
 73
     1
 74
     3
 75
     0
 76
     0
 77
     0
 78
     0
281
     0
 65
     1
110
0.0
120
0.0
130
0.0
111
1.0
121
0.0
131
0.0
112
0.0
122
1.0
132
0.0
 79
     0
146
0.0
  0
VPORT
  5
28D
330
8
100
AcDbSymbolTableRecord
100
AcDbViewportTableRecord
  2
L6
 70
     0
 10
0.0
 20
0.0
 11
0.333333
 21
0.5
 12
0.0
 22
0.0
 13
0.0
 23
0.0
 14
0.5
 24
0.5
 15
0.5
 25
0.5
 16
-1.0
 26
0.0
 36
0.0
 17
0.0
 27
0.0
 37
0.0
 40
1478.660809
 41
0.012009
 42
50.0
 43
746.5698859999999
 44
-746.5698859999999
 50
0.0
 51
0.0
 71
     0
 72
   100
 73
     1
 74
     3
 75
     0
 76
     0
 77
     0
 78
     0
281
     0
 65
     1
110
0.0
120
0.0
130
0.0
111
1.0
121
0.0
131
0.0
112
0.0
122
1.0
132
0.0
 79
     0
146
0.0
  0
VPORT
  5
28E
330
8
100
AcDbSymbolTableRecord
100
AcDbViewportTableRecord
  2
L6
 70
     0
 10
0.333333
 20
0.5
 11
0.666667
 21
1.0
 12
401.9336449999999
 22
157.778799
 13
0.0
 23
0.0
 14
0.5
 24
0.5
 15
0.5
 25
0.5
 16
0.0
 26
0.0
 36
1.0
 17
0.0
 27
0.0
 37
0.0
 40
207.433333
 41
0.085602
 42
50.0
 43
673.7849209999999
 44
-673.7849209999999
 50
0.0
 51
0.0
 71
     0
 72
   100
 73
     1
 74
     3
 75
     0
 76
     0
 77
     0
 78
     0
281
     0
 65
     1
110
0.0
120
0.0
130
0.0
111
1.0
121
0.0
131
0.0
112
0.0
122
1.0
132
0.0
 79
     0
146
0.0
  0
VPORT
  5
28F
330
8
100
AcDbSymbolTableRecord
100
AcDbViewportTableRecord
  2
L6
 70
     0
 10
0.333333
 20
0.0
 11
0.666667
 21
0.5
 12
0.0
 22
0.0
 13
0.0
 23
0.0
 14
0.5
 24
0.5
 15
0.5
 25
0.5
 16
0.0
 26
-1.0
 36
0.0
 17
0.0
 27
0.0
 37
0.0
 40
1478.660809
 41
0.012009
 42
50.0
 43
765.39502
 44
-765.39502
 50
0.0
 51
0.0
 71
     0
 72
   100
 73
     1
 74
     3
 75
     0
 76
     0
 77
     0
 78
     0
281
     0
 65
     1
110
0.0
120
0.0
130
0.0
111
1.0
121
0.0
131
0.0
112
0.0
122
1.0
132
0.0
 79
     0
146
0.0
  0
VPORT
  5
290
330
8
100
AcDbSymbolTableRecord
100
AcDbViewportTableRecord
  2
L6
 70
     0
 10
0.666667
 20
0.5
 11
1.0
 21
1.0
 12
0.0
 22
0.0
 13
0.0
 23
0.0
 14
0.5
 24
0.5
 15
0.5
 25
0.5
 16
0.5773502691896259
 26
-0.5773502691896259
 36
0.5773502691896259
 17
0.0
 27
0.0
 37
0.0
 40
1453.705292
 41
0.012215
 42
50.0
 43
757.5245879999999
 44
-757.5245879999999
 50
0.0
 51
0.0
 71
     0
 72
   100
 73
     1
 74
     3
 75
     0
 76
     0
 77
     0
 78
     0
281
     0
 65
     1
110
0.0
120
0.0
130
0.0
111
1.0
121
0.0
131
0.0
112
0.0
122
1.0
132
0.0
 79
     0
146
0.0
  0
VPORT
  5
291
330
8
100
AcDbSymbolTableRecord
100
AcDbViewportTableRecord
  2
L6
 70
     0
 10
0.666667
 20
0.0
 11
1.0
 21
0.5
 12
0.0
 22
0.0
 13
0.0
 23
0.0
 14
0.5
 24
0.5
 15
0.5
 25
0.5
 16
1.0
 26
0.0
 36
0.0
 17
0.0
 27
0.0
 37
0.0
 40
1478.660809
 41
0.012009
 42
50.0
 43
746.5698859999999
 44
-746.5698859999999
 50
0.0
 51
0.0
 71
     0
 72
   100
 73
     1
 74
     3
 75
     0
 76
     0
 77
     0
 78
     0
281
     0
 65
     1
110
0.0
120
0.0
130
0.0
111
1.0
121
0.0
131
0.0
112
0.0
122
1.0
132
0.0
 79
     0
146
0.0
  0
ENDTAB
  0
TABLE
  2
LTYPE
  5
5
330
0
100
AcDbSymbolTable
 70
     8
  0
LTYPE
  5
14
330
5
100
AcDbSymbolTableRecord
100
AcDbLinetypeTableRecord
  2
ByBlock
 70
     0
  3

 72
    65
 73
     0
 40
0.0
  0
LTYPE
  5
15
330
5
100
AcDbSymbolTableRecord
100
AcDbLinetypeTableRecord
  2
ByLayer
 70
     0
  3

 72
    65
 73
     0
 40
0.0
  0
LTYPE
  5
16
330
5
100
AcDbSymbolTableRecord
100
AcDbLinetypeTableRecord
  2
Continuous
 70
     0
  3
Solid line
 72
    65
 73
     0
 40
0.0
  0
LTYPE
  5
6E
330
5
100
AcDbSymbolTableRecord
100
AcDbLinetypeTableRecord
  2
CENTER
 70
     0
  3
____ _ ____ _ ____ _ ____
 72
    65
 73
     4
 40
47.4
 49
22.0
 74
     4
 75
     0
340
0
 46
0.0
 50
0.0
 44
0.0
 45
0.0
 49
-8.5
 74
     4
 75
     0
340
0
 46
0.0
 50
0.0
 44
0.0
 45
0.0
 49
8.5
 74
     4
 75
     0
340
0
 46
0.0
 50
0.0
 44
0.0
 45
0.0
 49
-8.5
 74
     4
 75
     0
340
0
 46
0.0
 50
0.0
 44
0.0
 45
0.0
  0
LTYPE
  5
6F
330
5
100
AcDbSymbolTableRecord
100
AcDbLinetypeTableRecord
  2
DASHDOT
 70
     0
  3
_._._._._._._._._._._._._._._._.
 72
    65
 73
     4
 40
70.0
 49
31.0
 74
     4
 75
     0
340
0
 46
0.0
 50
0.0
 44
0.0
 45
0.0
 49
-13.0
 74
     4
 75
     0
340
0
 46
0.0
 50
0.0
 44
0.0
 45
0.0
 49
13.0
 74
     4
 75
     0
340
0
 46
0.0
 50
0.0
 44
0.0
 45
0.0
 49
-13.0
 74
     4
 75
     0
340
0
 46
0.0
 50
0.0
 44
0.0
 45
0.0
  0
LTYPE
  5
70
330
5
100
AcDbSymbolTableRecord
100
AcDbLinetypeTableRecord
  2
DASHED
 70
     0
  3
__ __ __ __ __ __ __ __ __
 72
    65
 73
     2
 40
25.72
 49
12.86
 74
     4
 75
     0
340
0
 46
0.0
 50
0.0
 44
0.0
 45
0.0
 49
-12.86
 74
     4
 75
     0
340
0
 46
0.0
 50
0.0
 44
0.0
 45
0.0
  0
LTYPE
  5
71
330
5
100
AcDbSymbolTableRecord
100
AcDbLinetypeTableRecord
  2
DOT
 70
     0
  3
.........................
 72
    65
 73
     2
 40
10.0
 49
0.0
 74
     4
 75
     0
340
0
 46
0.0
 50
0.0
 44
0.0
 45
0.0
 49
-10.0
 74
     4
 75
     0
340
0
 46
0.0
 50
0.0
 44
0.0
 45
0.0
  0
LTYPE
  5
72
330
5
100
AcDbSymbolTableRecord
100
AcDbLinetypeTableRecord
  2
PHANTOM
 70
     0
  3
____ _ _ ____ _ _ _____ _ _ ____
 72
    65
 73
     6
 40
50.5
 49
18.0
 74
     4
 75
     0
340
0
 46
0.0
 50
0.0
 44
0.0
 45
0.0
 49
-6.5
 74
     4
 75
     0
340
0
 46
0.0
 50
0.0
 44
0.0
 45
0.0
 49
6.5
 74
     4
 75
     0
340
0
 46
0.0
 50
0.0
 44
0.0
 45
0.0
 49
-6.5
 74
     4
 75
     0
340
0
 46
0.0
 50
0.0
 44
0.0
 45
0.0
 49
6.5
 74
     4
 75
     0
340
0
 46
0.0
 50
0.0
 44
0.0
 45
0.0
 49
-6.5
 74
     4
 75
     0
340
0
 46
0.0
 50
0.0
 44
0.0
 45
0.0
  0
LTYPE
  5
341
330
5
100
AcDbSymbolTableRecord
100
AcDbLinetypeTableRecord
  2
CENTER2
 70
     0
  3
Center (.5x) ___ _ ___ _ ___ _ ___ _ ___ _ ___
 72
    65
 73
     4
 40
1.125
 49
0.75
 74
     0
 49
-0.125
 74
     0
 49
0.125
 74
     0
 49
-0.125
 74
     0
  0
ENDTAB
  0
TABLE
  2
LAYER
  5
2
102
{ACAD_XDICTIONARY
360
36F
102
}
330
0
100
AcDbSymbolTable
 70
    23
  0
LAYER
  5
10
102
{ACAD_XDICTIONARY
360
350
102
}
330
2
100
AcDbSymbolTableRecord
100
AcDbLayerTableRecord
  2
0
 70
     0
 62
     7
  6
Continuous
370
    -3
390
F
  0
LAYER
  5
76
102
{ACAD_XDICTIONARY
360
352
102
}
330
2
100
AcDbSymbolTableRecord
100
AcDbLayerTableRecord
  2
60
 70
     0
 62
     7
420
 16777215
  6
Continuous
370
    -3
390
F
  0
LAYER
  5
1D9
330
2
100
AcDbSymbolTableRecord
100
AcDbLayerTableRecord
  2
Defpoints
 70
     0
 62
     7
  6
Continuous
290
     0
370
    -3
390
F
  0
LAYER
  5
33E
102
{ACAD_XDICTIONARY
360
354
102
}
330
2
100
AcDbSymbolTableRecord
100
AcDbLayerTableRecord
  2
1
 70
     0
 62
     4
  6
Continuous
370
    -3
390
F
  0
LAYER
  5
33F
102
{ACAD_XDICTIONARY
360
356
102
}
330
2
100
AcDbSymbolTableRecord
100
AcDbLayerTableRecord
  2
2
 70
     0
 62
     7
  6
Continuous
370
    -3
390
F
  0
LAYER
  5
340
102
{ACAD_XDICTIONARY
360
358
102
}
330
2
100
AcDbSymbolTableRecord
100
AcDbLayerTableRecord
  2
4
 70
     0
 62
     2
  6
CENTER2
370
    -3
390
F
  0
LAYER
  5
343
102
{ACAD_XDICTIONARY
360
35A
102
}
330
2
100
AcDbSymbolTableRecord
100
AcDbLayerTableRecord
  2
SK2
 70
     0
 62
     7
  6
Continuous
370
    -3
390
F
  0
LAYER
  5
344
102
{ACAD_XDICTIONARY
360
35C
102
}
330
2
100
AcDbSymbolTableRecord
100
AcDbLayerTableRecord
  2
SK3
 70
     0
 62
     1
  6
DASHED
370
    -3
390
F
  0
LAYER
  5
345
102
{ACAD_XDICTIONARY
360
35E
102
}
330
2
100
AcDbSymbolTableRecord
100
AcDbLayerTableRecord
  2
SK4
 70
     0
 62
     2
  6
CENTER2
370
    -3
390
F
  0
LAYER
  5
346
102
{ACAD_XDICTIONARY
360
360
102
}
330
2
100
AcDbSymbolTableRecord
100
AcDbLayerTableRecord
  2
SK6
 70
     0
 62
     5
  6
Continuous
370
    -3
390
F
  0
LAYER
  5
347
102
{ACAD_XDICTIONARY
360
362
102
}
330
2
100
AcDbSymbolTableRecord
100
AcDbLayerTableRecord
  2
CUT
 70
     0
 62
     1
  6
Continuous
370
    -3
390
F
  0
LAYER
  5
348
102
{ACAD_XDICTIONARY
360
364
102
}
330
2
100
AcDbSymbolTableRecord
100
AcDbLayerTableRecord
  2
NOCUT
 70
     0
 62
     7
  6
Continuous
370
    -3
390
F
  0
LAYER
  5
349
102
{ACAD_XDICTIONARY
360
366
102
}
330
2
100
AcDbSymbolTableRecord
100
AcDbLayerTableRecord
  2
80
 70
     0
 62
     6
  6
Continuous
370
    -3
390
F
  0
LAYER
  5
34A
102
{ACAD_XDICTIONARY
360
368
102
}
330
2
100
AcDbSymbolTableRecord
100
AcDbLayerTableRecord
  2
81
 70
     0
 62
     3
  6
Continuous
370
    -3
390
F
  0
LAYER
  5
34B
102
{ACAD_XDICTIONARY
360
36A
102
}
330
2
100
AcDbSymbolTableRecord
100
AcDbLayerTableRecord
  2
SK1
 70
     0
 62
     4
  6
Continuous
370
    -3
390
F
  0
ENDTAB
  0
TABLE
  2
STYLE
  5
3
330
0
100
AcDbSymbolTable
 70
     3
  0
STYLE
  5
11
330
3
100
AcDbSymbolTableRecord
100
AcDbTextStyleTableRecord
  2
Standard
 70
     0
 40
0.0
 41
1.0
 50
0.0
 71
     0
 42
0.2
  3
txt
  4

  0
STYLE
  5
1D3
330
3
100
AcDbSymbolTableRecord
100
AcDbTextStyleTableRecord
  2
cesky
 70
     0
 40
0.0
 41
1.0
 50
0.0
 71
     0
 42
0.2
  3
simplex.shx
  4

  0
STYLE
  5
1D4
330
3
100
AcDbSymbolTableRecord
100
AcDbTextStyleTableRecord
  2
DWGDirectTextStyle
 70
     0
 40
0.0
 41
1.0
 50
0.0
 71
     0
 42
0.2
  3
simplex
  4

  0
ENDTAB
  0
TABLE
  2
VIEW
  5
6
330
0
100
AcDbSymbolTable
 70
     1
  0
ENDTAB
  0
TABLE
  2
UCS
  5
7
330
0
100
AcDbSymbolTable
 70
     0
  0
ENDTAB
  0
TABLE
  2
APPID
  5
9
330
0
100
AcDbSymbolTable
 70
     8
  0
APPID
  5
12
330
9
100
AcDbSymbolTableRecord
100
AcDbRegAppTableRecord
  2
ACAD
 70
     0
  0
APPID
  5
1D5
330
9
100
AcDbSymbolTableRecord
100
AcDbRegAppTableRecord
  2
ACAD_DSTYLE_DIMBREAK
 70
     0
  0
APPID
  5
292
330
9
100
AcDbSymbolTableRecord
100
AcDbRegAppTableRecord
  2
ACAD_DSTYLE_DIM_LINETYPE
 70
     0
  0
APPID
  5
293
330
9
100
AcDbSymbolTableRecord
100
AcDbRegAppTableRecord
  2
ACAD_DSTYLE_DIM_EXT1_LINETYPE
 70
     0
  0
APPID
  5
294
330
9
100
AcDbSymbolTableRecord
100
AcDbRegAppTableRecord
  2
ACAD_DSTYLE_DIM_EXT2_LINETYPE
 70
     0
  0
APPID
  5
2D4
330
9
100
AcDbSymbolTableRecord
100
AcDbRegAppTableRecord
  2
ACAD_MLEADERVER
 70
     0
  0
APPID
  5
34D
330
9
100
AcDbSymbolTableRecord
100
AcDbRegAppTableRecord
  2
ACAD_EXEMPT_FROM_CAD_STANDARDS
 70
     0
  0
APPID
  5
378
330
9
100
AcDbSymbolTableRecord
100
AcDbRegAppTableRecord
  2
ACAD_NAV_VCDISPLAY
 70
     0
  0
ENDTAB
  0
TABLE
  2
DIMSTYLE
  5
A
330
0
100
AcDbSymbolTable
 70
     1
100
AcDbDimStyleTable
 71
     0
  0
DIMSTYLE
105
27
330
A
100
AcDbSymbolTableRecord
100
AcDbDimStyleTableRecord
  2
Standard
 70
     0
340
11
1001
ACAD_DSTYLE_DIMBREAK
1070
   391
1040
6.349999999999999
  0
ENDTAB
  0
TABLE
  2
BLOCK_RECORD
  5
1
330
0
100
AcDbSymbolTable
 70
    15
  0
BLOCK_RECORD
  5
1F
102
{ACAD_XDICTIONARY
360
2E5
102
}
330
1
100
AcDbSymbolTableRecord
100
AcDbBlockTableRecord
  2
*Model_Space
340
22
  0
BLOCK_RECORD
  5
1B
330
1
100
AcDbSymbolTableRecord
100
AcDbBlockTableRecord
  2
*Paper_Space
340
1E
  0
BLOCK_RECORD
  5
23
330
1
100
AcDbSymbolTableRecord
100
AcDbBlockTableRecord
  2
*Paper_Space0
340
26
  0
BLOCK_RECORD
  5
1DA
330
1
100
AcDbSymbolTableRecord
100
AcDbBlockTableRecord
  2
*D1
340
0
  0
BLOCK_RECORD
  5
1E7
330
1
100
AcDbSymbolTableRecord
100
AcDbBlockTableRecord
  2
_U0
340
0
  0
BLOCK_RECORD
  5
1F3
330
1
100
AcDbSymbolTableRecord
100
AcDbBlockTableRecord
  2
*D3
340
0
  0
BLOCK_RECORD
  5
1FF
330
1
100
AcDbSymbolTableRecord
100
AcDbBlockTableRecord
  2
_U1
340
0
  0
BLOCK_RECORD
  5
20C
330
1
100
AcDbSymbolTableRecord
100
AcDbBlockTableRecord
  2
*D5
340
0
  0
BLOCK_RECORD
  5
218
330
1
100
AcDbSymbolTableRecord
100
AcDbBlockTableRecord
  2
_U2
340
0
  0
BLOCK_RECORD
  5
225
330
1
100
AcDbSymbolTableRecord
100
AcDbBlockTableRecord
  2
*D7
340
0
  0
BLOCK_RECORD
  5
230
330
1
100
AcDbSymbolTableRecord
100
AcDbBlockTableRecord
  2
_U3
340
0
  0
BLOCK_RECORD
  5
23B
330
1
100
AcDbSymbolTableRecord
100
AcDbBlockTableRecord
  2
*D9
340
0
  0
BLOCK_RECORD
  5
247
330
1
100
AcDbSymbolTableRecord
100
AcDbBlockTableRecord
  2
_U4
340
0
  0
BLOCK_RECORD
  5
253
330
1
100
AcDbSymbolTableRecord
100
AcDbBlockTableRecord
  2
*D11
340
0
  0
BLOCK_RECORD
  5
261
330
1
100
AcDbSymbolTableRecord
100
AcDbBlockTableRecord
  2
_U5
340
0
  0
BLOCK_RECORD
  5
26D
330
1
100
AcDbSymbolTableRecord
100
AcDbBlockTableRecord
  2
*D13
340
0
  0
BLOCK_RECORD
  5
27A
330
1
100
AcDbSymbolTableRecord
100
AcDbBlockTableRecord
  2
_U6
340
0
  0
ENDTAB
  0
ENDSEC
  0
SECTION
  2
BLOCKS
  0
BLOCK
  5
20
330
1F
100
AcDbEntity
  8
0
100
AcDbBlockBegin
  2
*Model_Space
 70
     0
 10
0.0
 20
0.0
 30
0.0
  3
*Model_Space
  1

  0
ENDBLK
  5
21
330
1F
100
AcDbEntity
  8
0
100
AcDbBlockEnd
  0
BLOCK
  5
1C
330
1B
100
AcDbEntity
 67
     1
  8
0
100
AcDbBlockBegin
  2
*Paper_Space
 70
     0
 10
0.0
 20
0.0
 30
0.0
  3
*Paper_Space
  1

  0
ENDBLK
  5
1D
330
1B
100
AcDbEntity
 67
     1
  8
0
100
AcDbBlockEnd
  0
BLOCK
  5
24
330
23
100
AcDbEntity
 67
     1
  8
0
100
AcDbBlockBegin
  2
*Paper_Space0
 70
     0
 10
0.0
 20
0.0
 30
0.0
  3
*Paper_Space0
  1

  0
ENDBLK
  5
25
330
23
100
AcDbEntity
 67
     1
  8
0
100
AcDbBlockEnd
  0
BLOCK
  5
1DB
330
1DA
100
AcDbEntity
  8
0
100
AcDbBlockBegin
  2
*D1
 70
     1
 10
0.0
 20
0.0
 30
0.0
  3
*D1
  1

  0
LINE
  5
1DD
330
1DA
100
AcDbEntity
  8
0
 62
    95
370
    -2
100
AcDbLine
 10
252.344248
 20
248.634018
 30
0.0
 11
240.443195
 21
248.634018
 31
0.0
  0
LINE
  5
1DE
330
1DA
100
AcDbEntity
  8
0
 62
    95
370
    -2
100
AcDbLine
 10
252.344248
 20
240.234018
 30
0.0
 11
240.443195
 21
240.234018
 31
0.0
  0
LINE
  5
1DF
330
1DA
100
AcDbEntity
  8
0
 62
    95
370
    -2
100
AcDbLine
 10
241.443195
 20
252.134018
 30
0.0
 11
241.443195
 21
255.634018
 31
0.0
  0
LINE
  5
1E0
330
1DA
100
AcDbEntity
  8
0
 62
    95
370
    -2
100
AcDbLine
 10
241.443195
 20
236.734018
 30
0.0
 11
241.443195
 21
233.234018
 31
0.0
  0
SOLID
  5
1E1
330
1DA
100
AcDbEntity
  8
0
 62
    95
100
AcDbTrace
 10
240.859861
 20
252.134018
 30
0.0
 11
242.026528
 21
252.134018
 31
0.0
 12
241.443195
 22
248.634018
 32
0.0
 13
241.443195
 23
248.634018
 33
0.0
  0
SOLID
  5
1E2
330
1DA
100
AcDbEntity
  8
0
 62
    95
100
AcDbTrace
 10
242.026528
 20
236.734018
 30
0.0
 11
240.859861
 21
236.734018
 31
0.0
 12
241.443195
 22
240.234018
 32
0.0
 13
241.443195
 23
240.234018
 33
0.0
  0
MTEXT
  5
1E3
330
1DA
100
AcDbEntity
  8
0
 62
    95
370
    13
100
AcDbMText
 10
236.193195
 20
244.434018
 30
0.0
 40
3.5
 41
0.0
 71
     5
 72
     1
  1
\A1;8.4
  7
cesky
 11
0.0
 21
1.0
 31
0.0
 73
     1
 44
1.0
  0
POINT
  5
1E4
330
1DA
100
AcDbEntity
  8
Defpoints
 62
     0
100
AcDbPoint
 10
252.344248
 20
248.634018
 30
0.0
  0
POINT
  5
1E5
330
1DA
100
AcDbEntity
  8
Defpoints
 62
     0
100
AcDbPoint
 10
252.344248
 20
240.234018
 30
0.0
  0
POINT
  5
1E6
330
1DA
100
AcDbEntity
  8
Defpoints
 62
     0
100
AcDbPoint
 10
241.443195
 20
240.234018
 30
0.0
  0
ENDBLK
  5
1DC
330
1DA
100
AcDbEntity
  8
0
100
AcDbBlockEnd
  0
BLOCK
  5
1EE
330
1E7
100
AcDbEntity
  8
0
100
AcDbBlockBegin
  2
_U0
 70
     0
 10
0.0
 20
0.0
 30
0.0
  3
_U0
  1

  0
MTEXT
  5
1E8
330
1E7
100
AcDbEntity
  8
60
  6
Continuous
 62
    95
440
 16777216
370
    13
100
AcDbMText
 10
241.912028
 20
241.329018
 30
0.0
 40
3.5
 41
0.0
 71
     7
 72
     5
  1
\W0.8677;8,4
  7
cesky
 11
0.0000000000000001
 21
1.0
 31
0.0
 73
     2
 44
0.8433729999999998
  0
LINE
  5
1E9
330
1E7
100
AcDbEntity
  8
60
 62
    95
440
 16777216
370
    13
100
AcDbLine
 10
250.444248
 20
248.634018
 30
0.0
 11
240.443195
 21
248.634018
 31
0.0
  0
LINE
  5
1EA
330
1E7
100
AcDbEntity
  8
60
 62
    95
440
 16777216
370
    13
100
AcDbLine
 10
250.444248
 20
240.234018
 30
0.0
 11
240.443195
 21
240.234018
 31
0.0
  0
LINE
  5
1EB
330
1E7
100
AcDbEntity
  8
60
 62
    95
440
 16777216
370
    13
100
AcDbLine
 10
241.443195
 20
248.634018
 30
0.0
 11
241.443195
 21
240.234018
 31
0.0
  0
SOLID
  5
1EC
330
1E7
100
AcDbEntity
  8
60
 62
    95
440
 16777216
370
    13
100
AcDbTrace
 10
241.443195
 20
248.634018
 30
0.0
 11
242.060339
 21
245.134021
 31
0.0
 12
240.82605
 22
245.134016
 32
0.0
 13
240.82605
 23
245.134016
 33
0.0
  0
SOLID
  5
1ED
330
1E7
100
AcDbEntity
  8
60
 62
    95
440
 16777216
370
    13
100
AcDbTrace
 10
241.443195
 20
240.234018
 30
0.0
 11
240.82605
 21
243.734016
 31
0.0
 12
242.060339
 22
243.734021
 32
0.0
 13
242.060339
 23
243.734021
 33
0.0
  0
ENDBLK
  5
1EF
330
1E7
100
AcDbEntity
  8
0
100
AcDbBlockEnd
  0
BLOCK
  5
1F4
330
1F3
100
AcDbEntity
  8
0
100
AcDbBlockBegin
  2
*D3
 70
     1
 10
0.0
 20
0.0
 30
0.0
  3
*D3
  1

  0
LINE
  5
1F6
330
1F3
100
AcDbEntity
  8
0
 62
    95
370
    -2
100
AcDbLine
 10
258.069248
 20
252.434018
 30
0.0
 11
230.303559
 21
252.434018
 31
0.0
  0
LINE
  5
1F7
330
1F3
100
AcDbEntity
  8
0
 62
    95
370
    -2
100
AcDbLine
 10
259.130303
 20
236.434018
 30
0.0
 11
230.303559
 21
236.434018
 31
0.0
  0
LINE
  5
1F8
330
1F3
100
AcDbEntity
  8
0
 62
    95
370
    -2
100
AcDbLine
 10
231.303559
 20
248.934018
 30
0.0
 11
231.303559
 21
239.934018
 31
0.0
  0
SOLID
  5
1F9
330
1F3
100
AcDbEntity
  8
0
 62
    95
100
AcDbTrace
 10
231.886892
 20
248.934018
 30
0.0
 11
230.720226
 21
248.934018
 31
0.0
 12
231.303559
 22
252.434018
 32
0.0
 13
231.303559
 23
252.434018
 33
0.0
  0
SOLID
  5
1FA
330
1F3
100
AcDbEntity
  8
0
 62
    95
100
AcDbTrace
 10
230.720226
 20
239.934018
 30
0.0
 11
231.886892
 21
239.934018
 31
0.0
 12
231.303559
 22
236.434018
 32
0.0
 13
231.303559
 23
236.434018
 33
0.0
  0
MTEXT
  5
1FB
330
1F3
100
AcDbEntity
  8
0
 62
    95
370
    13
100
AcDbMText
 10
226.053559
 20
244.434018
 30
0.0
 40
3.5
 41
0.0
 71
     5
 72
     1
  1
\A1;16
  7
cesky
 11
0.0
 21
1.0
 31
0.0
 73
     1
 44
1.0
  0
POINT
  5
1FC
330
1F3
100
AcDbEntity
  8
Defpoints
 62
     0
100
AcDbPoint
 10
258.069248
 20
252.434018
 30
0.0
  0
POINT
  5
1FD
330
1F3
100
AcDbEntity
  8
Defpoints
 62
     0
100
AcDbPoint
 10
259.130303
 20
236.434018
 30
0.0
  0
POINT
  5
1FE
330
1F3
100
AcDbEntity
  8
Defpoints
 62
     0
100
AcDbPoint
 10
231.303559
 20
236.434018
 30
0.0
  0
ENDBLK
  5
1F5
330
1F3
100
AcDbEntity
  8
0
100
AcDbBlockEnd
  0
BLOCK
  5
207
330
1FF
100
AcDbEntity
  8
0
100
AcDbBlockBegin
  2
_U1
 70
     0
 10
0.0
 20
0.0
 30
0.0
  3
_U1
  1

  0
ENDBLK
  5
208
330
1FF
100
AcDbEntity
  8
0
100
AcDbBlockEnd
  0
BLOCK
  5
20D
330
20C
100
AcDbEntity
  8
0
100
AcDbBlockBegin
  2
*D5
 70
     1
 10
0.0
 20
0.0
 30
0.0
  3
*D5
  1

  0
LINE
  5
20F
330
20C
100
AcDbEntity
  8
0
 62
    95
370
    -2
100
AcDbLine
 10
259.26993
 20
261.4340180000001
 30
0.0
 11
221.251137
 21
261.4340180000001
 31
0.0
  0
LINE
  5
210
330
20C
100
AcDbEntity
  8
0
 62
    95
370
    -2
100
AcDbLine
 10
258.578993
 20
227.434018
 30
0.0
 11
221.251137
 21
227.434018
 31
0.0
  0
LINE
  5
211
330
20C
100
AcDbEntity
  8
0
 62
    95
370
    -2
100
AcDbLine
 10
222.251137
 20
257.934018
 30
0.0
 11
222.251137
 21
230.934018
 31
0.0
  0
SOLID
  5
212
330
20C
100
AcDbEntity
  8
0
 62
    95
100
AcDbTrace
 10
222.83447
 20
257.934018
 30
0.0
 11
221.667804
 21
257.934018
 31
0.0
 12
222.251137
 22
261.4340180000001
 32
0.0
 13
222.251137
 23
261.4340180000001
 33
0.0
  0
SOLID
  5
213
330
20C
100
AcDbEntity
  8
0
 62
    95
100
AcDbTrace
 10
221.667804
 20
230.934018
 30
0.0
 11
222.83447
 21
230.934018
 31
0.0
 12
222.251137
 22
227.434018
 32
0.0
 13
222.251137
 23
227.434018
 33
0.0
  0
MTEXT
  5
214
330
20C
100
AcDbEntity
  8
0
 62
    95
370
    13
100
AcDbMText
 10
217.001137
 20
244.434018
 30
0.0
 40
3.5
 41
0.0
 71
     5
 72
     1
  1
\A1;34
  7
cesky
 11
0.0
 21
1.0
 31
0.0
 73
     1
 44
1.0
  0
POINT
  5
215
330
20C
100
AcDbEntity
  8
Defpoints
 62
     0
100
AcDbPoint
 10
259.26993
 20
261.4340180000001
 30
0.0
  0
POINT
  5
216
330
20C
100
AcDbEntity
  8
Defpoints
 62
     0
100
AcDbPoint
 10
258.578993
 20
227.434018
 30
0.0
  0
POINT
  5
217
330
20C
100
AcDbEntity
  8
Defpoints
 62
     0
100
AcDbPoint
 10
222.251137
 20
227.434018
 30
0.0
  0
ENDBLK
  5
20E
330
20C
100
AcDbEntity
  8
0
100
AcDbBlockEnd
  0
BLOCK
  5
220
330
218
100
AcDbEntity
  8
0
100
AcDbBlockBegin
  2
_U2
 70
     0
 10
0.0
 20
0.0
 30
0.0
  3
_U2
  1

  0
ENDBLK
  5
221
330
218
100
AcDbEntity
  8
0
100
AcDbBlockEnd
  0
BLOCK
  5
226
330
225
100
AcDbEntity
  8
0
100
AcDbBlockBegin
  2
*D7
 70
     1
 10
0.0
 20
0.0
 30
0.0
  3
*D7
  1

  0
LINE
  5
228
330
225
100
AcDbEntity
  8
0
 62
   254
370
    -2
100
AcDbLine
 10
280.744248
 20
244.434018
 30
0.0
 11
301.070778
 21
244.434018
 31
0.0
  0
LINE
  5
229
330
225
100
AcDbEntity
  8
0
 62
   254
370
    -2
100
AcDbLine
 10
291.444248
 20
275.9340180000001
 30
0.0
 11
301.070778
 21
275.9340180000001
 31
0.0
  0
LINE
  5
22A
330
225
100
AcDbEntity
  8
0
 62
   254
370
    -2
100
AcDbLine
 10
300.0707779999999
 20
244.434018
 30
0.0
 11
300.0707779999999
 21
275.9340180000001
 31
0.0
  0
SOLID
  5
22B
330
225
100
AcDbEntity
  8
0
 62
   254
100
AcDbTrace
 10
300.654111
 20
272.434018
 30
0.0
 11
299.4874450000001
 21
272.434018
 31
0.0
 12
300.0707779999999
 22
275.9340180000001
 32
0.0
 13
300.0707779999999
 23
275.9340180000001
 33
0.0
  0
MTEXT
  5
22C
330
225
100
AcDbEntity
  8
0
 62
   254
370
    13
100
AcDbMText
 10
294.820778
 20
234.600685
 30
0.0
 40
3.5
 41
0.0
 71
     5
 72
     1
  1
\A1;63
  7
cesky
 11
0.0
 21
1.0
 31
0.0
 73
     1
 44
1.0
  0
POINT
  5
22D
330
225
100
AcDbEntity
  8
Defpoints
 62
     0
100
AcDbPoint
 10
280.744248
 20
244.434018
 30
0.0
  0
POINT
  5
22E
330
225
100
AcDbEntity
  8
Defpoints
 62
     0
100
AcDbPoint
 10
291.444248
 20
275.9340180000001
 30
0.0
  0
POINT
  5
22F
330
225
100
AcDbEntity
  8
Defpoints
 62
     0
100
AcDbPoint
 10
300.0707779999999
 20
275.9340180000001
 30
0.0
  0
ENDBLK
  5
227
330
225
100
AcDbEntity
  8
0
100
AcDbBlockEnd
  0
BLOCK
  5
236
330
230
100
AcDbEntity
  8
0
100
AcDbBlockBegin
  2
_U3
 70
     0
 10
0.0
 20
0.0
 30
0.0
  3
_U3
  1

  0
ENDBLK
  5
237
330
230
100
AcDbEntity
  8
0
100
AcDbBlockEnd
  0
BLOCK
  5
23C
330
23B
100
AcDbEntity
  8
0
100
AcDbBlockBegin
  2
*D9
 70
     1
 10
0.0
 20
0.0
 30
0.0
  3
*D9
  1

  0
LINE
  5
23E
330
23B
100
AcDbEntity
  8
0
 62
   254
370
    -2
100
AcDbLine
 10
289.444248
 20
275.9340180000001
 30
0.0
 11
289.444248
 21
290.603475
 31
0.0
  0
LINE
  5
23F
330
23B
100
AcDbEntity
  8
0
 62
   254
370
    -2
100
AcDbLine
 10
249.444248
 20
260.434018
 30
0.0
 11
249.444248
 21
290.603475
 31
0.0
  0
LINE
  5
240
330
23B
100
AcDbEntity
  8
0
 62
   254
370
    -2
100
AcDbLine
 10
285.944248
 20
289.603475
 30
0.0
 11
252.944248
 21
289.603475
 31
0.0
  0
SOLID
  5
241
330
23B
100
AcDbEntity
  8
0
 62
   254
100
AcDbTrace
 10
285.944248
 20
289.020141
 30
0.0
 11
285.944248
 21
290.186808
 31
0.0
 12
289.444248
 22
289.603475
 32
0.0
 13
289.444248
 23
289.603475
 33
0.0
  0
SOLID
  5
242
330
23B
100
AcDbEntity
  8
0
 62
   254
100
AcDbTrace
 10
252.944248
 20
290.186808
 30
0.0
 11
252.944248
 21
289.020141
 31
0.0
 12
249.444248
 22
289.603475
 32
0.0
 13
249.444248
 23
289.603475
 33
0.0
  0
MTEXT
  5
243
330
23B
100
AcDbEntity
  8
0
 62
   254
370
    13
100
AcDbMText
 10
269.444248
 20
294.853475
 30
0.0
 40
3.5
 41
0.0
 71
     5
 72
     1
  1
\A1;40
  7
cesky
 73
     1
 44
1.0
  0
POINT
  5
244
330
23B
100
AcDbEntity
  8
Defpoints
 62
     0
100
AcDbPoint
 10
289.444248
 20
275.9340180000001
 30
0.0
  0
POINT
  5
245
330
23B
100
AcDbEntity
  8
Defpoints
 62
     0
100
AcDbPoint
 10
249.444248
 20
260.434018
 30
0.0
  0
POINT
  5
246
330
23B
100
AcDbEntity
  8
Defpoints
 62
     0
100
AcDbPoint
 10
249.444248
 20
289.603475
 30
0.0
  0
ENDBLK
  5
23D
330
23B
100
AcDbEntity
  8
0
100
AcDbBlockEnd
  0
BLOCK
  5
24E
330
247
100
AcDbEntity
  8
0
100
AcDbBlockBegin
  2
_U4
 70
     0
 10
0.0
 20
0.0
 30
0.0
  3
_U4
  1

  0
ENDBLK
  5
24F
330
247
100
AcDbEntity
  8
0
100
AcDbBlockEnd
  0
BLOCK
  5
254
330
253
100
AcDbEntity
  8
0
100
AcDbBlockBegin
  2
*D11
 70
     1
 10
0.0
 20
0.0
 30
0.0
  3
*D11
  1

  0
LINE
  5
256
330
253
100
AcDbEntity
  8
0
 62
    95
370
    -2
100
AcDbLine
 10
249.444248
 20
228.434018
 30
0.0
 11
249.444248
 21
215.011173
 31
0.0
  0
LINE
  5
257
330
253
100
AcDbEntity
  8
0
 62
    95
370
    -2
100
AcDbLine
 10
255.044248
 20
244.434018
 30
0.0
 11
255.044248
 21
215.011173
 31
0.0
  0
LINE
  5
258
330
253
100
AcDbEntity
  8
0
 62
    95
370
    -2
100
AcDbLine
 10
249.444248
 20
216.011173
 30
0.0
 11
228.277582
 21
216.011173
 31
0.0
  0
LINE
  5
259
330
253
100
AcDbEntity
  8
0
 62
    95
370
    -2
100
AcDbLine
 10
245.944248
 20
216.011173
 30
0.0
 11
242.444248
 21
216.011173
 31
0.0
  0
LINE
  5
25A
330
253
100
AcDbEntity
  8
0
 62
    95
370
    -2
100
AcDbLine
 10
258.544248
 20
216.011173
 30
0.0
 11
262.044248
 21
216.011173
 31
0.0
  0
SOLID
  5
25B
330
253
100
AcDbEntity
  8
0
 62
    95
100
AcDbTrace
 10
245.944248
 20
215.42784
 30
0.0
 11
245.944248
 21
216.594506
 31
0.0
 12
249.444248
 22
216.011173
 32
0.0
 13
249.444248
 23
216.011173
 33
0.0
  0
SOLID
  5
25C
330
253
100
AcDbEntity
  8
0
 62
    95
100
AcDbTrace
 10
258.544248
 20
216.594506
 30
0.0
 11
258.544248
 21
215.42784
 31
0.0
 12
255.044248
 22
216.011173
 32
0.0
 13
255.044248
 23
216.011173
 33
0.0
  0
MTEXT
  5
25D
330
253
100
AcDbEntity
  8
0
 62
    95
370
    13
100
AcDbMText
 10
235.360915
 20
221.261173
 30
0.0
 40
3.5
 41
0.0
 71
     5
 72
     1
  1
\A1;5.6
  7
cesky
 73
     1
 44
1.0
  0
POINT
  5
25E
330
253
100
AcDbEntity
  8
Defpoints
 62
     0
100
AcDbPoint
 10
249.444248
 20
228.434018
 30
0.0
  0
POINT
  5
25F
330
253
100
AcDbEntity
  8
Defpoints
 62
     0
100
AcDbPoint
 10
255.044248
 20
244.434018
 30
0.0
  0
POINT
  5
260
330
253
100
AcDbEntity
  8
Defpoints
 62
     0
100
AcDbPoint
 10
255.044248
 20
216.011173
 30
0.0
  0
ENDBLK
  5
255
330
253
100
AcDbEntity
  8
0
100
AcDbBlockEnd
  0
BLOCK
  5
268
330
261
100
AcDbEntity
  8
0
100
AcDbBlockBegin
  2
_U5
 70
     0
 10
0.0
 20
0.0
 30
0.0
  3
_U5
  1

  0
MTEXT
  5
262
330
261
100
AcDbEntity
  8
60
  6
Continuous
 62
    95
440
 16777216
370
    13
100
AcDbMText
 10
236.604748
 20
215.88534
 30
0.0
 40
3.5
 41
0.0
 71
     7
 72
     5
  1
\W0.9081;5,6
  7
cesky
 73
     2
 44
0.8433729999999998
  0
LINE
  5
263
330
261
100
AcDbEntity
  8
60
 62
    95
440
 16777216
370
    13
100
AcDbLine
 10
249.444248
 20
228.434018
 30
0.0
 11
249.444248
 21
215.011173
 31
0.0
  0
LINE
  5
264
330
261
100
AcDbEntity
  8
60
 62
    95
440
 16777216
370
    13
100
AcDbLine
 10
255.044248
 20
244.434018
 30
0.0
 11
255.044248
 21
215.011173
 31
0.0
  0
LINE
  5
265
330
261
100
AcDbEntity
  8
60
 62
    95
440
 16777216
370
    13
100
AcDbLine
 10
263.794248
 20
216.011173
 30
0.0
 11
236.419248
 21
216.011173
 31
0.0
  0
SOLID
  5
266
330
261
100
AcDbEntity
  8
60
 62
    95
440
 16777216
370
    13
100
AcDbTrace
 10
249.444248
 20
216.011173
 30
0.0
 11
245.944251
 21
215.394029
 31
0.0
 12
245.944246
 22
216.628317
 32
0.0
 13
245.944246
 23
216.628317
 33
0.0
  0
SOLID
  5
267
330
261
100
AcDbEntity
  8
60
 62
    95
440
 16777216
370
    13
100
AcDbTrace
 10
255.044248
 20
216.011173
 30
0.0
 11
258.544246
 21
216.628317
 31
0.0
 12
258.544251
 22
215.394029
 32
0.0
 13
258.544251
 23
215.394029
 33
0.0
  0
ENDBLK
  5
269
330
261
100
AcDbEntity
  8
0
100
AcDbBlockEnd
  0
BLOCK
  5
26E
330
26D
100
AcDbEntity
  8
0
100
AcDbBlockBegin
  2
*D13
 70
     1
 10
0.0
 20
0.0
 30
0.0
  3
*D13
  1

  0
LINE
  5
270
330
26D
100
AcDbEntity
  8
0
 62
   254
370
    -2
100
AcDbLine
 10
289.444248
 20
277.9340180000001
 30
0.0
 11
289.444248
 21
284.656394
 31
0.0
  0
LINE
  5
271
330
26D
100
AcDbEntity
  8
0
 62
   254
370
    -2
100
AcDbLine
 10
283.44482
 20
275.863932
 30
0.0
 11
283.44482
 21
284.656394
 31
0.0
  0
LINE
  5
272
330
26D
100
AcDbEntity
  8
0
 62
   254
370
    -2
100
AcDbLine
 10
292.944248
 20
283.656394
 30
0.0
 11
296.444248
 21
283.656394
 31
0.0
  0
LINE
  5
273
330
26D
100
AcDbEntity
  8
0
 62
   254
370
    -2
100
AcDbLine
 10
279.94482
 20
283.656394
 30
0.0
 11
276.44482
 21
283.656394
 31
0.0
  0
SOLID
  5
274
330
26D
100
AcDbEntity
  8
0
 62
   254
100
AcDbTrace
 10
292.944248
 20
284.239727
 30
0.0
 11
292.944248
 21
283.07306
 31
0.0
 12
289.444248
 22
283.656394
 32
0.0
 13
289.444248
 23
283.656394
 33
0.0
  0
SOLID
  5
275
330
26D
100
AcDbEntity
  8
0
 62
   254
100
AcDbTrace
 10
279.94482
 20
283.07306
 30
0.0
 11
279.94482
 21
284.239727
 31
0.0
 12
283.44482
 22
283.656394
 32
0.0
 13
283.44482
 23
283.656394
 33
0.0
  0
MTEXT
  5
276
330
26D
100
AcDbEntity
  8
0
 62
   254
370
    13
100
AcDbMText
 10
286.4445339999999
 20
288.906394
 30
0.0
 40
3.5
 41
0.0
 71
     5
 72
     1
  1
\A1;6
  7
cesky
 73
     1
 44
1.0
  0
POINT
  5
277
330
26D
100
AcDbEntity
  8
Defpoints
 62
     0
100
AcDbPoint
 10
289.444248
 20
277.9340180000001
 30
0.0
  0
POINT
  5
278
330
26D
100
AcDbEntity
  8
Defpoints
 62
     0
100
AcDbPoint
 10
283.44482
 20
275.863932
 30
0.0
  0
POINT
  5
279
330
26D
100
AcDbEntity
  8
Defpoints
 62
     0
100
AcDbPoint
 10
283.44482
 20
283.656394
 30
0.0
  0
ENDBLK
  5
26F
330
26D
100
AcDbEntity
  8
0
100
AcDbBlockEnd
  0
BLOCK
  5
281
330
27A
100
AcDbEntity
  8
0
100
AcDbBlockBegin
  2
_U6
 70
     0
 10
0.0
 20
0.0
 30
0.0
  3
_U6
  1

  0
MTEXT
  5
27B
330
27A
100
AcDbEntity
  8
60
  6
Continuous
 62
   254
440
 16777216
370
    13
100
AcDbMText
 10
285.892534
 20
283.53056
 30
0.0
 40
3.5
 41
0.0
 71
     7
 72
     5
  1
\W0.6563;6
  7
cesky
 73
     2
 44
0.8433729999999998
  0
LINE
  5
27C
330
27A
100
AcDbEntity
  8
60
 62
   254
440
 16777216
370
    13
100
AcDbLine
 10
289.444248
 20
277.9340180000001
 30
0.0
 11
289.444248
 21
284.656394
 31
0.0
  0
LINE
  5
27D
330
27A
100
AcDbEntity
  8
60
 62
   254
440
 16777216
370
    13
100
AcDbLine
 10
283.44482
 20
275.863932
 30
0.0
 11
283.44482
 21
284.656394
 31
0.0
  0
LINE
  5
27E
330
27A
100
AcDbEntity
  8
60
 62
   254
440
 16777216
370
    13
100
AcDbLine
 10
298.194248
 20
283.656394
 30
0.0
 11
274.69482
 21
283.656394
 31
0.0
  0
SOLID
  5
27F
330
27A
100
AcDbEntity
  8
60
 62
   254
440
 16777216
370
    13
100
AcDbTrace
 10
289.444248
 20
283.656394
 30
0.0
 11
292.944246
 21
284.273538
 31
0.0
 12
292.9442509999999
 22
283.039249
 32
0.0
 13
292.9442509999999
 23
283.039249
 33
0.0
  0
SOLID
  5
280
330
27A
100
AcDbEntity
  8
60
 62
   254
440
 16777216
370
    13
100
AcDbTrace
 10
283.44482
 20
283.656394
 30
0.0
 11
279.944822
 21
283.039249
 31
0.0
 12
279.944817
 22
284.273538
 32
0.0
 13
279.944817
 23
284.273538
 33
0.0
  0
ENDBLK
  5
282
330
27A
100
AcDbEntity
  8
0
100
AcDbBlockEnd
  0
ENDSEC
  0
SECTION
  2
ENTITIES
  0
POINT
  5
73
102
{ACAD_REACTORS
330
34C
102
}
330
1F
100
AcDbEntity
  8
80
100
AcDbPoint
 10
249.444248
 20
244.434018
 30
0.0
  0
POINT
  5
75
330
1F
100
AcDbEntity
  8
SK6
 60
     1
100
AcDbPoint
 10
255.044248
 20
244.434018
 30
0.0
  0
POINT
  5
77
330
1F
100
AcDbEntity
  8
SK6
 60
     1
100
AcDbPoint
 10
250.444248
 20
244.434018
 30
0.0
  0
POINT
  5
78
330
1F
100
AcDbEntity
  8
4
 60
     1
100
AcDbPoint
 10
250.444248
 20
244.434018
 30
0.0
  0
POINT
  5
7A
330
1F
100
AcDbEntity
  8
4
 60
     1
100
AcDbPoint
 10
280.744248
 20
244.434018
 30
0.0
  0
POINT
  5
7B
330
1F
100
AcDbEntity
  8
SK6
 60
     1
100
AcDbPoint
 10
249.444248
 20
228.434018
 30
0.0
  0
POINT
  5
7C
330
1F
100
AcDbEntity
  8
SK6
 60
     1
100
AcDbPoint
 10
255.044248
 20
244.434018
 30
0.0
  0
LINE
  5
7D
330
1F
100
AcDbEntity
  8
1
100
AcDbLine
 10
289.144248
 20
251.090872
 30
0.0
 11
286.642542
 21
251.090872
 31
0.0
  0
LINE
  5
7F
330
1F
100
AcDbEntity
  8
1
100
AcDbLine
 10
285.921287
 20
249.358316
 30
0.0
 11
285.104187
 21
249.478573
 31
0.0
  0
LINE
  5
80
330
1F
100
AcDbEntity
  8
1
100
AcDbLine
 10
283.898713
 20
249.507976
 30
0.0
 11
285.103588
 21
249.47581
 31
0.0
  0
LINE
  5
81
330
1F
100
AcDbEntity
  8
1
100
AcDbLine
 10
289.440432
 20
228.691137
 30
0.0
 11
289.440083
 21
228.691146
 31
0.0
  0
LINE
  5
83
330
1F
100
AcDbEntity
  8
1
100
AcDbLine
 10
289.232209
 20
237.175173
 30
0.0
 11
289.327746
 21
237.099455
 31
0.0
  0
LINE
  5
84
330
1F
100
AcDbEntity
  8
1
100
AcDbLine
 10
289.232209
 20
237.175173
 30
0.0
 11
289.144218
 21
237.177459
 31
0.0
  0
LINE
  5
85
330
1F
100
AcDbEntity
  8
1
100
AcDbLine
 10
289.324317
 20
237.046982
 30
0.0
 11
289.144245
 21
237.05166
 31
0.0
  0
LINE
  5
86
330
1F
100
AcDbEntity
  8
1
100
AcDbLine
 10
289.2269950000001
 20
235.452475
 30
0.0
 11
289.199123
 21
235.453199
 31
0.0
  0
LINE
  5
87
330
1F
100
AcDbEntity
  8
1
100
AcDbLine
 10
289.375879
 20
233.917938
 30
0.0
 11
289.422955
 21
230.238975
 31
0.0
  0
LINE
  5
88
330
1F
100
AcDbEntity
  8
1
100
AcDbLine
 10
289.327746
 20
237.099455
 30
0.0
 11
289.375879
 21
233.917938
 31
0.0
  0
LINE
  5
89
330
1F
100
AcDbEntity
  8
1
100
AcDbLine
 10
289.323387
 20
237.026395
 30
0.0
 11
289.327746
 21
237.099455
 31
0.0
  0
LINE
  5
8A
330
1F
100
AcDbEntity
  8
1
100
AcDbLine
 10
289.324317
 20
237.046982
 30
0.0
 11
289.323387
 21
237.026395
 31
0.0
  0
LINE
  5
8B
330
1F
100
AcDbEntity
  8
1
100
AcDbLine
 10
289.211242
 20
235.188479
 30
0.0
 11
289.2269950000001
 21
235.452475
 31
0.0
  0
LINE
  5
8C
330
1F
100
AcDbEntity
  8
1
100
AcDbLine
 10
289.232041
 20
225.018755
 30
0.0
 11
289.144245
 21
223.547462
 31
0.0
  0
LINE
  5
8D
330
1F
100
AcDbEntity
  8
1
100
AcDbLine
 10
289.440845
 20
228.633922
 30
0.0
 11
289.232041
 21
225.018755
 31
0.0
  0
LINE
  5
8E
330
1F
100
AcDbEntity
  8
1
100
AcDbLine
 10
289.439973
 20
228.70209
 30
0.0
 11
289.440845
 21
228.633922
 31
0.0
  0
LINE
  5
8F
330
1F
100
AcDbEntity
  8
1
100
AcDbLine
 10
289.440432
 20
228.691137
 30
0.0
 11
289.439973
 21
228.70209
 31
0.0
  0
LINE
  5
90
330
1F
100
AcDbEntity
  8
1
100
AcDbLine
 10
289.422955
 20
229.512983
 30
0.0
 11
289.422755
 21
229.512974
 31
0.0
  0
LINE
  5
91
330
1F
100
AcDbEntity
  8
1
100
AcDbLine
 10
289.341817
 20
228.854656
 30
0.0
 11
286.344786
 21
228.721874
 31
0.0
  0
LINE
  5
92
330
1F
100
AcDbEntity
  8
1
100
AcDbLine
 10
286.244012
 20
228.746696
 30
0.0
 11
286.035209
 21
233.305745
 31
0.0
  0
LINE
  5
93
330
1F
100
AcDbEntity
  8
1
100
AcDbLine
 10
286.244012
 20
228.746696
 30
0.0
 11
286.344786
 21
228.721874
 31
0.0
  0
LINE
  5
94
330
1F
100
AcDbEntity
  8
1
100
AcDbLine
 10
286.344786
 20
228.721874
 30
0.0
 11
286.3518649999999
 21
229.148864
 31
0.0
  0
LINE
  5
95
330
1F
100
AcDbEntity
  8
1
100
AcDbLine
 10
289.295485
 20
229.27928
 30
0.0
 11
289.341817
 21
228.854656
 31
0.0
  0
LINE
  5
96
330
1F
100
AcDbEntity
  8
1
100
AcDbLine
 10
289.341817
 20
228.854656
 30
0.0
 11
289.440845
 21
228.888331
 31
0.0
  0
LINE
  5
97
330
1F
100
AcDbEntity
  8
1
100
AcDbLine
 10
286.035209
 20
233.305745
 30
0.0
 11
285.799918
 21
238.459109
 31
0.0
  0
LINE
  5
98
330
1F
100
AcDbEntity
  8
1
100
AcDbLine
 10
286.3518649999999
 20
229.148864
 30
0.0
 11
286.035209
 21
233.305745
 31
0.0
  0
LINE
  5
99
330
1F
100
AcDbEntity
  8
1
100
AcDbLine
 10
289.295485
 20
229.27928
 30
0.0
 11
286.3518649999999
 21
229.148864
 31
0.0
  0
LINE
  5
9A
330
1F
100
AcDbEntity
  8
1
100
AcDbLine
 10
289.232041
 20
233.44738
 30
0.0
 11
289.295485
 21
229.27928
 31
0.0
  0
LINE
  5
9B
330
1F
100
AcDbEntity
  8
1
100
AcDbLine
 10
288.899429
 20
240.736745
 30
0.0
 11
285.7025959999999
 21
240.59511
 31
0.0
  0
LINE
  5
9C
330
1F
100
AcDbEntity
  8
1
100
AcDbLine
 10
288.99675
 20
238.600743
 30
0.0
 11
285.799918
 21
238.459109
 31
0.0
  0
LINE
  5
9D
330
1F
100
AcDbEntity
  8
1
100
AcDbLine
 10
289.375879
 20
231.090149
 30
0.0
 11
289.422955
 21
229.512983
 31
0.0
  0
LINE
  5
9E
330
1F
100
AcDbEntity
  8
1
100
AcDbLine
 10
289.327746
 20
232.631811
 30
0.0
 11
289.375879
 21
231.090149
 31
0.0
  0
LINE
  5
9F
330
1F
100
AcDbEntity
  8
1
100
AcDbLine
 10
289.323387
 20
232.727299
 30
0.0
 11
289.327746
 21
232.631811
 31
0.0
  0
LINE
  5
A0
330
1F
100
AcDbEntity
  8
1
100
AcDbLine
 10
289.324317
 20
232.707539
 30
0.0
 11
289.323387
 21
232.727299
 31
0.0
  0
LINE
  5
A1
330
1F
100
AcDbEntity
  8
1
100
AcDbLine
 10
288.991704
 20
239.996904
 30
0.0
 11
289.2269950000001
 21
234.843541
 31
0.0
  0
LINE
  5
A2
330
1F
100
AcDbEntity
  8
1
100
AcDbLine
 10
288.903795
 20
241.916335
 30
0.0
 11
288.991704
 21
239.996904
 31
0.0
  0
LINE
  5
A3
330
1F
100
AcDbEntity
  8
1
100
AcDbLine
 10
288.899429
 20
240.736745
 30
0.0
 11
288.900359
 21
240.716985
 31
0.0
  0
LINE
  5
A4
330
1F
100
AcDbEntity
  8
1
100
AcDbLine
 10
289.232041
 20
233.44738
 30
0.0
 11
288.99675
 21
238.600743
 31
0.0
  0
LINE
  5
A5
330
1F
100
AcDbEntity
  8
1
100
AcDbLine
 10
289.440845
 20
228.888331
 30
0.0
 11
289.232041
 21
233.44738
 31
0.0
  0
LINE
  5
A6
330
1F
100
AcDbEntity
  8
1
100
AcDbLine
 10
289.43997
 20
228.917633
 30
0.0
 11
289.440845
 21
228.888331
 31
0.0
  0
LINE
  5
A7
330
1F
100
AcDbEntity
  8
1
100
AcDbLine
 10
285.815665
 20
240.944196
 30
0.0
 11
285.763698
 21
241.344544
 31
0.0
  0
LINE
  5
A8
330
1F
100
AcDbEntity
  8
1
100
AcDbLine
 10
285.699166
 20
240.670838
 30
0.0
 11
285.677917
 21
241.351458
 31
0.0
  0
LINE
  5
A9
330
1F
100
AcDbEntity
  8
1
100
AcDbLine
 10
288.817289
 20
241.912459
 30
0.0
 11
288.759284
 21
241.074612
 31
0.0
  0
LINE
  5
AA
330
1F
100
AcDbEntity
  8
1
100
AcDbLine
 10
288.895999
 20
240.812473
 30
0.0
 11
288.861595
 21
241.914424
 31
0.0
  0
LINE
  5
AB
330
1F
100
AcDbEntity
  8
1
100
AcDbLine
 10
285.794704
 20
240.770833
 30
0.0
 11
285.815665
 21
240.944196
 31
0.0
  0
LINE
  5
AC
330
1F
100
AcDbEntity
  8
1
100
AcDbLine
 10
288.759284
 20
241.074612
 30
0.0
 11
288.791735
 21
240.903615
 31
0.0
  0
LINE
  5
AD
330
1F
100
AcDbEntity
  8
1
100
AcDbLine
 10
288.759284
 20
241.074612
 30
0.0
 11
285.815665
 21
240.944196
 31
0.0
  0
LINE
  5
AE
330
1F
100
AcDbEntity
  8
1
100
AcDbLine
 10
285.699166
 20
240.670838
 30
0.0
 11
285.794704
 21
240.770833
 31
0.0
  0
LINE
  5
AF
330
1F
100
AcDbEntity
  8
1
100
AcDbLine
 10
285.702624
 20
240.595112
 30
0.0
 11
285.699166
 21
240.670838
 31
0.0
  0
LINE
  5
B0
330
1F
100
AcDbEntity
  8
1
100
AcDbLine
 10
288.900359
 20
240.716985
 30
0.0
 11
288.895999
 21
240.812473
 31
0.0
  0
LINE
  5
B1
330
1F
100
AcDbEntity
  8
1
100
AcDbLine
 10
288.791735
 20
240.903615
 30
0.0
 11
288.895999
 21
240.812473
 31
0.0
  0
LINE
  5
B2
330
1F
100
AcDbEntity
  8
1
100
AcDbLine
 10
288.791735
 20
240.903615
 30
0.0
 11
285.794704
 21
240.770833
 31
0.0
  0
LINE
  5
B3
330
1F
100
AcDbEntity
  8
1
100
AcDbLine
 10
289.440181
 20
275.705726
 30
0.0
 11
289.440845
 21
275.779803
 31
0.0
  0
LINE
  5
B4
330
1F
100
AcDbEntity
  8
1
100
AcDbLine
 10
286.244012
 20
275.838384
 30
0.0
 11
286.344786
 21
275.9340279999999
 31
0.0
  0
LINE
  5
B5
330
1F
100
AcDbEntity
  8
1
100
AcDbLine
 10
289.341817
 20
275.879108
 30
0.0
 11
289.440845
 21
275.779803
 31
0.0
  0
LINE
  5
B6
330
1F
100
AcDbEntity
  8
1
100
AcDbLine
 10
289.341817
 20
275.879108
 30
0.0
 11
286.344786
 21
275.9340279999999
 31
0.0
  0
LINE
  5
B7
330
1F
100
AcDbEntity
  8
1
100
AcDbLine
 10
289.144246
 20
262.58037
 30
0.0
 11
289.2269950000001
 21
263.00604
 31
0.0
  0
LINE
  5
B8
330
1F
100
AcDbEntity
  8
1
100
AcDbLine
 10
289.440432
 20
275.7057200000001
 30
0.0
 11
286.2436
 21
275.764301
 31
0.0
  0
LINE
  5
B9
330
1F
100
AcDbEntity
  8
1
100
AcDbLine
 10
289.2269950000001
 20
263.00604
 30
0.0
 11
289.144227
 21
263.007556
 31
0.0
  0
LINE
  5
BA
330
1F
100
AcDbEntity
  8
1
100
AcDbLine
 10
289.324317
 20
263.547535
 30
0.0
 11
289.323387
 21
263.548362
 31
0.0
  0
LINE
  5
BB
330
1F
100
AcDbEntity
  8
1
100
AcDbLine
 10
289.324317
 20
263.547535
 30
0.0
 11
289.144245
 21
263.550834
 31
0.0
  0
LINE
  5
BC
330
1F
100
AcDbEntity
  8
1
100
AcDbLine
 10
289.327746
 20
263.570789
 30
0.0
 11
289.375879
 21
268.293968
 31
0.0
  0
LINE
  5
BD
330
1F
100
AcDbEntity
  8
1
100
AcDbLine
 10
286.2436
 20
275.764301
 30
0.0
 11
286.24314
 21
275.740992
 31
0.0
  0
LINE
  5
BE
330
1F
100
AcDbEntity
  8
1
100
AcDbLine
 10
286.24314
 20
275.740992
 30
0.0
 11
286.244012
 21
275.838384
 31
0.0
  0
LINE
  5
BF
330
1F
100
AcDbEntity
  8
1
100
AcDbLine
 10
286.244012
 20
275.838384
 30
0.0
 11
286.035209
 21
274.894502
 31
0.0
  0
LINE
  5
C0
330
1F
100
AcDbEntity
  8
1
100
AcDbLine
 10
286.035209
 20
274.894502
 30
0.0
 11
285.945691
 21
274.434015
 31
0.0
  0
LINE
  5
C1
330
1F
100
AcDbEntity
  8
1
100
AcDbLine
 10
289.375879
 20
268.293968
 30
0.0
 11
289.211248
 21
264.050792
 31
0.0
  0
LINE
  5
C2
330
1F
100
AcDbEntity
  8
1
100
AcDbLine
 10
289.375879
 20
268.293968
 30
0.0
 11
289.422955
 21
273.550097
 31
0.0
  0
LINE
  5
C3
330
1F
100
AcDbEntity
  8
1
100
AcDbLine
 10
289.422955
 20
273.550097
 30
0.0
 11
286.226272
 21
273.608675
 31
0.0
  0
LINE
  5
C4
330
1F
100
AcDbEntity
  8
1
100
AcDbLine
 10
289.211248
 20
264.050792
 30
0.0
 11
289.232209
 21
263.595066
 31
0.0
  0
LINE
  5
C5
330
1F
100
AcDbEntity
  8
1
100
AcDbLine
 10
289.211248
 20
264.050792
 30
0.0
 11
289.144234
 21
264.05202
 31
0.0
  0
LINE
  5
C6
330
1F
100
AcDbEntity
  8
1
100
AcDbLine
 10
289.323387
 20
263.548362
 30
0.0
 11
289.144214
 21
263.551645
 31
0.0
  0
LINE
  5
C7
330
1F
100
AcDbEntity
  8
1
100
AcDbLine
 10
289.323387
 20
263.548362
 30
0.0
 11
289.327746
 21
263.570789
 31
0.0
  0
LINE
  5
C8
330
1F
100
AcDbEntity
  8
1
100
AcDbLine
 10
289.232209
 20
263.595066
 30
0.0
 11
289.327746
 21
263.570789
 31
0.0
  0
LINE
  5
C9
330
1F
100
AcDbEntity
  8
1
100
AcDbLine
 10
289.232209
 20
263.595066
 30
0.0
 11
289.144218
 21
263.596678
 31
0.0
  0
LINE
  5
CA
330
1F
100
AcDbEntity
  8
1
100
AcDbLine
 10
286.219612
 20
274.434014
 30
0.0
 11
286.218971
 21
274.434018
 31
0.0
  0
LINE
  5
CB
330
1F
100
AcDbEntity
  8
1
100
AcDbLine
 10
286.218974
 20
274.434018
 30
0.0
 11
283.7442479999999
 21
274.434018
 31
0.0
  0
LINE
  5
CC
330
1F
100
AcDbEntity
  8
1
100
AcDbLine
 10
283.7442479999999
 20
274.434014
 30
0.0
 11
283.7442479999999
 21
273.59105
 31
0.0
  0
LINE
  5
CD
330
1F
100
AcDbEntity
  8
1
100
AcDbLine
 10
286.219612
 20
274.434014
 30
0.0
 11
286.226381
 21
273.59105
 31
0.0
  0
LINE
  5
CE
330
1F
100
AcDbEntity
  8
1
100
AcDbLine
 10
286.219612
 20
274.434014
 30
0.0
 11
283.7442479999999
 21
274.434014
 31
0.0
  0
LINE
  5
CF
330
1F
100
AcDbEntity
  8
1
100
AcDbLine
 10
286.226381
 20
273.59105
 30
0.0
 11
286.209879
 21
271.745215
 31
0.0
  0
LINE
  5
D0
330
1F
100
AcDbEntity
  8
1
100
AcDbLine
 10
286.226381
 20
273.59105
 30
0.0
 11
283.7442479999999
 21
273.59105
 31
0.0
  0
LINE
  5
D1
330
1F
100
AcDbEntity
  8
1
100
AcDbLine
 10
283.718427
 20
228.185639
 30
0.0
 11
282.667319
 21
228.2049
 31
0.0
  0
LINE
  5
D2
330
1F
100
AcDbEntity
  8
1
100
AcDbLine
 10
284.511117
 20
217.27617
 30
0.0
 11
284.508826
 21
217.021302
 31
0.0
  0
LINE
  5
D3
330
1F
100
AcDbEntity
  8
1
100
AcDbLine
 10
289.144248
 20
228.84593
 30
0.0
 11
289.144248
 21
228.63874
 31
0.0
  0
LINE
  5
D4
330
1F
100
AcDbEntity
  8
1
100
AcDbLine
 10
289.144248
 20
228.63874
 30
0.0
 11
289.144248
 21
226.898463
 31
0.0
  0
LINE
  5
D5
330
1F
100
AcDbEntity
  8
1
100
AcDbLine
 10
286.380438
 20
226.82406
 30
0.0
 11
287.862546
 21
226.814604
 31
0.0
  0
LINE
  5
D6
330
1F
100
AcDbEntity
  8
1
100
AcDbLine
 10
289.078998
 20
226.892376
 30
0.0
 11
289.005989
 21
228.632615
 31
0.0
  0
LINE
  5
D7
330
1F
100
AcDbEntity
  8
1
100
AcDbLine
 10
287.862546
 20
226.814604
 30
0.0
 11
287.800056
 21
228.57878
 31
0.0
  0
LINE
  5
D8
330
1F
100
AcDbEntity
  8
1
100
AcDbLine
 10
287.862546
 20
226.814607
 30
0.0
 11
288.61324
 21
226.84764
 31
0.0
  0
LINE
  5
D9
330
1F
100
AcDbEntity
  8
1
100
AcDbLine
 10
287.881218
 20
226.814485
 30
0.0
 11
287.862547
 21
226.814607
 31
0.0
  0
LINE
  5
DA
330
1F
100
AcDbEntity
  8
1
100
AcDbLine
 10
286.382703
 20
226.748094
 30
0.0
 11
287.881218
 21
226.814485
 31
0.0
  0
LINE
  5
DB
330
1F
100
AcDbEntity
  8
1
100
AcDbLine
 10
283.7442479999999
 20
269.070407
 30
0.0
 11
283.7442479999999
 21
265.320581
 31
0.0
  0
LINE
  5
DC
330
1F
100
AcDbEntity
  8
1
100
AcDbLine
 10
283.7442479999999
 20
227.491483
 30
0.0
 11
283.7442479999999
 21
220.028008
 31
0.0
  0
LINE
  5
DD
330
1F
100
AcDbEntity
  8
1
100
AcDbLine
 10
289.144248
 20
220.028008
 30
0.0
 11
289.144248
 21
226.898463
 31
0.0
  0
LINE
  5
DE
330
1F
100
AcDbEntity
  8
1
100
AcDbLine
 10
289.078998
 20
226.892376
 30
0.0
 11
289.144248
 21
226.898463
 31
0.0
  0
LINE
  5
DF
330
1F
100
AcDbEntity
  8
1
100
AcDbLine
 10
289.078998
 20
226.892376
 30
0.0
 11
288.61324
 21
226.84764
 31
0.0
  0
LINE
  5
E0
330
1F
100
AcDbEntity
  8
1
100
AcDbLine
 10
288.61324
 20
226.84764
 30
0.0
 11
286.383003
 21
226.738049
 31
0.0
  0
LINE
  5
E1
330
1F
100
AcDbEntity
  8
1
100
AcDbLine
 10
283.7442479999999
 20
220.028008
 30
0.0
 11
289.144248
 21
220.028008
 31
0.0
  0
LINE
  5
E2
330
1F
100
AcDbEntity
  8
1
100
AcDbLine
 10
286.942825
 20
214.434018
 30
0.0
 11
289.144248
 21
214.434018
 31
0.0
  0
LINE
  5
E3
330
1F
100
AcDbEntity
  8
1
100
AcDbLine
 10
289.144248
 20
236.655894
 30
0.0
 11
289.144248
 21
241.92695
 31
0.0
  0
LINE
  5
E4
330
1F
100
AcDbEntity
  8
1
100
AcDbLine
 10
282.667319
 20
258.660961
 30
0.0
 11
283.465619
 21
258.640222
 31
0.0
  0
LINE
  5
E5
330
1F
100
AcDbEntity
  8
1
100
AcDbLine
 10
285.257223
 20
251.651358
 30
0.0
 11
285.181423
 21
250.38216
 31
0.0
  0
LINE
  5
E6
330
1F
100
AcDbEntity
  8
1
100
AcDbLine
 10
284.058369
 20
251.682537
 30
0.0
 11
283.982603
 21
250.4139
 31
0.0
  0
LINE
  5
E7
330
1F
100
AcDbEntity
  8
1
100
AcDbLine
 10
283.7442479999999
 20
249.467812
 30
0.0
 11
283.7442479999999
 21
250.377003
 31
0.0
  0
LINE
  5
E8
330
1F
100
AcDbEntity
  8
1
100
AcDbLine
 10
283.982603
 20
250.4139
 30
0.0
 11
283.744133
 21
250.420096
 31
0.0
  0
LINE
  5
E9
330
1F
100
AcDbEntity
  8
1
100
AcDbLine
 10
283.7442479999999
 20
249.397774
 30
0.0
 11
283.7442479999999
 21
249.467812
 31
0.0
  0
LINE
  5
EA
330
1F
100
AcDbEntity
  8
1
100
AcDbLine
 10
283.882507
 20
249.46422
 30
0.0
 11
283.809499
 21
249.395951
 31
0.0
  0
LINE
  5
EB
330
1F
100
AcDbEntity
  8
1
100
AcDbLine
 10
285.088441
 20
249.432012
 30
0.0
 11
285.033918
 21
249.371378
 31
0.0
  0
LINE
  5
EC
330
1F
100
AcDbEntity
  8
1
100
AcDbLine
 10
289.144248
 20
254.63595
 30
0.0
 11
289.144248
 21
258.5247779999999
 31
0.0
  0
LINE
  5
ED
330
1F
100
AcDbEntity
  8
1
100
AcDbLine
 10
286.662116
 20
258.5247779999999
 30
0.0
 11
286.711762
 21
254.63595
 31
0.0
  0
LINE
  5
EE
330
1F
100
AcDbEntity
  8
1
100
AcDbLine
 10
283.7442479999999
 20
229.420394
 30
0.0
 11
283.7442479999999
 21
229.367746
 31
0.0
  0
LINE
  5
EF
330
1F
100
AcDbEntity
  8
1
100
AcDbLine
 10
286.21556
 20
229.367746
 30
0.0
 11
283.7442479999999
 21
229.367746
 31
0.0
  0
LINE
  5
F0
330
1F
100
AcDbEntity
  8
1
100
AcDbLine
 10
289.144248
 20
258.5247779999999
 30
0.0
 11
289.144248
 21
259.42039
 31
0.0
  0
LINE
  5
F1
330
1F
100
AcDbEntity
  8
1
100
AcDbLine
 10
289.144248
 20
259.42039
 30
0.0
 11
286.668885
 21
259.42039
 31
0.0
  0
LINE
  5
F2
330
1F
100
AcDbEntity
  8
1
100
AcDbLine
 10
286.668885
 20
259.42039
 30
0.0
 11
286.662116
 21
258.5247779999999
 31
0.0
  0
LINE
  5
F3
330
1F
100
AcDbEntity
  8
1
100
AcDbLine
 10
289.144248
 20
258.5247779999999
 30
0.0
 11
286.662116
 21
258.5247779999999
 31
0.0
  0
LINE
  5
F4
330
1F
100
AcDbEntity
  8
1
100
AcDbLine
 10
286.350392
 20
227.491483
 30
0.0
 11
286.383003
 21
226.738049
 31
0.0
  0
LINE
  5
F5
330
1F
100
AcDbEntity
  8
1
100
AcDbLine
 10
286.382703
 20
226.748094
 30
0.0
 11
286.383003
 21
226.738049
 31
0.0
  0
LINE
  5
F6
330
1F
100
AcDbEntity
  8
1
100
AcDbLine
 10
286.380438
 20
226.82406
 30
0.0
 11
286.382703
 21
226.748094
 31
0.0
  0
LINE
  5
F7
330
1F
100
AcDbEntity
  8
1
100
AcDbLine
 10
286.313152
 20
228.428044
 30
0.0
 11
286.380438
 21
226.82406
 31
0.0
  0
LINE
  5
F8
330
1F
100
AcDbEntity
  8
1
100
AcDbLine
 10
283.7442479999999
 20
249.397774
 30
0.0
 11
283.7442479999999
 21
247.339289
 31
0.0
  0
LINE
  5
F9
330
1F
100
AcDbEntity
  8
1
100
AcDbLine
 10
289.144248
 20
247.339289
 30
0.0
 11
289.144248
 21
249.575452
 31
0.0
  0
LINE
  5
FA
330
1F
100
AcDbEntity
  8
1
100
AcDbLine
 10
286.538104
 20
249.575452
 30
0.0
 11
286.505494
 21
249.349712
 31
0.0
  0
LINE
  5
FB
330
1F
100
AcDbEntity
  8
1
100
AcDbLine
 10
284.275257
 20
249.382547
 30
0.0
 11
286.505494
 21
249.349712
 31
0.0
  0
LINE
  5
FC
330
1F
100
AcDbEntity
  8
1
100
AcDbLine
 10
283.809499
 20
249.395951
 30
0.0
 11
284.275257
 21
249.382547
 31
0.0
  0
LINE
  5
FD
330
1F
100
AcDbEntity
  8
1
100
AcDbLine
 10
283.809499
 20
249.395951
 30
0.0
 11
283.7442479999999
 21
249.397774
 31
0.0
  0
LINE
  5
FE
330
1F
100
AcDbEntity
  8
1
100
AcDbLine
 10
288.361452
 20
241.892204
 30
0.0
 11
288.37967
 21
241.282622
 31
0.0
  0
LINE
  5
FF
330
1F
100
AcDbEntity
  8
1
100
AcDbLine
 10
286.213153
 20
229.420394
 30
0.0
 11
283.7442479999999
 21
229.420394
 31
0.0
  0
LINE
  5
100
330
1F
100
AcDbEntity
  8
1
100
AcDbLine
 10
283.7442479999999
 20
247.339289
 30
0.0
 11
289.144248
 21
247.339289
 31
0.0
  0
LINE
  5
101
330
1F
100
AcDbEntity
  8
1
100
AcDbLine
 10
286.653318
 20
251.615001
 30
0.0
 11
283.656288
 21
251.692863
 31
0.0
  0
LINE
  5
102
330
1F
100
AcDbEntity
  8
1
100
AcDbLine
 10
283.989366
 20
269.386781
 30
0.0
 11
283.992498
 21
269.439262
 31
0.0
  0
LINE
  5
103
330
1F
100
AcDbEntity
  8
1
100
AcDbLine
 10
283.992498
 20
269.439262
 30
0.0
 11
284.096762
 21
269.509789
 31
0.0
  0
LINE
  5
104
330
1F
100
AcDbEntity
  8
1
100
AcDbLine
 10
287.093793
 20
269.431927
 30
0.0
 11
287.18933
 21
269.356209
 31
0.0
  0
LINE
  5
105
330
1F
100
AcDbEntity
  8
1
100
AcDbLine
 10
287.093793
 20
269.431927
 30
0.0
 11
284.096762
 21
269.509789
 31
0.0
  0
LINE
  5
106
330
1F
100
AcDbEntity
  8
1
100
AcDbLine
 10
287.185901
 20
269.303735
 30
0.0
 11
283.989068
 21
269.3867879999999
 31
0.0
  0
LINE
  5
107
330
1F
100
AcDbEntity
  8
1
100
AcDbLine
 10
283.56075
 20
251.768582
 30
0.0
 11
283.5126180000001
 21
254.950099
 31
0.0
  0
LINE
  5
108
330
1F
100
AcDbEntity
  8
1
100
AcDbLine
 10
283.56075
 20
251.768582
 30
0.0
 11
283.656288
 21
251.692863
 31
0.0
  0
LINE
  5
109
330
1F
100
AcDbEntity
  8
1
100
AcDbLine
 10
283.656288
 20
251.692863
 30
0.0
 11
283.677249
 21
251.975227
 31
0.0
  0
LINE
  5
10A
330
1F
100
AcDbEntity
  8
1
100
AcDbLine
 10
286.620868
 20
251.898752
 30
0.0
 11
286.653318
 21
251.615001
 31
0.0
  0
LINE
  5
10B
330
1F
100
AcDbEntity
  8
1
100
AcDbLine
 10
286.653318
 20
251.615001
 30
0.0
 11
286.663698
 21
251.622022
 31
0.0
  0
LINE
  5
10C
330
1F
100
AcDbEntity
  8
1
100
AcDbLine
 10
283.5126180000001
 20
254.950099
 30
0.0
 11
283.465542
 21
258.629061
 31
0.0
  0
LINE
  5
10D
330
1F
100
AcDbEntity
  8
1
100
AcDbLine
 10
283.677249
 20
251.975227
 30
0.0
 11
283.5126180000001
 21
254.950099
 31
0.0
  0
LINE
  5
10E
330
1F
100
AcDbEntity
  8
1
100
AcDbLine
 10
286.620868
 20
251.898752
 30
0.0
 11
283.677249
 21
251.975227
 31
0.0
  0
LINE
  5
10F
330
1F
100
AcDbEntity
  8
1
100
AcDbLine
 10
286.709002
 20
254.852018
 30
0.0
 11
286.620868
 21
251.898752
 31
0.0
  0
LINE
  5
110
330
1F
100
AcDbEntity
  8
1
100
AcDbLine
 10
283.656455
 20
263.849281
 30
0.0
 11
283.891746
 21
267.792282
 31
0.0
  0
LINE
  5
111
330
1F
100
AcDbEntity
  8
1
100
AcDbLine
 10
287.088579
 20
267.709228
 30
0.0
 11
283.891746
 21
267.792282
 31
0.0
  0
LINE
  5
112
330
1F
100
AcDbEntity
  8
1
100
AcDbLine
 10
286.662275
 20
258.546011
 30
0.0
 11
283.465542
 21
258.629061
 31
0.0
  0
LINE
  5
113
330
1F
100
AcDbEntity
  8
1
100
AcDbLine
 10
283.593012
 20
260.66114
 30
0.0
 11
283.656455
 21
263.849281
 31
0.0
  0
LINE
  5
114
330
1F
100
AcDbEntity
  8
1
100
AcDbLine
 10
283.447652
 20
260.234115
 30
0.0
 11
283.656455
 21
263.849281
 31
0.0
  0
LINE
  5
115
330
1F
100
AcDbEntity
  8
1
100
AcDbLine
 10
287.18933
 20
269.356209
 30
0.0
 11
287.201366
 21
268.56068
 31
0.0
  0
LINE
  5
116
330
1F
100
AcDbEntity
  8
1
100
AcDbLine
 10
287.184971
 20
269.283148
 30
0.0
 11
287.18933
 21
269.356209
 31
0.0
  0
LINE
  5
117
330
1F
100
AcDbEntity
  8
1
100
AcDbLine
 10
287.185901
 20
269.303735
 30
0.0
 11
287.184971
 21
269.283148
 31
0.0
  0
LINE
  5
118
330
1F
100
AcDbEntity
  8
1
100
AcDbLine
 10
286.853288
 20
263.766228
 30
0.0
 11
287.088579
 21
267.709228
 31
0.0
  0
LINE
  5
119
330
1F
100
AcDbEntity
  8
1
100
AcDbLine
 10
286.853288
 20
263.766228
 30
0.0
 11
286.536631
 21
260.584665
 31
0.0
  0
LINE
  5
11A
330
1F
100
AcDbEntity
  8
1
100
AcDbLine
 10
286.644485
 20
260.151062
 30
0.0
 11
286.853288
 21
263.766228
 31
0.0
  0
LINE
  5
11B
330
1F
100
AcDbEntity
  8
1
100
AcDbLine
 10
283.447652
 20
260.234115
 30
0.0
 11
283.54668
 21
260.299746
 31
0.0
  0
LINE
  5
11C
330
1F
100
AcDbEntity
  8
1
100
AcDbLine
 10
283.448526
 20
260.165763
 30
0.0
 11
283.447652
 21
260.234115
 31
0.0
  0
LINE
  5
11D
330
1F
100
AcDbEntity
  8
1
100
AcDbLine
 10
286.645359
 20
260.08271
 30
0.0
 11
283.448526
 21
260.165763
 31
0.0
  0
LINE
  5
11E
330
1F
100
AcDbEntity
  8
1
100
AcDbLine
 10
286.645359
 20
260.08271
 30
0.0
 11
286.644485
 21
260.151062
 31
0.0
  0
LINE
  5
11F
330
1F
100
AcDbEntity
  8
1
100
AcDbLine
 10
286.543711
 20
260.221883
 30
0.0
 11
286.644485
 21
260.151062
 31
0.0
  0
LINE
  5
120
330
1F
100
AcDbEntity
  8
1
100
AcDbLine
 10
283.54668
 20
260.299746
 30
0.0
 11
283.593012
 21
260.66114
 31
0.0
  0
LINE
  5
121
330
1F
100
AcDbEntity
  8
1
100
AcDbLine
 10
286.543711
 20
260.221883
 30
0.0
 11
283.54668
 21
260.299746
 31
0.0
  0
LINE
  5
122
330
1F
100
AcDbEntity
  8
1
100
AcDbLine
 10
286.536631
 20
260.584665
 30
0.0
 11
286.543711
 21
260.221883
 31
0.0
  0
LINE
  5
123
330
1F
100
AcDbEntity
  8
1
100
AcDbLine
 10
286.536631
 20
260.584665
 30
0.0
 11
283.593012
 21
260.66114
 31
0.0
  0
LINE
  5
124
330
1F
100
AcDbEntity
  8
1
100
AcDbLine
 10
283.575469
 20
225.320295
 30
0.0
 11
283.56418
 21
225.320502
 31
0.0
  0
LINE
  5
125
330
1F
100
AcDbEntity
  8
1
100
AcDbLine
 10
283.448364
 20
213.162311
 30
0.0
 11
283.448064
 21
213.162317
 31
0.0
  0
LINE
  5
126
330
1F
100
AcDbEntity
  8
1
100
AcDbLine
 10
286.543711
 20
212.934009
 30
0.0
 11
283.54668
 21
212.988929
 31
0.0
  0
LINE
  5
127
330
1F
100
AcDbEntity
  8
1
100
AcDbLine
 10
286.644485
 20
213.029653
 30
0.0
 11
286.853288
 21
213.973535
 31
0.0
  0
LINE
  5
128
330
1F
100
AcDbEntity
  8
1
100
AcDbLine
 10
286.536631
 20
212.998217
 30
0.0
 11
286.543711
 21
212.934009
 31
0.0
  0
LINE
  5
129
330
1F
100
AcDbEntity
  8
1
100
AcDbLine
 10
286.543711
 20
212.934009
 30
0.0
 11
286.644485
 21
213.029653
 31
0.0
  0
LINE
  5
12A
330
1F
100
AcDbEntity
  8
1
100
AcDbLine
 10
283.447652
 20
213.088234
 30
0.0
 11
283.54668
 21
212.988929
 31
0.0
  0
LINE
  5
12B
330
1F
100
AcDbEntity
  8
1
100
AcDbLine
 10
283.54668
 20
212.988929
 30
0.0
 11
283.593012
 21
213.052158
 31
0.0
  0
LINE
  5
12C
330
1F
100
AcDbEntity
  8
1
100
AcDbLine
 10
286.853288
 20
213.973535
 30
0.0
 11
287.088579
 21
215.183899
 31
0.0
  0
LINE
  5
12D
330
1F
100
AcDbEntity
  8
1
100
AcDbLine
 10
283.593012
 20
213.052158
 30
0.0
 11
283.656455
 21
214.032117
 31
0.0
  0
LINE
  5
12E
330
1F
100
AcDbEntity
  8
1
100
AcDbLine
 10
286.536631
 20
212.998217
 30
0.0
 11
283.593012
 21
213.052158
 31
0.0
  0
LINE
  5
12F
330
1F
100
AcDbEntity
  8
1
100
AcDbLine
 10
286.853288
 20
213.973535
 30
0.0
 11
286.536631
 21
212.998217
 31
0.0
  0
LINE
  5
130
330
1F
100
AcDbEntity
  8
1
100
AcDbLine
 10
287.088579
 20
215.183899
 30
0.0
 11
283.891746
 21
215.24248
 31
0.0
  0
LINE
  5
131
330
1F
100
AcDbEntity
  8
1
100
AcDbLine
 10
287.185901
 20
215.725394
 30
0.0
 11
287.184971
 21
215.726221
 31
0.0
  0
LINE
  5
132
330
1F
100
AcDbEntity
  8
1
100
AcDbLine
 10
287.185901
 20
215.725394
 30
0.0
 11
283.989068
 21
215.783975
 31
0.0
  0
LINE
  5
133
330
1F
100
AcDbEntity
  8
1
100
AcDbLine
 10
287.18933
 20
215.748648
 30
0.0
 11
287.202585
 21
217.049293
 31
0.0
  0
LINE
  5
134
330
1F
100
AcDbEntity
  8
1
100
AcDbLine
 10
283.56075
 20
225.297248
 30
0.0
 11
283.5126180000001
 21
220.574069
 31
0.0
  0
LINE
  5
135
330
1F
100
AcDbEntity
  8
1
100
AcDbLine
 10
283.5126180000001
 20
220.574069
 30
0.0
 11
283.465542
 21
215.31794
 31
0.0
  0
LINE
  5
136
330
1F
100
AcDbEntity
  8
1
100
AcDbLine
 10
283.448064
 20
213.162317
 30
0.0
 11
283.448524
 21
213.185626
 31
0.0
  0
LINE
  5
137
330
1F
100
AcDbEntity
  8
1
100
AcDbLine
 10
283.448524
 20
213.185626
 30
0.0
 11
283.447652
 21
213.088234
 31
0.0
  0
LINE
  5
138
330
1F
100
AcDbEntity
  8
1
100
AcDbLine
 10
283.447652
 20
213.088234
 30
0.0
 11
283.656455
 21
214.032117
 31
0.0
  0
LINE
  5
139
330
1F
100
AcDbEntity
  8
1
100
AcDbLine
 10
283.656455
 20
214.032117
 30
0.0
 11
283.891746
 21
215.24248
 31
0.0
  0
LINE
  5
13A
330
1F
100
AcDbEntity
  8
1
100
AcDbLine
 10
283.989068
 20
215.783975
 30
0.0
 11
283.988138
 21
215.784802
 31
0.0
  0
LINE
  5
13B
330
1F
100
AcDbEntity
  8
1
100
AcDbLine
 10
283.74425
 20
226.287667
 30
0.0
 11
283.661502
 21
225.861997
 31
0.0
  0
LINE
  5
13C
330
1F
100
AcDbEntity
  8
1
100
AcDbLine
 10
283.56418
 20
225.320502
 30
0.0
 11
283.56511
 21
225.319675
 31
0.0
  0
LINE
  5
13D
330
1F
100
AcDbEntity
  8
1
100
AcDbLine
 10
283.56511
 20
225.319675
 30
0.0
 11
283.56075
 21
225.297248
 31
0.0
  0
LINE
  5
13E
330
1F
100
AcDbEntity
  8
1
100
AcDbLine
 10
287.1045439999999
 20
217.045993
 30
0.0
 11
287.072832
 21
216.228651
 31
0.0
  0
LINE
  5
13F
330
1F
100
AcDbEntity
  8
1
100
AcDbLine
 10
287.072832
 20
216.228651
 30
0.0
 11
287.093793
 21
215.772925
 31
0.0
  0
LINE
  5
140
330
1F
100
AcDbEntity
  8
1
100
AcDbLine
 10
287.072832
 20
216.228651
 30
0.0
 11
284.129212
 21
216.282592
 31
0.0
  0
LINE
  5
141
330
1F
100
AcDbEntity
  8
1
100
AcDbLine
 10
284.129212
 20
216.282592
 30
0.0
 11
284.108334
 21
217.283749
 31
0.0
  0
LINE
  5
142
330
1F
100
AcDbEntity
  8
1
100
AcDbLine
 10
283.992498
 20
215.807229
 30
0.0
 11
284.007564
 21
217.285658
 31
0.0
  0
LINE
  5
143
330
1F
100
AcDbEntity
  8
1
100
AcDbLine
 10
284.096762
 20
215.827845
 30
0.0
 11
284.129212
 21
216.282592
 31
0.0
  0
LINE
  5
144
330
1F
100
AcDbEntity
  8
1
100
AcDbLine
 10
283.992498
 20
215.807229
 30
0.0
 11
284.096762
 21
215.827845
 31
0.0
  0
LINE
  5
145
330
1F
100
AcDbEntity
  8
1
100
AcDbLine
 10
283.988138
 20
215.784802
 30
0.0
 11
283.992498
 21
215.807229
 31
0.0
  0
LINE
  5
146
330
1F
100
AcDbEntity
  8
1
100
AcDbLine
 10
287.184971
 20
215.726221
 30
0.0
 11
283.988138
 21
215.784802
 31
0.0
  0
LINE
  5
147
330
1F
100
AcDbEntity
  8
1
100
AcDbLine
 10
287.184971
 20
215.726221
 30
0.0
 11
287.18933
 21
215.748648
 31
0.0
  0
LINE
  5
148
330
1F
100
AcDbEntity
  8
1
100
AcDbLine
 10
287.093793
 20
215.772925
 30
0.0
 11
287.18933
 21
215.748648
 31
0.0
  0
LINE
  5
149
330
1F
100
AcDbEntity
  8
1
100
AcDbLine
 10
287.093793
 20
215.772925
 30
0.0
 11
284.096762
 21
215.827845
 31
0.0
  0
LINE
  5
14A
330
1F
100
AcDbEntity
  8
81
100
AcDbLine
 10
287.444248
 20
275.9340180000001
 30
0.0
 11
291.444248
 21
275.9340180000001
 31
0.0
  0
LINE
  5
14B
330
1F
100
AcDbEntity
  8
1
100
AcDbLine
 10
250.444248
 20
227.434018
 30
0.0
 11
280.744248
 21
227.434018
 31
0.0
  0
LINE
  5
14C
330
1F
100
AcDbEntity
  8
81
100
AcDbLine
 10
289.444248
 20
273.9340180000001
 30
0.0
 11
289.444248
 21
277.9340180000001
 31
0.0
  0
LINE
  5
14D
330
1F
100
AcDbEntity
  8
1
100
AcDbLine
 10
254.244248
 20
240.234018
 30
0.0
 11
250.444248
 21
240.234018
 31
0.0
  0
LINE
  5
14E
330
1F
100
AcDbEntity
  8
1
100
AcDbLine
 10
250.444248
 20
248.634018
 30
0.0
 11
254.244248
 21
248.634018
 31
0.0
  0
LINE
  5
14F
330
1F
100
AcDbEntity
  8
SK3
100
AcDbLine
 10
250.444248
 20
236.434018
 30
0.0
 11
265.694248
 21
236.434018
 31
0.0
  0
LINE
  5
150
330
1F
100
AcDbEntity
  8
1
100
AcDbLine
 10
249.444248
 20
228.434018
 30
0.0
 11
250.444248
 21
227.434018
 31
0.0
  0
LINE
  5
151
330
1F
100
AcDbEntity
  8
1
100
AcDbLine
 10
250.444248
 20
261.4340180000001
 30
0.0
 11
249.444248
 21
260.434018
 31
0.0
  0
LINE
  5
152
330
1F
100
AcDbEntity
  8
1
100
AcDbLine
 10
280.744248
 20
261.4340180000001
 30
0.0
 11
250.444248
 21
261.4340180000001
 31
0.0
  0
LINE
  5
153
330
1F
100
AcDbEntity
  8
1
100
AcDbLine
 10
250.444248
 20
261.4340180000001
 30
0.0
 11
250.444248
 21
248.634018
 31
0.0
  0
LINE
  5
154
330
1F
100
AcDbEntity
  8
1
100
AcDbLine
 10
255.044248
 20
247.834018
 30
0.0
 11
255.044248
 21
241.034018
 31
0.0
  0
LINE
  5
155
330
1F
100
AcDbEntity
  8
1
100
AcDbLine
 10
249.444248
 20
239.234018
 30
0.0
 11
249.444248
 21
228.434018
 31
0.0
  0
LINE
  5
156
330
1F
100
AcDbEntity
  8
80
100
AcDbLine
 10
248.444675
 20
244.434018
 30
0.0
 11
250.443822
 21
244.434018
 31
0.0
  0
LINE
  5
157
330
1F
100
AcDbEntity
  8
1
100
AcDbLine
 10
283.7442479999999
 20
273.59105
 30
0.0
 11
283.7442479999999
 21
271.745215
 31
0.0
  0
LINE
  5
158
330
1F
100
AcDbEntity
  8
1
100
AcDbLine
 10
249.444248
 20
260.434018
 30
0.0
 11
249.444248
 21
249.634018
 31
0.0
  0
LINE
  5
159
330
1F
100
AcDbEntity
  8
1
100
AcDbLine
 10
250.444248
 20
240.234018
 30
0.0
 11
250.444248
 21
227.434018
 31
0.0
  0
LINE
  5
15A
330
1F
100
AcDbEntity
  8
1
100
AcDbLine
 10
289.144248
 20
220.028008
 30
0.0
 11
289.144248
 21
214.434018
 31
0.0
  0
LINE
  5
15B
330
1F
100
AcDbEntity
  8
1
100
AcDbLine
 10
283.7442479999999
 20
220.028008
 30
0.0
 11
283.7442479999999
 21
217.290634
 31
0.0
  0
LINE
  5
15C
330
1F
100
AcDbEntity
  8
1
100
AcDbLine
 10
283.7442479999999
 20
247.339289
 30
0.0
 11
283.7442479999999
 21
229.420394
 31
0.0
  0
LINE
  5
15D
330
1F
100
AcDbEntity
  8
SK3
100
AcDbLine
 10
265.694248
 20
252.434018
 30
0.0
 11
265.694248
 21
236.434018
 31
0.0
  0
LINE
  5
15E
330
1F
100
AcDbEntity
  8
SK3
100
AcDbLine
 10
265.694248
 20
252.434018
 30
0.0
 11
250.444248
 21
252.434018
 31
0.0
  0
LINE
  5
15F
330
1F
100
AcDbEntity
  8
80
100
AcDbLine
 10
249.444248
 20
243.434445
 30
0.0
 11
249.444248
 21
245.433592
 31
0.0
  0
LINE
  5
160
330
1F
100
AcDbEntity
  8
1
100
AcDbLine
 10
289.144248
 20
271.745299
 30
0.0
 11
289.144248
 21
259.42039
 31
0.0
  0
LINE
  5
161
330
1F
100
AcDbEntity
  8
1
100
AcDbLine
 10
283.7442479999999
 20
271.745299
 30
0.0
 11
289.144248
 21
271.745299
 31
0.0
  0
LINE
  5
162
330
1F
100
AcDbEntity
  8
1
100
AcDbLine
 10
283.7442479999999
 20
271.745299
 30
0.0
 11
283.7442479999999
 21
269.070407
 31
0.0
  0
LINE
  5
163
330
1F
100
AcDbEntity
  8
1
100
AcDbLine
 10
289.144248
 20
247.339289
 30
0.0
 11
289.144248
 21
241.927022
 31
0.0
  0
LINE
  5
164
330
1F
100
AcDbEntity
  8
NOCUT
100
AcDbLine
 10
283.7442479999999
 20
274.434018
 30
0.0
 11
289.144248
 21
274.434018
 31
0.0
  0
LINE
  5
166
330
1F
100
AcDbEntity
  8
NOCUT
100
AcDbLine
 10
274.694248
 20
249.434018
 30
0.0
 11
274.194248
 21
248.934018
 31
0.0
  0
LINE
  5
167
330
1F
100
AcDbEntity
  8
NOCUT
100
AcDbLine
 10
270.194248
 20
248.934018
 30
0.0
 11
269.694248
 21
249.434018
 31
0.0
  0
LINE
  5
168
330
1F
100
AcDbEntity
  8
NOCUT
100
AcDbLine
 10
269.694248
 20
252.934018
 30
0.0
 11
265.694248
 21
252.934018
 31
0.0
  0
LINE
  5
169
330
1F
100
AcDbEntity
  8
NOCUT
100
AcDbLine
 10
249.444248
 20
260.434018
 30
0.0
 11
250.444248
 21
261.4340180000001
 31
0.0
  0
LINE
  5
16A
330
1F
100
AcDbEntity
  8
NOCUT
100
AcDbLine
 10
250.444248
 20
261.4340180000001
 30
0.0
 11
280.744248
 21
261.4340180000001
 31
0.0
  0
LINE
  5
16B
330
1F
100
AcDbEntity
  8
NOCUT
100
AcDbLine
 10
249.444248
 20
253.434018
 30
0.0
 11
249.444248
 21
260.434018
 31
0.0
  0
LINE
  5
16C
330
1F
100
AcDbEntity
  8
NOCUT
100
AcDbLine
 10
265.694248
 20
252.434018
 30
0.0
 11
250.444248
 21
252.434018
 31
0.0
  0
LINE
  5
16D
330
1F
100
AcDbEntity
  8
NOCUT
100
AcDbLine
 10
283.7442479999999
 20
264.434018
 30
0.0
 11
283.7442479999999
 21
274.434018
 31
0.0
  0
LINE
  5
16E
330
1F
100
AcDbEntity
  8
NOCUT
100
AcDbLine
 10
289.144248
 20
251.434018
 30
0.0
 11
275.094248
 21
251.434018
 31
0.0
  0
LINE
  5
16F
330
1F
100
AcDbEntity
  8
NOCUT
100
AcDbLine
 10
274.694248
 20
251.034018
 30
0.0
 11
274.694248
 21
249.434018
 31
0.0
  0
LINE
  5
170
330
1F
100
AcDbEntity
  8
NOCUT
100
AcDbLine
 10
274.194248
 20
248.934018
 30
0.0
 11
270.194248
 21
248.934018
 31
0.0
  0
LINE
  5
171
330
1F
100
AcDbEntity
  8
NOCUT
100
AcDbLine
 10
269.694248
 20
249.434018
 30
0.0
 11
269.694248
 21
252.934018
 31
0.0
  0
LINE
  5
172
330
1F
100
AcDbEntity
  8
NOCUT
100
AcDbLine
 10
265.694248
 20
252.934018
 30
0.0
 11
265.694248
 21
252.434018
 31
0.0
  0
LINE
  5
173
330
1F
100
AcDbEntity
  8
NOCUT
100
AcDbLine
 10
250.444248
 20
252.434018
 30
0.0
 11
249.444248
 21
253.434018
 31
0.0
  0
LINE
  5
174
330
1F
100
AcDbEntity
  8
NOCUT
100
AcDbLine
 10
289.144248
 20
274.434018
 30
0.0
 11
289.144248
 21
251.434018
 31
0.0
  0
ARC
  5
17A
330
1F
100
AcDbEntity
  8
1
100
AcDbCircle
 10
280.744248
 20
224.434018
 30
0.0
 40
3.0
100
AcDbArc
 50
45.348873
 51
90.0
  0
ARC
  5
17B
330
1F
100
AcDbEntity
  8
1
100
AcDbCircle
 10
280.744248
 20
264.434018
 30
0.0
 40
3.0
100
AcDbArc
 50
270.0
 51
345.318759
  0
ARC
  5
17C
330
1F
100
AcDbEntity
  8
NOCUT
100
AcDbCircle
 10
280.744248
 20
264.434018
 30
0.0
 40
3.0
100
AcDbArc
 50
270.0
 51
360.0
  0
ARC
  5
17D
330
1F
100
AcDbEntity
  8
NOCUT
100
AcDbCircle
 10
275.094248
 20
251.034018
 30
0.0
 40
0.4000000000000005
100
AcDbArc
 50
90.0
 51
180.0
  0
ELLIPSE
  5
17E
330
1F
100
AcDbEntity
  8
1
100
AcDbEllipse
 10
289.245445
 20
238.92522
 30
0.0
 11
0.1038844780381088
 21
3.998650774351611
 31
0.0
210
0.0
220
0.0
230
1.0
 40
0.036123
 41
3.661202352662509
 42
4.224356513819722
  0
ELLIPSE
  5
17F
330
1F
100
AcDbEntity
  8
1
100
AcDbEllipse
 10
289.599918
 20
232.221214
 30
0.0
 11
0.1038844780381088
 21
3.998650774351611
 31
0.0
210
0.0
220
0.0
230
1.0
 40
0.036123
 41
2.090406025867655
 42
2.367072962973006
  0
ELLIPSE
  5
180
330
1F
100
AcDbEntity
  8
1
100
AcDbEllipse
 10
289.599918
 20
232.221214
 30
0.0
 11
0.1038844780381088
 21
3.998650774351611
 31
0.0
210
0.0
220
0.0
230
1.0
 40
0.036123
 41
2.558255110308376
 42
2.653560187024877
  0
ELLIPSE
  5
181
330
1F
100
AcDbEntity
  8
1
100
AcDbEllipse
 10
289.111873
 20
228.264115
 30
0.0
 11
0.1012873660871561
 21
3.898684504992821
 31
0.0
210
0.0
220
0.0
230
0.9999999999999998
 40
0.036123
 41
3.952837779901475
 42
4.864488785027762
  0
ELLIPSE
  5
182
330
1F
100
AcDbEntity
  8
1
100
AcDbEllipse
 10
285.781467
 20
238.476534
 30
0.0
 11
-0.1770449504536521
 21
3.996079964855415
 31
0.0
210
0.0
220
0.0
230
1.0
 40
0.004415
 41
4.707832828121983
 42
5.270986989279237
  0
ELLIPSE
  5
183
330
1F
100
AcDbEntity
  8
1
100
AcDbEllipse
 10
289.245445
 20
234.826116
 30
0.0
 11
-0.1770449504536521
 21
3.996079964855415
 31
0.0
210
0.0
220
0.0
230
1.0
 40
0.004415
 41
1.566240174532189
 42
2.129394335689443
  0
ELLIPSE
  5
184
330
1F
100
AcDbEntity
  8
1
100
AcDbEllipse
 10
288.9783
 20
238.618168
 30
0.0
 11
-0.1770449504536521
 21
3.996079964855415
 31
0.0
210
0.0
220
0.0
230
1.0
 40
0.004415
 41
4.707832828121981
 42
5.270986989279237
  0
ELLIPSE
  5
185
330
1F
100
AcDbEntity
  8
1
100
AcDbEllipse
 10
289.599918
 20
225.516941
 30
0.0
 11
-0.1770449504536521
 21
3.996079964855415
 31
0.0
210
0.0
220
0.0
230
1.0
 40
0.004415
 41
6.278629154917272
 42
6.835886430354317
  0
ELLIPSE
  5
186
330
1F
100
AcDbEntity
  8
1
100
AcDbEllipse
 10
289.111873
 20
236.722142
 30
0.0
 11
-0.1726188266923108
 21
3.89617796573403
 31
0.0
210
0.0
220
0.0
230
1.0
 40
0.004415
 41
0.0
 42
6.283185307179585
  0
ELLIPSE
  5
187
330
1F
100
AcDbEntity
  8
1
100
AcDbEllipse
 10
289.599918
 20
275.5639
 30
0.0
 11
0.0732867917802989
 21
3.999328574417278
 31
0.0
210
0.0
220
0.0
230
1.0
 40
0.040539
 41
1.536070883883941
 42
2.099225045041141
  0
ELLIPSE
  5
188
330
1F
100
AcDbEntity
  8
1
100
AcDbEllipse
 10
289.245445
 20
259.55072
 30
0.0
 11
0.0732867917802989
 21
3.999328574417278
 31
0.0
210
0.0
220
0.0
230
1.0
 40
0.040539
 41
0.0347272934328533
 42
0.5284287182462251
  0
ELLIPSE
  5
189
330
1F
100
AcDbEntity
  8
1
100
AcDbEllipse
 10
286.403085
 20
275.622482
 30
0.0
 11
0.0732867917802989
 21
3.999328574417278
 31
0.0
210
0.0
220
0.0
230
1.0
 40
0.040539
 41
1.536070883883941
 42
2.087935612170698
  0
ELLIPSE
  5
18A
330
1F
100
AcDbEntity
  8
1
100
AcDbEllipse
 10
288.931978
 20
230.038886
 30
0.0
 11
-0.1327837128402391
 21
2.997059973641561
 31
0.0
210
0.0
220
0.0
230
1.0
 40
0.004415
 41
4.223789438082694
 42
4.300441933866014
  0
ELLIPSE
  5
18B
330
1F
100
AcDbEntity
  8
1
100
AcDbEllipse
 10
214.463447
 20
244.439621
 30
0.0
 11
-377.6902636363287
 21
-6.787883701731986
 31
0.0
210
0.0
220
0.0
230
0.9999999999999998
 40
0.077386
 41
1.759173680463178
 42
1.763238026848125
  0
ELLIPSE
  5
18C
330
1F
100
AcDbEntity
  8
1
100
AcDbEllipse
 10
287.219266
 20
244.434018
 30
0.0
 11
-0.5506494798151951
 21
-29.9999916840123
 31
0.0
210
0.0
220
0.0
230
0.9999999999999998
 40
0.040565
 41
0.4115087552413723
 42
0.4214201361439804
  0
ELLIPSE
  5
18D
330
1F
100
AcDbEntity
  8
1
100
AcDbEllipse
 10
432.9146099999999
 20
245.014647
 30
0.0
 11
-694.9086873657261
 21
6.67231498722807
 31
0.0
210
0.0
220
0.0
230
0.9999999999999998
 40
0.042951
 41
1.354863182273776
 42
1.356029693499235
  0
ELLIPSE
  5
18E
330
1F
100
AcDbEntity
  8
1
100
AcDbEllipse
 10
284.516591
 20
244.433899
 30
0.0
 11
-0.5506492978959008
 21
-29.99987211427744
 31
0.0
210
0.0
220
0.0
230
1.0
 40
0.040565
 41
0.4191034548261764
 42
0.4395011572405229
  0
ELLIPSE
  5
18F
330
1F
100
AcDbEntity
  8
1
100
AcDbEllipse
 10
417.844174
 20
244.346211
 30
0.0
 11
-697.7708231713068
 21
6.734366663308049
 31
0.0
210
0.0
220
0.0
230
1.0
 40
0.041767
 41
1.378929410365352
 42
1.380679488642633
  0
ELLIPSE
  5
190
330
1F
100
AcDbEntity
  8
1
100
AcDbEllipse
 10
283.956519
 20
252.461411
 30
0.0
 11
-0.0779133585285834
 21
-2.99898808076371
 31
0.0
210
0.0
220
0.0
230
1.0
 40
0.036123
 41
0.0355663090333295
 42
0.8202372548180406
  0
ELLIPSE
  5
191
330
1F
100
AcDbEntity
  8
1
100
AcDbEllipse
 10
214.455738
 20
244.426457
 30
0.0
 11
-377.7097283968156
 21
-22.01026737244462
 31
0.0
210
0.0
220
0.0
230
0.9999999999999998
 40
0.054
 41
4.515399862099167
 42
4.515442726199091
  0
ELLIPSE
  5
192
330
1F
100
AcDbEntity
  8
1
100
AcDbEllipse
 10
287.219266
 20
244.434018
 30
0.0
 11
-0.7804158267623994
 21
-29.99998674531861
 31
0.0
210
0.0
220
0.0
230
0.9999999999999998
 40
0.036135
 41
3.769054644534562
 42
4.190254701055891
  0
ELLIPSE
  5
193
330
1F
100
AcDbEntity
  8
1
100
AcDbEllipse
 10
285.66923
 20
244.434018
 30
0.0
 11
-1.329165584300338
 21
29.99999943243217
 31
0.0
210
0.0
220
0.0
230
0.9999999999999998
 40
0.004411
 41
1.673524106535349
 42
1.68343545497676
  0
ELLIPSE
  5
194
330
1F
100
AcDbEntity
  8
1
100
AcDbEllipse
 10
358.410307
 20
244.434014
 30
0.0
 11
-377.6499177706908
 21
28.70421739153758
 31
0.0
210
0.0
220
0.0
230
1.0
 40
0.023095
 41
1.378738128415629
 42
1.382802891579672
  0
ELLIPSE
  5
195
330
1F
100
AcDbEntity
  8
1
100
AcDbEllipse
 10
288.371906
 20
244.434285
 30
0.0
 11
-1.329226903361651
 21
30.00140989263118
 31
0.0
210
0.0
220
0.0
230
0.9999999999999996
 40
0.004411
 41
1.655448858398932
 42
1.675845565994386
  0
ELLIPSE
  5
196
330
1F
100
AcDbEntity
  8
1
100
AcDbEllipse
 10
283.910196
 20
271.265026
 30
0.0
 11
0.1038844780381088
 21
3.998650774351611
 31
0.0
210
0.0
220
0.0
230
1.0
 40
0.036123
 41
3.661202352662553
 42
4.224356513819771
  0
ELLIPSE
  5
197
330
1F
100
AcDbEntity
  8
1
100
AcDbEllipse
 10
283.288579
 20
256.646823
 30
0.0
 11
0.1038844780381088
 21
3.998650774351611
 31
0.0
210
0.0
220
0.0
230
1.0
 40
0.036123
 41
5.231998679457422
 42
5.789255954894908
  0
ELLIPSE
  5
198
330
1F
100
AcDbEntity
  8
1
100
AcDbEllipse
 10
287.107029
 20
271.181973
 30
0.0
 11
0.1038844780381088
 21
3.998650774351611
 31
0.0
210
0.0
220
0.0
230
1.0
 40
0.036123
 41
3.661202352662511
 42
4.224356513819749
  0
ELLIPSE
  5
199
330
1F
100
AcDbEntity
  8
1
100
AcDbEllipse
 10
286.485412
 20
256.56377
 30
0.0
 11
0.1038844780381088
 21
3.998650774351611
 31
0.0
210
0.0
220
0.0
230
1.0
 40
0.036123
 41
5.243291808936371
 42
5.789255954894866
  0
ELLIPSE
  5
19A
330
1F
100
AcDbEntity
  8
1
100
AcDbEllipse
 10
287.107029
 20
211.728579
 30
0.0
 11
0.0732867917802989
 21
3.999328574417278
 31
0.0
210
0.0
220
0.0
230
1.0
 40
0.040539
 41
0.0347272934329439
 42
0.528428718246234
  0
ELLIPSE
  5
19B
330
1F
100
AcDbEntity
  8
1
100
AcDbEllipse
 10
283.288579
 20
213.304137
 30
0.0
 11
0.0732867917802989
 21
3.999328574417278
 31
0.0
210
0.0
220
0.0
230
1.0
 40
0.040539
 41
4.677663537473736
 42
5.240817698630952
  0
ELLIPSE
  5
19C
330
1F
100
AcDbEntity
  8
1
100
AcDbEllipse
 10
283.910196
 20
211.787161
 30
0.0
 11
0.0732867917802989
 21
3.999328574417278
 31
0.0
210
0.0
220
0.0
230
1.0
 40
0.040539
 41
6.248459864268653
 42
6.811614025425857
  0
ELLIPSE
  5
19D
330
1F
100
AcDbEntity
  8
1
100
AcDbEllipse
 10
283.6430509999999
 20
229.317317
 30
0.0
 11
0.0732867917802989
 21
3.999328574417278
 31
0.0
210
0.0
220
0.0
230
1.0
 40
0.040539
 41
3.106867210678772
 42
3.670021371836063
  0
ELLIPSE
  5
19E
330
1F
100
AcDbEntity
  8
1
100
AcDbEllipse
 10
283.776624
 20
220.552239
 30
0.0
 11
0.0714546219857915
 21
3.899345360056848
 31
0.0
210
0.0
220
0.0
230
1.0
 40
0.040539
 41
0.6123118512348106
 42
3.721801354359751
  0
SPLINE
  5
19F
330
1F
100
AcDbEntity
  8
1
100
AcDbSpline
210
0.0
220
0.0
230
1.0
 70
     8
 71
     3
 72
     8
 73
     4
 74
     0
 42
0.000000001
 43
0.0000000001
 40
0.0
 40
0.0
 40
0.0
 40
0.0
 40
1.0
 40
1.0
 40
1.0
 40
1.0
 10
287.8000560120928
 20
228.5787797269365
 30
0.0
 10
287.7976847526137
 20
228.6457631092023
 30
0.0
 10
287.7949686766357
 20
228.7136890536445
 30
0.0
 10
287.7921594794134
 20
228.7825455237536
 30
0.0
  0
SPLINE
  5
1A0
330
1F
100
AcDbEntity
  8
1
100
AcDbSpline
210
0.0
220
0.0
230
1.0
 70
    24
 71
     3
 72
    22
 73
    18
 74
     0
 42
0.000000001
 43
0.0000000001
 40
0.0
 40
0.0
 40
0.0
 40
0.0
 40
0.1759798278440819
 40
0.1759798278440819
 40
0.2789823493635744
 40
0.2789823493635744
 40
0.3304836101233208
 40
0.3304836101233208
 40
0.3819848708830669
 40
0.3819848708830669
 40
0.5879899139220445
 40
0.5879899139220445
 40
0.7939949569610225
 40
0.7939949569610225
 40
0.8969974784805112
 40
0.8969974784805112
 40
1.0
 40
1.0
 40
1.0
 40
1.0
 10
283.7442482849925
 20
229.3575993878151
 30
0.0
 10
283.7442482849925
 20
229.2553879056522
 30
0.0
 10
283.7442482849925
 20
229.1510538693887
 30
0.0
 10
283.7442482849925
 20
228.9823033153149
 30
0.0
 10
283.7442482849925
 20
228.9192732730355
 30
0.0
 10
283.7442482849925
 20
228.8236211670274
 30
0.0
 10
283.7442482849925
 20
228.7915524746577
 30
0.0
 10
283.7442482849925
 20
228.727040879814
 30
0.0
 10
283.7442482849925
 20
228.6945387895797
 30
0.0
 10
283.7442482849925
 20
228.5321007948413
 30
0.0
 10
283.7442482849925
 20
228.402057204003
 30
0.0
 10
283.7442482849925
 20
228.1417901467032
 30
0.0
 10
283.7442482849925
 20
228.0115666649468
 30
0.0
 10
283.7442482849925
 20
227.8160943504539
 30
0.0
 10
283.7442482849925
 20
227.7508743579945
 30
0.0
 10
283.7442482849925
 20
227.6205519886188
 30
0.0
 10
283.7442482849925
 20
227.5558086977751
 30
0.0
 10
283.7442482849925
 20
227.4914833878591
 30
0.0
  0
SPLINE
  5
1A1
330
1F
100
AcDbEntity
  8
1
100
AcDbSpline
210
0.0
220
0.0
230
1.0
 70
     8
 71
     3
 72
    38
 73
    34
 74
     0
 42
0.000000001
 43
0.0000000001
 40
0.0
 40
0.0
 40
0.0
 40
0.0
 40
0.0252303478136793
 40
0.0252303478136793
 40
0.0902149912927673
 40
0.0902149912927673
 40
0.2201842782509435
 40
0.2201842782509435
 40
0.2851689217300318
 40
0.2851689217300318
 40
0.3501535652091201
 40
0.3501535652091201
 40
0.4151382086882084
 40
0.4151382086882084
 40
0.4801228521672967
 40
0.4801228521672967
 40
0.6100921391254735
 40
0.6100921391254735
 40
0.6750767826045616
 40
0.6750767826045616
 40
0.7400614260836499
 40
0.7400614260836499
 40
0.7725537478231935
 40
0.7725537478231935
 40
0.7887999086929656
 40
0.7887999086929656
 40
0.8050460695627375
 40
0.8050460695627375
 40
0.8700307130418249
 40
0.8700307130418249
 40
0.9350153565209124
 40
0.9350153565209124
 40
1.0
 40
1.0
 40
1.0
 40
1.0
 10
283.6444949585244
 20
225.6280058253224
 30
0.0
 10
283.6335902252511
 20
225.6499527251936
 30
0.0
 10
283.6219176728232
 20
225.6718730859492
 30
0.0
 10
283.5776476466276
 20
225.7501651571773
 30
0.0
 10
283.5410535801624
 20
225.8063987283037
 30
0.0
 10
283.4198696153237
 20
225.9747053478774
 30
0.0
 10
283.3238423048168
 20
226.0863830704173
 30
0.0
 10
283.1674273510308
 20
226.253471956249
 30
0.0
 10
283.113228868051
 20
226.309097043406
 30
0.0
 10
283.0026598470538
 20
226.420272142203
 30
0.0
 10
282.9462839265142
 20
226.4758219678
 30
0.0
 10
282.8336176935354
 20
226.5869245779763
 30
0.0
 10
282.7773212983624
 20
226.6424771523103
 30
0.0
 10
282.6675640010127
 20
226.7536803077502
 30
0.0
 10
282.6140983833383
 20
226.8093307258683
 30
0.0
 10
282.4630777980103
 20
226.976606064158
 30
0.0
 10
282.3751252950274
 20
227.088243292881
 30
0.0
 10
282.2875482302334
 20
227.2560710090217
 30
0.0
 10
282.2658046680914
 20
227.3120774405125
 30
0.0
 10
282.2404549307478
 20
227.4242457976096
 30
0.0
 10
282.2368878783363
 20
227.4804080586204
 30
0.0
 10
282.2458397789391
 20
227.5647740671023
 30
0.0
 10
282.2511844530121
 20
227.5929163085715
 30
0.0
 10
282.2626154964684
 20
227.6351589397069
 30
0.0
 10
282.2669934274793
 20
227.6492446827147
 30
0.0
 10
282.2768474694889
 20
227.6774255835662
 30
0.0
 10
282.2823272376981
 20
227.6915292052384
 30
0.0
 10
282.3123107132085
 20
227.7619655508215
 30
0.0
 10
282.3445235393815
 20
227.817918339733
 30
0.0
 10
282.4210340175506
 20
227.9292417343034
 30
0.0
 10
282.4652982101367
 20
227.9846139518606
 30
0.0
 10
282.5614971533187
 20
228.0949888598937
 30
0.0
 10
282.6134229038258
 20
228.1499919839467
 30
0.0
 10
282.6673191012858
 20
228.2049001822446
 30
0.0
  0
SPLINE
  5
1A2
330
1F
100
AcDbEntity
  8
1
100
AcDbSpline
210
0.0
220
0.0
230
1.0
 70
     8
 71
     3
 72
    73
 73
    69
 74
     0
 42
0.000000001
 43
0.0000000001
 40
0.0
 40
0.0
 40
0.0
 40
0.0
 40
0.0625000000000012
 40
0.0625000000000012
 40
0.0937500000000019
 40
0.0937500000000019
 40
0.1093750000000024
 40
0.1093750000000024
 40
0.1250000000000029
 40
0.1250000000000029
 40
0.1562500000000038
 40
0.1562500000000038
 40
0.1875000000000047
 40
0.1875000000000047
 40
0.2187500000000057
 40
0.2187500000000057
 40
0.2500000000000066
 40
0.2500000000000066
 40
0.2656250000000073
 40
0.2656250000000073
 40
0.281250000000008
 40
0.2968750000000087
 40
0.2968750000000087
 40
0.3046875000000094
 40
0.3046875000000094
 40
0.3125000000000102
 40
0.3125000000000102
 40
0.3437500000000112
 40
0.3437500000000112
 40
0.3593750000000105
 40
0.3593750000000105
 40
0.37500000000001
 40
0.37500000000001
 40
0.4062500000000099
 40
0.4062500000000099
 40
0.4375000000000096
 40
0.4375000000000096
 40
0.4687500000000095
 40
0.4687500000000095
 40
0.5000000000000093
 40
0.5000000000000093
 40
0.5625000000000089
 40
0.5625000000000089
 40
0.6250000000000086
 40
0.6250000000000086
 40
0.6406250000000079
 40
0.6406250000000079
 40
0.6562500000000071
 40
0.6562500000000071
 40
0.6875000000000054
 40
0.6875000000000054
 40
0.7500000000000017
 40
0.7500000000000017
 40
0.78125
 40
0.78125
 40
0.7968749999999995
 40
0.7968749999999995
 40
0.8124999999999987
 40
0.8124999999999987
 40
0.8749999999999976
 40
0.8749999999999976
 40
0.8906249999999975
 40
0.8906249999999975
 40
0.9062499999999971
 40
0.9062499999999971
 40
0.9374999999999978
 40
0.9374999999999978
 40
1.0
 40
1.0
 40
1.0
 40
1.0
 10
282.6673191012848
 20
228.2049001822459
 30
0.0
 10
282.5942386968763
 20
228.2921132573148
 30
0.0
 10
282.5208494632507
 20
228.3759856650765
 30
0.0
 10
282.412208326007
 20
228.4978961528004
 30
0.0
 10
282.3762441856453
 20
228.5378834243897
 30
0.0
 10
282.3230628610282
 20
228.5970524098632
 30
0.0
 10
282.305464663716
 20
228.6166403644114
 30
0.0
 10
282.2706141886477
 20
228.6555781804023
 30
0.0
 10
282.253340350469
 20
228.6749523712753
 30
0.0
 10
282.2024601174419
 20
228.7324806330667
 30
0.0
 10
282.1697236873936
 20
228.7700984517136
 30
0.0
 10
282.1078491297295
 20
228.8441296136232
 30
0.0
 10
282.0786826778267
 20
228.8805615768537
 30
0.0
 10
282.0259451292918
 20
228.9524513538253
 30
0.0
 10
282.0028215403297
 20
228.9873219166612
 30
0.0
 10
281.9655902515385
 20
229.0549365050427
 30
0.0
 10
281.9514860835437
 20
229.0876856755835
 30
0.0
 10
281.9395099371542
 20
229.1350747943702
 30
0.0
 10
281.9370708590849
 20
229.1506547122354
 30
0.0
 10
281.9356635118487
 20
229.1803128812438
 30
0.0
 10
281.9376456723412
 20
229.2086685470907
 30
0.0
 10
281.9462241428474
 20
229.2344643257971
 30
0.0
 10
281.955007959316
 20
229.2528649901397
 30
0.0
 10
281.9583270221478
 20
229.2588408151436
 30
0.0
 10
281.9657212109023
 20
229.270478839878
 30
0.0
 10
281.9697842090525
 20
229.27611882184
 30
0.0
 10
281.9916406690018
 20
229.3032678580942
 30
0.0
 10
282.0141441308448
 20
229.3218615192447
 30
0.0
 10
282.0530703735463
 20
229.34595774818
 30
0.0
 10
282.0669166673852
 20
229.3533522231177
 30
0.0
 10
282.096054078177
 20
229.3669632175751
 30
0.0
 10
282.1113870966005
 20
229.3731933251484
 30
0.0
 10
282.1588394522704
 20
229.3901065492291
 30
0.0
 10
282.1923402720904
 20
229.3990333970796
 30
0.0
 10
282.2616261681078
 20
229.4129192524348
 30
0.0
 10
282.297422345899
 20
229.4178710988731
 30
0.0
 10
282.3704181497264
 20
229.4241606142747
 30
0.0
 10
282.4076233558496
 20
229.4254950445317
 30
0.0
 10
282.4828482790893
 20
229.424699400667
 30
0.0
 10
282.5208710334595
 20
229.4225678634541
 30
0.0
 10
282.6355358285865
 20
229.4109907435986
 30
0.0
 10
282.7116798578489
 20
229.3965107164186
 30
0.0
 10
282.8611043565684
 20
229.3540298111729
 30
0.0
 10
282.9344302817008
 20
229.3260226535295
 30
0.0
 10
283.0233969949913
 20
229.281710288273
 30
0.0
 10
283.0410563470896
 20
229.2723793519281
 30
0.0
 10
283.0760842567838
 20
229.2527454215027
 30
0.0
 10
283.0934811625654
 20
229.2424240903527
 30
0.0
 10
283.1449578784279
 20
229.2100953865408
 30
0.0
 10
283.1783071040464
 20
229.1867456534462
 30
0.0
 10
283.2752422064087
 20
229.1111019082246
 30
0.0
 10
283.3357282486549
 20
229.0532561437718
 30
0.0
 10
283.4192847421882
 20
228.9538824282986
 30
0.0
 10
283.4459389708674
 20
228.9186473588021
 30
0.0
 10
283.4839656602652
 20
228.8623304488754
 30
0.0
 10
283.4962836164511
 20
228.8430212452702
 30
0.0
 10
283.5200260491209
 20
228.8035760981833
 30
0.0
 10
283.5314761255975
 20
228.7834028523713
 30
0.0
 10
283.586607779119
 20
228.6802529738295
 30
0.0
 10
283.6239572240027
 20
228.5904704909184
 30
0.0
 10
283.6617679265801
 20
228.4682584296626
 30
0.0
 10
283.6688846743767
 20
228.4433138455859
 30
0.0
 10
283.6822095950592
 20
228.3923844953301
 30
0.0
 10
283.6884148848756
 20
228.3663926432705
 30
0.0
 10
283.7054550643312
 20
228.2877512704409
 30
0.0
 10
283.714798661697
 20
228.2341396751663
 30
0.0
 10
283.7370665869499
 20
228.0697795061347
 30
0.0
 10
283.7442482849925
 20
227.9555285429801
 30
0.0
 10
283.7442482849925
 20
227.8364056294852
 30
0.0
  0
SPLINE
  5
1A3
330
1F
100
AcDbEntity
  8
1
100
AcDbSpline
210
0.0
220
0.0
230
1.0
 70
     8
 71
     3
 72
     9
 73
     5
 74
     0
 42
0.000000001
 43
0.0000000001
 40
0.0
 40
0.0
 40
0.0
 40
0.0
 40
0.5
 40
1.0
 40
1.0
 40
1.0
 40
1.0
 10
283.7441328240934
 20
250.4200956033537
 30
0.0
 10
283.7433345313709
 20
250.351388362593
 30
0.0
 10
283.7334824113092
 20
250.2147449015241
 30
0.0
 10
283.707310474932
 20
250.0796256194147
 30
0.0
 10
283.6900900439195
 20
250.0124521139098
 30
0.0
  0
SPLINE
  5
1A4
330
1F
100
AcDbEntity
  8
1
100
AcDbSpline
210
0.0
220
0.0
230
1.0
 70
     8
 71
     3
 72
    38
 73
    34
 74
     0
 42
0.000000001
 43
0.0000000001
 40
0.0
 40
0.0
 40
0.0
 40
0.0
 40
0.0625000000000006
 40
0.0625000000000006
 40
0.1250000000000012
 40
0.1250000000000012
 40
0.2500000000000018
 40
0.2500000000000018
 40
0.3125000000000022
 40
0.3125000000000022
 40
0.3750000000000026
 40
0.3750000000000026
 40
0.4375000000000031
 40
0.4375000000000031
 40
0.5000000000000035
 40
0.5000000000000035
 40
0.6250000000000038
 40
0.6250000000000038
 40
0.6875000000000038
 40
0.6875000000000038
 40
0.7500000000000038
 40
0.7500000000000038
 40
0.7812500000000039
 40
0.7812500000000039
 40
0.7968750000000038
 40
0.7968750000000038
 40
0.8125000000000035
 40
0.8125000000000035
 40
0.8750000000000023
 40
0.8750000000000023
 40
0.9375000000000012
 40
0.9375000000000012
 40
1.0
 40
1.0
 40
1.0
 40
1.0
 10
283.6900900439195
 20
250.0124521139098
 30
0.0
 10
283.6686154594064
 20
250.1955542674518
 30
0.0
 10
283.6414262555718
 20
250.3778258502532
 30
0.0
 10
283.5776489232383
 20
250.7410029630393
 30
0.0
 10
283.5410553627814
 20
250.9219077035356
 30
0.0
 10
283.4198731817793
 20
251.46296481517
 30
0.0
 10
283.3238474252237
 20
251.8214548970123
 30
0.0
 10
283.1674349831768
 20
252.3573915933811
 30
0.0
 10
283.1132373652267
 20
252.5357377356142
 30
0.0
 10
283.0026700320959
 20
252.8921143244402
 30
0.0
 10
282.9462949346813
 20
253.0701439887717
 30
0.0
 10
282.8336301742392
 20
253.4262157345875
 30
0.0
 10
282.7773344286393
 20
253.6042569320224
 30
0.0
 10
282.6675780832043
 20
253.9607513909309
 30
0.0
 10
282.6141127673373
 20
254.1392039669699
 30
0.0
 10
282.4630922475486
 20
254.6759243328383
 30
0.0
 10
282.3751374734198
 20
255.0345572644484
 30
0.0
 10
282.2875561583097
 20
255.5751874458979
 30
0.0
 10
282.2658108767283
 20
255.7558528973232
 30
0.0
 10
282.2404572429314
 20
256.1182926683091
 30
0.0
 10
282.2368880163874
 20
256.3000693799621
 30
0.0
 10
282.245836564757
 20
256.5736088767453
 30
0.0
 10
282.2511801074004
 20
256.6649330386995
 30
0.0
 10
282.262609467434
 20
256.8021280119415
 30
0.0
 10
282.2669868395799
 20
256.8478943711219
 30
0.0
 10
282.276839773813
 20
256.9394942313789
 30
0.0
 10
282.2823190442802
 20
256.9853556154217
 30
0.0
 10
282.3122990505208
 20
257.2144766235072
 30
0.0
 10
282.344509733193
 20
257.3967704941804
 30
0.0
 10
282.4210191730519
 20
257.7598845467432
 30
0.0
 10
282.4652844323513
 20
257.9407088124479
 30
0.0
 10
282.5614884371375
 20
258.3014218490836
 30
0.0
 10
282.6134181449708
 20
258.4813117218189
 30
0.0
 10
282.6673191012858
 20
258.6609612744954
 30
0.0
  0
SPLINE
  5
1A5
330
1F
100
AcDbEntity
  8
1
100
AcDbSpline
210
0.0
220
0.0
230
1.0
 70
     8
 71
     3
 72
    70
 73
    66
 74
     0
 42
0.000000001
 43
0.0000000001
 40
0.0
 40
0.0
 40
0.0
 40
0.0
 40
0.0390084082450486
 40
0.0390084082450486
 40
0.0585126123675733
 40
0.0585126123675733
 40
0.078016816490098
 40
0.078016816490098
 40
0.1170252247351476
 40
0.1170252247351476
 40
0.1560336329801972
 40
0.1560336329801972
 40
0.1950420412252467
 40
0.1950420412252467
 40
0.2340504494702963
 40
0.2340504494702963
 40
0.2730588577153458
 40
0.2730588577153458
 40
0.2828109597766081
 40
0.2828109597766081
 40
0.2925630618378703
 40
0.3120672659603934
 40
0.3315714700829165
 40
0.3315714700829165
 40
0.3510756742054397
 40
0.3510756742054397
 40
0.3608277762667014
 40
0.3608277762667014
 40
0.3705798783279631
 40
0.3900840824504874
 40
0.3900840824504874
 40
0.4290924906955361
 40
0.4290924906955361
 40
0.4388445927567986
 40
0.4388445927567986
 40
0.4485966948180611
 40
0.4681008989405854
 40
0.4681008989405854
 40
0.5071093071856366
 40
0.5071093071856366
 40
0.5461177154306875
 40
0.5461177154306875
 40
0.5656219195532142
 40
0.5656219195532142
 40
0.5851261236757408
 40
0.5851261236757408
 40
0.6241345319207971
 40
0.6241345319207971
 40
0.7021513484109111
 40
0.7021513484109111
 40
0.780168164901025
 40
0.780168164901025
 40
0.799672369023556
 40
0.799672369023556
 40
0.8191765731460868
 40
0.8191765731460868
 40
0.8581849813911528
 40
0.8581849813911528
 40
0.9362017978812827
 40
0.9362017978812827
 40
0.9557060020038136
 40
0.9557060020038136
 40
0.9752102061263446
 40
0.9752102061263446
 40
1.0
 40
1.0
 40
1.0
 40
1.0
 10
282.6673191012843
 20
258.6609612744957
 30
0.0
 10
282.6306403414013
 20
258.6597189929278
 30
0.0
 10
282.5938071120933
 20
258.6600461900961
 30
0.0
 10
282.5385348080916
 20
258.6629074080788
 30
0.0
 10
282.520107505956
 20
258.6642569071279
 30
0.0
 10
282.4832898919681
 20
258.6677595920011
 30
0.0
 10
282.4648816536263
 20
258.6699157503946
 30
0.0
 10
282.4100002243913
 20
258.6775868980425
 30
0.0
 10
282.3738214611367
 20
258.6843005149747
 30
0.0
 10
282.3028187262348
 20
258.701059578912
 30
0.0
 10
282.2679901682545
 20
258.7111023316889
 30
0.0
 10
282.2004738075853
 20
258.7348338295417
 30
0.0
 10
282.167777110017
 20
258.7485167597177
 30
0.0
 10
282.1057556384764
 20
258.7801460682939
 30
0.0
 10
282.0767199480567
 20
258.7979480919029
 30
0.0
 10
282.0246295868656
 20
258.8381516191423
 30
0.0
 10
282.0015397133548
 20
258.8605531657943
 30
0.0
 10
281.9781953501842
 20
258.8922059312662
 30
0.0
 10
281.9737960920337
 20
258.898737479883
 30
0.0
 10
281.965672251315
 20
258.9120982992559
 30
0.0
 10
281.9544937421162
 20
258.9325814214555
 30
0.0
 10
281.9411834367091
 20
258.9689831616358
 30
0.0
 10
281.9367820043405
 20
259.0006553920152
 30
0.0
 10
281.9357495364588
 20
259.0336822187448
 30
0.0
 10
281.9369386634561
 20
259.0509227067699
 30
0.0
 10
281.9412784925729
 20
259.0774233983458
 30
0.0
 10
281.9431544112662
 20
259.0863983871074
 30
0.0
 10
281.9476821142652
 20
259.1044044682276
 30
0.0
 10
281.9556489787379
 20
259.1315818547022
 30
0.0
 10
281.9669101204116
 20
259.159256814779
 30
0.0
 10
281.9932373047584
 20
259.2152739146953
 30
0.0
 10
282.0158412273968
 20
259.2535048393606
 30
0.0
 10
282.0487092788766
 20
259.3024953087808
 30
0.0
 10
282.0555284186256
 20
259.3123722851772
 30
0.0
 10
282.0695119860198
 20
259.3321346220793
 30
0.0
 10
282.0910087102083
 20
259.3617982682761
 30
0.0
 10
282.1138891990046
 20
259.3915662017468
 30
0.0
 10
282.1611144492205
 20
259.4513404867812
 30
0.0
 10
282.1945315482606
 20
259.4915114177691
 30
0.0
 10
282.2638251255969
 20
259.5729125381569
 30
0.0
 10
282.2997111054329
 20
259.6141408105909
 30
0.0
 10
282.3547215191247
 20
259.6770185059196
 30
0.0
 10
282.3732582675443
 20
259.6981497535722
 30
0.0
 10
282.41064816495
 20
259.7407922102403
 30
0.0
 10
282.4294721049932
 20
259.7622701891086
 30
0.0
 10
282.4860095694746
 20
259.8269741686286
 30
0.0
 10
282.5238715540327
 20
259.8705706864147
 30
0.0
 10
282.6373585168791
 20
260.0030808204993
 30
0.0
 10
282.7128596772355
 20
260.0937180250247
 30
0.0
 10
282.8614362815262
 20
260.2810580579088
 30
0.0
 10
282.9345372070138
 20
260.3777442408686
 30
0.0
 10
283.0234725719459
 20
260.5033328733116
 30
0.0
 10
283.0411380954047
 20
260.528687975692
 30
0.0
 10
283.076203051409
 20
260.579901327154
 30
0.0
 10
283.0936010579362
 20
260.6057597640448
 30
0.0
 10
283.1449860080206
 20
260.6835549288361
 30
0.0
 10
283.1782917487436
 20
260.7358957148033
 30
0.0
 10
283.2751444612247
 20
260.8944637877773
 30
0.0
 10
283.3356401202379
 20
261.0022309397995
 30
0.0
 10
283.4053413839308
 20
261.139934792268
 30
0.0
 10
283.4189847102263
 20
261.1676257523696
 30
0.0
 10
283.4456518713479
 20
261.2233209384719
 30
0.0
 10
283.4586909928755
 20
261.251359139439
 30
0.0
 10
283.4874915727758
 20
261.3152378881334
 30
0.0
 10
283.5029418254992
 20
261.3509272209828
 30
0.0
 10
283.5177178825847
 20
261.3865517812845
 30
0.0
  0
SPLINE
  5
1A6
330
1F
100
AcDbEntity
  8
1
100
AcDbSpline
210
0.0
220
0.0
230
1.0
 70
     8
 71
     3
 72
     8
 73
     4
 74
     0
 42
0.000000001
 43
0.0000000001
 40
0.0
 40
0.0
 40
0.0
 40
0.0
 40
1.0
 40
1.0
 40
1.0
 40
1.0
 10
283.7441328240934
 20
250.4200956033656
 30
0.0
 10
283.7442080758048
 20
250.4055905995058
 30
0.0
 10
283.7442482849925
 20
250.3912264760904
 30
0.0
 10
283.7442482849925
 20
250.3770029895845
 30
0.0
  0
SPLINE
  5
1A7
330
1F
100
AcDbEntity
  8
1
100
AcDbSpline
210
0.0
220
0.0
230
1.0
 70
     8
 71
     3
 72
    26
 73
    22
 74
     0
 42
0.000000001
 43
0.0000000001
 40
0.0
 40
0.0
 40
0.0
 40
0.0
 40
0.1250000000000056
 40
0.1250000000000056
 40
0.1875000000000083
 40
0.1875000000000083
 40
0.2500000000000112
 40
0.2500000000000112
 40
0.3750000000000134
 40
0.5000000000000157
 40
0.5000000000000157
 40
0.5625000000000148
 40
0.5937500000000144
 40
0.5937500000000144
 40
0.6250000000000142
 40
0.6250000000000142
 40
0.7500000000000095
 40
0.7500000000000095
 40
0.8750000000000046
 40
0.8750000000000046
 40
1.0
 40
1.0
 40
1.0
 40
1.0
 10
285.1814233194478
 20
250.3821595650364
 30
0.0
 10
285.1771112073263
 20
250.309956808237
 30
0.0
 10
285.1732703913805
 20
250.2413176549128
 30
0.0
 10
285.1673909822754
 20
250.1436909148344
 30
0.0
 10
285.1654141265148
 20
250.1119956828677
 30
0.0
 10
285.1613745129132
 20
250.0506002481892
 30
0.0
 10
285.1593172135665
 20
250.0209792712487
 30
0.0
 10
285.1530013027477
 20
249.9352826861259
 30
0.0
 10
285.1441524412103
 20
249.8294503766569
 30
0.0
 10
285.1352023981273
 20
249.7401502294847
 30
0.0
 10
285.1292586502033
 20
249.679417192745
 30
0.0
 10
285.1264874391995
 20
249.6506136773471
 30
0.0
 10
285.1238454178648
 20
249.624196917936
 30
0.0
 10
285.122098069216
 20
249.607122647345
 30
0.0
 10
285.1212304309166
 20
249.5988473668794
 30
0.0
 10
285.1169155260119
 20
249.5590284352713
 30
0.0
 10
285.1134927716487
 20
249.5319882870921
 30
0.0
 10
285.1063370684462
 20
249.4872909428984
 30
0.0
 10
285.1026050787713
 20
249.4696343390594
 30
0.0
 10
285.095201527649
 20
249.4437137209786
 30
0.0
 10
285.0915286422207
 20
249.4354490452958
 30
0.0
 10
285.0884405578921
 20
249.4320124786229
 30
0.0
  0
SPLINE
  5
1A8
330
1F
100
AcDbEntity
  8
1
100
AcDbSpline
210
0.0
220
0.0
230
1.0
 70
    24
 71
     3
 72
    54
 73
    50
 74
     0
 42
0.000000001
 43
0.0000000001
 40
0.0
 40
0.0
 40
0.0
 40
0.0
 40
0.0624999999999955
 40
0.0624999999999955
 40
0.0937499999999932
 40
0.0937499999999932
 40
0.1249999999999909
 40
0.1249999999999909
 40
0.1874999999999863
 40
0.1874999999999863
 40
0.2187499999999847
 40
0.2187499999999847
 40
0.234374999999984
 40
0.234374999999984
 40
0.2499999999999834
 40
0.2499999999999834
 40
0.312499999999982
 40
0.3749999999999806
 40
0.3749999999999806
 40
0.3906249999999808
 40
0.3906249999999808
 40
0.406249999999981
 40
0.406249999999981
 40
0.4374999999999815
 40
0.4374999999999815
 40
0.499999999999983
 40
0.499999999999983
 40
0.5624999999999845
 40
0.5624999999999845
 40
0.6249999999999859
 40
0.6249999999999859
 40
0.6874999999999875
 40
0.6874999999999875
 40
0.718749999999988
 40
0.718749999999988
 40
0.7343749999999887
 40
0.7343749999999887
 40
0.7499999999999895
 40
0.7499999999999895
 40
0.8124999999999918
 40
0.8124999999999918
 40
0.8749999999999943
 40
0.8749999999999943
 40
0.8906249999999948
 40
0.8906249999999948
 40
0.9062499999999957
 40
0.9374999999999975
 40
0.9374999999999975
 40
1.0
 40
1.0
 40
1.0
 40
1.0
 10
289.1442482849924
 20
249.5754516311563
 30
0.0
 10
289.1442482849925
 20
249.613965393523
 30
0.0
 10
289.1442482849925
 20
249.6605709196681
 30
0.0
 10
289.1442482849925
 20
249.7425367586309
 30
0.0
 10
289.1442482849925
 20
249.7719526365041
 30
0.0
 10
289.1442482849924
 20
249.8342117002852
 30
0.0
 10
289.1442482849925
 20
249.8670989510062
 30
0.0
 10
289.1442482849924
 20
249.9709265391354
 30
0.0
 10
289.1442482849925
 20
250.0470112754312
 30
0.0
 10
289.1442482849925
 20
250.1714121359758
 30
0.0
 10
289.1442482849924
 20
250.2145967564904
 30
0.0
 10
289.1442482849925
 20
250.2819969662213
 30
0.0
 10
289.1442482849924
 20
250.3049012730101
 30
0.0
 10
289.1442482849924
 20
250.3515973270996
 30
0.0
 10
289.1442482849924
 20
250.3753949513104
 30
0.0
 10
289.1442482849925
 20
250.4957163740922
 30
0.0
 10
289.1442482849924
 20
250.6981073776675
 30
0.0
 10
289.1442482849924
 20
250.9196248770266
 30
0.0
 10
289.1442482849924
 20
251.0641647421443
 30
0.0
 10
289.1442482849924
 20
251.0933785112473
 30
0.0
 10
289.1442482849924
 20
251.1524255604905
 30
0.0
 10
289.1442482849924
 20
251.1823154508349
 30
0.0
 10
289.1442482849925
 20
251.2724079817546
 30
0.0
 10
289.1442482849925
 20
251.3330448841637
 30
0.0
 10
289.1442482849924
 20
251.5166389771756
 30
0.0
 10
289.1442482849925
 20
251.6412726048682
 30
0.0
 10
289.1442482849924
 20
251.8949673587728
 30
0.0
 10
289.1442482849924
 20
252.0240813752989
 30
0.0
 10
289.1442482849925
 20
252.286704631669
 30
0.0
 10
289.1442482849924
 20
252.4173849464813
 30
0.0
 10
289.1442482849924
 20
252.6775331599866
 30
0.0
 10
289.1442482849924
 20
252.8070009030482
 30
0.0
 10
289.1442482849925
 20
253.0002830391507
 30
0.0
 10
289.1442482849924
 20
253.0645566958596
 30
0.0
 10
289.1442482849925
 20
253.1607307926535
 30
0.0
 10
289.1442482849924
 20
253.1927283775365
 30
0.0
 10
289.1442482849924
 20
253.2561726589128
 30
0.0
 10
289.1442482849924
 20
253.2876780055329
 30
0.0
 10
289.1442482849924
 20
253.4441345199434
 30
0.0
 10
289.1442482849924
 20
253.5658887188311
 30
0.0
 10
289.1442482849924
 20
253.8027008630313
 30
0.0
 10
289.1442482849924
 20
253.9177592122786
 30
0.0
 10
289.1442482849924
 20
254.0572586757404
 30
0.0
 10
289.1442482849925
 20
254.0849837176525
 30
0.0
 10
289.1442482849925
 20
254.1397021444386
 30
0.0
 10
289.1442482849924
 20
254.2207277715885
 30
0.0
 10
289.1442482849924
 20
254.2986297813392
 30
0.0
 10
289.1442482849924
 20
254.4503041165479
 30
0.0
 10
289.1442482849925
 20
254.5459322044811
 30
0.0
 10
289.1442482849925
 20
254.6359498565411
 30
0.0
  0
SPLINE
  5
1A9
330
1F
100
AcDbEntity
  8
1
100
AcDbSpline
210
0.0
220
0.0
230
1.0
 70
     8
 71
     3
 72
    58
 73
    54
 74
     0
 42
0.000000001
 43
0.0000000001
 40
0.0
 40
0.0
 40
0.0
 40
0.0
 40
0.0624999999999972
 40
0.0624999999999972
 40
0.1249999999999944
 40
0.1249999999999944
 40
0.1562499999999925
 40
0.1562499999999925
 40
0.171874999999992
 40
0.171874999999992
 40
0.1874999999999915
 40
0.1874999999999915
 40
0.2499999999999893
 40
0.2499999999999893
 40
0.3124999999999871
 40
0.3124999999999871
 40
0.3281249999999868
 40
0.3281249999999868
 40
0.3437499999999864
 40
0.3749999999999864
 40
0.3749999999999864
 40
0.4374999999999865
 40
0.4374999999999865
 40
0.4687499999999871
 40
0.4687499999999871
 40
0.4843749999999872
 40
0.4843749999999872
 40
0.4999999999999875
 40
0.4999999999999875
 40
0.5624999999999892
 40
0.6249999999999907
 40
0.6249999999999907
 40
0.6406249999999912
 40
0.6406249999999912
 40
0.6562499999999916
 40
0.6562499999999916
 40
0.6874999999999925
 40
0.6874999999999925
 40
0.7499999999999939
 40
0.7499999999999939
 40
0.7812499999999954
 40
0.7812499999999954
 40
0.796874999999996
 40
0.796874999999996
 40
0.8124999999999968
 40
0.8124999999999968
 40
0.8749999999999978
 40
0.8749999999999978
 40
0.9374999999999987
 40
0.9374999999999987
 40
0.9687499999999996
 40
0.9687499999999996
 40
1.0
 40
1.0
 40
1.0
 40
1.0
 10
286.7117623071181
 20
254.6359498565412
 30
0.0
 10
286.7129130222032
 20
254.5458141399049
 30
0.0
 10
286.7136718924278
 20
254.4503400244536
 30
0.0
 10
286.7144372466499
 20
254.2491414670936
 30
0.0
 10
286.7144436330191
 20
254.1434156951179
 30
0.0
 10
286.7138826538713
 20
253.9770538845572
 30
0.0
 10
286.713600271991
 20
253.9203003935332
 30
0.0
 10
286.7130300131525
 20
253.8331717424638
 30
0.0
 10
286.7128153882983
 20
253.803801324295
 30
0.0
 10
286.7123404229187
 20
253.7448311287232
 30
0.0
 10
286.7120797527597
 20
253.7151772871325
 30
0.0
 10
286.7106619437302
 20
253.5660751241955
 30
0.0
 10
286.7091628980446
 20
253.4441386202675
 30
0.0
 10
286.7054488026663
 20
253.1950549859493
 30
0.0
 10
286.7032337954553
 20
253.0679081647132
 30
0.0
 10
286.7000027747863
 20
252.9056105888201
 30
0.0
 10
286.6993320518488
 20
252.8729216448847
 30
0.0
 10
286.6979519473511
 20
252.8075980372323
 30
0.0
 10
286.6958231931173
 20
252.7096518468292
 30
0.0
 10
286.6935212898171
 20
252.6118215503487
 30
0.0
 10
286.6886907239836
 20
252.4163127342207
 30
0.0
 10
286.6851689480752
 20
252.2861752587517
 30
0.0
 10
286.6794329191326
 20
252.0912724965486
 30
0.0
 10
286.6774451126395
 20
252.0263556422754
 30
0.0
 10
286.6743473265044
 20
251.9290580543182
 30
0.0
 10
286.6732946822422
 20
251.8966177422463
 30
0.0
 10
286.6711529595772
 20
251.831850727891
 30
0.0
 10
286.6700684834796
 20
251.7996623985012
 30
0.0
 10
286.6645790391396
 20
251.6396821617601
 30
0.0
 10
286.6553684615365
 20
251.389841835545
 30
0.0
 10
286.6453256141698
 20
251.1519327155536
 30
0.0
 10
286.6387823043893
 20
251.0070604239196
 30
0.0
 10
286.6374602619853
 20
250.9782777842688
 30
0.0
 10
286.6347890304702
 20
250.9211016732073
 30
0.0
 10
286.6334412177587
 20
250.8927397085696
 30
0.0
 10
286.6293867776562
 20
250.8088596204948
 30
0.0
 10
286.6266597985621
 20
250.7543442143005
 30
0.0
 10
286.618408369186
 20
250.5949204317773
 30
0.0
 10
286.6128137189266
 20
250.4941174082924
 30
0.0
 10
286.6042819242839
 20
250.3510896188623
 30
0.0
 10
286.6014146160733
 20
250.3047807756784
 30
0.0
 10
286.5970780004382
 20
250.2374025465476
 30
0.0
 10
286.5956265148448
 20
250.2152909251547
 30
0.0
 10
286.592711490781
 20
250.1717725445911
 30
0.0
 10
286.5912454703097
 20
250.1503311889264
 30
0.0
 10
286.5839332923911
 20
250.0456020841001
 30
0.0
 10
286.5781176242581
 20
249.9693453222505
 30
0.0
 10
286.5665520920238
 20
249.8313670030741
 30
0.0
 10
286.5608022332048
 20
249.7696466125307
 30
0.0
 10
286.552227622459
 20
249.6881495417498
 30
0.0
 10
286.5493756140471
 20
249.6628188723477
 30
0.0
 10
286.5436980800181
 20
249.6160436966987
 30
0.0
 10
286.5408871713892
 20
249.5947168629509
 30
0.0
 10
286.5381041326082
 20
249.5754516311563
 30
0.0
  0
SPLINE
  5
1AA
330
1F
100
AcDbEntity
  8
1
100
AcDbSpline
210
0.0
220
0.0
230
1.0
 70
    12
 71
     2
 72
     6
 73
     3
 74
     0
 42
0.000000001
 43
0.0000000001
 40
0.0
 40
0.0
 40
0.0
 40
1.0
 40
1.0
 40
1.0
 10
283.9737946895458
 20
269.0645541972216
 30
0.0
 41
0.4999999998017566
 10
283.8590172333447
 20
269.0674811681995
 30
0.0
 41
0.4999999995281661
 10
283.7442482849929
 20
269.0704067007225
 30
0.0
 41
0.4999999988770015
  0
SPLINE
  5
1AB
330
1F
100
AcDbEntity
  8
1
100
AcDbSpline
210
0.0
220
0.0
230
1.0
 70
     8
 71
     3
 72
    16
 73
    12
 74
     0
 42
0.000000001
 43
0.0000000001
 40
0.0
 40
0.0
 40
0.0
 40
0.0
 40
0.058749411242805
 40
0.058749411242805
 40
0.3724996074952033
 40
0.3724996074952033
 40
0.6862498037476023
 40
0.6862498037476023
 40
0.8431249018738014
 40
0.8431249018738014
 40
1.0
 40
1.0
 40
1.0
 40
1.0
 10
286.2954265081084
 20
228.7343874019818
 30
0.0
 10
286.2965208073222
 20
228.7101548911135
 30
0.0
 10
286.2976181768426
 20
228.6858239929169
 30
0.0
 10
286.3045632775938
 20
228.5316443207998
 30
0.0
 10
286.3103789457268
 20
228.4016774931871
 30
0.0
 10
286.3219444779612
 20
228.1415432529552
 30
0.0
 10
286.3276943367802
 20
228.0113758242344
 30
0.0
 10
286.336268947526
 20
227.8159717292679
 30
0.0
 10
286.3391209559379
 20
227.7507611156881
 30
0.0
 10
286.3447984899669
 20
227.6204991617386
 30
0.0
 10
286.3476093985957
 20
227.5557835211586
 30
0.0
 10
286.3503924373768
 20
227.4914833878591
 30
0.0
  0
SPLINE
  5
1AC
330
1F
100
AcDbEntity
  8
1
100
AcDbSpline
210
0.0
220
0.0
230
1.0
 70
     8
 71
     3
 72
    10
 73
     6
 74
     0
 42
0.000000001
 43
0.0000000001
 40
0.0
 40
0.0
 40
0.0
 40
0.0
 40
0.0578265942059384
 40
0.0578265942059384
 40
1.0
 40
1.0
 40
1.0
 40
1.0
 10
286.300418525896
 20
228.7295046420029
 30
0.0
 10
286.3006712716602
 20
228.7235599734371
 30
0.0
 10
286.30092359738
 20
228.717623012787
 30
0.0
 10
286.3052798253715
 20
228.6150879141033
 30
0.0
 10
286.3092729517745
 20
228.52052253935
 30
0.0
 10
286.3131523302229
 20
228.4280444663563
 30
0.0
  0
SPLINE
  5
1AD
330
1F
100
AcDbEntity
  8
1
100
AcDbSpline
210
0.0
220
0.0
230
1.0
 70
    12
 71
     2
 72
     6
 73
     3
 74
     0
 42
0.000000001
 43
0.0000000001
 40
0.0
 40
0.0
 40
0.0
 40
1.0
 40
1.0
 40
1.0
 10
288.3796700742675
 20
241.2826222612997
 30
0.0
 41
0.5000001127268272
 10
287.7803441957492
 20
241.2565581450622
 30
0.0
 41
0.4999998872731727
 10
287.1808150476246
 20
241.2304988791655
 30
0.0
 41
0.5000001127268272
  0
SPLINE
  5
1AE
330
1F
100
AcDbEntity
  8
1
100
AcDbSpline
210
0.0
220
0.0
230
1.0
 70
    12
 71
     2
 72
     6
 73
     3
 74
     0
 42
0.000000001
 43
0.0000000001
 40
0.0
 40
0.0
 40
0.0
 40
1.0
 40
1.0
 40
1.0
 10
289.1442482849927
 20
241.9270218333438
 30
0.0
 41
0.5000000473881694
 10
288.7483872080218
 20
241.9093999148609
 30
0.0
 41
0.4999999526118307
 10
288.3524249082686
 20
241.8917797507943
 30
0.0
 41
0.5000000473881694
  0
SPLINE
  5
1B2
330
1F
100
AcDbEntity
  8
1
100
AcDbSpline
210
0.0
220
0.0
230
1.0
 70
    24
 71
     3
 72
     8
 73
     4
 74
     0
 42
0.000000001
 43
0.0000000001
 40
0.0
 40
0.0
 40
0.0
 40
0.0
 40
1.0
 40
1.0
 40
1.0
 40
1.0
 10
249.4442482849925
 20
239.2340184530482
 30
0.0
 10
249.7707262368453
 20
239.5604964049011
 30
0.0
 10
250.1043592094326
 20
239.8941293774884
 30
0.0
 10
250.4442482849925
 20
240.2340184530482
 30
0.0
  0
SPLINE
  5
1B3
330
1F
100
AcDbEntity
  8
1
100
AcDbSpline
210
0.0
220
0.0
230
1.0
 70
    24
 71
     3
 72
     8
 73
     4
 74
     0
 42
0.000000001
 43
0.0000000001
 40
0.0
 40
0.0
 40
0.0
 40
0.0
 40
1.0
 40
1.0
 40
1.0
 40
1.0
 10
250.4442482849925
 20
248.6340184530482
 30
0.0
 10
250.1043592094326
 20
248.973907528608
 30
0.0
 10
249.7707262368453
 20
249.3075405011953
 30
0.0
 10
249.4442482849925
 20
249.6340184530482
 30
0.0
  0
SPLINE
  5
1B4
330
1F
100
AcDbEntity
  8
1
100
AcDbSpline
210
0.0
220
0.0
230
1.0
 70
     8
 71
     3
 72
    34
 73
    30
 74
     0
 42
0.000000001
 43
0.0000000001
 40
0.0
 40
0.0
 40
0.0
 40
0.0
 40
0.1250000000000049
 40
0.1250000000000049
 40
0.1875000000000073
 40
0.1875000000000073
 40
0.2500000000000097
 40
0.2500000000000097
 40
0.3750000000000138
 40
0.3750000000000138
 40
0.4375000000000158
 40
0.4375000000000158
 40
0.4687500000000154
 40
0.4687500000000154
 40
0.5000000000000151
 40
0.5000000000000151
 40
0.6250000000000121
 40
0.6250000000000121
 40
0.6562500000000114
 40
0.6562500000000114
 40
0.6875000000000106
 40
0.6875000000000106
 40
0.7500000000000079
 40
0.7500000000000079
 40
0.8750000000000042
 40
0.8750000000000042
 40
0.9375000000000019
 40
0.9375000000000019
 40
1.0
 40
1.0
 40
1.0
 40
1.0
 10
255.0442482849924
 20
241.0340184530482
 30
0.0
 10
255.0442482849924
 20
240.9816095441735
 30
0.0
 10
255.0391483681377
 20
240.9301027635418
 30
0.0
 10
255.0241886357084
 20
240.8541318151267
 30
0.0
 10
255.0179747365504
 20
240.829024544791
 30
0.0
 10
255.0030421385515
 20
240.7792499069834
 30
0.0
 10
254.9942687719661
 20
240.7544717847865
 30
0.0
 10
254.9646423481997
 20
240.6822505236387
 30
0.0
 10
254.9404579885239
 20
240.6365475739385
 30
0.0
 10
254.8975866451093
 20
240.5716098134687
 30
0.0
 10
254.8821893716791
 20
240.5505708531843
 30
0.0
 10
254.8573658904293
 20
240.5199567788517
 30
0.0
 10
254.8488321927937
 20
240.5099482598908
 30
0.0
 10
254.8313670495144
 20
240.4904535302704
 30
0.0
 10
254.8224186760932
 20
240.480946239824
 30
0.0
 10
254.7766103301561
 20
240.4345948633816
 30
0.0
 10
254.7365821347144
 20
240.4012713596075
 30
0.0
 10
254.6822068417209
 20
240.3644179030347
 30
0.0
 10
254.6711127989013
 20
240.3572894554025
 30
0.0
 10
254.648475531537
 20
240.3435289291303
 30
0.0
 10
254.6369617190335
 20
240.3369169580326
 30
0.0
 10
254.6021342893409
 20
240.3180471195377
 30
0.0
 10
254.5784225551492
 20
240.3066832643382
 30
0.0
 10
254.5058319102096
 20
240.2761730299569
 30
0.0
 10
254.4555124465822
 20
240.2605710934093
 30
0.0
 10
254.3769838023622
 20
240.2446550237872
 30
0.0
 10
254.350606016654
 20
240.2406732693345
 30
0.0
 10
254.297634901715
 20
240.2353580641714
 30
0.0
 10
254.2710116054533
 20
240.2340184530482
 30
0.0
 10
254.2442482849925
 20
240.2340184530482
 30
0.0
  0
SPLINE
  5
1B5
330
1F
100
AcDbEntity
  8
1
100
AcDbSpline
210
0.0
220
0.0
230
1.0
 70
     8
 71
     3
 72
    32
 73
    28
 74
     0
 42
0.000000001
 43
0.0000000001
 40
0.0
 40
0.0
 40
0.0
 40
0.0
 40
0.125000000000004
 40
0.125000000000004
 40
0.1875000000000052
 40
0.1875000000000052
 40
0.2187500000000049
 40
0.2187500000000049
 40
0.2500000000000045
 40
0.2500000000000045
 40
0.3750000000000022
 40
0.3750000000000022
 40
0.4062500000000017
 40
0.4062500000000017
 40
0.4375000000000013
 40
0.4375000000000013
 40
0.5000000000000016
 40
0.5000000000000016
 40
0.625000000000001
 40
0.625000000000001
 40
0.7500000000000005
 40
0.7500000000000005
 40
0.812500000000001
 40
0.812500000000001
 40
0.8750000000000015
 40
0.8750000000000015
 40
1.0
 40
1.0
 40
1.0
 40
1.0
 10
254.2442482849925
 20
248.6340184530482
 30
0.0
 10
254.2977495320888
 20
248.6340184530482
 30
0.0
 10
254.3503097947915
 20
248.6287057072328
 30
0.0
 10
254.4278024627735
 20
248.6131218369295
 30
0.0
 10
254.4534070272308
 20
248.6066483573391
 30
0.0
 10
254.4914672215926
 20
248.5949776401937
 30
0.0
 10
254.5041318819911
 20
248.5907463073966
 30
0.0
 10
254.5291171758201
 20
248.5816990296144
 30
0.0
 10
254.5414434904702
 20
248.5768838376579
 30
0.0
 10
254.6022618868323
 20
248.5513815256005
 30
0.0
 10
254.6483379325525
 20
248.5264568818815
 30
0.0
 10
254.7027597039304
 20
248.4897163579674
 30
0.0
 10
254.7134839380628
 20
248.4820864416847
 30
0.0
 10
254.7346074954991
 20
248.4662542165723
 30
0.0
 10
254.7449957872623
 20
248.4580574518377
 30
0.0
 10
254.775338210208
 20
248.4328793914081
 30
0.0
 10
254.7945870862896
 20
248.4152276207293
 30
0.0
 10
254.8494881340335
 20
248.3597487036247
 30
0.0
 10
254.8823220547139
 20
248.3194222307757
 30
0.0
 10
254.9402736223896
 20
248.2318924189469
 30
0.0
 10
254.9644834998638
 20
248.1860557282824
 30
0.0
 10
254.9939559901452
 20
248.1143853712258
 30
0.0
 10
255.0026334237135
 20
248.0900022631979
 30
0.0
 10
255.0176517396393
 20
248.0402290881571
 30
0.0
 10
255.0239993147119
 20
248.0147564959483
 30
0.0
 10
255.039152269442
 20
247.9381303616182
 30
0.0
 10
255.0442482849925
 20
247.8864031017271
 30
0.0
 10
255.0442482849924
 20
247.8340184530482
 30
0.0
  0
LINE
  5
1D0
330
1F
100
AcDbEntity
  8
SK4
100
AcDbLine
 10
290.544248
 20
244.434018
 30
0.0
 11
250.044248
 21
244.434018
 31
0.0
  0
LINE
  5
1D1
330
1F
100
AcDbEntity
  8
4
100
AcDbLine
 10
245.444248
 20
244.434018
 30
0.0
 11
289.744248
 21
244.434018
 31
0.0
  0
MTEXT
  5
1D2
330
1F
100
AcDbEntity
  8
SK6
100
AcDbMText
 10
253.294252
 20
153.930962
 30
0.0
 40
3.5
 41
0.0
 71
     7
 72
     5
  1
{\fCalibri|b0|i0|c238|p34;\H0.91667x;63A03R-S90SN12N6\Fsimplex|c238;\H1.09091x;\W0.7396;\P\P\P\P\P\P\P\P\P }
  7
cesky
 73
     1
 44
0.8433729999999998
  0
MTEXT
  5
2E7
330
1F
100
AcDbEntity
  8
2
100
AcDbMText
 10
299.883361
 20
240.940543
 30
0.0
 40
3.5
 41
0.0
 71
     7
 72
     5
  1
\W0.7045;63
  7
cesky
 11
0.0000000000000001
 21
1.0
 31
0.0
 73
     2
 44
0.8433729999999998
  0
MTEXT
  5
2E8
330
1F
100
AcDbEntity
  8
2
100
AcDbMText
 10
299.883361
 20
234.203043
 30
0.0
 40
3.5
 41
0.0
 71
     7
 72
     5
  1
\W3.0115;\H2.63;%%c\H3.50;
  7
cesky
 11
0.0000000000000001
 21
1.0
 31
0.0
 73
     2
 44
0.8433729999999998
  0
LINE
  5
2E9
330
1F
100
AcDbEntity
  8
2
100
AcDbLine
 10
291.444248
 20
275.9340180000001
 30
0.0
 11
301.070778
 21
275.9340180000001
 31
0.0
  0
LINE
  5
2EA
330
1F
100
AcDbEntity
  8
2
100
AcDbLine
 10
300.0707779999999
 20
275.9340180000001
 30
0.0
 11
300.0707779999999
 21
234.045543
 31
0.0
  0
SOLID
  5
2EB
330
1F
100
AcDbEntity
  8
2
100
AcDbTrace
 10
300.0707779999999
 20
275.9340180000001
 30
0.0
 11
300.687922
 21
272.434021
 31
0.0
 12
299.453634
 22
272.4340160000001
 32
0.0
 13
299.453634
 23
272.4340160000001
 33
0.0
  0
MTEXT
  5
2EC
330
1F
100
AcDbEntity
  8
2
100
AcDbMText
 10
267.629748
 20
289.477641
 30
0.0
 40
3.5
 41
0.0
 71
     7
 72
     5
  1
\W0.7045;40
  7
cesky
 73
     2
 44
0.8433729999999998
  0
LINE
  5
2ED
330
1F
100
AcDbEntity
  8
2
100
AcDbLine
 10
289.444248
 20
277.9340180000001
 30
0.0
 11
289.444248
 21
290.603475
 31
0.0
  0
LINE
  5
2EE
330
1F
100
AcDbEntity
  8
2
100
AcDbLine
 10
249.444248
 20
260.434018
 30
0.0
 11
249.444248
 21
290.603475
 31
0.0
  0
LINE
  5
2EF
330
1F
100
AcDbEntity
  8
2
100
AcDbLine
 10
289.444248
 20
289.603475
 30
0.0
 11
249.444248
 21
289.603475
 31
0.0
  0
SOLID
  5
2F0
330
1F
100
AcDbEntity
  8
2
100
AcDbTrace
 10
289.444248
 20
289.603475
 30
0.0
 11
285.944251
 21
288.98633
 31
0.0
 12
285.944246
 22
290.220619
 32
0.0
 13
285.944246
 23
290.220619
 33
0.0
  0
SOLID
  5
2F1
330
1F
100
AcDbEntity
  8
2
100
AcDbTrace
 10
249.444248
 20
289.603475
 30
0.0
 11
252.944246
 21
290.220619
 31
0.0
 12
252.944251
 22
288.98633
 32
0.0
 13
252.944251
 23
288.98633
 33
0.0
  0
MTEXT
  5
2F2
330
1F
100
AcDbEntity
  8
2
100
AcDbMText
 10
285.892534
 20
283.53056
 30
0.0
 40
3.5
 41
0.0
 71
     7
 72
     5
  1
\W0.6563;6
  7
cesky
 73
     2
 44
0.8433729999999998
  0
LINE
  5
2F3
330
1F
100
AcDbEntity
  8
2
100
AcDbLine
 10
289.444248
 20
277.9340180000001
 30
0.0
 11
289.444248
 21
284.656394
 31
0.0
  0
LINE
  5
2F4
330
1F
100
AcDbEntity
  8
2
100
AcDbLine
 10
283.44482
 20
275.863932
 30
0.0
 11
283.44482
 21
284.656394
 31
0.0
  0
LINE
  5
2F5
330
1F
100
AcDbEntity
  8
2
100
AcDbLine
 10
298.194248
 20
283.656394
 30
0.0
 11
274.69482
 21
283.656394
 31
0.0
  0
SOLID
  5
2F6
330
1F
100
AcDbEntity
  8
2
100
AcDbTrace
 10
289.444248
 20
283.656394
 30
0.0
 11
292.944246
 21
284.273538
 31
0.0
 12
292.9442509999999
 22
283.039249
 32
0.0
 13
292.9442509999999
 23
283.039249
 33
0.0
  0
SOLID
  5
2F7
330
1F
100
AcDbEntity
  8
2
100
AcDbTrace
 10
283.44482
 20
283.656394
 30
0.0
 11
279.944822
 21
283.039249
 31
0.0
 12
279.944817
 22
284.273538
 32
0.0
 13
279.944817
 23
284.273538
 33
0.0
  0
MTEXT
  5
2F8
330
1F
100
AcDbEntity
  8
SK2
100
AcDbMText
 10
241.912028
 20
241.329018
 30
0.0
 40
3.5
 41
0.0
 71
     7
 72
     5
  1
\W0.8677;8,4
  7
cesky
 11
0.0000000000000001
 21
1.0
 31
0.0
 73
     2
 44
0.8433729999999998
  0
LINE
  5
2F9
330
1F
100
AcDbEntity
  8
SK2
100
AcDbLine
 10
250.444248
 20
248.634018
 30
0.0
 11
240.443195
 21
248.634018
 31
0.0
  0
LINE
  5
2FA
330
1F
100
AcDbEntity
  8
SK2
100
AcDbLine
 10
250.444248
 20
240.234018
 30
0.0
 11
240.443195
 21
240.234018
 31
0.0
  0
LINE
  5
2FB
330
1F
100
AcDbEntity
  8
SK2
100
AcDbLine
 10
241.443195
 20
248.634018
 30
0.0
 11
241.443195
 21
240.234018
 31
0.0
  0
SOLID
  5
2FC
330
1F
100
AcDbEntity
  8
SK2
100
AcDbTrace
 10
241.443195
 20
248.634018
 30
0.0
 11
242.060339
 21
245.134021
 31
0.0
 12
240.82605
 22
245.134016
 32
0.0
 13
240.82605
 23
245.134016
 33
0.0
  0
SOLID
  5
2FD
330
1F
100
AcDbEntity
  8
SK2
100
AcDbTrace
 10
241.443195
 20
240.234018
 30
0.0
 11
240.82605
 21
243.734016
 31
0.0
 12
242.060339
 22
243.734021
 32
0.0
 13
242.060339
 23
243.734021
 33
0.0
  0
MTEXT
  5
2FE
330
1F
100
AcDbEntity
  8
SK2
100
AcDbMText
 10
231.116142
 20
245.960268
 30
0.0
 40
3.5
 41
0.0
 71
     7
 72
     5
  1
\W0.8260;16
  7
cesky
 11
0.0000000000000001
 21
1.0
 31
0.0
 73
     2
 44
0.8433729999999998
  0
MTEXT
  5
2FF
330
1F
100
AcDbEntity
  8
SK2
100
AcDbMText
 10
231.116142
 20
239.222768
 30
0.0
 40
3.5
 41
0.0
 71
     7
 72
     5
  1
\W3.0115;\H2.63;%%c\H3.50;
  7
cesky
 11
0.0000000000000001
 21
1.0
 31
0.0
 73
     2
 44
0.8433729999999998
  0
LINE
  5
300
330
1F
100
AcDbEntity
  8
SK2
100
AcDbLine
 10
250.444248
 20
252.434018
 30
0.0
 11
230.303559
 21
252.434018
 31
0.0
  0
LINE
  5
301
330
1F
100
AcDbEntity
  8
SK2
100
AcDbLine
 10
250.444248
 20
236.434018
 30
0.0
 11
230.303559
 21
236.434018
 31
0.0
  0
LINE
  5
302
330
1F
100
AcDbEntity
  8
SK2
100
AcDbLine
 10
231.303559
 20
261.1840180000001
 30
0.0
 11
231.303559
 21
227.684018
 31
0.0
  0
SOLID
  5
303
330
1F
100
AcDbEntity
  8
SK2
100
AcDbTrace
 10
231.303559
 20
252.434018
 30
0.0
 11
230.686415
 21
255.934016
 31
0.0
 12
231.920703
 22
255.934021
 32
0.0
 13
231.920703
 23
255.934021
 33
0.0
  0
SOLID
  5
304
330
1F
100
AcDbEntity
  8
SK2
100
AcDbTrace
 10
231.303559
 20
236.434018
 30
0.0
 11
231.920703
 21
232.934021
 31
0.0
 12
230.686415
 22
232.934016
 32
0.0
 13
230.686415
 23
232.934016
 33
0.0
  0
MTEXT
  5
305
330
1F
100
AcDbEntity
  8
SK2
100
AcDbMText
 10
222.06372
 20
245.960268
 30
0.0
 40
3.5
 41
0.0
 71
     7
 72
     5
  1
\W0.6844;34
  7
cesky
 11
0.0000000000000001
 21
1.0
 31
0.0
 73
     2
 44
0.8433729999999998
  0
MTEXT
  5
306
330
1F
100
AcDbEntity
  8
SK2
100
AcDbMText
 10
222.06372
 20
239.222768
 30
0.0
 40
3.5
 41
0.0
 71
     7
 72
     5
  1
\W3.0115;\H2.63;%%c\H3.50;
  7
cesky
 11
0.0000000000000001
 21
1.0
 31
0.0
 73
     2
 44
0.8433729999999998
  0
LINE
  5
307
330
1F
100
AcDbEntity
  8
SK2
100
AcDbLine
 10
250.444248
 20
261.4340180000001
 30
0.0
 11
221.251137
 21
261.4340180000001
 31
0.0
  0
LINE
  5
308
330
1F
100
AcDbEntity
  8
SK2
100
AcDbLine
 10
250.444248
 20
227.434018
 30
0.0
 11
221.251137
 21
227.434018
 31
0.0
  0
LINE
  5
309
330
1F
100
AcDbEntity
  8
SK2
100
AcDbLine
 10
222.251137
 20
261.4340180000001
 30
0.0
 11
222.251137
 21
227.434018
 31
0.0
  0
SOLID
  5
30A
330
1F
100
AcDbEntity
  8
SK2
100
AcDbTrace
 10
222.251137
 20
261.4340180000001
 30
0.0
 11
222.868281
 21
257.934021
 31
0.0
 12
221.633992
 22
257.934016
 32
0.0
 13
221.633992
 23
257.934016
 33
0.0
  0
SOLID
  5
30B
330
1F
100
AcDbEntity
  8
SK2
100
AcDbTrace
 10
222.251137
 20
227.434018
 30
0.0
 11
221.633992
 21
230.934016
 31
0.0
 12
222.868281
 22
230.934021
 32
0.0
 13
222.868281
 23
230.934021
 33
0.0
  0
MTEXT
  5
30C
330
1F
100
AcDbEntity
  8
SK2
100
AcDbMText
 10
236.604748
 20
215.88534
 30
0.0
 40
3.5
 41
0.0
 71
     7
 72
     5
  1
\W0.9081;5,6
  7
cesky
 73
     2
 44
0.8433729999999998
  0
LINE
  5
30D
330
1F
100
AcDbEntity
  8
SK2
100
AcDbLine
 10
249.444248
 20
228.434018
 30
0.0
 11
249.444248
 21
215.011173
 31
0.0
  0
LINE
  5
30E
330
1F
100
AcDbEntity
  8
SK2
100
AcDbLine
 10
255.044248
 20
244.434018
 30
0.0
 11
255.044248
 21
215.011173
 31
0.0
  0
LINE
  5
30F
330
1F
100
AcDbEntity
  8
SK2
100
AcDbLine
 10
263.794248
 20
216.011173
 30
0.0
 11
236.419248
 21
216.011173
 31
0.0
  0
SOLID
  5
310
330
1F
100
AcDbEntity
  8
SK2
100
AcDbTrace
 10
249.444248
 20
216.011173
 30
0.0
 11
245.944251
 21
215.394029
 31
0.0
 12
245.944246
 22
216.628317
 32
0.0
 13
245.944246
 23
216.628317
 33
0.0
  0
SOLID
  5
311
330
1F
100
AcDbEntity
  8
SK2
100
AcDbTrace
 10
255.044248
 20
216.011173
 30
0.0
 11
258.544246
 21
216.628317
 31
0.0
 12
258.544251
 22
215.394029
 32
0.0
 13
258.544251
 23
215.394029
 33
0.0
  0
LINE
  5
313
330
1F
100
AcDbEntity
  8
CUT
100
AcDbLine
 10
289.3418167840308
 20
275.8795427033474
 30
0.0
 11
286.4442482849934
 21
275.9322491022285
 31
0.0
  0
LINE
  5
314
330
1F
100
AcDbEntity
  8
CUT
100
AcDbLine
 10
289.4408447864733
 20
275.7801470006746
 30
0.0
 11
289.3418167840308
 21
275.8795427033474
 31
0.0
  0
LINE
  5
315
330
1F
100
AcDbEntity
  8
CUT
100
AcDbLine
 10
286.444248284995
 20
263.8482731573362
 30
0.0
 11
283.6562876798402
 21
263.7816965314158
 31
0.0
  0
LINE
  5
31F
330
1F
100
AcDbEntity
  8
CUT
100
AcDbLine
 10
283.4485264126033
 20
275.6823963667228
 30
0.0
 11
283.4476517835117
 21
275.7801470006746
 31
0.0
  0
LINE
  5
321
330
1F
100
AcDbEntity
  8
CUT
100
AcDbLine
 10
289.3758788311883
 20
268.3497592253747
 30
0.0
 11
289.4229549276009
 21
273.5531134636261
 31
0.0
  0
LINE
  5
322
330
1F
100
AcDbEntity
  8
CUT
100
AcDbLine
 10
286.4442482849947
 20
263.8482731573362
 30
0.0
 11
289.2322088901448
 21
263.7816965314158
 31
0.0
  0
LINE
  5
323
330
1F
100
AcDbEntity
  8
CUT
100
AcDbLine
 10
289.4399701573817
 20
275.6823963667228
 30
0.0
 11
289.4408447864733
 21
275.7801470006746
 31
0.0
  0
LINE
  5
324
330
1F
100
AcDbEntity
  8
CUT
100
AcDbLine
 10
289.3277464626248
 20
263.7438413303685
 30
0.0
 11
289.3758788311883
 21
268.3497592253747
 31
0.0
  0
LINE
  5
326
330
1F
100
AcDbEntity
  8
CUT
100
AcDbLine
 10
283.5607501073601
 20
263.7438413303684
 30
0.0
 11
283.5126177387966
 21
268.3497592253747
 31
0.0
  0
LINE
  5
329
330
1F
100
AcDbEntity
  8
CUT
100
AcDbLine
 10
283.4476517835116
 20
275.7801470006746
 30
0.0
 11
283.5466797859542
 21
275.8795427033474
 31
0.0
  0
LINE
  5
32B
330
1F
100
AcDbEntity
  8
CUT
100
AcDbLine
 10
283.5466797859542
 20
275.8795427033474
 30
0.0
 11
286.4442482849938
 21
275.9322491022284
 31
0.0
  0
LINE
  5
32D
330
1F
100
AcDbEntity
  8
CUT
100
AcDbLine
 10
283.5126177387966
 20
268.3497592253747
 30
0.0
 11
283.465541642384
 21
273.5531134636259
 31
0.0
  0
LINE
  5
336
330
1F
100
AcDbEntity
  8
CUT
100
AcDbLine
 10
289.4229549276009
 20
273.5531134636261
 30
0.0
 11
289.4229549276009
 21
273.5531134636261
 31
0.0
  0
ARC
  5
337
330
1F
100
AcDbEntity
  8
CUT
100
AcDbCircle
 10
374.8229467724829
 20
273.9353863471523
 30
0.0
 40
85.40084741771241
100
AcDbArc
 50
178.8278420357573
 51
180.2564693050877
  0
LINE
  5
338
330
1F
100
AcDbEntity
  8
CUT
100
AcDbLine
 10
289.2322088901448
 20
263.7816965314158
 30
0.0
 11
289.2322088901448
 21
263.7816965314158
 31
0.0
  0
ARC
  5
339
330
1F
100
AcDbEntity
  8
CUT
100
AcDbCircle
 10
297.856314502637
 20
285.4074142763758
 30
0.0
 40
23.28189995683547
100
AcDbArc
 50
248.2584137056401
 51
248.5113118572855
  0
LINE
  5
33A
330
1F
100
AcDbEntity
  8
CUT
100
AcDbLine
 10
283.6562876798402
 20
263.7816965314158
 30
0.0
 11
283.6562876798402
 21
263.7816965314158
 31
0.0
  0
ARC
  5
33B
330
1F
100
AcDbEntity
  8
CUT
100
AcDbCircle
 10
275.0321820657039
 20
285.4074142804728
 30
0.0
 40
23.28189996125007
100
AcDbArc
 50
291.4886881427856
 51
291.7415862943833
  0
LINE
  5
33C
330
1F
100
AcDbEntity
  8
CUT
100
AcDbLine
 10
283.465541642384
 20
273.5531134636259
 30
0.0
 11
283.465541642384
 21
273.5531134636259
 31
0.0
  0
ARC
  5
33D
330
1F
100
AcDbEntity
  8
CUT
100
AcDbCircle
 10
198.0655497978586
 20
273.935386347162
 30
0.0
 40
85.40084741735574
100
AcDbArc
 50
359.7435306949046
 51
1.172157964241028
  0
ENDSEC
  0
SECTION
  2
OBJECTS
  0
DICTIONARY
  5
C
330
0
100
AcDbDictionary
281
     1
  3
ACAD_CIP_PREVIOUS_PRODUCT_INFO
350
2E4
  3
ACAD_COLOR
350
2DE
  3
ACAD_DETAILVIEWSTYLE
350
2DA
  3
ACAD_GROUP
350
D
  3
ACAD_IMAGE_DICT
350
175
  3
ACAD_IMAGE_VARS
350
2E3
  3
ACAD_LAYOUT
350
1A
  3
ACAD_MATERIAL
350
43
  3
ACAD_MLEADERSTYLE
350
6B
  3
ACAD_MLINESTYLE
350
17
  3
ACAD_PLOTSETTINGS
350
19
  3
ACAD_PLOTSTYLENAME
350
E
  3
ACAD_SCALELIST
350
47
  3
ACAD_SECTIONVIEWSTYLE
350
2DB
  3
ACAD_TABLESTYLE
350
69
  3
ACAD_VISUALSTYLE
350
2A
  3
ACDB_RECOMPOSE_DATA
350
37A
  3
AcDbVariableDictionary
350
297
  3
AcDsDecomposeData
350
380
  0
DICTIONARY
  5
36F
330
2
100
AcDbDictionary
280
     1
281
     1
  3
ACAD_LAYERSTATES
360
370
  0
DICTIONARY
  5
350
330
10
100
AcDbDictionary
280
     1
281
     1
  3
ADSK_XREC_LAYER_RECONCILED
360
351
  0
DICTIONARY
  5
352
330
76
100
AcDbDictionary
280
     1
281
     1
  3
ADSK_XREC_LAYER_RECONCILED
360
353
  0
DICTIONARY
  5
354
330
33E
100
AcDbDictionary
280
     1
281
     1
  3
ADSK_XREC_LAYER_RECONCILED
360
355
  0
DICTIONARY
  5
356
330
33F
100
AcDbDictionary
280
     1
281
     1
  3
ADSK_XREC_LAYER_RECONCILED
360
357
  0
DICTIONARY
  5
358
330
340
100
AcDbDictionary
280
     1
281
     1
  3
ADSK_XREC_LAYER_RECONCILED
360
359
  0
DICTIONARY
  5
35A
330
343
100
AcDbDictionary
280
     1
281
     1
  3
ADSK_XREC_LAYER_RECONCILED
360
35B
  0
DICTIONARY
  5
35C
330
344
100
AcDbDictionary
280
     1
281
     1
  3
ADSK_XREC_LAYER_RECONCILED
360
35D
  0
DICTIONARY
  5
35E
330
345
100
AcDbDictionary
280
     1
281
     1
  3
ADSK_XREC_LAYER_RECONCILED
360
35F
  0
DICTIONARY
  5
360
330
346
100
AcDbDictionary
280
     1
281
     1
  3
ADSK_XREC_LAYER_RECONCILED
360
361
  0
DICTIONARY
  5
362
330
347
100
AcDbDictionary
280
     1
281
     1
  3
ADSK_XREC_LAYER_RECONCILED
360
363
  0
DICTIONARY
  5
364
330
348
100
AcDbDictionary
280
     1
281
     1
  3
ADSK_XREC_LAYER_RECONCILED
360
365
  0
DICTIONARY
  5
366
330
349
100
AcDbDictionary
280
     1
281
     1
  3
ADSK_XREC_LAYER_RECONCILED
360
367
  0
DICTIONARY
  5
368
330
34A
100
AcDbDictionary
280
     1
281
     1
  3
ADSK_XREC_LAYER_RECONCILED
360
369
  0
DICTIONARY
  5
36A
330
34B
100
AcDbDictionary
280
     1
281
     1
  3
ADSK_XREC_LAYER_RECONCILED
360
36B
  0
DICTIONARY
  5
2E5
330
1F
100
AcDbDictionary
280
     1
281
     1
  3
ACAD_SORTENTS
360
2E6
  0
XRECORD
  5
2E4
102
{ACAD_REACTORS
330
C
102
}
330
C
100
AcDbXrecord
280
     1
300
ACD
300
2019
300
87084ACD_2019_0F
  0
DICTIONARY
  5
2DE
102
{ACAD_REACTORS
330
C
102
}
330
C
100
AcDbDictionary
281
     1
  0
DICTIONARY
  5
2DA
102
{ACAD_REACTORS
330
C
102
}
330
C
100
AcDbDictionary
281
     1
  3
Metric50
350
2E0
  0
DICTIONARY
  5
D
102
{ACAD_REACTORS
330
C
102
}
330
C
100
AcDbDictionary
281
     1
  3
NULOVY_BOD
350
34C
  0
DICTIONARY
  5
175
102
{ACAD_REACTORS
330
C
102
}
330
C
100
AcDbDictionary
281
     1
  3
63A03R_S90SN12N6_2D_DormerPramet_jpg
350
176
  0
RASTERVARIABLES
  5
2E3
102
{ACAD_REACTORS
330
C
102
}
330
C
100
AcDbRasterVariables
 90
        0
 70
     1
 71
     1
 72
     1
  0
DICTIONARY
  5
1A
102
{ACAD_REACTORS
330
C
102
}
330
C
100
AcDbDictionary
281
     1
  3
Layout1
350
1E
  3
Layout2
350
26
  3
Model
350
22
  0
DICTIONARY
  5
43
102
{ACAD_REACTORS
330
C
102
}
330
C
100
AcDbDictionary
281
     1
  3
ByBlock
350
45
  3
ByLayer
350
44
  3
Global
350
46
  0
DICTIONARY
  5
6B
102
{ACAD_REACTORS
330
C
102
}
330
C
100
AcDbDictionary
281
     1
  3
Standard
350
6C
  0
DICTIONARY
  5
17
102
{ACAD_REACTORS
330
C
102
}
330
C
100
AcDbDictionary
281
     1
  3
Standard
350
18
  0
DICTIONARY
  5
19
102
{ACAD_REACTORS
330
C
102
}
330
C
100
AcDbDictionary
281
     1
  0
ACDBDICTIONARYWDFLT
  5
E
102
{ACAD_REACTORS
330
C
102
}
330
C
100
AcDbDictionary
281
     1
  3
Normal
350
F
100
AcDbDictionaryWithDefault
340
F
  0
DICTIONARY
  5
47
102
{ACAD_REACTORS
330
C
102
}
330
C
100
AcDbDictionary
281
     1
  3
A0
350
48
  3
A1
350
49
  3
A2
350
4A
  3
A3
350
4B
  3
A4
350
4C
  3
A5
350
4D
  3
A6
350
4E
  3
A7
350
4F
  3
A8
350
50
  3
A9
350
51
  3
B0
350
52
  3
B1
350
53
  3
B2
350
54
  3
B3
350
55
  3
B4
350
56
  3
B5
350
57
  3
B6
350
58
  3
B7
350
59
  3
B8
350
5A
  3
B9
350
5B
  3
C0
350
5C
  3
C1
350
5D
  3
C2
350
5E
  3
C3
350
5F
  3
C4
350
60
  3
C5
350
61
  3
C6
350
62
  3
C7
350
63
  3
C8
350
64
  3
C9
350
65
  3
D0
350
66
  3
D1
350
67
  3
D2
350
68
  0
DICTIONARY
  5
2DB
102
{ACAD_REACTORS
330
C
102
}
330
C
100
AcDbDictionary
281
     1
  3
Metric50
350
2DF
  0
DICTIONARY
  5
69
102
{ACAD_REACTORS
330
C
102
}
330
C
100
AcDbDictionary
281
     1
  3
Standard
350
6A
  0
DICTIONARY
  5
2A
102
{ACAD_REACTORS
330
C
102
}
330
C
100
AcDbDictionary
281
     1
  3
2dWireframe
350
2F
  3
Basic
350
32
  3
Brighten
350
36
  3
ColorChange
350
3A
  3
Conceptual
350
34
  3
Dim
350
35
  3
EdgeColorOff
350
3D
  3
Facepattern
350
39
  3
Flat
350
2B
  3
FlatWithEdges
350
2C
  3
Gouraud
350
2D
  3
GouraudWithEdges
350
2E
  3
Hidden
350
31
  3
JitterOff
350
3B
  3
Linepattern
350
38
  3
OverhangOff
350
3C
  3
Realistic
350
33
  3
Shaded
350
42
  3
Shaded with edges
350
41
  3
Shades of Gray
350
3E
  3
Sketchy
350
3F
  3
Thicken
350
37
  3
Wireframe
350
30
  3
X-Ray
350
40
  0
XRECORD
  5
37A
102
{ACAD_REACTORS
330
C
102
}
330
C
100
AcDbXrecord
280
     1
 90
        1
330
6A
  0
DICTIONARY
  5
297
102
{ACAD_REACTORS
330
C
102
}
330
C
100
AcDbDictionary
281
     1
  3
CANNOSCALE
350
298
  3
CMLEADERSTYLE
350
2D9
  3
CTABLESTYLE
350
2D8
  3
CVIEWDETAILSTYLE
350
375
  3
CVIEWSECTIONSTYLE
350
376
  3
MSLTSCALE
350
299
  3
XCLIPFRAME
350
377
  0
DICTIONARY
  5
380
102
{ACAD_REACTORS
330
C
102
}
330
C
100
AcDbDictionary
281
     1
  3
AcDsRecords
350
382
  3
AcDsSchemas
350
381
1001
ACAD
1070
     2
  0
DICTIONARY
  5
370
102
{ACAD_REACTORS
330
36F
102
}
330
36F
100
AcDbDictionary
281
     1
  0
XRECORD
  5
351
102
{ACAD_REACTORS
330
350
102
}
330
350
100
AcDbXrecord
280
     1
290
     1
  0
XRECORD
  5
353
102
{ACAD_REACTORS
330
352
102
}
330
352
100
AcDbXrecord
280
     1
290
     1
  0
XRECORD
  5
355
102
{ACAD_REACTORS
330
354
102
}
330
354
100
AcDbXrecord
280
     1
290
     1
  0
XRECORD
  5
357
102
{ACAD_REACTORS
330
356
102
}
330
356
100
AcDbXrecord
280
     1
290
     1
  0
XRECORD
  5
359
102
{ACAD_REACTORS
330
358
102
}
330
358
100
AcDbXrecord
280
     1
290
     1
  0
XRECORD
  5
35B
102
{ACAD_REACTORS
330
35A
102
}
330
35A
100
AcDbXrecord
280
     1
290
     1
  0
XRECORD
  5
35D
102
{ACAD_REACTORS
330
35C
102
}
330
35C
100
AcDbXrecord
280
     1
290
     1
  0
XRECORD
  5
35F
102
{ACAD_REACTORS
330
35E
102
}
330
35E
100
AcDbXrecord
280
     1
290
     1
  0
XRECORD
  5
361
102
{ACAD_REACTORS
330
360
102
}
330
360
100
AcDbXrecord
280
     1
290
     1
  0
XRECORD
  5
363
102
{ACAD_REACTORS
330
362
102
}
330
362
100
AcDbXrecord
280
     1
290
     1
  0
XRECORD
  5
365
102
{ACAD_REACTORS
330
364
102
}
330
364
100
AcDbXrecord
280
     1
290
     1
  0
XRECORD
  5
367
102
{ACAD_REACTORS
330
366
102
}
330
366
100
AcDbXrecord
280
     1
290
     1
  0
XRECORD
  5
369
102
{ACAD_REACTORS
330
368
102
}
330
368
100
AcDbXrecord
280
     1
290
     1
  0
XRECORD
  5
36B
102
{ACAD_REACTORS
330
36A
102
}
330
36A
100
AcDbXrecord
280
     1
290
     1
  0
SORTENTSTABLE
  5
2E6
102
{ACAD_REACTORS
330
2E5
102
}
330
2E5
100
AcDbSortentsTable
330
1F
331
2E7
  5
2FB
331
2E8
  5
2FC
331
2E9
  5
2FD
331
2EA
  5
2FE
331
2EB
  5
2FF
331
2EC
  5
300
331
2ED
  5
301
331
2EE
  5
302
331
2EF
  5
303
331
2F0
  5
304
331
2F1
  5
305
331
2F2
  5
30C
331
2F3
  5
30D
331
2F4
  5
30E
331
2F5
  5
30F
331
2F6
  5
310
331
2F7
  5
311
331
2F8
  5
250
331
2F9
  5
2E7
331
2FA
  5
2E8
331
2FB
  5
2E9
331
2FC
  5
2EA
331
2FD
  5
2EB
331
2FE
  5
2EC
331
2FF
  5
2ED
331
300
  5
2EE
331
301
  5
2EF
331
302
  5
2F0
331
303
  5
2F2
331
304
  5
2F3
331
305
  5
2F4
331
306
  5
2F5
331
307
  5
2F6
331
308
  5
2F7
331
309
  5
2F8
331
30A
  5
2F9
331
30B
  5
2FA
331
30C
  5
306
331
30D
  5
307
331
30E
  5
308
331
30F
  5
309
331
310
  5
30A
331
311
  5
30B
331
313
  5
315
331
314
  5
316
331
315
  5
317
331
31F
  5
326
331
321
  5
32D
331
322
  5
32E
331
323
  5
32F
331
324
  5
330
331
326
  5
332
331
329
  5
337
331
32B
  5
33A
331
32D
  5
33D
331
336
  5
333
331
337
  5
334
331
338
  5
335
331
339
  5
336
331
33A
  5
338
331
33B
  5
339
331
33C
  5
33B
331
33D
  5
33C
  0
ACDBDETAILVIEWSTYLE
  5
2E0
102
{ACAD_XDICTIONARY
360
3B6
102
}
102
{ACAD_REACTORS
330
2DA
102
}
330
2DA
100
AcDbModelDocViewStyle
 70
     0
  3
Metric50
290
     0
100
AcDbDetailViewStyle
 70
     0
 71
     0
 90
        3
 71
     1
340
11
 62
   256
 40
5.0
340
0
 62
   256
 40
5.0
300

 40
0.0
280
     1
 71
     2
340
16
 90
       25
 62
   256
 71
     3
340
11
 62
   256
 40
5.0
 90
        0
 40
15.0
 90
        1
300
%<\AcVar ViewDetailId>% (%<\AcVar ViewScale \f "%sn">%)
 71
     4
340
16
 90
       25
 62
   256
340
16
 90
       25
 62
   256
280
     0
  0
GROUP
  5
34C
102
{ACAD_REACTORS
330
D
102
}
330
D
100
AcDbGroup
300

 70
     0
 71
     1
340
73
  0
IMAGEDEF
  5
176
102
{ACAD_REACTORS
330
175
330
179
102
}
330
175
100
AcDbRasterImageDef
 90
        0
  1
C:\Users\pp0701\Desktop\zakaznik data\63A03R_S90SN12N6_2D_DormerPramet.jpg
 10
2089.0
 20
531.0
 11
0.0004786979415989
 21
0.0004786979415989
280
     1
281
     0
  0
LAYOUT
  5
1E
102
{ACAD_REACTORS
330
1A
102
}
330
1A
100
AcDbPlotSettings
  1

  2
none_device
  4

  6

 40
0.0
 41
0.0
 42
0.0
 43
0.0
 44
0.0
 45
0.0
 46
0.0
 47
0.0
 48
0.0
 49
0.0
140
0.0
141
0.0
142
1.0
143
1.0
 70
   688
 72
     0
 73
     0
 74
     5
  7

 75
    16
147
1.0
 76
     0
 77
     2
 78
   300
148
0.0
149
0.0
100
AcDbLayout
  1
Layout1
 70
     1
 71
     1
 10
-0.5
 20
-0.5
 11
5.0
 21
5.0
 12
0.0
 22
0.0
 32
0.0
 14
-0.5
 24
-0.5
 34
-0.5
 15
5.0
 25
5.0
 35
5.0
146
0.0
 13
0.0
 23
0.0
 33
0.0
 16
1.0
 26
0.0
 36
0.0
 17
0.0
 27
1.0
 37
0.0
 76
     0
330
1B
  0
LAYOUT
  5
26
102
{ACAD_REACTORS
330
1A
102
}
330
1A
100
AcDbPlotSettings
  1

  2
none_device
  4

  6

 40
0.0
 41
0.0
 42
0.0
 43
0.0
 44
0.0
 45
0.0
 46
0.0
 47
0.0
 48
0.0
 49
0.0
140
0.0
141
0.0
142
1.0
143
1.0
 70
   688
 72
     0
 73
     0
 74
     5
  7

 75
    16
147
1.0
 76
     0
 77
     2
 78
   300
148
0.0
149
0.0
100
AcDbLayout
  1
Layout2
 70
     1
 71
     2
 10
0.0
 20
0.0
 11
0.0
 21
0.0
 12
0.0
 22
0.0
 32
0.0
 14
0.0
 24
0.0
 34
0.0
 15
0.0
 25
0.0
 35
0.0
146
0.0
 13
0.0
 23
0.0
 33
0.0
 16
1.0
 26
0.0
 36
0.0
 17
0.0
 27
1.0
 37
0.0
 76
     0
330
23
  0
LAYOUT
  5
22
102
{ACAD_REACTORS
330
1A
102
}
330
1A
100
AcDbPlotSettings
  1

  2
none_device
  4
Letter_(8.50_x_11.00_Inches)
  6

 40
6.349999999999999
 41
6.349999999999999
 42
6.350005
 43
6.350005
 44
215.9
 45
279.4
 46
0.0
 47
0.0
 48
0.0
 49
0.0
140
0.0
141
0.0
142
1.0
143
1.0
 70
  1712
 72
     0
 73
     0
 74
     0
  7

 75
     0
147
1.0
 76
     0
 77
     2
 78
   300
148
0.0
149
0.0
100
AcDbLayout
  1
Model
 70
     1
 71
     0
 10
-0.5
 20
-0.5
 11
5.0
 21
5.0
 12
0.0
 22
0.0
 32
0.0
 14
-0.5
 24
-0.5
 34
-0.5
 15
5.0
 25
5.0
 35
5.0
146
0.0
 13
0.0
 23
0.0
 33
0.0
 16
1.0
 26
0.0
 36
0.0
 17
0.0
 27
1.0
 37
0.0
 76
     0
330
1F
331
29
  0
MATERIAL
  5
45
102
{ACAD_XDICTIONARY
360
2CD
102
}
102
{ACAD_REACTORS
330
43
102
}
330
43
100
AcDbMaterial
  1
ByBlock
  0
MATERIAL
  5
44
102
{ACAD_XDICTIONARY
360
2CB
102
}
102
{ACAD_REACTORS
330
43
102
}
330
43
100
AcDbMaterial
  1
ByLayer
  0
MATERIAL
  5
46
102
{ACAD_XDICTIONARY
360
2CF
102
}
102
{ACAD_REACTORS
330
43
102
}
330
43
100
AcDbMaterial
  1
Global
  0
MLEADERSTYLE
  5
6C
102
{ACAD_REACTORS
330
6B
102
}
330
6B
100
AcDbMLeaderStyle
170
     2
171
     1
172
     0
 90
        2
 40
0.0
 41
0.0
173
     1
 91
-1056964608
340
14
 92
       -2
290
     1
 42
0.09
291
     1
 43
0.36
  3
Standard
 44
0.18
300

342
11
174
     1
178
     6
175
     1
176
     0
 93
-1056964608
 45
0.18
292
     0
297
     0
 46
0.18
 94
-1056964608
 47
1.0
 49
1.0
140
1.0
293
     1
141
0.0
294
     1
177
     0
142
1.0
295
     0
296
     0
143
0.125
1001
ACAD_MLEADERVER
1070
     2
  0
MLINESTYLE
  5
18
102
{ACAD_REACTORS
330
17
102
}
330
17
100
AcDbMlineStyle
  2
STANDARD
 70
     0
  3

 62
   256
 51
90.0
 52
90.0
 71
     2
 49
0.5
 62
   256
  6
BYLAYER
 49
-0.5
 62
   256
  6
BYLAYER
  0
ACDBPLACEHOLDER
  5
F
102
{ACAD_REACTORS
330
E
102
}
330
E
  0
SCALE
  5
48
102
{ACAD_REACTORS
330
47
102
}
330
47
100
AcDbScale
 70
     0
300
1:1
140
1.0
141
1.0
290
     1
  0
SCALE
  5
49
102
{ACAD_REACTORS
330
47
102
}
330
47
100
AcDbScale
 70
     0
300
1:2
140
1.0
141
2.0
290
     0
  0
SCALE
  5
4A
102
{ACAD_REACTORS
330
47
102
}
330
47
100
AcDbScale
 70
     0
300
1:4
140
1.0
141
4.0
290
     0
  0
SCALE
  5
4B
102
{ACAD_REACTORS
330
47
102
}
330
47
100
AcDbScale
 70
     0
300
1:5
140
1.0
141
5.0
290
     0
  0
SCALE
  5
4C
102
{ACAD_REACTORS
330
47
102
}
330
47
100
AcDbScale
 70
     0
300
1:8
140
1.0
141
8.0
290
     0
  0
SCALE
  5
4D
102
{ACAD_REACTORS
330
47
102
}
330
47
100
AcDbScale
 70
     0
300
1:10
140
1.0
141
10.0
290
     0
  0
SCALE
  5
4E
102
{ACAD_REACTORS
330
47
102
}
330
47
100
AcDbScale
 70
     0
300
1:16
140
1.0
141
16.0
290
     0
  0
SCALE
  5
4F
102
{ACAD_REACTORS
330
47
102
}
330
47
100
AcDbScale
 70
     0
300
1:20
140
1.0
141
20.0
290
     0
  0
SCALE
  5
50
102
{ACAD_REACTORS
330
47
102
}
330
47
100
AcDbScale
 70
     0
300
1:30
140
1.0
141
30.0
290
     0
  0
SCALE
  5
51
102
{ACAD_REACTORS
330
47
102
}
330
47
100
AcDbScale
 70
     0
300
1:40
140
1.0
141
40.0
290
     0
  0
SCALE
  5
52
102
{ACAD_REACTORS
330
47
102
}
330
47
100
AcDbScale
 70
     0
300
1:50
140
1.0
141
50.0
290
     0
  0
SCALE
  5
53
102
{ACAD_REACTORS
330
47
102
}
330
47
100
AcDbScale
 70
     0
300
1:100
140
1.0
141
100.0
290
     0
  0
SCALE
  5
54
102
{ACAD_REACTORS
330
47
102
}
330
47
100
AcDbScale
 70
     0
300
2:1
140
2.0
141
1.0
290
     0
  0
SCALE
  5
55
102
{ACAD_REACTORS
330
47
102
}
330
47
100
AcDbScale
 70
     0
300
4:1
140
4.0
141
1.0
290
     0
  0
SCALE
  5
56
102
{ACAD_REACTORS
330
47
102
}
330
47
100
AcDbScale
 70
     0
300
8:1
140
8.0
141
1.0
290
     0
  0
SCALE
  5
57
102
{ACAD_REACTORS
330
47
102
}
330
47
100
AcDbScale
 70
     0
300
10:1
140
10.0
141
1.0
290
     0
  0
SCALE
  5
58
102
{ACAD_REACTORS
330
47
102
}
330
47
100
AcDbScale
 70
     0
300
100:1
140
100.0
141
1.0
290
     0
  0
SCALE
  5
59
102
{ACAD_REACTORS
330
47
102
}
330
47
100
AcDbScale
 70
     0
300
1/128" = 1'-0"
140
0.007812
141
12.0
290
     0
  0
SCALE
  5
5A
102
{ACAD_REACTORS
330
47
102
}
330
47
100
AcDbScale
 70
     0
300
1/64" = 1'-0"
140
0.015625
141
12.0
290
     0
  0
SCALE
  5
5B
102
{ACAD_REACTORS
330
47
102
}
330
47
100
AcDbScale
 70
     0
300
1/32" = 1'-0"
140
0.03125
141
12.0
290
     0
  0
SCALE
  5
5C
102
{ACAD_REACTORS
330
47
102
}
330
47
100
AcDbScale
 70
     0
300
1/16" = 1'-0"
140
0.0625
141
12.0
290
     0
  0
SCALE
  5
5D
102
{ACAD_REACTORS
330
47
102
}
330
47
100
AcDbScale
 70
     0
300
3/32" = 1'-0"
140
0.09375
141
12.0
290
     0
  0
SCALE
  5
5E
102
{ACAD_REACTORS
330
47
102
}
330
47
100
AcDbScale
 70
     0
300
1/8" = 1'-0"
140
0.125
141
12.0
290
     0
  0
SCALE
  5
5F
102
{ACAD_REACTORS
330
47
102
}
330
47
100
AcDbScale
 70
     0
300
3/16" = 1'-0"
140
0.1875
141
12.0
290
     0
  0
SCALE
  5
60
102
{ACAD_REACTORS
330
47
102
}
330
47
100
AcDbScale
 70
     0
300
1/4" = 1'-0"
140
0.25
141
12.0
290
     0
  0
SCALE
  5
61
102
{ACAD_REACTORS
330
47
102
}
330
47
100
AcDbScale
 70
     0
300
3/8" = 1'-0"
140
0.375
141
12.0
290
     0
  0
SCALE
  5
62
102
{ACAD_REACTORS
330
47
102
}
330
47
100
AcDbScale
 70
     0
300
1/2" = 1'-0"
140
0.5
141
12.0
290
     0
  0
SCALE
  5
63
102
{ACAD_REACTORS
330
47
102
}
330
47
100
AcDbScale
 70
     0
300
3/4" = 1'-0"
140
0.75
141
12.0
290
     0
  0
SCALE
  5
64
102
{ACAD_REACTORS
330
47
102
}
330
47
100
AcDbScale
 70
     0
300
1" = 1'-0"
140
1.0
141
12.0
290
     0
  0
SCALE
  5
65
102
{ACAD_REACTORS
330
47
102
}
330
47
100
AcDbScale
 70
     0
300
1-1/2" = 1'-0"
140
1.5
141
12.0
290
     0
  0
SCALE
  5
66
102
{ACAD_REACTORS
330
47
102
}
330
47
100
AcDbScale
 70
     0
300
3" = 1'-0"
140
3.0
141
12.0
290
     0
  0
SCALE
  5
67
102
{ACAD_REACTORS
330
47
102
}
330
47
100
AcDbScale
 70
     0
300
6" = 1'-0"
140
6.0
141
12.0
290
     0
  0
SCALE
  5
68
102
{ACAD_REACTORS
330
47
102
}
330
47
100
AcDbScale
 70
     0
300
1'-0" = 1'-0"
140
12.0
141
12.0
290
     0
  0
ACDBSECTIONVIEWSTYLE
  5
2DF
102
{ACAD_XDICTIONARY
360
3B4
102
}
102
{ACAD_REACTORS
330
2DB
102
}
330
2DB
100
AcDbModelDocViewStyle
 70
     0
  3
Metric50
290
     0
100
AcDbSectionViewStyle
 70
     0
 71
     0
 90
      102
 71
     1
340
11
 62
   256
 40
5.0
340
0
340
0
 62
   256
 40
5.0
300
I, O, Q, S, X, Z
 40
10.0
 90
        0
 40
2.5
 90
        0
 71
     2
340
16
 90
       25
 62
   256
340
16
 90
       50
 62
   256
 40
5.0
 40
2.5
 40
5.0
 71
     3
340
11
 62
   256
 40
5.0
 90
        0
 40
15.0
 90
        1
300
%<\AcVar ViewSectionStartId>%-%<\AcVar ViewSectionEndId>% (%<\AcVar ViewScale \f "%sn">%)
 71
     4
 62
   256
 62
   257
300
ANSI31
 40
1.0
 90
        0
290
     0
290
     0
 90
        6
 40
0.0
 40
1.570796326794896
 40
0.2617993877991494
 40
1.308996938995747
 40
-0.2617993877991494
 40
1.832595714594046
  0
TABLESTYLE
  5
6A
102
{ACAD_XDICTIONARY
360
2D1
102
}
102
{ACAD_REACTORS
330
69
102
}
330
69
100
AcDbTableStyle
  3
Standard
 70
     0
 71
     0
 40
0.06
 41
0.06
280
     0
281
     0
  7
Standard
140
0.18
170
     2
 62
     0
 63
     7
283
     0
274
    -2
284
     1
 64
     0
275
    -2
285
     1
 65
     0
276
    -2
286
     1
 66
     0
277
    -2
287
     1
 67
     0
278
    -2
288
     1
 68
     0
279
    -2
289
     1
 69
     0
  7
Standard
140
0.25
170
     5
 62
     0
 63
     7
283
     0
274
    -2
284
     1
 64
     0
275
    -2
285
     1
 65
     0
276
    -2
286
     1
 66
     0
277
    -2
287
     1
 67
     0
278
    -2
288
     1
 68
     0
279
    -2
289
     1
 69
     0
  7
Standard
140
0.18
170
     5
 62
     0
 63
     7
283
     0
274
    -2
284
     1
 64
     0
275
    -2
285
     1
 65
     0
276
    -2
286
     1
 66
     0
277
    -2
287
     1
 67
     0
278
    -2
288
     1
 68
     0
279
    -2
289
     1
 69
     0
  0
VISUALSTYLE
  5
2F
102
{ACAD_XDICTIONARY
360
38B
102
}
102
{ACAD_REACTORS
330
2A
102
}
330
2A
100
AcDbVisualStyle
  2

 70
     4
 71
     0
 72
     2
 73
     0
 90
        0
 40
-0.6
 41
-30.0
 62
     5
 63
     7
421
 16777215
 74
     1
 91
        4
 64
     7
 65
   257
 75
     1
175
     1
 42
1.0
 92
        0
 66
   257
 43
1.0
 76
     1
 77
     6
 78
     2
 67
     7
 79
     5
170
     0
171
     0
290
     0
174
     0
 93
        1
 44
0.0
173
     0
291
     0
 45
0.0
1001
ACAD
1000
AcDbSavedByObjectVersion
1070
     0
  0
VISUALSTYLE
  5
32
102
{ACAD_XDICTIONARY
360
391
102
}
102
{ACAD_REACTORS
330
2A
102
}
330
2A
100
AcDbVisualStyle
  2

 70
     7
 71
     1
 72
     0
 73
     1
 90
        0
 40
-0.6
 41
-30.0
 62
     5
 63
     7
421
 16777215
 74
     0
 91
        4
 64
     7
 65
   257
 75
     1
175
     1
 42
1.0
 92
        8
 66
     7
 43
1.0
 76
     1
 77
     6
 78
     2
 67
     7
 79
     5
170
     0
171
     0
290
     0
174
     0
 93
        1
 44
0.0
173
     0
291
     1
 45
0.0
1001
ACAD
1000
AcDbSavedByObjectVersion
1070
     0
  0
VISUALSTYLE
  5
36
102
{ACAD_XDICTIONARY
360
399
102
}
102
{ACAD_REACTORS
330
2A
102
}
330
2A
100
AcDbVisualStyle
  2

 70
    12
 71
     2
 72
     2
 73
     0
 90
        0
 40
-0.6
 41
-30.0
 62
     5
 63
     7
421
 16777215
 74
     1
 91
        4
 64
     7
 65
   257
 75
     1
175
     1
 42
1.0
 92
        8
 66
     7
 43
1.0
 76
     1
 77
     6
 78
     2
 67
     7
 79
     5
170
     0
171
     0
290
     0
174
     0
 93
        1
 44
50.0
173
     0
291
     1
 45
0.0
1001
ACAD
1000
AcDbSavedByObjectVersion
1070
     0
  0
VISUALSTYLE
  5
3A
102
{ACAD_XDICTIONARY
360
3A1
102
}
102
{ACAD_REACTORS
330
2A
102
}
330
2A
100
AcDbVisualStyle
  2

 70
    16
 71
     2
 72
     2
 73
     3
 90
        0
 40
-0.6
 41
-30.0
 62
     5
 63
     8
421
  8421504
 74
     1
 91
        4
 64
     7
 65
   257
 75
     1
175
     1
 42
1.0
 92
        8
 66
     8
424
  8421504
 43
1.0
 76
     1
 77
     6
 78
     2
 67
     7
 79
     5
170
     0
171
     0
290
     0
174
     0
 93
        1
 44
0.0
173
     0
291
     1
 45
0.0
1001
ACAD
1000
AcDbSavedByObjectVersion
1070
     0
  0
VISUALSTYLE
  5
34
102
{ACAD_XDICTIONARY
360
395
102
}
102
{ACAD_REACTORS
330
2A
102
}
330
2A
100
AcDbVisualStyle
  2

 70
     9
 71
     3
 72
     2
 73
     0
 90
        0
 40
-0.6
 41
-30.0
 62
     5
 63
     7
421
 16777215
 74
     2
 91
        2
 64
     7
 65
   257
 75
     1
175
     1
 42
179.0
 92
        8
 66
     7
 43
1.0
 76
     1
 77
     6
 78
     2
 67
     7
 79
     3
170
     0
171
     0
290
     0
174
     0
 93
        1
 44
0.0
173
     0
291
     0
 45
0.0
1001
ACAD
1000
AcDbSavedByObjectVersion
1070
     0
  0
VISUALSTYLE
  5
35
102
{ACAD_XDICTIONARY
360
397
102
}
102
{ACAD_REACTORS
330
2A
102
}
330
2A
100
AcDbVisualStyle
  2

 70
    11
 71
     2
 72
     2
 73
     0
 90
        0
 40
-0.6
 41
-30.0
 62
     5
 63
     7
421
 16777215
 74
     1
 91
        4
 64
     7
 65
   257
 75
     1
175
     1
 42
1.0
 92
        8
 66
     7
 43
1.0
 76
     1
 77
     6
 78
     2
 67
     7
 79
     5
170
     0
171
     0
290
     0
174
     0
 93
        1
 44
-50.0
173
     0
291
     1
 45
0.0
1001
ACAD
1000
AcDbSavedByObjectVersion
1070
     0
  0
VISUALSTYLE
  5
3D
102
{ACAD_XDICTIONARY
360
3A7
102
}
102
{ACAD_REACTORS
330
2A
102
}
330
2A
100
AcDbVisualStyle
  2

 70
    22
 71
     2
 72
     2
 73
     0
 90
        0
 40
-0.6
 41
-30.0
 62
     5
 63
     7
421
 16777215
 74
     1
 91
        4
 64
     7
 65
   257
 75
     1
175
     1
 42
1.0
 92
        8
 66
     7
 43
1.0
 76
     1
 77
     6
 78
     2
 67
     7
 79
     5
170
     0
171
     0
290
     0
174
     0
 93
        1
 44
0.0
173
     0
291
     1
 45
0.0
1001
ACAD
1000
AcDbSavedByObjectVersion
1070
     0
  0
VISUALSTYLE
  5
39
102
{ACAD_XDICTIONARY
360
39F
102
}
102
{ACAD_REACTORS
330
2A
102
}
330
2A
100
AcDbVisualStyle
  2

 70
    15
 71
     2
 72
     2
 73
     0
 90
        0
 40
-0.6
 41
-30.0
 62
     5
 63
     7
421
 16777215
 74
     1
 91
        4
 64
     7
 65
   257
 75
     1
175
     1
 42
1.0
 92
        8
 66
     7
 43
1.0
 76
     1
 77
     6
 78
     2
 67
     7
 79
     5
170
     0
171
     0
290
     0
174
     0
 93
        1
 44
0.0
173
     0
291
     1
 45
0.0
1001
ACAD
1000
AcDbSavedByObjectVersion
1070
     0
  0
VISUALSTYLE
  5
2B
102
{ACAD_XDICTIONARY
360
383
102
}
102
{ACAD_REACTORS
330
2A
102
}
330
2A
100
AcDbVisualStyle
  2

 70
     0
 71
     2
 72
     1
 73
     1
 90
        2
 40
-0.6
 41
30.0
 62
     5
 63
     7
421
 16777215
 74
     0
 91
        0
 64
     7
 65
   257
 75
     1
175
     1
 42
1.0
 92
        8
 66
     7
 43
1.0
 76
     1
 77
     6
 78
     2
 67
     7
 79
     5
170
     0
171
     0
290
     0
174
     0
 93
       13
 44
0.0
173
     0
291
     1
 45
0.0
1001
ACAD
1000
AcDbSavedByObjectVersion
1070
     0
  0
VISUALSTYLE
  5
2C
102
{ACAD_XDICTIONARY
360
385
102
}
102
{ACAD_REACTORS
330
2A
102
}
330
2A
100
AcDbVisualStyle
  2

 70
     1
 71
     2
 72
     1
 73
     1
 90
        2
 40
-0.6
 41
30.0
 62
     5
 63
     7
421
 16777215
 74
     1
 91
        0
 64
     7
 65
   257
 75
     1
175
     1
 42
1.0
 92
        0
 66
   257
 43
1.0
 76
     1
 77
     6
 78
     2
 67
     7
 79
     5
170
     0
171
     0
290
     0
174
     0
 93
       13
 44
0.0
173
     0
291
     1
 45
0.0
1001
ACAD
1000
AcDbSavedByObjectVersion
1070
     0
  0
VISUALSTYLE
  5
2D
102
{ACAD_XDICTIONARY
360
387
102
}
102
{ACAD_REACTORS
330
2A
102
}
330
2A
100
AcDbVisualStyle
  2

 70
     2
 71
     2
 72
     2
 73
     1
 90
        2
 40
-0.6
 41
30.0
 62
     5
 63
     7
421
 16777215
 74
     0
 91
        0
 64
     7
 65
   257
 75
     1
175
     1
 42
1.0
 92
        0
 66
     7
 43
1.0
 76
     1
 77
     6
 78
     2
 67
     7
 79
     5
170
     0
171
     0
290
     0
174
     0
 93
       13
 44
0.0
173
     0
291
     1
 45
0.0
1001
ACAD
1000
AcDbSavedByObjectVersion
1070
     0
  0
VISUALSTYLE
  5
2E
102
{ACAD_XDICTIONARY
360
389
102
}
102
{ACAD_REACTORS
330
2A
102
}
330
2A
100
AcDbVisualStyle
  2

 70
     3
 71
     2
 72
     2
 73
     1
 90
        2
 40
-0.6
 41
30.0
 62
     5
 63
     7
421
 16777215
 74
     1
 91
        0
 64
     7
 65
   257
 75
     1
175
     1
 42
1.0
 92
        0
 66
   257
 43
1.0
 76
     1
 77
     6
 78
     2
 67
     7
 79
     5
170
     0
171
     0
290
     0
174
     0
 93
       13
 44
0.0
173
     0
291
     1
 45
0.0
1001
ACAD
1000
AcDbSavedByObjectVersion
1070
     0
  0
VISUALSTYLE
  5
31
102
{ACAD_XDICTIONARY
360
38F
102
}
102
{ACAD_REACTORS
330
2A
102
}
330
2A
100
AcDbVisualStyle
  2

 70
     6
 71
     1
 72
     2
 73
     2
 90
        0
 40
-0.6
 41
-30.0
 62
     5
 63
     7
421
 16777215
 74
     2
 91
        2
 64
     7
 65
   257
 75
     2
175
     1
 42
40.0
 92
        0
 66
   257
 43
1.0
 76
     1
 77
     6
 78
     2
 67
     7
 79
     3
170
     0
171
     0
290
     0
174
     0
 93
        1
 44
0.0
173
     0
291
     0
 45
0.0
1001
ACAD
1000
AcDbSavedByObjectVersion
1070
     0
  0
VISUALSTYLE
  5
3B
102
{ACAD_XDICTIONARY
360
3A3
102
}
102
{ACAD_REACTORS
330
2A
102
}
330
2A
100
AcDbVisualStyle
  2

 70
    20
 71
     2
 72
     2
 73
     0
 90
        0
 40
-0.6
 41
-30.0
 62
     5
 63
     7
421
 16777215
 74
     1
 91
        4
 64
     7
 65
   257
 75
     1
175
     1
 42
1.0
 92
       10
 66
     7
 43
1.0
 76
     1
 77
     6
 78
     2
 67
     7
 79
     5
170
     0
171
     0
290
     0
174
     0
 93
        1
 44
0.0
173
     0
291
     1
 45
0.0
1001
ACAD
1000
AcDbSavedByObjectVersion
1070
     0
  0
VISUALSTYLE
  5
38
102
{ACAD_XDICTIONARY
360
39D
102
}
102
{ACAD_REACTORS
330
2A
102
}
330
2A
100
AcDbVisualStyle
  2

 70
    14
 71
     2
 72
     2
 73
     0
 90
        0
 40
-0.6
 41
-30.0
 62
     5
 63
     7
421
 16777215
 74
     1
 91
        4
 64
     7
 65
   257
 75
     7
175
     7
 42
1.0
 92
        8
 66
     7
 43
1.0
 76
     1
 77
     6
 78
     2
 67
     7
 79
     5
170
     0
171
     0
290
     0
174
     0
 93
        1
 44
0.0
173
     0
291
     1
 45
0.0
1001
ACAD
1000
AcDbSavedByObjectVersion
1070
     0
  0
VISUALSTYLE
  5
3C
102
{ACAD_XDICTIONARY
360
3A5
102
}
102
{ACAD_REACTORS
330
2A
102
}
330
2A
100
AcDbVisualStyle
  2

 70
    21
 71
     2
 72
     2
 73
     0
 90
        0
 40
-0.6
 41
-30.0
 62
     5
 63
     7
421
 16777215
 74
     1
 91
        4
 64
     7
 65
   257
 75
     1
175
     1
 42
1.0
 92
        9
 66
     7
 43
1.0
 76
     1
 77
     6
 78
     2
 67
     7
 79
     5
170
     0
171
     0
290
     0
174
     0
 93
        1
 44
0.0
173
     0
291
     1
 45
0.0
1001
ACAD
1000
AcDbSavedByObjectVersion
1070
     0
  0
VISUALSTYLE
  5
33
102
{ACAD_XDICTIONARY
360
393
102
}
102
{ACAD_REACTORS
330
2A
102
}
330
2A
100
AcDbVisualStyle
  2

 70
     8
 71
     2
 72
     3
 73
     0
 90
        2
 40
-0.6
 41
30.0
 62
     5
 63
     7
421
 16777215
 74
     0
 91
        0
 64
     7
 65
   257
 75
     1
175
     1
 42
1.0
 92
        8
 66
   257
 43
1.0
 76
     1
 77
     6
 78
     2
 67
     7
 79
     3
170
     0
171
     0
290
     0
174
     0
 93
       13
 44
0.0
173
     0
291
     0
 45
0.0
1001
ACAD
1000
AcDbSavedByObjectVersion
1070
     0
  0
VISUALSTYLE
  5
42
102
{ACAD_XDICTIONARY
360
3B1
102
}
102
{ACAD_REACTORS
330
2A
102
}
330
2A
100
AcDbVisualStyle
  2

 70
    27
 71
     2
 72
     2
 73
     1
 90
        2
 40
-0.6
 41
30.0
 62
     5
 63
     7
421
 16777215
 74
     0
 91
        4
 64
     7
 65
   257
 75
     1
175
     1
 42
1.0
 92
        8
 66
   257
 43
1.0
 76
     1
 77
     6
 78
     2
 67
     8
425
  7895160
 79
     3
170
     0
171
     0
290
     0
174
     0
 93
        5
 44
0.0
173
     0
291
     0
 45
0.0
1001
ACAD
1000
AcDbSavedByObjectVersion
1070
     0
  0
VISUALSTYLE
  5
41
102
{ACAD_XDICTIONARY
360
3AF
102
}
102
{ACAD_REACTORS
330
2A
102
}
330
2A
100
AcDbVisualStyle
  2

 70
    26
 71
     2
 72
     2
 73
     1
 90
        2
 40
-0.6
 41
30.0
 62
     5
 63
     7
421
 16777215
 74
     1
 91
       10
 64
     7
 65
   257
 75
     2
175
     1
 42
1.0
 92
        8
 66
   257
 43
1.0
 76
     1
 77
     6
 78
     2
 67
     7
 79
     3
170
     0
171
     0
290
     0
174
     0
 93
        5
 44
0.0
173
     0
291
     0
 45
0.0
1001
ACAD
1000
AcDbSavedByObjectVersion
1070
     0
  0
VISUALSTYLE
  5
3E
102
{ACAD_XDICTIONARY
360
3A9
102
}
102
{ACAD_REACTORS
330
2A
102
}
330
2A
100
AcDbVisualStyle
  2

 70
    23
 71
     2
 72
     2
 73
     3
 90
        0
 40
-0.6
 41
-30.0
 62
     5
 63
     7
421
 16777215
 74
     2
 91
        2
 64
     7
 65
     7
 75
     1
175
     1
 42
40.0
 92
        8
 66
     7
 43
1.0
 76
     1
 77
     6
 78
     2
 67
     7
 79
     3
170
     0
171
     0
290
     0
174
     0
 93
        1
 44
0.0
173
     0
291
     0
 45
0.0
1001
ACAD
1000
AcDbSavedByObjectVersion
1070
     0
  0
VISUALSTYLE
  5
3F
102
{ACAD_XDICTIONARY
360
3AB
102
}
102
{ACAD_REACTORS
330
2A
102
}
330
2A
100
AcDbVisualStyle
  2

 70
    24
 71
     1
 72
     2
 73
     2
 90
        0
 40
-0.6
 41
-30.0
 62
     5
 63
     7
421
 16777215
 74
     2
 91
        2
 64
     7
 65
     7
 75
     1
175
     1
 42
40.0
 92
       11
 66
     7
 43
1.0
 76
     1
 77
     6
 78
     2
 67
     7
 79
     6
170
     0
171
     0
290
     0
174
     0
 93
        1
 44
0.0
173
     0
291
     0
 45
0.0
1001
ACAD
1000
AcDbSavedByObjectVersion
1070
     0
  0
VISUALSTYLE
  5
37
102
{ACAD_XDICTIONARY
360
39B
102
}
102
{ACAD_REACTORS
330
2A
102
}
330
2A
100
AcDbVisualStyle
  2

 70
    13
 71
     2
 72
     2
 73
     0
 90
        0
 40
-0.6
 41
-30.0
 62
     5
 63
     7
421
 16777215
 74
     1
 91
        4
 64
     7
 65
   257
 75
     1
175
     1
 42
1.0
 92
       12
 66
     7
 43
1.0
 76
     1
 77
     6
 78
     2
 67
     7
 79
     5
170
     0
171
     0
290
     0
174
     0
 93
        1
 44
0.0
173
     0
291
     1
 45
0.0
1001
ACAD
1000
AcDbSavedByObjectVersion
1070
     0
  0
VISUALSTYLE
  5
30
102
{ACAD_XDICTIONARY
360
38D
102
}
102
{ACAD_REACTORS
330
2A
102
}
330
2A
100
AcDbVisualStyle
  2

 70
     5
 71
     0
 72
     2
 73
     0
 90
        0
 40
-0.6
 41
-30.0
 62
     5
 63
     7
421
 16777215
 74
     1
 91
        4
 64
     7
 65
   257
 75
     1
175
     1
 42
1.0
 92
        0
 66
   257
 43
1.0
 76
     1
 77
     6
 78
     2
 67
     7
 79
     3
170
     0
171
     0
290
     0
174
     0
 93
        1
 44
0.0
173
     0
291
     0
 45
0.0
1001
ACAD
1000
AcDbSavedByObjectVersion
1070
     0
  0
VISUALSTYLE
  5
40
102
{ACAD_XDICTIONARY
360
3AD
102
}
102
{ACAD_REACTORS
330
2A
102
}
330
2A
100
AcDbVisualStyle
  2

 70
    25
 71
     2
 72
     2
 73
     1
 90
        1
 40
0.5
 41
-30.0
 62
     5
 63
     7
421
 16777215
 74
     1
 91
        0
 64
     7
 65
   257
 75
     1
175
     1
 42
1.0
 92
        8
 66
     7
 43
1.0
 76
     1
 77
     6
 78
     2
 67
     7
 79
     3
170
     0
171
     0
290
     0
174
     0
 93
       13
 44
0.0
173
     0
291
     0
 45
0.0
1001
ACAD
1000
AcDbSavedByObjectVersion
1070
     0
  0
DICTIONARYVAR
  5
298
102
{ACAD_REACTORS
330
297
102
}
330
297
100
DictionaryVariables
280
     0
  1
1:1
  0
DICTIONARYVAR
  5
2D9
102
{ACAD_REACTORS
330
297
102
}
330
297
100
DictionaryVariables
280
     0
  1
STANDARD
  0
DICTIONARYVAR
  5
2D8
102
{ACAD_REACTORS
330
297
102
}
330
297
100
DictionaryVariables
280
     0
  1
STANDARD
  0
DICTIONARYVAR
  5
375
102
{ACAD_REACTORS
330
297
102
}
330
297
100
DictionaryVariables
280
     0
  1
Metric50
  0
DICTIONARYVAR
  5
376
102
{ACAD_REACTORS
330
297
102
}
330
297
100
DictionaryVariables
280
     0
  1
Metric50
  0
DICTIONARYVAR
  5
299
102
{ACAD_REACTORS
330
297
102
}
330
297
100
DictionaryVariables
280
     0
  1
1
  0
DICTIONARYVAR
  5
377
102
{ACAD_REACTORS
330
297
102
}
330
297
100
DictionaryVariables
280
     0
  1
2
  0
DICTIONARY
  5
382
102
{ACAD_REACTORS
330
380
102
}
330
380
100
AcDbDictionary
281
     1
  0
DICTIONARY
  5
381
102
{ACAD_REACTORS
330
380
102
}
330
380
100
AcDbDictionary
281
     1
  3
2791912639280
350
37B
  3
2791912639296
350
37C
  3
2791912639312
350
37D
  3
2791912639328
350
37E
  3
2791912639344
350
37F
  0
DICTIONARY
  5
3B6
330
2E0
100
AcDbDictionary
280
     1
281
     1
  3
ACAD_XREC_ROUNDTRIP
360
3B7
  0
DICTIONARY
  5
2CD
330
45
100
AcDbDictionary
280
     1
281
     1
  3
ACAD_XREC_ROUNDTRIP
360
2CE
  0
DICTIONARY
  5
2CB
330
44
100
AcDbDictionary
280
     1
281
     1
  3
ACAD_XREC_ROUNDTRIP
360
2CC
  0
DICTIONARY
  5
2CF
330
46
100
AcDbDictionary
280
     1
281
     1
  3
ACAD_XREC_ROUNDTRIP
360
2D0
  0
DICTIONARY
  5
3B4
330
2DF
100
AcDbDictionary
280
     1
281
     1
  3
ACAD_XREC_ROUNDTRIP
360
3B5
  0
DICTIONARY
  5
2D1
330
6A
100
AcDbDictionary
280
     1
281
     1
  3
ACAD_ROUNDTRIP_2008_TABLESTYLE_CELLSTYLEMAP
360
379
  3
ACAD_XREC_ROUNDTRIP
360
3B3
  0
DICTIONARY
  5
38B
330
2F
100
AcDbDictionary
280
     1
281
     1
  3
ACAD_XREC_ROUNDTRIP
360
38C
  0
DICTIONARY
  5
391
330
32
100
AcDbDictionary
280
     1
281
     1
  3
ACAD_XREC_ROUNDTRIP
360
392
  0
DICTIONARY
  5
399
330
36
100
AcDbDictionary
280
     1
281
     1
  3
ACAD_XREC_ROUNDTRIP
360
39A
  0
DICTIONARY
  5
3A1
330
3A
100
AcDbDictionary
280
     1
281
     1
  3
ACAD_XREC_ROUNDTRIP
360
3A2
  0
DICTIONARY
  5
395
330
34
100
AcDbDictionary
280
     1
281
     1
  3
ACAD_XREC_ROUNDTRIP
360
396
  0
DICTIONARY
  5
397
330
35
100
AcDbDictionary
280
     1
281
     1
  3
ACAD_XREC_ROUNDTRIP
360
398
  0
DICTIONARY
  5
3A7
330
3D
100
AcDbDictionary
280
     1
281
     1
  3
ACAD_XREC_ROUNDTRIP
360
3A8
  0
DICTIONARY
  5
39F
330
39
100
AcDbDictionary
280
     1
281
     1
  3
ACAD_XREC_ROUNDTRIP
360
3A0
  0
DICTIONARY
  5
383
330
2B
100
AcDbDictionary
280
     1
281
     1
  3
ACAD_XREC_ROUNDTRIP
360
384
  0
DICTIONARY
  5
385
330
2C
100
AcDbDictionary
280
     1
281
     1
  3
ACAD_XREC_ROUNDTRIP
360
386
  0
DICTIONARY
  5
387
330
2D
100
AcDbDictionary
280
     1
281
     1
  3
ACAD_XREC_ROUNDTRIP
360
388
  0
DICTIONARY
  5
389
330
2E
100
AcDbDictionary
280
     1
281
     1
  3
ACAD_XREC_ROUNDTRIP
360
38A
  0
DICTIONARY
  5
38F
330
31
100
AcDbDictionary
280
     1
281
     1
  3
ACAD_XREC_ROUNDTRIP
360
390
  0
DICTIONARY
  5
3A3
330
3B
100
AcDbDictionary
280
     1
281
     1
  3
ACAD_XREC_ROUNDTRIP
360
3A4
  0
DICTIONARY
  5
39D
330
38
100
AcDbDictionary
280
     1
281
     1
  3
ACAD_XREC_ROUNDTRIP
360
39E
  0
DICTIONARY
  5
3A5
330
3C
100
AcDbDictionary
280
     1
281
     1
  3
ACAD_XREC_ROUNDTRIP
360
3A6
  0
DICTIONARY
  5
393
330
33
100
AcDbDictionary
280
     1
281
     1
  3
ACAD_XREC_ROUNDTRIP
360
394
  0
DICTIONARY
  5
3B1
330
42
100
AcDbDictionary
280
     1
281
     1
  3
ACAD_XREC_ROUNDTRIP
360
3B2
  0
DICTIONARY
  5
3AF
330
41
100
AcDbDictionary
280
     1
281
     1
  3
ACAD_XREC_ROUNDTRIP
360
3B0
  0
DICTIONARY
  5
3A9
330
3E
100
AcDbDictionary
280
     1
281
     1
  3
ACAD_XREC_ROUNDTRIP
360
3AA
  0
DICTIONARY
  5
3AB
330
3F
100
AcDbDictionary
280
     1
281
     1
  3
ACAD_XREC_ROUNDTRIP
360
3AC
  0
DICTIONARY
  5
39B
330
37
100
AcDbDictionary
280
     1
281
     1
  3
ACAD_XREC_ROUNDTRIP
360
39C
  0
DICTIONARY
  5
38D
330
30
100
AcDbDictionary
280
     1
281
     1
  3
ACAD_XREC_ROUNDTRIP
360
38E
  0
DICTIONARY
  5
3AD
330
40
100
AcDbDictionary
280
     1
281
     1
  3
ACAD_XREC_ROUNDTRIP
360
3AE
  0
XRECORD
  5
37B
102
{ACAD_REACTORS
330
381
102
}
330
381
100
AcDbXrecord
280
     1
  1
AcDb_Thumbnail_Schema
102
{ATTRRECORD
341
37C
  2
AcDbDs::TreatedAsObjectData
280
     1
291
     1
102
ATTRRECORD}
102
{ATTRRECORD
341
37D
  2
AcDbDs::Legacy
280
     1
291
     1
102
ATTRRECORD}
  2
AcDbDs::ID
280
    10
 91
        8
102
{ATTRRECORD
341
37E
  2
AcDs:Indexable
280
     1
291
     1
102
ATTRRECORD}
102
{ATTRRECORD
341
37F
  2
AcDbDs::HandleAttribute
280
     7
282
     1
102
ATTRRECORD}
  2
Thumbnail_Data
280
    15
 91
        0
  0
XRECORD
  5
37C
102
{ACAD_REACTORS
330
381
102
}
330
381
100
AcDbXrecord
280
     1
  1
AcDbDs::TreatedAsObjectDataSchema
  2
AcDbDs::TreatedAsObjectData
280
     1
 91
        0
  0
XRECORD
  5
37D
102
{ACAD_REACTORS
330
381
102
}
330
381
100
AcDbXrecord
280
     1
  1
AcDbDs::LegacySchema
  2
AcDbDs::Legacy
280
     1
 91
        0
  0
XRECORD
  5
37E
102
{ACAD_REACTORS
330
381
102
}
330
381
100
AcDbXrecord
280
     1
  1
AcDbDs::IndexedPropertySchema
  2
AcDs:Indexable
280
     1
 91
        0
  0
XRECORD
  5
37F
102
{ACAD_REACTORS
330
381
102
}
330
381
100
AcDbXrecord
280
     1
  1
AcDbDs::HandleAttributeSchema
  2
AcDbDs::HandleAttribute
280
     7
 91
        1
284
     1
  0
XRECORD
  5
3B7
102
{ACAD_REACTORS
330
3B6
102
}
330
3B6
100
AcDbXrecord
280
     1
102
DISPLAYNAME
  1
Metric50
102
FLAGS
 90
        0
  0
XRECORD
  5
2CE
102
{ACAD_REACTORS
330
2CD
102
}
330
2CD
100
AcDbXrecord
280
     1
102
MATERIAL
148
0.0
149
0.0
149
0.0
 93
        0
 94
      127
282
     0
 72
     1
 77
     1
171
     1
175
     1
179
     1
273
     0
  0
XRECORD
  5
2CC
102
{ACAD_REACTORS
330
2CB
102
}
330
2CB
100
AcDbXrecord
280
     1
102
MATERIAL
148
0.0
149
0.0
149
0.0
 93
        0
 94
      127
282
     0
 72
     1
 77
     1
171
     1
175
     1
179
     1
273
     0
  0
XRECORD
  5
2D0
102
{ACAD_REACTORS
330
2CF
102
}
330
2CF
100
AcDbXrecord
280
     1
102
MATERIAL
148
0.0
149
0.0
149
0.0
 93
        0
 94
      127
282
     0
 72
     1
 77
     1
171
     1
175
     1
179
     1
273
     0
  0
XRECORD
  5
3B5
102
{ACAD_REACTORS
330
3B4
102
}
330
3B4
100
AcDbXrecord
280
     1
102
DISPLAYNAME
  1
Metric50
102
FLAGS
 90
        0
  0
CELLSTYLEMAP
  5
379
102
{ACAD_REACTORS
330
2D1
102
}
330
2D1
100
AcDbCellStyleMap
 90
        3
300
CELLSTYLE
  1
TABLEFORMAT_BEGIN
 90
        5
170
     1
 91
        0
 92
    32768
 62
   257
 93
        1
300
CONTENTFORMAT
  1
CONTENTFORMAT_BEGIN
 90
        0
 91
        0
 92
        4
 93
        0
300

 40
0.0
140
1.0
 94
        5
 62
     0
340
11
144
0.25
309
CONTENTFORMAT_END
171
     1
301
MARGIN
  1
CELLMARGIN_BEGIN
 40
0.06
 40
0.06
 40
0.06
 40
0.06
 40
0.18
 40
0.18
309
CELLMARGIN_END
 94
        6
 95
        1
302
GRIDFORMAT
  1
GRIDFORMAT_BEGIN
 90
        0
 91
        1
 62
     0
 92
       -2
340
14
 93
        0
 40
0.045
309
GRIDFORMAT_END
 95
        2
302
GRIDFORMAT
  1
GRIDFORMAT_BEGIN
 90
        0
 91
        1
 62
     0
 92
       -2
340
14
 93
        0
 40
0.045
309
GRIDFORMAT_END
 95
        4
302
GRIDFORMAT
  1
GRIDFORMAT_BEGIN
 90
        0
 91
        1
 62
     0
 92
       -2
340
14
 93
        0
 40
0.045
309
GRIDFORMAT_END
 95
        8
302
GRIDFORMAT
  1
GRIDFORMAT_BEGIN
 90
        0
 91
        1
 62
     0
 92
       -2
340
14
 93
        0
 40
0.045
309
GRIDFORMAT_END
 95
       16
302
GRIDFORMAT
  1
GRIDFORMAT_BEGIN
 90
        0
 91
        1
 62
     0
 92
       -2
340
14
 93
        0
 40
0.045
309
GRIDFORMAT_END
 95
       32
302
GRIDFORMAT
  1
GRIDFORMAT_BEGIN
 90
        0
 91
        1
 62
     0
 92
       -2
340
14
 93
        0
 40
0.045
309
GRIDFORMAT_END
309
TABLEFORMAT_END
  1
CELLSTYLE_BEGIN
 90
        1
 91
        1
300
_TITLE
309
CELLSTYLE_END
300
CELLSTYLE
  1
TABLEFORMAT_BEGIN
 90
        5
170
     1
 91
        0
 92
        0
 62
   257
 93
        1
300
CONTENTFORMAT
  1
CONTENTFORMAT_BEGIN
 90
        0
 91
        0
 92
        4
 93
        0
300

 40
0.0
140
1.0
 94
        5
 62
     0
340
11
144
0.18
309
CONTENTFORMAT_END
171
     1
301
MARGIN
  1
CELLMARGIN_BEGIN
 40
0.06
 40
0.06
 40
0.06
 40
0.06
 40
0.18
 40
0.18
309
CELLMARGIN_END
 94
        6
 95
        1
302
GRIDFORMAT
  1
GRIDFORMAT_BEGIN
 90
        0
 91
        1
 62
     0
 92
       -2
340
14
 93
        0
 40
0.045
309
GRIDFORMAT_END
 95
        2
302
GRIDFORMAT
  1
GRIDFORMAT_BEGIN
 90
        0
 91
        1
 62
     0
 92
       -2
340
14
 93
        0
 40
0.045
309
GRIDFORMAT_END
 95
        4
302
GRIDFORMAT
  1
GRIDFORMAT_BEGIN
 90
        0
 91
        1
 62
     0
 92
       -2
340
14
 93
        0
 40
0.045
309
GRIDFORMAT_END
 95
        8
302
GRIDFORMAT
  1
GRIDFORMAT_BEGIN
 90
        0
 91
        1
 62
     0
 92
       -2
340
14
 93
        0
 40
0.045
309
GRIDFORMAT_END
 95
       16
302
GRIDFORMAT
  1
GRIDFORMAT_BEGIN
 90
        0
 91
        1
 62
     0
 92
       -2
340
14
 93
        0
 40
0.045
309
GRIDFORMAT_END
 95
       32
302
GRIDFORMAT
  1
GRIDFORMAT_BEGIN
 90
        0
 91
        1
 62
     0
 92
       -2
340
14
 93
        0
 40
0.045
309
GRIDFORMAT_END
309
TABLEFORMAT_END
  1
CELLSTYLE_BEGIN
 90
        2
 91
        1
300
_HEADER
309
CELLSTYLE_END
300
CELLSTYLE
  1
TABLEFORMAT_BEGIN
 90
        5
170
     1
 91
        0
 92
        0
 62
   257
 93
        1
300
CONTENTFORMAT
  1
CONTENTFORMAT_BEGIN
 90
        0
 91
        0
 92
        4
 93
        0
300

 40
0.0
140
1.0
 94
        2
 62
     0
340
11
144
0.18
309
CONTENTFORMAT_END
171
     1
301
MARGIN
  1
CELLMARGIN_BEGIN
 40
0.06
 40
0.06
 40
0.06
 40
0.06
 40
0.18
 40
0.18
309
CELLMARGIN_END
 94
        6
 95
        1
302
GRIDFORMAT
  1
GRIDFORMAT_BEGIN
 90
        0
 91
        1
 62
     0
 92
       -2
340
14
 93
        0
 40
0.045
309
GRIDFORMAT_END
 95
        2
302
GRIDFORMAT
  1
GRIDFORMAT_BEGIN
 90
        0
 91
        1
 62
     0
 92
       -2
340
14
 93
        0
 40
0.045
309
GRIDFORMAT_END
 95
        4
302
GRIDFORMAT
  1
GRIDFORMAT_BEGIN
 90
        0
 91
        1
 62
     0
 92
       -2
340
14
 93
        0
 40
0.045
309
GRIDFORMAT_END
 95
        8
302
GRIDFORMAT
  1
GRIDFORMAT_BEGIN
 90
        0
 91
        1
 62
     0
 92
       -2
340
14
 93
        0
 40
0.045
309
GRIDFORMAT_END
 95
       16
302
GRIDFORMAT
  1
GRIDFORMAT_BEGIN
 90
        0
 91
        1
 62
     0
 92
       -2
340
14
 93
        0
 40
0.045
309
GRIDFORMAT_END
 95
       32
302
GRIDFORMAT
  1
GRIDFORMAT_BEGIN
 90
        0
 91
        1
 62
     0
 92
       -2
340
14
 93
        0
 40
0.045
309
GRIDFORMAT_END
309
TABLEFORMAT_END
  1
CELLSTYLE_BEGIN
 90
        3
 91
        2
300
_DATA
309
CELLSTYLE_END
  0
XRECORD
  5
3B3
102
{ACAD_REACTORS
330
2D1
102
}
330
2D1
100
AcDbXrecord
280
     1
102
ACAD_ROUNDTRIP_PRE2007_TABLESTYLE
 90
        4
 91
        0
  1

 92
        4
 93
        0
  2

 94
        4
 95
        0
  3

  0
XRECORD
  5
38C
102
{ACAD_REACTORS
330
38B
102
}
330
38B
100
AcDbXrecord
280
     1
102
RTVSPost2010Prop28
280
     1
102
RTVSPost2010PropOp28
 70
     1
102
RTVSPost2010Prop29
280
     1
102
RTVSPost2010PropOp29
 70
     1
102
RTVSPost2010Prop30
280
     0
102
RTVSPost2010PropOp30
 70
     1
102
RTVSPost2010Prop31
280
     0
102
RTVSPost2010PropOp31
 70
     1
102
RTVSPost2010Prop32
280
     0
102
RTVSPost2010PropOp32
 70
     1
102
RTVSPost2010Prop33
280
     0
102
RTVSPost2010PropOp33
 70
     1
102
RTVSPost2010Prop34
280
     0
102
RTVSPost2010PropOp34
 70
     1
102
RTVSPost2010Prop35
280
     0
102
RTVSPost2010PropOp35
 70
     1
102
RTVSPost2010Prop36
280
     0
102
RTVSPost2010PropOp36
 70
     1
102
RTVSPost2010Prop37
 90
       50
102
RTVSPost2010PropOp37
 70
     1
102
RTVSPost2010Prop38
140
0.0
102
RTVSPost2010PropOp38
 70
     1
102
RTVSPost2010Prop39
140
1.0
102
RTVSPost2010PropOp39
 70
     1
102
RTVSPost2010Prop40
 90
        0
102
RTVSPost2010PropOp40
 70
     1
102
RTVSPost2010Prop41ColorIndex
 90
       18
102
RTVSPost2010Prop41ColorRGB
 90
        0
102
RTVSPost2010PropOp41
 70
     1
102
RTVSPost2010Prop42
 90
       50
102
RTVSPost2010PropOp42
 70
     1
102
RTVSPost2010Prop43
 90
        3
102
RTVSPost2010PropOp43
 70
     1
102
RTVSPost2010Prop44ColorIndex
 90
        5
102
RTVSPost2010Prop44ColorRGB
 90
      255
102
RTVSPost2010PropOp44
 70
     1
102
RTVSPost2010Prop45
280
     0
102
RTVSPost2010PropOp45
 70
     1
102
RTVSPost2010Prop46
 90
       50
102
RTVSPost2010PropOp46
 70
     1
102
RTVSPost2010Prop47
 90
       50
102
RTVSPost2010PropOp47
 70
     1
102
RTVSPost2010Prop48
 90
       50
102
RTVSPost2010PropOp48
 70
     1
102
RTVSPost2010Prop49
280
     0
102
RTVSPost2010PropOp49
 70
     1
102
RTVSPost2010Prop50
 90
       50
102
RTVSPost2010PropOp50
 70
     1
102
RTVSPost2010Prop51ColorIndex
 90
      256
102
RTVSPost2010Prop51ColorRGB
 90
-16777216
102
RTVSPost2010PropOp51
 70
     0
102
RTVSPost2010Prop52
140
1.0
102
RTVSPost2010PropOp52
 70
     0
102
RTVSPost2010Prop53
 90
        2
102
RTVSPost2010PropOp53
 70
     1
102
RTVSPost2010Prop54
  1
strokes_ogs.tif
102
RTVSPost2010PropOp54
 70
     1
102
RTVSPost2010Prop55
280
     0
102
RTVSPost2010PropOp55
 70
     1
102
RTVSPost2010Prop56
140
1.0
102
RTVSPost2010PropOp56
 70
     1
102
RTVSPost2010Prop57
140
1.0
102
RTVSPost2010PropOp57
 70
     1
102
RTVSPropertyOp0
 70
     1
102
RTVSPropertyOp1
 70
     1
102
RTVSPropertyOp2
 70
     1
102
RTVSPropertyOp3
 70
     1
102
RTVSPropertyOp4
 70
     1
102
RTVSPropertyOp5
 70
     1
102
RTVSPropertyOp6
 70
     1
102
RTVSPropertyOp7
 70
     1
102
RTVSPropertyOp8
 70
     1
102
RTVSPropertyOp9
 70
     1
102
RTVSPropertyOp10
 70
     1
102
RTVSPropertyOp11
 70
     1
102
RTVSPropertyOp12
 70
     1
102
RTVSPropertyOp13
 70
     1
102
RTVSPropertyOp14
 70
     1
102
RTVSPropertyOp15
 70
     1
102
RTVSPropertyOp16
 70
     1
102
RTVSPropertyOp17
 70
     1
102
RTVSPropertyOp18
 70
     1
102
RTVSPropertyOp19
 70
     1
102
RTVSPropertyOp20
 70
     1
102
RTVSPropertyOp21
 70
     1
102
RTVSPropertyOp22
 70
     1
102
RTVSPropertyOp23
 70
     1
102
RTVSPropertyOp24
 70
     1
102
RTVSPropertyOp25
 70
     1
102
RTVSPropertyOp26
 70
     1
102
RTVSPropertyOp27
 70
     1
102
RTVSPropertyOp28
 70
     1
102
RTVSPropertyOp29
 70
     1
102
RTVSPropertyOp30
 70
     1
102
RTVSPropertyOp31
 70
     1
102
RTVSPropertyOp32
 70
     1
102
RTVSPropertyOp33
 70
     1
102
RTVSPropertyOp34
 70
     1
102
RTVSPropertyOp35
 70
     1
102
RTVSPropertyOp36
 70
     1
102
RTVSPropertyOp37
 70
     1
102
RTVSPropertyOp38
 70
     1
102
RTVSPropertyOp39
 70
     1
102
RTVSPropertyOp40
 70
     1
102
RTVSPropertyOp41
 70
     1
102
RTVSPropertyOp42
 70
     1
102
RTVSPropertyOp43
 70
     1
102
RTVSPropertyOp44
 70
     1
102
RTVSPropertyOp45
 70
     1
102
RTVSPropertyOp46
 70
     1
102
RTVSPropertyOp47
 70
     1
102
RTVSPropertyOp48
 70
     1
102
RTVSPropertyOp49
 70
     1
102
RTVSPropertyOp50
 70
     1
102
RTVSPropertyOp51
 70
     0
102
RTVSPropertyOp52
 70
     0
102
RTVSPropertyOp53
 70
     1
102
RTVSPropertyOp54
 70
     1
102
RTVSPropertyOp55
 70
     1
102
RTVSPropertyOp56
 70
     1
102
RTVSPropertyOp57
 70
     1
102
RTVSPropertyOp58
 70
     1
102
RTVSPropertyOp59
 70
     1
102
RTVSPropertyOp60
 70
     1
102
RTVSPropertyOp61
 70
     1
102
RTVSPropertyOp62
 70
     1
  0
XRECORD
  5
392
102
{ACAD_REACTORS
330
391
102
}
330
391
100
AcDbXrecord
280
     1
102
RTVSPost2010Prop28
280
     0
102
RTVSPost2010PropOp28
 70
     1
102
RTVSPost2010Prop29
280
     1
102
RTVSPost2010PropOp29
 70
     1
102
RTVSPost2010Prop30
280
     1
102
RTVSPost2010PropOp30
 70
     1
102
RTVSPost2010Prop31
280
     0
102
RTVSPost2010PropOp31
 70
     1
102
RTVSPost2010Prop32
280
     0
102
RTVSPost2010PropOp32
 70
     1
102
RTVSPost2010Prop33
280
     0
102
RTVSPost2010PropOp33
 70
     1
102
RTVSPost2010Prop34
280
     0
102
RTVSPost2010PropOp34
 70
     1
102
RTVSPost2010Prop35
280
     0
102
RTVSPost2010PropOp35
 70
     1
102
RTVSPost2010Prop36
280
     0
102
RTVSPost2010PropOp36
 70
     1
102
RTVSPost2010Prop37
 90
       50
102
RTVSPost2010PropOp37
 70
     1
102
RTVSPost2010Prop38
140
0.0
102
RTVSPost2010PropOp38
 70
     1
102
RTVSPost2010Prop39
140
1.0
102
RTVSPost2010PropOp39
 70
     1
102
RTVSPost2010Prop40
 90
        0
102
RTVSPost2010PropOp40
 70
     1
102
RTVSPost2010Prop41ColorIndex
 90
       18
102
RTVSPost2010Prop41ColorRGB
 90
        0
102
RTVSPost2010PropOp41
 70
     1
102
RTVSPost2010Prop42
 90
       50
102
RTVSPost2010PropOp42
 70
     1
102
RTVSPost2010Prop43
 90
        3
102
RTVSPost2010PropOp43
 70
     1
102
RTVSPost2010Prop44ColorIndex
 90
        5
102
RTVSPost2010Prop44ColorRGB
 90
      255
102
RTVSPost2010PropOp44
 70
     1
102
RTVSPost2010Prop45
280
     0
102
RTVSPost2010PropOp45
 70
     1
102
RTVSPost2010Prop46
 90
       50
102
RTVSPost2010PropOp46
 70
     1
102
RTVSPost2010Prop47
 90
       50
102
RTVSPost2010PropOp47
 70
     1
102
RTVSPost2010Prop48
 90
       50
102
RTVSPost2010PropOp48
 70
     1
102
RTVSPost2010Prop49
280
     0
102
RTVSPost2010PropOp49
 70
     1
102
RTVSPost2010Prop50
 90
       50
102
RTVSPost2010PropOp50
 70
     1
102
RTVSPost2010Prop51ColorIndex
 90
      256
102
RTVSPost2010Prop51ColorRGB
 90
-16777216
102
RTVSPost2010PropOp51
 70
     0
102
RTVSPost2010Prop52
140
1.0
102
RTVSPost2010PropOp52
 70
     0
102
RTVSPost2010Prop53
 90
        2
102
RTVSPost2010PropOp53
 70
     1
102
RTVSPost2010Prop54
  1
strokes_ogs.tif
102
RTVSPost2010PropOp54
 70
     1
102
RTVSPost2010Prop55
280
     0
102
RTVSPost2010PropOp55
 70
     1
102
RTVSPost2010Prop56
140
1.0
102
RTVSPost2010PropOp56
 70
     1
102
RTVSPost2010Prop57
140
1.0
102
RTVSPost2010PropOp57
 70
     1
102
RTVSPropertyOp0
 70
     1
102
RTVSPropertyOp1
 70
     1
102
RTVSPropertyOp2
 70
     1
102
RTVSPropertyOp3
 70
     1
102
RTVSPropertyOp4
 70
     1
102
RTVSPropertyOp5
 70
     1
102
RTVSPropertyOp6
 70
     1
102
RTVSPropertyOp7
 70
     1
102
RTVSPropertyOp8
 70
     1
102
RTVSPropertyOp9
 70
     1
102
RTVSPropertyOp10
 70
     1
102
RTVSPropertyOp11
 70
     1
102
RTVSPropertyOp12
 70
     1
102
RTVSPropertyOp13
 70
     1
102
RTVSPropertyOp14
 70
     1
102
RTVSPropertyOp15
 70
     1
102
RTVSPropertyOp16
 70
     1
102
RTVSPropertyOp17
 70
     1
102
RTVSPropertyOp18
 70
     1
102
RTVSPropertyOp19
 70
     1
102
RTVSPropertyOp20
 70
     1
102
RTVSPropertyOp21
 70
     1
102
RTVSPropertyOp22
 70
     1
102
RTVSPropertyOp23
 70
     1
102
RTVSPropertyOp24
 70
     1
102
RTVSPropertyOp25
 70
     1
102
RTVSPropertyOp26
 70
     1
102
RTVSPropertyOp27
 70
     1
102
RTVSPropertyOp28
 70
     1
102
RTVSPropertyOp29
 70
     1
102
RTVSPropertyOp30
 70
     1
102
RTVSPropertyOp31
 70
     1
102
RTVSPropertyOp32
 70
     1
102
RTVSPropertyOp33
 70
     1
102
RTVSPropertyOp34
 70
     1
102
RTVSPropertyOp35
 70
     1
102
RTVSPropertyOp36
 70
     1
102
RTVSPropertyOp37
 70
     1
102
RTVSPropertyOp38
 70
     1
102
RTVSPropertyOp39
 70
     1
102
RTVSPropertyOp40
 70
     1
102
RTVSPropertyOp41
 70
     1
102
RTVSPropertyOp42
 70
     1
102
RTVSPropertyOp43
 70
     1
102
RTVSPropertyOp44
 70
     1
102
RTVSPropertyOp45
 70
     1
102
RTVSPropertyOp46
 70
     1
102
RTVSPropertyOp47
 70
     1
102
RTVSPropertyOp48
 70
     1
102
RTVSPropertyOp49
 70
     1
102
RTVSPropertyOp50
 70
     1
102
RTVSPropertyOp51
 70
     0
102
RTVSPropertyOp52
 70
     0
102
RTVSPropertyOp53
 70
     1
102
RTVSPropertyOp54
 70
     1
102
RTVSPropertyOp55
 70
     1
102
RTVSPropertyOp56
 70
     1
102
RTVSPropertyOp57
 70
     1
102
RTVSPropertyOp58
 70
     1
102
RTVSPropertyOp59
 70
     1
102
RTVSPropertyOp60
 70
     1
102
RTVSPropertyOp61
 70
     1
102
RTVSPropertyOp62
 70
     1
  0
XRECORD
  5
39A
102
{ACAD_REACTORS
330
399
102
}
330
399
100
AcDbXrecord
280
     1
102
RTVSPost2010Prop28
280
     0
102
RTVSPost2010PropOp28
 70
     1
102
RTVSPost2010Prop29
280
     1
102
RTVSPost2010PropOp29
 70
     1
102
RTVSPost2010Prop30
280
     1
102
RTVSPost2010PropOp30
 70
     1
102
RTVSPost2010Prop31
280
     0
102
RTVSPost2010PropOp31
 70
     1
102
RTVSPost2010Prop32
280
     0
102
RTVSPost2010PropOp32
 70
     1
102
RTVSPost2010Prop33
280
     0
102
RTVSPost2010PropOp33
 70
     1
102
RTVSPost2010Prop34
280
     0
102
RTVSPost2010PropOp34
 70
     1
102
RTVSPost2010Prop35
280
     0
102
RTVSPost2010PropOp35
 70
     1
102
RTVSPost2010Prop36
280
     0
102
RTVSPost2010PropOp36
 70
     1
102
RTVSPost2010Prop37
 90
       50
102
RTVSPost2010PropOp37
 70
     1
102
RTVSPost2010Prop38
140
0.0
102
RTVSPost2010PropOp38
 70
     1
102
RTVSPost2010Prop39
140
1.0
102
RTVSPost2010PropOp39
 70
     1
102
RTVSPost2010Prop40
 90
        0
102
RTVSPost2010PropOp40
 70
     1
102
RTVSPost2010Prop41ColorIndex
 90
       18
102
RTVSPost2010Prop41ColorRGB
 90
        0
102
RTVSPost2010PropOp41
 70
     1
102
RTVSPost2010Prop42
 90
       50
102
RTVSPost2010PropOp42
 70
     1
102
RTVSPost2010Prop43
 90
        3
102
RTVSPost2010PropOp43
 70
     1
102
RTVSPost2010Prop44ColorIndex
 90
        5
102
RTVSPost2010Prop44ColorRGB
 90
      255
102
RTVSPost2010PropOp44
 70
     1
102
RTVSPost2010Prop45
280
     0
102
RTVSPost2010PropOp45
 70
     1
102
RTVSPost2010Prop46
 90
       50
102
RTVSPost2010PropOp46
 70
     1
102
RTVSPost2010Prop47
 90
       50
102
RTVSPost2010PropOp47
 70
     1
102
RTVSPost2010Prop48
 90
       50
102
RTVSPost2010PropOp48
 70
     1
102
RTVSPost2010Prop49
280
     0
102
RTVSPost2010PropOp49
 70
     1
102
RTVSPost2010Prop50
 90
       50
102
RTVSPost2010PropOp50
 70
     1
102
RTVSPost2010Prop51ColorIndex
 90
      256
102
RTVSPost2010Prop51ColorRGB
 90
-16777216
102
RTVSPost2010PropOp51
 70
     0
102
RTVSPost2010Prop52
140
1.0
102
RTVSPost2010PropOp52
 70
     0
102
RTVSPost2010Prop53
 90
        2
102
RTVSPost2010PropOp53
 70
     1
102
RTVSPost2010Prop54
  1
strokes_ogs.tif
102
RTVSPost2010PropOp54
 70
     1
102
RTVSPost2010Prop55
280
     0
102
RTVSPost2010PropOp55
 70
     1
102
RTVSPost2010Prop56
140
1.0
102
RTVSPost2010PropOp56
 70
     1
102
RTVSPost2010Prop57
140
1.0
102
RTVSPost2010PropOp57
 70
     1
102
RTVSPropertyOp0
 70
     1
102
RTVSPropertyOp1
 70
     1
102
RTVSPropertyOp2
 70
     1
102
RTVSPropertyOp3
 70
     1
102
RTVSPropertyOp4
 70
     1
102
RTVSPropertyOp5
 70
     1
102
RTVSPropertyOp6
 70
     1
102
RTVSPropertyOp7
 70
     1
102
RTVSPropertyOp8
 70
     1
102
RTVSPropertyOp9
 70
     1
102
RTVSPropertyOp10
 70
     1
102
RTVSPropertyOp11
 70
     1
102
RTVSPropertyOp12
 70
     1
102
RTVSPropertyOp13
 70
     1
102
RTVSPropertyOp14
 70
     1
102
RTVSPropertyOp15
 70
     1
102
RTVSPropertyOp16
 70
     1
102
RTVSPropertyOp17
 70
     1
102
RTVSPropertyOp18
 70
     1
102
RTVSPropertyOp19
 70
     1
102
RTVSPropertyOp20
 70
     1
102
RTVSPropertyOp21
 70
     1
102
RTVSPropertyOp22
 70
     1
102
RTVSPropertyOp23
 70
     1
102
RTVSPropertyOp24
 70
     1
102
RTVSPropertyOp25
 70
     1
102
RTVSPropertyOp26
 70
     1
102
RTVSPropertyOp27
 70
     1
102
RTVSPropertyOp28
 70
     1
102
RTVSPropertyOp29
 70
     1
102
RTVSPropertyOp30
 70
     1
102
RTVSPropertyOp31
 70
     1
102
RTVSPropertyOp32
 70
     1
102
RTVSPropertyOp33
 70
     1
102
RTVSPropertyOp34
 70
     1
102
RTVSPropertyOp35
 70
     1
102
RTVSPropertyOp36
 70
     1
102
RTVSPropertyOp37
 70
     1
102
RTVSPropertyOp38
 70
     1
102
RTVSPropertyOp39
 70
     1
102
RTVSPropertyOp40
 70
     1
102
RTVSPropertyOp41
 70
     1
102
RTVSPropertyOp42
 70
     1
102
RTVSPropertyOp43
 70
     1
102
RTVSPropertyOp44
 70
     1
102
RTVSPropertyOp45
 70
     1
102
RTVSPropertyOp46
 70
     1
102
RTVSPropertyOp47
 70
     1
102
RTVSPropertyOp48
 70
     1
102
RTVSPropertyOp49
 70
     1
102
RTVSPropertyOp50
 70
     1
102
RTVSPropertyOp51
 70
     0
102
RTVSPropertyOp52
 70
     0
102
RTVSPropertyOp53
 70
     1
102
RTVSPropertyOp54
 70
     1
102
RTVSPropertyOp55
 70
     1
102
RTVSPropertyOp56
 70
     1
102
RTVSPropertyOp57
 70
     1
102
RTVSPropertyOp58
 70
     1
102
RTVSPropertyOp59
 70
     1
102
RTVSPropertyOp60
 70
     1
102
RTVSPropertyOp61
 70
     1
102
RTVSPropertyOp62
 70
     1
  0
XRECORD
  5
3A2
102
{ACAD_REACTORS
330
3A1
102
}
330
3A1
100
AcDbXrecord
280
     1
102
RTVSPost2010Prop28
280
     0
102
RTVSPost2010PropOp28
 70
     1
102
RTVSPost2010Prop29
280
     1
102
RTVSPost2010PropOp29
 70
     1
102
RTVSPost2010Prop30
280
     1
102
RTVSPost2010PropOp30
 70
     1
102
RTVSPost2010Prop31
280
     0
102
RTVSPost2010PropOp31
 70
     1
102
RTVSPost2010Prop32
280
     0
102
RTVSPost2010PropOp32
 70
     1
102
RTVSPost2010Prop33
280
     0
102
RTVSPost2010PropOp33
 70
     1
102
RTVSPost2010Prop34
280
     0
102
RTVSPost2010PropOp34
 70
     1
102
RTVSPost2010Prop35
280
     0
102
RTVSPost2010PropOp35
 70
     1
102
RTVSPost2010Prop36
280
     0
102
RTVSPost2010PropOp36
 70
     1
102
RTVSPost2010Prop37
 90
       50
102
RTVSPost2010PropOp37
 70
     1
102
RTVSPost2010Prop38
140
0.0
102
RTVSPost2010PropOp38
 70
     1
102
RTVSPost2010Prop39
140
1.0
102
RTVSPost2010PropOp39
 70
     1
102
RTVSPost2010Prop40
 90
        0
102
RTVSPost2010PropOp40
 70
     1
102
RTVSPost2010Prop41ColorIndex
 90
       18
102
RTVSPost2010Prop41ColorRGB
 90
        0
102
RTVSPost2010PropOp41
 70
     1
102
RTVSPost2010Prop42
 90
       50
102
RTVSPost2010PropOp42
 70
     1
102
RTVSPost2010Prop43
 90
        3
102
RTVSPost2010PropOp43
 70
     1
102
RTVSPost2010Prop44ColorIndex
 90
        5
102
RTVSPost2010Prop44ColorRGB
 90
      255
102
RTVSPost2010PropOp44
 70
     1
102
RTVSPost2010Prop45
280
     0
102
RTVSPost2010PropOp45
 70
     1
102
RTVSPost2010Prop46
 90
       50
102
RTVSPost2010PropOp46
 70
     1
102
RTVSPost2010Prop47
 90
       50
102
RTVSPost2010PropOp47
 70
     1
102
RTVSPost2010Prop48
 90
       50
102
RTVSPost2010PropOp48
 70
     1
102
RTVSPost2010Prop49
280
     0
102
RTVSPost2010PropOp49
 70
     1
102
RTVSPost2010Prop50
 90
       50
102
RTVSPost2010PropOp50
 70
     1
102
RTVSPost2010Prop51ColorIndex
 90
      256
102
RTVSPost2010Prop51ColorRGB
 90
-16777216
102
RTVSPost2010PropOp51
 70
     0
102
RTVSPost2010Prop52
140
1.0
102
RTVSPost2010PropOp52
 70
     0
102
RTVSPost2010Prop53
 90
        2
102
RTVSPost2010PropOp53
 70
     1
102
RTVSPost2010Prop54
  1
strokes_ogs.tif
102
RTVSPost2010PropOp54
 70
     1
102
RTVSPost2010Prop55
280
     0
102
RTVSPost2010PropOp55
 70
     1
102
RTVSPost2010Prop56
140
1.0
102
RTVSPost2010PropOp56
 70
     1
102
RTVSPost2010Prop57
140
1.0
102
RTVSPost2010PropOp57
 70
     1
102
RTVSPropertyOp0
 70
     1
102
RTVSPropertyOp1
 70
     1
102
RTVSPropertyOp2
 70
     1
102
RTVSPropertyOp3
 70
     1
102
RTVSPropertyOp4
 70
     1
102
RTVSPropertyOp5
 70
     1
102
RTVSPropertyOp6
 70
     1
102
RTVSPropertyOp7
 70
     1
102
RTVSPropertyOp8
 70
     1
102
RTVSPropertyOp9
 70
     1
102
RTVSPropertyOp10
 70
     1
102
RTVSPropertyOp11
 70
     1
102
RTVSPropertyOp12
 70
     1
102
RTVSPropertyOp13
 70
     1
102
RTVSPropertyOp14
 70
     1
102
RTVSPropertyOp15
 70
     1
102
RTVSPropertyOp16
 70
     1
102
RTVSPropertyOp17
 70
     1
102
RTVSPropertyOp18
 70
     1
102
RTVSPropertyOp19
 70
     1
102
RTVSPropertyOp20
 70
     1
102
RTVSPropertyOp21
 70
     1
102
RTVSPropertyOp22
 70
     1
102
RTVSPropertyOp23
 70
     1
102
RTVSPropertyOp24
 70
     1
102
RTVSPropertyOp25
 70
     1
102
RTVSPropertyOp26
 70
     1
102
RTVSPropertyOp27
 70
     1
102
RTVSPropertyOp28
 70
     1
102
RTVSPropertyOp29
 70
     1
102
RTVSPropertyOp30
 70
     1
102
RTVSPropertyOp31
 70
     1
102
RTVSPropertyOp32
 70
     1
102
RTVSPropertyOp33
 70
     1
102
RTVSPropertyOp34
 70
     1
102
RTVSPropertyOp35
 70
     1
102
RTVSPropertyOp36
 70
     1
102
RTVSPropertyOp37
 70
     1
102
RTVSPropertyOp38
 70
     1
102
RTVSPropertyOp39
 70
     1
102
RTVSPropertyOp40
 70
     1
102
RTVSPropertyOp41
 70
     1
102
RTVSPropertyOp42
 70
     1
102
RTVSPropertyOp43
 70
     1
102
RTVSPropertyOp44
 70
     1
102
RTVSPropertyOp45
 70
     1
102
RTVSPropertyOp46
 70
     1
102
RTVSPropertyOp47
 70
     1
102
RTVSPropertyOp48
 70
     1
102
RTVSPropertyOp49
 70
     1
102
RTVSPropertyOp50
 70
     1
102
RTVSPropertyOp51
 70
     0
102
RTVSPropertyOp52
 70
     0
102
RTVSPropertyOp53
 70
     1
102
RTVSPropertyOp54
 70
     1
102
RTVSPropertyOp55
 70
     1
102
RTVSPropertyOp56
 70
     1
102
RTVSPropertyOp57
 70
     1
102
RTVSPropertyOp58
 70
     1
102
RTVSPropertyOp59
 70
     1
102
RTVSPropertyOp60
 70
     1
102
RTVSPropertyOp61
 70
     1
102
RTVSPropertyOp62
 70
     1
  0
XRECORD
  5
396
102
{ACAD_REACTORS
330
395
102
}
330
395
100
AcDbXrecord
280
     1
102
RTVSPost2010Prop28
280
     0
102
RTVSPost2010PropOp28
 70
     1
102
RTVSPost2010Prop29
280
     1
102
RTVSPost2010PropOp29
 70
     1
102
RTVSPost2010Prop30
280
     1
102
RTVSPost2010PropOp30
 70
     1
102
RTVSPost2010Prop31
280
     0
102
RTVSPost2010PropOp31
 70
     1
102
RTVSPost2010Prop32
280
     0
102
RTVSPost2010PropOp32
 70
     1
102
RTVSPost2010Prop33
280
     0
102
RTVSPost2010PropOp33
 70
     1
102
RTVSPost2010Prop34
280
     0
102
RTVSPost2010PropOp34
 70
     1
102
RTVSPost2010Prop35
280
     0
102
RTVSPost2010PropOp35
 70
     1
102
RTVSPost2010Prop36
280
     0
102
RTVSPost2010PropOp36
 70
     1
102
RTVSPost2010Prop37
 90
       50
102
RTVSPost2010PropOp37
 70
     1
102
RTVSPost2010Prop38
140
0.0
102
RTVSPost2010PropOp38
 70
     1
102
RTVSPost2010Prop39
140
1.0
102
RTVSPost2010PropOp39
 70
     1
102
RTVSPost2010Prop40
 90
        0
102
RTVSPost2010PropOp40
 70
     1
102
RTVSPost2010Prop41ColorIndex
 90
       18
102
RTVSPost2010Prop41ColorRGB
 90
        0
102
RTVSPost2010PropOp41
 70
     1
102
RTVSPost2010Prop42
 90
       50
102
RTVSPost2010PropOp42
 70
     1
102
RTVSPost2010Prop43
 90
        3
102
RTVSPost2010PropOp43
 70
     1
102
RTVSPost2010Prop44ColorIndex
 90
        5
102
RTVSPost2010Prop44ColorRGB
 90
      255
102
RTVSPost2010PropOp44
 70
     1
102
RTVSPost2010Prop45
280
     0
102
RTVSPost2010PropOp45
 70
     1
102
RTVSPost2010Prop46
 90
       50
102
RTVSPost2010PropOp46
 70
     1
102
RTVSPost2010Prop47
 90
       50
102
RTVSPost2010PropOp47
 70
     1
102
RTVSPost2010Prop48
 90
       50
102
RTVSPost2010PropOp48
 70
     1
102
RTVSPost2010Prop49
280
     0
102
RTVSPost2010PropOp49
 70
     1
102
RTVSPost2010Prop50
 90
       50
102
RTVSPost2010PropOp50
 70
     1
102
RTVSPost2010Prop51ColorIndex
 90
      256
102
RTVSPost2010Prop51ColorRGB
 90
-16777216
102
RTVSPost2010PropOp51
 70
     0
102
RTVSPost2010Prop52
140
1.0
102
RTVSPost2010PropOp52
 70
     0
102
RTVSPost2010Prop53
 90
        2
102
RTVSPost2010PropOp53
 70
     1
102
RTVSPost2010Prop54
  1
strokes_ogs.tif
102
RTVSPost2010PropOp54
 70
     1
102
RTVSPost2010Prop55
280
     0
102
RTVSPost2010PropOp55
 70
     1
102
RTVSPost2010Prop56
140
1.0
102
RTVSPost2010PropOp56
 70
     1
102
RTVSPost2010Prop57
140
1.0
102
RTVSPost2010PropOp57
 70
     1
102
RTVSPropertyOp0
 70
     1
102
RTVSPropertyOp1
 70
     1
102
RTVSPropertyOp2
 70
     1
102
RTVSPropertyOp3
 70
     1
102
RTVSPropertyOp4
 70
     1
102
RTVSPropertyOp5
 70
     1
102
RTVSPropertyOp6
 70
     1
102
RTVSPropertyOp7
 70
     1
102
RTVSPropertyOp8
 70
     1
102
RTVSPropertyOp9
 70
     1
102
RTVSPropertyOp10
 70
     1
102
RTVSPropertyOp11
 70
     1
102
RTVSPropertyOp12
 70
     1
102
RTVSPropertyOp13
 70
     1
102
RTVSPropertyOp14
 70
     1
102
RTVSPropertyOp15
 70
     1
102
RTVSPropertyOp16
 70
     1
102
RTVSPropertyOp17
 70
     1
102
RTVSPropertyOp18
 70
     1
102
RTVSPropertyOp19
 70
     1
102
RTVSPropertyOp20
 70
     1
102
RTVSPropertyOp21
 70
     1
102
RTVSPropertyOp22
 70
     1
102
RTVSPropertyOp23
 70
     1
102
RTVSPropertyOp24
 70
     1
102
RTVSPropertyOp25
 70
     1
102
RTVSPropertyOp26
 70
     1
102
RTVSPropertyOp27
 70
     1
102
RTVSPropertyOp28
 70
     1
102
RTVSPropertyOp29
 70
     1
102
RTVSPropertyOp30
 70
     1
102
RTVSPropertyOp31
 70
     1
102
RTVSPropertyOp32
 70
     1
102
RTVSPropertyOp33
 70
     1
102
RTVSPropertyOp34
 70
     1
102
RTVSPropertyOp35
 70
     1
102
RTVSPropertyOp36
 70
     1
102
RTVSPropertyOp37
 70
     1
102
RTVSPropertyOp38
 70
     1
102
RTVSPropertyOp39
 70
     1
102
RTVSPropertyOp40
 70
     1
102
RTVSPropertyOp41
 70
     1
102
RTVSPropertyOp42
 70
     1
102
RTVSPropertyOp43
 70
     1
102
RTVSPropertyOp44
 70
     1
102
RTVSPropertyOp45
 70
     1
102
RTVSPropertyOp46
 70
     1
102
RTVSPropertyOp47
 70
     1
102
RTVSPropertyOp48
 70
     1
102
RTVSPropertyOp49
 70
     1
102
RTVSPropertyOp50
 70
     1
102
RTVSPropertyOp51
 70
     0
102
RTVSPropertyOp52
 70
     0
102
RTVSPropertyOp53
 70
     1
102
RTVSPropertyOp54
 70
     1
102
RTVSPropertyOp55
 70
     1
102
RTVSPropertyOp56
 70
     1
102
RTVSPropertyOp57
 70
     1
102
RTVSPropertyOp58
 70
     1
102
RTVSPropertyOp59
 70
     1
102
RTVSPropertyOp60
 70
     1
102
RTVSPropertyOp61
 70
     1
102
RTVSPropertyOp62
 70
     1
  0
XRECORD
  5
398
102
{ACAD_REACTORS
330
397
102
}
330
397
100
AcDbXrecord
280
     1
102
RTVSPost2010Prop28
280
     0
102
RTVSPost2010PropOp28
 70
     1
102
RTVSPost2010Prop29
280
     1
102
RTVSPost2010PropOp29
 70
     1
102
RTVSPost2010Prop30
280
     1
102
RTVSPost2010PropOp30
 70
     1
102
RTVSPost2010Prop31
280
     0
102
RTVSPost2010PropOp31
 70
     1
102
RTVSPost2010Prop32
280
     0
102
RTVSPost2010PropOp32
 70
     1
102
RTVSPost2010Prop33
280
     0
102
RTVSPost2010PropOp33
 70
     1
102
RTVSPost2010Prop34
280
     0
102
RTVSPost2010PropOp34
 70
     1
102
RTVSPost2010Prop35
280
     0
102
RTVSPost2010PropOp35
 70
     1
102
RTVSPost2010Prop36
280
     0
102
RTVSPost2010PropOp36
 70
     1
102
RTVSPost2010Prop37
 90
       50
102
RTVSPost2010PropOp37
 70
     1
102
RTVSPost2010Prop38
140
0.0
102
RTVSPost2010PropOp38
 70
     1
102
RTVSPost2010Prop39
140
1.0
102
RTVSPost2010PropOp39
 70
     1
102
RTVSPost2010Prop40
 90
        0
102
RTVSPost2010PropOp40
 70
     1
102
RTVSPost2010Prop41ColorIndex
 90
       18
102
RTVSPost2010Prop41ColorRGB
 90
        0
102
RTVSPost2010PropOp41
 70
     1
102
RTVSPost2010Prop42
 90
       50
102
RTVSPost2010PropOp42
 70
     1
102
RTVSPost2010Prop43
 90
        3
102
RTVSPost2010PropOp43
 70
     1
102
RTVSPost2010Prop44ColorIndex
 90
        5
102
RTVSPost2010Prop44ColorRGB
 90
      255
102
RTVSPost2010PropOp44
 70
     1
102
RTVSPost2010Prop45
280
     0
102
RTVSPost2010PropOp45
 70
     1
102
RTVSPost2010Prop46
 90
       50
102
RTVSPost2010PropOp46
 70
     1
102
RTVSPost2010Prop47
 90
       50
102
RTVSPost2010PropOp47
 70
     1
102
RTVSPost2010Prop48
 90
       50
102
RTVSPost2010PropOp48
 70
     1
102
RTVSPost2010Prop49
280
     0
102
RTVSPost2010PropOp49
 70
     1
102
RTVSPost2010Prop50
 90
       50
102
RTVSPost2010PropOp50
 70
     1
102
RTVSPost2010Prop51ColorIndex
 90
      256
102
RTVSPost2010Prop51ColorRGB
 90
-16777216
102
RTVSPost2010PropOp51
 70
     0
102
RTVSPost2010Prop52
140
1.0
102
RTVSPost2010PropOp52
 70
     0
102
RTVSPost2010Prop53
 90
        2
102
RTVSPost2010PropOp53
 70
     1
102
RTVSPost2010Prop54
  1
strokes_ogs.tif
102
RTVSPost2010PropOp54
 70
     1
102
RTVSPost2010Prop55
280
     0
102
RTVSPost2010PropOp55
 70
     1
102
RTVSPost2010Prop56
140
1.0
102
RTVSPost2010PropOp56
 70
     1
102
RTVSPost2010Prop57
140
1.0
102
RTVSPost2010PropOp57
 70
     1
102
RTVSPropertyOp0
 70
     1
102
RTVSPropertyOp1
 70
     1
102
RTVSPropertyOp2
 70
     1
102
RTVSPropertyOp3
 70
     1
102
RTVSPropertyOp4
 70
     1
102
RTVSPropertyOp5
 70
     1
102
RTVSPropertyOp6
 70
     1
102
RTVSPropertyOp7
 70
     1
102
RTVSPropertyOp8
 70
     1
102
RTVSPropertyOp9
 70
     1
102
RTVSPropertyOp10
 70
     1
102
RTVSPropertyOp11
 70
     1
102
RTVSPropertyOp12
 70
     1
102
RTVSPropertyOp13
 70
     1
102
RTVSPropertyOp14
 70
     1
102
RTVSPropertyOp15
 70
     1
102
RTVSPropertyOp16
 70
     1
102
RTVSPropertyOp17
 70
     1
102
RTVSPropertyOp18
 70
     1
102
RTVSPropertyOp19
 70
     1
102
RTVSPropertyOp20
 70
     1
102
RTVSPropertyOp21
 70
     1
102
RTVSPropertyOp22
 70
     1
102
RTVSPropertyOp23
 70
     1
102
RTVSPropertyOp24
 70
     1
102
RTVSPropertyOp25
 70
     1
102
RTVSPropertyOp26
 70
     1
102
RTVSPropertyOp27
 70
     1
102
RTVSPropertyOp28
 70
     1
102
RTVSPropertyOp29
 70
     1
102
RTVSPropertyOp30
 70
     1
102
RTVSPropertyOp31
 70
     1
102
RTVSPropertyOp32
 70
     1
102
RTVSPropertyOp33
 70
     1
102
RTVSPropertyOp34
 70
     1
102
RTVSPropertyOp35
 70
     1
102
RTVSPropertyOp36
 70
     1
102
RTVSPropertyOp37
 70
     1
102
RTVSPropertyOp38
 70
     1
102
RTVSPropertyOp39
 70
     1
102
RTVSPropertyOp40
 70
     1
102
RTVSPropertyOp41
 70
     1
102
RTVSPropertyOp42
 70
     1
102
RTVSPropertyOp43
 70
     1
102
RTVSPropertyOp44
 70
     1
102
RTVSPropertyOp45
 70
     1
102
RTVSPropertyOp46
 70
     1
102
RTVSPropertyOp47
 70
     1
102
RTVSPropertyOp48
 70
     1
102
RTVSPropertyOp49
 70
     1
102
RTVSPropertyOp50
 70
     1
102
RTVSPropertyOp51
 70
     0
102
RTVSPropertyOp52
 70
     0
102
RTVSPropertyOp53
 70
     1
102
RTVSPropertyOp54
 70
     1
102
RTVSPropertyOp55
 70
     1
102
RTVSPropertyOp56
 70
     1
102
RTVSPropertyOp57
 70
     1
102
RTVSPropertyOp58
 70
     1
102
RTVSPropertyOp59
 70
     1
102
RTVSPropertyOp60
 70
     1
102
RTVSPropertyOp61
 70
     1
102
RTVSPropertyOp62
 70
     1
  0
XRECORD
  5
3A8
102
{ACAD_REACTORS
330
3A7
102
}
330
3A7
100
AcDbXrecord
280
     1
102
RTVSPost2010Prop28
280
     0
102
RTVSPost2010PropOp28
 70
     0
102
RTVSPost2010Prop29
280
     1
102
RTVSPost2010PropOp29
 70
     0
102
RTVSPost2010Prop30
280
     1
102
RTVSPost2010PropOp30
 70
     0
102
RTVSPost2010Prop31
280
     0
102
RTVSPost2010PropOp31
 70
     0
102
RTVSPost2010Prop32
280
     0
102
RTVSPost2010PropOp32
 70
     0
102
RTVSPost2010Prop33
280
     0
102
RTVSPost2010PropOp33
 70
     0
102
RTVSPost2010Prop34
280
     0
102
RTVSPost2010PropOp34
 70
     0
102
RTVSPost2010Prop35
280
     0
102
RTVSPost2010PropOp35
 70
     0
102
RTVSPost2010Prop36
280
     0
102
RTVSPost2010PropOp36
 70
     0
102
RTVSPost2010Prop37
 90
       50
102
RTVSPost2010PropOp37
 70
     0
102
RTVSPost2010Prop38
140
0.0
102
RTVSPost2010PropOp38
 70
     0
102
RTVSPost2010Prop39
140
1.0
102
RTVSPost2010PropOp39
 70
     0
102
RTVSPost2010Prop40
 90
        0
102
RTVSPost2010PropOp40
 70
     0
102
RTVSPost2010Prop41ColorIndex
 90
       18
102
RTVSPost2010Prop41ColorRGB
 90
        0
102
RTVSPost2010PropOp41
 70
     0
102
RTVSPost2010Prop42
 90
       50
102
RTVSPost2010PropOp42
 70
     0
102
RTVSPost2010Prop43
 90
        3
102
RTVSPost2010PropOp43
 70
     0
102
RTVSPost2010Prop44ColorIndex
 90
        5
102
RTVSPost2010Prop44ColorRGB
 90
      255
102
RTVSPost2010PropOp44
 70
     0
102
RTVSPost2010Prop45
280
     0
102
RTVSPost2010PropOp45
 70
     0
102
RTVSPost2010Prop46
 90
       50
102
RTVSPost2010PropOp46
 70
     0
102
RTVSPost2010Prop47
 90
       50
102
RTVSPost2010PropOp47
 70
     0
102
RTVSPost2010Prop48
 90
       50
102
RTVSPost2010PropOp48
 70
     0
102
RTVSPost2010Prop49
280
     0
102
RTVSPost2010PropOp49
 70
     0
102
RTVSPost2010Prop50
 90
       50
102
RTVSPost2010PropOp50
 70
     0
102
RTVSPost2010Prop51ColorIndex
 90
      256
102
RTVSPost2010Prop51ColorRGB
 90
-16777216
102
RTVSPost2010PropOp51
 70
     0
102
RTVSPost2010Prop52
140
1.0
102
RTVSPost2010PropOp52
 70
     0
102
RTVSPost2010Prop53
 90
        2
102
RTVSPost2010PropOp53
 70
     0
102
RTVSPost2010Prop54
  1
strokes_ogs.tif
102
RTVSPost2010PropOp54
 70
     0
102
RTVSPost2010Prop55
280
     0
102
RTVSPost2010PropOp55
 70
     0
102
RTVSPost2010Prop56
140
1.0
102
RTVSPost2010PropOp56
 70
     0
102
RTVSPost2010Prop57
140
1.0
102
RTVSPost2010PropOp57
 70
     0
102
RTVSPropertyOp0
 70
     0
102
RTVSPropertyOp1
 70
     0
102
RTVSPropertyOp2
 70
     0
102
RTVSPropertyOp3
 70
     0
102
RTVSPropertyOp4
 70
     0
102
RTVSPropertyOp5
 70
     0
102
RTVSPropertyOp6
 70
     0
102
RTVSPropertyOp7
 70
     0
102
RTVSPropertyOp8
 70
     0
102
RTVSPropertyOp9
 70
     0
102
RTVSPropertyOp10
 70
     0
102
RTVSPropertyOp11
 70
     0
102
RTVSPropertyOp12
 70
     0
102
RTVSPropertyOp13
 70
     0
102
RTVSPropertyOp14
 70
     2
102
RTVSPropertyOp15
 70
     0
102
RTVSPropertyOp16
 70
     0
102
RTVSPropertyOp17
 70
     0
102
RTVSPropertyOp18
 70
     0
102
RTVSPropertyOp19
 70
     0
102
RTVSPropertyOp20
 70
     0
102
RTVSPropertyOp21
 70
     0
102
RTVSPropertyOp22
 70
     0
102
RTVSPropertyOp23
 70
     0
102
RTVSPropertyOp24
 70
     0
102
RTVSPropertyOp25
 70
     0
102
RTVSPropertyOp26
 70
     0
102
RTVSPropertyOp27
 70
     0
102
RTVSPropertyOp28
 70
     0
102
RTVSPropertyOp29
 70
     0
102
RTVSPropertyOp30
 70
     0
102
RTVSPropertyOp31
 70
     0
102
RTVSPropertyOp32
 70
     0
102
RTVSPropertyOp33
 70
     0
102
RTVSPropertyOp34
 70
     0
102
RTVSPropertyOp35
 70
     0
102
RTVSPropertyOp36
 70
     0
102
RTVSPropertyOp37
 70
     0
102
RTVSPropertyOp38
 70
     0
102
RTVSPropertyOp39
 70
     0
102
RTVSPropertyOp40
 70
     0
102
RTVSPropertyOp41
 70
     0
102
RTVSPropertyOp42
 70
     0
102
RTVSPropertyOp43
 70
     0
102
RTVSPropertyOp44
 70
     0
102
RTVSPropertyOp45
 70
     0
102
RTVSPropertyOp46
 70
     0
102
RTVSPropertyOp47
 70
     0
102
RTVSPropertyOp48
 70
     0
102
RTVSPropertyOp49
 70
     0
102
RTVSPropertyOp50
 70
     0
102
RTVSPropertyOp51
 70
     0
102
RTVSPropertyOp52
 70
     0
102
RTVSPropertyOp53
 70
     0
102
RTVSPropertyOp54
 70
     0
102
RTVSPropertyOp55
 70
     0
102
RTVSPropertyOp56
 70
     0
102
RTVSPropertyOp57
 70
     0
102
RTVSPropertyOp58
 70
     1
102
RTVSPropertyOp59
 70
     1
102
RTVSPropertyOp60
 70
     1
102
RTVSPropertyOp61
 70
     1
102
RTVSPropertyOp62
 70
     1
  0
XRECORD
  5
3A0
102
{ACAD_REACTORS
330
39F
102
}
330
39F
100
AcDbXrecord
280
     1
102
RTVSPost2010Prop28
280
     0
102
RTVSPost2010PropOp28
 70
     1
102
RTVSPost2010Prop29
280
     1
102
RTVSPost2010PropOp29
 70
     1
102
RTVSPost2010Prop30
280
     1
102
RTVSPost2010PropOp30
 70
     1
102
RTVSPost2010Prop31
280
     0
102
RTVSPost2010PropOp31
 70
     1
102
RTVSPost2010Prop32
280
     0
102
RTVSPost2010PropOp32
 70
     1
102
RTVSPost2010Prop33
280
     0
102
RTVSPost2010PropOp33
 70
     1
102
RTVSPost2010Prop34
280
     0
102
RTVSPost2010PropOp34
 70
     1
102
RTVSPost2010Prop35
280
     0
102
RTVSPost2010PropOp35
 70
     1
102
RTVSPost2010Prop36
280
     0
102
RTVSPost2010PropOp36
 70
     1
102
RTVSPost2010Prop37
 90
       50
102
RTVSPost2010PropOp37
 70
     1
102
RTVSPost2010Prop38
140
0.0
102
RTVSPost2010PropOp38
 70
     1
102
RTVSPost2010Prop39
140
1.0
102
RTVSPost2010PropOp39
 70
     1
102
RTVSPost2010Prop40
 90
        0
102
RTVSPost2010PropOp40
 70
     1
102
RTVSPost2010Prop41ColorIndex
 90
       18
102
RTVSPost2010Prop41ColorRGB
 90
        0
102
RTVSPost2010PropOp41
 70
     1
102
RTVSPost2010Prop42
 90
       50
102
RTVSPost2010PropOp42
 70
     1
102
RTVSPost2010Prop43
 90
        3
102
RTVSPost2010PropOp43
 70
     1
102
RTVSPost2010Prop44ColorIndex
 90
        5
102
RTVSPost2010Prop44ColorRGB
 90
      255
102
RTVSPost2010PropOp44
 70
     1
102
RTVSPost2010Prop45
280
     0
102
RTVSPost2010PropOp45
 70
     1
102
RTVSPost2010Prop46
 90
       50
102
RTVSPost2010PropOp46
 70
     1
102
RTVSPost2010Prop47
 90
       50
102
RTVSPost2010PropOp47
 70
     1
102
RTVSPost2010Prop48
 90
       50
102
RTVSPost2010PropOp48
 70
     1
102
RTVSPost2010Prop49
280
     0
102
RTVSPost2010PropOp49
 70
     1
102
RTVSPost2010Prop50
 90
       50
102
RTVSPost2010PropOp50
 70
     1
102
RTVSPost2010Prop51ColorIndex
 90
      256
102
RTVSPost2010Prop51ColorRGB
 90
-16777216
102
RTVSPost2010PropOp51
 70
     0
102
RTVSPost2010Prop52
140
1.0
102
RTVSPost2010PropOp52
 70
     0
102
RTVSPost2010Prop53
 90
        2
102
RTVSPost2010PropOp53
 70
     1
102
RTVSPost2010Prop54
  1
strokes_ogs.tif
102
RTVSPost2010PropOp54
 70
     1
102
RTVSPost2010Prop55
280
     0
102
RTVSPost2010PropOp55
 70
     1
102
RTVSPost2010Prop56
140
1.0
102
RTVSPost2010PropOp56
 70
     1
102
RTVSPost2010Prop57
140
1.0
102
RTVSPost2010PropOp57
 70
     1
102
RTVSPropertyOp0
 70
     1
102
RTVSPropertyOp1
 70
     1
102
RTVSPropertyOp2
 70
     1
102
RTVSPropertyOp3
 70
     1
102
RTVSPropertyOp4
 70
     1
102
RTVSPropertyOp5
 70
     1
102
RTVSPropertyOp6
 70
     1
102
RTVSPropertyOp7
 70
     1
102
RTVSPropertyOp8
 70
     1
102
RTVSPropertyOp9
 70
     1
102
RTVSPropertyOp10
 70
     1
102
RTVSPropertyOp11
 70
     1
102
RTVSPropertyOp12
 70
     1
102
RTVSPropertyOp13
 70
     1
102
RTVSPropertyOp14
 70
     1
102
RTVSPropertyOp15
 70
     1
102
RTVSPropertyOp16
 70
     1
102
RTVSPropertyOp17
 70
     1
102
RTVSPropertyOp18
 70
     1
102
RTVSPropertyOp19
 70
     1
102
RTVSPropertyOp20
 70
     1
102
RTVSPropertyOp21
 70
     1
102
RTVSPropertyOp22
 70
     1
102
RTVSPropertyOp23
 70
     1
102
RTVSPropertyOp24
 70
     1
102
RTVSPropertyOp25
 70
     1
102
RTVSPropertyOp26
 70
     1
102
RTVSPropertyOp27
 70
     1
102
RTVSPropertyOp28
 70
     1
102
RTVSPropertyOp29
 70
     1
102
RTVSPropertyOp30
 70
     1
102
RTVSPropertyOp31
 70
     1
102
RTVSPropertyOp32
 70
     1
102
RTVSPropertyOp33
 70
     1
102
RTVSPropertyOp34
 70
     1
102
RTVSPropertyOp35
 70
     1
102
RTVSPropertyOp36
 70
     1
102
RTVSPropertyOp37
 70
     1
102
RTVSPropertyOp38
 70
     1
102
RTVSPropertyOp39
 70
     1
102
RTVSPropertyOp40
 70
     1
102
RTVSPropertyOp41
 70
     1
102
RTVSPropertyOp42
 70
     1
102
RTVSPropertyOp43
 70
     1
102
RTVSPropertyOp44
 70
     1
102
RTVSPropertyOp45
 70
     1
102
RTVSPropertyOp46
 70
     1
102
RTVSPropertyOp47
 70
     1
102
RTVSPropertyOp48
 70
     1
102
RTVSPropertyOp49
 70
     1
102
RTVSPropertyOp50
 70
     1
102
RTVSPropertyOp51
 70
     0
102
RTVSPropertyOp52
 70
     0
102
RTVSPropertyOp53
 70
     1
102
RTVSPropertyOp54
 70
     1
102
RTVSPropertyOp55
 70
     1
102
RTVSPropertyOp56
 70
     1
102
RTVSPropertyOp57
 70
     1
102
RTVSPropertyOp58
 70
     1
102
RTVSPropertyOp59
 70
     1
102
RTVSPropertyOp60
 70
     1
102
RTVSPropertyOp61
 70
     1
102
RTVSPropertyOp62
 70
     1
  0
XRECORD
  5
384
102
{ACAD_REACTORS
330
383
102
}
330
383
100
AcDbXrecord
280
     1
102
RTVSPost2010Prop28
280
     0
102
RTVSPost2010PropOp28
 70
     1
102
RTVSPost2010Prop29
280
     1
102
RTVSPost2010PropOp29
 70
     1
102
RTVSPost2010Prop30
280
     1
102
RTVSPost2010PropOp30
 70
     1
102
RTVSPost2010Prop31
280
     0
102
RTVSPost2010PropOp31
 70
     1
102
RTVSPost2010Prop32
280
     0
102
RTVSPost2010PropOp32
 70
     1
102
RTVSPost2010Prop33
280
     0
102
RTVSPost2010PropOp33
 70
     1
102
RTVSPost2010Prop34
280
     0
102
RTVSPost2010PropOp34
 70
     1
102
RTVSPost2010Prop35
280
     0
102
RTVSPost2010PropOp35
 70
     1
102
RTVSPost2010Prop36
280
     0
102
RTVSPost2010PropOp36
 70
     1
102
RTVSPost2010Prop37
 90
       50
102
RTVSPost2010PropOp37
 70
     1
102
RTVSPost2010Prop38
140
0.0
102
RTVSPost2010PropOp38
 70
     1
102
RTVSPost2010Prop39
140
1.0
102
RTVSPost2010PropOp39
 70
     1
102
RTVSPost2010Prop40
 90
        0
102
RTVSPost2010PropOp40
 70
     1
102
RTVSPost2010Prop41ColorIndex
 90
       18
102
RTVSPost2010Prop41ColorRGB
 90
        0
102
RTVSPost2010PropOp41
 70
     1
102
RTVSPost2010Prop42
 90
       50
102
RTVSPost2010PropOp42
 70
     1
102
RTVSPost2010Prop43
 90
        3
102
RTVSPost2010PropOp43
 70
     1
102
RTVSPost2010Prop44ColorIndex
 90
        5
102
RTVSPost2010Prop44ColorRGB
 90
      255
102
RTVSPost2010PropOp44
 70
     1
102
RTVSPost2010Prop45
280
     0
102
RTVSPost2010PropOp45
 70
     1
102
RTVSPost2010Prop46
 90
       50
102
RTVSPost2010PropOp46
 70
     1
102
RTVSPost2010Prop47
 90
       50
102
RTVSPost2010PropOp47
 70
     1
102
RTVSPost2010Prop48
 90
       50
102
RTVSPost2010PropOp48
 70
     1
102
RTVSPost2010Prop49
280
     0
102
RTVSPost2010PropOp49
 70
     1
102
RTVSPost2010Prop50
 90
       50
102
RTVSPost2010PropOp50
 70
     1
102
RTVSPost2010Prop51ColorIndex
 90
      256
102
RTVSPost2010Prop51ColorRGB
 90
-16777216
102
RTVSPost2010PropOp51
 70
     0
102
RTVSPost2010Prop52
140
1.0
102
RTVSPost2010PropOp52
 70
     0
102
RTVSPost2010Prop53
 90
        2
102
RTVSPost2010PropOp53
 70
     1
102
RTVSPost2010Prop54
  1
strokes_ogs.tif
102
RTVSPost2010PropOp54
 70
     1
102
RTVSPost2010Prop55
280
     0
102
RTVSPost2010PropOp55
 70
     1
102
RTVSPost2010Prop56
140
1.0
102
RTVSPost2010PropOp56
 70
     1
102
RTVSPost2010Prop57
140
1.0
102
RTVSPost2010PropOp57
 70
     1
102
RTVSPropertyOp0
 70
     1
102
RTVSPropertyOp1
 70
     1
102
RTVSPropertyOp2
 70
     1
102
RTVSPropertyOp3
 70
     1
102
RTVSPropertyOp4
 70
     1
102
RTVSPropertyOp5
 70
     1
102
RTVSPropertyOp6
 70
     1
102
RTVSPropertyOp7
 70
     1
102
RTVSPropertyOp8
 70
     1
102
RTVSPropertyOp9
 70
     1
102
RTVSPropertyOp10
 70
     1
102
RTVSPropertyOp11
 70
     1
102
RTVSPropertyOp12
 70
     1
102
RTVSPropertyOp13
 70
     1
102
RTVSPropertyOp14
 70
     1
102
RTVSPropertyOp15
 70
     1
102
RTVSPropertyOp16
 70
     1
102
RTVSPropertyOp17
 70
     1
102
RTVSPropertyOp18
 70
     1
102
RTVSPropertyOp19
 70
     1
102
RTVSPropertyOp20
 70
     1
102
RTVSPropertyOp21
 70
     1
102
RTVSPropertyOp22
 70
     1
102
RTVSPropertyOp23
 70
     1
102
RTVSPropertyOp24
 70
     1
102
RTVSPropertyOp25
 70
     1
102
RTVSPropertyOp26
 70
     1
102
RTVSPropertyOp27
 70
     1
102
RTVSPropertyOp28
 70
     1
102
RTVSPropertyOp29
 70
     1
102
RTVSPropertyOp30
 70
     1
102
RTVSPropertyOp31
 70
     1
102
RTVSPropertyOp32
 70
     1
102
RTVSPropertyOp33
 70
     1
102
RTVSPropertyOp34
 70
     1
102
RTVSPropertyOp35
 70
     1
102
RTVSPropertyOp36
 70
     1
102
RTVSPropertyOp37
 70
     1
102
RTVSPropertyOp38
 70
     1
102
RTVSPropertyOp39
 70
     1
102
RTVSPropertyOp40
 70
     1
102
RTVSPropertyOp41
 70
     1
102
RTVSPropertyOp42
 70
     1
102
RTVSPropertyOp43
 70
     1
102
RTVSPropertyOp44
 70
     1
102
RTVSPropertyOp45
 70
     1
102
RTVSPropertyOp46
 70
     1
102
RTVSPropertyOp47
 70
     1
102
RTVSPropertyOp48
 70
     1
102
RTVSPropertyOp49
 70
     1
102
RTVSPropertyOp50
 70
     1
102
RTVSPropertyOp51
 70
     0
102
RTVSPropertyOp52
 70
     0
102
RTVSPropertyOp53
 70
     1
102
RTVSPropertyOp54
 70
     1
102
RTVSPropertyOp55
 70
     1
102
RTVSPropertyOp56
 70
     1
102
RTVSPropertyOp57
 70
     1
102
RTVSPropertyOp58
 70
     1
102
RTVSPropertyOp59
 70
     1
102
RTVSPropertyOp60
 70
     1
102
RTVSPropertyOp61
 70
     1
102
RTVSPropertyOp62
 70
     1
  0
XRECORD
  5
386
102
{ACAD_REACTORS
330
385
102
}
330
385
100
AcDbXrecord
280
     1
102
RTVSPost2010Prop28
280
     0
102
RTVSPost2010PropOp28
 70
     1
102
RTVSPost2010Prop29
280
     1
102
RTVSPost2010PropOp29
 70
     1
102
RTVSPost2010Prop30
280
     1
102
RTVSPost2010PropOp30
 70
     1
102
RTVSPost2010Prop31
280
     0
102
RTVSPost2010PropOp31
 70
     1
102
RTVSPost2010Prop32
280
     0
102
RTVSPost2010PropOp32
 70
     1
102
RTVSPost2010Prop33
280
     0
102
RTVSPost2010PropOp33
 70
     1
102
RTVSPost2010Prop34
280
     0
102
RTVSPost2010PropOp34
 70
     1
102
RTVSPost2010Prop35
280
     0
102
RTVSPost2010PropOp35
 70
     1
102
RTVSPost2010Prop36
280
     0
102
RTVSPost2010PropOp36
 70
     1
102
RTVSPost2010Prop37
 90
       50
102
RTVSPost2010PropOp37
 70
     1
102
RTVSPost2010Prop38
140
0.0
102
RTVSPost2010PropOp38
 70
     1
102
RTVSPost2010Prop39
140
1.0
102
RTVSPost2010PropOp39
 70
     1
102
RTVSPost2010Prop40
 90
        0
102
RTVSPost2010PropOp40
 70
     1
102
RTVSPost2010Prop41ColorIndex
 90
       18
102
RTVSPost2010Prop41ColorRGB
 90
        0
102
RTVSPost2010PropOp41
 70
     1
102
RTVSPost2010Prop42
 90
       50
102
RTVSPost2010PropOp42
 70
     1
102
RTVSPost2010Prop43
 90
        3
102
RTVSPost2010PropOp43
 70
     1
102
RTVSPost2010Prop44ColorIndex
 90
        5
102
RTVSPost2010Prop44ColorRGB
 90
      255
102
RTVSPost2010PropOp44
 70
     1
102
RTVSPost2010Prop45
280
     0
102
RTVSPost2010PropOp45
 70
     1
102
RTVSPost2010Prop46
 90
       50
102
RTVSPost2010PropOp46
 70
     1
102
RTVSPost2010Prop47
 90
       50
102
RTVSPost2010PropOp47
 70
     1
102
RTVSPost2010Prop48
 90
       50
102
RTVSPost2010PropOp48
 70
     1
102
RTVSPost2010Prop49
280
     0
102
RTVSPost2010PropOp49
 70
     1
102
RTVSPost2010Prop50
 90
       50
102
RTVSPost2010PropOp50
 70
     1
102
RTVSPost2010Prop51ColorIndex
 90
      256
102
RTVSPost2010Prop51ColorRGB
 90
-16777216
102
RTVSPost2010PropOp51
 70
     0
102
RTVSPost2010Prop52
140
1.0
102
RTVSPost2010PropOp52
 70
     0
102
RTVSPost2010Prop53
 90
        2
102
RTVSPost2010PropOp53
 70
     1
102
RTVSPost2010Prop54
  1
strokes_ogs.tif
102
RTVSPost2010PropOp54
 70
     1
102
RTVSPost2010Prop55
280
     0
102
RTVSPost2010PropOp55
 70
     1
102
RTVSPost2010Prop56
140
1.0
102
RTVSPost2010PropOp56
 70
     1
102
RTVSPost2010Prop57
140
1.0
102
RTVSPost2010PropOp57
 70
     1
102
RTVSPropertyOp0
 70
     1
102
RTVSPropertyOp1
 70
     1
102
RTVSPropertyOp2
 70
     1
102
RTVSPropertyOp3
 70
     1
102
RTVSPropertyOp4
 70
     1
102
RTVSPropertyOp5
 70
     1
102
RTVSPropertyOp6
 70
     1
102
RTVSPropertyOp7
 70
     1
102
RTVSPropertyOp8
 70
     1
102
RTVSPropertyOp9
 70
     1
102
RTVSPropertyOp10
 70
     1
102
RTVSPropertyOp11
 70
     1
102
RTVSPropertyOp12
 70
     1
102
RTVSPropertyOp13
 70
     1
102
RTVSPropertyOp14
 70
     1
102
RTVSPropertyOp15
 70
     1
102
RTVSPropertyOp16
 70
     1
102
RTVSPropertyOp17
 70
     1
102
RTVSPropertyOp18
 70
     1
102
RTVSPropertyOp19
 70
     1
102
RTVSPropertyOp20
 70
     1
102
RTVSPropertyOp21
 70
     1
102
RTVSPropertyOp22
 70
     1
102
RTVSPropertyOp23
 70
     1
102
RTVSPropertyOp24
 70
     1
102
RTVSPropertyOp25
 70
     1
102
RTVSPropertyOp26
 70
     1
102
RTVSPropertyOp27
 70
     1
102
RTVSPropertyOp28
 70
     1
102
RTVSPropertyOp29
 70
     1
102
RTVSPropertyOp30
 70
     1
102
RTVSPropertyOp31
 70
     1
102
RTVSPropertyOp32
 70
     1
102
RTVSPropertyOp33
 70
     1
102
RTVSPropertyOp34
 70
     1
102
RTVSPropertyOp35
 70
     1
102
RTVSPropertyOp36
 70
     1
102
RTVSPropertyOp37
 70
     1
102
RTVSPropertyOp38
 70
     1
102
RTVSPropertyOp39
 70
     1
102
RTVSPropertyOp40
 70
     1
102
RTVSPropertyOp41
 70
     1
102
RTVSPropertyOp42
 70
     1
102
RTVSPropertyOp43
 70
     1
102
RTVSPropertyOp44
 70
     1
102
RTVSPropertyOp45
 70
     1
102
RTVSPropertyOp46
 70
     1
102
RTVSPropertyOp47
 70
     1
102
RTVSPropertyOp48
 70
     1
102
RTVSPropertyOp49
 70
     1
102
RTVSPropertyOp50
 70
     1
102
RTVSPropertyOp51
 70
     0
102
RTVSPropertyOp52
 70
     0
102
RTVSPropertyOp53
 70
     1
102
RTVSPropertyOp54
 70
     1
102
RTVSPropertyOp55
 70
     1
102
RTVSPropertyOp56
 70
     1
102
RTVSPropertyOp57
 70
     1
102
RTVSPropertyOp58
 70
     1
102
RTVSPropertyOp59
 70
     1
102
RTVSPropertyOp60
 70
     1
102
RTVSPropertyOp61
 70
     1
102
RTVSPropertyOp62
 70
     1
  0
XRECORD
  5
388
102
{ACAD_REACTORS
330
387
102
}
330
387
100
AcDbXrecord
280
     1
102
RTVSPost2010Prop28
280
     0
102
RTVSPost2010PropOp28
 70
     1
102
RTVSPost2010Prop29
280
     1
102
RTVSPost2010PropOp29
 70
     1
102
RTVSPost2010Prop30
280
     1
102
RTVSPost2010PropOp30
 70
     1
102
RTVSPost2010Prop31
280
     0
102
RTVSPost2010PropOp31
 70
     1
102
RTVSPost2010Prop32
280
     0
102
RTVSPost2010PropOp32
 70
     1
102
RTVSPost2010Prop33
280
     0
102
RTVSPost2010PropOp33
 70
     1
102
RTVSPost2010Prop34
280
     0
102
RTVSPost2010PropOp34
 70
     1
102
RTVSPost2010Prop35
280
     0
102
RTVSPost2010PropOp35
 70
     1
102
RTVSPost2010Prop36
280
     0
102
RTVSPost2010PropOp36
 70
     1
102
RTVSPost2010Prop37
 90
       50
102
RTVSPost2010PropOp37
 70
     1
102
RTVSPost2010Prop38
140
0.0
102
RTVSPost2010PropOp38
 70
     1
102
RTVSPost2010Prop39
140
1.0
102
RTVSPost2010PropOp39
 70
     1
102
RTVSPost2010Prop40
 90
        0
102
RTVSPost2010PropOp40
 70
     1
102
RTVSPost2010Prop41ColorIndex
 90
       18
102
RTVSPost2010Prop41ColorRGB
 90
        0
102
RTVSPost2010PropOp41
 70
     1
102
RTVSPost2010Prop42
 90
       50
102
RTVSPost2010PropOp42
 70
     1
102
RTVSPost2010Prop43
 90
        3
102
RTVSPost2010PropOp43
 70
     1
102
RTVSPost2010Prop44ColorIndex
 90
        5
102
RTVSPost2010Prop44ColorRGB
 90
      255
102
RTVSPost2010PropOp44
 70
     1
102
RTVSPost2010Prop45
280
     0
102
RTVSPost2010PropOp45
 70
     1
102
RTVSPost2010Prop46
 90
       50
102
RTVSPost2010PropOp46
 70
     1
102
RTVSPost2010Prop47
 90
       50
102
RTVSPost2010PropOp47
 70
     1
102
RTVSPost2010Prop48
 90
       50
102
RTVSPost2010PropOp48
 70
     1
102
RTVSPost2010Prop49
280
     0
102
RTVSPost2010PropOp49
 70
     1
102
RTVSPost2010Prop50
 90
       50
102
RTVSPost2010PropOp50
 70
     1
102
RTVSPost2010Prop51ColorIndex
 90
      256
102
RTVSPost2010Prop51ColorRGB
 90
-16777216
102
RTVSPost2010PropOp51
 70
     0
102
RTVSPost2010Prop52
140
1.0
102
RTVSPost2010PropOp52
 70
     0
102
RTVSPost2010Prop53
 90
        2
102
RTVSPost2010PropOp53
 70
     1
102
RTVSPost2010Prop54
  1
strokes_ogs.tif
102
RTVSPost2010PropOp54
 70
     1
102
RTVSPost2010Prop55
280
     0
102
RTVSPost2010PropOp55
 70
     1
102
RTVSPost2010Prop56
140
1.0
102
RTVSPost2010PropOp56
 70
     1
102
RTVSPost2010Prop57
140
1.0
102
RTVSPost2010PropOp57
 70
     1
102
RTVSPropertyOp0
 70
     1
102
RTVSPropertyOp1
 70
     1
102
RTVSPropertyOp2
 70
     1
102
RTVSPropertyOp3
 70
     1
102
RTVSPropertyOp4
 70
     1
102
RTVSPropertyOp5
 70
     1
102
RTVSPropertyOp6
 70
     1
102
RTVSPropertyOp7
 70
     1
102
RTVSPropertyOp8
 70
     1
102
RTVSPropertyOp9
 70
     1
102
RTVSPropertyOp10
 70
     1
102
RTVSPropertyOp11
 70
     1
102
RTVSPropertyOp12
 70
     1
102
RTVSPropertyOp13
 70
     1
102
RTVSPropertyOp14
 70
     1
102
RTVSPropertyOp15
 70
     1
102
RTVSPropertyOp16
 70
     1
102
RTVSPropertyOp17
 70
     1
102
RTVSPropertyOp18
 70
     1
102
RTVSPropertyOp19
 70
     1
102
RTVSPropertyOp20
 70
     1
102
RTVSPropertyOp21
 70
     1
102
RTVSPropertyOp22
 70
     1
102
RTVSPropertyOp23
 70
     1
102
RTVSPropertyOp24
 70
     1
102
RTVSPropertyOp25
 70
     1
102
RTVSPropertyOp26
 70
     1
102
RTVSPropertyOp27
 70
     1
102
RTVSPropertyOp28
 70
     1
102
RTVSPropertyOp29
 70
     1
102
RTVSPropertyOp30
 70
     1
102
RTVSPropertyOp31
 70
     1
102
RTVSPropertyOp32
 70
     1
102
RTVSPropertyOp33
 70
     1
102
RTVSPropertyOp34
 70
     1
102
RTVSPropertyOp35
 70
     1
102
RTVSPropertyOp36
 70
     1
102
RTVSPropertyOp37
 70
     1
102
RTVSPropertyOp38
 70
     1
102
RTVSPropertyOp39
 70
     1
102
RTVSPropertyOp40
 70
     1
102
RTVSPropertyOp41
 70
     1
102
RTVSPropertyOp42
 70
     1
102
RTVSPropertyOp43
 70
     1
102
RTVSPropertyOp44
 70
     1
102
RTVSPropertyOp45
 70
     1
102
RTVSPropertyOp46
 70
     1
102
RTVSPropertyOp47
 70
     1
102
RTVSPropertyOp48
 70
     1
102
RTVSPropertyOp49
 70
     1
102
RTVSPropertyOp50
 70
     1
102
RTVSPropertyOp51
 70
     0
102
RTVSPropertyOp52
 70
     0
102
RTVSPropertyOp53
 70
     1
102
RTVSPropertyOp54
 70
     1
102
RTVSPropertyOp55
 70
     1
102
RTVSPropertyOp56
 70
     1
102
RTVSPropertyOp57
 70
     1
102
RTVSPropertyOp58
 70
     1
102
RTVSPropertyOp59
 70
     1
102
RTVSPropertyOp60
 70
     1
102
RTVSPropertyOp61
 70
     1
102
RTVSPropertyOp62
 70
     1
  0
XRECORD
  5
38A
102
{ACAD_REACTORS
330
389
102
}
330
389
100
AcDbXrecord
280
     1
102
RTVSPost2010Prop28
280
     0
102
RTVSPost2010PropOp28
 70
     1
102
RTVSPost2010Prop29
280
     1
102
RTVSPost2010PropOp29
 70
     1
102
RTVSPost2010Prop30
280
     1
102
RTVSPost2010PropOp30
 70
     1
102
RTVSPost2010Prop31
280
     0
102
RTVSPost2010PropOp31
 70
     1
102
RTVSPost2010Prop32
280
     0
102
RTVSPost2010PropOp32
 70
     1
102
RTVSPost2010Prop33
280
     0
102
RTVSPost2010PropOp33
 70
     1
102
RTVSPost2010Prop34
280
     0
102
RTVSPost2010PropOp34
 70
     1
102
RTVSPost2010Prop35
280
     0
102
RTVSPost2010PropOp35
 70
     1
102
RTVSPost2010Prop36
280
     0
102
RTVSPost2010PropOp36
 70
     1
102
RTVSPost2010Prop37
 90
       50
102
RTVSPost2010PropOp37
 70
     1
102
RTVSPost2010Prop38
140
0.0
102
RTVSPost2010PropOp38
 70
     1
102
RTVSPost2010Prop39
140
1.0
102
RTVSPost2010PropOp39
 70
     1
102
RTVSPost2010Prop40
 90
        0
102
RTVSPost2010PropOp40
 70
     1
102
RTVSPost2010Prop41ColorIndex
 90
       18
102
RTVSPost2010Prop41ColorRGB
 90
        0
102
RTVSPost2010PropOp41
 70
     1
102
RTVSPost2010Prop42
 90
       50
102
RTVSPost2010PropOp42
 70
     1
102
RTVSPost2010Prop43
 90
        3
102
RTVSPost2010PropOp43
 70
     1
102
RTVSPost2010Prop44ColorIndex
 90
        5
102
RTVSPost2010Prop44ColorRGB
 90
      255
102
RTVSPost2010PropOp44
 70
     1
102
RTVSPost2010Prop45
280
     0
102
RTVSPost2010PropOp45
 70
     1
102
RTVSPost2010Prop46
 90
       50
102
RTVSPost2010PropOp46
 70
     1
102
RTVSPost2010Prop47
 90
       50
102
RTVSPost2010PropOp47
 70
     1
102
RTVSPost2010Prop48
 90
       50
102
RTVSPost2010PropOp48
 70
     1
102
RTVSPost2010Prop49
280
     0
102
RTVSPost2010PropOp49
 70
     1
102
RTVSPost2010Prop50
 90
       50
102
RTVSPost2010PropOp50
 70
     1
102
RTVSPost2010Prop51ColorIndex
 90
      256
102
RTVSPost2010Prop51ColorRGB
 90
-16777216
102
RTVSPost2010PropOp51
 70
     0
102
RTVSPost2010Prop52
140
1.0
102
RTVSPost2010PropOp52
 70
     0
102
RTVSPost2010Prop53
 90
        2
102
RTVSPost2010PropOp53
 70
     1
102
RTVSPost2010Prop54
  1
strokes_ogs.tif
102
RTVSPost2010PropOp54
 70
     1
102
RTVSPost2010Prop55
280
     0
102
RTVSPost2010PropOp55
 70
     1
102
RTVSPost2010Prop56
140
1.0
102
RTVSPost2010PropOp56
 70
     1
102
RTVSPost2010Prop57
140
1.0
102
RTVSPost2010PropOp57
 70
     1
102
RTVSPropertyOp0
 70
     1
102
RTVSPropertyOp1
 70
     1
102
RTVSPropertyOp2
 70
     1
102
RTVSPropertyOp3
 70
     1
102
RTVSPropertyOp4
 70
     1
102
RTVSPropertyOp5
 70
     1
102
RTVSPropertyOp6
 70
     1
102
RTVSPropertyOp7
 70
     1
102
RTVSPropertyOp8
 70
     1
102
RTVSPropertyOp9
 70
     1
102
RTVSPropertyOp10
 70
     1
102
RTVSPropertyOp11
 70
     1
102
RTVSPropertyOp12
 70
     1
102
RTVSPropertyOp13
 70
     1
102
RTVSPropertyOp14
 70
     1
102
RTVSPropertyOp15
 70
     1
102
RTVSPropertyOp16
 70
     1
102
RTVSPropertyOp17
 70
     1
102
RTVSPropertyOp18
 70
     1
102
RTVSPropertyOp19
 70
     1
102
RTVSPropertyOp20
 70
     1
102
RTVSPropertyOp21
 70
     1
102
RTVSPropertyOp22
 70
     1
102
RTVSPropertyOp23
 70
     1
102
RTVSPropertyOp24
 70
     1
102
RTVSPropertyOp25
 70
     1
102
RTVSPropertyOp26
 70
     1
102
RTVSPropertyOp27
 70
     1
102
RTVSPropertyOp28
 70
     1
102
RTVSPropertyOp29
 70
     1
102
RTVSPropertyOp30
 70
     1
102
RTVSPropertyOp31
 70
     1
102
RTVSPropertyOp32
 70
     1
102
RTVSPropertyOp33
 70
     1
102
RTVSPropertyOp34
 70
     1
102
RTVSPropertyOp35
 70
     1
102
RTVSPropertyOp36
 70
     1
102
RTVSPropertyOp37
 70
     1
102
RTVSPropertyOp38
 70
     1
102
RTVSPropertyOp39
 70
     1
102
RTVSPropertyOp40
 70
     1
102
RTVSPropertyOp41
 70
     1
102
RTVSPropertyOp42
 70
     1
102
RTVSPropertyOp43
 70
     1
102
RTVSPropertyOp44
 70
     1
102
RTVSPropertyOp45
 70
     1
102
RTVSPropertyOp46
 70
     1
102
RTVSPropertyOp47
 70
     1
102
RTVSPropertyOp48
 70
     1
102
RTVSPropertyOp49
 70
     1
102
RTVSPropertyOp50
 70
     1
102
RTVSPropertyOp51
 70
     0
102
RTVSPropertyOp52
 70
     0
102
RTVSPropertyOp53
 70
     1
102
RTVSPropertyOp54
 70
     1
102
RTVSPropertyOp55
 70
     1
102
RTVSPropertyOp56
 70
     1
102
RTVSPropertyOp57
 70
     1
102
RTVSPropertyOp58
 70
     1
102
RTVSPropertyOp59
 70
     1
102
RTVSPropertyOp60
 70
     1
102
RTVSPropertyOp61
 70
     1
102
RTVSPropertyOp62
 70
     1
  0
XRECORD
  5
390
102
{ACAD_REACTORS
330
38F
102
}
330
38F
100
AcDbXrecord
280
     1
102
RTVSPost2010Prop28
280
     0
102
RTVSPost2010PropOp28
 70
     1
102
RTVSPost2010Prop29
280
     1
102
RTVSPost2010PropOp29
 70
     1
102
RTVSPost2010Prop30
280
     1
102
RTVSPost2010PropOp30
 70
     1
102
RTVSPost2010Prop31
280
     0
102
RTVSPost2010PropOp31
 70
     1
102
RTVSPost2010Prop32
280
     0
102
RTVSPost2010PropOp32
 70
     1
102
RTVSPost2010Prop33
280
     0
102
RTVSPost2010PropOp33
 70
     1
102
RTVSPost2010Prop34
280
     0
102
RTVSPost2010PropOp34
 70
     1
102
RTVSPost2010Prop35
280
     0
102
RTVSPost2010PropOp35
 70
     1
102
RTVSPost2010Prop36
280
     0
102
RTVSPost2010PropOp36
 70
     1
102
RTVSPost2010Prop37
 90
       50
102
RTVSPost2010PropOp37
 70
     1
102
RTVSPost2010Prop38
140
0.0
102
RTVSPost2010PropOp38
 70
     1
102
RTVSPost2010Prop39
140
1.0
102
RTVSPost2010PropOp39
 70
     1
102
RTVSPost2010Prop40
 90
        0
102
RTVSPost2010PropOp40
 70
     1
102
RTVSPost2010Prop41ColorIndex
 90
       18
102
RTVSPost2010Prop41ColorRGB
 90
        0
102
RTVSPost2010PropOp41
 70
     1
102
RTVSPost2010Prop42
 90
       50
102
RTVSPost2010PropOp42
 70
     1
102
RTVSPost2010Prop43
 90
        3
102
RTVSPost2010PropOp43
 70
     1
102
RTVSPost2010Prop44ColorIndex
 90
        5
102
RTVSPost2010Prop44ColorRGB
 90
      255
102
RTVSPost2010PropOp44
 70
     1
102
RTVSPost2010Prop45
280
     0
102
RTVSPost2010PropOp45
 70
     1
102
RTVSPost2010Prop46
 90
       50
102
RTVSPost2010PropOp46
 70
     1
102
RTVSPost2010Prop47
 90
       50
102
RTVSPost2010PropOp47
 70
     1
102
RTVSPost2010Prop48
 90
       50
102
RTVSPost2010PropOp48
 70
     1
102
RTVSPost2010Prop49
280
     0
102
RTVSPost2010PropOp49
 70
     1
102
RTVSPost2010Prop50
 90
       50
102
RTVSPost2010PropOp50
 70
     1
102
RTVSPost2010Prop51ColorIndex
 90
      256
102
RTVSPost2010Prop51ColorRGB
 90
-16777216
102
RTVSPost2010PropOp51
 70
     0
102
RTVSPost2010Prop52
140
1.0
102
RTVSPost2010PropOp52
 70
     0
102
RTVSPost2010Prop53
 90
        2
102
RTVSPost2010PropOp53
 70
     1
102
RTVSPost2010Prop54
  1
strokes_ogs.tif
102
RTVSPost2010PropOp54
 70
     1
102
RTVSPost2010Prop55
280
     0
102
RTVSPost2010PropOp55
 70
     1
102
RTVSPost2010Prop56
140
1.0
102
RTVSPost2010PropOp56
 70
     1
102
RTVSPost2010Prop57
140
1.0
102
RTVSPost2010PropOp57
 70
     1
102
RTVSPropertyOp0
 70
     1
102
RTVSPropertyOp1
 70
     1
102
RTVSPropertyOp2
 70
     1
102
RTVSPropertyOp3
 70
     1
102
RTVSPropertyOp4
 70
     1
102
RTVSPropertyOp5
 70
     1
102
RTVSPropertyOp6
 70
     1
102
RTVSPropertyOp7
 70
     1
102
RTVSPropertyOp8
 70
     1
102
RTVSPropertyOp9
 70
     1
102
RTVSPropertyOp10
 70
     1
102
RTVSPropertyOp11
 70
     1
102
RTVSPropertyOp12
 70
     1
102
RTVSPropertyOp13
 70
     1
102
RTVSPropertyOp14
 70
     1
102
RTVSPropertyOp15
 70
     1
102
RTVSPropertyOp16
 70
     1
102
RTVSPropertyOp17
 70
     1
102
RTVSPropertyOp18
 70
     1
102
RTVSPropertyOp19
 70
     1
102
RTVSPropertyOp20
 70
     1
102
RTVSPropertyOp21
 70
     1
102
RTVSPropertyOp22
 70
     1
102
RTVSPropertyOp23
 70
     1
102
RTVSPropertyOp24
 70
     1
102
RTVSPropertyOp25
 70
     1
102
RTVSPropertyOp26
 70
     1
102
RTVSPropertyOp27
 70
     1
102
RTVSPropertyOp28
 70
     1
102
RTVSPropertyOp29
 70
     1
102
RTVSPropertyOp30
 70
     1
102
RTVSPropertyOp31
 70
     1
102
RTVSPropertyOp32
 70
     1
102
RTVSPropertyOp33
 70
     1
102
RTVSPropertyOp34
 70
     1
102
RTVSPropertyOp35
 70
     1
102
RTVSPropertyOp36
 70
     1
102
RTVSPropertyOp37
 70
     1
102
RTVSPropertyOp38
 70
     1
102
RTVSPropertyOp39
 70
     1
102
RTVSPropertyOp40
 70
     1
102
RTVSPropertyOp41
 70
     1
102
RTVSPropertyOp42
 70
     1
102
RTVSPropertyOp43
 70
     1
102
RTVSPropertyOp44
 70
     1
102
RTVSPropertyOp45
 70
     1
102
RTVSPropertyOp46
 70
     1
102
RTVSPropertyOp47
 70
     1
102
RTVSPropertyOp48
 70
     1
102
RTVSPropertyOp49
 70
     1
102
RTVSPropertyOp50
 70
     1
102
RTVSPropertyOp51
 70
     0
102
RTVSPropertyOp52
 70
     0
102
RTVSPropertyOp53
 70
     1
102
RTVSPropertyOp54
 70
     1
102
RTVSPropertyOp55
 70
     1
102
RTVSPropertyOp56
 70
     1
102
RTVSPropertyOp57
 70
     1
102
RTVSPropertyOp58
 70
     1
102
RTVSPropertyOp59
 70
     1
102
RTVSPropertyOp60
 70
     1
102
RTVSPropertyOp61
 70
     1
102
RTVSPropertyOp62
 70
     1
  0
XRECORD
  5
3A4
102
{ACAD_REACTORS
330
3A3
102
}
330
3A3
100
AcDbXrecord
280
     1
102
RTVSPost2010Prop28
280
     0
102
RTVSPost2010PropOp28
 70
     0
102
RTVSPost2010Prop29
280
     1
102
RTVSPost2010PropOp29
 70
     0
102
RTVSPost2010Prop30
280
     1
102
RTVSPost2010PropOp30
 70
     0
102
RTVSPost2010Prop31
280
     0
102
RTVSPost2010PropOp31
 70
     0
102
RTVSPost2010Prop32
280
     0
102
RTVSPost2010PropOp32
 70
     0
102
RTVSPost2010Prop33
280
     0
102
RTVSPost2010PropOp33
 70
     0
102
RTVSPost2010Prop34
280
     0
102
RTVSPost2010PropOp34
 70
     0
102
RTVSPost2010Prop35
280
     0
102
RTVSPost2010PropOp35
 70
     0
102
RTVSPost2010Prop36
280
     0
102
RTVSPost2010PropOp36
 70
     0
102
RTVSPost2010Prop37
 90
       50
102
RTVSPost2010PropOp37
 70
     0
102
RTVSPost2010Prop38
140
0.0
102
RTVSPost2010PropOp38
 70
     0
102
RTVSPost2010Prop39
140
1.0
102
RTVSPost2010PropOp39
 70
     0
102
RTVSPost2010Prop40
 90
        0
102
RTVSPost2010PropOp40
 70
     0
102
RTVSPost2010Prop41ColorIndex
 90
       18
102
RTVSPost2010Prop41ColorRGB
 90
        0
102
RTVSPost2010PropOp41
 70
     0
102
RTVSPost2010Prop42
 90
       50
102
RTVSPost2010PropOp42
 70
     0
102
RTVSPost2010Prop43
 90
        3
102
RTVSPost2010PropOp43
 70
     0
102
RTVSPost2010Prop44ColorIndex
 90
        5
102
RTVSPost2010Prop44ColorRGB
 90
      255
102
RTVSPost2010PropOp44
 70
     0
102
RTVSPost2010Prop45
280
     0
102
RTVSPost2010PropOp45
 70
     0
102
RTVSPost2010Prop46
 90
       50
102
RTVSPost2010PropOp46
 70
     0
102
RTVSPost2010Prop47
 90
       50
102
RTVSPost2010PropOp47
 70
     0
102
RTVSPost2010Prop48
 90
       50
102
RTVSPost2010PropOp48
 70
     0
102
RTVSPost2010Prop49
280
     0
102
RTVSPost2010PropOp49
 70
     0
102
RTVSPost2010Prop50
 90
       50
102
RTVSPost2010PropOp50
 70
     0
102
RTVSPost2010Prop51ColorIndex
 90
      256
102
RTVSPost2010Prop51ColorRGB
 90
-16777216
102
RTVSPost2010PropOp51
 70
     0
102
RTVSPost2010Prop52
140
1.0
102
RTVSPost2010PropOp52
 70
     0
102
RTVSPost2010Prop53
 90
        2
102
RTVSPost2010PropOp53
 70
     0
102
RTVSPost2010Prop54
  1
strokes_ogs.tif
102
RTVSPost2010PropOp54
 70
     0
102
RTVSPost2010Prop55
280
     0
102
RTVSPost2010PropOp55
 70
     0
102
RTVSPost2010Prop56
140
1.0
102
RTVSPost2010PropOp56
 70
     0
102
RTVSPost2010Prop57
140
1.0
102
RTVSPost2010PropOp57
 70
     0
102
RTVSPropertyOp0
 70
     0
102
RTVSPropertyOp1
 70
     0
102
RTVSPropertyOp2
 70
     0
102
RTVSPropertyOp3
 70
     0
102
RTVSPropertyOp4
 70
     0
102
RTVSPropertyOp5
 70
     0
102
RTVSPropertyOp6
 70
     0
102
RTVSPropertyOp7
 70
     0
102
RTVSPropertyOp8
 70
     0
102
RTVSPropertyOp9
 70
     0
102
RTVSPropertyOp10
 70
     0
102
RTVSPropertyOp11
 70
     0
102
RTVSPropertyOp12
 70
     0
102
RTVSPropertyOp13
 70
     0
102
RTVSPropertyOp14
 70
     2
102
RTVSPropertyOp15
 70
     0
102
RTVSPropertyOp16
 70
     0
102
RTVSPropertyOp17
 70
     0
102
RTVSPropertyOp18
 70
     0
102
RTVSPropertyOp19
 70
     0
102
RTVSPropertyOp20
 70
     0
102
RTVSPropertyOp21
 70
     0
102
RTVSPropertyOp22
 70
     0
102
RTVSPropertyOp23
 70
     0
102
RTVSPropertyOp24
 70
     0
102
RTVSPropertyOp25
 70
     0
102
RTVSPropertyOp26
 70
     0
102
RTVSPropertyOp27
 70
     0
102
RTVSPropertyOp28
 70
     0
102
RTVSPropertyOp29
 70
     0
102
RTVSPropertyOp30
 70
     0
102
RTVSPropertyOp31
 70
     0
102
RTVSPropertyOp32
 70
     0
102
RTVSPropertyOp33
 70
     0
102
RTVSPropertyOp34
 70
     0
102
RTVSPropertyOp35
 70
     0
102
RTVSPropertyOp36
 70
     0
102
RTVSPropertyOp37
 70
     0
102
RTVSPropertyOp38
 70
     0
102
RTVSPropertyOp39
 70
     0
102
RTVSPropertyOp40
 70
     0
102
RTVSPropertyOp41
 70
     0
102
RTVSPropertyOp42
 70
     0
102
RTVSPropertyOp43
 70
     0
102
RTVSPropertyOp44
 70
     0
102
RTVSPropertyOp45
 70
     0
102
RTVSPropertyOp46
 70
     0
102
RTVSPropertyOp47
 70
     0
102
RTVSPropertyOp48
 70
     0
102
RTVSPropertyOp49
 70
     0
102
RTVSPropertyOp50
 70
     0
102
RTVSPropertyOp51
 70
     0
102
RTVSPropertyOp52
 70
     0
102
RTVSPropertyOp53
 70
     0
102
RTVSPropertyOp54
 70
     0
102
RTVSPropertyOp55
 70
     0
102
RTVSPropertyOp56
 70
     0
102
RTVSPropertyOp57
 70
     0
102
RTVSPropertyOp58
 70
     1
102
RTVSPropertyOp59
 70
     1
102
RTVSPropertyOp60
 70
     1
102
RTVSPropertyOp61
 70
     1
102
RTVSPropertyOp62
 70
     1
  0
XRECORD
  5
39E
102
{ACAD_REACTORS
330
39D
102
}
330
39D
100
AcDbXrecord
280
     1
102
RTVSPost2010Prop28
280
     0
102
RTVSPost2010PropOp28
 70
     1
102
RTVSPost2010Prop29
280
     1
102
RTVSPost2010PropOp29
 70
     1
102
RTVSPost2010Prop30
280
     1
102
RTVSPost2010PropOp30
 70
     1
102
RTVSPost2010Prop31
280
     0
102
RTVSPost2010PropOp31
 70
     1
102
RTVSPost2010Prop32
280
     0
102
RTVSPost2010PropOp32
 70
     1
102
RTVSPost2010Prop33
280
     0
102
RTVSPost2010PropOp33
 70
     1
102
RTVSPost2010Prop34
280
     0
102
RTVSPost2010PropOp34
 70
     1
102
RTVSPost2010Prop35
280
     0
102
RTVSPost2010PropOp35
 70
     1
102
RTVSPost2010Prop36
280
     0
102
RTVSPost2010PropOp36
 70
     1
102
RTVSPost2010Prop37
 90
       50
102
RTVSPost2010PropOp37
 70
     1
102
RTVSPost2010Prop38
140
0.0
102
RTVSPost2010PropOp38
 70
     1
102
RTVSPost2010Prop39
140
1.0
102
RTVSPost2010PropOp39
 70
     1
102
RTVSPost2010Prop40
 90
        0
102
RTVSPost2010PropOp40
 70
     1
102
RTVSPost2010Prop41ColorIndex
 90
       18
102
RTVSPost2010Prop41ColorRGB
 90
        0
102
RTVSPost2010PropOp41
 70
     1
102
RTVSPost2010Prop42
 90
       50
102
RTVSPost2010PropOp42
 70
     1
102
RTVSPost2010Prop43
 90
        3
102
RTVSPost2010PropOp43
 70
     1
102
RTVSPost2010Prop44ColorIndex
 90
        5
102
RTVSPost2010Prop44ColorRGB
 90
      255
102
RTVSPost2010PropOp44
 70
     1
102
RTVSPost2010Prop45
280
     0
102
RTVSPost2010PropOp45
 70
     1
102
RTVSPost2010Prop46
 90
       50
102
RTVSPost2010PropOp46
 70
     1
102
RTVSPost2010Prop47
 90
       50
102
RTVSPost2010PropOp47
 70
     1
102
RTVSPost2010Prop48
 90
       50
102
RTVSPost2010PropOp48
 70
     1
102
RTVSPost2010Prop49
280
     0
102
RTVSPost2010PropOp49
 70
     1
102
RTVSPost2010Prop50
 90
       50
102
RTVSPost2010PropOp50
 70
     1
102
RTVSPost2010Prop51ColorIndex
 90
      256
102
RTVSPost2010Prop51ColorRGB
 90
-16777216
102
RTVSPost2010PropOp51
 70
     0
102
RTVSPost2010Prop52
140
1.0
102
RTVSPost2010PropOp52
 70
     0
102
RTVSPost2010Prop53
 90
        2
102
RTVSPost2010PropOp53
 70
     1
102
RTVSPost2010Prop54
  1
strokes_ogs.tif
102
RTVSPost2010PropOp54
 70
     1
102
RTVSPost2010Prop55
280
     0
102
RTVSPost2010PropOp55
 70
     1
102
RTVSPost2010Prop56
140
1.0
102
RTVSPost2010PropOp56
 70
     1
102
RTVSPost2010Prop57
140
1.0
102
RTVSPost2010PropOp57
 70
     1
102
RTVSPropertyOp0
 70
     1
102
RTVSPropertyOp1
 70
     1
102
RTVSPropertyOp2
 70
     1
102
RTVSPropertyOp3
 70
     1
102
RTVSPropertyOp4
 70
     1
102
RTVSPropertyOp5
 70
     1
102
RTVSPropertyOp6
 70
     1
102
RTVSPropertyOp7
 70
     1
102
RTVSPropertyOp8
 70
     1
102
RTVSPropertyOp9
 70
     1
102
RTVSPropertyOp10
 70
     1
102
RTVSPropertyOp11
 70
     1
102
RTVSPropertyOp12
 70
     1
102
RTVSPropertyOp13
 70
     1
102
RTVSPropertyOp14
 70
     1
102
RTVSPropertyOp15
 70
     1
102
RTVSPropertyOp16
 70
     1
102
RTVSPropertyOp17
 70
     1
102
RTVSPropertyOp18
 70
     1
102
RTVSPropertyOp19
 70
     1
102
RTVSPropertyOp20
 70
     1
102
RTVSPropertyOp21
 70
     1
102
RTVSPropertyOp22
 70
     1
102
RTVSPropertyOp23
 70
     1
102
RTVSPropertyOp24
 70
     1
102
RTVSPropertyOp25
 70
     1
102
RTVSPropertyOp26
 70
     1
102
RTVSPropertyOp27
 70
     1
102
RTVSPropertyOp28
 70
     1
102
RTVSPropertyOp29
 70
     1
102
RTVSPropertyOp30
 70
     1
102
RTVSPropertyOp31
 70
     1
102
RTVSPropertyOp32
 70
     1
102
RTVSPropertyOp33
 70
     1
102
RTVSPropertyOp34
 70
     1
102
RTVSPropertyOp35
 70
     1
102
RTVSPropertyOp36
 70
     1
102
RTVSPropertyOp37
 70
     1
102
RTVSPropertyOp38
 70
     1
102
RTVSPropertyOp39
 70
     1
102
RTVSPropertyOp40
 70
     1
102
RTVSPropertyOp41
 70
     1
102
RTVSPropertyOp42
 70
     1
102
RTVSPropertyOp43
 70
     1
102
RTVSPropertyOp44
 70
     1
102
RTVSPropertyOp45
 70
     1
102
RTVSPropertyOp46
 70
     1
102
RTVSPropertyOp47
 70
     1
102
RTVSPropertyOp48
 70
     1
102
RTVSPropertyOp49
 70
     1
102
RTVSPropertyOp50
 70
     1
102
RTVSPropertyOp51
 70
     0
102
RTVSPropertyOp52
 70
     0
102
RTVSPropertyOp53
 70
     1
102
RTVSPropertyOp54
 70
     1
102
RTVSPropertyOp55
 70
     1
102
RTVSPropertyOp56
 70
     1
102
RTVSPropertyOp57
 70
     1
102
RTVSPropertyOp58
 70
     1
102
RTVSPropertyOp59
 70
     1
102
RTVSPropertyOp60
 70
     1
102
RTVSPropertyOp61
 70
     1
102
RTVSPropertyOp62
 70
     1
  0
XRECORD
  5
3A6
102
{ACAD_REACTORS
330
3A5
102
}
330
3A5
100
AcDbXrecord
280
     1
102
RTVSPost2010Prop28
280
     0
102
RTVSPost2010PropOp28
 70
     0
102
RTVSPost2010Prop29
280
     1
102
RTVSPost2010PropOp29
 70
     0
102
RTVSPost2010Prop30
280
     1
102
RTVSPost2010PropOp30
 70
     0
102
RTVSPost2010Prop31
280
     0
102
RTVSPost2010PropOp31
 70
     0
102
RTVSPost2010Prop32
280
     0
102
RTVSPost2010PropOp32
 70
     0
102
RTVSPost2010Prop33
280
     0
102
RTVSPost2010PropOp33
 70
     0
102
RTVSPost2010Prop34
280
     0
102
RTVSPost2010PropOp34
 70
     0
102
RTVSPost2010Prop35
280
     0
102
RTVSPost2010PropOp35
 70
     0
102
RTVSPost2010Prop36
280
     0
102
RTVSPost2010PropOp36
 70
     0
102
RTVSPost2010Prop37
 90
       50
102
RTVSPost2010PropOp37
 70
     0
102
RTVSPost2010Prop38
140
0.0
102
RTVSPost2010PropOp38
 70
     0
102
RTVSPost2010Prop39
140
1.0
102
RTVSPost2010PropOp39
 70
     0
102
RTVSPost2010Prop40
 90
        0
102
RTVSPost2010PropOp40
 70
     0
102
RTVSPost2010Prop41ColorIndex
 90
       18
102
RTVSPost2010Prop41ColorRGB
 90
        0
102
RTVSPost2010PropOp41
 70
     0
102
RTVSPost2010Prop42
 90
       50
102
RTVSPost2010PropOp42
 70
     0
102
RTVSPost2010Prop43
 90
        3
102
RTVSPost2010PropOp43
 70
     0
102
RTVSPost2010Prop44ColorIndex
 90
        5
102
RTVSPost2010Prop44ColorRGB
 90
      255
102
RTVSPost2010PropOp44
 70
     0
102
RTVSPost2010Prop45
280
     0
102
RTVSPost2010PropOp45
 70
     0
102
RTVSPost2010Prop46
 90
       50
102
RTVSPost2010PropOp46
 70
     0
102
RTVSPost2010Prop47
 90
       50
102
RTVSPost2010PropOp47
 70
     0
102
RTVSPost2010Prop48
 90
       50
102
RTVSPost2010PropOp48
 70
     0
102
RTVSPost2010Prop49
280
     0
102
RTVSPost2010PropOp49
 70
     0
102
RTVSPost2010Prop50
 90
       50
102
RTVSPost2010PropOp50
 70
     0
102
RTVSPost2010Prop51ColorIndex
 90
      256
102
RTVSPost2010Prop51ColorRGB
 90
-16777216
102
RTVSPost2010PropOp51
 70
     0
102
RTVSPost2010Prop52
140
1.0
102
RTVSPost2010PropOp52
 70
     0
102
RTVSPost2010Prop53
 90
        2
102
RTVSPost2010PropOp53
 70
     0
102
RTVSPost2010Prop54
  1
strokes_ogs.tif
102
RTVSPost2010PropOp54
 70
     0
102
RTVSPost2010Prop55
280
     0
102
RTVSPost2010PropOp55
 70
     0
102
RTVSPost2010Prop56
140
1.0
102
RTVSPost2010PropOp56
 70
     0
102
RTVSPost2010Prop57
140
1.0
102
RTVSPost2010PropOp57
 70
     0
102
RTVSPropertyOp0
 70
     0
102
RTVSPropertyOp1
 70
     0
102
RTVSPropertyOp2
 70
     0
102
RTVSPropertyOp3
 70
     0
102
RTVSPropertyOp4
 70
     0
102
RTVSPropertyOp5
 70
     0
102
RTVSPropertyOp6
 70
     0
102
RTVSPropertyOp7
 70
     0
102
RTVSPropertyOp8
 70
     0
102
RTVSPropertyOp9
 70
     0
102
RTVSPropertyOp10
 70
     0
102
RTVSPropertyOp11
 70
     0
102
RTVSPropertyOp12
 70
     0
102
RTVSPropertyOp13
 70
     0
102
RTVSPropertyOp14
 70
     2
102
RTVSPropertyOp15
 70
     0
102
RTVSPropertyOp16
 70
     0
102
RTVSPropertyOp17
 70
     0
102
RTVSPropertyOp18
 70
     0
102
RTVSPropertyOp19
 70
     0
102
RTVSPropertyOp20
 70
     0
102
RTVSPropertyOp21
 70
     0
102
RTVSPropertyOp22
 70
     0
102
RTVSPropertyOp23
 70
     0
102
RTVSPropertyOp24
 70
     0
102
RTVSPropertyOp25
 70
     0
102
RTVSPropertyOp26
 70
     0
102
RTVSPropertyOp27
 70
     0
102
RTVSPropertyOp28
 70
     0
102
RTVSPropertyOp29
 70
     0
102
RTVSPropertyOp30
 70
     0
102
RTVSPropertyOp31
 70
     0
102
RTVSPropertyOp32
 70
     0
102
RTVSPropertyOp33
 70
     0
102
RTVSPropertyOp34
 70
     0
102
RTVSPropertyOp35
 70
     0
102
RTVSPropertyOp36
 70
     0
102
RTVSPropertyOp37
 70
     0
102
RTVSPropertyOp38
 70
     0
102
RTVSPropertyOp39
 70
     0
102
RTVSPropertyOp40
 70
     0
102
RTVSPropertyOp41
 70
     0
102
RTVSPropertyOp42
 70
     0
102
RTVSPropertyOp43
 70
     0
102
RTVSPropertyOp44
 70
     0
102
RTVSPropertyOp45
 70
     0
102
RTVSPropertyOp46
 70
     0
102
RTVSPropertyOp47
 70
     0
102
RTVSPropertyOp48
 70
     0
102
RTVSPropertyOp49
 70
     0
102
RTVSPropertyOp50
 70
     0
102
RTVSPropertyOp51
 70
     0
102
RTVSPropertyOp52
 70
     0
102
RTVSPropertyOp53
 70
     0
102
RTVSPropertyOp54
 70
     0
102
RTVSPropertyOp55
 70
     0
102
RTVSPropertyOp56
 70
     0
102
RTVSPropertyOp57
 70
     0
102
RTVSPropertyOp58
 70
     1
102
RTVSPropertyOp59
 70
     1
102
RTVSPropertyOp60
 70
     1
102
RTVSPropertyOp61
 70
     1
102
RTVSPropertyOp62
 70
     1
  0
XRECORD
  5
394
102
{ACAD_REACTORS
330
393
102
}
330
393
100
AcDbXrecord
280
     1
102
RTVSPost2010Prop28
280
     0
102
RTVSPost2010PropOp28
 70
     1
102
RTVSPost2010Prop29
280
     1
102
RTVSPost2010PropOp29
 70
     1
102
RTVSPost2010Prop30
280
     1
102
RTVSPost2010PropOp30
 70
     1
102
RTVSPost2010Prop31
280
     0
102
RTVSPost2010PropOp31
 70
     1
102
RTVSPost2010Prop32
280
     0
102
RTVSPost2010PropOp32
 70
     1
102
RTVSPost2010Prop33
280
     0
102
RTVSPost2010PropOp33
 70
     1
102
RTVSPost2010Prop34
280
     0
102
RTVSPost2010PropOp34
 70
     1
102
RTVSPost2010Prop35
280
     0
102
RTVSPost2010PropOp35
 70
     1
102
RTVSPost2010Prop36
280
     0
102
RTVSPost2010PropOp36
 70
     1
102
RTVSPost2010Prop37
 90
       50
102
RTVSPost2010PropOp37
 70
     1
102
RTVSPost2010Prop38
140
0.0
102
RTVSPost2010PropOp38
 70
     1
102
RTVSPost2010Prop39
140
1.0
102
RTVSPost2010PropOp39
 70
     1
102
RTVSPost2010Prop40
 90
        0
102
RTVSPost2010PropOp40
 70
     1
102
RTVSPost2010Prop41ColorIndex
 90
       18
102
RTVSPost2010Prop41ColorRGB
 90
        0
102
RTVSPost2010PropOp41
 70
     1
102
RTVSPost2010Prop42
 90
       50
102
RTVSPost2010PropOp42
 70
     1
102
RTVSPost2010Prop43
 90
        3
102
RTVSPost2010PropOp43
 70
     1
102
RTVSPost2010Prop44ColorIndex
 90
        5
102
RTVSPost2010Prop44ColorRGB
 90
      255
102
RTVSPost2010PropOp44
 70
     1
102
RTVSPost2010Prop45
280
     0
102
RTVSPost2010PropOp45
 70
     1
102
RTVSPost2010Prop46
 90
       50
102
RTVSPost2010PropOp46
 70
     1
102
RTVSPost2010Prop47
 90
       50
102
RTVSPost2010PropOp47
 70
     1
102
RTVSPost2010Prop48
 90
       50
102
RTVSPost2010PropOp48
 70
     1
102
RTVSPost2010Prop49
280
     0
102
RTVSPost2010PropOp49
 70
     1
102
RTVSPost2010Prop50
 90
       50
102
RTVSPost2010PropOp50
 70
     1
102
RTVSPost2010Prop51ColorIndex
 90
      256
102
RTVSPost2010Prop51ColorRGB
 90
-16777216
102
RTVSPost2010PropOp51
 70
     0
102
RTVSPost2010Prop52
140
1.0
102
RTVSPost2010PropOp52
 70
     0
102
RTVSPost2010Prop53
 90
        2
102
RTVSPost2010PropOp53
 70
     1
102
RTVSPost2010Prop54
  1
strokes_ogs.tif
102
RTVSPost2010PropOp54
 70
     1
102
RTVSPost2010Prop55
280
     0
102
RTVSPost2010PropOp55
 70
     1
102
RTVSPost2010Prop56
140
1.0
102
RTVSPost2010PropOp56
 70
     1
102
RTVSPost2010Prop57
140
1.0
102
RTVSPost2010PropOp57
 70
     1
102
RTVSPropertyOp0
 70
     1
102
RTVSPropertyOp1
 70
     1
102
RTVSPropertyOp2
 70
     1
102
RTVSPropertyOp3
 70
     1
102
RTVSPropertyOp4
 70
     1
102
RTVSPropertyOp5
 70
     1
102
RTVSPropertyOp6
 70
     1
102
RTVSPropertyOp7
 70
     1
102
RTVSPropertyOp8
 70
     1
102
RTVSPropertyOp9
 70
     1
102
RTVSPropertyOp10
 70
     1
102
RTVSPropertyOp11
 70
     1
102
RTVSPropertyOp12
 70
     1
102
RTVSPropertyOp13
 70
     1
102
RTVSPropertyOp14
 70
     1
102
RTVSPropertyOp15
 70
     1
102
RTVSPropertyOp16
 70
     1
102
RTVSPropertyOp17
 70
     1
102
RTVSPropertyOp18
 70
     1
102
RTVSPropertyOp19
 70
     1
102
RTVSPropertyOp20
 70
     1
102
RTVSPropertyOp21
 70
     1
102
RTVSPropertyOp22
 70
     1
102
RTVSPropertyOp23
 70
     1
102
RTVSPropertyOp24
 70
     1
102
RTVSPropertyOp25
 70
     1
102
RTVSPropertyOp26
 70
     1
102
RTVSPropertyOp27
 70
     1
102
RTVSPropertyOp28
 70
     1
102
RTVSPropertyOp29
 70
     1
102
RTVSPropertyOp30
 70
     1
102
RTVSPropertyOp31
 70
     1
102
RTVSPropertyOp32
 70
     1
102
RTVSPropertyOp33
 70
     1
102
RTVSPropertyOp34
 70
     1
102
RTVSPropertyOp35
 70
     1
102
RTVSPropertyOp36
 70
     1
102
RTVSPropertyOp37
 70
     1
102
RTVSPropertyOp38
 70
     1
102
RTVSPropertyOp39
 70
     1
102
RTVSPropertyOp40
 70
     1
102
RTVSPropertyOp41
 70
     1
102
RTVSPropertyOp42
 70
     1
102
RTVSPropertyOp43
 70
     1
102
RTVSPropertyOp44
 70
     1
102
RTVSPropertyOp45
 70
     1
102
RTVSPropertyOp46
 70
     1
102
RTVSPropertyOp47
 70
     1
102
RTVSPropertyOp48
 70
     1
102
RTVSPropertyOp49
 70
     1
102
RTVSPropertyOp50
 70
     1
102
RTVSPropertyOp51
 70
     0
102
RTVSPropertyOp52
 70
     0
102
RTVSPropertyOp53
 70
     1
102
RTVSPropertyOp54
 70
     1
102
RTVSPropertyOp55
 70
     1
102
RTVSPropertyOp56
 70
     1
102
RTVSPropertyOp57
 70
     1
102
RTVSPropertyOp58
 70
     1
102
RTVSPropertyOp59
 70
     1
102
RTVSPropertyOp60
 70
     1
102
RTVSPropertyOp61
 70
     1
102
RTVSPropertyOp62
 70
     1
  0
XRECORD
  5
3B2
102
{ACAD_REACTORS
330
3B1
102
}
330
3B1
100
AcDbXrecord
280
     1
102
RTVSPost2010Prop28
280
     0
102
RTVSPost2010PropOp28
 70
     1
102
RTVSPost2010Prop29
280
     1
102
RTVSPost2010PropOp29
 70
     1
102
RTVSPost2010Prop30
280
     1
102
RTVSPost2010PropOp30
 70
     1
102
RTVSPost2010Prop31
280
     0
102
RTVSPost2010PropOp31
 70
     1
102
RTVSPost2010Prop32
280
     0
102
RTVSPost2010PropOp32
 70
     1
102
RTVSPost2010Prop33
280
     0
102
RTVSPost2010PropOp33
 70
     1
102
RTVSPost2010Prop34
280
     0
102
RTVSPost2010PropOp34
 70
     1
102
RTVSPost2010Prop35
280
     0
102
RTVSPost2010PropOp35
 70
     1
102
RTVSPost2010Prop36
280
     0
102
RTVSPost2010PropOp36
 70
     1
102
RTVSPost2010Prop37
 90
       50
102
RTVSPost2010PropOp37
 70
     1
102
RTVSPost2010Prop38
140
0.0
102
RTVSPost2010PropOp38
 70
     1
102
RTVSPost2010Prop39
140
1.0
102
RTVSPost2010PropOp39
 70
     1
102
RTVSPost2010Prop40
 90
        0
102
RTVSPost2010PropOp40
 70
     1
102
RTVSPost2010Prop41ColorIndex
 90
       18
102
RTVSPost2010Prop41ColorRGB
 90
        0
102
RTVSPost2010PropOp41
 70
     1
102
RTVSPost2010Prop42
 90
       50
102
RTVSPost2010PropOp42
 70
     1
102
RTVSPost2010Prop43
 90
        3
102
RTVSPost2010PropOp43
 70
     1
102
RTVSPost2010Prop44ColorIndex
 90
        5
102
RTVSPost2010Prop44ColorRGB
 90
      255
102
RTVSPost2010PropOp44
 70
     1
102
RTVSPost2010Prop45
280
     0
102
RTVSPost2010PropOp45
 70
     1
102
RTVSPost2010Prop46
 90
       50
102
RTVSPost2010PropOp46
 70
     1
102
RTVSPost2010Prop47
 90
       50
102
RTVSPost2010PropOp47
 70
     1
102
RTVSPost2010Prop48
 90
       50
102
RTVSPost2010PropOp48
 70
     1
102
RTVSPost2010Prop49
280
     0
102
RTVSPost2010PropOp49
 70
     1
102
RTVSPost2010Prop50
 90
       50
102
RTVSPost2010PropOp50
 70
     1
102
RTVSPost2010Prop51ColorIndex
 90
      256
102
RTVSPost2010Prop51ColorRGB
 90
-16777216
102
RTVSPost2010PropOp51
 70
     0
102
RTVSPost2010Prop52
140
1.0
102
RTVSPost2010PropOp52
 70
     0
102
RTVSPost2010Prop53
 90
        2
102
RTVSPost2010PropOp53
 70
     1
102
RTVSPost2010Prop54
  1
strokes_ogs.tif
102
RTVSPost2010PropOp54
 70
     1
102
RTVSPost2010Prop55
280
     0
102
RTVSPost2010PropOp55
 70
     1
102
RTVSPost2010Prop56
140
1.0
102
RTVSPost2010PropOp56
 70
     1
102
RTVSPost2010Prop57
140
1.0
102
RTVSPost2010PropOp57
 70
     1
102
RTVSPropertyOp0
 70
     1
102
RTVSPropertyOp1
 70
     1
102
RTVSPropertyOp2
 70
     1
102
RTVSPropertyOp3
 70
     1
102
RTVSPropertyOp4
 70
     1
102
RTVSPropertyOp5
 70
     1
102
RTVSPropertyOp6
 70
     1
102
RTVSPropertyOp7
 70
     1
102
RTVSPropertyOp8
 70
     1
102
RTVSPropertyOp9
 70
     1
102
RTVSPropertyOp10
 70
     1
102
RTVSPropertyOp11
 70
     1
102
RTVSPropertyOp12
 70
     1
102
RTVSPropertyOp13
 70
     1
102
RTVSPropertyOp14
 70
     1
102
RTVSPropertyOp15
 70
     1
102
RTVSPropertyOp16
 70
     1
102
RTVSPropertyOp17
 70
     1
102
RTVSPropertyOp18
 70
     1
102
RTVSPropertyOp19
 70
     1
102
RTVSPropertyOp20
 70
     1
102
RTVSPropertyOp21
 70
     1
102
RTVSPropertyOp22
 70
     1
102
RTVSPropertyOp23
 70
     1
102
RTVSPropertyOp24
 70
     1
102
RTVSPropertyOp25
 70
     1
102
RTVSPropertyOp26
 70
     1
102
RTVSPropertyOp27
 70
     1
102
RTVSPropertyOp28
 70
     1
102
RTVSPropertyOp29
 70
     1
102
RTVSPropertyOp30
 70
     1
102
RTVSPropertyOp31
 70
     1
102
RTVSPropertyOp32
 70
     1
102
RTVSPropertyOp33
 70
     1
102
RTVSPropertyOp34
 70
     1
102
RTVSPropertyOp35
 70
     1
102
RTVSPropertyOp36
 70
     1
102
RTVSPropertyOp37
 70
     1
102
RTVSPropertyOp38
 70
     1
102
RTVSPropertyOp39
 70
     1
102
RTVSPropertyOp40
 70
     1
102
RTVSPropertyOp41
 70
     1
102
RTVSPropertyOp42
 70
     1
102
RTVSPropertyOp43
 70
     1
102
RTVSPropertyOp44
 70
     1
102
RTVSPropertyOp45
 70
     1
102
RTVSPropertyOp46
 70
     1
102
RTVSPropertyOp47
 70
     1
102
RTVSPropertyOp48
 70
     1
102
RTVSPropertyOp49
 70
     1
102
RTVSPropertyOp50
 70
     1
102
RTVSPropertyOp51
 70
     0
102
RTVSPropertyOp52
 70
     0
102
RTVSPropertyOp53
 70
     1
102
RTVSPropertyOp54
 70
     1
102
RTVSPropertyOp55
 70
     1
102
RTVSPropertyOp56
 70
     1
102
RTVSPropertyOp57
 70
     1
102
RTVSPropertyOp58
 70
     1
102
RTVSPropertyOp59
 70
     1
102
RTVSPropertyOp60
 70
     1
102
RTVSPropertyOp61
 70
     1
102
RTVSPropertyOp62
 70
     1
  0
XRECORD
  5
3B0
102
{ACAD_REACTORS
330
3AF
102
}
330
3AF
100
AcDbXrecord
280
     1
102
RTVSPost2010Prop28
280
     0
102
RTVSPost2010PropOp28
 70
     1
102
RTVSPost2010Prop29
280
     1
102
RTVSPost2010PropOp29
 70
     1
102
RTVSPost2010Prop30
280
     1
102
RTVSPost2010PropOp30
 70
     1
102
RTVSPost2010Prop31
280
     0
102
RTVSPost2010PropOp31
 70
     1
102
RTVSPost2010Prop32
280
     0
102
RTVSPost2010PropOp32
 70
     1
102
RTVSPost2010Prop33
280
     0
102
RTVSPost2010PropOp33
 70
     1
102
RTVSPost2010Prop34
280
     0
102
RTVSPost2010PropOp34
 70
     1
102
RTVSPost2010Prop35
280
     0
102
RTVSPost2010PropOp35
 70
     1
102
RTVSPost2010Prop36
280
     0
102
RTVSPost2010PropOp36
 70
     1
102
RTVSPost2010Prop37
 90
       50
102
RTVSPost2010PropOp37
 70
     1
102
RTVSPost2010Prop38
140
0.0
102
RTVSPost2010PropOp38
 70
     1
102
RTVSPost2010Prop39
140
1.0
102
RTVSPost2010PropOp39
 70
     1
102
RTVSPost2010Prop40
 90
        0
102
RTVSPost2010PropOp40
 70
     1
102
RTVSPost2010Prop41ColorIndex
 90
       18
102
RTVSPost2010Prop41ColorRGB
 90
        0
102
RTVSPost2010PropOp41
 70
     1
102
RTVSPost2010Prop42
 90
       50
102
RTVSPost2010PropOp42
 70
     1
102
RTVSPost2010Prop43
 90
        3
102
RTVSPost2010PropOp43
 70
     1
102
RTVSPost2010Prop44ColorIndex
 90
        5
102
RTVSPost2010Prop44ColorRGB
 90
      255
102
RTVSPost2010PropOp44
 70
     1
102
RTVSPost2010Prop45
280
     0
102
RTVSPost2010PropOp45
 70
     1
102
RTVSPost2010Prop46
 90
       50
102
RTVSPost2010PropOp46
 70
     1
102
RTVSPost2010Prop47
 90
       50
102
RTVSPost2010PropOp47
 70
     1
102
RTVSPost2010Prop48
 90
       50
102
RTVSPost2010PropOp48
 70
     1
102
RTVSPost2010Prop49
280
     0
102
RTVSPost2010PropOp49
 70
     1
102
RTVSPost2010Prop50
 90
       50
102
RTVSPost2010PropOp50
 70
     1
102
RTVSPost2010Prop51ColorIndex
 90
      256
102
RTVSPost2010Prop51ColorRGB
 90
-16777216
102
RTVSPost2010PropOp51
 70
     0
102
RTVSPost2010Prop52
140
1.0
102
RTVSPost2010PropOp52
 70
     0
102
RTVSPost2010Prop53
 90
        2
102
RTVSPost2010PropOp53
 70
     1
102
RTVSPost2010Prop54
  1
strokes_ogs.tif
102
RTVSPost2010PropOp54
 70
     1
102
RTVSPost2010Prop55
280
     0
102
RTVSPost2010PropOp55
 70
     1
102
RTVSPost2010Prop56
140
1.0
102
RTVSPost2010PropOp56
 70
     1
102
RTVSPost2010Prop57
140
1.0
102
RTVSPost2010PropOp57
 70
     1
102
RTVSPropertyOp0
 70
     1
102
RTVSPropertyOp1
 70
     1
102
RTVSPropertyOp2
 70
     1
102
RTVSPropertyOp3
 70
     1
102
RTVSPropertyOp4
 70
     1
102
RTVSPropertyOp5
 70
     1
102
RTVSPropertyOp6
 70
     1
102
RTVSPropertyOp7
 70
     1
102
RTVSPropertyOp8
 70
     1
102
RTVSPropertyOp9
 70
     1
102
RTVSPropertyOp10
 70
     1
102
RTVSPropertyOp11
 70
     1
102
RTVSPropertyOp12
 70
     1
102
RTVSPropertyOp13
 70
     1
102
RTVSPropertyOp14
 70
     1
102
RTVSPropertyOp15
 70
     1
102
RTVSPropertyOp16
 70
     1
102
RTVSPropertyOp17
 70
     1
102
RTVSPropertyOp18
 70
     1
102
RTVSPropertyOp19
 70
     1
102
RTVSPropertyOp20
 70
     1
102
RTVSPropertyOp21
 70
     1
102
RTVSPropertyOp22
 70
     1
102
RTVSPropertyOp23
 70
     1
102
RTVSPropertyOp24
 70
     1
102
RTVSPropertyOp25
 70
     1
102
RTVSPropertyOp26
 70
     1
102
RTVSPropertyOp27
 70
     1
102
RTVSPropertyOp28
 70
     1
102
RTVSPropertyOp29
 70
     1
102
RTVSPropertyOp30
 70
     1
102
RTVSPropertyOp31
 70
     1
102
RTVSPropertyOp32
 70
     1
102
RTVSPropertyOp33
 70
     1
102
RTVSPropertyOp34
 70
     1
102
RTVSPropertyOp35
 70
     1
102
RTVSPropertyOp36
 70
     1
102
RTVSPropertyOp37
 70
     1
102
RTVSPropertyOp38
 70
     1
102
RTVSPropertyOp39
 70
     1
102
RTVSPropertyOp40
 70
     1
102
RTVSPropertyOp41
 70
     1
102
RTVSPropertyOp42
 70
     1
102
RTVSPropertyOp43
 70
     1
102
RTVSPropertyOp44
 70
     1
102
RTVSPropertyOp45
 70
     1
102
RTVSPropertyOp46
 70
     1
102
RTVSPropertyOp47
 70
     1
102
RTVSPropertyOp48
 70
     1
102
RTVSPropertyOp49
 70
     1
102
RTVSPropertyOp50
 70
     1
102
RTVSPropertyOp51
 70
     0
102
RTVSPropertyOp52
 70
     0
102
RTVSPropertyOp53
 70
     1
102
RTVSPropertyOp54
 70
     1
102
RTVSPropertyOp55
 70
     1
102
RTVSPropertyOp56
 70
     1
102
RTVSPropertyOp57
 70
     1
102
RTVSPropertyOp58
 70
     1
102
RTVSPropertyOp59
 70
     1
102
RTVSPropertyOp60
 70
     1
102
RTVSPropertyOp61
 70
     1
102
RTVSPropertyOp62
 70
     1
  0
XRECORD
  5
3AA
102
{ACAD_REACTORS
330
3A9
102
}
330
3A9
100
AcDbXrecord
280
     1
102
RTVSPost2010Prop28
280
     0
102
RTVSPost2010PropOp28
 70
     1
102
RTVSPost2010Prop29
280
     1
102
RTVSPost2010PropOp29
 70
     1
102
RTVSPost2010Prop30
280
     1
102
RTVSPost2010PropOp30
 70
     1
102
RTVSPost2010Prop31
280
     0
102
RTVSPost2010PropOp31
 70
     1
102
RTVSPost2010Prop32
280
     0
102
RTVSPost2010PropOp32
 70
     1
102
RTVSPost2010Prop33
280
     0
102
RTVSPost2010PropOp33
 70
     1
102
RTVSPost2010Prop34
280
     0
102
RTVSPost2010PropOp34
 70
     1
102
RTVSPost2010Prop35
280
     0
102
RTVSPost2010PropOp35
 70
     1
102
RTVSPost2010Prop36
280
     0
102
RTVSPost2010PropOp36
 70
     1
102
RTVSPost2010Prop37
 90
       50
102
RTVSPost2010PropOp37
 70
     1
102
RTVSPost2010Prop38
140
0.0
102
RTVSPost2010PropOp38
 70
     1
102
RTVSPost2010Prop39
140
1.0
102
RTVSPost2010PropOp39
 70
     1
102
RTVSPost2010Prop40
 90
        0
102
RTVSPost2010PropOp40
 70
     1
102
RTVSPost2010Prop41ColorIndex
 90
       18
102
RTVSPost2010Prop41ColorRGB
 90
        0
102
RTVSPost2010PropOp41
 70
     1
102
RTVSPost2010Prop42
 90
       50
102
RTVSPost2010PropOp42
 70
     1
102
RTVSPost2010Prop43
 90
        3
102
RTVSPost2010PropOp43
 70
     1
102
RTVSPost2010Prop44ColorIndex
 90
        5
102
RTVSPost2010Prop44ColorRGB
 90
      255
102
RTVSPost2010PropOp44
 70
     1
102
RTVSPost2010Prop45
280
     0
102
RTVSPost2010PropOp45
 70
     1
102
RTVSPost2010Prop46
 90
       50
102
RTVSPost2010PropOp46
 70
     1
102
RTVSPost2010Prop47
 90
       50
102
RTVSPost2010PropOp47
 70
     1
102
RTVSPost2010Prop48
 90
       50
102
RTVSPost2010PropOp48
 70
     1
102
RTVSPost2010Prop49
280
     0
102
RTVSPost2010PropOp49
 70
     1
102
RTVSPost2010Prop50
 90
       50
102
RTVSPost2010PropOp50
 70
     1
102
RTVSPost2010Prop51ColorIndex
 90
      256
102
RTVSPost2010Prop51ColorRGB
 90
-16777216
102
RTVSPost2010PropOp51
 70
     0
102
RTVSPost2010Prop52
140
1.0
102
RTVSPost2010PropOp52
 70
     0
102
RTVSPost2010Prop53
 90
        2
102
RTVSPost2010PropOp53
 70
     1
102
RTVSPost2010Prop54
  1
strokes_ogs.tif
102
RTVSPost2010PropOp54
 70
     1
102
RTVSPost2010Prop55
280
     0
102
RTVSPost2010PropOp55
 70
     1
102
RTVSPost2010Prop56
140
1.0
102
RTVSPost2010PropOp56
 70
     1
102
RTVSPost2010Prop57
140
1.0
102
RTVSPost2010PropOp57
 70
     1
102
RTVSPropertyOp0
 70
     1
102
RTVSPropertyOp1
 70
     1
102
RTVSPropertyOp2
 70
     1
102
RTVSPropertyOp3
 70
     1
102
RTVSPropertyOp4
 70
     1
102
RTVSPropertyOp5
 70
     1
102
RTVSPropertyOp6
 70
     1
102
RTVSPropertyOp7
 70
     1
102
RTVSPropertyOp8
 70
     1
102
RTVSPropertyOp9
 70
     1
102
RTVSPropertyOp10
 70
     1
102
RTVSPropertyOp11
 70
     1
102
RTVSPropertyOp12
 70
     1
102
RTVSPropertyOp13
 70
     1
102
RTVSPropertyOp14
 70
     1
102
RTVSPropertyOp15
 70
     1
102
RTVSPropertyOp16
 70
     1
102
RTVSPropertyOp17
 70
     1
102
RTVSPropertyOp18
 70
     1
102
RTVSPropertyOp19
 70
     1
102
RTVSPropertyOp20
 70
     1
102
RTVSPropertyOp21
 70
     1
102
RTVSPropertyOp22
 70
     1
102
RTVSPropertyOp23
 70
     1
102
RTVSPropertyOp24
 70
     1
102
RTVSPropertyOp25
 70
     1
102
RTVSPropertyOp26
 70
     1
102
RTVSPropertyOp27
 70
     1
102
RTVSPropertyOp28
 70
     1
102
RTVSPropertyOp29
 70
     1
102
RTVSPropertyOp30
 70
     1
102
RTVSPropertyOp31
 70
     1
102
RTVSPropertyOp32
 70
     1
102
RTVSPropertyOp33
 70
     1
102
RTVSPropertyOp34
 70
     1
102
RTVSPropertyOp35
 70
     1
102
RTVSPropertyOp36
 70
     1
102
RTVSPropertyOp37
 70
     1
102
RTVSPropertyOp38
 70
     1
102
RTVSPropertyOp39
 70
     1
102
RTVSPropertyOp40
 70
     1
102
RTVSPropertyOp41
 70
     1
102
RTVSPropertyOp42
 70
     1
102
RTVSPropertyOp43
 70
     1
102
RTVSPropertyOp44
 70
     1
102
RTVSPropertyOp45
 70
     1
102
RTVSPropertyOp46
 70
     1
102
RTVSPropertyOp47
 70
     1
102
RTVSPropertyOp48
 70
     1
102
RTVSPropertyOp49
 70
     1
102
RTVSPropertyOp50
 70
     1
102
RTVSPropertyOp51
 70
     0
102
RTVSPropertyOp52
 70
     0
102
RTVSPropertyOp53
 70
     1
102
RTVSPropertyOp54
 70
     1
102
RTVSPropertyOp55
 70
     1
102
RTVSPropertyOp56
 70
     1
102
RTVSPropertyOp57
 70
     1
102
RTVSPropertyOp58
 70
     1
102
RTVSPropertyOp59
 70
     1
102
RTVSPropertyOp60
 70
     1
102
RTVSPropertyOp61
 70
     1
102
RTVSPropertyOp62
 70
     1
  0
XRECORD
  5
3AC
102
{ACAD_REACTORS
330
3AB
102
}
330
3AB
100
AcDbXrecord
280
     1
102
RTVSPost2010Prop28
280
     0
102
RTVSPost2010PropOp28
 70
     1
102
RTVSPost2010Prop29
280
     1
102
RTVSPost2010PropOp29
 70
     1
102
RTVSPost2010Prop30
280
     1
102
RTVSPost2010PropOp30
 70
     1
102
RTVSPost2010Prop31
280
     0
102
RTVSPost2010PropOp31
 70
     1
102
RTVSPost2010Prop32
280
     0
102
RTVSPost2010PropOp32
 70
     1
102
RTVSPost2010Prop33
280
     0
102
RTVSPost2010PropOp33
 70
     1
102
RTVSPost2010Prop34
280
     0
102
RTVSPost2010PropOp34
 70
     1
102
RTVSPost2010Prop35
280
     0
102
RTVSPost2010PropOp35
 70
     1
102
RTVSPost2010Prop36
280
     0
102
RTVSPost2010PropOp36
 70
     1
102
RTVSPost2010Prop37
 90
       50
102
RTVSPost2010PropOp37
 70
     1
102
RTVSPost2010Prop38
140
0.0
102
RTVSPost2010PropOp38
 70
     1
102
RTVSPost2010Prop39
140
1.0
102
RTVSPost2010PropOp39
 70
     1
102
RTVSPost2010Prop40
 90
        0
102
RTVSPost2010PropOp40
 70
     1
102
RTVSPost2010Prop41ColorIndex
 90
       18
102
RTVSPost2010Prop41ColorRGB
 90
        0
102
RTVSPost2010PropOp41
 70
     1
102
RTVSPost2010Prop42
 90
       50
102
RTVSPost2010PropOp42
 70
     1
102
RTVSPost2010Prop43
 90
        3
102
RTVSPost2010PropOp43
 70
     1
102
RTVSPost2010Prop44ColorIndex
 90
        5
102
RTVSPost2010Prop44ColorRGB
 90
      255
102
RTVSPost2010PropOp44
 70
     1
102
RTVSPost2010Prop45
280
     0
102
RTVSPost2010PropOp45
 70
     1
102
RTVSPost2010Prop46
 90
       50
102
RTVSPost2010PropOp46
 70
     1
102
RTVSPost2010Prop47
 90
       50
102
RTVSPost2010PropOp47
 70
     1
102
RTVSPost2010Prop48
 90
       50
102
RTVSPost2010PropOp48
 70
     1
102
RTVSPost2010Prop49
280
     0
102
RTVSPost2010PropOp49
 70
     1
102
RTVSPost2010Prop50
 90
       50
102
RTVSPost2010PropOp50
 70
     1
102
RTVSPost2010Prop51ColorIndex
 90
      256
102
RTVSPost2010Prop51ColorRGB
 90
-16777216
102
RTVSPost2010PropOp51
 70
     0
102
RTVSPost2010Prop52
140
1.0
102
RTVSPost2010PropOp52
 70
     0
102
RTVSPost2010Prop53
 90
        2
102
RTVSPost2010PropOp53
 70
     1
102
RTVSPost2010Prop54
  1
strokes_ogs.tif
102
RTVSPost2010PropOp54
 70
     1
102
RTVSPost2010Prop55
280
     0
102
RTVSPost2010PropOp55
 70
     1
102
RTVSPost2010Prop56
140
1.0
102
RTVSPost2010PropOp56
 70
     1
102
RTVSPost2010Prop57
140
1.0
102
RTVSPost2010PropOp57
 70
     1
102
RTVSPropertyOp0
 70
     1
102
RTVSPropertyOp1
 70
     1
102
RTVSPropertyOp2
 70
     1
102
RTVSPropertyOp3
 70
     1
102
RTVSPropertyOp4
 70
     1
102
RTVSPropertyOp5
 70
     1
102
RTVSPropertyOp6
 70
     1
102
RTVSPropertyOp7
 70
     1
102
RTVSPropertyOp8
 70
     1
102
RTVSPropertyOp9
 70
     1
102
RTVSPropertyOp10
 70
     1
102
RTVSPropertyOp11
 70
     1
102
RTVSPropertyOp12
 70
     1
102
RTVSPropertyOp13
 70
     1
102
RTVSPropertyOp14
 70
     1
102
RTVSPropertyOp15
 70
     1
102
RTVSPropertyOp16
 70
     1
102
RTVSPropertyOp17
 70
     1
102
RTVSPropertyOp18
 70
     1
102
RTVSPropertyOp19
 70
     1
102
RTVSPropertyOp20
 70
     1
102
RTVSPropertyOp21
 70
     1
102
RTVSPropertyOp22
 70
     1
102
RTVSPropertyOp23
 70
     1
102
RTVSPropertyOp24
 70
     1
102
RTVSPropertyOp25
 70
     1
102
RTVSPropertyOp26
 70
     1
102
RTVSPropertyOp27
 70
     1
102
RTVSPropertyOp28
 70
     1
102
RTVSPropertyOp29
 70
     1
102
RTVSPropertyOp30
 70
     1
102
RTVSPropertyOp31
 70
     1
102
RTVSPropertyOp32
 70
     1
102
RTVSPropertyOp33
 70
     1
102
RTVSPropertyOp34
 70
     1
102
RTVSPropertyOp35
 70
     1
102
RTVSPropertyOp36
 70
     1
102
RTVSPropertyOp37
 70
     1
102
RTVSPropertyOp38
 70
     1
102
RTVSPropertyOp39
 70
     1
102
RTVSPropertyOp40
 70
     1
102
RTVSPropertyOp41
 70
     1
102
RTVSPropertyOp42
 70
     1
102
RTVSPropertyOp43
 70
     1
102
RTVSPropertyOp44
 70
     1
102
RTVSPropertyOp45
 70
     1
102
RTVSPropertyOp46
 70
     1
102
RTVSPropertyOp47
 70
     1
102
RTVSPropertyOp48
 70
     1
102
RTVSPropertyOp49
 70
     1
102
RTVSPropertyOp50
 70
     1
102
RTVSPropertyOp51
 70
     0
102
RTVSPropertyOp52
 70
     0
102
RTVSPropertyOp53
 70
     1
102
RTVSPropertyOp54
 70
     1
102
RTVSPropertyOp55
 70
     1
102
RTVSPropertyOp56
 70
     1
102
RTVSPropertyOp57
 70
     1
102
RTVSPropertyOp58
 70
     1
102
RTVSPropertyOp59
 70
     1
102
RTVSPropertyOp60
 70
     1
102
RTVSPropertyOp61
 70
     1
102
RTVSPropertyOp62
 70
     1
  0
XRECORD
  5
39C
102
{ACAD_REACTORS
330
39B
102
}
330
39B
100
AcDbXrecord
280
     1
102
RTVSPost2010Prop28
280
     0
102
RTVSPost2010PropOp28
 70
     1
102
RTVSPost2010Prop29
280
     1
102
RTVSPost2010PropOp29
 70
     1
102
RTVSPost2010Prop30
280
     1
102
RTVSPost2010PropOp30
 70
     1
102
RTVSPost2010Prop31
280
     0
102
RTVSPost2010PropOp31
 70
     1
102
RTVSPost2010Prop32
280
     0
102
RTVSPost2010PropOp32
 70
     1
102
RTVSPost2010Prop33
280
     0
102
RTVSPost2010PropOp33
 70
     1
102
RTVSPost2010Prop34
280
     0
102
RTVSPost2010PropOp34
 70
     1
102
RTVSPost2010Prop35
280
     0
102
RTVSPost2010PropOp35
 70
     1
102
RTVSPost2010Prop36
280
     0
102
RTVSPost2010PropOp36
 70
     1
102
RTVSPost2010Prop37
 90
       50
102
RTVSPost2010PropOp37
 70
     1
102
RTVSPost2010Prop38
140
0.0
102
RTVSPost2010PropOp38
 70
     1
102
RTVSPost2010Prop39
140
1.0
102
RTVSPost2010PropOp39
 70
     1
102
RTVSPost2010Prop40
 90
        0
102
RTVSPost2010PropOp40
 70
     1
102
RTVSPost2010Prop41ColorIndex
 90
       18
102
RTVSPost2010Prop41ColorRGB
 90
        0
102
RTVSPost2010PropOp41
 70
     1
102
RTVSPost2010Prop42
 90
       50
102
RTVSPost2010PropOp42
 70
     1
102
RTVSPost2010Prop43
 90
        3
102
RTVSPost2010PropOp43
 70
     1
102
RTVSPost2010Prop44ColorIndex
 90
        5
102
RTVSPost2010Prop44ColorRGB
 90
      255
102
RTVSPost2010PropOp44
 70
     1
102
RTVSPost2010Prop45
280
     0
102
RTVSPost2010PropOp45
 70
     1
102
RTVSPost2010Prop46
 90
       50
102
RTVSPost2010PropOp46
 70
     1
102
RTVSPost2010Prop47
 90
       50
102
RTVSPost2010PropOp47
 70
     1
102
RTVSPost2010Prop48
 90
       50
102
RTVSPost2010PropOp48
 70
     1
102
RTVSPost2010Prop49
280
     0
102
RTVSPost2010PropOp49
 70
     1
102
RTVSPost2010Prop50
 90
       50
102
RTVSPost2010PropOp50
 70
     1
102
RTVSPost2010Prop51ColorIndex
 90
      256
102
RTVSPost2010Prop51ColorRGB
 90
-16777216
102
RTVSPost2010PropOp51
 70
     0
102
RTVSPost2010Prop52
140
1.0
102
RTVSPost2010PropOp52
 70
     0
102
RTVSPost2010Prop53
 90
        2
102
RTVSPost2010PropOp53
 70
     1
102
RTVSPost2010Prop54
  1
strokes_ogs.tif
102
RTVSPost2010PropOp54
 70
     1
102
RTVSPost2010Prop55
280
     0
102
RTVSPost2010PropOp55
 70
     1
102
RTVSPost2010Prop56
140
1.0
102
RTVSPost2010PropOp56
 70
     1
102
RTVSPost2010Prop57
140
1.0
102
RTVSPost2010PropOp57
 70
     1
102
RTVSPropertyOp0
 70
     1
102
RTVSPropertyOp1
 70
     1
102
RTVSPropertyOp2
 70
     1
102
RTVSPropertyOp3
 70
     1
102
RTVSPropertyOp4
 70
     1
102
RTVSPropertyOp5
 70
     1
102
RTVSPropertyOp6
 70
     1
102
RTVSPropertyOp7
 70
     1
102
RTVSPropertyOp8
 70
     1
102
RTVSPropertyOp9
 70
     1
102
RTVSPropertyOp10
 70
     1
102
RTVSPropertyOp11
 70
     1
102
RTVSPropertyOp12
 70
     1
102
RTVSPropertyOp13
 70
     1
102
RTVSPropertyOp14
 70
     1
102
RTVSPropertyOp15
 70
     1
102
RTVSPropertyOp16
 70
     1
102
RTVSPropertyOp17
 70
     1
102
RTVSPropertyOp18
 70
     1
102
RTVSPropertyOp19
 70
     1
102
RTVSPropertyOp20
 70
     1
102
RTVSPropertyOp21
 70
     1
102
RTVSPropertyOp22
 70
     1
102
RTVSPropertyOp23
 70
     1
102
RTVSPropertyOp24
 70
     1
102
RTVSPropertyOp25
 70
     1
102
RTVSPropertyOp26
 70
     1
102
RTVSPropertyOp27
 70
     1
102
RTVSPropertyOp28
 70
     1
102
RTVSPropertyOp29
 70
     1
102
RTVSPropertyOp30
 70
     1
102
RTVSPropertyOp31
 70
     1
102
RTVSPropertyOp32
 70
     1
102
RTVSPropertyOp33
 70
     1
102
RTVSPropertyOp34
 70
     1
102
RTVSPropertyOp35
 70
     1
102
RTVSPropertyOp36
 70
     1
102
RTVSPropertyOp37
 70
     1
102
RTVSPropertyOp38
 70
     1
102
RTVSPropertyOp39
 70
     1
102
RTVSPropertyOp40
 70
     1
102
RTVSPropertyOp41
 70
     1
102
RTVSPropertyOp42
 70
     1
102
RTVSPropertyOp43
 70
     1
102
RTVSPropertyOp44
 70
     1
102
RTVSPropertyOp45
 70
     1
102
RTVSPropertyOp46
 70
     1
102
RTVSPropertyOp47
 70
     1
102
RTVSPropertyOp48
 70
     1
102
RTVSPropertyOp49
 70
     1
102
RTVSPropertyOp50
 70
     1
102
RTVSPropertyOp51
 70
     0
102
RTVSPropertyOp52
 70
     0
102
RTVSPropertyOp53
 70
     1
102
RTVSPropertyOp54
 70
     1
102
RTVSPropertyOp55
 70
     1
102
RTVSPropertyOp56
 70
     1
102
RTVSPropertyOp57
 70
     1
102
RTVSPropertyOp58
 70
     1
102
RTVSPropertyOp59
 70
     1
102
RTVSPropertyOp60
 70
     1
102
RTVSPropertyOp61
 70
     1
102
RTVSPropertyOp62
 70
     1
  0
XRECORD
  5
38E
102
{ACAD_REACTORS
330
38D
102
}
330
38D
100
AcDbXrecord
280
     1
102
RTVSPost2010Prop28
280
     0
102
RTVSPost2010PropOp28
 70
     1
102
RTVSPost2010Prop29
280
     1
102
RTVSPost2010PropOp29
 70
     1
102
RTVSPost2010Prop30
280
     1
102
RTVSPost2010PropOp30
 70
     1
102
RTVSPost2010Prop31
280
     0
102
RTVSPost2010PropOp31
 70
     1
102
RTVSPost2010Prop32
280
     0
102
RTVSPost2010PropOp32
 70
     1
102
RTVSPost2010Prop33
280
     0
102
RTVSPost2010PropOp33
 70
     1
102
RTVSPost2010Prop34
280
     0
102
RTVSPost2010PropOp34
 70
     1
102
RTVSPost2010Prop35
280
     0
102
RTVSPost2010PropOp35
 70
     1
102
RTVSPost2010Prop36
280
     0
102
RTVSPost2010PropOp36
 70
     1
102
RTVSPost2010Prop37
 90
       50
102
RTVSPost2010PropOp37
 70
     1
102
RTVSPost2010Prop38
140
0.0
102
RTVSPost2010PropOp38
 70
     1
102
RTVSPost2010Prop39
140
1.0
102
RTVSPost2010PropOp39
 70
     1
102
RTVSPost2010Prop40
 90
        0
102
RTVSPost2010PropOp40
 70
     1
102
RTVSPost2010Prop41ColorIndex
 90
       18
102
RTVSPost2010Prop41ColorRGB
 90
        0
102
RTVSPost2010PropOp41
 70
     1
102
RTVSPost2010Prop42
 90
       50
102
RTVSPost2010PropOp42
 70
     1
102
RTVSPost2010Prop43
 90
        3
102
RTVSPost2010PropOp43
 70
     1
102
RTVSPost2010Prop44ColorIndex
 90
        5
102
RTVSPost2010Prop44ColorRGB
 90
      255
102
RTVSPost2010PropOp44
 70
     1
102
RTVSPost2010Prop45
280
     0
102
RTVSPost2010PropOp45
 70
     1
102
RTVSPost2010Prop46
 90
       50
102
RTVSPost2010PropOp46
 70
     1
102
RTVSPost2010Prop47
 90
       50
102
RTVSPost2010PropOp47
 70
     1
102
RTVSPost2010Prop48
 90
       50
102
RTVSPost2010PropOp48
 70
     1
102
RTVSPost2010Prop49
280
     0
102
RTVSPost2010PropOp49
 70
     1
102
RTVSPost2010Prop50
 90
       50
102
RTVSPost2010PropOp50
 70
     1
102
RTVSPost2010Prop51ColorIndex
 90
      256
102
RTVSPost2010Prop51ColorRGB
 90
-16777216
102
RTVSPost2010PropOp51
 70
     0
102
RTVSPost2010Prop52
140
1.0
102
RTVSPost2010PropOp52
 70
     0
102
RTVSPost2010Prop53
 90
        2
102
RTVSPost2010PropOp53
 70
     1
102
RTVSPost2010Prop54
  1
strokes_ogs.tif
102
RTVSPost2010PropOp54
 70
     1
102
RTVSPost2010Prop55
280
     0
102
RTVSPost2010PropOp55
 70
     1
102
RTVSPost2010Prop56
140
1.0
102
RTVSPost2010PropOp56
 70
     1
102
RTVSPost2010Prop57
140
1.0
102
RTVSPost2010PropOp57
 70
     1
102
RTVSPropertyOp0
 70
     1
102
RTVSPropertyOp1
 70
     1
102
RTVSPropertyOp2
 70
     1
102
RTVSPropertyOp3
 70
     1
102
RTVSPropertyOp4
 70
     1
102
RTVSPropertyOp5
 70
     1
102
RTVSPropertyOp6
 70
     1
102
RTVSPropertyOp7
 70
     1
102
RTVSPropertyOp8
 70
     1
102
RTVSPropertyOp9
 70
     1
102
RTVSPropertyOp10
 70
     1
102
RTVSPropertyOp11
 70
     1
102
RTVSPropertyOp12
 70
     1
102
RTVSPropertyOp13
 70
     1
102
RTVSPropertyOp14
 70
     1
102
RTVSPropertyOp15
 70
     1
102
RTVSPropertyOp16
 70
     1
102
RTVSPropertyOp17
 70
     1
102
RTVSPropertyOp18
 70
     1
102
RTVSPropertyOp19
 70
     1
102
RTVSPropertyOp20
 70
     1
102
RTVSPropertyOp21
 70
     1
102
RTVSPropertyOp22
 70
     1
102
RTVSPropertyOp23
 70
     1
102
RTVSPropertyOp24
 70
     1
102
RTVSPropertyOp25
 70
     1
102
RTVSPropertyOp26
 70
     1
102
RTVSPropertyOp27
 70
     1
102
RTVSPropertyOp28
 70
     1
102
RTVSPropertyOp29
 70
     1
102
RTVSPropertyOp30
 70
     1
102
RTVSPropertyOp31
 70
     1
102
RTVSPropertyOp32
 70
     1
102
RTVSPropertyOp33
 70
     1
102
RTVSPropertyOp34
 70
     1
102
RTVSPropertyOp35
 70
     1
102
RTVSPropertyOp36
 70
     1
102
RTVSPropertyOp37
 70
     1
102
RTVSPropertyOp38
 70
     1
102
RTVSPropertyOp39
 70
     1
102
RTVSPropertyOp40
 70
     1
102
RTVSPropertyOp41
 70
     1
102
RTVSPropertyOp42
 70
     1
102
RTVSPropertyOp43
 70
     1
102
RTVSPropertyOp44
 70
     1
102
RTVSPropertyOp45
 70
     1
102
RTVSPropertyOp46
 70
     1
102
RTVSPropertyOp47
 70
     1
102
RTVSPropertyOp48
 70
     1
102
RTVSPropertyOp49
 70
     1
102
RTVSPropertyOp50
 70
     1
102
RTVSPropertyOp51
 70
     0
102
RTVSPropertyOp52
 70
     0
102
RTVSPropertyOp53
 70
     1
102
RTVSPropertyOp54
 70
     1
102
RTVSPropertyOp55
 70
     1
102
RTVSPropertyOp56
 70
     1
102
RTVSPropertyOp57
 70
     1
102
RTVSPropertyOp58
 70
     1
102
RTVSPropertyOp59
 70
     1
102
RTVSPropertyOp60
 70
     1
102
RTVSPropertyOp61
 70
     1
102
RTVSPropertyOp62
 70
     1
  0
XRECORD
  5
3AE
102
{ACAD_REACTORS
330
3AD
102
}
330
3AD
100
AcDbXrecord
280
     1
102
RTVSPost2010Prop28
280
     0
102
RTVSPost2010PropOp28
 70
     1
102
RTVSPost2010Prop29
280
     1
102
RTVSPost2010PropOp29
 70
     1
102
RTVSPost2010Prop30
280
     1
102
RTVSPost2010PropOp30
 70
     1
102
RTVSPost2010Prop31
280
     0
102
RTVSPost2010PropOp31
 70
     1
102
RTVSPost2010Prop32
280
     0
102
RTVSPost2010PropOp32
 70
     1
102
RTVSPost2010Prop33
280
     0
102
RTVSPost2010PropOp33
 70
     1
102
RTVSPost2010Prop34
280
     0
102
RTVSPost2010PropOp34
 70
     1
102
RTVSPost2010Prop35
280
     0
102
RTVSPost2010PropOp35
 70
     1
102
RTVSPost2010Prop36
280
     0
102
RTVSPost2010PropOp36
 70
     1
102
RTVSPost2010Prop37
 90
       50
102
RTVSPost2010PropOp37
 70
     1
102
RTVSPost2010Prop38
140
0.0
102
RTVSPost2010PropOp38
 70
     1
102
RTVSPost2010Prop39
140
1.0
102
RTVSPost2010PropOp39
 70
     1
102
RTVSPost2010Prop40
 90
        0
102
RTVSPost2010PropOp40
 70
     1
102
RTVSPost2010Prop41ColorIndex
 90
       18
102
RTVSPost2010Prop41ColorRGB
 90
        0
102
RTVSPost2010PropOp41
 70
     1
102
RTVSPost2010Prop42
 90
       50
102
RTVSPost2010PropOp42
 70
     1
102
RTVSPost2010Prop43
 90
        3
102
RTVSPost2010PropOp43
 70
     1
102
RTVSPost2010Prop44ColorIndex
 90
        5
102
RTVSPost2010Prop44ColorRGB
 90
      255
102
RTVSPost2010PropOp44
 70
     1
102
RTVSPost2010Prop45
280
     0
102
RTVSPost2010PropOp45
 70
     1
102
RTVSPost2010Prop46
 90
       50
102
RTVSPost2010PropOp46
 70
     1
102
RTVSPost2010Prop47
 90
       50
102
RTVSPost2010PropOp47
 70
     1
102
RTVSPost2010Prop48
 90
       50
102
RTVSPost2010PropOp48
 70
     1
102
RTVSPost2010Prop49
280
     0
102
RTVSPost2010PropOp49
 70
     1
102
RTVSPost2010Prop50
 90
       50
102
RTVSPost2010PropOp50
 70
     1
102
RTVSPost2010Prop51ColorIndex
 90
      256
102
RTVSPost2010Prop51ColorRGB
 90
-16777216
102
RTVSPost2010PropOp51
 70
     0
102
RTVSPost2010Prop52
140
1.0
102
RTVSPost2010PropOp52
 70
     0
102
RTVSPost2010Prop53
 90
        2
102
RTVSPost2010PropOp53
 70
     1
102
RTVSPost2010Prop54
  1
strokes_ogs.tif
102
RTVSPost2010PropOp54
 70
     1
102
RTVSPost2010Prop55
280
     0
102
RTVSPost2010PropOp55
 70
     1
102
RTVSPost2010Prop56
140
1.0
102
RTVSPost2010PropOp56
 70
     1
102
RTVSPost2010Prop57
140
1.0
102
RTVSPost2010PropOp57
 70
     1
102
RTVSPropertyOp0
 70
     1
102
RTVSPropertyOp1
 70
     1
102
RTVSPropertyOp2
 70
     1
102
RTVSPropertyOp3
 70
     1
102
RTVSPropertyOp4
 70
     1
102
RTVSPropertyOp5
 70
     1
102
RTVSPropertyOp6
 70
     1
102
RTVSPropertyOp7
 70
     1
102
RTVSPropertyOp8
 70
     1
102
RTVSPropertyOp9
 70
     1
102
RTVSPropertyOp10
 70
     1
102
RTVSPropertyOp11
 70
     1
102
RTVSPropertyOp12
 70
     1
102
RTVSPropertyOp13
 70
     1
102
RTVSPropertyOp14
 70
     1
102
RTVSPropertyOp15
 70
     1
102
RTVSPropertyOp16
 70
     1
102
RTVSPropertyOp17
 70
     1
102
RTVSPropertyOp18
 70
     1
102
RTVSPropertyOp19
 70
     1
102
RTVSPropertyOp20
 70
     1
102
RTVSPropertyOp21
 70
     1
102
RTVSPropertyOp22
 70
     1
102
RTVSPropertyOp23
 70
     1
102
RTVSPropertyOp24
 70
     1
102
RTVSPropertyOp25
 70
     1
102
RTVSPropertyOp26
 70
     1
102
RTVSPropertyOp27
 70
     1
102
RTVSPropertyOp28
 70
     1
102
RTVSPropertyOp29
 70
     1
102
RTVSPropertyOp30
 70
     1
102
RTVSPropertyOp31
 70
     1
102
RTVSPropertyOp32
 70
     1
102
RTVSPropertyOp33
 70
     1
102
RTVSPropertyOp34
 70
     1
102
RTVSPropertyOp35
 70
     1
102
RTVSPropertyOp36
 70
     1
102
RTVSPropertyOp37
 70
     1
102
RTVSPropertyOp38
 70
     1
102
RTVSPropertyOp39
 70
     1
102
RTVSPropertyOp40
 70
     1
102
RTVSPropertyOp41
 70
     1
102
RTVSPropertyOp42
 70
     1
102
RTVSPropertyOp43
 70
     1
102
RTVSPropertyOp44
 70
     1
102
RTVSPropertyOp45
 70
     1
102
RTVSPropertyOp46
 70
     1
102
RTVSPropertyOp47
 70
     1
102
RTVSPropertyOp48
 70
     1
102
RTVSPropertyOp49
 70
     1
102
RTVSPropertyOp50
 70
     1
102
RTVSPropertyOp51
 70
     0
102
RTVSPropertyOp52
 70
     0
102
RTVSPropertyOp53
 70
     1
102
RTVSPropertyOp54
 70
     1
102
RTVSPropertyOp55
 70
     1
102
RTVSPropertyOp56
 70
     1
102
RTVSPropertyOp57
 70
     1
102
RTVSPropertyOp58
 70
     1
102
RTVSPropertyOp59
 70
     1
102
RTVSPropertyOp60
 70
     1
102
RTVSPropertyOp61
 70
     1
102
RTVSPropertyOp62
 70
     1
  0
ENDSEC
  0
EOF
