  0
SECTION
  2
HEADER
  9
$ACADVER
  1
AC1018
  9
$ACADMAINTVER
 70
   104
  9
$DWGCODEPAGE
  3
ANSI_1250
  9
$LASTSAVEDBY
  1
hm1535
  9
$INSBASE
 10
0.0
 20
0.0
 30
0.0
  9
$EXTMIN
 10
244.7514463333333
 20
21.404126
 30
0.0
  9
$EXTMAX
 10
587.478648
 20
414.9841726666666
 30
0.0
  9
$LIMMIN
 10
-0.5
 20
-0.5
  9
$LIMMAX
 10
5.0
 20
5.0
  9
$ORTHOMODE
 70
     0
  9
$REGENMODE
 70
     1
  9
$FILLMODE
 70
     1
  9
$QTEXTMODE
 70
     0
  9
$MIRRTEXT
 70
     1
  9
$LTSCALE
 40
1.0
  9
$ATTMODE
 70
     1
  9
$TEXTSIZE
 40
0.2
  9
$TRACEWID
 40
0.05
  9
$TEXTSTYLE
  7
Standard
  9
$CLAYER
  8
0
  9
$CELTYPE
  6
ByLayer
  9
$CECOLOR
 62
   256
  9
$CELTSCALE
 40
1.0
  9
$DISPSILH
 70
     0
  9
$DIMSCALE
 40
1.0
  9
$DIMASZ
 40
0.18
  9
$DIMEXO
 40
0.0625
  9
$DIMDLI
 40
0.38
  9
$DIMRND
 40
0.0
  9
$DIMDLE
 40
0.0
  9
$DIMEXE
 40
0.18
  9
$DIMTP
 40
0.0
  9
$DIMTM
 40
0.0
  9
$DIMTXT
 40
0.18
  9
$DIMCEN
 40
0.09
  9
$DIMTSZ
 40
0.0
  9
$DIMTOL
 70
     0
  9
$DIMLIM
 70
     0
  9
$DIMTIH
 70
     1
  9
$DIMTOH
 70
     1
  9
$DIMSE1
 70
     0
  9
$DIMSE2
 70
     0
  9
$DIMTAD
 70
     0
  9
$DIMZIN
 70
     0
  9
$DIMBLK
  1

  9
$DIMASO
 70
     1
  9
$DIMSHO
 70
     1
  9
$DIMPOST
  1

  9
$DIMAPOST
  1

  9
$DIMALT
 70
     0
  9
$DIMALTD
 70
     2
  9
$DIMALTF
 40
25.4
  9
$DIMLFAC
 40
1.0
  9
$DIMTOFL
 70
     0
  9
$DIMTVP
 40
0.0
  9
$DIMTIX
 70
     0
  9
$DIMSOXD
 70
     0
  9
$DIMSAH
 70
     0
  9
$DIMBLK1
  1

  9
$DIMBLK2
  1

  9
$DIMSTYLE
  2
Standard
  9
$DIMCLRD
 70
     0
  9
$DIMCLRE
 70
     0
  9
$DIMCLRT
 70
     0
  9
$DIMTFAC
 40
1.0
  9
$DIMGAP
 40
0.09
  9
$DIMJUST
 70
     0
  9
$DIMSD1
 70
     0
  9
$DIMSD2
 70
     0
  9
$DIMTOLJ
 70
     1
  9
$DIMTZIN
 70
     0
  9
$DIMALTZ
 70
     0
  9
$DIMALTTZ
 70
     0
  9
$DIMUPT
 70
     0
  9
$DIMDEC
 70
     4
  9
$DIMTDEC
 70
     4
  9
$DIMALTU
 70
     2
  9
$DIMALTTD
 70
     2
  9
$DIMTXSTY
  7
Standard
  9
$DIMAUNIT
 70
     0
  9
$DIMADEC
 70
     0
  9
$DIMALTRND
 40
0.0
  9
$DIMAZIN
 70
     0
  9
$DIMDSEP
 70
    46
  9
$DIMATFIT
 70
     3
  9
$DIMFRAC
 70
     0
  9
$DIMLDRBLK
  1

  9
$DIMLUNIT
 70
     2
  9
$DIMLWD
 70
    -2
  9
$DIMLWE
 70
    -2
  9
$DIMTMOVE
 70
     0
  9
$LUNITS
 70
     2
  9
$LUPREC
 70
     2
  9
$SKETCHINC
 40
0.1
  9
$FILLETRAD
 40
0.5
  9
$AUNITS
 70
     0
  9
$AUPREC
 70
     0
  9
$MENU
  1
.
  9
$ELEVATION
 40
0.0
  9
$PELEVATION
 40
0.0
  9
$THICKNESS
 40
0.0
  9
$LIMCHECK
 70
     0
  9
$CHAMFERA
 40
0.0
  9
$CHAMFERB
 40
0.0
  9
$CHAMFERC
 40
0.0
  9
$CHAMFERD
 40
0.0
  9
$SKPOLY
 70
     0
  9
$TDCREATE
 40
2458871.333078704
  9
$TDUCREATE
 40
2458871.291412419
  9
$TDUPDATE
 40
2458871.333761575
  9
$TDUUPDATE
 40
2458871.292094908
  9
$TDINDWG
 40
0.0005092708
  9
$TDUSRTIMER
 40
0.0005092708
  9
$USRTIMER
 70
     1
  9
$ANGBASE
 50
0.0
  9
$ANGDIR
 70
     0
  9
$PDMODE
 70
     0
  9
$PDSIZE
 40
0.0
  9
$PLINEWID
 40
0.0
  9
$SPLFRAME
 70
     0
  9
$SPLINETYPE
 70
     6
  9
$SPLINESEGS
 70
     8
  9
$HANDSEED
  5
3E1
  9
$SURFTAB1
 70
     6
  9
$SURFTAB2
 70
     6
  9
$SURFTYPE
 70
     6
  9
$SURFU
 70
     6
  9
$SURFV
 70
     6
  9
$UCSBASE
  2

  9
$UCSNAME
  2

  9
$UCSORG
 10
322.174849
 20
366.008075
 30
0.0
  9
$UCSXDIR
 10
1.0
 20
0.0
 30
0.0
  9
$UCSYDIR
 10
0.0
 20
1.0
 30
0.0
  9
$UCSORTHOREF
  2

  9
$UCSORTHOVIEW
 70
     0
  9
$UCSORGTOP
 10
0.0
 20
0.0
 30
0.0
  9
$UCSORGBOTTOM
 10
0.0
 20
0.0
 30
0.0
  9
$UCSORGLEFT
 10
0.0
 20
0.0
 30
0.0
  9
$UCSORGRIGHT
 10
0.0
 20
0.0
 30
0.0
  9
$UCSORGFRONT
 10
0.0
 20
0.0
 30
0.0
  9
$UCSORGBACK
 10
0.0
 20
0.0
 30
0.0
  9
$PUCSBASE
  2

  9
$PUCSNAME
  2

  9
$PUCSORG
 10
0.0
 20
0.0
 30
0.0
  9
$PUCSXDIR
 10
1.0
 20
0.0
 30
0.0
  9
$PUCSYDIR
 10
0.0
 20
1.0
 30
0.0
  9
$PUCSORTHOREF
  2

  9
$PUCSORTHOVIEW
 70
     0
  9
$PUCSORGTOP
 10
0.0
 20
0.0
 30
0.0
  9
$PUCSORGBOTTOM
 10
0.0
 20
0.0
 30
0.0
  9
$PUCSORGLEFT
 10
0.0
 20
0.0
 30
0.0
  9
$PUCSORGRIGHT
 10
0.0
 20
0.0
 30
0.0
  9
$PUCSORGFRONT
 10
0.0
 20
0.0
 30
0.0
  9
$PUCSORGBACK
 10
0.0
 20
0.0
 30
0.0
  9
$USERI1
 70
     0
  9
$USERI2
 70
     0
  9
$USERI3
 70
     0
  9
$USERI4
 70
     0
  9
$USERI5
 70
     0
  9
$USERR1
 40
0.0
  9
$USERR2
 40
0.0
  9
$USERR3
 40
0.0
  9
$USERR4
 40
0.0
  9
$USERR5
 40
0.0
  9
$WORLDVIEW
 70
     1
  9
$SHADEDGE
 70
     3
  9
$SHADEDIF
 70
    70
  9
$TILEMODE
 70
     1
  9
$MAXACTVP
 70
    64
  9
$PINSBASE
 10
0.0
 20
0.0
 30
0.0
  9
$PLIMCHECK
 70
     0
  9
$PEXTMIN
 10
-0.5
 20
-0.5
 30
-0.5
  9
$PEXTMAX
 10
5.0
 20
5.0
 30
5.0
  9
$PLIMMIN
 10
-0.5
 20
-0.5
  9
$PLIMMAX
 10
5.0
 20
5.0
  9
$UNITMODE
 70
     0
  9
$VISRETAIN
 70
     1
  9
$PLINEGEN
 70
     0
  9
$PSLTSCALE
 70
     1
  9
$TREEDEPTH
 70
  3020
  9
$CMLSTYLE
  2
Standard
  9
$CMLJUST
 70
     0
  9
$CMLSCALE
 40
1.0
  9
$PROXYGRAPHICS
 70
     1
  9
$MEASUREMENT
 70
     1
  9
$CELWEIGHT
370
    13
  9
$ENDCAPS
280
     0
  9
$JOINSTYLE
280
     0
  9
$LWDISPLAY
290
     0
  9
$INSUNITS
 70
     4
  9
$HYPERLINKBASE
  1

  9
$STYLESHEET
  1

  9
$XEDIT
290
     1
  9
$CEPSNTYPE
380
     0
  9
$PSTYLEMODE
290
     1
  9
$FINGERPRINTGUID
  2
{91277068-D77F-40BD-9872-BB881E2E6A37}
  9
$VERSIONGUID
  2
{BD0BF387-E461-BA42-8C95-BAD83A95F536}
  9
$EXTNAMES
290
     1
  9
$PSVPSCALE
 40
0.0
  9
$OLESTARTUP
290
     0
  9
$SORTENTS
280
   127
  9
$INDEXCTL
280
     0
  9
$HIDETEXT
280
     1
  9
$XCLIPFRAME
290
     0
  9
$HALOGAP
280
     0
  9
$OBSCOLOR
 70
   257
  9
$OBSLTYPE
280
     0
  9
$INTERSECTIONDISPLAY
280
     0
  9
$INTERSECTIONCOLOR
 70
   257
  9
$DIMASSOC
280
     2
  9
$PROJECTNAME
  1

  0
ENDSEC
  0
SECTION
  2
CLASSES
  0
CLASS
  1
ACDBDICTIONARYWDFLT
  2
AcDbDictionaryWithDefault
  3
ObjectDBX Classes
 90
        0
 91
        1
280
     0
281
     0
  0
CLASS
  1
VISUALSTYLE
  2
AcDbVisualStyle
  3
ObjectDBX Classes
 90
     4095
 91
       24
280
     0
281
     0
  0
CLASS
  1
MATERIAL
  2
AcDbMaterial
  3
ObjectDBX Classes
 90
     1153
 91
        3
280
     0
281
     0
  0
CLASS
  1
SCALE
  2
AcDbScale
  3
ObjectDBX Classes
 90
     1153
 91
       33
280
     0
281
     0
  0
CLASS
  1
TABLESTYLE
  2
AcDbTableStyle
  3
ObjectDBX Classes
 90
     4095
 91
        1
280
     0
281
     0
  0
CLASS
  1
MLEADERSTYLE
  2
AcDbMLeaderStyle
  3
ACDB_MLEADERSTYLE_CLASS
 90
     4095
 91
        1
280
     0
281
     0
  0
CLASS
  1
SUN
  2
AcDbSun
  3
SCENEOE
 90
     1153
 91
        0
280
     0
281
     0
  0
CLASS
  1
IMAGEDEF
  2
AcDbRasterImageDef
  3
ISM
 90
        0
 91
        1
280
     0
281
     0
  0
CLASS
  1
IMAGE
  2
AcDbRasterImage
  3
ISM
 90
     2175
 91
        1
280
     0
281
     1
  0
CLASS
  1
IMAGEDEF_REACTOR
  2
AcDbRasterImageDefReactor
  3
ISM
 90
        1
 91
        1
280
     0
281
     0
  0
CLASS
  1
DIMASSOC
  2
AcDbDimAssoc
  3
"AcDbDimAssoc|Product Desc:     AcDim ARX App For Dimension|Company:          Autodesk, Inc.|WEB Address:      www.autodesk.com"
 90
        0
 91
        5
280
     0
281
     0
  0
CLASS
  1
DICTIONARYVAR
  2
AcDbDictionaryVar
  3
ObjectDBX Classes
 90
        0
 91
        8
280
     0
281
     0
  0
CLASS
  1
CELLSTYLEMAP
  2
AcDbCellStyleMap
  3
ObjectDBX Classes
 90
     1152
 91
        2
280
     0
281
     0
  0
CLASS
  1
ACDBSECTIONVIEWSTYLE
  2
AcDbSectionViewStyle
  3
ObjectDBX Classes
 90
     1025
 91
        2
280
     0
281
     0
  0
CLASS
  1
ACDBDETAILVIEWSTYLE
  2
AcDbDetailViewStyle
  3
ObjectDBX Classes
 90
     1025
 91
        2
280
     0
281
     0
  0
CLASS
  1
RASTERVARIABLES
  2
AcDbRasterVariables
  3
ISM
 90
        0
 91
        1
280
     0
281
     0
  0
CLASS
  1
ACME_DOCUMENT
  2
AcMeDbDoc
  3
AcMeServices
 90
     1024
 91
        1
280
     0
281
     0
  0
CLASS
  1
ACMESCOPE
  2
AcMeScope
  3
AcMeServices
 90
     1024
 91
        1
280
     0
281
     0
  0
CLASS
  1
ACMECOMMANDHISTORY
  2
AcMeCommandHistory
  3
AcMeServices
 90
     1024
 91
        1
280
     0
281
     0
  0
CLASS
  1
ACIMSYSVARMAN
  2
AcImSysVarManager
  3
AcMeServices
 90
     1024
 91
        3
280
     0
281
     0
  0
CLASS
  1
ACIMINTSYSVAR
  2
AcImIntSysVar
  3
AcMeServices
 90
     1024
 91
        2
280
     0
281
     0
  0
CLASS
  1
ACMESTATEMGR
  2
AcMeStateMgr
  3
AcMeServices
 90
     1024
 91
        1
280
     0
281
     0
  0
CLASS
  1
ACDBENTITYCACHE
  2
AcMeEntityCache
  3
AcMeServices
 90
     1024
 91
        1
280
     0
281
     0
  0
CLASS
  1
ACGREFMASTER
  2
AcGrefMaster
  3
AcAttribServices
 90
     1024
 91
        1
280
     0
281
     0
  0
CLASS
  1
ACME_DATABASE
  2
AcMeDbDatabase
  3
AcMeServices
 90
     1024
 91
        1
280
     0
281
     0
  0
CLASS
  1
ACRFINSADJUSTERMGR
  2
AcRfInsAdjusterMgr
  3
AcMeServices
 90
     1024
 91
        1
280
     0
281
     0
  0
CLASS
  1
ACGREFACADMASTER
  2
AcGrefacadMaster
  3
AcGrefServices
 90
     1024
 91
        1
280
     0
281
     0
  0
CLASS
  1
AMIMASTER
  2
AmiMaster
  3
AmiServices
 90
     1024
 91
        1
280
     0
281
     0
  0
CLASS
  1
AMGSETTINGSOBJ
  2
AmgSettingsObj
  3
"AcadM|Product Description: AutoCAD Mechanical|Company: Autodesk, Inc."
 90
     1024
 91
        2
280
     0
281
     0
  0
CLASS
  1
AMDTMENUSTATEMGR
  2
AmdtMenuStateMgr
  3
McadcomServices
 90
     1024
 91
        1
280
     0
281
     0
  0
CLASS
  1
AMDTMCOMMENUSTATE
  2
AmdtMcomMenuState
  3
McadcomServices
 90
     1024
 91
        1
280
     0
281
     0
  0
CLASS
  1
MAPIAMMOUDLE
  2
MApiAmModule
  3
MApiAmServices
 90
     1024
 91
        1
280
     0
281
     0
  0
CLASS
  1
ACIMSTRSYSVAR
  2
AcImStrSysVar
  3
AcMeServices
 90
     1024
 91
        5
280
     0
281
     0
  0
CLASS
  1
AMDTAMMENUSTATE
  2
AmdtAmMenuState
  3
DesignerAssemblies_arx
 90
     1024
 91
        1
280
     0
281
     0
  0
CLASS
  1
ACAMPROJECT
  2
AcAmProject
  3
DesignerAssemblies
 90
     1024
 91
        1
280
     0
281
     0
  0
CLASS
  1
ACAMGRCOMPDEF
  2
AcAmGrCompDef
  3
DesignerAssemblies
 90
     1024
 91
        1
280
     0
281
     0
  0
CLASS
  1
ACAMCOMPDEF
  2
AcAmCompDef
  3
DesignerAssemblies
 90
     1024
 91
        1
280
     0
281
     0
  0
CLASS
  1
ACAMCOMPDEFMGR
  2
AcAmCompDefMgr
  3
DesignerAssemblies
 90
     1024
 91
        1
280
     0
281
     0
  0
CLASS
  1
AMCONTEXTMGR
  2
AcAmContextMgr
  3
DesignerAssemblies
 90
     1024
 91
        1
280
     0
281
     0
  0
CLASS
  1
ACAMCONTEXTMODELER
  2
AcAmContextModeler
  3
DesignerAssemblies
 90
     1024
 91
        1
280
     0
281
     0
  0
CLASS
  1
ACMDATADICTIONARY
  2
AcmDataDictionary
  3
"AcmSymBB|Product Description: AutoCAD Mechanical|Company: Autodesk, Inc."
 90
     1024
 91
        1
280
     0
281
     0
  0
CLASS
  1
ACAMGRCOMPDEFSET
  2
AcAmGrCompDefSet
  3
DesignerAssemblies
 90
     1024
 91
        1
280
     0
281
     0
  0
CLASS
  1
AMDTBROWSERDBTAB
  2
AmdtBrowserDbTab
  3
McadcomServices
 90
     1024
 91
        1
280
     0
281
     0
  0
CLASS
  1
CBROWSERAPPOBJECT
  2
CBrowserAppObject
  3
McadcomServices
 90
     1024
 91
        2
280
     0
281
     0
  0
CLASS
  1
DM_PLACEHOLDER
  2
AcDmSelsetPlaceholder
  3
McadcomServices
 90
     1024
 91
        1
280
     0
281
     0
  0
CLASS
  1
ACMSTANDARDISO
  2
AcmStandardISO
  3
"Amdt_StdImp|Product Description: AutoCAD Mechanical|Company: Autodesk, Inc."
 90
     1024
 91
        1
280
     0
281
     0
  0
CLASS
  1
AMDTEDGESTANDARDISO13715
  2
AmdtEdgeStdISO13715
  3
"Amdt_StdImp|Product Description: AutoCAD Mechanical|Company: Autodesk, Inc."
 90
     1024
 91
        1
280
     0
281
     0
  0
CLASS
  1
ACMSURFSTANDARDISO2002
  2
AcmSurfTextStdISO2002
  3
"Amdt_StdImp|Product Description: AutoCAD Mechanical|Company: Autodesk, Inc."
 90
     1024
 91
        1
280
     0
281
     0
  0
CLASS
  1
ACMFCFSTANDARDISO2012
  2
AcmFCFStdISO2012
  3
"Amdt_StdImp|Product Description: AutoCAD Mechanical|Company: Autodesk, Inc."
 90
     1024
 91
        1
280
     0
281
     0
  0
CLASS
  1
ACMWELDSTANDARDISO
  2
AcmWeldingStdISO
  3
"Amdt_StdImp|Product Description: AutoCAD Mechanical|Company: Autodesk, Inc."
 90
     1024
 91
        1
280
     0
281
     0
  0
CLASS
  1
ACMIDSTANDARDISO2012
  2
AcmIdStdISO2012
  3
"Amdt_StdImp|Product Description: AutoCAD Mechanical|Company: Autodesk, Inc."
 90
     1024
 91
        1
280
     0
281
     0
  0
CLASS
  1
ACMDATUMSTANDARDISO2012
  2
AcmDatumStdISO2012
  3
"Amdt_StdImp|Product Description: AutoCAD Mechanical|Company: Autodesk, Inc."
 90
     1024
 91
        1
280
     0
281
     0
  0
CLASS
  1
ACMBOMSTANDARDISO
  2
AcmBOMStdISO
  3
"Amdt_StdImp|Product Description: AutoCAD Mechanical|Company: Autodesk, Inc."
 90
     1024
 91
        1
280
     0
281
     0
  0
CLASS
  1
ACMDETAILSTANDARDISO
  2
AmdtDetailSymStdISO
  3
"Amdt_StdImp|Product Description: AutoCAD Mechanical|Company: Autodesk, Inc."
 90
     1024
 91
        1
280
     0
281
     0
  0
CLASS
  1
ACMSECTIONSTANDARDISO2001
  2
AmdtSectionSymStdISO2001
  3
"Amdt_StdImp|Product Description: AutoCAD Mechanical|Company: Autodesk, Inc."
 90
     1024
 91
        1
280
     0
281
     0
  0
CLASS
  1
ACMCENTERLINESTANDARDISO
  2
AmdtCenterLineStdISO
  3
"Amdt_StdImp|Product Description: AutoCAD Mechanical|Company: Autodesk, Inc."
 90
     1024
 91
        1
280
     0
281
     0
  0
CLASS
  1
ACMTHREADLINESTANDARDISO
  2
AmdtThreadLineStdISO
  3
"Amdt_StdImp|Product Description: AutoCAD Mechanical|Company: Autodesk, Inc."
 90
     1024
 91
        1
280
     0
281
     0
  0
CLASS
  1
ACMNOTESTANDARDISO
  2
AmdtNoteStdISO
  3
"Amdt_StdImp|Product Description: AutoCAD Mechanical|Company: Autodesk, Inc."
 90
     1024
 91
        1
280
     0
281
     0
  0
CLASS
  1
ACMTAPERSTANDARDISO
  2
AcmTaperStdISO
  3
"Amdt_StdImp|Product Description: AutoCAD Mechanical|Company: Autodesk, Inc."
 90
     1024
 91
        1
280
     0
281
     0
  0
CLASS
  1
ACMANOOTATIONVIEWSTANDARDISO
  2
AmdtAnViewStdISO
  3
"Amdt_StdImp|Product Description: AutoCAD Mechanical|Company: Autodesk, Inc."
 90
     1024
 91
        1
280
     0
281
     0
  0
CLASS
  1
ACAMGLAYSTD
  2
AcAmgLayStd
  3
"AmgLay|Product Description: AutoCAD Mechanical|Company: Autodesk, Inc."
 90
     1024
 91
        1
280
     0
281
     0
  0
CLASS
  1
ACAMGTITLESTD
  2
AcAmgTitleStd
  3
"AmgTitle|Product Description: AutoCAD Mechanical|Company: Autodesk, Inc."
 90
     1024
 91
        1
280
     0
281
     0
  0
CLASS
  1
ACAMGDIMSTD
  2
AcAmgDimStd
  3
"AmgDim|Product Description: AutoCAD Mechanical|Company: Autodesk, Inc."
 90
     1024
 91
        1
280
     0
281
     0
  0
CLASS
  1
AMGOBJPROPCFG
  2
AmgObjPropCfg
  3
"AmgLay|Product Description: AutoCAD Mechanical|Company: Autodesk, Inc."
 90
     1024
 91
        1
280
     0
281
     0
  0
CLASS
  1
ACAMGHOLECHARTSTDISO
  2
AcAmgHoleChartStdISO
  3
"AmgDim" "Product Description: AutoCAD Mechanical|Company: Autodesk, Inc."
 90
     1024
 91
        1
280
     0
281
     0
  0
CLASS
  1
ACMSECTIONSTANDARDCUSTOM
  2
AmdtSectionSymStdCustom
  3
"Amdt_StdImp|Product Description: AutoCAD Mechanical|Company: Autodesk, Inc."
 90
     1024
 91
        1
280
     0
281
     0
  0
CLASS
  1
ACMDETAILTANDARDCUSTOM
  2
AmdtDetailSymStdCustom
  3
"Amdt_StdImp|Product Description: AutoCAD Mechanical|Company: Autodesk, Inc."
 90
     1024
 91
        1
280
     0
281
     0
  0
CLASS
  1
FIELD
  2
AcDbField
  3
ObjectDBX Classes
 90
     1152
 91
        3
280
     0
281
     0
  0
CLASS
  1
FIELDLIST
  2
AcDbFieldList
  3
ObjectDBX Classes
 90
     1152
 91
        1
280
     0
281
     0
  0
CLASS
  1
AMDTNOTETEMPLATEDB
  2
AmdtNoteTemplateDB
  3
"AcmSymBB" "Product Description: AutoCAD Mechanical|Company: Autodesk, Inc."
 90
     1024
 91
        7
280
     0
281
     0
  0
CLASS
  1
ACAMGFILTERDAT
  2
AcAmgFilterDat
  3
"AcadM|Product Description: AutoCAD Mechanical|Company: Autodesk, Inc."
 90
     1024
 91
        6
280
     0
281
     0
  0
CLASS
  1
SORTENTSTABLE
  2
AcDbSortentsTable
  3
ObjectDBX Classes
 90
        0
 91
        1
280
     0
281
     0
  0
ENDSEC
  0
SECTION
  2
TABLES
  0
TABLE
  2
VPORT
  5
8
330
0
100
AcDbSymbolTable
 70
    16
  0
VPORT
  5
29
330
8
100
AcDbSymbolTableRecord
100
AcDbViewportTableRecord
  2
*Active
 70
     0
 10
0.0
 20
0.0
 11
1.0
 21
1.0
 12
413.3056912397754
 22
397.9133408600678
 13
0.0
 23
0.0
 14
0.5
 24
0.5
 15
0.5
 25
0.5
 16
0.0
 26
0.0
 36
1.0
 17
0.0
 27
0.0
 37
0.0
 40
174.2308062737254
 41
2.188141391106043
 42
50.0
 43
774.963184
 44
-774.963184
 50
0.0
 51
0.0
 71
     0
 72
   100
 73
     1
 74
     3
 75
     0
 76
     0
 77
     0
 78
     0
281
     0
 65
     0
110
0.0
120
0.0
130
0.0
111
1.0
121
0.0
131
0.0
112
0.0
122
1.0
132
0.0
 79
     0
146
0.0
1001
ACAD_NAV_VCDISPLAY
1070
     3
  0
VPORT
  5
250
330
8
100
AcDbSymbolTableRecord
100
AcDbViewportTableRecord
  2
L1
 70
     0
 10
0.0
 20
0.0
 11
1.0
 21
1.0
 12
415.610837
 22
218.198736
 13
0.0
 23
0.0
 14
0.5
 24
0.5
 15
0.5
 25
0.5
 16
0.0
 26
0.0
 36
1.0
 17
0.0
 27
0.0
 37
0.0
 40
207.433333
 41
0.085602
 42
50.0
 43
774.963184
 44
-774.963184
 50
0.0
 51
0.0
 71
     0
 72
   100
 73
     1
 74
     3
 75
     0
 76
     0
 77
     0
 78
     0
281
     0
 65
     1
110
0.0
120
0.0
130
0.0
111
1.0
121
0.0
131
0.0
112
0.0
122
1.0
132
0.0
 79
     0
146
0.0
  0
VPORT
  5
251
330
8
100
AcDbSymbolTableRecord
100
AcDbViewportTableRecord
  2
L2
 70
     0
 10
0.0
 20
0.0
 11
0.5
 21
1.0
 12
0.0
 22
0.0
 13
0.0
 23
0.0
 14
0.5
 24
0.5
 15
0.5
 25
0.5
 16
0.0
 26
-1.0
 36
0.0
 17
0.0
 27
0.0
 37
0.0
 40
1478.660809
 41
0.012009
 42
50.0
 43
765.39502
 44
-765.39502
 50
0.0
 51
0.0
 71
     0
 72
   100
 73
     1
 74
     3
 75
     0
 76
     0
 77
     0
 78
     0
281
     0
 65
     1
110
0.0
120
0.0
130
0.0
111
1.0
121
0.0
131
0.0
112
0.0
122
1.0
132
0.0
 79
     0
146
0.0
  0
VPORT
  5
252
330
8
100
AcDbSymbolTableRecord
100
AcDbViewportTableRecord
  2
L2
 70
     0
 10
0.5
 20
0.0
 11
1.0
 21
1.0
 12
0.0
 22
0.0
 13
0.0
 23
0.0
 14
0.5
 24
0.5
 15
0.5
 25
0.5
 16
1.0
 26
0.0
 36
0.0
 17
0.0
 27
0.0
 37
0.0
 40
1478.660809
 41
0.012009
 42
50.0
 43
746.5698859999999
 44
-746.5698859999999
 50
0.0
 51
0.0
 71
     0
 72
   100
 73
     1
 74
     3
 75
     0
 76
     0
 77
     0
 78
     0
281
     0
 65
     1
110
0.0
120
0.0
130
0.0
111
1.0
121
0.0
131
0.0
112
0.0
122
1.0
132
0.0
 79
     0
146
0.0
  0
VPORT
  5
253
330
8
100
AcDbSymbolTableRecord
100
AcDbViewportTableRecord
  2
L3
 70
     0
 10
0.0
 20
0.5
 11
1.0
 21
1.0
 12
415.610837
 22
218.198736
 13
0.0
 23
0.0
 14
0.5
 24
0.5
 15
0.5
 25
0.5
 16
0.0
 26
0.0
 36
1.0
 17
0.0
 27
0.0
 37
0.0
 40
207.433333
 41
0.085602
 42
50.0
 43
774.963184
 44
-774.963184
 50
0.0
 51
0.0
 71
     0
 72
   100
 73
     1
 74
     3
 75
     0
 76
     0
 77
     0
 78
     0
281
     0
 65
     1
110
0.0
120
0.0
130
0.0
111
1.0
121
0.0
131
0.0
112
0.0
122
1.0
132
0.0
 79
     0
146
0.0
  0
VPORT
  5
254
330
8
100
AcDbSymbolTableRecord
100
AcDbViewportTableRecord
  2
L3
 70
     0
 10
0.0
 20
0.0
 11
1.0
 21
0.5
 12
0.0
 22
0.0
 13
0.0
 23
0.0
 14
0.5
 24
0.5
 15
0.5
 25
0.5
 16
0.0
 26
-1.0
 36
0.0
 17
0.0
 27
0.0
 37
0.0
 40
1478.660809
 41
0.012009
 42
50.0
 43
765.39502
 44
-765.39502
 50
0.0
 51
0.0
 71
     0
 72
   100
 73
     1
 74
     3
 75
     0
 76
     0
 77
     0
 78
     0
281
     0
 65
     1
110
0.0
120
0.0
130
0.0
111
1.0
121
0.0
131
0.0
112
0.0
122
1.0
132
0.0
 79
     0
146
0.0
  0
VPORT
  5
255
330
8
100
AcDbSymbolTableRecord
100
AcDbViewportTableRecord
  2
L4
 70
     0
 10
0.0
 20
0.5
 11
0.5
 21
1.0
 12
415.610837
 22
218.198736
 13
0.0
 23
0.0
 14
0.5
 24
0.5
 15
0.5
 25
0.5
 16
0.0
 26
0.0
 36
1.0
 17
0.0
 27
0.0
 37
0.0
 40
207.433333
 41
0.085602
 42
50.0
 43
774.963184
 44
-774.963184
 50
0.0
 51
0.0
 71
     0
 72
   100
 73
     1
 74
     3
 75
     0
 76
     0
 77
     0
 78
     0
281
     0
 65
     1
110
0.0
120
0.0
130
0.0
111
1.0
121
0.0
131
0.0
112
0.0
122
1.0
132
0.0
 79
     0
146
0.0
  0
VPORT
  5
256
330
8
100
AcDbSymbolTableRecord
100
AcDbViewportTableRecord
  2
L4
 70
     0
 10
0.0
 20
0.0
 11
0.5
 21
0.5
 12
0.0
 22
0.0
 13
0.0
 23
0.0
 14
0.5
 24
0.5
 15
0.5
 25
0.5
 16
0.0
 26
-1.0
 36
0.0
 17
0.0
 27
0.0
 37
0.0
 40
1478.660809
 41
0.012009
 42
50.0
 43
765.39502
 44
-765.39502
 50
0.0
 51
0.0
 71
     0
 72
   100
 73
     1
 74
     3
 75
     0
 76
     0
 77
     0
 78
     0
281
     0
 65
     1
110
0.0
120
0.0
130
0.0
111
1.0
121
0.0
131
0.0
112
0.0
122
1.0
132
0.0
 79
     0
146
0.0
  0
VPORT
  5
257
330
8
100
AcDbSymbolTableRecord
100
AcDbViewportTableRecord
  2
L4
 70
     0
 10
0.5
 20
0.0
 11
1.0
 21
0.5
 12
0.0
 22
0.0
 13
0.0
 23
0.0
 14
0.5
 24
0.5
 15
0.5
 25
0.5
 16
1.0
 26
0.0
 36
0.0
 17
0.0
 27
0.0
 37
0.0
 40
1478.660809
 41
0.012009
 42
50.0
 43
746.5698859999999
 44
-746.5698859999999
 50
0.0
 51
0.0
 71
     0
 72
   100
 73
     1
 74
     3
 75
     0
 76
     0
 77
     0
 78
     0
281
     0
 65
     1
110
0.0
120
0.0
130
0.0
111
1.0
121
0.0
131
0.0
112
0.0
122
1.0
132
0.0
 79
     0
146
0.0
  0
VPORT
  5
258
330
8
100
AcDbSymbolTableRecord
100
AcDbViewportTableRecord
  2
L4
 70
     0
 10
0.5
 20
0.5
 11
1.0
 21
1.0
 12
0.0
 22
0.0
 13
0.0
 23
0.0
 14
0.5
 24
0.5
 15
0.5
 25
0.5
 16
0.5773502691896259
 26
-0.5773502691896259
 36
0.5773502691896259
 17
0.0
 27
0.0
 37
0.0
 40
1453.705292
 41
0.012215
 42
50.0
 43
757.5245879999999
 44
-757.5245879999999
 50
0.0
 51
0.0
 71
     0
 72
   100
 73
     1
 74
     3
 75
     0
 76
     0
 77
     0
 78
     0
281
     0
 65
     1
110
0.0
120
0.0
130
0.0
111
1.0
121
0.0
131
0.0
112
0.0
122
1.0
132
0.0
 79
     0
146
0.0
  0
VPORT
  5
259
330
8
100
AcDbSymbolTableRecord
100
AcDbViewportTableRecord
  2
L6
 70
     0
 10
0.0
 20
0.5
 11
0.333333
 21
1.0
 12
0.0
 22
0.0
 13
0.0
 23
0.0
 14
0.5
 24
0.5
 15
0.5
 25
0.5
 16
0.7188730927569434
 26
-0.5850486126764433
 36
0.3754192287502549
 17
0.0
 27
0.0
 37
0.0
 40
1534.989881
 41
0.011568
 42
50.0
 43
794.5176169999999
 44
-794.5176169999999
 50
0.0
 51
0.0
 71
     0
 72
   100
 73
     1
 74
     3
 75
     0
 76
     0
 77
     0
 78
     0
281
     0
 65
     1
110
0.0
120
0.0
130
0.0
111
1.0
121
0.0
131
0.0
112
0.0
122
1.0
132
0.0
 79
     0
146
0.0
  0
VPORT
  5
25A
330
8
100
AcDbSymbolTableRecord
100
AcDbViewportTableRecord
  2
L6
 70
     0
 10
0.0
 20
0.0
 11
0.333333
 21
0.5
 12
0.0
 22
0.0
 13
0.0
 23
0.0
 14
0.5
 24
0.5
 15
0.5
 25
0.5
 16
-1.0
 26
0.0
 36
0.0
 17
0.0
 27
0.0
 37
0.0
 40
1478.660809
 41
0.012009
 42
50.0
 43
746.5698859999999
 44
-746.5698859999999
 50
0.0
 51
0.0
 71
     0
 72
   100
 73
     1
 74
     3
 75
     0
 76
     0
 77
     0
 78
     0
281
     0
 65
     1
110
0.0
120
0.0
130
0.0
111
1.0
121
0.0
131
0.0
112
0.0
122
1.0
132
0.0
 79
     0
146
0.0
  0
VPORT
  5
25B
330
8
100
AcDbSymbolTableRecord
100
AcDbViewportTableRecord
  2
L6
 70
     0
 10
0.333333
 20
0.5
 11
0.666667
 21
1.0
 12
415.610837
 22
218.198736
 13
0.0
 23
0.0
 14
0.5
 24
0.5
 15
0.5
 25
0.5
 16
0.0
 26
0.0
 36
1.0
 17
0.0
 27
0.0
 37
0.0
 40
207.433333
 41
0.085602
 42
50.0
 43
774.963184
 44
-774.963184
 50
0.0
 51
0.0
 71
     0
 72
   100
 73
     1
 74
     3
 75
     0
 76
     0
 77
     0
 78
     0
281
     0
 65
     1
110
0.0
120
0.0
130
0.0
111
1.0
121
0.0
131
0.0
112
0.0
122
1.0
132
0.0
 79
     0
146
0.0
  0
VPORT
  5
25C
330
8
100
AcDbSymbolTableRecord
100
AcDbViewportTableRecord
  2
L6
 70
     0
 10
0.333333
 20
0.0
 11
0.666667
 21
0.5
 12
0.0
 22
0.0
 13
0.0
 23
0.0
 14
0.5
 24
0.5
 15
0.5
 25
0.5
 16
0.0
 26
-1.0
 36
0.0
 17
0.0
 27
0.0
 37
0.0
 40
1478.660809
 41
0.012009
 42
50.0
 43
765.39502
 44
-765.39502
 50
0.0
 51
0.0
 71
     0
 72
   100
 73
     1
 74
     3
 75
     0
 76
     0
 77
     0
 78
     0
281
     0
 65
     1
110
0.0
120
0.0
130
0.0
111
1.0
121
0.0
131
0.0
112
0.0
122
1.0
132
0.0
 79
     0
146
0.0
  0
VPORT
  5
25D
330
8
100
AcDbSymbolTableRecord
100
AcDbViewportTableRecord
  2
L6
 70
     0
 10
0.666667
 20
0.5
 11
1.0
 21
1.0
 12
0.0
 22
0.0
 13
0.0
 23
0.0
 14
0.5
 24
0.5
 15
0.5
 25
0.5
 16
0.5773502691896259
 26
-0.5773502691896259
 36
0.5773502691896259
 17
0.0
 27
0.0
 37
0.0
 40
1453.705292
 41
0.012215
 42
50.0
 43
757.5245879999999
 44
-757.5245879999999
 50
0.0
 51
0.0
 71
     0
 72
   100
 73
     1
 74
     3
 75
     0
 76
     0
 77
     0
 78
     0
281
     0
 65
     1
110
0.0
120
0.0
130
0.0
111
1.0
121
0.0
131
0.0
112
0.0
122
1.0
132
0.0
 79
     0
146
0.0
  0
VPORT
  5
25E
330
8
100
AcDbSymbolTableRecord
100
AcDbViewportTableRecord
  2
L6
 70
     0
 10
0.666667
 20
0.0
 11
1.0
 21
0.5
 12
0.0
 22
0.0
 13
0.0
 23
0.0
 14
0.5
 24
0.5
 15
0.5
 25
0.5
 16
1.0
 26
0.0
 36
0.0
 17
0.0
 27
0.0
 37
0.0
 40
1478.660809
 41
0.012009
 42
50.0
 43
746.5698859999999
 44
-746.5698859999999
 50
0.0
 51
0.0
 71
     0
 72
   100
 73
     1
 74
     3
 75
     0
 76
     0
 77
     0
 78
     0
281
     0
 65
     1
110
0.0
120
0.0
130
0.0
111
1.0
121
0.0
131
0.0
112
0.0
122
1.0
132
0.0
 79
     0
146
0.0
  0
ENDTAB
  0
TABLE
  2
LTYPE
  5
5
330
0
100
AcDbSymbolTable
 70
    19
  0
LTYPE
  5
14
330
5
100
AcDbSymbolTableRecord
100
AcDbLinetypeTableRecord
  2
ByBlock
 70
     0
  3

 72
    65
 73
     0
 40
0.0
  0
LTYPE
  5
15
330
5
100
AcDbSymbolTableRecord
100
AcDbLinetypeTableRecord
  2
ByLayer
 70
     0
  3

 72
    65
 73
     0
 40
0.0
  0
LTYPE
  5
16
330
5
100
AcDbSymbolTableRecord
100
AcDbLinetypeTableRecord
  2
Continuous
 70
     0
  3
Solid line
 72
    65
 73
     0
 40
0.0
  0
LTYPE
  5
6E
330
5
100
AcDbSymbolTableRecord
100
AcDbLinetypeTableRecord
  2
CENTER
 70
     0
  3
____ _ ____ _ ____ _ ____
 72
    65
 73
     4
 40
47.4
 49
22.0
 74
     4
 75
     0
340
0
 46
0.0
 50
0.0
 44
0.0
 45
0.0
 49
-8.5
 74
     4
 75
     0
340
0
 46
0.0
 50
0.0
 44
0.0
 45
0.0
 49
8.5
 74
     4
 75
     0
340
0
 46
0.0
 50
0.0
 44
0.0
 45
0.0
 49
-8.5
 74
     4
 75
     0
340
0
 46
0.0
 50
0.0
 44
0.0
 45
0.0
  0
LTYPE
  5
6F
330
5
100
AcDbSymbolTableRecord
100
AcDbLinetypeTableRecord
  2
DASHDOT
 70
     0
  3
_._._._._._._._._._._._._._._._.
 72
    65
 73
     4
 40
70.0
 49
31.0
 74
     4
 75
     0
340
0
 46
0.0
 50
0.0
 44
0.0
 45
0.0
 49
-13.0
 74
     4
 75
     0
340
0
 46
0.0
 50
0.0
 44
0.0
 45
0.0
 49
13.0
 74
     4
 75
     0
340
0
 46
0.0
 50
0.0
 44
0.0
 45
0.0
 49
-13.0
 74
     4
 75
     0
340
0
 46
0.0
 50
0.0
 44
0.0
 45
0.0
  0
LTYPE
  5
70
330
5
100
AcDbSymbolTableRecord
100
AcDbLinetypeTableRecord
  2
DASHED
 70
     0
  3
__ __ __ __ __ __ __ __ __
 72
    65
 73
     2
 40
25.72
 49
12.86
 74
     4
 75
     0
340
0
 46
0.0
 50
0.0
 44
0.0
 45
0.0
 49
-12.86
 74
     4
 75
     0
340
0
 46
0.0
 50
0.0
 44
0.0
 45
0.0
  0
LTYPE
  5
71
330
5
100
AcDbSymbolTableRecord
100
AcDbLinetypeTableRecord
  2
DOT
 70
     0
  3
.........................
 72
    65
 73
     2
 40
10.0
 49
0.0
 74
     4
 75
     0
340
0
 46
0.0
 50
0.0
 44
0.0
 45
0.0
 49
-10.0
 74
     4
 75
     0
340
0
 46
0.0
 50
0.0
 44
0.0
 45
0.0
  0
LTYPE
  5
72
330
5
100
AcDbSymbolTableRecord
100
AcDbLinetypeTableRecord
  2
PHANTOM
 70
     0
  3
____ _ _ ____ _ _ _____ _ _ ____
 72
    65
 73
     6
 40
50.5
 49
18.0
 74
     4
 75
     0
340
0
 46
0.0
 50
0.0
 44
0.0
 45
0.0
 49
-6.5
 74
     4
 75
     0
340
0
 46
0.0
 50
0.0
 44
0.0
 45
0.0
 49
6.5
 74
     4
 75
     0
340
0
 46
0.0
 50
0.0
 44
0.0
 45
0.0
 49
-6.5
 74
     4
 75
     0
340
0
 46
0.0
 50
0.0
 44
0.0
 45
0.0
 49
6.5
 74
     4
 75
     0
340
0
 46
0.0
 50
0.0
 44
0.0
 45
0.0
 49
-6.5
 74
     4
 75
     0
340
0
 46
0.0
 50
0.0
 44
0.0
 45
0.0
  0
LTYPE
  5
2BA
330
5
100
AcDbSymbolTableRecord
100
AcDbLinetypeTableRecord
  2
HIDDEN
 70
     0
  3
Hidden __ __ __ __ __ __ __ __ __ __ __ __ __ _
 72
    65
 73
     2
 40
9.524999999999998
 49
6.349999999999999
 74
     0
 49
-3.174999999999999
 74
     0
  0
LTYPE
  5
2BB
330
5
100
AcDbSymbolTableRecord
100
AcDbLinetypeTableRecord
  2
PHANTOM2
 70
     0
  3
Phantom (.5x) ___ _ _ ___ _ _ ___ _ _ ___ _ _
 72
    65
 73
     6
 40
31.75
 49
15.875
 74
     0
 49
-3.174999999999999
 74
     0
 49
3.174999999999999
 74
     0
 49
-3.174999999999999
 74
     0
 49
3.174999999999999
 74
     0
 49
-3.174999999999999
 74
     0
  0
LTYPE
  5
2FA
330
5
100
AcDbSymbolTableRecord
100
AcDbLinetypeTableRecord
  2
AM_ISO02W050
 70
     0
  3
__ __ __ __ __ __ __ __ __ __ __ __ __ __ __
 72
    65
 73
     2
 40
7.5
 49
6.0
 74
     0
 49
-1.5
 74
     0
  0
LTYPE
  5
2FB
330
5
100
AcDbSymbolTableRecord
100
AcDbLinetypeTableRecord
  2
AM_ISO08W050
 70
     0
  3
____ . ____ . ____ . ____ . ____ . ____ . ____
 72
    65
 73
     4
 40
18.0
 49
12.0
 74
     0
 49
-1.5
 74
     0
 49
3.0
 74
     0
 49
-1.5
 74
     0
  0
LTYPE
  5
2FC
330
5
100
AcDbSymbolTableRecord
100
AcDbLinetypeTableRecord
  2
AM_ISO09W050
 70
     0
  3
_____ . . _____ . . _____ . . ____ .. ____
 72
    65
 73
     6
 40
22.5
 49
12.0
 74
     0
 49
-1.5
 74
     0
 49
3.0
 74
     0
 49
-1.5
 74
     0
 49
3.0
 74
     0
 49
-1.5
 74
     0
  0
LTYPE
  5
2FD
330
5
100
AcDbSymbolTableRecord
100
AcDbLinetypeTableRecord
  2
Amconstr
 70
     0
  3
_______________________
 72
    65
 73
     2
 40
9999.0
 49
9999.0
 74
     0
 49
0.0
 74
     0
  0
LTYPE
  5
2FE
330
5
100
AcDbSymbolTableRecord
100
AcDbLinetypeTableRecord
  2
AM_ISO08W050x2
 70
     0
  3
__ . __ . __ . __ . __ . __
 72
    65
 73
     4
 40
9.0
 49
6.0
 74
     0
 49
-0.75
 74
     0
 49
1.5
 74
     0
 49
-0.75
 74
     0
  0
LTYPE
  5
2FF
330
5
100
AcDbSymbolTableRecord
100
AcDbLinetypeTableRecord
  2
AM_ISO02W050x2
 70
     0
  3
 _ _ _ _ _ _ _ _ _ _ _ _
 72
    65
 73
     2
 40
3.75
 49
3.0
 74
     0
 49
-0.75
 74
     0
  0
LTYPE
  5
302
330
5
100
AcDbSymbolTableRecord
100
AcDbLinetypeTableRecord
  2
Amzigzag
 70
     0
  3
/\/-/\/-/\/-/\/-/\/-/\/
 72
    65
 73
     2
 40
11.0001
 49
0.0001
 74
     4
 75
   136
340
301
 46
0.04
 50
0.0
 44
0.0
 45
0.0
 49
-11.0
 74
     0
  0
LTYPE
  5
312
330
5
100
AcDbSymbolTableRecord
100
AcDbLinetypeTableRecord
  2
ACISOWELD
 70
     0
  3
_ _ _ _ _
 72
    65
 73
     2
 40
2.0
 49
2.0
 74
     0
 49
-1.0
 74
     0
  0
LTYPE
  5
313
330
5
100
AcDbSymbolTableRecord
100
AcDbLinetypeTableRecord
  2
ACISOTGL
 70
     0
  3
_ _ _ _ _
 72
    65
 73
     2
 40
3.0
 49
2.0
 74
     0
 49
-1.0
 74
     0
  0
LTYPE
  5
314
330
5
100
AcDbSymbolTableRecord
100
AcDbLinetypeTableRecord
  2
ACISOTGB
 70
     0
  3
__ . . __ . .
 72
    65
 73
     6
 40
9.0
 49
4.0
 74
     0
 49
-1.0
 74
     0
 49
1.0
 74
     0
 49
-1.0
 74
     0
 49
1.0
 74
     0
 49
-1.0
 74
     0
  0
LTYPE
  5
381
330
5
100
AcDbSymbolTableRecord
100
AcDbLinetypeTableRecord
  2
CENTER2
 70
     0
  3
Center (.5x) ___ _ ___ _ ___ _ ___ _ ___ _ ___
 72
    65
 73
     4
 40
1.125
 49
0.75
 74
     0
 49
-0.125
 74
     0
 49
0.125
 74
     0
 49
-0.125
 74
     0
  0
ENDTAB
  0
TABLE
  2
LAYER
  5
2
330
0
100
AcDbSymbolTable
 70
    23
  0
LAYER
  5
10
102
{ACAD_XDICTIONARY
360
38C
102
}
330
2
100
AcDbSymbolTableRecord
100
AcDbLayerTableRecord
  2
0
 70
     0
 62
     7
  6
Continuous
370
    -3
390
F
  0
LAYER
  5
78
102
{ACAD_XDICTIONARY
360
38E
102
}
330
2
100
AcDbSymbolTableRecord
100
AcDbLayerTableRecord
  2
96
 70
     0
 62
     7
420
 16777215
  6
Continuous
370
    -3
390
F
  0
LAYER
  5
1DB
330
2
100
AcDbSymbolTableRecord
100
AcDbLayerTableRecord
  2
Defpoints
 70
     0
 62
     7
  6
Continuous
290
     0
370
    -3
390
F
  0
LAYER
  5
37E
102
{ACAD_XDICTIONARY
360
390
102
}
330
2
100
AcDbSymbolTableRecord
100
AcDbLayerTableRecord
  2
1
 70
     0
 62
     4
  6
Continuous
370
    -3
390
F
  0
LAYER
  5
37F
102
{ACAD_XDICTIONARY
360
392
102
}
330
2
100
AcDbSymbolTableRecord
100
AcDbLayerTableRecord
  2
2
 70
     0
 62
     7
  6
Continuous
370
    -3
390
F
  0
LAYER
  5
380
102
{ACAD_XDICTIONARY
360
394
102
}
330
2
100
AcDbSymbolTableRecord
100
AcDbLayerTableRecord
  2
4
 70
     0
 62
     2
  6
CENTER2
370
    -3
390
F
  0
LAYER
  5
382
102
{ACAD_XDICTIONARY
360
396
102
}
330
2
100
AcDbSymbolTableRecord
100
AcDbLayerTableRecord
  2
SK1
 70
     0
 62
     4
  6
Continuous
370
    -3
390
F
  0
LAYER
  5
383
102
{ACAD_XDICTIONARY
360
398
102
}
330
2
100
AcDbSymbolTableRecord
100
AcDbLayerTableRecord
  2
SK2
 70
     0
 62
     7
  6
Continuous
370
    -3
390
F
  0
LAYER
  5
385
102
{ACAD_XDICTIONARY
360
39A
102
}
330
2
100
AcDbSymbolTableRecord
100
AcDbLayerTableRecord
  2
SK4
 70
     0
 62
     2
  6
CENTER2
370
    -3
390
F
  0
LAYER
  5
386
102
{ACAD_XDICTIONARY
360
39C
102
}
330
2
100
AcDbSymbolTableRecord
100
AcDbLayerTableRecord
  2
SK6
 70
     0
 62
     5
  6
Continuous
370
    -3
390
F
  0
LAYER
  5
387
102
{ACAD_XDICTIONARY
360
39E
102
}
330
2
100
AcDbSymbolTableRecord
100
AcDbLayerTableRecord
  2
CUT
 70
     0
 62
     1
  6
Continuous
370
    -3
390
F
  0
LAYER
  5
388
102
{ACAD_XDICTIONARY
360
3A0
102
}
330
2
100
AcDbSymbolTableRecord
100
AcDbLayerTableRecord
  2
NOCUT
 70
     0
 62
     7
  6
Continuous
370
    -3
390
F
  0
LAYER
  5
389
102
{ACAD_XDICTIONARY
360
3A2
102
}
330
2
100
AcDbSymbolTableRecord
100
AcDbLayerTableRecord
  2
80
 70
     0
 62
     6
  6
Continuous
370
    -3
390
F
  0
LAYER
  5
38A
102
{ACAD_XDICTIONARY
360
3A4
102
}
330
2
100
AcDbSymbolTableRecord
100
AcDbLayerTableRecord
  2
81
 70
     0
 62
     3
  6
Continuous
370
    -3
390
F
  0
ENDTAB
  0
TABLE
  2
STYLE
  5
3
330
0
100
AcDbSymbolTable
 70
     6
  0
STYLE
  5
11
330
3
100
AcDbSymbolTableRecord
100
AcDbTextStyleTableRecord
  2
Standard
 70
     0
 40
0.0
 41
1.0
 50
0.0
 71
     0
 42
0.2
  3
txt
  4

  0
STYLE
  5
1CF
330
3
100
AcDbSymbolTableRecord
100
AcDbTextStyleTableRecord
  2
cesky
 70
     0
 40
0.0
 41
1.0
 50
0.0
 71
     0
 42
0.2
  3
simplex.shx
  4

  0
STYLE
  5
1D0
330
3
100
AcDbSymbolTableRecord
100
AcDbTextStyleTableRecord
  2
DWGDirectTextStyle
 70
     0
 40
0.0
 41
1.0
 50
0.0
 71
     0
 42
0.2
  3
simplex
  4

  0
STYLE
  5
301
330
3
100
AcDbSymbolTableRecord
100
AcDbTextStyleTableRecord
  2

 70
     1
 40
0.0
 41
1.0
 50
0.0
 71
     0
 42
0.2
  3
genltshp.shx
  4

  0
STYLE
  5
310
330
3
100
AcDbSymbolTableRecord
100
AcDbTextStyleTableRecord
  2
ACISOTS
 70
     0
 40
0.0
 41
1.0
 50
0.0
 71
     0
 42
0.2
  3
isocp.shx
  4

  0
STYLE
  5
311
330
3
100
AcDbSymbolTableRecord
100
AcDbTextStyleTableRecord
  2
ACISOGDT
 70
     0
 40
0.0
 41
1.0
 50
0.0
 71
     0
 42
0.2
  3
amgdt.shx
  4

  0
ENDTAB
  0
TABLE
  2
VIEW
  5
6
330
0
100
AcDbSymbolTable
 70
     0
  0
ENDTAB
  0
TABLE
  2
UCS
  5
7
330
0
100
AcDbSymbolTable
 70
     0
  0
ENDTAB
  0
TABLE
  2
APPID
  5
9
330
0
100
AcDbSymbolTable
 70
    13
  0
APPID
  5
12
330
9
100
AcDbSymbolTableRecord
100
AcDbRegAppTableRecord
  2
ACAD
 70
     0
  0
APPID
  5
1D7
330
9
100
AcDbSymbolTableRecord
100
AcDbRegAppTableRecord
  2
ACAD_DSTYLE_DIMBREAK
 70
     0
  0
APPID
  5
25F
330
9
100
AcDbSymbolTableRecord
100
AcDbRegAppTableRecord
  2
ACAD_DSTYLE_DIM_LINETYPE
 70
     0
  0
APPID
  5
260
330
9
100
AcDbSymbolTableRecord
100
AcDbRegAppTableRecord
  2
ACAD_DSTYLE_DIM_EXT1_LINETYPE
 70
     0
  0
APPID
  5
261
330
9
100
AcDbSymbolTableRecord
100
AcDbRegAppTableRecord
  2
ACAD_DSTYLE_DIM_EXT2_LINETYPE
 70
     0
  0
APPID
  5
2A1
330
9
100
AcDbSymbolTableRecord
100
AcDbRegAppTableRecord
  2
ACAD_MLEADERVER
 70
     0
  0
APPID
  5
2B3
330
9
100
AcDbSymbolTableRecord
100
AcDbRegAppTableRecord
  2
MCAD_NO_VIS
 70
     0
  0
APPID
  5
2B4
330
9
100
AcDbSymbolTableRecord
100
AcDbRegAppTableRecord
  2
ACAD_TEMP_GRAPHIC
 70
     0
  0
APPID
  5
2C0
330
9
100
AcDbSymbolTableRecord
100
AcDbRegAppTableRecord
  2
ACATTRIBSERVICES
 70
     0
  0
APPID
  5
2DC
330
9
100
AcDbSymbolTableRecord
100
AcDbRegAppTableRecord
  2
DESIGNERASSEMBLIES
 70
     0
  0
APPID
  5
2F8
330
9
100
AcDbSymbolTableRecord
100
AcDbRegAppTableRecord
  2
ACAD_DSTYLE_DIMJAG
 70
     0
  0
APPID
  5
324
330
9
100
AcDbSymbolTableRecord
100
AcDbRegAppTableRecord
  2
ACAD_NAV_VCDISPLAY
 70
     0
  0
APPID
  5
3E0
330
9
100
AcDbSymbolTableRecord
100
AcDbRegAppTableRecord
  2
ACAD_DSTYLE_DIMARC_LENGTH_SYMBOL
 70
     0
  0
ENDTAB
  0
TABLE
  2
DIMSTYLE
  5
A
330
0
100
AcDbSymbolTable
 70
     8
100
AcDbDimStyleTable
 71
     0
  0
DIMSTYLE
105
27
330
A
100
AcDbSymbolTableRecord
100
AcDbDimStyleTableRecord
  2
Standard
 70
     0
340
11
1001
ACAD_DSTYLE_DIMBREAK
1070
   391
1040
6.349999999999999
  0
DIMSTYLE
105
2F7
102
{ACAD_REACTORS
330
2E5
102
}
330
A
100
AcDbSymbolTableRecord
100
AcDbDimStyleTableRecord
  2
AM_ISO
 70
     0
  4
"
 41
3.5
 42
1.0
 43
10.0
 44
1.0
 47
0.1
 48
0.1
 73
     0
 74
     0
 77
     1
 78
     8
 79
     2
140
3.5
141
0.0
143
0.0393701
146
0.71
147
1.5
172
     1
176
   256
177
   256
178
     2
271
     2
272
     3
274
     4
283
     0
284
     8
340
11
371
    -1
372
    -1
1001
ACAD_DSTYLE_DIMJAG
1070
   388
1040
1.5
1001
ACAD_DSTYLE_DIMBREAK
1070
   391
1040
3.75
1001
ACAD_DSTYLE_DIMARC_LENGTH_SYMBOL
1070
   379
1070
     1
1001
ACAD_DSTYLE_DIM_LINETYPE
1070
   380
1005
14
1001
ACAD_DSTYLE_DIM_EXT1_LINETYPE
1070
   381
1005
14
1001
ACAD_DSTYLE_DIM_EXT2_LINETYPE
1070
   382
1005
14
  0
DIMSTYLE
105
303
330
A
100
AcDbSymbolTableRecord
100
AcDbDimStyleTableRecord
  2
AM_ISO$3
 70
     0
  4
"
 41
3.5
 42
1.0
 43
10.0
 44
1.0
 47
0.1
 48
0.1
 73
     0
 77
     1
 78
     8
 79
     2
140
3.5
141
0.0
143
0.0393701
146
0.71
147
1.5
176
   256
177
   256
178
     2
271
     2
272
     3
274
     4
283
     0
284
     8
288
     1
289
     0
340
11
371
    -1
372
    -1
1001
ACAD_DSTYLE_DIMBREAK
1070
   391
1040
3.75
1001
ACAD_DSTYLE_DIMJAG
1070
   388
1040
1.5
1001
ACAD_DSTYLE_DIMARC_LENGTH_SYMBOL
1070
   379
1070
     1
1001
ACAD_DSTYLE_DIM_LINETYPE
1070
   380
1005
14
1001
ACAD_DSTYLE_DIM_EXT1_LINETYPE
1070
   381
1005
14
1001
ACAD_DSTYLE_DIM_EXT2_LINETYPE
1070
   382
1005
14
  0
DIMSTYLE
105
304
330
A
100
AcDbSymbolTableRecord
100
AcDbDimStyleTableRecord
  2
AM_ISO$4
 70
     0
  4
"
 41
3.5
 42
1.0
 43
10.0
 44
1.0
 47
0.1
 48
0.1
 73
     0
 77
     1
 78
     8
 79
     2
140
3.5
141
0.0
143
0.0393701
146
0.71
147
1.5
176
   256
177
   256
178
     2
271
     2
272
     3
274
     4
283
     0
284
     8
288
     1
289
     0
340
11
371
    -1
372
    -1
1001
ACAD_DSTYLE_DIMBREAK
1070
   391
1040
3.75
1001
ACAD_DSTYLE_DIMJAG
1070
   388
1040
1.5
1001
ACAD_DSTYLE_DIMARC_LENGTH_SYMBOL
1070
   379
1070
     1
1001
ACAD_DSTYLE_DIM_LINETYPE
1070
   380
1005
14
1001
ACAD_DSTYLE_DIM_EXT1_LINETYPE
1070
   381
1005
14
1001
ACAD_DSTYLE_DIM_EXT2_LINETYPE
1070
   382
1005
14
  0
DIMSTYLE
105
305
330
A
100
AcDbSymbolTableRecord
100
AcDbDimStyleTableRecord
  2
AM_ISO$6
 70
     0
  4
"
 41
3.5
 42
1.0
 43
10.0
 44
1.0
 47
0.1
 48
0.1
 73
     0
 74
     0
 78
     8
 79
     2
140
3.5
141
0.0
143
0.0393701
146
0.71
147
1.5
172
     1
176
   256
177
   256
178
     2
271
     2
272
     3
274
     4
283
     0
284
     8
340
11
371
    -1
372
    -1
1001
ACAD_DSTYLE_DIMBREAK
1070
   391
1040
3.75
1001
ACAD_DSTYLE_DIMJAG
1070
   388
1040
1.5
1001
ACAD_DSTYLE_DIMARC_LENGTH_SYMBOL
1070
   379
1070
     1
1001
ACAD_DSTYLE_DIM_LINETYPE
1070
   380
1005
14
1001
ACAD_DSTYLE_DIM_EXT1_LINETYPE
1070
   381
1005
14
1001
ACAD_DSTYLE_DIM_EXT2_LINETYPE
1070
   382
1005
14
  0
DIMSTYLE
105
306
330
A
100
AcDbSymbolTableRecord
100
AcDbDimStyleTableRecord
  2
AM_ISO$7
 70
     0
  4
"
 41
3.5
 42
1.0
 43
10.0
 44
1.0
 47
0.1
 48
0.1
 73
     0
 74
     0
 77
     1
 78
     8
 79
     2
140
3.5
141
0.0
143
0.0393701
146
0.71
147
1.5
172
     1
176
   256
177
   256
178
     2
271
     2
272
     3
274
     4
283
     0
284
     8
340
11
371
    -1
372
    -1
1001
ACAD_DSTYLE_DIMBREAK
1070
   391
1040
3.75
1001
ACAD_DSTYLE_DIMJAG
1070
   388
1040
1.5
1001
ACAD_DSTYLE_DIMARC_LENGTH_SYMBOL
1070
   379
1070
     1
1001
ACAD_DSTYLE_DIM_LINETYPE
1070
   380
1005
14
1001
ACAD_DSTYLE_DIM_EXT1_LINETYPE
1070
   381
1005
14
1001
ACAD_DSTYLE_DIM_EXT2_LINETYPE
1070
   382
1005
14
  0
DIMSTYLE
105
307
330
A
100
AcDbSymbolTableRecord
100
AcDbDimStyleTableRecord
  2
AM_ISO$SF
 70
     0
  4
"
 41
3.5
 42
1.0
 43
10.0
 44
1.0
 47
0.1
 48
0.1
 73
     0
 74
     0
 75
     1
 76
     1
 77
     1
 78
     8
 79
     2
140
3.5
141
0.0
143
0.0393701
146
0.71
147
1.5
172
     1
176
   256
177
   256
178
     2
271
     2
272
     3
274
     4
283
     0
284
     8
340
11
371
    -1
372
    -1
1001
ACAD_DSTYLE_DIMBREAK
1070
   391
1040
3.75
1001
ACAD_DSTYLE_DIMJAG
1070
   388
1040
1.5
1001
ACAD_DSTYLE_DIMARC_LENGTH_SYMBOL
1070
   379
1070
     1
1001
ACAD_DSTYLE_DIM_LINETYPE
1070
   380
1005
14
1001
ACAD_DSTYLE_DIM_EXT1_LINETYPE
1070
   381
1005
14
1001
ACAD_DSTYLE_DIM_EXT2_LINETYPE
1070
   382
1005
14
  0
DIMSTYLE
105
30C
330
A
100
AcDbSymbolTableRecord
100
AcDbDimStyleTableRecord
  2
AM_ISO$SH
 70
     0
  4
"
 41
3.5
 42
1.0
 43
10.0
 44
1.0
 47
0.1
 48
0.1
 73
     0
 74
     0
 75
     1
 76
     1
 77
     1
 78
     8
 79
     2
140
3.5
141
0.0
143
0.0393701
144
2.0
146
0.71
147
1.5
172
     1
173
     1
176
   256
177
   256
178
     2
271
     2
272
     3
274
     4
283
     0
284
     8
340
11
343
308
371
    -1
372
    -1
1001
ACAD_DSTYLE_DIMBREAK
1070
   391
1040
3.75
1001
ACAD_DSTYLE_DIMJAG
1070
   388
1040
1.5
1001
ACAD_DSTYLE_DIMARC_LENGTH_SYMBOL
1070
   379
1070
     1
1001
ACAD_DSTYLE_DIM_LINETYPE
1070
   380
1005
14
1001
ACAD_DSTYLE_DIM_EXT1_LINETYPE
1070
   381
1005
14
1001
ACAD_DSTYLE_DIM_EXT2_LINETYPE
1070
   382
1005
14
  0
ENDTAB
  0
TABLE
  2
BLOCK_RECORD
  5
1
330
0
100
AcDbSymbolTable
 70
    14
  0
BLOCK_RECORD
  5
1F
102
{ACAD_XDICTIONARY
360
32C
102
}
330
1
100
AcDbSymbolTableRecord
100
AcDbBlockTableRecord
  2
*Model_Space
340
22
  0
BLOCK_RECORD
  5
1B
330
1
100
AcDbSymbolTableRecord
100
AcDbBlockTableRecord
  2
*Paper_Space
340
1E
  0
BLOCK_RECORD
  5
23
330
1
100
AcDbSymbolTableRecord
100
AcDbBlockTableRecord
  2
*Paper_Space0
340
26
  0
BLOCK_RECORD
  5
1D2
330
1
100
AcDbSymbolTableRecord
100
AcDbBlockTableRecord
  2
ASSORTED_DRAFT1
340
0
  0
BLOCK_RECORD
  5
1DC
330
1
100
AcDbSymbolTableRecord
100
AcDbBlockTableRecord
  2
*D2
340
0
  0
BLOCK_RECORD
  5
1E7
330
1
100
AcDbSymbolTableRecord
100
AcDbBlockTableRecord
  2
_U0
340
0
  0
BLOCK_RECORD
  5
1F2
330
1
100
AcDbSymbolTableRecord
100
AcDbBlockTableRecord
  2
*D4
340
0
  0
BLOCK_RECORD
  5
1FE
330
1
100
AcDbSymbolTableRecord
100
AcDbBlockTableRecord
  2
_U1
340
0
  0
BLOCK_RECORD
  5
20B
330
1
100
AcDbSymbolTableRecord
100
AcDbBlockTableRecord
  2
*D6
340
0
  0
BLOCK_RECORD
  5
217
330
1
100
AcDbSymbolTableRecord
100
AcDbBlockTableRecord
  2
_U2
340
0
  0
BLOCK_RECORD
  5
223
330
1
100
AcDbSymbolTableRecord
100
AcDbBlockTableRecord
  2
*D8
340
0
  0
BLOCK_RECORD
  5
22F
330
1
100
AcDbSymbolTableRecord
100
AcDbBlockTableRecord
  2
_U3
340
0
  0
BLOCK_RECORD
  5
23B
330
1
100
AcDbSymbolTableRecord
100
AcDbBlockTableRecord
  2
*D10
340
0
  0
BLOCK_RECORD
  5
247
330
1
100
AcDbSymbolTableRecord
100
AcDbBlockTableRecord
  2
_U4
340
0
  0
BLOCK_RECORD
  5
308
330
1
100
AcDbSymbolTableRecord
100
AcDbBlockTableRecord
  2
GENAXEH
340
0
  0
ENDTAB
  0
ENDSEC
  0
SECTION
  2
BLOCKS
  0
BLOCK
  5
20
330
1F
100
AcDbEntity
  8
0
100
AcDbBlockBegin
  2
*Model_Space
 70
     0
 10
0.0
 20
0.0
 30
0.0
  3
*Model_Space
  1

  0
ENDBLK
  5
21
330
1F
100
AcDbEntity
  8
0
100
AcDbBlockEnd
  0
BLOCK
  5
1C
330
1B
100
AcDbEntity
 67
     1
  8
0
100
AcDbBlockBegin
  2
*Paper_Space
 70
     0
 10
0.0
 20
0.0
 30
0.0
  3
*Paper_Space
  1

  0
ENDBLK
  5
1D
330
1B
100
AcDbEntity
 67
     1
  8
0
100
AcDbBlockEnd
  0
BLOCK
  5
24
330
23
100
AcDbEntity
 67
     1
  8
0
100
AcDbBlockBegin
  2
*Paper_Space0
 70
     0
 10
0.0
 20
0.0
 30
0.0
  3
*Paper_Space0
  1

  0
ENDBLK
  5
25
330
23
100
AcDbEntity
 67
     1
  8
0
100
AcDbBlockEnd
  0
BLOCK
  5
1D5
330
1D2
100
AcDbEntity
  8
0
100
AcDbBlockBegin
  2
ASSORTED_DRAFT1
 70
     0
 10
0.0
 20
0.0
 30
0.0
  3
ASSORTED_DRAFT1
  1

  0
SOLID
  5
1D3
330
1D2
100
AcDbEntity
  8
0
 62
   254
370
    13
100
AcDbTrace
 10
476.517572
 20
269.186216
 30
0.0
 11
481.517568
 21
270.29469
 31
0.0
 12
481.5175759999999
 22
268.077743
 32
0.0
 13
476.517572
 23
269.186216
 33
0.0
  0
ENDBLK
  5
1D6
330
1D2
100
AcDbEntity
  8
0
100
AcDbBlockEnd
  0
BLOCK
  5
1DD
330
1DC
100
AcDbEntity
  8
0
100
AcDbBlockBegin
  2
*D2
 70
     1
 10
0.0
 20
0.0
 30
0.0
  3
*D2
  1

  0
LINE
  5
1DF
330
1DC
100
AcDbEntity
  8
0
 62
   254
370
    -2
100
AcDbLine
 10
380.271012
 20
366.008075
 30
0.0
 11
402.5829599999999
 21
366.008075
 31
0.0
  0
LINE
  5
1E0
330
1DC
100
AcDbEntity
  8
0
 62
   254
370
    -2
100
AcDbLine
 10
393.674849
 20
386.008075
 30
0.0
 11
402.5829599999999
 21
386.008075
 31
0.0
  0
LINE
  5
1E1
330
1DC
100
AcDbEntity
  8
0
 62
   254
370
    -2
100
AcDbLine
 10
401.5829599999999
 20
366.008075
 30
0.0
 11
401.5829599999999
 21
386.008075
 31
0.0
  0
SOLID
  5
1E2
330
1DC
100
AcDbEntity
  8
0
 62
   254
100
AcDbTrace
 10
402.1662929999999
 20
382.508075
 30
0.0
 11
400.9996259999999
 21
382.508075
 31
0.0
 12
401.5829599999999
 22
386.008075
 32
0.0
 13
401.5829599999999
 23
386.008075
 33
0.0
  0
MTEXT
  5
1E3
330
1DC
100
AcDbEntity
  8
0
 62
   254
370
    13
100
AcDbMText
 10
396.33296
 20
356.174742
 30
0.0
 40
3.5
 41
0.0
 71
     5
 72
     1
  1
\A1;40
  7
cesky
 11
0.0
 21
1.0
 31
0.0
 73
     1
 44
1.0
  0
POINT
  5
1E4
330
1DC
100
AcDbEntity
  8
Defpoints
 62
     0
100
AcDbPoint
 10
380.271012
 20
366.008075
 30
0.0
  0
POINT
  5
1E5
330
1DC
100
AcDbEntity
  8
Defpoints
 62
     0
100
AcDbPoint
 10
393.674849
 20
386.008075
 30
0.0
  0
POINT
  5
1E6
330
1DC
100
AcDbEntity
  8
Defpoints
 62
     0
100
AcDbPoint
 10
401.5829599999999
 20
386.008075
 30
0.0
  0
ENDBLK
  5
1DE
330
1DC
100
AcDbEntity
  8
0
100
AcDbBlockEnd
  0
BLOCK
  5
1ED
330
1E7
100
AcDbEntity
  8
0
100
AcDbBlockBegin
  2
_U0
 70
     0
 10
0.0
 20
0.0
 30
0.0
  3
_U0
  1

  0
ENDBLK
  5
1EE
330
1E7
100
AcDbEntity
  8
0
100
AcDbBlockEnd
  0
BLOCK
  5
1F3
330
1F2
100
AcDbEntity
  8
0
100
AcDbBlockBegin
  2
*D4
 70
     1
 10
0.0
 20
0.0
 30
0.0
  3
*D4
  1

  0
LINE
  5
1F5
330
1F2
100
AcDbEntity
  8
0
 62
    95
370
    -2
100
AcDbLine
 10
271.114765
 20
382.008075
 30
0.0
 11
248.605529
 21
382.008075
 31
0.0
  0
LINE
  5
1F6
330
1F2
100
AcDbEntity
  8
0
 62
    95
370
    -2
100
AcDbLine
 10
270.440022
 20
350.008075
 30
0.0
 11
248.605529
 21
350.008075
 31
0.0
  0
LINE
  5
1F7
330
1F2
100
AcDbEntity
  8
0
 62
    95
370
    -2
100
AcDbLine
 10
249.605529
 20
378.508075
 30
0.0
 11
249.605529
 21
353.508075
 31
0.0
  0
SOLID
  5
1F8
330
1F2
100
AcDbEntity
  8
0
 62
    95
100
AcDbTrace
 10
250.188863
 20
378.508075
 30
0.0
 11
249.022196
 21
378.508075
 31
0.0
 12
249.605529
 22
382.008075
 32
0.0
 13
249.605529
 23
382.008075
 33
0.0
  0
SOLID
  5
1F9
330
1F2
100
AcDbEntity
  8
0
 62
    95
100
AcDbTrace
 10
249.022196
 20
353.508075
 30
0.0
 11
250.188863
 21
353.508075
 31
0.0
 12
249.605529
 22
350.008075
 32
0.0
 13
249.605529
 23
350.008075
 33
0.0
  0
MTEXT
  5
1FA
330
1F2
100
AcDbEntity
  8
0
 62
    95
370
    13
100
AcDbMText
 10
244.355529
 20
366.008075
 30
0.0
 40
3.5
 41
0.0
 71
     5
 72
     1
  1
\A1;32
  7
cesky
 11
0.0
 21
1.0
 31
0.0
 73
     1
 44
1.0
  0
POINT
  5
1FB
330
1F2
100
AcDbEntity
  8
Defpoints
 62
     0
100
AcDbPoint
 10
271.114765
 20
382.008075
 30
0.0
  0
POINT
  5
1FC
330
1F2
100
AcDbEntity
  8
Defpoints
 62
     0
100
AcDbPoint
 10
270.440022
 20
350.008075
 30
0.0
  0
POINT
  5
1FD
330
1F2
100
AcDbEntity
  8
Defpoints
 62
     0
100
AcDbPoint
 10
249.605529
 20
350.008075
 30
0.0
  0
ENDBLK
  5
1F4
330
1F2
100
AcDbEntity
  8
0
100
AcDbBlockEnd
  0
BLOCK
  5
206
330
1FE
100
AcDbEntity
  8
0
100
AcDbBlockBegin
  2
_U1
 70
     0
 10
0.0
 20
0.0
 30
0.0
  3
_U1
  1

  0
MTEXT
  5
1FF
330
1FE
100
AcDbEntity
  8
96
  6
Continuous
 62
    95
440
 16777216
370
    13
100
AcDbMText
 10
249.418113
 20
367.534325
 30
0.0
 40
3.5
 41
0.0
 71
     7
 72
     5
  1
\W0.7045;32
  7
cesky
 11
0.0000000000000001
 21
1.0
 31
0.0
 73
     2
 44
0.8433729999999998
  0
MTEXT
  5
200
330
1FE
100
AcDbEntity
  8
96
  6
Continuous
 62
    95
440
 16777216
370
    13
100
AcDbMText
 10
249.418113
 20
360.796825
 30
0.0
 40
3.5
 41
0.0
 71
     7
 72
     5
  1
\W3.0115;\H2.63;%%c\H3.50;
  7
cesky
 11
0.0000000000000001
 21
1.0
 31
0.0
 73
     2
 44
0.8433729999999998
  0
LINE
  5
201
330
1FE
100
AcDbEntity
  8
96
 62
    95
440
 16777216
370
    13
100
AcDbLine
 10
262.674798
 20
382.008075
 30
0.0
 11
248.605529
 21
382.008075
 31
0.0
  0
LINE
  5
202
330
1FE
100
AcDbEntity
  8
96
 62
    95
440
 16777216
370
    13
100
AcDbLine
 10
262.674798
 20
350.008075
 30
0.0
 11
248.605529
 21
350.008075
 31
0.0
  0
LINE
  5
203
330
1FE
100
AcDbEntity
  8
96
 62
    95
440
 16777216
370
    13
100
AcDbLine
 10
249.605529
 20
382.008075
 30
0.0
 11
249.605529
 21
350.008075
 31
0.0
  0
SOLID
  5
204
330
1FE
100
AcDbEntity
  8
96
 62
    95
440
 16777216
370
    13
100
AcDbTrace
 10
249.605529
 20
382.008075
 30
0.0
 11
250.222674
 21
378.508077
 31
0.0
 12
248.988385
 22
378.508073
 32
0.0
 13
248.988385
 23
378.508073
 33
0.0
  0
SOLID
  5
205
330
1FE
100
AcDbEntity
  8
96
 62
    95
440
 16777216
370
    13
100
AcDbTrace
 10
249.605529
 20
350.008075
 30
0.0
 11
248.988385
 21
353.508073
 31
0.0
 12
250.222674
 22
353.508077
 32
0.0
 13
250.222674
 23
353.508077
 33
0.0
  0
ENDBLK
  5
207
330
1FE
100
AcDbEntity
  8
0
100
AcDbBlockEnd
  0
BLOCK
  5
20C
330
20B
100
AcDbEntity
  8
0
100
AcDbBlockBegin
  2
*D6
 70
     1
 10
0.0
 20
0.0
 30
0.0
  3
*D6
  1

  0
LINE
  5
20E
330
20B
100
AcDbEntity
  8
0
 62
   254
370
    -2
100
AcDbLine
 10
392.174849
 20
387.508075
 30
0.0
 11
392.174849
 21
392.70564
 31
0.0
  0
LINE
  5
20F
330
20B
100
AcDbEntity
  8
0
 62
   254
370
    -2
100
AcDbLine
 10
355.654222
 20
384.906399
 30
0.0
 11
355.654222
 21
392.70564
 31
0.0
  0
LINE
  5
210
330
20B
100
AcDbEntity
  8
0
 62
   254
370
    -2
100
AcDbLine
 10
388.674849
 20
391.70564
 30
0.0
 11
359.154222
 21
391.70564
 31
0.0
  0
SOLID
  5
211
330
20B
100
AcDbEntity
  8
0
 62
   254
100
AcDbTrace
 10
388.674849
 20
391.122306
 30
0.0
 11
388.674849
 21
392.288973
 31
0.0
 12
392.174849
 22
391.70564
 32
0.0
 13
392.174849
 23
391.70564
 33
0.0
  0
SOLID
  5
212
330
20B
100
AcDbEntity
  8
0
 62
   254
100
AcDbTrace
 10
359.154222
 20
392.288973
 30
0.0
 11
359.154222
 21
391.122306
 31
0.0
 12
355.654222
 22
391.70564
 32
0.0
 13
355.654222
 23
391.70564
 33
0.0
  0
MTEXT
  5
213
330
20B
100
AcDbEntity
  8
0
 62
   254
370
    13
100
AcDbMText
 10
373.914535
 20
396.95564
 30
0.0
 40
3.5
 41
0.0
 71
     5
 72
     1
  1
\A1;36.52
  7
cesky
 73
     1
 44
1.0
  0
POINT
  5
214
330
20B
100
AcDbEntity
  8
Defpoints
 62
     0
100
AcDbPoint
 10
392.174849
 20
387.508075
 30
0.0
  0
POINT
  5
215
330
20B
100
AcDbEntity
  8
Defpoints
 62
     0
100
AcDbPoint
 10
355.654222
 20
384.906399
 30
0.0
  0
POINT
  5
216
330
20B
100
AcDbEntity
  8
Defpoints
 62
     0
100
AcDbPoint
 10
355.654222
 20
391.70564
 30
0.0
  0
ENDBLK
  5
20D
330
20B
100
AcDbEntity
  8
0
100
AcDbBlockEnd
  0
BLOCK
  5
21E
330
217
100
AcDbEntity
  8
0
100
AcDbBlockBegin
  2
_U2
 70
     0
 10
0.0
 20
0.0
 30
0.0
  3
_U2
  1

  0
ENDBLK
  5
21F
330
217
100
AcDbEntity
  8
0
100
AcDbBlockEnd
  0
BLOCK
  5
224
330
223
100
AcDbEntity
  8
0
100
AcDbBlockBegin
  2
*D8
 70
     1
 10
0.0
 20
0.0
 30
0.0
  3
*D8
  1

  0
LINE
  5
226
330
223
100
AcDbEntity
  8
0
 62
    95
370
    -2
100
AcDbLine
 10
392.174849
 20
387.508075
 30
0.0
 11
392.174849
 21
411.443339
 31
0.0
  0
LINE
  5
227
330
223
100
AcDbEntity
  8
0
 62
    95
370
    -2
100
AcDbLine
 10
261.174798
 20
366.008075
 30
0.0
 11
261.174798
 21
411.443339
 31
0.0
  0
LINE
  5
228
330
223
100
AcDbEntity
  8
0
 62
    95
370
    -2
100
AcDbLine
 10
388.674849
 20
410.443339
 30
0.0
 11
264.674798
 21
410.443339
 31
0.0
  0
SOLID
  5
229
330
223
100
AcDbEntity
  8
0
 62
    95
100
AcDbTrace
 10
388.674849
 20
409.8600049999999
 30
0.0
 11
388.674849
 21
411.026672
 31
0.0
 12
392.174849
 22
410.443339
 32
0.0
 13
392.174849
 23
410.443339
 33
0.0
  0
SOLID
  5
22A
330
223
100
AcDbEntity
  8
0
 62
    95
100
AcDbTrace
 10
264.674798
 20
411.026672
 30
0.0
 11
264.674798
 21
409.8600049999999
 31
0.0
 12
261.174798
 22
410.443339
 32
0.0
 13
261.174798
 23
410.443339
 33
0.0
  0
MTEXT
  5
22B
330
223
100
AcDbEntity
  8
0
 62
    95
370
    13
100
AcDbMText
 10
326.674823
 20
415.693339
 30
0.0
 40
3.5
 41
0.0
 71
     5
 72
     1
  1
\A1;131
  7
cesky
 73
     1
 44
1.0
  0
POINT
  5
22C
330
223
100
AcDbEntity
  8
Defpoints
 62
     0
100
AcDbPoint
 10
392.174849
 20
387.508075
 30
0.0
  0
POINT
  5
22D
330
223
100
AcDbEntity
  8
Defpoints
 62
     0
100
AcDbPoint
 10
261.174798
 20
366.008075
 30
0.0
  0
POINT
  5
22E
330
223
100
AcDbEntity
  8
Defpoints
 62
     0
100
AcDbPoint
 10
261.174798
 20
410.443339
 30
0.0
  0
ENDBLK
  5
225
330
223
100
AcDbEntity
  8
0
100
AcDbBlockEnd
  0
BLOCK
  5
236
330
22F
100
AcDbEntity
  8
0
100
AcDbBlockBegin
  2
_U3
 70
     0
 10
0.0
 20
0.0
 30
0.0
  3
_U3
  1

  0
MTEXT
  5
230
330
22F
100
AcDbEntity
  8
96
  6
Continuous
 62
    95
440
 16777216
370
    13
100
AcDbMText
 10
323.597823
 20
410.3175059999999
 30
0.0
 40
3.5
 41
0.0
 71
     7
 72
     5
  1
\W0.9524;131
  7
cesky
 73
     2
 44
0.8433729999999998
  0
LINE
  5
231
330
22F
100
AcDbEntity
  8
96
 62
    95
440
 16777216
370
    13
100
AcDbLine
 10
392.174849
 20
387.508075
 30
0.0
 11
392.174849
 21
411.443339
 31
0.0
  0
LINE
  5
232
330
22F
100
AcDbEntity
  8
96
 62
    95
440
 16777216
370
    13
100
AcDbLine
 10
261.174798
 20
366.008075
 30
0.0
 11
261.174798
 21
411.443339
 31
0.0
  0
LINE
  5
233
330
22F
100
AcDbEntity
  8
96
 62
    95
440
 16777216
370
    13
100
AcDbLine
 10
392.174849
 20
410.443339
 30
0.0
 11
261.174798
 21
410.443339
 31
0.0
  0
SOLID
  5
234
330
22F
100
AcDbEntity
  8
96
 62
    95
440
 16777216
370
    13
100
AcDbTrace
 10
392.174849
 20
410.443339
 30
0.0
 11
388.674851
 21
409.8261939999999
 31
0.0
 12
388.674846
 22
411.060483
 32
0.0
 13
388.674846
 23
411.060483
 33
0.0
  0
SOLID
  5
235
330
22F
100
AcDbEntity
  8
96
 62
    95
440
 16777216
370
    13
100
AcDbTrace
 10
261.174798
 20
410.443339
 30
0.0
 11
264.674796
 21
411.060483
 31
0.0
 12
264.6748
 22
409.8261939999999
 32
0.0
 13
264.6748
 23
409.8261939999999
 33
0.0
  0
ENDBLK
  5
237
330
22F
100
AcDbEntity
  8
0
100
AcDbBlockEnd
  0
BLOCK
  5
23C
330
23B
100
AcDbEntity
  8
0
100
AcDbBlockBegin
  2
*D10
 70
     1
 10
0.0
 20
0.0
 30
0.0
  3
*D10
  1

  0
LINE
  5
23E
330
23B
100
AcDbEntity
  8
0
 62
   254
370
    -2
100
AcDbLine
 10
392.174849
 20
387.508075
 30
0.0
 11
392.174849
 21
402.626699
 31
0.0
  0
LINE
  5
23F
330
23B
100
AcDbEntity
  8
0
 62
   254
370
    -2
100
AcDbLine
 10
322.174849
 20
366.008075
 30
0.0
 11
322.174849
 21
402.626699
 31
0.0
  0
LINE
  5
240
330
23B
100
AcDbEntity
  8
0
 62
   254
370
    -2
100
AcDbLine
 10
388.674849
 20
401.626699
 30
0.0
 11
325.674849
 21
401.626699
 31
0.0
  0
SOLID
  5
241
330
23B
100
AcDbEntity
  8
0
 62
   254
100
AcDbTrace
 10
388.674849
 20
401.043365
 30
0.0
 11
388.674849
 21
402.2100319999999
 31
0.0
 12
392.174849
 22
401.626699
 32
0.0
 13
392.174849
 23
401.626699
 33
0.0
  0
SOLID
  5
242
330
23B
100
AcDbEntity
  8
0
 62
   254
100
AcDbTrace
 10
325.674849
 20
402.2100319999999
 30
0.0
 11
325.674849
 21
401.043365
 31
0.0
 12
322.174849
 22
401.626699
 32
0.0
 13
322.174849
 23
401.626699
 33
0.0
  0
MTEXT
  5
243
330
23B
100
AcDbEntity
  8
0
 62
   254
370
    13
100
AcDbMText
 10
357.174849
 20
406.876699
 30
0.0
 40
3.5
 41
0.0
 71
     5
 72
     1
  1
\A1;70
  7
cesky
 73
     1
 44
1.0
  0
POINT
  5
244
330
23B
100
AcDbEntity
  8
Defpoints
 62
     0
100
AcDbPoint
 10
392.174849
 20
387.508075
 30
0.0
  0
POINT
  5
245
330
23B
100
AcDbEntity
  8
Defpoints
 62
     0
100
AcDbPoint
 10
322.174849
 20
366.008075
 30
0.0
  0
POINT
  5
246
330
23B
100
AcDbEntity
  8
Defpoints
 62
     0
100
AcDbPoint
 10
322.174849
 20
401.626699
 30
0.0
  0
ENDBLK
  5
23D
330
23B
100
AcDbEntity
  8
0
100
AcDbBlockEnd
  0
BLOCK
  5
24E
330
247
100
AcDbEntity
  8
0
100
AcDbBlockBegin
  2
_U4
 70
     0
 10
0.0
 20
0.0
 30
0.0
  3
_U4
  1

  0
MTEXT
  5
248
330
247
100
AcDbEntity
  8
96
  6
Continuous
 62
   254
440
 16777216
370
    13
100
AcDbMText
 10
355.360349
 20
401.500866
 30
0.0
 40
3.5
 41
0.0
 71
     7
 72
     5
  1
\W0.7045;70
  7
cesky
 73
     2
 44
0.8433729999999998
  0
LINE
  5
249
330
247
100
AcDbEntity
  8
96
 62
   254
440
 16777216
370
    13
100
AcDbLine
 10
392.174849
 20
387.508075
 30
0.0
 11
392.174849
 21
402.626699
 31
0.0
  0
LINE
  5
24A
330
247
100
AcDbEntity
  8
96
 62
   254
440
 16777216
370
    13
100
AcDbLine
 10
322.174849
 20
366.008075
 30
0.0
 11
322.174849
 21
402.626699
 31
0.0
  0
LINE
  5
24B
330
247
100
AcDbEntity
  8
96
 62
   254
440
 16777216
370
    13
100
AcDbLine
 10
392.174849
 20
401.626699
 30
0.0
 11
322.174849
 21
401.626699
 31
0.0
  0
SOLID
  5
24C
330
247
100
AcDbEntity
  8
96
 62
   254
440
 16777216
370
    13
100
AcDbTrace
 10
392.174849
 20
401.626699
 30
0.0
 11
388.674851
 21
401.009554
 31
0.0
 12
388.674846
 22
402.243843
 32
0.0
 13
388.674846
 23
402.243843
 33
0.0
  0
SOLID
  5
24D
330
247
100
AcDbEntity
  8
96
 62
   254
440
 16777216
370
    13
100
AcDbTrace
 10
322.174849
 20
401.626699
 30
0.0
 11
325.674846
 21
402.243843
 31
0.0
 12
325.674851
 22
401.009554
 32
0.0
 13
325.674851
 23
401.009554
 33
0.0
  0
ENDBLK
  5
24F
330
247
100
AcDbEntity
  8
0
100
AcDbBlockEnd
  0
BLOCK
  5
30A
330
308
100
AcDbEntity
  8
0
370
    13
100
AcDbBlockBegin
  2
GENAXEH
 70
     0
 10
0.0
 20
0.0
 30
0.0
  3
GENAXEH
  1

  0
LINE
  5
309
330
308
100
AcDbEntity
  8
0
100
AcDbLine
 10
-1.0
 20
0.0
 30
0.0
 11
1.0
 21
0.0
 31
0.0
  0
ENDBLK
  5
30B
330
308
100
AcDbEntity
  8
0
370
    13
100
AcDbBlockEnd
  0
ENDSEC
  0
SECTION
  2
ENTITIES
  0
POINT
  5
73
102
{ACAD_REACTORS
330
38B
102
}
330
1F
100
AcDbEntity
  8
80
100
AcDbPoint
 10
322.174849
 20
366.008075
 30
0.0
  0
POINT
  5
77
330
1F
100
AcDbEntity
  8
SK6
 60
     1
100
AcDbPoint
 10
322.174798
 20
366.008075
 30
0.0
  0
POINT
  5
79
330
1F
100
AcDbEntity
  8
SK6
 60
     1
100
AcDbPoint
 10
380.271012
 20
366.008075
 30
0.0
  0
POINT
  5
7A
330
1F
100
AcDbEntity
  8
SK6
 60
     1
100
AcDbPoint
 10
261.174798
 20
366.008075
 30
0.0
  0
POINT
  5
7B
330
1F
100
AcDbEntity
  8
SK6
 60
     1
100
AcDbPoint
 10
322.174798
 20
366.008075
 30
0.0
  0
POINT
  5
7C
330
1F
100
AcDbEntity
  8
SK6
 60
     1
100
AcDbPoint
 10
261.174798
 20
366.008075
 30
0.0
  0
LINE
  5
86
330
1F
100
AcDbEntity
  8
1
100
AcDbLine
 10
353.569244
 20
347.347142
 30
0.0
 11
353.86264
 21
347.201564
 31
0.0
  0
LINE
  5
88
330
1F
100
AcDbEntity
  8
1
100
AcDbLine
 10
390.872568
 20
359.777066
 30
0.0
 11
390.921841
 21
358.950358
 31
0.0
  0
LINE
  5
89
330
1F
100
AcDbEntity
  8
1
100
AcDbLine
 10
353.86264
 20
347.201564
 30
0.0
 11
353.49561
 21
347.54985
 31
0.0
  0
LINE
  5
8A
330
1F
100
AcDbEntity
  8
1
100
AcDbLine
 10
354.175613
 20
347.187485
 30
0.0
 11
353.86264
 21
347.201564
 31
0.0
  0
LINE
  5
8B
330
1F
100
AcDbEntity
  8
1
100
AcDbLine
 10
357.4799
 20
347.01623
 30
0.0
 11
371.994988
 21
346.36326
 31
0.0
  0
LINE
  5
8C
330
1F
100
AcDbEntity
  8
1
100
AcDbLine
 10
356.029577
 20
348.169496
 30
0.0
 11
370.79135
 21
347.505428
 31
0.0
  0
LINE
  5
8D
330
1F
100
AcDbEntity
  8
1
100
AcDbLine
 10
370.786146
 20
347.770462
 30
0.0
 11
356.278059
 21
348.423117
 31
0.0
  0
LINE
  5
8E
330
1F
100
AcDbEntity
  8
1
100
AcDbLine
 10
390.872568
 20
359.777066
 30
0.0
 11
390.240809
 21
359.690934
 31
0.0
  0
LINE
  5
8F
330
1F
100
AcDbEntity
  8
1
100
AcDbLine
 10
390.872568
 20
359.777066
 30
0.0
 11
390.1373279999999
 21
361.154201
 31
0.0
  0
LINE
  5
90
330
1F
100
AcDbEntity
  8
1
100
AcDbLine
 10
390.1373279999999
 20
361.154201
 30
0.0
 11
389.877616
 21
361.022125
 31
0.0
  0
LINE
  5
91
330
1F
100
AcDbEntity
  8
1
100
AcDbLine
 10
389.34702
 20
360.752292
 30
0.0
 11
388.727166
 21
360.437067
 31
0.0
  0
LINE
  5
92
330
1F
100
AcDbEntity
  8
1
100
AcDbLine
 10
389.929842
 20
361.197207
 30
0.0
 11
390.1373279999999
 21
361.154201
 31
0.0
  0
LINE
  5
93
330
1F
100
AcDbEntity
  8
1
100
AcDbLine
 10
390.240809
 20
359.690934
 30
0.0
 11
390.68656
 21
358.967954
 31
0.0
  0
LINE
  5
94
330
1F
100
AcDbEntity
  8
1
100
AcDbLine
 10
390.240809
 20
359.690934
 30
0.0
 11
388.727166
 21
360.437067
 31
0.0
  0
LINE
  5
95
330
1F
100
AcDbEntity
  8
1
100
AcDbLine
 10
387.515285
 20
360.271
 30
0.0
 11
388.727166
 21
360.437067
 31
0.0
  0
LINE
  5
96
330
1F
100
AcDbEntity
  8
1
100
AcDbLine
 10
387.485389
 20
360.2141410000001
 30
0.0
 11
385.644193
 21
354.297737
 31
0.0
  0
LINE
  5
97
330
1F
100
AcDbEntity
  8
1
100
AcDbLine
 10
387.515285
 20
360.271
 30
0.0
 11
387.485389
 21
360.2141410000001
 31
0.0
  0
LINE
  5
98
330
1F
100
AcDbEntity
  8
1
100
AcDbLine
 10
387.515285
 20
360.271
 30
0.0
 11
386.5253029999999
 21
360.4761910000001
 31
0.0
  0
LINE
  5
99
330
1F
100
AcDbEntity
  8
1
100
AcDbLine
 10
387.485389
 20
360.2141410000001
 30
0.0
 11
387.213308
 21
360.059351
 31
0.0
  0
LINE
  5
9A
330
1F
100
AcDbEntity
  8
1
100
AcDbLine
 10
386.252267
 20
359.598161
 30
0.0
 11
386.311903
 21
359.585801
 31
0.0
  0
LINE
  5
9B
330
1F
100
AcDbEntity
  8
1
100
AcDbLine
 10
386.445302
 20
360.218533
 30
0.0
 11
387.213308
 21
360.059351
 31
0.0
  0
LINE
  5
9C
330
1F
100
AcDbEntity
  8
1
100
AcDbLine
 10
387.213308
 20
360.059351
 30
0.0
 11
385.451162
 21
354.396961
 31
0.0
  0
LINE
  5
9D
330
1F
100
AcDbEntity
  8
1
100
AcDbLine
 10
387.213308
 20
360.059351
 30
0.0
 11
386.311903
 21
359.585801
 31
0.0
  0
LINE
  5
9E
330
1F
100
AcDbEntity
  8
1
100
AcDbLine
 10
386.311903
 20
359.585801
 30
0.0
 11
384.792023
 21
354.701897
 31
0.0
  0
LINE
  5
9F
330
1F
100
AcDbEntity
  8
1
100
AcDbLine
 10
371.0183
 20
358.504185
 30
0.0
 11
369.896489
 21
358.504185
 31
0.0
  0
LINE
  5
A1
330
1F
100
AcDbEntity
  8
1
100
AcDbLine
 10
390.274798
 20
365.672696
 30
0.0
 11
390.274798
 21
365.343792
 31
0.0
  0
LINE
  5
A3
330
1F
100
AcDbEntity
  8
1
100
AcDbLine
 10
390.274798
 20
364.828711
 30
0.0
 11
390.274798
 21
362.698997
 31
0.0
  0
LINE
  5
A4
330
1F
100
AcDbEntity
  8
1
100
AcDbLine
 10
356.001926
 20
377.684936
 30
0.0
 11
355.831299
 21
378.839185
 31
0.0
  0
LINE
  5
A5
330
1F
100
AcDbEntity
  8
1
100
AcDbLine
 10
355.052318
 20
384.108804
 30
0.0
 11
355.004291
 21
384.433694
 31
0.0
  0
LINE
  5
A6
330
1F
100
AcDbEntity
  8
1
100
AcDbLine
 10
355.313168
 20
377.473489
 30
0.0
 11
354.413413
 21
383.560117
 31
0.0
  0
LINE
  5
A7
330
1F
100
AcDbEntity
  8
1
100
AcDbLine
 10
390.274798
 20
364.8287160000001
 30
0.0
 11
390.274798
 21
365.343792
 31
0.0
  0
LINE
  5
A8
330
1F
100
AcDbEntity
  8
1
100
AcDbLine
 10
389.493483
 20
365.433671
 30
0.0
 11
390.274798
 21
365.343792
 31
0.0
  0
LINE
  5
A9
330
1F
100
AcDbEntity
  8
1
100
AcDbLine
 10
379.63382
 20
366.416879
 30
0.0
 11
378.147453
 21
366.587863
 31
0.0
  0
LINE
  5
AA
330
1F
100
AcDbEntity
  8
SK1
100
AcDbLine
 10
261.174798
 20
370.4589180000001
 30
0.0
 11
261.174798
 21
361.557232
 31
0.0
  0
LINE
  5
AB
330
1F
100
AcDbEntity
  8
SK1
100
AcDbLine
 10
261.174798
 20
380.508075
 30
0.0
 11
261.174798
 21
370.4589180000001
 31
0.0
  0
LINE
  5
AC
330
1F
100
AcDbEntity
  8
SK1
100
AcDbLine
 10
261.174798
 20
361.557232
 30
0.0
 11
261.174798
 21
351.508075
 31
0.0
  0
LINE
  5
AD
330
1F
100
AcDbEntity
  8
SK1
100
AcDbLine
 10
261.174798
 20
351.508075
 30
0.0
 11
262.674798
 21
350.008075
 31
0.0
  0
LINE
  5
AE
330
1F
100
AcDbEntity
  8
SK1
100
AcDbLine
 10
262.674798
 20
382.008075
 30
0.0
 11
261.174798
 21
380.508075
 31
0.0
  0
LINE
  5
AF
330
1F
100
AcDbEntity
  8
1
100
AcDbLine
 10
390.219984
 20
364.840916
 30
0.0
 11
384.250778
 21
365.713009
 31
0.0
  0
LINE
  5
B0
330
1F
100
AcDbEntity
  8
1
100
AcDbLine
 10
384.567383
 20
354.183917
 30
0.0
 11
386.645582
 21
360.861897
 31
0.0
  0
LINE
  5
B1
330
1F
100
AcDbEntity
  8
1
100
AcDbLine
 10
386.645582
 20
360.861897
 30
0.0
 11
388.331284
 21
360.627678
 31
0.0
  0
LINE
  5
B2
330
1F
100
AcDbEntity
  8
1
100
AcDbLine
 10
388.331284
 20
360.627678
 30
0.0
 11
389.717277
 21
360.797714
 31
0.0
  0
LINE
  5
B3
330
1F
100
AcDbEntity
  8
1
100
AcDbLine
 10
329.174798
 20
381.508075
 30
0.0
 11
322.174798
 21
381.508075
 31
0.0
  0
LINE
  5
B4
330
1F
100
AcDbEntity
  8
1
100
AcDbLine
 10
322.174798
 20
350.508075
 30
0.0
 11
329.174798
 21
350.508075
 31
0.0
  0
LINE
  5
B5
330
1F
100
AcDbEntity
  8
SK1
100
AcDbLine
 10
280.674798
 20
374.104988
 30
0.0
 11
280.674798
 21
357.911162
 31
0.0
  0
LINE
  5
B6
330
1F
100
AcDbEntity
  8
SK1
100
AcDbLine
 10
303.687298
 20
374.104988
 30
0.0
 11
303.687298
 21
357.911162
 31
0.0
  0
LINE
  5
B7
330
1F
100
AcDbEntity
  8
SK1
100
AcDbLine
 10
280.674798
 20
374.104988
 30
0.0
 11
262.674798
 21
374.104988
 31
0.0
  0
LINE
  5
B8
330
1F
100
AcDbEntity
  8
SK1
100
AcDbLine
 10
262.674798
 20
357.911162
 30
0.0
 11
280.674798
 21
357.911162
 31
0.0
  0
LINE
  5
B9
330
1F
100
AcDbEntity
  8
SK1
100
AcDbLine
 10
262.674798
 20
374.104988
 30
0.0
 11
262.674798
 21
382.008075
 31
0.0
  0
LINE
  5
BA
330
1F
100
AcDbEntity
  8
SK1
100
AcDbLine
 10
262.674798
 20
350.008075
 30
0.0
 11
262.674798
 21
357.911162
 31
0.0
  0
LINE
  5
BB
330
1F
100
AcDbEntity
  8
SK1
100
AcDbLine
 10
322.174798
 20
350.008075
 30
0.0
 11
322.174798
 21
382.008075
 31
0.0
  0
LINE
  5
BC
330
1F
100
AcDbEntity
  8
SK1
100
AcDbLine
 10
289.662298
 20
357.911162
 30
0.0
 11
303.687298
 21
357.911162
 31
0.0
  0
LINE
  5
BD
330
1F
100
AcDbEntity
  8
SK1
100
AcDbLine
 10
303.687298
 20
374.104988
 30
0.0
 11
289.662298
 21
374.104988
 31
0.0
  0
LINE
  5
BE
330
1F
100
AcDbEntity
  8
SK1
100
AcDbLine
 10
322.174798
 20
382.008075
 30
0.0
 11
262.674798
 21
382.008075
 31
0.0
  0
LINE
  5
BF
330
1F
100
AcDbEntity
  8
SK1
100
AcDbLine
 10
262.674798
 20
350.008075
 30
0.0
 11
322.174798
 21
350.008075
 31
0.0
  0
LINE
  5
C0
330
1F
100
AcDbEntity
  8
SK1
100
AcDbLine
 10
289.662298
 20
374.104988
 30
0.0
 11
289.662298
 21
357.911162
 31
0.0
  0
LINE
  5
C1
330
1F
100
AcDbEntity
  8
1
100
AcDbLine
 10
382.46233
 20
365.940843
 30
0.0
 11
382.46233
 21
362.164911
 31
0.0
  0
LINE
  5
C2
330
1F
100
AcDbEntity
  8
1
100
AcDbLine
 10
380.297266
 20
366.20696
 30
0.0
 11
380.297266
 21
350.551775
 31
0.0
  0
LINE
  5
C3
330
1F
100
AcDbEntity
  8
1
100
AcDbLine
 10
382.46233
 20
355.125521
 30
0.0
 11
382.46233
 21
352.067636
 31
0.0
  0
LINE
  5
C4
330
1F
100
AcDbEntity
  8
1
100
AcDbLine
 10
380.271012
 20
366.208994
 30
0.0
 11
380.271012
 21
350.598739
 31
0.0
  0
LINE
  5
C5
330
1F
100
AcDbEntity
  8
1
100
AcDbLine
 10
355.448625
 20
372.85368
 30
0.0
 11
355.448625
 21
347.576242
 31
0.0
  0
LINE
  5
C6
330
1F
100
AcDbEntity
  8
1
100
AcDbLine
 10
332.174798
 20
347.508075
 30
0.0
 11
349.696265
 21
347.508075
 31
0.0
  0
LINE
  5
C7
330
1F
100
AcDbEntity
  8
1
100
AcDbLine
 10
354.357708
 20
384.508075
 30
0.0
 11
352.972526
 21
384.508075
 31
0.0
  0
LINE
  5
C8
330
1F
100
AcDbEntity
  8
1
100
AcDbLine
 10
351.377171
 20
384.508075
 30
0.0
 11
332.174798
 21
384.508075
 31
0.0
  0
LINE
  5
C9
330
1F
100
AcDbEntity
  8
1
100
AcDbLine
 10
329.174798
 20
350.508075
 30
0.0
 11
329.174798
 21
381.508075
 31
0.0
  0
LINE
  5
CA
330
1F
100
AcDbEntity
  8
1
100
AcDbLine
 10
332.174798
 20
347.508075
 30
0.0
 11
332.174798
 21
384.508075
 31
0.0
  0
LINE
  5
CB
330
1F
100
AcDbEntity
  8
1
100
AcDbLine
 10
329.174798
 20
350.508075
 30
0.0
 11
332.174798
 21
347.508075
 31
0.0
  0
LINE
  5
CC
330
1F
100
AcDbEntity
  8
1
100
AcDbLine
 10
332.174798
 20
384.508075
 30
0.0
 11
329.174798
 21
381.508075
 31
0.0
  0
LINE
  5
CD
330
1F
100
AcDbEntity
  8
1
100
AcDbLine
 10
356.651471
 20
372.314192
 30
0.0
 11
356.651471
 21
348.804704
 31
0.0
  0
LINE
  5
CE
330
1F
100
AcDbEntity
  8
1
100
AcDbLine
 10
374.437745
 20
376.4842
 30
0.0
 11
374.045339
 21
376.4842
 31
0.0
  0
LINE
  5
CF
330
1F
100
AcDbEntity
  8
1
100
AcDbLine
 10
373.715458
 20
377.482465
 30
0.0
 11
374.112047
 21
377.482465
 31
0.0
  0
LINE
  5
D0
330
1F
100
AcDbEntity
  8
1
100
AcDbLine
 10
373.064272
 20
374.854123
 30
0.0
 11
372.655417
 21
374.854123
 31
0.0
  0
LINE
  5
D1
330
1F
100
AcDbEntity
  8
1
100
AcDbLine
 10
372.189153
 20
372.250597
 30
0.0
 11
372.327066
 21
372.250597
 31
0.0
  0
LINE
  5
D2
330
1F
100
AcDbEntity
  8
1
100
AcDbLine
 10
372.327066
 20
380.750597
 30
0.0
 11
372.189153
 21
380.750597
 31
0.0
  0
LINE
  5
D3
330
1F
100
AcDbEntity
  8
1
100
AcDbLine
 10
371.40876
 20
378.14707
 30
0.0
 11
371.817614
 21
378.14707
 31
0.0
  0
LINE
  5
D4
330
1F
100
AcDbEntity
  8
1
100
AcDbLine
 10
370.76984
 20
375.518729
 30
0.0
 11
370.546641
 21
375.518729
 31
0.0
  0
LINE
  5
D5
330
1F
100
AcDbEntity
  8
1
100
AcDbLine
 10
388.969733
 20
365.403337
 30
0.0
 11
389.281021
 21
365.367528
 31
0.0
  0
LINE
  5
D6
330
1F
100
AcDbEntity
  8
1
100
AcDbLine
 10
389.593232
 20
365.464709
 30
0.0
 11
389.281021
 21
365.367528
 31
0.0
  0
LINE
  5
D7
330
1F
100
AcDbEntity
  8
1
100
AcDbLine
 10
391.929909
 20
366.146737
 30
0.0
 11
391.140411
 21
365.92446
 31
0.0
  0
LINE
  5
D8
330
1F
100
AcDbEntity
  8
1
100
AcDbLine
 10
355.924381
 20
378.642394
 30
0.0
 11
356.085329
 21
378.308377
 31
0.0
  0
LINE
  5
D9
330
1F
100
AcDbEntity
  8
1
100
AcDbLine
 10
354.715876
 20
383.66301
 30
0.0
 11
354.660261
 21
383.530835
 31
0.0
  0
LINE
  5
DA
330
1F
100
AcDbEntity
  8
1
100
AcDbLine
 10
354.660261
 20
383.530835
 30
0.0
 11
354.529887
 21
382.853896
 31
0.0
  0
LINE
  5
DB
330
1F
100
AcDbEntity
  8
1
100
AcDbLine
 10
354.715876
 20
383.66301
 30
0.0
 11
355.654222
 21
384.906399
 31
0.0
  0
LINE
  5
DC
330
1F
100
AcDbEntity
  8
1
100
AcDbLine
 10
354.715876
 20
383.66301
 30
0.0
 11
354.539849
 21
382.854307
 31
0.0
  0
LINE
  5
DD
330
1F
100
AcDbEntity
  8
1
100
AcDbLine
 10
357.623914
 20
384.995007
 30
0.0
 11
355.654222
 21
384.906399
 31
0.0
  0
LINE
  5
DE
330
1F
100
AcDbEntity
  8
1
100
AcDbLine
 10
385.731518
 20
365.754932
 30
0.0
 11
371.294539
 21
367.415689
 31
0.0
  0
LINE
  5
DF
330
1F
100
AcDbEntity
  8
1
100
AcDbLine
 10
371.995496
 20
385.641522
 30
0.0
 11
358.151802
 21
385.018755
 31
0.0
  0
LINE
  5
E0
330
1F
100
AcDbEntity
  8
80
100
AcDbLine
 10
322.174849
 20
366.008075
 30
0.0
 11
322.174849
 21
365.008075
 31
0.0
  0
LINE
  5
E1
330
1F
100
AcDbEntity
  8
81
100
AcDbLine
 10
392.174849
 20
384.508075
 30
0.0
 11
392.174849
 21
387.508075
 31
0.0
  0
LINE
  5
E2
330
1F
100
AcDbEntity
  8
80
100
AcDbLine
 10
322.174849
 20
366.008075
 30
0.0
 11
323.174849
 21
366.008075
 31
0.0
  0
LINE
  5
E3
330
1F
100
AcDbEntity
  8
81
100
AcDbLine
 10
390.674849
 20
386.008075
 30
0.0
 11
393.674849
 21
386.008075
 31
0.0
  0
LINE
  5
E6
330
1F
100
AcDbEntity
  8
NOCUT
100
AcDbLine
 10
380.271012
 20
382.531129
 30
0.0
 11
380.371241
 21
382.704731
 31
0.0
  0
LINE
  5
E7
330
1F
100
AcDbEntity
  8
NOCUT
100
AcDbLine
 10
382.536304
 20
381.454731
 30
0.0
 11
382.436075
 21
381.281129
 31
0.0
  0
LINE
  5
E8
330
1F
100
AcDbEntity
  8
NOCUT
100
AcDbLine
 10
390.274798
 20
369.317154
 30
0.0
 11
390.274798
 21
366.008075
 31
0.0
  0
LINE
  5
E9
330
1F
100
AcDbEntity
  8
NOCUT
100
AcDbLine
 10
339.561549
 20
366.008075
 30
0.0
 11
390.274798
 21
366.008075
 31
0.0
  0
LINE
  5
EA
330
1F
100
AcDbEntity
  8
NOCUT
100
AcDbLine
 10
332.174798
 20
384.508075
 30
0.0
 11
355.448625
 21
384.508075
 31
0.0
  0
LINE
  5
EB
330
1F
100
AcDbEntity
  8
NOCUT
100
AcDbLine
 10
339.561549
 20
366.008075
 30
0.0
 11
336.674798
 21
371.008075
 31
0.0
  0
LINE
  5
EC
330
1F
100
AcDbEntity
  8
NOCUT
100
AcDbLine
 10
336.674798
 20
371.008075
 30
0.0
 11
262.906849
 21
371.008075
 31
0.0
  0
LINE
  5
ED
330
1F
100
AcDbEntity
  8
NOCUT
100
AcDbLine
 10
262.906849
 20
371.008075
 30
0.0
 11
261.174798
 21
372.008075
 31
0.0
  0
LINE
  5
EE
330
1F
100
AcDbEntity
  8
NOCUT
100
AcDbLine
 10
261.174798
 20
372.008075
 30
0.0
 11
261.174798
 21
380.508075
 31
0.0
  0
LINE
  5
EF
330
1F
100
AcDbEntity
  8
NOCUT
100
AcDbLine
 10
262.674798
 20
382.008075
 30
0.0
 11
322.174798
 21
382.008075
 31
0.0
  0
LINE
  5
F0
330
1F
100
AcDbEntity
  8
NOCUT
100
AcDbLine
 10
322.174798
 20
382.008075
 30
0.0
 11
322.174798
 21
381.508075
 31
0.0
  0
LINE
  5
F1
330
1F
100
AcDbEntity
  8
NOCUT
100
AcDbLine
 10
322.174798
 20
381.508075
 30
0.0
 11
329.174798
 21
381.508075
 31
0.0
  0
LINE
  5
F2
330
1F
100
AcDbEntity
  8
NOCUT
100
AcDbLine
 10
329.174798
 20
381.508075
 30
0.0
 11
332.174798
 21
384.508075
 31
0.0
  0
LINE
  5
F3
330
1F
100
AcDbEntity
  8
NOCUT
100
AcDbLine
 10
355.448625
 20
384.508075
 30
0.0
 11
356.651471
 21
383.305229
 31
0.0
  0
LINE
  5
F4
330
1F
100
AcDbEntity
  8
NOCUT
100
AcDbLine
 10
356.651471
 20
383.305229
 30
0.0
 11
370.811202
 21
384.3574779999999
 31
0.0
  0
LINE
  5
F5
330
1F
100
AcDbEntity
  8
NOCUT
100
AcDbLine
 10
261.174798
 20
380.508075
 30
0.0
 11
262.674798
 21
382.008075
 31
0.0
  0
ARC
  5
102
330
1F
100
AcDbEntity
  8
1
100
AcDbCircle
 10
372.174798
 20
366.008075
 30
0.0
 40
18.4
100
AcDbArc
 50
346.21687
 51
349.639489
  0
ARC
  5
109
330
1F
100
AcDbEntity
  8
NOCUT
100
AcDbCircle
 10
372.174798
 20
366.008075
 30
0.0
 40
18.4
100
AcDbArc
 50
63.89537699999999
 51
94.25
  0
ARC
  5
10A
330
1F
100
AcDbEntity
  8
NOCUT
100
AcDbCircle
 10
372.174798
 20
366.008075
 30
0.0
 40
18.6
100
AcDbArc
 50
56.146573
 51
63.85342699999999
  0
ARC
  5
10B
330
1F
100
AcDbEntity
  8
NOCUT
100
AcDbCircle
 10
372.174798
 20
366.008075
 30
0.0
 40
18.4
100
AcDbArc
 50
10.360511
 51
56.104623
  0
ELLIPSE
  5
113
330
1F
100
AcDbEntity
  8
1
100
AcDbEllipse
 10
353.308994
 20
347.438527
 30
0.0
 11
-2.233182690548976
 21
1.10391745915444
 31
0.0
210
0.0
220
0.0
230
0.9999999999999998
 40
0.013491
 41
4.602257325995661
 42
4.782602574463205
  0
ELLIPSE
  5
114
330
1F
100
AcDbEntity
  8
1
100
AcDbEllipse
 10
354.625535
 20
347.091881
 30
0.0
 11
-2.408407139350289
 21
0.1225381943390664
 31
0.0
210
0.0
220
0.0
230
0.9999999999999998
 40
0.030662
 41
4.391708875589868
 42
4.90186626026111
  0
ELLIPSE
  5
115
330
1F
100
AcDbEntity
  8
1
100
AcDbEllipse
 10
371.006778
 20
355.504185
 30
0.0
 11
0.0
 21
3.5
 31
0.0
210
0.0
220
0.0
230
0.9999999999999998
 40
0.9848079999999999
 41
0.193604176594376
 42
0.6099633971569521
  0
ELLIPSE
  5
116
330
1F
100
AcDbEntity
  8
1
100
AcDbEllipse
 10
372.851755
 20
366.000761
 30
0.0
 11
-0.0000000000000012
 21
-19.65676275012362
 31
0.0
210
0.0
220
0.0
230
1.0
 40
0.9848079999999999
 41
6.238912061274103
 42
7.36710893847846
  0
ELLIPSE
  5
117
330
1F
100
AcDbEntity
  8
1
100
AcDbEllipse
 10
372.851755
 20
366.000761
 30
0.0
 11
-0.0000000000000012
 21
-19.65676275012361
 31
0.0
210
0.0
220
0.0
230
1.0
 40
0.9848079999999999
 41
1.113411844787506
 42
1.203947522922784
  0
ELLIPSE
  5
118
330
1F
100
AcDbEntity
  8
1
100
AcDbEllipse
 10
371.598286
 20
366.000761
 30
0.0
 11
-0.0000000000000011
 21
-18.51347399831584
 31
0.0
210
0.0
220
0.0
230
1.0
 40
0.9848079999999999
 41
6.238912061274101
 42
7.159983940921331
  0
ELLIPSE
  5
119
330
1F
100
AcDbEntity
  8
1
100
AcDbEllipse
 10
371.826459
 20
364.212492
 30
0.0
 11
-19.56663314538008
 21
3.017933182363745
 31
0.0
210
0.0
220
0.0
230
1.0
 40
0.6151460000000001
 41
2.442835910065654
 42
2.950904104007768
  0
ELLIPSE
  5
11A
330
1F
100
AcDbEntity
  8
1
100
AcDbEllipse
 10
371.581519
 20
366.000761
 30
0.0
 11
-0.0000000000000011
 21
-18.24818056914966
 31
0.0
210
0.0
220
0.0
230
1.0
 40
0.9848079999999999
 41
6.238912061274101
 42
7.164823028896802
  0
ELLIPSE
  5
11B
330
1F
100
AcDbEntity
  8
1
100
AcDbEllipse
 10
371.472989
 20
366.000761
 30
0.0
 11
-0.0000000000000011
 21
-17.62318056914964
 31
0.0
210
0.0
220
0.0
230
1.0
 40
0.9848079999999999
 41
0.8657420404360944
 42
0.8748180529071838
  0
ELLIPSE
  5
11C
330
1F
100
AcDbEntity
  8
1
100
AcDbEllipse
 10
369.896489
 20
355.504185
 30
0.0
 11
0.0
 21
3.0
 31
0.0
210
0.0
220
0.0
230
1.0
 40
0.9848079999999999
 41
5.724181673883735
 42
6.283185307179585
  0
ELLIPSE
  5
11D
330
1F
100
AcDbEntity
  8
1
100
AcDbEllipse
 10
369.896489
 20
355.504185
 30
0.0
 11
0.0
 21
3.0
 31
0.0
210
0.0
220
0.0
230
1.0
 40
0.9848079999999999
 41
0.0
 42
2.635407228164246
  0
ELLIPSE
  5
11E
330
1F
100
AcDbEntity
  8
1
100
AcDbEllipse
 10
369.7923
 20
355.504185
 30
0.0
 11
0.0
 21
2.4
 31
0.0
210
0.0
220
0.0
230
1.0
 40
0.9848079999999999
 41
4.458218025136365
 42
6.283185307179585
  0
ELLIPSE
  5
11F
330
1F
100
AcDbEntity
  8
1
100
AcDbEllipse
 10
369.7923
 20
355.504185
 30
0.0
 11
0.0
 21
2.4
 31
0.0
210
0.0
220
0.0
230
1.0
 40
0.9848079999999999
 41
0.0
 42
3.055791296908919
  0
ELLIPSE
  5
120
330
1F
100
AcDbEntity
  8
1
100
AcDbEllipse
 10
378.948257
 20
371.3851
 30
0.0
 11
0.0
 21
5.0
 31
0.0
210
0.0
220
0.0
230
1.0
 40
0.9848079999999999
 41
3.267451063734379
 42
3.29866168907381
  0
ELLIPSE
  5
121
330
1F
100
AcDbEntity
  8
1
100
AcDbEllipse
 10
372.260625
 20
366.777366
 30
0.0
 11
18.27035048096305
 21
-2.038354699826278
 31
0.0
210
0.0
220
0.0
230
1.0
 40
0.019547
 41
0.1698514613990169
 42
0.1869643991105995
  0
ELLIPSE
  5
122
330
1F
100
AcDbEntity
  8
1
100
AcDbEllipse
 10
371.880975
 20
364.324575
 30
0.0
 11
18.04502688464624
 21
-3.149413631429371
 31
0.0
210
0.0
220
0.0
230
1.0
 40
0.179911
 41
6.159152270219669
 42
6.243115515346995
  0
ELLIPSE
  5
123
330
1F
100
AcDbEntity
  8
1
100
AcDbEllipse
 10
372.02205
 20
365.248202
 30
0.0
 11
-18.02311408900047
 21
3.622967640444402
 31
0.0
210
0.0
220
0.0
230
1.0
 40
0.034729
 41
3.116432967554287
 42
3.140134097643333
  0
ELLIPSE
  5
124
330
1F
100
AcDbEntity
  8
1
100
AcDbEllipse
 10
372.638953
 20
366.008075
 30
0.0
 11
0.0
 21
18.20481435891405
 31
0.0
210
0.0
220
0.0
230
1.0
 40
0.9848079999999999
 41
4.436419923554356
 42
4.468422343912681
  0
ELLIPSE
  5
125
330
1F
100
AcDbEntity
  8
1
100
AcDbEllipse
 10
378.701738
 20
371.556084
 30
0.0
 11
-0.0000000000000003
 21
-5.0
 31
0.0
210
0.0
220
0.0
230
1.0
 40
0.9848079999999999
 41
6.044997737901841
 42
6.170378902344911
  0
ELLIPSE
  5
126
330
1F
100
AcDbEntity
  8
1
100
AcDbEllipse
 10
373.103406
 20
386.974084
 30
0.0
 11
-0.0000000000000012
 21
-19.53005519786405
 31
0.0
210
0.0
220
0.0
230
0.9999999999999998
 40
0.9848079999999999
 41
5.524239819242462
 42
5.878818728100191
  0
ELLIPSE
  5
127
330
1F
100
AcDbEntity
  8
1
100
AcDbEllipse
 10
361.716097
 20
377.438227
 30
0.0
 11
0.0
 21
5.0
 31
0.0
210
0.0
220
0.0
230
1.0
 40
0.9848079999999999
 41
2.189018498511634
 42
2.756815689949213
  0
ELLIPSE
  5
128
330
1F
100
AcDbEntity
  8
1
100
AcDbEllipse
 10
358.905391
 20
378.02102
 30
0.0
 11
0.0
 21
3.688503898019105
 31
0.0
210
0.0
220
0.0
230
1.0
 40
0.9848080000000001
 41
1.719789327820034
 42
2.80434701661511
  0
ELLIPSE
  5
129
330
1F
100
AcDbEntity
  8
1
100
AcDbEllipse
 10
380.188105
 20
371.3851
 30
0.0
 11
-0.0000000000000003
 21
-5.0
 31
0.0
210
0.0
220
0.0
230
1.0
 40
0.9848079999999999
 41
6.170378902344915
 42
6.295760006422963
  0
ELLIPSE
  5
12A
330
1F
100
AcDbEntity
  8
1
100
AcDbEllipse
 10
371.399105
 20
366.008075
 30
0.0
 11
0.0
 21
17.8495261949498
 31
0.0
210
0.0
220
0.0
230
1.0
 40
0.9848079999999999
 41
3.822330376507339
 42
3.988323844229931
  0
ELLIPSE
  5
12B
330
1F
100
AcDbEntity
  8
1
100
AcDbEllipse
 10
370.641617
 20
356.104965
 30
0.0
 11
-0.0000000000000002
 21
-3.0
 31
0.0
210
0.0
220
0.0
230
1.0
 40
0.9848079999999999
 41
3.357773587743793
 42
3.97431105260436
  0
ELLIPSE
  5
12C
330
1F
100
AcDbEntity
  8
1
100
AcDbEllipse
 10
369.373985
 20
356.104965
 30
0.0
 11
-0.0000000000000002
 21
-3.0
 31
0.0
210
0.0
220
0.0
230
1.0
 40
0.9848079999999999
 41
4.712388843652988
 42
6.283185307179585
  0
ELLIPSE
  5
12D
330
1F
100
AcDbEntity
  8
1
100
AcDbEllipse
 10
369.373985
 20
356.104965
 30
0.0
 11
-0.0000000000000002
 21
-3.0
 31
0.0
210
0.0
220
0.0
230
1.0
 40
0.9848079999999999
 41
0.0
 42
1.424712194646351
  0
ELLIPSE
  5
12E
330
1F
100
AcDbEntity
  8
1
100
AcDbEllipse
 10
369.373985
 20
356.104965
 30
0.0
 11
-0.0000000000000002
 21
-3.0
 31
0.0
210
0.0
220
0.0
230
1.0
 40
0.9848079999999999
 41
2.694602765884912
 42
4.71238884365299
  0
ELLIPSE
  5
12F
330
1F
100
AcDbEntity
  8
1
100
AcDbEllipse
 10
386.04823
 20
361.235159
 30
0.0
 11
-2.399603146871061
 21
-6.974924538095821
 31
0.0
210
0.0
220
0.0
230
1.0
 40
0.492416
 41
1.676735191400796
 42
2.273444078267215
  0
ELLIPSE
  5
130
330
1F
100
AcDbEntity
  8
1
100
AcDbEllipse
 10
386.04823
 20
361.235159
 30
0.0
 11
-2.399603146871061
 21
-6.974924538095821
 31
0.0
210
0.0
220
0.0
230
1.0
 40
0.492416
 41
5.85354972963122
 42
6.53176541719984
  0
ELLIPSE
  5
131
330
1F
100
AcDbEntity
  8
1
100
AcDbEllipse
 10
372.260625
 20
366.777366
 30
0.0
 11
18.27035048096305
 21
-2.038354699826278
 31
0.0
210
0.0
220
0.0
230
1.0
 40
0.019547
 41
0.8571240554837626
 42
0.9805516328241282
  0
ELLIPSE
  5
132
330
1F
100
AcDbEntity
  8
1
100
AcDbEllipse
 10
386.04823
 20
361.235159
 30
0.0
 11
-2.399603146871061
 21
-6.974924538095821
 31
0.0
210
0.0
220
0.0
230
1.0
 40
0.492416
 41
4.194814365970417
 42
4.790883877531443
  0
ELLIPSE
  5
133
330
1F
100
AcDbEntity
  8
SK1
100
AcDbEllipse
 10
266.631816
 20
366.008075
 30
0.0
 11
-16.28171828755497
 21
0.0000000000000191
 31
0.0
210
0.0
220
0.0
230
1.0
 40
0.9826969999999999
 41
2.610985549164232
 42
3.672199758015358
  0
ELLIPSE
  5
134
330
1F
100
AcDbEntity
  8
SK1
100
AcDbEllipse
 10
289.644316
 20
366.008075
 30
0.0
 11
-16.28171828755415
 21
0.0000000000000191
 31
0.0
210
0.0
220
0.0
230
1.0
 40
0.9826969999999999
 41
2.610985549164218
 42
3.672199758015372
  0
ELLIPSE
  5
135
330
1F
100
AcDbEntity
  8
SK1
100
AcDbEllipse
 10
303.70528
 20
366.008075
 30
0.0
 11
-16.2817182875531
 21
0.0000000000000191
 31
0.0
210
0.0
220
0.0
230
1.0
 40
0.9826969999999999
 41
5.752578202753992
 42
6.813792411605183
  0
ELLIPSE
  5
136
330
1F
100
AcDbEntity
  8
1
100
AcDbEllipse
 10
389.572801
 20
363.780807
 30
0.0
 11
-5.781137981514858
 21
-10.10279616786052
 31
0.0
210
0.0
220
0.0
230
1.0
 40
0.509267
 41
5.150122143462498
 42
5.961760692019058
  0
ELLIPSE
  5
137
330
1F
100
AcDbEntity
  8
1
100
AcDbEllipse
 10
369.373985
 20
356.104965
 30
0.0
 11
0.0
 21
3.349999999999999
 31
0.0
210
0.0
220
0.0
230
0.9999999999999998
 40
0.9848079999999999
 41
0.105833780409613
 42
2.918513041985426
  0
ELLIPSE
  5
138
330
1F
100
AcDbEntity
  8
1
100
AcDbEllipse
 10
371.399105
 20
366.008075
 30
0.0
 11
0.0
 21
17.8495261949498
 31
0.0
210
0.0
220
0.0
230
1.0
 40
0.9848079999999999
 41
3.108141671184041
 42
3.67063450216179
  0
ELLIPSE
  5
139
330
1F
100
AcDbEntity
  8
1
100
AcDbEllipse
 10
372.260625
 20
366.777366
 30
0.0
 11
18.27035048096305
 21
-2.038354699826278
 31
0.0
210
0.0
220
0.0
230
1.0
 40
0.019547
 41
1.11912004308588
 42
1.569429621147946
  0
ELLIPSE
  5
13A
330
1F
100
AcDbEntity
  8
1
100
AcDbEllipse
 10
346.45016
 20
366.008075
 30
0.0
 11
-104.918714553867
 21
0.0000000000001229
 31
0.0
210
0.0
220
0.0
230
1.0
 40
0.176327
 41
1.621975894606076
 42
1.656667883459703
  0
ELLIPSE
  5
13B
330
1F
100
AcDbEntity
  8
1
100
AcDbEllipse
 10
370.097967
 20
366.008075
 30
0.0
 11
-47.88850435321201
 21
18.46744467098788
 31
0.0
210
0.0
220
0.0
230
0.9999999999999996
 40
0.022908
 41
5.032099379878405
 42
5.092636011785954
  0
ELLIPSE
  5
13C
330
1F
100
AcDbEntity
  8
1
100
AcDbEllipse
 10
387.567809
 20
366.008061
 30
0.0
 11
-104.9187607287241
 21
0.0000047656095595
 31
0.0
210
0.0
220
0.0
230
1.0
 40
0.176327
 41
5.033900148885299
 42
5.053385568015967
  0
ELLIPSE
  5
13D
330
1F
100
AcDbEntity
  8
1
100
AcDbEllipse
 10
357.929283
 20
366.008075
 30
0.0
 11
-2.729641633154884
 21
18.4943545589935
 31
0.0
210
0.0
220
0.0
230
0.9999999999999998
 40
0.167421
 41
0.0649977515788427
 42
0.2968057901769508
  0
ELLIPSE
  5
13E
330
1F
100
AcDbEntity
  8
1
100
AcDbEllipse
 10
357.520519
 20
366.008075
 30
0.0
 11
-2.907023827331213
 21
18.49322594655568
 31
0.0
210
0.0
220
0.0
230
1.0
 40
0.172201
 41
6.166419945796837
 42
6.242235878329606
  0
ELLIPSE
  5
13F
330
1F
100
AcDbEntity
  8
1
100
AcDbEllipse
 10
379.559451
 20
362.361603
 30
0.0
 11
-49.18159316059863
 21
18.9656806534529
 31
0.0
210
0.0
220
0.0
230
1.0
 40
0.02248
 41
4.977147279160246
 42
5.205557866339566
  0
ELLIPSE
  5
140
330
1F
100
AcDbEntity
  8
1
100
AcDbEllipse
 10
394.519078
 20
366.008075
 30
0.0
 11
-114.056299786646
 21
0.0000000000001336
 31
0.0
210
0.0
220
0.0
230
1.0
 40
0.159902
 41
1.232364769722082
 42
1.361408459390019
  0
ELLIPSE
  5
141
330
1F
100
AcDbEntity
  8
1
100
AcDbEllipse
 10
334.997323
 20
366.008072
 30
0.0
 11
-88.97089958524075
 21
-0.0000010769180485
 31
0.0
210
0.0
220
0.0
230
1.0
 40
0.159902
 41
1.958623068680393
 42
1.98154616507518
  0
ELLIPSE
  5
142
330
1F
100
AcDbEntity
  8
1
100
AcDbEllipse
 10
372.189153
 20
376.500597
 30
0.0
 11
-0.0000000000000003
 21
-4.25
 31
0.0
210
0.0
220
0.0
230
1.0
 40
0.9848079999999999
 41
3.141687308340745
 42
6.283185307179585
  0
ELLIPSE
  5
143
330
1F
100
AcDbEntity
  8
1
100
AcDbEllipse
 10
372.327066
 20
376.500597
 30
0.0
 11
0.0
 21
4.25
 31
0.0
210
0.0
220
0.0
230
1.0
 40
0.9848079999999999
 41
0.0
 42
6.283185307179585
  0
ELLIPSE
  5
144
330
1F
100
AcDbEntity
  8
1
100
AcDbEllipse
 10
372.322706
 20
378.529306
 30
0.0
 11
0.0
 21
-0.136463039151512
 31
0.0
210
0.0
220
0.0
230
1.0
 40
0.9848079999999999
 41
0.8937368106160482
 42
1.562709695140559
  0
ELLIPSE
  5
145
330
1F
100
AcDbEntity
  8
1
100
AcDbEllipse
 10
372.591476
 20
378.527099
 30
0.0
 11
0.0
 21
-0.1364630391515124
 31
0.0
210
0.0
220
0.0
230
1.0
 40
0.9848079999999999
 41
3.51173068860757
 42
4.704302348730354
  0
ELLIPSE
  5
146
330
1F
100
AcDbEntity
  8
1
100
AcDbEllipse
 10
372.8259
 20
377.91363
 30
0.0
 11
0.0
 21
-0.7944959671748149
 31
0.0
210
0.0
220
0.0
230
1.0
 40
0.9848079999999999
 41
2.231682579665033
 42
3.511730688607576
  0
ELLIPSE
  5
147
330
1F
100
AcDbEntity
  8
1
100
AcDbEllipse
 10
373.337491
 20
378.317541
 30
0.0
 11
0.0
 21
-0.1364630391515089
 31
0.0
210
0.0
220
0.0
230
1.0
 40
0.9848080000000001
 41
1.039110919542262
 42
2.231682579665031
  0
ELLIPSE
  5
148
330
1F
100
AcDbEntity
  8
1
100
AcDbEllipse
 10
373.569166
 20
378.179172
 30
0.0
 11
0.0
 21
-0.1364630391515089
 31
0.0
210
0.0
220
0.0
230
1.0
 40
0.9848080000000001
 41
4.180703573132023
 42
4.849676457656504
  0
ELLIPSE
  5
149
330
1F
100
AcDbEntity
  8
1
100
AcDbEllipse
 10
374.211105
 20
378.269228
 30
0.0
 11
0.0
 21
-0.7944959671748146
 31
0.0
210
0.0
220
0.0
230
1.0
 40
0.9848080000000001
 41
4.849676457656519
 42
6.129724566599071
  0
ELLIPSE
  5
14A
330
1F
100
AcDbEntity
  8
1
100
AcDbEllipse
 10
374.112047
 20
377.618928
 30
0.0
 11
0.0
 21
-0.136463039151512
 31
0.0
210
0.0
220
0.0
230
1.0
 40
0.9848079999999999
 41
6.129724566599112
 42
6.798697451123539
  0
ELLIPSE
  5
14B
330
1F
100
AcDbEntity
  8
1
100
AcDbEllipse
 10
374.24455
 20
377.381471
 30
0.0
 11
0.0
 21
-0.1364630391515124
 31
0.0
210
0.0
220
0.0
230
1.0
 40
0.9848079999999999
 41
2.464533137410983
 42
3.657104797533766
  0
ELLIPSE
  5
14C
330
1F
100
AcDbEntity
  8
1
100
AcDbEllipse
 10
373.838553
 20
376.868588
 30
0.0
 11
0.0
 21
-0.7944959671748149
 31
0.0
210
0.0
220
0.0
230
1.0
 40
0.9848079999999999
 41
1.184485028468435
 42
2.464533137410983
  0
ELLIPSE
  5
14D
330
1F
100
AcDbEntity
  8
1
100
AcDbEllipse
 10
374.438832
 20
376.620659
 30
0.0
 11
0.0
 21
-0.1364630391515089
 31
0.0
210
0.0
220
0.0
230
1.0
 40
0.9848080000000001
 41
6.275098675525238
 42
7.467670335648006
  0
ELLIPSE
  5
14E
330
1F
100
AcDbEntity
  8
1
100
AcDbEllipse
 10
374.436658
 20
376.3477410000001
 30
0.0
 11
0.0
 21
-0.1364630391515089
 31
0.0
210
0.0
220
0.0
230
1.0
 40
0.9848080000000001
 41
3.133506021935446
 42
3.802478906459943
  0
ELLIPSE
  5
14F
330
1F
100
AcDbEntity
  8
1
100
AcDbEllipse
 10
374.834434
 20
375.828258
 30
0.0
 11
0.0
 21
-0.7944959671748146
 31
0.0
210
0.0
220
0.0
230
1.0
 40
0.9848080000000001
 41
3.80247890645993
 42
5.082527015402473
  0
ELLIPSE
  5
150
330
1F
100
AcDbEntity
  8
1
100
AcDbEllipse
 10
374.230284
 20
375.590219
 30
0.0
 11
0.0
 21
-0.136463039151512
 31
0.0
210
0.0
220
0.0
230
1.0
 40
0.9848079999999999
 41
5.082527015402496
 42
5.751499899926995
  0
ELLIPSE
  5
151
330
1F
100
AcDbEntity
  8
1
100
AcDbEllipse
 10
374.094017
 20
375.354969
 30
0.0
 11
0.0
 21
-0.1364630391515124
 31
0.0
210
0.0
220
0.0
230
1.0
 40
0.9848079999999999
 41
1.417335586214379
 42
2.609907246337195
  0
ELLIPSE
  5
152
330
1F
100
AcDbEntity
  8
1
100
AcDbEllipse
 10
373.453596
 20
375.455555
 30
0.0
 11
0.0
 21
-0.7944959671748149
 31
0.0
210
0.0
220
0.0
230
1.0
 40
0.9848079999999999
 41
0.1372874772718368
 42
1.417335586214383
  0
ELLIPSE
  5
153
330
1F
100
AcDbEntity
  8
1
100
AcDbEllipse
 10
373.542284
 20
374.803714
 30
0.0
 11
0.0
 21
-0.1364630391515089
 31
0.0
210
0.0
220
0.0
230
1.0
 40
0.9848080000000001
 41
5.227901124328623
 42
6.420472784451403
  0
ELLIPSE
  5
154
330
1F
100
AcDbEntity
  8
1
100
AcDbEllipse
 10
373.308435
 20
374.669167
 30
0.0
 11
0.0
 21
-0.1364630391515089
 31
0.0
210
0.0
220
0.0
230
1.0
 40
0.9848080000000001
 41
2.086308470738845
 42
2.755281355263288
  0
ELLIPSE
  5
155
330
1F
100
AcDbEntity
  8
1
100
AcDbEllipse
 10
373.064272
 20
374.059627
 30
0.0
 11
0.0
 21
-0.7944959671748146
 31
0.0
210
0.0
220
0.0
230
1.0
 40
0.9848080000000001
 41
2.755281355263329
 42
4.035329464205872
  0
ELLIPSE
  5
156
330
1F
100
AcDbEntity
  8
1
100
AcDbEllipse
 10
372.559181
 20
374.471888
 30
0.0
 11
0.0
 21
-0.136463039151512
 31
0.0
210
0.0
220
0.0
230
1.0
 40
0.9848079999999999
 41
4.035329464205906
 42
4.704302348730367
  0
ELLIPSE
  5
157
330
1F
100
AcDbEntity
  8
1
100
AcDbEllipse
 10
372.29041
 20
374.4740950000001
 30
0.0
 11
0.0
 21
-0.1364630391515124
 31
0.0
210
0.0
220
0.0
230
1.0
 40
0.9848079999999999
 41
0.3701380350177779
 42
1.562709695140573
  0
ELLIPSE
  5
158
330
1F
100
AcDbEntity
  8
1
100
AcDbEllipse
 10
372.055987
 20
375.087564
 30
0.0
 11
0.0
 21
-0.7944959671748149
 31
0.0
210
0.0
220
0.0
230
1.0
 40
0.9848079999999999
 41
5.373275233254827
 42
6.653323342197369
  0
ELLIPSE
  5
159
330
1F
100
AcDbEntity
  8
1
100
AcDbEllipse
 10
371.544396
 20
374.683652
 30
0.0
 11
0.0
 21
-0.1364630391515089
 31
0.0
210
0.0
220
0.0
230
1.0
 40
0.9848080000000001
 41
4.180703573132023
 42
5.373275233254803
  0
ELLIPSE
  5
15A
330
1F
100
AcDbEntity
  8
1
100
AcDbEllipse
 10
371.31272
 20
374.822022
 30
0.0
 11
0.0
 21
-0.1364630391515089
 31
0.0
210
0.0
220
0.0
230
1.0
 40
0.9848080000000001
 41
1.0391109195423
 42
1.708083804066711
  0
ELLIPSE
  5
15B
330
1F
100
AcDbEntity
  8
1
100
AcDbEllipse
 10
370.670782
 20
374.731966
 30
0.0
 11
0.0
 21
-0.7944959671748146
 31
0.0
210
0.0
220
0.0
230
1.0
 40
0.9848080000000001
 41
1.708083804066733
 42
2.988131913009278
  0
ELLIPSE
  5
15C
330
1F
100
AcDbEntity
  8
1
100
AcDbEllipse
 10
370.76984
 20
375.382266
 30
0.0
 11
0.0
 21
-0.136463039151512
 31
0.0
210
0.0
220
0.0
230
1.0
 40
0.9848079999999999
 41
2.988131913009318
 42
3.657104797533778
  0
ELLIPSE
  5
15D
330
1F
100
AcDbEntity
  8
1
100
AcDbEllipse
 10
370.637337
 20
375.619722
 30
0.0
 11
0.0
 21
-0.1364630391515124
 31
0.0
210
0.0
220
0.0
230
1.0
 40
0.9848079999999999
 41
5.606125791000728
 42
6.798697451123521
  0
ELLIPSE
  5
15E
330
1F
100
AcDbEntity
  8
1
100
AcDbEllipse
 10
371.043334
 20
376.132605
 30
0.0
 11
0.0
 21
-0.7944959671748149
 31
0.0
210
0.0
220
0.0
230
1.0
 40
0.9848079999999999
 41
4.326077682058221
 42
5.606125791000773
  0
ELLIPSE
  5
15F
330
1F
100
AcDbEntity
  8
1
100
AcDbEllipse
 10
370.443055
 20
376.380535
 30
0.0
 11
0.0
 21
-0.1364630391515089
 31
0.0
210
0.0
220
0.0
230
1.0
 40
0.9848080000000001
 41
3.133506021935498
 42
4.326077682058225
  0
ELLIPSE
  5
160
330
1F
100
AcDbEntity
  8
1
100
AcDbEllipse
 10
370.445228
 20
376.653452
 30
0.0
 11
0.0
 21
-0.1364630391515089
 31
0.0
210
0.0
220
0.0
230
1.0
 40
0.9848080000000001
 41
6.275098675525238
 42
6.944071560049761
  0
ELLIPSE
  5
161
330
1F
100
AcDbEntity
  8
1
100
AcDbEllipse
 10
370.047453
 20
377.172935
 30
0.0
 11
0.0
 21
-0.7944959671748146
 31
0.0
210
0.0
220
0.0
230
1.0
 40
0.9848080000000001
 41
0.6608862528701324
 42
1.940934361812681
  0
ELLIPSE
  5
162
330
1F
100
AcDbEntity
  8
1
100
AcDbEllipse
 10
370.651602
 20
377.410975
 30
0.0
 11
0.0
 21
-0.136463039151512
 31
0.0
210
0.0
220
0.0
230
1.0
 40
0.9848079999999999
 41
1.940934361812698
 42
2.609907246337136
  0
ELLIPSE
  5
163
330
1F
100
AcDbEntity
  8
1
100
AcDbEllipse
 10
370.78787
 20
377.646225
 30
0.0
 11
0.0
 21
-0.1364630391515124
 31
0.0
210
0.0
220
0.0
230
1.0
 40
0.9848079999999999
 41
4.558928239804174
 42
5.751499899926936
  0
ELLIPSE
  5
164
330
1F
100
AcDbEntity
  8
1
100
AcDbEllipse
 10
371.42829
 20
377.545638
 30
0.0
 11
0.0
 21
-0.7944959671748149
 31
0.0
210
0.0
220
0.0
230
1.0
 40
0.9848079999999999
 41
3.27888013086162
 42
4.558928239804175
  0
ELLIPSE
  5
165
330
1F
100
AcDbEntity
  8
1
100
AcDbEllipse
 10
371.339602
 20
378.19748
 30
0.0
 11
0.0
 21
-0.1364630391515089
 31
0.0
210
0.0
220
0.0
230
1.0
 40
0.9848080000000001
 41
2.086308470738818
 42
3.278880130861611
  0
ELLIPSE
  5
166
330
1F
100
AcDbEntity
  8
1
100
AcDbEllipse
 10
371.573451
 20
378.332027
 30
0.0
 11
0.0
 21
-0.1364630391515089
 31
0.0
210
0.0
220
0.0
230
1.0
 40
0.9848080000000001
 41
5.227901124328623
 42
5.896874008853136
  0
ELLIPSE
  5
167
330
1F
100
AcDbEntity
  8
1
100
AcDbEllipse
 10
371.817614
 20
378.941566
 30
0.0
 11
0.0
 21
-0.7944959671748146
 31
0.0
210
0.0
220
0.0
230
1.0
 40
0.9848080000000001
 41
5.89687400885312
 42
7.176922117795668
  0
ELLIPSE
  5
168
330
1F
100
AcDbEntity
  8
1
100
AcDbEllipse
 10
372.440943
 20
376.500597
 30
0.0
 11
0.0
 21
2.4
 31
0.0
210
0.0
220
0.0
230
1.0
 40
0.9848079999999999
 41
0.0
 42
6.283185307179585
  0
ELLIPSE
  5
169
330
1F
100
AcDbEntity
  8
1
100
AcDbEllipse
 10
388.6832
 20
365.366588
 30
0.0
 11
-2.370646491516461
 21
0.2645041941510244
 31
0.0
210
0.0
220
0.0
230
1.0
 40
0.028832
 41
4.594443277520324
 42
5.104600662126047
  0
ELLIPSE
  5
16A
330
1F
100
AcDbEntity
  8
1
100
AcDbEllipse
 10
390.036936
 20
365.499836
 30
0.0
 11
-2.401434640556379
 21
-0.7296436485748709
 31
0.0
210
0.0
220
0.0
230
0.9999999999999998
 40
0.038586
 41
4.223261592851407
 42
4.886486708604622
  0
ELLIPSE
  5
16B
330
1F
100
AcDbEntity
  8
1
100
AcDbEllipse
 10
373.498188
 20
369.075003
 30
0.0
 11
-13.22204003148001
 21
-16.04936256933374
 31
0.0
210
0.0
220
0.0
230
1.0
 40
0.8687629999999998
 41
2.043075421916345
 42
2.077058109886729
  0
ELLIPSE
  5
16C
330
1F
100
AcDbEntity
  8
1
100
AcDbEllipse
 10
373.199326
 20
366.643962
 30
0.0
 11
0.0
 21
19.25361789020254
 31
0.0
210
0.0
220
0.0
230
1.0
 40
0.9848079999999999
 41
4.746883649603108
 42
4.750992134765016
  0
ELLIPSE
  5
16D
330
1F
100
AcDbEntity
  8
1
100
AcDbEllipse
 10
373.218394
 20
366.378252
 30
0.0
 11
-6.937293334639097
 21
18.06774117818672
 31
0.0
210
0.0
220
0.0
230
0.9999999999999998
 40
0.977349
 41
4.409346257643003
 42
4.643911411626346
  0
ELLIPSE
  5
16E
330
1F
100
AcDbEntity
  8
1
100
AcDbEllipse
 10
361.095337
 20
386.066531
 30
0.0
 11
-0.9643575144626176
 21
12.29891842053496
 31
0.0
210
0.0
220
0.0
230
1.0
 40
0.5644970000000001
 41
1.79057678688268
 42
2.173882475940251
  0
ELLIPSE
  5
16F
330
1F
100
AcDbEntity
  8
1
100
AcDbEllipse
 10
373.473632
 20
386.947516
 30
0.0
 11
-0.0000000000000012
 21
-19.65676275012362
 31
0.0
210
0.0
220
0.0
230
1.0
 40
0.9848079999999999
 41
5.960745853323861
 42
6.170378920405585
  0
ELLIPSE
  5
170
330
1F
100
AcDbEntity
  8
1
100
AcDbEllipse
 10
373.473632
 20
386.947516
 30
0.0
 11
-0.0000000000000012
 21
-19.65676275012362
 31
0.0
210
0.0
220
0.0
230
1.0
 40
0.9848079999999999
 41
5.042182043201223
 42
5.895610092563545
  0
ELLIPSE
  5
171
330
1F
100
AcDbEntity
  8
1
100
AcDbEllipse
 10
373.473632
 20
386.947516
 30
0.0
 11
-0.0000000000000012
 21
-19.65676275012361
 31
0.0
210
0.0
220
0.0
230
1.0
 40
0.9848079999999999
 41
4.922158151577313
 42
5.012693829712591
  0
ELLIPSE
  5
172
330
1F
100
AcDbEntity
  8
1
100
AcDbEllipse
 10
372.281865
 20
376.500597
 30
0.0
 11
-0.0000000000000003
 21
-4.75
 31
0.0
210
0.0
220
0.0
230
1.0
 40
0.9848080000000001
 41
5.890777275869293
 42
6.283185307179585
  0
ELLIPSE
  5
173
330
1F
100
AcDbEntity
  8
1
100
AcDbEllipse
 10
372.281865
 20
376.500597
 30
0.0
 11
-0.0000000000000003
 21
-4.75
 31
0.0
210
0.0
220
0.0
230
1.0
 40
0.9848080000000001
 41
0.0
 42
3.028786311353408
  0
ELLIPSE
  5
174
330
1F
100
AcDbEntity
  8
1
100
AcDbEllipse
 10
372.281865
 20
376.500597
 30
0.0
 11
-0.0000000000000003
 21
-4.75
 31
0.0
210
0.0
220
0.0
230
1.0
 40
0.9848080000000001
 41
3.028786254806425
 42
3.534091837977976
  0
ELLIPSE
  5
175
330
1F
100
AcDbEntity
  8
1
100
AcDbEllipse
 10
372.438148
 20
376.500597
 30
0.0
 11
0.0
 21
4.812934130749162
 31
0.0
210
0.0
220
0.0
230
1.0
 40
0.9848079999999999
 41
0.0
 42
6.283185307179585
  0
SPLINE
  5
183
330
1F
100
AcDbEntity
  8
1
100
AcDbSpline
210
0.0
220
0.0
230
1.0
 70
     8
 71
     3
 72
    11
 73
     7
 74
     0
 42
0.000000001
 43
0.0000000001
 40
0.0
 40
0.0
 40
0.0
 40
0.0
 40
0.1095422867544911
 40
0.4753970843042145
 40
0.8426520168393308
 40
1.0
 40
1.0
 40
1.0
 40
1.0
 10
370.0359932192732
 20
358.5058874134045
 30
0.0
 10
370.0572150531436
 20
358.5190418790477
 30
0.0
 10
370.1498832391521
 20
358.5750645262937
 30
0.0
 10
370.3183382526757
 20
358.6660817217481
 30
0.0
 10
370.5022292590527
 20
358.7483630669512
 30
0.0
 10
370.6126367428863
 20
358.7908512060457
 30
0.0
 10
370.6459225512614
 20
358.8030508662598
 30
0.0
  0
SPLINE
  5
184
330
1F
100
AcDbEntity
  8
1
100
AcDbSpline
210
0.0
220
0.0
230
1.0
 70
     8
 71
     3
 72
    14
 73
    10
 74
     0
 42
0.000000001
 43
0.0000000001
 40
0.0
 40
0.0
 40
0.0
 40
0.0
 40
0.25
 40
0.25
 40
0.5
 40
0.5
 40
0.75
 40
0.75
 40
1.0
 40
1.0
 40
1.0
 40
1.0
 10
356.5798648364647
 20
347.0600283556236
 30
0.0
 10
356.4807379413344
 20
347.0650641037361
 30
0.0
 10
356.3816431137723
 20
347.0700555031707
 30
0.0
 10
356.1834294982606
 20
347.0800714386818
 30
0.0
 10
356.0843110066453
 20
347.0850955649346
 30
0.0
 10
355.8859196828356
 20
347.0953572667593
 30
0.0
 10
355.7866471321383
 20
347.1005944530276
 30
0.0
 10
355.5877662756751
 20
347.1115331667703
 30
0.0
 10
355.4881589029694
 20
347.1172334038453
 30
0.0
 10
355.388260057312
 20
347.1233367410213
 30
0.0
  0
SPLINE
  5
185
330
1F
100
AcDbEntity
  8
1
100
AcDbSpline
210
0.0
220
0.0
230
1.0
 70
     8
 71
     3
 72
     8
 73
     4
 74
     0
 42
0.000000001
 43
0.0000000001
 40
0.0
 40
0.0
 40
0.0
 40
0.0
 40
1.0
 40
1.0
 40
1.0
 40
1.0
 10
357.2545461014474
 20
347.0268892185924
 30
0.0
 10
357.0300145984714
 20
347.0375276550168
 30
0.0
 10
356.8051105349733
 20
347.0485856427286
 30
0.0
 10
356.5798648364594
 20
347.0600283556236
 30
0.0
  0
SPLINE
  5
186
330
1F
100
AcDbEntity
  8
1
100
AcDbSpline
210
0.0
220
0.0
230
1.0
 70
     8
 71
     3
 72
    10
 73
     6
 74
     0
 42
0.000000001
 43
0.0000000001
 40
0.0
 40
0.0
 40
0.0
 40
0.0
 40
0.5
 40
0.5
 40
1.0
 40
1.0
 40
1.0
 40
1.0
 10
357.4798997206348
 20
347.0162300801205
 30
0.0
 10
357.4424843985477
 20
347.0179132318943
 30
0.0
 10
357.404917955898
 20
347.0196929482147
 30
0.0
 10
357.3297315765588
 20
347.0232915573303
 30
0.0
 10
357.2921211899611
 20
347.0251088885051
 30
0.0
 10
357.2545461014474
 20
347.0268892185924
 30
0.0
  0
SPLINE
  5
187
330
1F
100
AcDbEntity
  8
1
100
AcDbSpline
210
0.0
220
0.0
230
1.0
 70
     8
 71
     3
 72
     8
 73
     4
 74
     0
 42
0.000000001
 43
0.0000000001
 40
0.0
 40
0.0
 40
0.0
 40
0.0
 40
1.0
 40
1.0
 40
1.0
 40
1.0
 10
389.9604789998802
 20
356.8040638981975
 30
0.0
 10
389.9736873024688
 20
356.8293994188134
 30
0.0
 10
389.986541420446
 20
356.8548243904032
 30
0.0
 10
389.9996403502499
 20
356.880218146337
 30
0.0
  0
SPLINE
  5
188
330
1F
100
AcDbEntity
  8
1
100
AcDbSpline
210
0.0
220
0.0
230
1.0
 70
     8
 71
     3
 72
    10
 73
     6
 74
     0
 42
0.000000001
 43
0.0000000001
 40
0.0
 40
0.0
 40
0.0
 40
0.0
 40
0.5
 40
0.5
 40
1.0
 40
1.0
 40
1.0
 40
1.0
 10
389.9996403502499
 20
356.880218146337
 30
0.0
 10
390.0372415720948
 20
356.9531123647689
 30
0.0
 10
390.0744433954864
 20
357.0262242332006
 30
0.0
 10
390.1479719313544
 20
357.1728995952641
 30
0.0
 10
390.1842979088692
 20
357.246463247512
 30
0.0
 10
390.2200764619528
 20
357.320276397213
 30
0.0
  0
SPLINE
  5
189
330
1F
100
AcDbEntity
  8
1
100
AcDbSpline
210
0.0
220
0.0
230
1.0
 70
     8
 71
     3
 72
     8
 73
     4
 74
     0
 42
0.000000001
 43
0.0000000001
 40
0.0
 40
0.0
 40
0.0
 40
0.0
 40
1.0
 40
1.0
 40
1.0
 40
1.0
 10
390.6865602289928
 20
358.9679537712125
 30
0.0
 10
390.7649876456626
 20
358.9620762176224
 30
0.0
 10
390.843414469773
 20
358.9562109194175
 30
0.0
 10
390.9218407066339
 20
358.9503577667761
 30
0.0
  0
SPLINE
  5
18A
330
1F
100
AcDbEntity
  8
1
100
AcDbSpline
210
0.0
220
0.0
230
1.0
 70
     8
 71
     3
 72
     8
 73
     4
 74
     0
 42
0.000000001
 43
0.0000000001
 40
0.0
 40
0.0
 40
0.0
 40
0.0
 40
1.0
 40
1.0
 40
1.0
 40
1.0
 10
385.6441933951759
 20
354.2977368595912
 30
0.0
 10
385.6338607263824
 20
354.2515729283004
 30
0.0
 10
385.6235630998932
 20
354.2054139035764
 30
0.0
 10
385.6133000764838
 20
354.1592597239194
 30
0.0
  0
SPLINE
  5
18B
330
1F
100
AcDbEntity
  8
1
100
AcDbSpline
210
0.0
220
0.0
230
1.0
 70
     8
 71
     3
 72
     8
 73
     4
 74
     0
 42
0.000000001
 43
0.0000000001
 40
0.0
 40
0.0
 40
0.0
 40
0.0
 40
1.0
 40
1.0
 40
1.0
 40
1.0
 10
385.6441933951757
 20
354.2977368595912
 30
0.0
 10
385.5798324519167
 20
354.3307785099201
 30
0.0
 10
385.5154885837529
 20
354.3638530824158
 30
0.0
 10
385.4511620794633
 20
354.3969611338666
 30
0.0
  0
SPLINE
  5
18C
330
1F
100
AcDbEntity
  8
1
100
AcDbSpline
210
0.0
220
0.0
230
1.0
 70
     8
 71
     3
 72
     8
 73
     4
 74
     0
 42
0.000000001
 43
0.0000000001
 40
0.0
 40
0.0
 40
0.0
 40
0.0
 40
1.0
 40
1.0
 40
1.0
 40
1.0
 10
385.4511620794632
 20
354.3969611338665
 30
0.0
 10
385.2313036669502
 20
354.4982748458091
 30
0.0
 10
385.0115881186995
 20
354.5999140328284
 30
0.0
 10
384.7920232512561
 20
354.7018965026706
 30
0.0
  0
SPLINE
  5
18D
330
1F
100
AcDbEntity
  8
1
100
AcDbSpline
210
0.0
220
0.0
230
1.0
 70
     8
 71
     3
 72
    16
 73
    12
 74
     0
 42
0.000000001
 43
0.0000000001
 40
0.0
 40
0.0
 40
0.0
 40
0.0
 40
0.1425946952149033
 40
0.1425946952149033
 40
0.2851893904298066
 40
0.2851893904298066
 40
0.5703787808596125
 40
0.5703787808596125
 40
0.8555681712894182
 40
0.8555681712894182
 40
1.0
 40
1.0
 40
1.0
 40
1.0
 10
359.8678467543395
 20
372.8038161070953
 30
0.0
 10
359.8999753401524
 20
372.7791102691357
 30
0.0
 10
359.9304071715384
 20
372.7564559268939
 30
0.0
 10
359.9884368071621
 20
372.7145400904067
 30
0.0
 10
360.0160324206092
 20
372.6952813716989
 30
0.0
 10
360.0951763740968
 20
372.6418221554242
 30
0.0
 10
360.1431115656986
 20
372.611900882297
 30
0.0
 10
360.2315337014418
 20
372.5606902676156
 30
0.0
 10
360.2720036390617
 20
372.5394224812368
 30
0.0
 10
360.3283920205738
 20
372.512571093023
 30
0.0
 10
360.3465675575037
 20
372.5044298377997
 30
0.0
 10
360.3640242317622
 20
372.4970947390931
 30
0.0
  0
SPLINE
  5
18E
330
1F
100
AcDbEntity
  8
1
100
AcDbSpline
210
0.0
220
0.0
230
1.0
 70
     8
 71
     3
 72
    21
 73
    17
 74
     0
 42
0.000000001
 43
0.0000000001
 40
0.0
 40
0.0
 40
0.0
 40
0.0
 40
0.1250000000000001
 40
0.1250000000000001
 40
0.2500000000000003
 40
0.2500000000000003
 40
0.3750000000000004
 40
0.3750000000000004
 40
0.5000000000000006
 40
0.5000000000000006
 40
0.7500000000000014
 40
0.7500000000000014
 40
0.8125000000000014
 40
0.8125000000000014
 40
0.8750000000000014
 40
1.0
 40
1.0
 40
1.0
 40
1.0
 10
356.2515850632537
 20
376.6960151448543
 30
0.0
 10
356.2912976323592
 20
376.5819532128568
 30
0.0
 10
356.334624950233
 20
376.4734161543531
 30
0.0
 10
356.4271424413204
 20
376.2640491181834
 30
0.0
 10
356.4763478395346
 20
376.1632549962013
 30
0.0
 10
356.5798974172409
 20
375.967561769391
 30
0.0
 10
356.6342478983635
 20
375.8726776980551
 30
0.0
 10
356.7476529808238
 20
375.6876881412693
 30
0.0
 10
356.8067105715382
 20
375.5975898845028
 30
0.0
 10
356.9905379085331
 20
375.3333897092692
 30
0.0
 10
357.121931612378
 20
375.1653116326219
 30
0.0
 10
357.2965813493723
 20
374.9633472994556
 30
0.0
 10
357.3320409739157
 20
374.9233600273078
 30
0.0
 10
357.4039721343843
 20
374.8442145578179
 30
0.0
 10
357.5131935443187
 20
374.7269532690081
 30
0.0
 10
357.626326697822
 20
374.6138953558872
 30
0.0
 10
357.7034474375703
 20
374.5402904372654
 30
0.0
  0
SPLINE
  5
18F
330
1F
100
AcDbEntity
  8
1
100
AcDbSpline
210
0.0
220
0.0
230
1.0
 70
     8
 71
     3
 72
    28
 73
    24
 74
     0
 42
0.000000001
 43
0.0000000001
 40
0.0
 40
0.0
 40
0.0
 40
0.0
 40
0.0312500000000013
 40
0.0312500000000013
 40
0.0625000000000025
 40
0.0625000000000025
 40
0.1250000000000077
 40
0.1250000000000077
 40
0.250000000000014
 40
0.250000000000014
 40
0.3125000000000155
 40
0.3125000000000155
 40
0.3750000000000171
 40
0.3750000000000171
 40
0.5000000000000166
 40
0.5000000000000166
 40
0.625000000000016
 40
0.625000000000016
 40
0.6875000000000141
 40
0.6875000000000141
 40
0.7500000000000119
 40
0.7500000000000119
 40
1.0
 40
1.0
 40
1.0
 40
1.0
 10
356.0019261015035
 20
377.6849362054811
 30
0.0
 10
356.0037607504775
 20
377.6725252481306
 30
0.0
 10
356.0056510234008
 20
377.6600841716377
 30
0.0
 10
356.0095444095845
 20
377.6351409180967
 30
0.0
 10
356.0115510400793
 20
377.6226188070618
 30
0.0
 10
356.0176784349928
 20
377.585340506159
 30
0.0
 10
356.0219238630007
 20
377.5607575879699
 30
0.0
 10
356.0351097780327
 20
377.4877632208313
 30
0.0
 10
356.0444992315683
 20
377.4401050444217
 30
0.0
 10
356.0593666069281
 20
377.3699318184155
 30
0.0
 10
356.0644632510705
 20
377.3467207692011
 30
0.0
 10
356.074743755159
 20
377.3013784747225
 30
0.0
 10
356.0799458054877
 20
377.2791579424232
 30
0.0
 10
356.0957148193329
 20
377.2136838936621
 30
0.0
 10
356.1064437094679
 20
377.1716110985433
 30
0.0
 10
356.128242728013
 20
377.0899537175886
 30
0.0
 10
356.1393132467673
 20
377.0503719780277
 30
0.0
 10
356.1561265712557
 20
376.9925127357617
 30
0.0
 10
356.1617506188499
 20
376.9735327538743
 30
0.0
 10
356.1729812933391
 20
376.9362880309223
 30
0.0
 10
356.1785964546939
 20
376.9179939547375
 30
0.0
 10
356.2066714844106
 20
376.8279738928611
 30
0.0
 10
356.229129067623
 20
376.7605129676911
 30
0.0
 10
356.2515850632536
 20
376.6960151448544
 30
0.0
  0
SPLINE
  5
190
330
1F
100
AcDbEntity
  8
SK1
100
AcDbSpline
210
0.0
220
0.0
230
1.0
 70
     8
 71
     3
 72
    17
 73
    13
 74
     0
 42
0.000000001
 43
0.0000000001
 40
0.0
 40
0.0
 40
0.0
 40
0.0
 40
0.2500000000000037
 40
0.2500000000000037
 40
0.3125000000000042
 40
0.3125000000000042
 40
0.3750000000000047
 40
0.5000000000000038
 40
0.5000000000000038
 40
0.7500000000000019
 40
0.7500000000000019
 40
1.0
 40
1.0
 40
1.0
 40
1.0
 10
261.1747977936166
 20
370.4589177040837
 30
0.0
 10
261.2711202324324
 20
370.7727179174499
 30
0.0
 10
261.3760973791509
 20
371.0846629639844
 30
0.0
 10
261.5171236710719
 20
371.4724925665229
 30
0.0
 10
261.5458346323206
 20
371.5499936092995
 30
0.0
 10
261.6041309538485
 20
371.7045751404527
 30
0.0
 10
261.6928659545773
 20
371.9357654184952
 30
0.0
 10
261.7853367368251
 20
372.1649813947885
 30
0.0
 10
261.9749220903076
 20
372.6209591779672
 30
0.0
 10
262.1074963617135
 20
372.9216762011663
 30
0.0
 10
262.383412141551
 20
373.5174199322223
 30
0.0
 10
262.5267548196009
 20
373.8124460219544
 30
0.0
 10
262.6747977936166
 20
374.1049880792289
 30
0.0
  0
SPLINE
  5
191
330
1F
100
AcDbEntity
  8
SK1
100
AcDbSpline
210
0.0
220
0.0
230
1.0
 70
     8
 71
     3
 72
    14
 73
    10
 74
     0
 42
0.000000001
 43
0.0000000001
 40
0.0
 40
0.0
 40
0.0
 40
0.0
 40
0.25
 40
0.25
 40
0.5
 40
0.5
 40
0.75
 40
0.75
 40
1.0
 40
1.0
 40
1.0
 40
1.0
 10
261.1747977936167
 20
361.5572324703763
 30
0.0
 10
261.2722875832226
 20
361.2396292498235
 30
0.0
 10
261.3779584349511
 20
360.9261192122208
 30
0.0
 10
261.603551891365
 20
360.3062296331958
 30
0.0
 10
261.7234754448268
 20
359.9998505664691
 30
0.0
 10
261.975747674465
 20
359.3933090219733
 30
0.0
 10
262.10809738986
 20
359.0931470641503
 30
0.0
 10
262.3836472556102
 20
358.4982518831498
 30
0.0
 10
262.5268484301032
 20
358.2035191723733
 30
0.0
 10
262.6747977936167
 20
357.9111620952311
 30
0.0
  0
SPLINE
  5
192
330
1F
100
AcDbEntity
  8
1
100
AcDbSpline
210
0.0
220
0.0
230
1.0
 70
     8
 71
     3
 72
     8
 73
     4
 74
     0
 42
0.000000001
 43
0.0000000001
 40
0.0
 40
0.0
 40
0.0
 40
0.0
 40
1.0
 40
1.0
 40
1.0
 40
1.0
 10
382.4623295483473
 20
362.164910834494
 30
0.0
 10
382.4532185382074
 20
362.0650808818822
 30
0.0
 10
382.4444669450171
 20
361.9655072196778
 30
0.0
 10
382.4360753777077
 20
361.8661902820928
 30
0.0
  0
SPLINE
  5
193
330
1F
100
AcDbEntity
  8
1
100
AcDbSpline
210
0.0
220
0.0
230
1.0
 70
     8
 71
     3
 72
     8
 73
     4
 74
     0
 42
0.000000001
 43
0.0000000001
 40
0.0
 40
0.0
 40
0.0
 40
0.0
 40
1.0
 40
1.0
 40
1.0
 40
1.0
 10
382.4360753777077
 20
355.3863168026808
 30
0.0
 10
382.4444817332908
 20
355.2989679473429
 30
0.0
 10
382.4532345289375
 20
355.2120376418153
 30
0.0
 10
382.4623295483473
 20
355.1255207921959
 30
0.0
  0
SPLINE
  5
194
330
1F
100
AcDbEntity
  8
1
100
AcDbSpline
210
0.0
220
0.0
230
1.0
 70
     8
 71
     3
 72
     8
 73
     4
 74
     0
 42
0.000000001
 43
0.0000000001
 40
0.0
 40
0.0
 40
0.0
 40
0.0
 40
1.0
 40
1.0
 40
1.0
 40
1.0
 10
380.2972660388864
 20
366.206960386132
 30
0.0
 10
380.2885146196686
 20
366.207638379243
 30
0.0
 10
380.2797632293758
 20
366.2083163687961
 30
0.0
 10
380.2710118682466
 20
366.2089943547621
 30
0.0
  0
SPLINE
  5
195
330
1F
100
AcDbEntity
  8
1
100
AcDbSpline
210
0.0
220
0.0
230
1.0
 70
     8
 71
     3
 72
     8
 73
     4
 74
     0
 42
0.000000001
 43
0.0000000001
 40
0.0
 40
0.0
 40
0.0
 40
0.0
 40
1.0
 40
1.0
 40
1.0
 40
1.0
 10
380.2710118682466
 20
350.5987388428029
 30
0.0
 10
380.2797625340064
 20
350.5830839382749
 30
0.0
 10
380.2885139263013
 20
350.567429460291
 30
0.0
 10
380.2972660388864
 20
350.5517754051842
 30
0.0
  0
SPLINE
  5
196
330
1F
100
AcDbEntity
  8
1
100
AcDbSpline
210
0.0
220
0.0
230
1.0
 70
     8
 71
     3
 72
     8
 73
     4
 74
     0
 42
0.000000001
 43
0.0000000001
 40
0.0
 40
0.0
 40
0.0
 40
0.0
 40
1.0
 40
1.0
 40
1.0
 40
1.0
 10
382.4623295483473
 20
365.940842747714
 30
0.0
 10
381.7409586947931
 20
366.0295242584262
 30
0.0
 10
381.0192471154135
 20
366.118231963186
 30
0.0
 10
380.2972660388864
 20
366.206960386132
 30
0.0
  0
SPLINE
  5
197
330
1F
100
AcDbEntity
  8
1
100
AcDbSpline
210
0.0
220
0.0
230
1.0
 70
     8
 71
     3
 72
     8
 73
     4
 74
     0
 42
0.000000001
 43
0.0000000001
 40
0.0
 40
0.0
 40
0.0
 40
0.0
 40
1.0
 40
1.0
 40
1.0
 40
1.0
 10
380.2972660388864
 20
350.5517754051842
 30
0.0
 10
381.0236337491744
 20
351.0507765493969
 30
0.0
 10
381.7457604716473
 20
351.5554739153283
 30
0.0
 10
382.4623295483473
 20
352.0676359531559
 30
0.0
  0
SPLINE
  5
198
330
1F
100
AcDbEntity
  8
1
100
AcDbSpline
210
0.0
220
0.0
230
1.0
 70
     8
 71
     3
 72
     8
 73
     4
 74
     0
 42
0.000000001
 43
0.0000000001
 40
0.0
 40
0.0
 40
0.0
 40
0.0
 40
1.0
 40
1.0
 40
1.0
 40
1.0
 10
370.8112015740214
 20
367.3557337587437
 30
0.0
 10
371.3120587416751
 20
367.2635220764994
 30
0.0
 10
371.8167445457051
 20
367.188478981011
 30
0.0
 10
372.3254387635736
 20
367.131712109825
 30
0.0
  0
SPLINE
  5
199
330
1F
100
AcDbEntity
  8
1
100
AcDbSpline
210
0.0
220
0.0
230
1.0
 70
     8
 71
     3
 72
    56
 73
    52
 74
     0
 42
0.000000001
 43
0.0000000001
 40
0.0
 40
0.0
 40
0.0
 40
0.0
 40
0.0625000000000051
 40
0.0625000000000051
 40
0.0937500000000067
 40
0.0937500000000067
 40
0.1093750000000079
 40
0.1093750000000079
 40
0.1250000000000092
 40
0.1250000000000092
 40
0.1875000000000112
 40
0.1875000000000112
 40
0.2500000000000131
 40
0.2500000000000131
 40
0.2656250000000133
 40
0.2656250000000133
 40
0.2812500000000134
 40
0.2812500000000134
 40
0.3125000000000135
 40
0.3125000000000135
 40
0.3750000000000135
 40
0.3750000000000135
 40
0.4375000000000141
 40
0.4375000000000141
 40
0.4531250000000142
 40
0.4531250000000142
 40
0.4687500000000143
 40
0.4687500000000143
 40
0.5000000000000142
 40
0.5000000000000142
 40
0.5625000000000138
 40
0.5625000000000138
 40
0.6250000000000134
 40
0.6250000000000134
 40
0.6562500000000127
 40
0.6562500000000127
 40
0.6875000000000121
 40
0.6875000000000121
 40
0.7500000000000112
 40
0.7500000000000112
 40
0.8125000000000104
 40
0.8125000000000104
 40
0.8437500000000101
 40
0.8437500000000101
 40
0.859375000000009
 40
0.859375000000009
 40
0.8750000000000081
 40
0.8750000000000081
 40
0.9375000000000039
 40
0.9375000000000039
 40
1.0
 40
1.0
 40
1.0
 40
1.0
 10
370.8112015740214
 20
358.685396143215
 30
0.0
 10
370.9346055145641
 20
358.5893543432551
 30
0.0
 10
371.0505274251021
 20
358.4870933107478
 30
0.0
 10
371.2139303446809
 20
358.3250561647052
 30
0.0
 10
371.2666446018937
 20
358.2695972470196
 30
0.0
 10
371.3431244989886
 20
358.184279481871
 30
0.0
 10
371.368185537728
 20
358.1554850439312
 30
0.0
 10
371.4174454824546
 20
358.0971892171372
 30
0.0
 10
371.4416824300514
 20
358.0676385446993
 30
0.0
 10
371.5600313750044
 20
357.9189898914547
 30
0.0
 10
371.6459673258048
 20
357.7969271581879
 30
0.0
 10
371.8018361743463
 20
357.5471539775525
 30
0.0
 10
371.8717606509868
 20
357.4194401610181
 30
0.0
 10
371.9495520474064
 20
357.256466117096
 30
0.0
 10
371.9646278402218
 20
357.2237040644964
 30
0.0
 10
371.9938175036405
 20
357.1578479951392
 30
0.0
 10
372.0079486038723
 20
357.1247112906018
 30
0.0
 10
372.0487662832255
 20
357.0251348089237
 30
0.0
 10
372.0738388234581
 20
356.9586435744473
 30
0.0
 10
372.142901220977
 20
356.758880024545
 30
0.0
 10
372.180757934618
 20
356.6253196027123
 30
0.0
 10
372.2408942940402
 20
356.3575451105182
 30
0.0
 10
372.2631712348272
 20
356.2233307373112
 30
0.0
 10
372.2813461303621
 20
356.0551931619041
 30
0.0
 10
372.2844959483702
 20
356.0215470466336
 30
0.0
 10
372.2898205113368
 20
355.9542181201095
 30
0.0
 10
372.2919903385376
 20
355.9205828751201
 30
0.0
 10
372.2970162981262
 20
355.8201231409442
 30
0.0
 10
372.2984021253332
 20
355.7536016571262
 30
0.0
 10
372.2968023453129
 20
355.5553662342962
 30
0.0
 10
372.2880797290883
 20
355.4249776560745
 30
0.0
 10
372.2555417132003
 20
355.1676922037698
 30
0.0
 10
372.2317277613757
 20
355.0407951511413
 30
0.0
 10
372.1843502461261
 20
354.8531247956109
 30
0.0
 10
372.1666096631244
 20
354.7910148282773
 30
0.0
 10
372.1271044336579
 20
354.6677105951004
 30
0.0
 10
372.1054875866741
 20
354.6069865029842
 30
0.0
 10
372.0351975090587
 20
354.4278916873687
 30
0.0
 10
371.9810604141086
 20
354.3124417225965
 30
0.0
 10
371.8579511122599
 20
354.0894686500482
 30
0.0
 10
371.7889845187708
 20
353.9819431896623
 30
0.0
 10
371.6736165098132
 20
353.8268997897335
 30
0.0
 10
371.6331676161707
 20
353.7762625106712
 30
0.0
 10
371.5693339706683
 20
353.7019431754435
 30
0.0
 10
371.5475288123651
 20
353.6774430857144
 30
0.0
 10
371.5028279167977
 20
353.62900422126
 30
0.0
 10
371.4798866327324
 20
353.6050208105146
 30
0.0
 10
371.3630741373877
 20
353.4872697586392
 30
0.0
 10
371.2628349295507
 20
353.39981810097
 30
0.0
 10
371.0480989735289
 20
353.2388052174019
 30
0.0
 10
370.9336118978287
 20
353.165235483166
 30
0.0
 10
370.8112015740214
 20
353.0992316315874
 30
0.0
  0
SPLINE
  5
19A
330
1F
100
AcDbEntity
  8
1
100
AcDbSpline
210
0.0
220
0.0
230
1.0
 70
     8
 71
     3
 72
     8
 73
     4
 74
     0
 42
0.000000001
 43
0.0000000001
 40
0.0
 40
0.0
 40
0.0
 40
0.0
 40
1.0
 40
1.0
 40
1.0
 40
1.0
 10
356.6514712964206
 20
372.3141917987652
 30
0.0
 10
356.2505738740587
 20
372.4940057483479
 30
0.0
 10
355.8496218640699
 20
372.673836123977
 30
0.0
 10
355.4486249778329
 20
372.8536800033866
 30
0.0
  0
SPLINE
  5
19B
330
1F
100
AcDbEntity
  8
1
100
AcDbSpline
210
0.0
220
0.0
230
1.0
 70
     8
 71
     3
 72
     8
 73
     4
 74
     0
 42
0.000000001
 43
0.0000000001
 40
0.0
 40
0.0
 40
0.0
 40
0.0
 40
1.0
 40
1.0
 40
1.0
 40
1.0
 10
355.4486249778329
 20
347.5762419840622
 30
0.0
 10
355.8500709148431
 20
347.9852660658993
 30
0.0
 10
356.2510538246828
 20
348.3947217024196
 30
0.0
 10
356.6514712964206
 20
348.804704343566
 30
0.0
  0
SPLINE
  5
19C
330
1F
100
AcDbEntity
  8
1
100
AcDbSpline
210
0.0
220
0.0
230
1.0
 70
     8
 71
     3
 72
     8
 73
     4
 74
     0
 42
0.000000001
 43
0.0000000001
 40
0.0
 40
0.0
 40
0.0
 40
0.0
 40
1.0
 40
1.0
 40
1.0
 40
1.0
 10
351.8175107467778
 20
347.5322987699144
 30
0.0
 10
351.8055035706687
 20
347.5323211628484
 30
0.0
 10
351.7934729810684
 20
347.5323324242686
 30
0.0
 10
351.7814187475486
 20
347.5323324211578
 30
0.0
  0
SPLINE
  5
19D
330
1F
100
AcDbEntity
  8
1
100
AcDbSpline
210
0.0
220
0.0
230
1.0
 70
     8
 71
     3
 72
     8
 73
     4
 74
     0
 42
0.000000001
 43
0.0000000001
 40
0.0
 40
0.0
 40
0.0
 40
0.0
 40
1.0
 40
1.0
 40
1.0
 40
1.0
 10
355.0417317134862
 20
384.4293030117642
 30
0.0
 10
355.0294384160287
 20
384.429282520279
 30
0.0
 10
355.0171351122711
 20
384.4292875577839
 30
0.0
 10
355.0048217431918
 20
384.4293182170458
 30
0.0
  0
SPLINE
  5
19E
330
1F
100
AcDbEntity
  8
1
100
AcDbSpline
210
0.0
220
0.0
230
1.0
 70
     8
 71
     3
 72
    17
 73
    13
 74
     0
 42
0.000000001
 43
0.0000000001
 40
0.0
 40
0.0
 40
0.0
 40
0.0
 40
0.0857566291116221
 40
0.0857566291116221
 40
0.2686053032892979
 40
0.2686053032892979
 40
0.634302651644649
 40
0.634302651644649
 40
0.7257269887334869
 40
0.7257269887334869
 40
0.8171513258223242
 40
1.0
 40
1.0
 40
1.0
 40
1.0
 10
354.3573170534733
 20
384.5080749727877
 30
0.0
 10
354.3663562595522
 20
384.5080748023418
 30
0.0
 10
354.375607589044
 20
384.5080663433091
 30
0.0
 10
354.4050991384198
 20
384.5080168773902
 30
0.0
 10
354.4260029581697
 20
384.5079503514347
 30
0.0
 10
354.4911990054672
 20
384.5076823926542
 30
0.0
 10
354.5379513955769
 20
384.5074129611925
 30
0.0
 10
354.6008385611573
 20
384.5070528429177
 30
0.0
 10
354.6136788943684
 20
384.5069794040746
 30
0.0
 10
354.6396245637352
 20
384.5068334118429
 30
0.0
 10
354.6788682065902
 20
384.5066161183169
 30
0.0
 10
354.7190730108868
 20
384.5064132412682
 30
0.0
 10
354.746301584063
 20
384.5062912492073
 30
0.0
  0
SPLINE
  5
19F
330
1F
100
AcDbEntity
  8
1
100
AcDbSpline
210
0.0
220
0.0
230
1.0
 70
     8
 71
     3
 72
    12
 73
     8
 74
     0
 42
0.000000001
 43
0.0000000001
 40
0.0
 40
0.0
 40
0.0
 40
0.0
 40
0.4101294672286306
 40
0.4101294672286306
 40
0.8202589344572791
 40
0.8202589344572791
 40
1.0
 40
1.0
 40
1.0
 40
1.0
 10
355.4486249778342
 20
384.4299797819492
 30
0.0
 10
355.4140706608399
 20
384.4299224341589
 30
0.0
 10
355.3795163438981
 20
384.4298650544991
 30
0.0
 10
355.3104077101212
 20
384.4297502314385
 30
0.0
 10
355.2758533932855
 20
384.4296927880375
 30
0.0
 10
355.2261554932837
 20
384.4296101239704
 30
0.0
 10
355.2110119100748
 20
384.4295849290547
 30
0.0
 10
355.1958683268761
 20
384.4295597280174
 30
0.0
  0
SPLINE
  5
1A0
330
1F
100
AcDbEntity
  8
1
100
AcDbSpline
210
0.0
220
0.0
230
1.0
 70
     8
 71
     3
 72
    36
 73
    32
 74
     0
 42
0.000000001
 43
0.0000000001
 40
0.0
 40
0.0
 40
0.0
 40
0.0
 40
0.1171849445427166
 40
0.1171849445427166
 40
0.1757774168140717
 40
0.1757774168140717
 40
0.2050736529497492
 40
0.2050736529497492
 40
0.2343698890854267
 40
0.2343698890854267
 40
0.3515548336281495
 40
0.3515548336281495
 40
0.4101473058995082
 40
0.4101473058995082
 40
0.4687397781708666
 40
0.4687397781708666
 40
0.5859247227135887
 40
0.5859247227135887
 40
0.6445171949849497
 40
0.6445171949849497
 40
0.7031096672563106
 40
0.7031096672563106
 40
0.8202946117990322
 40
0.8202946117990322
 40
0.8788870840703918
 40
0.8788870840703918
 40
0.9374795563417512
 40
0.9374795563417512
 40
0.996072028613111
 40
0.996072028613111
 40
1.0
 40
1.0
 40
1.0
 40
1.0
 10
350.7410185452857
 20
347.5323321526678
 30
0.0
 10
350.6803300474237
 20
347.5323321370063
 30
0.0
 10
350.6203641726382
 20
347.532046761467
 30
0.0
 10
350.5314379135195
 20
347.5312357418107
 30
0.0
 10
350.5019673784248
 20
347.5309015486752
 30
0.0
 10
350.4580209150462
 20
347.5303101374075
 30
0.0
 10
350.4433957367143
 20
347.5300976133695
 30
0.0
 10
350.4144917675318
 20
347.5296477783564
 30
0.0
 10
350.4001829913785
 20
347.5294101083422
 30
0.0
 10
350.3293395639624
 20
347.5281630976541
 30
0.0
 10
350.2748893038666
 20
347.5269779990258
 30
0.0
 10
350.1964653395041
 20
347.5250123240357
 30
0.0
 10
350.1708692274329
 20
347.5243257105635
 30
0.0
 10
350.1207935936375
 20
347.5229054812503
 30
0.0
 10
350.096649302753
 20
347.5221814583134
 30
0.0
 10
350.0268454972998
 20
347.5199965932227
 30
0.0
 10
349.9837782873763
 20
347.5185223347843
 30
0.0
 10
349.9244117638252
 20
347.516392488552
 30
0.0
 10
349.9055000485733
 20
347.5156961163996
 30
0.0
 10
349.8695030468653
 20
347.5143496105435
 30
0.0
 10
349.8526794707498
 20
347.5137093649439
 30
0.0
 10
349.8056527761369
 20
347.511909715253
 30
0.0
 10
349.7788669160276
 20
347.5108711534277
 30
0.0
 10
349.7457076208473
 20
347.509643037259
 30
0.0
 10
349.7358309701971
 20
347.5092886478234
 30
0.0
 10
349.7185476113961
 20
347.5087057116355
 30
0.0
 10
349.7112355506243
 20
347.5084804764283
 30
0.0
 10
349.6993265847074
 20
347.5081713694044
 30
0.0
 10
349.6947175278417
 20
347.5080870786102
 30
0.0
 10
349.691259416832
 20
347.5080755524335
 30
0.0
 10
349.6910483122077
 20
347.5080751585792
 30
0.0
 10
349.6908433802401
 20
347.5080750960334
 30
0.0
  0
SPLINE
  5
1A1
330
1F
100
AcDbEntity
  8
1
100
AcDbSpline
210
0.0
220
0.0
230
1.0
 70
    24
 71
     3
 72
     8
 73
     4
 74
     0
 42
0.000000001
 43
0.0000000001
 40
0.0
 40
0.0
 40
0.0
 40
0.0
 40
1.0
 40
1.0
 40
1.0
 40
1.0
 10
350.7410185452857
 20
347.5323321526678
 30
0.0
 10
351.0878186127067
 20
347.5323322421643
 30
0.0
 10
351.4346186801276
 20
347.5323323316608
 30
0.0
 10
351.7814187475486
 20
347.5323324211578
 30
0.0
  0
SPLINE
  5
1A2
330
1F
100
AcDbEntity
  8
1
100
AcDbSpline
210
0.0
220
0.0
230
1.0
 70
     8
 71
     3
 72
    65
 73
    61
 74
     0
 42
0.000000001
 43
0.0000000001
 40
0.0
 40
0.0
 40
0.0
 40
0.0
 40
0.0120444348629969
 40
0.0432882633611852
 40
0.0432882633611852
 40
0.0589101776102794
 40
0.0589101776102794
 40
0.0745320918593736
 40
0.0745320918593736
 40
0.1370197488557474
 40
0.1370197488557474
 40
0.1682635773539344
 40
0.1682635773539344
 40
0.1838854916030267
 40
0.1838854916030267
 40
0.1995074058521191
 40
0.1995074058521191
 40
0.2619950628484858
 40
0.2619950628484858
 40
0.2776169770975767
 40
0.2776169770975767
 40
0.2932388913466676
 40
0.3244827198448528
 40
0.3557265483430379
 40
0.3557265483430379
 40
0.3713484625921304
 40
0.3713484625921304
 40
0.3869703768412232
 40
0.3869703768412232
 40
0.4494580338375857
 40
0.4494580338375857
 40
0.4807018623357688
 40
0.4807018623357688
 40
0.4963237765848626
 40
0.4963237765848626
 40
0.5119456908339564
 40
0.5119456908339564
 40
0.5744333478303397
 40
0.5744333478303397
 40
0.6056771763285314
 40
0.6056771763285314
 40
0.6369210048267231
 40
0.6369210048267231
 40
0.6994086618231065
 40
0.6994086618231065
 40
0.7306524903212962
 40
0.7306524903212962
 40
0.761896318819486
 40
0.761896318819486
 40
0.8243839758158687
 40
0.8243839758158687
 40
0.8400058900649634
 40
0.8400058900649634
 40
0.8556278043140579
 40
0.886871632812249
 40
0.91811546131044
 40
0.91811546131044
 40
0.9493592898086312
 40
0.9493592898086312
 40
1.0
 40
1.0
 40
1.0
 40
1.0
 10
351.374797336177
 20
384.5080750831152
 30
0.0
 10
351.3748035126582
 20
384.5080748402136
 30
0.0
 10
351.3755348403324
 20
384.5080454687999
 30
0.0
 10
351.3787930699662
 20
384.5079144178798
 30
0.0
 10
351.3843102696693
 20
384.5076945761218
 30
0.0
 10
351.3864815582997
 20
384.5076083022132
 30
0.0
 10
351.3914986636029
 20
384.5074100220165
 30
0.0
 10
351.3943544521892
 20
384.5072976265197
 30
0.0
 10
351.4102143971141
 20
384.506677595372
 30
0.0
 10
351.4278652691905
 20
384.5059980059472
 30
0.0
 10
351.4614662925989
 20
384.5047730421328
 30
0.0
 10
351.4738631828177
 20
384.5043303900453
 30
0.0
 10
351.494294633193
 20
384.5036236120425
 30
0.0
 10
351.5013915035328
 20
384.503381612362
 30
0.0
 10
351.5160430897712
 20
384.5028903613447
 30
0.0
 10
351.5236128190354
 20
384.5026405882772
 30
0.0
 10
351.5626571686476
 20
384.5013759082423
 30
0.0
 10
351.5976844880141
 20
384.5003136568964
 30
0.0
 10
351.6461816745222
 20
384.4989984789714
 30
0.0
 10
351.6561427614653
 20
384.4987354709921
 30
0.0
 10
351.6764307497187
 20
384.4982156641178
 30
0.0
 10
351.7073399971662
 20
384.4974470118184
 30
0.0
 10
351.7611754644844
 20
384.4962337726357
 30
0.0
 10
351.8066569840826
 20
384.4953608040436
 30
0.0
 10
351.841675980375
 20
384.4947520070487
 30
0.0
 10
351.8535005525195
 20
384.4945567296974
 30
0.0
 10
351.8774565825237
 20
384.4941830658396
 30
0.0
 10
351.8896194421772
 20
384.4940042737809
 30
0.0
 10
351.9506795993037
 20
384.4931637053598
 30
0.0
 10
352.0004598571631
 20
384.4926588196834
 30
0.0
 10
352.076475732982
 20
384.4921846072844
 30
0.0
 10
352.1020402081569
 20
384.4920736941517
 30
0.0
 10
352.1407334647872
 20
384.4919820196628
 30
0.0
 10
352.1537232920797
 20
384.4919639214614
 30
0.0
 10
352.1796124256155
 20
384.4919533026676
 30
0.0
 10
352.1925134325406
 20
384.4919606910432
 30
0.0
 10
352.256804564117
 20
384.4920598587125
 30
0.0
 10
352.3075588370312
 20
384.4923383058194
 30
0.0
 10
352.382674590523
 20
384.4930310850439
 30
0.0
 10
352.4075924428543
 20
384.4933085189247
 30
0.0
 10
352.4568628622927
 20
384.4939482087913
 30
0.0
 10
352.4809209677916
 20
384.4943063986428
 30
0.0
 10
352.5514105946411
 20
384.4954779708931
 30
0.0
 10
352.596173314985
 20
384.4963885601249
 30
0.0
 10
352.6598682010135
 20
384.4978774659968
 30
0.0
 10
352.6806136641088
 20
384.498396917161
 30
0.0
 10
352.7200772136501
 20
384.4994418039059
 30
0.0
 10
352.7388769629569
 20
384.4999688325835
 30
0.0
 10
352.7925171121994
 20
384.5015410254327
 30
0.0
 10
352.8246271642265
 20
384.5025777566932
 30
0.0
 10
352.8599143887778
 20
384.5037820762753
 30
0.0
 10
352.8667008641077
 20
384.5040174457179
 30
0.0
 10
352.8796334914903
 20
384.5044719614745
 30
0.0
 10
352.89811815856
 20
384.5051310842333
 30
0.0
 10
352.924427359201
 20
384.506105624753
 30
0.0
 10
352.9406815531357
 20
384.5067304853834
 30
0.0
 10
352.9544694855719
 20
384.5072664155688
 30
0.0
 10
352.9601404539515
 20
384.5074903301609
 30
0.0
 10
352.971376483946
 20
384.5079365337774
 30
0.0
 10
352.9748268437281
 20
384.5080757793066
 30
0.0
 10
352.9748014550537
 20
384.5080750848646
 30
0.0
  0
SPLINE
  5
1A3
330
1F
100
AcDbEntity
  8
1
100
AcDbSpline
210
0.0
220
0.0
230
1.0
 70
     9
 71
     3
 72
   124
 73
   120
 74
     0
 42
0.000000001
 43
0.0000000001
 40
0.0
 40
0.0
 40
0.0
 40
0.0
 40
0.0312499999999979
 40
0.0312499999999979
 40
0.0468749999999971
 40
0.0468749999999971
 40
0.0624999999999964
 40
0.0624999999999964
 40
0.0937499999999947
 40
0.0937499999999947
 40
0.1015624999999942
 40
0.1015624999999942
 40
0.1093749999999937
 40
0.1249999999999933
 40
0.1406249999999929
 40
0.1406249999999929
 40
0.1484374999999931
 40
0.1484374999999931
 40
0.1562499999999934
 40
0.1562499999999934
 40
0.1874999999999948
 40
0.1874999999999948
 40
0.2031249999999946
 40
0.2031249999999946
 40
0.2187499999999945
 40
0.2187499999999945
 40
0.2499999999999926
 40
0.2499999999999926
 40
0.2578124999999925
 40
0.2578124999999925
 40
0.2656249999999925
 40
0.2812499999999946
 40
0.2968749999999966
 40
0.2968749999999966
 40
0.3046874999999977
 40
0.3046874999999977
 40
0.3124999999999988
 40
0.3124999999999988
 40
0.3437499999999966
 40
0.3437499999999966
 40
0.3593749999999956
 40
0.3593749999999956
 40
0.3671874999999949
 40
0.3671874999999949
 40
0.3749999999999943
 40
0.3749999999999943
 40
0.4062499999999944
 40
0.4062499999999944
 40
0.4140624999999944
 40
0.4140624999999944
 40
0.4218749999999944
 40
0.4218749999999944
 40
0.4374999999999922
 40
0.4374999999999922
 40
0.468749999999988
 40
0.468749999999988
 40
0.484374999999985
 40
0.484374999999985
 40
0.4999999999999822
 40
0.5156249999999792
 40
0.5156249999999792
 40
0.5234374999999783
 40
0.5234374999999783
 40
0.5312499999999773
 40
0.5312499999999773
 40
0.5624999999999742
 40
0.5624999999999742
 40
0.5781249999999725
 40
0.5781249999999725
 40
0.585937499999972
 40
0.585937499999972
 40
0.5937499999999713
 40
0.5937499999999713
 40
0.6249999999999682
 40
0.6249999999999682
 40
0.6328124999999673
 40
0.6328124999999673
 40
0.6406249999999664
 40
0.6406249999999664
 40
0.656249999999964
 40
0.6718749999999614
 40
0.6718749999999614
 40
0.687499999999959
 40
0.687499999999959
 40
0.7187499999999553
 40
0.7187499999999553
 40
0.7343749999999535
 40
0.7343749999999535
 40
0.7421874999999535
 40
0.7421874999999535
 40
0.7499999999999535
 40
0.7499999999999535
 40
0.7812499999999595
 40
0.7812499999999595
 40
0.7890624999999605
 40
0.7890624999999605
 40
0.7968749999999614
 40
0.7968749999999614
 40
0.8124999999999653
 40
0.8124999999999653
 40
0.8437499999999735
 40
0.8437499999999735
 40
0.8515624999999751
 40
0.8515624999999751
 40
0.8593749999999765
 40
0.8749999999999817
 40
0.8906249999999868
 40
0.8906249999999868
 40
0.8984374999999895
 40
0.8984374999999895
 40
0.9062499999999921
 40
0.9062499999999921
 40
0.9374999999999964
 40
0.9374999999999964
 40
0.9531249999999978
 40
0.9531249999999978
 40
0.9687499999999989
 40
0.9687499999999989
 40
1.0
 40
1.0
 40
1.0
 40
1.0
 10
347.8232121064758
 20
347.5368317507664
 30
0.0
 10
347.8485606681089
 20
347.5391751421503
 30
0.0
 10
347.8692800496686
 20
347.5417678306498
 30
0.0
 10
347.8935578788305
 20
347.5460877990442
 30
0.0
 10
347.9005126470227
 20
347.5476009019725
 30
0.0
 10
347.9120446918372
 20
347.5507798297723
 30
0.0
 10
347.9165353763984
 20
347.5524212718904
 30
0.0
 10
347.9263162788826
 20
347.5575039396471
 30
0.0
 10
347.927950549026
 20
347.5611032916864
 30
0.0
 10
347.9237814866221
 20
347.5658768133203
 30
0.0
 10
347.9226293057874
 20
347.566847987634
 30
0.0
 10
347.9197159924134
 20
347.5687989820232
 30
0.0
 10
347.914432352135
 20
347.5717413120019
 30
0.0
 10
347.9011742175921
 20
347.5767195495189
 30
0.0
 10
347.885910810466
 20
347.5807690108655
 30
0.0
 10
347.8726994566995
 20
347.5838254467348
 30
0.0
 10
347.8680011706739
 20
347.5848474703088
 30
0.0
 10
347.8580059535798
 20
347.5868968220577
 30
0.0
 10
347.8527194539253
 20
347.5879216800448
 30
0.0
 10
347.8250833695414
 20
347.5930011517755
 30
0.0
 10
347.7989692813035
 20
347.5969628494413
 30
0.0
 10
347.7539601489922
 20
347.6026842764359
 30
0.0
 10
347.7379569621628
 20
347.6045563818282
 30
0.0
 10
347.7040122607053
 20
347.6082012763405
 30
0.0
 10
347.6863095618461
 20
347.6099487083919
 30
0.0
 10
347.6310909509286
 20
347.6149539456595
 30
0.0
 10
347.591484127732
 20
347.6179768158246
 30
0.0
 10
347.538437138222
 20
347.6212933484757
 30
0.0
 10
347.5276230080837
 20
347.6219348275453
 30
0.0
 10
347.5057599033149
 20
347.6231616117441
 30
0.0
 10
347.4726889008099
 20
347.6249135614689
 30
0.0
 10
347.4162220764136
 20
347.6273923953407
 30
0.0
 10
347.3696363751671
 20
347.6288953178618
 30
0.0
 10
347.3341623673665
 20
347.6298353579748
 30
0.0
 10
347.3222484230049
 20
347.6301174761551
 30
0.0
 10
347.2982392153477
 20
347.630617600021
 30
0.0
 10
347.2861129809045
 20
347.6308360437641
 30
0.0
 10
347.2254166458288
 20
347.631757244396
 30
0.0
 10
347.1769816302112
 20
347.6319483593902
 30
0.0
 10
347.1045058522008
 20
347.6314389327328
 30
0.0
 10
347.0803769247472
 20
347.6311358322554
 30
0.0
 10
347.044229117801
 20
347.6304786060348
 30
0.0
 10
347.032157713139
 20
347.6302249905166
 30
0.0
 10
347.0081804767626
 20
347.6296529207569
 30
0.0
 10
346.9962984201869
 20
347.6293352352729
 30
0.0
 10
346.9374107475938
 20
347.6275934888367
 30
0.0
 10
346.891958458736
 20
347.6257124117608
 30
0.0
 10
346.8372022085704
 20
347.6227989275407
 30
0.0
 10
346.82635481852
 20
347.6221879445339
 30
0.0
 10
346.8048711418554
 20
347.6209098835375
 30
0.0
 10
346.7942099645803
 20
347.6202411382823
 30
0.0
 10
346.7627338189278
 20
347.6181632809951
 30
0.0
 10
346.7425260336757
 20
347.616690168446
 30
0.0
 10
346.6841627773936
 20
347.6120338441654
 30
0.0
 10
346.6482456526412
 20
347.6086153927249
 30
0.0
 10
346.5989818468973
 20
347.6030855206447
 30
0.0
 10
346.5833139215545
 20
347.6011699365056
 30
0.0
 10
346.5542364209584
 20
347.5973001609644
 30
0.0
 10
346.5272285022787
 20
347.5933722130977
 30
0.0
 10
346.5043071296566
 20
347.5893541661374
 30
0.0
 10
346.4886743767232
 20
347.5863147172821
 30
0.0
 10
346.4837236443026
 20
347.5852972297952
 30
0.0
 10
346.4743528693711
 20
347.5832546769894
 30
0.0
 10
346.4699222085538
 20
347.5822269191462
 30
0.0
 10
346.4492665110777
 20
347.5771054438025
 30
0.0
 10
346.4376045249554
 20
347.5731000124131
 30
0.0
 10
346.4272311541898
 20
347.5672627134813
 30
0.0
 10
346.4249686941154
 20
347.5653452793975
 30
0.0
 10
346.4234271257114
 20
347.5625147245495
 30
0.0
 10
346.4232236856639
 20
347.5615761370603
 30
0.0
 10
346.4234473096997
 20
347.5597324845618
 30
0.0
 10
346.4238718269593
 20
347.5588265696759
 30
0.0
 10
346.4275301665488
 20
347.5543747377653
 30
0.0
 10
346.4353268705654
 20
347.5510614870144
 30
0.0
 10
346.4511733930339
 20
347.5472075417638
 30
0.0
 10
346.4546505044166
 20
347.5464511664418
 30
0.0
 10
346.4622321242992
 20
347.5449667976762
 30
0.0
 10
346.466337138215
 20
347.5442392681213
 30
0.0
 10
346.4794491184999
 20
347.542122718796
 30
0.0
 10
346.4991373649128
 20
347.5394589443336
 30
0.0
 10
346.523110135164
 20
347.5370822060028
 30
0.0
 10
346.5492248071168
 20
347.5348370817853
 30
0.0
 10
346.5633729415222
 20
347.5337790401715
 30
0.0
 10
346.6090000700487
 20
347.5307960656274
 30
0.0
 10
346.6427661303141
 20
347.5291149835057
 30
0.0
 10
346.6981702810504
 20
347.5269498937043
 30
0.0
 10
346.7174368971554
 20
347.5262882166303
 30
0.0
 10
346.7475540918637
 20
347.5253771887667
 30
0.0
 10
346.7578231534818
 20
347.5250864641298
 30
0.0
 10
346.7785807015868
 20
347.5245360918271
 30
0.0
 10
346.7890803015881
 20
347.524276000205
 30
0.0
 10
346.842169388918
 20
347.5230456625448
 30
0.0
 10
346.8865154782058
 20
347.5222827978795
 30
0.0
 10
346.9442570664669
 20
347.5215526982554
 30
0.0
 10
346.9559218650541
 20
347.5214180323749
 30
0.0
 10
346.9794877532758
 20
347.5211707778441
 30
0.0
 10
346.9914042202341
 20
347.5210581203254
 30
0.0
 10
347.027141626774
 20
347.5207555317774
 30
0.0
 10
347.0510651336011
 20
347.5205994785123
 30
0.0
 10
347.1231227543464
 20
347.5202574647309
 30
0.0
 10
347.1715412753935
 20
347.5201952890718
 30
0.0
 10
347.2325523072561
 20
347.5203256583383
 30
0.0
 10
347.2448007575734
 20
347.5203624596558
 30
0.0
 10
347.2690992615337
 20
347.5204568781189
 30
0.0
 10
347.3053297037042
 20
347.5206299863426
 30
0.0
 10
347.3646487449826
 20
347.521075492559
 30
0.0
 10
347.4109795028908
 20
347.521607919315
 30
0.0
 10
347.4452981529715
 20
347.5220800835977
 30
0.0
 10
347.4566660078363
 20
347.5222496505818
 30
0.0
 10
347.4792554360373
 20
347.5226147815853
 30
0.0
 10
347.4905076276267
 20
347.5228109513171
 30
0.0
 10
347.5459136161552
 20
347.5238525188832
 30
0.0
 10
347.5875955966951
 20
347.5248770946012
 30
0.0
 10
347.6462215707788
 20
347.5267665845324
 30
0.0
 10
347.6651095028561
 20
347.5274556607772
 30
0.0
 10
347.7015312140234
 20
347.5289700428263
 30
0.0
 10
347.7190845724982
 20
347.5297976425624
 30
0.0
 10
347.7686142483319
 20
347.532460750846
 30
0.0
 10
347.7978635448425
 20
347.5344883593824
 30
0.0
 10
347.8232121064757
 20
347.5368317507663
 30
0.0
  0
SPLINE
  5
1A4
330
1F
100
AcDbEntity
  8
1
100
AcDbSpline
210
0.0
220
0.0
230
1.0
 70
     8
 71
     3
 72
    10
 73
     6
 74
     0
 42
0.000000001
 43
0.0000000001
 40
0.0
 40
0.0
 40
0.0
 40
0.0
 40
0.5
 40
0.5
 40
1.0
 40
1.0
 40
1.0
 40
1.0
 10
370.8112015740214
 20
367.3557337587437
 30
0.0
 10
370.1768885477664
 20
367.4725156977832
 30
0.0
 10
369.5505242880876
 20
367.6175888704947
 30
0.0
 10
368.3137893585899
 20
367.9631119627256
 30
0.0
 10
367.7034202275804
 20
368.1635701573287
 30
0.0
 10
367.1013052716045
 20
368.3915554081977
 30
0.0
  0
SPLINE
  5
1A5
330
1F
100
AcDbEntity
  8
1
100
AcDbSpline
210
0.0
220
0.0
230
1.0
 70
     8
 71
     3
 72
    10
 73
     6
 74
     0
 42
0.000000001
 43
0.0000000001
 40
0.0
 40
0.0
 40
0.0
 40
0.0
 40
0.5
 40
0.5
 40
1.0
 40
1.0
 40
1.0
 40
1.0
 10
370.5231281097728
 20
352.9647558291712
 30
0.0
 10
370.5730815863256
 20
352.9846792955697
 30
0.0
 10
370.6221941088833
 20
353.0059332057657
 30
0.0
 10
370.7185003173191
 20
353.0509328650341
 30
0.0
 10
370.7654251362813
 20
353.0745488997031
 30
0.0
 10
370.8112015740216
 20
353.0992316315874
 30
0.0
  0
SPLINE
  5
1A6
330
1F
100
AcDbEntity
  8
1
100
AcDbSpline
210
0.0
220
0.0
230
1.0
 70
     8
 71
     3
 72
   107
 73
   103
 74
     0
 42
0.000000001
 43
0.0000000001
 40
0.0
 40
0.0
 40
0.0
 40
0.0
 40
0.0312499999999985
 40
0.0312499999999985
 40
0.0468749999999971
 40
0.0468749999999971
 40
0.0546874999999964
 40
0.0546874999999964
 40
0.0624999999999958
 40
0.0624999999999958
 40
0.0937499999999959
 40
0.0937499999999959
 40
0.1249999999999961
 40
0.1249999999999961
 40
0.1406249999999969
 40
0.1406249999999969
 40
0.1484374999999973
 40
0.1484374999999973
 40
0.1562499999999978
 40
0.1562499999999978
 40
0.187500000000001
 40
0.187500000000001
 40
0.2187500000000042
 40
0.2187500000000042
 40
0.2265625000000039
 40
0.2265625000000039
 40
0.2343750000000035
 40
0.2343750000000035
 40
0.2500000000000027
 40
0.2500000000000027
 40
0.2812500000000001
 40
0.2812500000000001
 40
0.2968749999999994
 40
0.2968749999999994
 40
0.3046874999999989
 40
0.3046874999999989
 40
0.3124999999999984
 40
0.3124999999999984
 40
0.3437499999999989
 40
0.3437499999999989
 40
0.3749999999999993
 40
0.3749999999999993
 40
0.3828124999999992
 40
0.3828124999999992
 40
0.3906249999999989
 40
0.3906249999999989
 40
0.4062499999999986
 40
0.4062499999999986
 40
0.4374999999999988
 40
0.4374999999999988
 40
0.4531249999999988
 40
0.4531249999999988
 40
0.4609374999999988
 40
0.4609374999999988
 40
0.4687499999999988
 40
0.4687499999999988
 40
0.5
 40
0.5
 40
0.5312500000000009
 40
0.5312500000000009
 40
0.5468750000000016
 40
0.5468750000000016
 40
0.5625000000000022
 40
0.5625000000000022
 40
0.5937500000000031
 40
0.5937500000000031
 40
0.6250000000000043
 40
0.6250000000000043
 40
0.6406250000000046
 40
0.6406250000000046
 40
0.6484375000000048
 40
0.6484375000000048
 40
0.656250000000005
 40
0.656250000000005
 40
0.6875000000000064
 40
0.6875000000000064
 40
0.7187500000000079
 40
0.7187500000000079
 40
0.7500000000000091
 40
0.7500000000000091
 40
0.7656250000000093
 40
0.7656250000000093
 40
0.7812500000000093
 40
0.7812500000000093
 40
0.8125000000000085
 40
0.8125000000000085
 40
0.8437500000000078
 40
0.8437500000000078
 40
0.8750000000000071
 40
0.8750000000000071
 40
0.890625000000006
 40
0.890625000000006
 40
0.9062500000000051
 40
0.9062500000000051
 40
0.9375000000000039
 40
0.9375000000000039
 40
0.968750000000003
 40
0.968750000000003
 40
0.9765625000000021
 40
0.9765625000000021
 40
0.9843750000000015
 40
1.0
 40
1.0
 40
1.0
 40
1.0
 10
370.8112015740214
 20
358.685396143215
 30
0.0
 10
370.7039843673456
 20
358.7688402655868
 30
0.0
 10
370.5920370332091
 20
358.8467214463283
 30
0.0
 10
370.416752632495
 20
358.9547534301214
 30
0.0
 10
370.3570944240277
 20
358.9892958120216
 30
0.0
 10
370.2656993303623
 20
359.0388168867337
 30
0.0
 10
370.2349161136126
 20
359.0549415645228
 30
0.0
 10
370.172699959892
 20
359.086407743268
 30
0.0
 10
370.1413294791384
 20
359.1017158599962
 30
0.0
 10
369.9839111854611
 20
359.175769843482
 30
0.0
 10
369.8554710627913
 20
359.2274383852614
 30
0.0
 10
369.5936030267712
 20
359.3156361785958
 30
0.0
 10
369.4601759177903
 20
359.3521679781694
 30
0.0
 10
369.256150356045
 20
359.3951414359325
 30
0.0
 10
369.1874926080156
 20
359.4074900401861
 30
0.0
 10
369.083496041575
 20
359.4229365271742
 30
0.0
 10
369.0486333493433
 20
359.4275733652817
 30
0.0
 10
368.9791064264097
 20
359.4357416838574
 30
0.0
 10
368.9443778320302
 20
359.4392837975336
 30
0.0
 10
368.7709072065362
 20
359.4543091037912
 30
0.0
 10
368.632679627212
 20
359.4577671336578
 30
0.0
 10
368.3573135320734
 20
359.4476989485508
 30
0.0
 10
368.220174810992
 20
359.4341750283419
 30
0.0
 10
368.0494688492485
 20
359.4062434123481
 30
0.0
 10
368.0153637077769
 20
359.4001036472737
 30
0.0
 10
367.9472272082888
 20
359.3866979865502
 30
0.0
 10
367.9133304404135
 20
359.3794574000164
 30
0.0
 10
367.8124577323578
 20
359.3562081892044
 30
0.0
 10
367.7461667195024
 20
359.3386479529435
 30
0.0
 10
367.5501184498842
 20
359.279924244426
 30
0.0
 10
367.4231745190396
 20
359.2327399510028
 30
0.0
 10
367.2384167155085
 20
359.1500429935849
 30
0.0
 10
367.1777766756603
 20
359.1204849699826
 30
0.0
 10
367.0882651612317
 20
359.0731249618209
 30
0.0
 10
367.0586696015653
 20
359.0568341067765
 30
0.0
 10
366.9999690008066
 20
359.0232338599008
 30
0.0
 10
366.970888517017
 20
359.0059355066606
 30
0.0
 10
366.827830776489
 20
358.9175825211496
 30
0.0
 10
366.7199675691169
 20
358.8404639038182
 30
0.0
 10
366.5168829916768
 20
358.6741717876927
 30
0.0
 10
366.4216645776229
 20
358.5849946722727
 30
0.0
 10
366.3105648070008
 20
358.4661687077995
 30
0.0
 10
366.2887422761012
 20
358.4420346293921
 30
0.0
 10
366.2458975610142
 20
358.3930287330373
 30
0.0
 10
366.2249126051986
 20
358.3681966802771
 30
0.0
 10
366.1635723708869
 20
358.2931191319288
 30
0.0
 10
366.1246995409452
 20
358.2421448703978
 30
0.0
 10
366.0139211992808
 20
358.0866141948154
 30
0.0
 10
365.9478384819258
 20
357.9794587532177
 30
0.0
 10
365.8598449129351
 20
357.8139727866276
 30
0.0
 10
365.8323734013866
 20
357.7580162945391
 30
0.0
 10
365.7939280460224
 20
357.6729268963771
 30
0.0
 10
365.7815734913816
 20
357.6443711989664
 30
0.0
 10
365.7577837864984
 20
357.5868794517408
 30
0.0
 10
365.746356709289
 20
357.5579582728115
 30
0.0
 10
365.6918234091003
 20
357.4132811278219
 30
0.0
 10
365.6562114001419
 20
357.2966406560126
 30
0.0
 10
365.5997225950742
 20
357.0619273962335
 30
0.0
 10
365.578851276495
 20
356.9438532855166
 30
0.0
 10
365.5580525022897
 20
356.7658497947519
 30
0.0
 10
365.5528747783044
 20
356.7063657673708
 30
0.0
 10
365.5459805327169
 20
356.587120473601
 30
0.0
 10
365.5442860867552
 20
356.5277041332102
 30
0.0
 10
365.5442284577493
 20
356.3504644563336
 30
0.0
 10
365.5508656951903
 20
356.2334722395581
 30
0.0
 10
365.5765344356892
 20
356.0017346681091
 30
0.0
 10
365.5955690446913
 20
355.8869895339436
 30
0.0
 10
365.6330333276312
 20
355.716508460614
 30
0.0
 10
365.6470099446189
 20
355.6599543669827
 30
0.0
 10
365.670186224954
 20
355.5755278295616
 30
0.0
 10
365.6782868824853
 20
355.5474337388835
 30
0.0
 10
365.6951563399392
 20
355.4915961932995
 30
0.0
 10
365.7039310554234
 20
355.4638291977855
 30
0.0
 10
365.7494741810983
 20
355.3257378209297
 30
0.0
 10
365.7912359869833
 20
355.2176393298383
 30
0.0
 10
365.8848911744353
 20
355.0058834372468
 30
0.0
 10
365.9367856817656
 20
354.9022266889437
 30
0.0
 10
366.0505502173779
 20
354.6991600912091
 30
0.0
 10
366.1124194064133
 20
354.5997503304455
 30
0.0
 10
366.212855152981
 20
354.453750605136
 30
0.0
 10
366.2476816290249
 20
354.4055127431828
 30
0.0
 10
366.3194017794036
 20
354.3107747080606
 30
0.0
 10
366.3563256689262
 20
354.2642207298791
 30
0.0
 10
366.4702775805263
 20
354.1269479941545
 30
0.0
 10
366.5504748050752
 20
354.0386118106748
 30
0.0
 10
366.719525770403
 20
353.8681597291265
 30
0.0
 10
366.8083768845214
 20
353.7860428645289
 30
0.0
 10
366.9953151845092
 20
353.6281147684409
 30
0.0
 10
367.09339625874
 20
353.5523006545405
 30
0.0
 10
367.2482599151837
 20
353.4435804029143
 30
0.0
 10
367.3011759616442
 20
353.4081762149481
 30
0.0
 10
367.4098032874531
 20
353.3391217408992
 30
0.0
 10
367.4650832123269
 20
353.3057476519108
 30
0.0
 10
367.633775607532
 20
353.209242936572
 30
0.0
 10
367.7500922101512
 20
353.1496682062043
 30
0.0
 10
367.991345184402
 20
353.0407575384007
 30
0.0
 10
368.1162718723514
 20
352.9914108372782
 30
0.0
 10
368.2787707042877
 20
352.937015063463
 30
0.0
 10
368.3115699944614
 20
352.9265114423052
 30
0.0
 10
368.3773228341191
 20
352.9064168934036
 30
0.0
 10
368.4763642950817
 20
352.8775831778775
 30
0.0
 10
368.576662517189
 20
352.8527206569609
 30
0.0
 10
368.6441111657813
 20
352.8379755700363
 30
0.0
  0
SPLINE
  5
1A7
330
1F
100
AcDbEntity
  8
1
100
AcDbSpline
210
0.0
220
0.0
230
1.0
 70
     8
 71
     3
 72
    38
 73
    34
 74
     0
 42
0.000000001
 43
0.0000000001
 40
0.0
 40
0.0
 40
0.0
 40
0.0
 40
0.0001227834838748
 40
0.0001227834838748
 40
0.0611541658275168
 40
0.0611541658275168
 40
0.1832169305148025
 40
0.1832169305148025
 40
0.2442483128584447
 40
0.2442483128584447
 40
0.2747640040302667
 40
0.2747640040302667
 40
0.3052796952020891
 40
0.3052796952020891
 40
0.4273424598893752
 40
0.4273424598893752
 40
0.4578581510611945
 40
0.4578581510611945
 40
0.4883738422330138
 40
0.5494052245766522
 40
0.6104366069202904
 40
0.6104366069202904
 40
0.6409522980921083
 40
0.6409522980921083
 40
0.6714679892639267
 40
0.6714679892639267
 40
0.7935307539512046
 40
0.7935307539512046
 40
0.854562136294847
 40
0.854562136294847
 40
0.9155935186384894
 40
0.9155935186384894
 40
1.0
 40
1.0
 40
1.0
 40
1.0
 10
352.5946236363726
 20
373.9293234261396
 30
0.0
 10
352.5946296553224
 20
373.9293395487856
 30
0.0
 10
352.5946356822246
 20
373.9293556681242
 30
0.0
 10
352.597641433211
 20
373.937382500173
 30
0.0
 10
352.6026564393608
 20
373.9445952897859
 30
0.0
 10
352.623479864168
 20
373.9630254412477
 30
0.0
 10
352.6450258000059
 20
373.9712386266846
 30
0.0
 10
352.688624912024
 20
373.9767816891332
 30
0.0
 10
352.7050446348831
 20
373.9774950456252
 30
0.0
 10
352.7325440790806
 20
373.976726123
 30
0.0
 10
352.7421535286884
 20
373.9761623705216
 30
0.0
 10
352.7620871657164
 20
373.9744290683582
 30
0.0
 10
352.7724320222934
 20
373.9732590734485
 30
0.0
 10
352.8259738409754
 20
373.9658997348575
 30
0.0
 10
352.8745821602001
 20
373.9552108087722
 30
0.0
 10
352.9418374492106
 20
373.9356746737898
 30
0.0
 10
352.9556491121379
 20
373.9314456938987
 30
0.0
 10
352.9836855105882
 20
373.9224320504273
 30
0.0
 10
353.0263939352577
 20
373.9080711588268
 30
0.0
 10
353.1006572573716
 20
373.8800171990299
 30
0.0
 10
353.1630734590458
 20
373.8532743466185
 30
0.0
 10
353.2109456651942
 20
373.8316119970974
 30
0.0
 10
353.2270801195021
 20
373.8241234070322
 30
0.0
 10
353.2596962764417
 20
373.8086087114648
 30
0.0
 10
353.2761768110702
 20
373.8005821866563
 30
0.0
 10
353.3587721294284
 20
373.7594375232643
 30
0.0
 10
353.4259701689865
 20
373.7230520352111
 30
0.0
 10
353.52824764437
 20
373.6636436980056
 30
0.0
 10
353.5625903945903
 20
373.6430331387937
 30
0.0
 10
353.6317819626145
 20
373.600234238049
 30
0.0
 10
353.6667296774642
 20
373.5779780973726
 30
0.0
 10
353.7495534445676
 20
373.5238260599945
 30
0.0
 10
353.7974209214073
 20
373.4914056368621
 30
0.0
 10
353.8451592970678
 20
373.4581164841346
 30
0.0
  0
SPLINE
  5
1A8
330
1F
100
AcDbEntity
  8
1
100
AcDbSpline
210
0.0
220
0.0
230
1.0
 70
     8
 71
     2
 72
    10
 73
     7
 74
     0
 42
0.000000001
 43
0.0000000001
 40
0.0
 40
0.0
 40
0.0
 40
0.3446641591102451
 40
0.3446641591102451
 40
0.6893283182204902
 40
0.6893283182204902
 40
1.0
 40
1.0
 40
1.0
 10
352.4802752516171
 20
383.4428847974269
 30
0.0
 10
352.9226182810946
 20
380.9614031382438
 30
0.0
 10
353.957631421691
 20
378.6690070932287
 30
0.0
 10
355.025237399916
 20
376.3044228902618
 30
0.0
 10
356.6538504600459
 20
374.2949875329744
 30
0.0
 10
358.1181145722835
 20
372.4883312119804
 30
0.0
 10
359.9488963338031
 20
371.0773012662122
 30
0.0
  0
SPLINE
  5
1A9
330
1F
100
AcDbEntity
  8
1
100
AcDbSpline
210
0.0
220
0.0
230
1.0
 70
     8
 71
     3
 72
    84
 73
    80
 74
     0
 42
0.000000001
 43
0.0000000001
 40
0.0
 40
0.0
 40
0.0
 40
0.0
 40
0.0624999999999965
 40
0.0624999999999965
 40
0.124999999999993
 40
0.124999999999993
 40
0.1874999999999894
 40
0.1874999999999894
 40
0.2187499999999877
 40
0.2187499999999877
 40
0.2265624999999874
 40
0.2265624999999874
 40
0.2343749999999871
 40
0.2343749999999871
 40
0.2499999999999865
 40
0.2499999999999865
 40
0.281249999999985
 40
0.281249999999985
 40
0.3124999999999836
 40
0.3124999999999836
 40
0.3437499999999822
 40
0.3437499999999822
 40
0.3593749999999816
 40
0.3593749999999816
 40
0.3671874999999813
 40
0.3671874999999813
 40
0.3749999999999811
 40
0.4062499999999806
 40
0.4062499999999806
 40
0.43749999999998
 40
0.43749999999998
 40
0.4687499999999795
 40
0.4687499999999795
 40
0.4765624999999793
 40
0.4765624999999793
 40
0.4843749999999789
 40
0.4843749999999789
 40
0.4999999999999787
 40
0.4999999999999787
 40
0.5312499999999782
 40
0.5312499999999782
 40
0.5468749999999779
 40
0.5468749999999779
 40
0.5546874999999777
 40
0.5546874999999777
 40
0.5624999999999775
 40
0.5624999999999775
 40
0.6249999999999756
 40
0.6249999999999756
 40
0.6328124999999755
 40
0.6367187499999755
 40
0.6367187499999755
 40
0.6406249999999755
 40
0.6406249999999755
 40
0.6562499999999762
 40
0.6562499999999762
 40
0.6874999999999775
 40
0.6874999999999775
 40
0.7031249999999783
 40
0.7031249999999783
 40
0.7109374999999788
 40
0.7109374999999788
 40
0.7187499999999794
 40
0.7187499999999794
 40
0.7499999999999817
 40
0.7499999999999817
 40
0.7812499999999841
 40
0.7812499999999841
 40
0.8124999999999863
 40
0.8124999999999863
 40
0.8437499999999886
 40
0.8437499999999886
 40
0.8749999999999907
 40
0.8749999999999907
 40
0.9062499999999932
 40
0.9062499999999932
 40
0.9374999999999952
 40
0.9374999999999952
 40
1.0
 40
1.0
 40
1.0
 40
1.0
 10
352.7169900799528
 20
373.8809387744159
 30
0.0
 10
352.3111289752457
 20
374.0331988688965
 30
0.0
 10
351.9151619557324
 20
374.1986847196358
 30
0.0
 10
351.1437364864351
 20
374.5557499434736
 30
0.0
 10
350.7682698416083
 20
374.7473228688036
 30
0.0
 10
350.0393411109019
 20
375.1569502467369
 30
0.0
 10
349.6858583691408
 20
375.3749857771623
 30
0.0
 10
349.1741417909612
 20
375.723008451996
 30
0.0
 10
349.0066650435214
 20
375.842520920469
 30
0.0
 10
348.8015105476668
 20
375.9965115216937
 30
0.0
 10
348.7606895894306
 20
376.0275399773345
 30
0.0
 10
348.6794771941489
 20
376.0900644679552
 30
0.0
 10
348.6390880247486
 20
376.1215596807646
 30
0.0
 10
348.5189950098504
 20
376.2164246756947
 30
0.0
 10
348.4402252054187
 20
376.2802807024154
 30
0.0
 10
348.2078739084698
 20
376.4736729329281
 30
0.0
 10
348.0582444059633
 20
376.6050309030755
 30
0.0
 10
347.7700957268443
 20
376.8725853622935
 30
0.0
 10
347.6315745688588
 20
377.0087812586088
 30
0.0
 10
347.3664265659433
 20
377.286072856911
 30
0.0
 10
347.2397966550585
 20
377.4271676049874
 30
0.0
 10
347.0595801566134
 20
377.6426098431084
 30
0.0
 10
347.0011319526495
 20
377.7150581880672
 30
0.0
 10
346.91602449364
 20
377.8247075104065
 30
0.0
 10
346.8881076544517
 20
377.8613902025278
 30
0.0
 10
346.8333906832435
 20
377.9347564186557
 30
0.0
 10
346.6992481610235
 20
378.1183600070091
 30
0.0
 10
346.5784375412043
 20
378.3028529331281
 30
0.0
 10
346.4029957477521
 20
378.5989710349714
 30
0.0
 10
346.3241999060959
 20
378.7474948365052
 30
0.0
 10
346.1856101494027
 20
379.0453059813008
 30
0.0
 10
346.1258123174332
 20
379.1945932761056
 30
0.0
 10
346.0639413668183
 20
379.3816026450733
 30
0.0
 10
346.0522434421485
 20
379.4189342229778
 30
0.0
 10
346.0302651577006
 20
379.4932491395772
 30
0.0
 10
346.0199741518218
 20
379.5302644119546
 30
0.0
 10
345.9911921499062
 20
379.6408807982662
 30
0.0
 10
345.9747850750304
 20
379.7140522107302
 30
0.0
 10
345.9344074152199
 20
379.9318501015983
 30
0.0
 10
345.919243568326
 20
380.0747600613854
 30
0.0
 10
345.9167710855198
 20
380.2857061656439
 30
0.0
 10
345.9193348488818
 20
380.3554517866716
 30
0.0
 10
345.9286812017611
 20
380.4592177414124
 30
0.0
 10
345.932719928597
 20
380.4937034947221
 30
0.0
 10
345.9426848797048
 20
380.5622200134368
 30
0.0
 10
345.9485889856822
 20
380.5961134577212
 30
0.0
 10
346.0100481561473
 20
380.8979199211556
 30
0.0
 10
346.1239245000808
 20
381.1432061948572
 30
0.0
 10
346.320200031328
 20
381.3962494369853
 30
0.0
 10
346.3543303681829
 20
381.4379459438453
 30
0.0
 10
346.3905895732374
 20
381.4789377869794
 30
0.0
 10
346.4152355928388
 20
381.5061103564107
 30
0.0
 10
346.4278083129797
 20
381.519632439371
 30
0.0
 10
346.4916397165674
 20
381.5866343695414
 30
0.0
 10
346.545843426235
 20
381.638351067993
 30
0.0
 10
346.7172150721673
 20
381.7883574492419
 30
0.0
 10
346.8431272441522
 20
381.8815192569484
 30
0.0
 10
347.0472004867822
 20
382.0127130807372
 30
0.0
 10
347.1177633383401
 20
382.055015338343
 30
0.0
 10
347.2271638367331
 20
382.1165059217135
 30
0.0
 10
347.2642235980218
 20
382.1366754377173
 30
0.0
 10
347.3394896538915
 20
382.1763875069763
 30
0.0
 10
347.377570182178
 20
382.1958635605386
 30
0.0
 10
347.569948402826
 20
382.2913871521042
 30
0.0
 10
347.7302950036715
 20
382.3619796305258
 30
0.0
 10
348.0614504804192
 20
382.4939872218768
 30
0.0
 10
348.2322678764293
 20
382.5553924524376
 30
0.0
 10
348.5825839662525
 20
382.6707919266837
 30
0.0
 10
348.762087852748
 20
382.7247802593364
 30
0.0
 10
349.1284152416957
 20
382.8266631388032
 30
0.0
 10
349.3152420717173
 20
382.8745539686904
 30
0.0
 10
349.6951500323441
 20
382.9652483740791
 30
0.0
 10
349.8873073016211
 20
383.007831589653
 30
0.0
 10
350.2751852350609
 20
383.0884157337384
 30
0.0
 10
350.4709337163756
 20
383.1264199986807
 30
0.0
 10
350.8655187352372
 20
383.1986000556372
 30
0.0
 10
351.0643564541863
 20
383.2327739957831
 30
0.0
 10
351.6648750137008
 20
383.3304189722832
 30
0.0
 10
352.0705332222773
 20
383.3890537919355
 30
0.0
 10
352.4802752505169
 20
383.4428848036004
 30
0.0
  0
SPLINE
  5
1AA
330
1F
100
AcDbEntity
  8
1
100
AcDbSpline
210
0.0
220
0.0
230
1.0
 70
     8
 71
     3
 72
    19
 73
    15
 74
     0
 42
0.000000001
 43
0.0000000001
 40
0.0
 40
0.0
 40
0.0
 40
0.0
 40
0.125
 40
0.125
 40
0.25
 40
0.375
 40
0.375
 40
0.5
 40
0.5
 40
0.625
 40
0.625
 40
0.75
 40
0.75
 40
1.0
 40
1.0
 40
1.0
 40
1.0
 10
374.1790352286153
 20
376.5692428471994
 30
0.0
 10
374.1762333386309
 20
376.5627006067662
 30
0.0
 10
374.1729063938869
 20
376.5563861839398
 30
0.0
 10
374.1653684187268
 20
376.5444349955234
 30
0.0
 10
374.1569991003341
 20
376.5332180977541
 30
0.0
 10
374.1470614256298
 20
376.523387913891
 30
0.0
 10
374.1363313570354
 20
376.5142591201618
 30
0.0
 10
374.1306335452679
 20
376.5101079453238
 30
0.0
 10
374.1188274373532
 20
376.5027464435013
 30
0.0
 10
374.1126862289676
 20
376.499507979047
 30
0.0
 10
374.0999341733502
 20
376.4939045167968
 30
0.0
 10
374.0932706652472
 20
376.49152909306
 30
0.0
 10
374.073115741041
 20
376.4859169886352
 30
0.0
 10
374.059378418942
 20
376.4840916758615
 30
0.0
 10
374.0453385876082
 20
376.4842000117925
 30
0.0
  0
SPLINE
  5
1AB
330
1F
100
AcDbEntity
  8
1
100
AcDbSpline
210
0.0
220
0.0
230
1.0
 70
     8
 71
     3
 72
    12
 73
     8
 74
     0
 42
0.000000001
 43
0.0000000001
 40
0.0
 40
0.0
 40
0.0
 40
0.0
 40
0.2499999999999493
 40
0.2499999999999493
 40
0.4999999999998986
 40
0.4999999999998986
 40
1.0
 40
1.0
 40
1.0
 40
1.0
 10
373.9564262029298
 20
376.4554719821926
 30
0.0
 10
373.9628691212851
 20
376.4602573144744
 30
0.0
 10
373.9696223437114
 20
376.4644316937546
 30
0.0
 10
373.9837110540317
 20
376.4716365108644
 30
0.0
 10
373.991087630456
 20
376.4746790995321
 30
0.0
 10
374.0138373151805
 20
376.4819684295091
 30
0.0
 10
374.0293940868556
 20
376.4843230447759
 30
0.0
 10
374.0453385876082
 20
376.4842000117925
 30
0.0
  0
SPLINE
  5
1AC
330
1F
100
AcDbEntity
  8
1
100
AcDbSpline
210
0.0
220
0.0
230
1.0
 70
     8
 71
     3
 72
    28
 73
    24
 74
     0
 42
0.000000001
 43
0.0000000001
 40
0.0
 40
0.0
 40
0.0
 40
0.0
 40
0.1250000000000048
 40
0.1250000000000048
 40
0.1875000000000072
 40
0.1875000000000072
 40
0.2500000000000097
 40
0.2500000000000097
 40
0.3749999999999989
 40
0.3749999999999989
 40
0.4374999999999938
 40
0.4687499999999936
 40
0.4687499999999936
 40
0.4999999999999933
 40
0.4999999999999933
 40
0.6249999999999925
 40
0.6249999999999925
 40
0.6874999999999921
 40
0.6874999999999921
 40
0.7499999999999916
 40
0.7499999999999916
 40
0.8749999999999957
 40
1.0
 40
1.0
 40
1.0
 40
1.0
 10
373.9444629624828
 20
377.4878330724389
 30
0.0
 10
373.9781366142466
 20
377.461237570745
 30
0.0
 10
374.0092780828103
 20
377.4322573319318
 30
0.0
 10
374.052268122136
 20
377.3852811438694
 30
0.0
 10
374.0659748288241
 20
377.3690353364287
 30
0.0
 10
374.0921184226341
 20
377.335347652622
 30
0.0
 10
374.1046038371392
 20
377.3178258760045
 30
0.0
 10
374.1396023934618
 20
377.2641659182223
 30
0.0
 10
374.159749908687
 20
377.2269012320526
 30
0.0
 10
374.1852994155194
 20
377.1688155182872
 30
0.0
 10
374.1969005463848
 20
377.1392228407923
 30
0.0
 10
374.2067091674049
 20
377.1087903070897
 30
0.0
 10
374.2128425551372
 20
377.0883118651228
 30
0.0
 10
374.215709596793
 20
377.0779620667362
 30
0.0
 10
374.228896969119
 20
377.0262060371413
 30
0.0
 10
374.2359058525553
 20
376.9844508651264
 30
0.0
 10
374.2412871834966
 20
376.9213108858737
 30
0.0
 10
374.2422213260876
 20
376.9001792744017
 30
0.0
 10
374.2423496573506
 20
376.8577443298449
 30
0.0
 10
374.2415384608849
 20
376.8363772909296
 30
0.0
 10
374.2364479897935
 20
376.7724401141102
 30
0.0
 10
374.2227560472122
 20
376.6888817923542
 30
0.0
 10
374.1958753443589
 20
376.608563479604
 30
0.0
 10
374.1790352286153
 20
376.5692428471994
 30
0.0
  0
SPLINE
  5
1AD
330
1F
100
AcDbEntity
  8
1
100
AcDbSpline
210
0.0
220
0.0
230
1.0
 70
     8
 71
     3
 72
    20
 73
    16
 74
     0
 42
0.000000001
 43
0.0000000001
 40
0.0
 40
0.0
 40
0.0
 40
0.0
 40
0.1250000000000037
 40
0.1250000000000037
 40
0.2500000000000073
 40
0.2500000000000073
 40
0.3750000000000109
 40
0.3750000000000109
 40
0.5000000000000147
 40
0.5000000000000147
 40
0.6250000000000183
 40
0.6250000000000183
 40
0.7500000000000219
 40
0.7500000000000219
 40
1.0
 40
1.0
 40
1.0
 40
1.0
 10
373.7697439922605
 20
375.4725939157483
 30
0.0
 10
373.7758473479634
 20
375.4692012491708
 30
0.0
 10
373.7816684507058
 20
375.465407592922
 30
0.0
 10
373.792748853282
 20
375.4570223936503
 30
0.0
 10
373.7979993194909
 20
375.4524283405885
 30
0.0
 10
373.8076947160478
 20
375.4426513783085
 30
0.0
 10
373.8121733080675
 20
375.4374449612539
 30
0.0
 10
373.820377881265
 20
375.4263847469218
 30
0.0
 10
373.8241260736305
 20
375.4204824985884
 30
0.0
 10
373.8306433566863
 20
375.4083054034025
 30
0.0
 10
373.8334306713377
 20
375.4020202859643
 30
0.0
 10
373.8380516633981
 20
375.3890533935124
 30
0.0
 10
373.839894124667
 20
375.3823228189073
 30
0.0
 10
373.8438124803165
 20
375.3618439230352
 30
0.0
 10
373.8443059795827
 20
375.3480500859786
 30
0.0
 10
373.8425444863267
 20
375.3341094595783
 30
0.0
  0
SPLINE
  5
1AE
330
1F
100
AcDbEntity
  8
1
100
AcDbSpline
210
0.0
220
0.0
230
1.0
 70
     8
 71
     3
 72
    12
 73
     8
 74
     0
 42
0.000000001
 43
0.0000000001
 40
0.0
 40
0.0
 40
0.0
 40
0.0
 40
0.2499999999999641
 40
0.2499999999999641
 40
0.4999999999999283
 40
0.4999999999999283
 40
1.0
 40
1.0
 40
1.0
 40
1.0
 10
373.7697439922605
 20
375.4725939157483
 30
0.0
 10
373.7628054410407
 20
375.47645084167
 30
0.0
 10
373.756263736322
 20
375.4808069792338
 30
0.0
 10
373.7439514859129
 20
375.4904897282805
 30
0.0
 10
373.7381609280483
 20
375.4958380880224
 30
0.0
 10
373.7221384602279
 20
375.5132813991254
 30
0.0
 10
373.7135730144639
 20
375.5263172436597
 30
0.0
 10
373.7072543565953
 20
375.5408540507464
 30
0.0
  0
SPLINE
  5
1AF
330
1F
100
AcDbEntity
  8
1
100
AcDbSpline
210
0.0
220
0.0
230
1.0
 70
     8
 71
     3
 72
     8
 73
     4
 74
     0
 42
0.000000001
 43
0.0000000001
 40
0.0
 40
0.0
 40
0.0
 40
0.0
 40
1.0
 40
1.0
 40
1.0
 40
1.0
 10
373.7154632409191
 20
377.4824510014728
 30
0.0
 10
373.7082535669498
 20
377.482449004779
 30
0.0
 10
373.7010203366352
 20
377.4829833533447
 30
0.0
 10
373.6937625613826
 20
377.484068660006
 30
0.0
  0
SPLINE
  5
1B0
330
1F
100
AcDbEntity
  8
1
100
AcDbSpline
210
0.0
220
0.0
230
1.0
 70
     8
 71
     3
 72
    28
 73
    24
 74
     0
 42
0.000000001
 43
0.0000000001
 40
0.0
 40
0.0
 40
0.0
 40
0.0
 40
0.0624999999999993
 40
0.0624999999999993
 40
0.1249999999999986
 40
0.1249999999999986
 40
0.2499999999999923
 40
0.2499999999999923
 40
0.2812499999999915
 40
0.2812499999999915
 40
0.3124999999999907
 40
0.3124999999999907
 40
0.3749999999999893
 40
0.3749999999999893
 40
0.4999999999999915
 40
0.4999999999999915
 40
0.6249999999999936
 40
0.6249999999999936
 40
0.7499999999999958
 40
0.7499999999999958
 40
0.8749999999999978
 40
0.8749999999999978
 40
1.0
 40
1.0
 40
1.0
 40
1.0
 10
373.7072543565953
 20
375.5408540507464
 30
0.0
 10
373.6987944723407
 20
375.5603169980913
 30
0.0
 10
373.6911000961815
 20
375.5801607580619
 30
0.0
 10
373.6774108373946
 20
375.6202112754304
 30
0.0
 10
373.671401327754
 20
375.640442602528
 30
0.0
 10
373.6558869448102
 20
375.7017670174213
 30
0.0
 10
373.6488769653797
 20
375.7434856032562
 30
0.0
 10
373.6445779381265
 20
375.7967876886177
 30
0.0
 10
373.6439426678594
 20
375.8075289396718
 30
0.0
 10
373.6431397970799
 20
375.8289454687453
 30
0.0
 10
373.6429699951263
 20
375.8396356871098
 30
0.0
 10
373.6431502545356
 20
375.8716531778661
 30
0.0
 10
373.6441889007285
 20
375.8929273939432
 30
0.0
 10
373.6500583702061
 20
375.9565415465372
 30
0.0
 10
373.6576239918051
 20
375.9986748956134
 30
0.0
 10
373.6804790412845
 20
376.0823666459724
 30
0.0
 10
373.6954150956744
 20
376.1226110240912
 30
0.0
 10
373.7318198551382
 20
376.1999129984892
 30
0.0
 10
373.7532986365102
 20
376.2370015741192
 30
0.0
 10
373.8028955941199
 20
376.3080154440057
 30
0.0
 10
373.830299901039
 20
376.3409177261416
 30
0.0
 10
373.8898077541587
 20
376.4018247461145
 30
0.0
 10
373.9219314029255
 20
376.4298517475557
 30
0.0
 10
373.9564262029298
 20
376.4554719821926
 30
0.0
  0
SPLINE
  5
1B1
330
1F
100
AcDbEntity
  8
1
100
AcDbSpline
210
0.0
220
0.0
230
1.0
 70
     8
 71
     3
 72
    25
 73
    21
 74
     0
 42
0.000000001
 43
0.0000000001
 40
0.0
 40
0.0
 40
0.0
 40
0.0
 40
0.1672276316614211
 40
0.1672276316614211
 40
0.2508414474921319
 40
0.2508414474921319
 40
0.334455263322843
 40
0.334455263322843
 40
0.5016828949842532
 40
0.5016828949842532
 40
0.5852967108149687
 40
0.627103618730329
 40
0.627103618730329
 40
0.6689105266456894
 40
0.6689105266456894
 40
0.836138158307145
 40
0.836138158307145
 40
0.9197519741378748
 40
0.9197519741378748
 40
1.0
 40
1.0
 40
1.0
 40
1.0
 10
373.8425444863267
 20
375.3341094595783
 30
0.0
 10
373.8372435764445
 20
375.2921575508799
 30
0.0
 10
373.8285729082953
 20
375.2511173748747
 30
0.0
 10
373.8106190802443
 20
375.1909073241324
 30
0.0
 10
373.8038058968526
 20
375.171063373902
 30
0.0
 10
373.7884922856535
 20
375.1318373852267
 30
0.0
 10
373.7799485232853
 20
375.1123736726597
 30
0.0
 10
373.7520998873429
 20
375.0554998354329
 30
0.0
 10
373.7305984668757
 20
375.0195136459887
 30
0.0
 10
373.6940418579716
 20
374.9683689870554
 30
0.0
 10
373.6746821793137
 20
374.9435087135527
 30
0.0
 10
373.6536710571814
 20
374.9197363665956
 30
0.0
 10
373.6392898846365
 20
374.9041343781899
 30
0.0
 10
373.6319007219586
 20
374.8964458702577
 30
0.0
 10
373.5943526363798
 20
374.8589699707535
 30
0.0
 10
373.562174692563
 20
374.8318045845629
 30
0.0
 10
373.5108066548855
 20
374.7951354652484
 30
0.0
 10
373.4931645144446
 20
374.7835956472999
 30
0.0
 10
373.4575599763212
 20
374.7623350600341
 30
0.0
 10
373.4395862185983
 20
374.7525341386516
 30
0.0
 10
373.4212249590436
 20
374.7434432135352
 30
0.0
  0
SPLINE
  5
1B2
330
1F
100
AcDbEntity
  8
1
100
AcDbSpline
210
0.0
220
0.0
230
1.0
 70
     8
 71
     3
 72
    19
 73
    15
 74
     0
 42
0.000000001
 43
0.0000000001
 40
0.0
 40
0.0
 40
0.0
 40
0.0
 40
0.1250000000000007
 40
0.1250000000000007
 40
0.2500000000000012
 40
0.3750000000000019
 40
0.3750000000000019
 40
0.5000000000000025
 40
0.5000000000000025
 40
0.6250000000000031
 40
0.6250000000000031
 40
0.7500000000000037
 40
0.7500000000000037
 40
1.0
 40
1.0
 40
1.0
 40
1.0
 10
373.0593019345613
 20
378.4013047589438
 30
0.0
 10
373.06338993999
 20
378.3957292198371
 30
0.0
 10
373.0670064701966
 20
378.3898316975576
 30
0.0
 10
373.0731948220364
 20
378.3776414601339
 30
0.0
 10
373.0783184019208
 20
378.3651280569316
 30
0.0
 10
373.0814301401216
 20
378.3520067512954
 30
0.0
 10
373.0835249093069
 20
378.338579612394
 30
0.0
 10
373.0840439809581
 20
378.3317967167632
 30
0.0
 10
373.084062726836
 20
378.3183610146687
 30
0.0
 10
373.083568944829
 20
378.3116669503915
 30
0.0
 10
373.0815877276285
 20
378.2983269733346
 30
0.0
 10
373.0800812691795
 20
378.2916323248545
 30
0.0
 10
373.0741833380416
 20
378.2721696237098
 30
0.0
 10
373.0684577221558
 20
378.2599041616805
 30
0.0
 10
373.0609220367619
 20
378.2483565005217
 30
0.0
  0
SPLINE
  5
1B3
330
1F
100
AcDbEntity
  8
1
100
AcDbSpline
210
0.0
220
0.0
230
1.0
 70
     8
 71
     3
 72
    28
 73
    24
 74
     0
 42
0.000000001
 43
0.0000000001
 40
0.0
 40
0.0
 40
0.0
 40
0.0
 40
0.0624999999999992
 40
0.0624999999999992
 40
0.1249999999999986
 40
0.1249999999999986
 40
0.2499999999999793
 40
0.2499999999999793
 40
0.2812499999999751
 40
0.2812499999999751
 40
0.3124999999999709
 40
0.3124999999999709
 40
0.3749999999999796
 40
0.3749999999999796
 40
0.4999999999999837
 40
0.4999999999999837
 40
0.6249999999999878
 40
0.6249999999999878
 40
0.7499999999999919
 40
0.7499999999999919
 40
0.8749999999999959
 40
0.8749999999999959
 40
1.0
 40
1.0
 40
1.0
 40
1.0
 10
373.6937625613827
 20
377.484068660006
 30
0.0
 10
373.6724219786911
 20
377.487259868847
 30
0.0
 10
373.6511580673783
 20
377.4912818773836
 30
0.0
 10
373.6092211179658
 20
377.5009128123333
 30
0.0
 10
373.5885189734148
 20
377.5065225290397
 30
0.0
 10
373.5272104277774
 20
377.5257396203571
 30
0.0
 10
373.4873958464995
 20
377.5417166835162
 30
0.0
 10
373.4390306997917
 20
377.5659165211346
 30
0.0
 10
373.4294086007973
 20
377.5709810288924
 30
0.0
 10
373.4104733674344
 20
377.5814552785356
 30
0.0
 10
373.4011460737781
 20
377.5868710298956
 30
0.0
 10
373.3735820022872
 20
377.6036495455909
 30
0.0
 10
373.3557623798053
 20
377.6155427137701
 30
0.0
 10
373.3039717231596
 20
377.6533394525766
 30
0.0
 10
373.2716575583985
 20
377.6813453480182
 30
0.0
 10
373.2117089143749
 20
377.7432860196125
 30
0.0
 10
373.1850193325396
 20
377.7762518362332
 30
0.0
 10
373.1379236475535
 20
377.8458078785839
 30
0.0
 10
373.1174965373814
 20
377.8824220746382
 30
0.0
 10
373.0829439101264
 20
377.9594081277407
 30
0.0
 10
373.0693164631926
 20
377.9986710592321
 30
0.0
 10
373.0487889392949
 20
378.0785278112382
 30
0.0
 10
373.0418807319106
 20
378.1191489134777
 30
0.0
 10
373.0382996320599
 20
378.1604956700109
 30
0.0
  0
SPLINE
  5
1B4
330
1F
100
AcDbEntity
  8
1
100
AcDbSpline
210
0.0
220
0.0
230
1.0
 70
     8
 71
     3
 72
    12
 73
     8
 74
     0
 42
0.000000001
 43
0.0000000001
 40
0.0
 40
0.0
 40
0.0
 40
0.0
 40
0.2500000000000254
 40
0.2500000000000254
 40
0.5000000000000508
 40
0.5000000000000508
 40
1.0
 40
1.0
 40
1.0
 40
1.0
 10
373.0382996320599
 20
378.1604956700109
 30
0.0
 10
373.0376307429761
 20
378.1682185471286
 30
0.0
 10
373.0376484308866
 20
378.1758905962977
 30
0.0
 10
373.0389692997949
 20
378.1911416926462
 30
0.0
 10
373.0402838983031
 20
378.1987607581978
 30
0.0
 10
373.0461252901533
 20
378.2212090560958
 30
0.0
 10
373.0523641238063
 20
378.2352423809862
 30
0.0
 10
373.0609220367619
 20
378.2483565005217
 30
0.0
  0
SPLINE
  5
1B5
330
1F
100
AcDbEntity
  8
1
100
AcDbSpline
210
0.0
220
0.0
230
1.0
 70
     8
 71
     3
 72
    17
 73
    13
 74
     0
 42
0.000000001
 43
0.0000000001
 40
0.0
 40
0.0
 40
0.0
 40
0.0
 40
0.0020574166035091
 40
0.0020574166035091
 40
0.2515430624526152
 40
0.2515430624526152
 40
0.3762858853771684
 40
0.3762858853771684
 40
0.5010287083017221
 40
0.5010287083017221
 40
0.7505143541508611
 40
1.0
 40
1.0
 40
1.0
 40
1.0
 10
372.6562091805454
 20
378.6795391830172
 30
0.0
 10
372.656544146286
 20
378.6794453960433
 30
0.0
 10
372.656878987547
 20
378.6793513961135
 30
0.0
 10
372.6978015248878
 20
378.667832901599
 30
0.0
 10
372.7368471935995
 20
378.6532429974753
 30
0.0
 10
372.7931793880173
 20
378.6267721465509
 30
0.0
 10
372.8115821677142
 20
378.6171803870307
 30
0.0
 10
372.8476289293772
 20
378.5964428781924
 30
0.0
 10
372.8653239099137
 20
378.5852614416346
 30
0.0
 10
372.9168898228991
 20
378.5495537319992
 30
0.0
 10
372.9806193751352
 20
378.4969456405997
 30
0.0
 10
373.0347315990949
 20
378.4348156895558
 30
0.0
 10
373.0593019345613
 20
378.4013047589438
 30
0.0
  0
SPLINE
  5
1B6
330
1F
100
AcDbEntity
  8
1
100
AcDbSpline
210
0.0
220
0.0
230
1.0
 70
     8
 71
     3
 72
    24
 73
    20
 74
     0
 42
0.000000001
 43
0.0000000001
 40
0.0
 40
0.0
 40
0.0
 40
0.0
 40
0.0897907611585529
 40
0.0897907611585529
 40
0.1795815223171059
 40
0.1795815223171059
 40
0.359163044634231
 40
0.359163044634231
 40
0.4040584252135309
 40
0.4040584252135309
 40
0.4489538057928307
 40
0.4489538057928307
 40
0.5387445669514309
 40
0.5387445669514309
 40
0.7183260892686345
 40
0.7183260892686345
 40
0.8979076115858378
 40
0.8979076115858378
 40
1.0
 40
1.0
 40
1.0
 40
1.0
 10
372.0566936631334
 20
374.557382260524
 30
0.0
 10
372.068551779049
 20
374.5736540100057
 30
0.0
 10
372.0811360282752
 20
374.5894757093686
 30
0.0
 10
372.1075143984144
 20
374.6198950705734
 30
0.0
 10
372.1213214613507
 20
374.6345166082639
 30
0.0
 10
372.1646160569874
 20
374.6766238259533
 30
0.0
 10
372.1959625071402
 20
374.7023654268255
 30
0.0
 10
372.2385171753695
 20
374.731467965827
 30
0.0
 10
372.2472168491419
 20
374.7371447225227
 30
0.0
 10
372.2648123435853
 20
374.7480868618701
 30
0.0
 10
372.2737196500443
 20
374.7533612710612
 30
0.0
 10
372.3007687493067
 20
374.7686001074137
 30
0.0
 10
372.3192372520426
 20
374.7779811090977
 30
0.0
 10
372.3759555549257
 20
374.8037985097353
 30
0.0
 10
372.4155100616612
 20
374.8179261218094
 30
0.0
 10
372.4983186960177
 20
374.8396777932466
 30
0.0
 10
372.5402739434708
 20
374.8469556188342
 30
0.0
 10
372.6067479782643
 20
374.8530304090001
 30
0.0
 10
372.6309887856036
 20
374.8541338526613
 30
0.0
 10
372.655376450131
 20
374.8541275558224
 30
0.0
  0
SPLINE
  5
1B7
330
1F
100
AcDbEntity
  8
1
100
AcDbSpline
210
0.0
220
0.0
230
1.0
 70
     8
 71
     3
 72
    12
 73
     8
 74
     0
 42
0.000000001
 43
0.0000000001
 40
0.0
 40
0.0
 40
0.0
 40
0.0
 40
0.249999999999975
 40
0.249999999999975
 40
0.4999999999999499
 40
0.4999999999999499
 40
1.0
 40
1.0
 40
1.0
 40
1.0
 10
372.0323890046334
 20
374.4729911528382
 30
0.0
 10
372.0319687740238
 20
374.4805983919717
 30
0.0
 10
372.0321755288282
 20
374.4881112734633
 30
0.0
 10
372.0338079087118
 20
374.5029540409195
 30
0.0
 10
372.0352413384298
 20
374.5103112808461
 30
0.0
 10
372.041422831483
 20
374.5319190658674
 30
0.0
 10
372.0478366119857
 20
374.5452285829541
 30
0.0
 10
372.0566936631338
 20
374.5573822605242
 30
0.0
  0
SPLINE
  5
1B8
330
1F
100
AcDbEntity
  8
1
100
AcDbSpline
210
0.0
220
0.0
230
1.0
 70
     8
 71
     3
 72
    20
 73
    16
 74
     0
 42
0.000000001
 43
0.0000000001
 40
0.0
 40
0.0
 40
0.0
 40
0.0
 40
0.1250000000000002
 40
0.1250000000000002
 40
0.2500000000000003
 40
0.2500000000000003
 40
0.3750000000000006
 40
0.3750000000000006
 40
0.5000000000000007
 40
0.5000000000000007
 40
0.6250000000000009
 40
0.6250000000000009
 40
0.750000000000001
 40
0.750000000000001
 40
1.0
 40
1.0
 40
1.0
 40
1.0
 10
372.0323890046334
 20
374.4729911528382
 30
0.0
 10
372.0327586555628
 20
374.4662995341117
 30
0.0
 10
372.0326438667949
 20
374.4596534016042
 30
0.0
 10
372.0314503964397
 20
374.4464518957804
 30
0.0
 10
372.0303648678988
 20
374.4399020563982
 30
0.0
 10
372.0272768646719
 20
374.4271958020057
 30
0.0
 10
372.0252724327177
 20
374.4210001362044
 30
0.0
 10
372.0203259143126
 20
374.4089307288177
 30
0.0
 10
372.0173549098669
 20
374.4030154263916
 30
0.0
 10
372.0105859223638
 20
374.3918250815618
 30
0.0
 10
372.0067892240136
 20
374.3865305344928
 30
0.0
 10
371.9983632382571
 20
374.3765508146704
 30
0.0
 10
371.9936979943078
 20
374.3718354749204
 30
0.0
 10
371.9786153956887
 20
374.3588968151268
 30
0.0
 10
371.9673306442022
 20
374.351975859523
 30
0.0
 10
371.9547421523168
 20
374.3468732569231
 30
0.0
  0
SPLINE
  5
1B9
330
1F
100
AcDbEntity
  8
1
100
AcDbSpline
210
0.0
220
0.0
230
1.0
 70
     8
 71
     3
 72
    12
 73
     8
 74
     0
 42
0.000000001
 43
0.0000000001
 40
0.0
 40
0.0
 40
0.0
 40
0.0
 40
0.177461755620348
 40
0.177461755620348
 40
0.588730877810174
 40
0.588730877810174
 40
1.0
 40
1.0
 40
1.0
 40
1.0
 10
371.4083678796785
 20
378.1470661837615
 30
0.0
 10
371.3906914970283
 20
378.1470709645577
 30
0.0
 10
371.3730388814308
 20
378.1477150610222
 30
0.0
 10
371.3145471929303
 20
378.1519893045739
 30
0.0
 10
371.274979162004
 20
378.1583504665178
 30
0.0
 10
371.1982723524843
 20
378.1773001512948
 30
0.0
 10
371.161107092908
 20
378.1898941460501
 30
0.0
 10
371.1250752970512
 20
378.2056205576022
 30
0.0
  0
SPLINE
  5
1BA
330
1F
100
AcDbEntity
  8
1
100
AcDbSpline
210
0.0
220
0.0
230
1.0
 70
     8
 71
     3
 72
    12
 73
     8
 74
     0
 42
0.000000001
 43
0.0000000001
 40
0.0
 40
0.0
 40
0.0
 40
0.0
 40
0.2500000000000077
 40
0.2500000000000077
 40
0.5000000000000153
 40
0.5000000000000153
 40
1.0
 40
1.0
 40
1.0
 40
1.0
 10
371.1250752970512
 20
378.2056205576022
 30
0.0
 10
371.1183449611862
 20
378.2085580751246
 30
0.0
 10
371.112011793599
 20
378.2120557500769
 30
0.0
 10
371.100086518322
 20
378.2201018676967
 30
0.0
 10
371.0944677366608
 20
378.2246776514282
 30
0.0
 10
371.0789248921616
 20
378.2398380691861
 30
0.0
 10
371.0705446103512
 20
378.2515171614536
 30
0.0
 10
371.064120206662
 20
378.264753358513
 30
0.0
  0
SPLINE
  5
1BB
330
1F
100
AcDbEntity
  8
1
100
AcDbSpline
210
0.0
220
0.0
230
1.0
 70
     8
 71
     3
 72
     8
 73
     4
 74
     0
 42
0.000000001
 43
0.0000000001
 40
0.0
 40
0.0
 40
0.0
 40
0.0
 40
1.0
 40
1.0
 40
1.0
 40
1.0
 10
371.9547421523168
 20
374.3468732569231
 30
0.0
 10
371.9223126305831
 20
374.3337283176073
 30
0.0
 10
371.889167149455
 20
374.3229987605382
 30
0.0
 10
371.8553251480622
 20
374.3146475090293
 30
0.0
  0
SPLINE
  5
1BC
330
1F
100
AcDbEntity
  8
1
100
AcDbSpline
210
0.0
220
0.0
230
1.0
 70
     8
 71
     3
 72
     8
 73
     4
 74
     0
 42
0.000000001
 43
0.0000000001
 40
0.0
 40
0.0
 40
0.0
 40
0.0
 40
1.0
 40
1.0
 40
1.0
 40
1.0
 10
392.1424970231856
 20
367.4575763217235
 30
0.0
 10
392.1441427086448
 20
367.4341133109884
 30
0.0
 10
392.1454153774338
 20
367.4105972501393
 30
0.0
 10
392.1463118589105
 20
367.3870277016072
 30
0.0
  0
SPLINE
  5
1BD
330
1F
100
AcDbEntity
  8
1
100
AcDbSpline
210
0.0
220
0.0
230
1.0
 70
     8
 71
     3
 72
    20
 73
    16
 74
     0
 42
0.000000001
 43
0.0000000001
 40
0.0
 40
0.0
 40
0.0
 40
0.0
 40
0.2500000000000023
 40
0.2500000000000023
 40
0.3125000000000033
 40
0.3125000000000033
 40
0.3750000000000043
 40
0.3750000000000043
 40
0.5000000000000029
 40
0.5000000000000029
 40
0.7500000000000013
 40
0.7500000000000013
 40
0.8750000000000005
 40
0.8750000000000005
 40
1.0
 40
1.0
 40
1.0
 40
1.0
 10
392.1491584362078
 20
367.3079773818462
 30
0.0
 10
392.1506666196183
 20
367.2635982895916
 30
0.0
 10
392.1508095652013
 20
367.2194508781055
 30
0.0
 10
392.1492876849916
 20
367.1645564351945
 30
0.0
 10
392.1488977904071
 20
367.153592132456
 30
0.0
 10
392.1479451104032
 20
367.1316930919606
 30
0.0
 10
392.1473806305866
 20
367.1207324834114
 30
0.0
 10
392.1454390879873
 20
367.0881373433685
 30
0.0
 10
392.1438159469719
 20
367.0667770345633
 30
0.0
 10
392.1379990304168
 20
367.0037695982996
 30
0.0
 10
392.1328634464198
 20
366.9631888783778
 30
0.0
 10
392.1233174643246
 20
366.9044472581751
 30
0.0
 10
392.119818320523
 20
366.8851816674532
 30
0.0
 10
392.1122323702648
 20
366.8475800807997
 30
0.0
 10
392.1081611772344
 20
366.8293120699435
 30
0.0
 10
392.1038167433475
 20
366.8115753100607
 30
0.0
  0
SPLINE
  5
1BE
330
1F
100
AcDbEntity
  8
1
100
AcDbSpline
210
0.0
220
0.0
230
1.0
 70
     8
 71
     3
 72
     8
 73
     4
 74
     0
 42
0.000000001
 43
0.0000000001
 40
0.0
 40
0.0
 40
0.0
 40
0.0
 40
1.0
 40
1.0
 40
1.0
 40
1.0
 10
385.9545447721763
 20
365.7297584634156
 30
0.0
 10
386.1767194489445
 20
365.7046980147659
 30
0.0
 10
386.3984043661167
 20
365.680066483462
 30
0.0
 10
386.6196401776353
 20
365.6558282659442
 30
0.0
  0
SPLINE
  5
1BF
330
1F
100
AcDbEntity
  8
1
100
AcDbSpline
210
0.0
220
0.0
230
1.0
 70
     8
 71
     3
 72
    10
 73
     6
 74
     0
 42
0.000000001
 43
0.0000000001
 40
0.0
 40
0.0
 40
0.0
 40
0.0
 40
0.5
 40
0.5
 40
1.0
 40
1.0
 40
1.0
 40
1.0
 10
385.7315176281335
 20
365.7549320357094
 30
0.0
 10
385.7687316083025
 20
365.7506511265294
 30
0.0
 10
385.8059041655302
 20
365.7464580153221
 30
0.0
 10
385.8802239497232
 20
365.7381087186512
 30
0.0
 10
385.9173640958151
 20
365.7339523006443
 30
0.0
 10
385.9545447721763
 20
365.7297584634156
 30
0.0
  0
SPLINE
  5
1C0
330
1F
100
AcDbEntity
  8
1
100
AcDbSpline
210
0.0
220
0.0
230
1.0
 70
     8
 71
     3
 72
    14
 73
    10
 74
     0
 42
0.000000001
 43
0.0000000001
 40
0.0
 40
0.0
 40
0.0
 40
0.0
 40
0.25
 40
0.25
 40
0.5
 40
0.5
 40
0.75
 40
0.75
 40
1.0
 40
1.0
 40
1.0
 40
1.0
 10
386.6196401776294
 20
365.655828265945
 30
0.0
 10
386.7170023880163
 20
365.6451614285231
 30
0.0
 10
386.814424345797
 20
365.6344480303678
 30
0.0
 10
387.0092236190357
 20
365.6130560235123
 30
0.0
 10
387.1066014866159
 20
365.6023769845472
 30
0.0
 10
387.3010696587392
 20
365.5812430025161
 30
0.0
 10
387.3981604877595
 20
365.5707876507287
 30
0.0
 10
387.5917165763753
 20
365.5503644491085
 30
0.0
 10
387.6881835744222
 20
365.5403952445127
 30
0.0
 10
387.7841075082419
 20
365.5308492461379
 30
0.0
  0
SPLINE
  5
1C1
330
1F
100
AcDbEntity
  8
1
100
AcDbSpline
210
0.0
220
0.0
230
1.0
 70
     8
 71
     3
 72
    15
 73
    11
 74
     0
 42
0.000000001
 43
0.0000000001
 40
0.0
 40
0.0
 40
0.0
 40
0.0
 40
0.2500000000000066
 40
0.2500000000000066
 40
0.3750000000000072
 40
0.3750000000000072
 40
0.5000000000000079
 40
0.5000000000000079
 40
0.7500000000000039
 40
1.0
 40
1.0
 40
1.0
 40
1.0
 10
385.9212911879716
 20
380.5050028158983
 30
0.0
 10
386.2413667393986
 20
380.207565508718
 30
0.0
 10
386.5514176983315
 20
379.9000776945371
 30
0.0
 10
387.0015511551418
 20
379.4238672890464
 30
0.0
 10
387.1491029069613
 20
379.2626319145157
 30
0.0
 10
387.4392128672455
 20
378.9351560490387
 30
0.0
 10
387.5817917551554
 20
378.7688905684131
 30
0.0
 10
388.0018775683339
 20
378.2627056392546
 30
0.0
 10
388.5394817386118
 20
377.5706732271728
 30
0.0
 10
389.0325001050319
 20
376.8446894456451
 30
0.0
 10
389.2678538690953
 20
376.4731823518441
 30
0.0
  0
SPLINE
  5
1C2
330
1F
100
AcDbEntity
  8
1
100
AcDbSpline
210
0.0
220
0.0
230
1.0
 70
     8
 71
     3
 72
    13
 73
     9
 74
     0
 42
0.000000001
 43
0.0000000001
 40
0.0
 40
0.0
 40
0.0
 40
0.0
 40
0.25
 40
0.5
 40
0.5
 40
0.75
 40
0.75
 40
1.0
 40
1.0
 40
1.0
 40
1.0
 10
389.2842631644141
 20
376.4465868514836
 30
0.0
 10
389.4990605147642
 20
376.0890239401202
 30
0.0
 10
389.9051068986752
 20
375.3632538360662
 30
0.0
 10
390.2652292295286
 20
374.6167102206463
 30
0.0
 10
390.6026771875483
 20
373.8599035223101
 30
0.0
 10
390.7600629798629
 20
373.4763682304258
 30
0.0
 10
391.0521711633187
 20
372.6990336529845
 30
0.0
 10
391.1868914900671
 20
372.3052335720697
 30
0.0
 10
391.3101689668599
 20
371.9062472311994
 30
0.0
  0
SPLINE
  5
1C3
330
1F
100
AcDbEntity
  8
1
100
AcDbSpline
210
0.0
220
0.0
230
1.0
 70
     8
 71
     3
 72
     8
 73
     4
 74
     0
 42
0.000000001
 43
0.0000000001
 40
0.0
 40
0.0
 40
0.0
 40
0.0
 40
1.0
 40
1.0
 40
1.0
 40
1.0
 10
389.2678538690953
 20
376.4731823518441
 30
0.0
 10
389.2734284177696
 20
376.464382898878
 30
0.0
 10
389.2788981575319
 20
376.455517722731
 30
0.0
 10
389.2842631644141
 20
376.4465868514836
 30
0.0
  0
SPLINE
  5
1C4
330
1F
100
AcDbEntity
  8
1
100
AcDbSpline
210
0.0
220
0.0
230
1.0
 70
     8
 71
     3
 72
     8
 73
     4
 74
     0
 42
0.000000001
 43
0.0000000001
 40
0.0
 40
0.0
 40
0.0
 40
0.0
 40
1.0
 40
1.0
 40
1.0
 40
1.0
 10
355.1587210474225
 20
380.5817273019009
 30
0.0
 10
355.1495784973996
 20
380.6088490089517
 30
0.0
 10
355.1404732772683
 20
380.6360288787788
 30
0.0
 10
355.1314477250791
 20
380.6631907305568
 30
0.0
  0
SPLINE
  5
1C5
330
1F
100
AcDbEntity
  8
1
100
AcDbSpline
210
0.0
220
0.0
230
1.0
 70
     8
 71
     3
 72
    10
 73
     6
 74
     0
 42
0.000000001
 43
0.0000000001
 40
0.0
 40
0.0
 40
0.0
 40
0.0
 40
0.5
 40
0.5
 40
1.0
 40
1.0
 40
1.0
 40
1.0
 10
355.1314477250791
 20
380.6631907305568
 30
0.0
 10
355.1055393649899
 20
380.7411603685137
 30
0.0
 10
355.0801209650978
 20
380.8192765826555
 30
0.0
 10
355.0302577224043
 20
380.975812898343
 30
0.0
 10
355.0058128238279
 20
381.0542331042269
 30
0.0
 10
354.9818462610208
 20
381.1328208331091
 30
0.0
  0
SPLINE
  5
1C6
330
1F
100
AcDbEntity
  8
1
100
AcDbSpline
210
0.0
220
0.0
230
1.0
 70
     8
 71
     3
 72
     8
 73
     4
 74
     0
 42
0.000000001
 43
0.0000000001
 40
0.0
 40
0.0
 40
0.0
 40
0.0
 40
1.0
 40
1.0
 40
1.0
 40
1.0
 10
354.5298867420803
 20
382.8538963439604
 30
0.0
 10
354.5332048079803
 20
382.8540212147885
 30
0.0
 10
354.5365254914258
 20
382.8541580844638
 30
0.0
 10
354.5398487689608
 20
382.8543068454635
 30
0.0
  0
SPLINE
  5
1C7
330
1F
100
AcDbEntity
  8
1
100
AcDbSpline
210
0.0
220
0.0
230
1.0
 70
     8
 71
     3
 72
     8
 73
     4
 74
     0
 42
0.000000001
 43
0.0000000001
 40
0.0
 40
0.0
 40
0.0
 40
0.0
 40
1.0
 40
1.0
 40
1.0
 40
1.0
 10
358.1518015006452
 20
385.0187545310868
 30
0.0
 10
358.1235108360551
 20
385.017481857764
 30
0.0
 10
358.0950729972799
 20
385.0160600819727
 30
0.0
 10
358.0667823326899
 20
385.0147874086499
 30
0.0
  0
SPLINE
  5
1C8
330
1F
100
AcDbEntity
  8
1
100
AcDbSpline
210
0.0
220
0.0
230
1.0
 70
     8
 71
     3
 72
    10
 73
     6
 74
     0
 42
0.000000001
 43
0.0000000001
 40
0.0
 40
0.0
 40
0.0
 40
0.0
 40
0.5
 40
0.5
 40
1.0
 40
1.0
 40
1.0
 40
1.0
 10
358.0667823326899
 20
385.0147874086499
 30
0.0
 10
357.9929457848816
 20
385.0114658251521
 30
0.0
 10
357.9191378193358
 20
385.0081725714047
 30
0.0
 10
357.7715402026989
 20
385.0016042165643
 30
0.0
 10
357.6977501799798
 20
384.9983287471267
 30
0.0
 10
357.6239136321717
 20
384.9950071636288
 30
0.0
  0
SPLINE
  5
1C9
330
1F
100
AcDbEntity
  8
1
100
AcDbSpline
210
0.0
220
0.0
230
1.0
 70
     8
 71
     3
 72
    31
 73
    27
 74
     0
 42
0.000000001
 43
0.0000000001
 40
0.0
 40
0.0
 40
0.0
 40
0.0
 40
0.1249999999999983
 40
0.1249999999999983
 40
0.2499999999999965
 40
0.2499999999999965
 40
0.281249999999996
 40
0.281249999999996
 40
0.3124999999999955
 40
0.3124999999999955
 40
0.3749999999999944
 40
0.3749999999999944
 40
0.4999999999999923
 40
0.4999999999999923
 40
0.6249999999999903
 40
0.6249999999999903
 40
0.687499999999989
 40
0.687499999999989
 40
0.7031249999999892
 40
0.7031249999999892
 40
0.7187499999999893
 40
0.7499999999999903
 40
0.7499999999999903
 40
0.8749999999999946
 40
0.8749999999999946
 40
1.0
 40
1.0
 40
1.0
 40
1.0
 10
371.9954963016249
 20
385.6415218402982
 30
0.0
 10
372.6325185488552
 20
385.6701786863583
 30
0.0
 10
373.267661507833
 20
385.6668104699021
 30
0.0
 10
374.5342301905653
 20
385.5970359097142
 30
0.0
 10
375.1656562109791
 20
385.5306293481447
 30
0.0
 10
375.9525986039804
 20
385.4077202830605
 30
0.0
 10
376.1099672517489
 20
385.3811169098964
 30
0.0
 10
376.4230923070059
 20
385.3241462847197
 30
0.0
 10
376.5790078685341
 20
385.2937568729373
 30
0.0
 10
377.044833398979
 20
385.1969361027002
 30
0.0
 10
377.3528233069069
 20
385.1248556581296
 30
0.0
 10
378.2692287657009
 20
384.8863635144368
 30
0.0
 10
378.8700962597465
 20
384.6977520842441
 30
0.0
 10
380.0519107473732
 20
384.2618770967703
 30
0.0
 10
380.6328582278572
 20
384.0146149060418
 30
0.0
 10
381.4890315027568
 20
383.5988737604786
 30
0.0
 10
381.7718771330881
 20
383.4528057226616
 30
0.0
 10
382.1221871283913
 20
383.2606673008239
 30
0.0
 10
382.1921125856418
 20
383.2217464341958
 30
0.0
 10
382.3313161506636
 20
383.1431261143069
 30
0.0
 10
382.5392579074342
 20
383.0239700117047
 30
0.0
 10
382.7446200014533
 20
382.9011524955234
 30
0.0
 10
383.4234674683818
 20
382.4836787618418
 30
0.0
 10
383.9483687681068
 20
382.1238954099127
 30
0.0
 10
384.962081040975
 20
381.3531208958215
 30
0.0
 10
385.4508926500823
 20
380.9421310932345
 30
0.0
 10
385.9212911879716
 20
380.5050028158983
 30
0.0
  0
LINE
  5
1CC
330
1F
100
AcDbEntity
  8
4
100
AcDbLine
 10
320.174798
 20
366.008075
 30
0.0
 11
388.271012
 21
366.008075
 31
0.0
  0
LINE
  5
1CD
330
1F
100
AcDbEntity
  8
SK4
100
AcDbLine
 10
259.174798
 20
366.008075
 30
0.0
 11
325.174798
 21
366.008075
 31
0.0
  0
MTEXT
  5
1D1
330
1F
100
AcDbEntity
  8
SK6
100
AcDbMText
 10
313.983022
 20
331.755815
 30
0.0
 40
3.5
 41
0.0
 71
     7
 72
     5
  1
\W0.7275;40L2R070B32-SZP40-C
  7
cesky
 73
     2
 44
0.8433729999999998
  0
MTEXT
  5
32E
330
1F
100
AcDbEntity
  8
2
100
AcDbMText
 10
401.395543
 20
365.88114
 30
0.0
 40
3.5
 41
0.0
 71
     7
 72
     5
  1
\W0.7045;40
  7
cesky
 11
0.0000000000000001
 21
1.0
 31
0.0
 73
     2
 44
0.8433729999999998
  0
MTEXT
  5
32F
330
1F
100
AcDbEntity
  8
2
100
AcDbMText
 10
401.395543
 20
359.14364
 30
0.0
 40
3.5
 41
0.0
 71
     7
 72
     5
  1
\W3.0115;\H2.63;%%c\H3.50;
  7
cesky
 11
0.0000000000000001
 21
1.0
 31
0.0
 73
     2
 44
0.8433729999999998
  0
LINE
  5
330
330
1F
100
AcDbEntity
  8
2
100
AcDbLine
 10
393.674849
 20
386.008075
 30
0.0
 11
402.5829599999999
 21
386.008075
 31
0.0
  0
LINE
  5
331
330
1F
100
AcDbEntity
  8
2
100
AcDbLine
 10
401.5829599999999
 20
386.008075
 30
0.0
 11
401.5829599999999
 21
358.98614
 31
0.0
  0
SOLID
  5
332
330
1F
100
AcDbEntity
  8
2
100
AcDbTrace
 10
401.5829599999999
 20
386.008075
 30
0.0
 11
402.200104
 21
382.508077
 31
0.0
 12
400.9658149999999
 22
382.508073
 32
0.0
 13
400.9658149999999
 23
382.508073
 33
0.0
  0
MTEXT
  5
333
330
1F
100
AcDbEntity
  8
2
100
AcDbMText
 10
369.575035
 20
391.579806
 30
0.0
 40
3.5
 41
0.0
 71
     7
 72
     5
  1
\W0.8459;35,7
  7
cesky
 73
     2
 44
0.8433729999999998
  0
LINE
  5
334
330
1F
100
AcDbEntity
  8
2
100
AcDbLine
 10
392.174849
 20
387.508075
 30
0.0
 11
392.174849
 21
392.70564
 31
0.0
  0
LINE
  5
335
330
1F
100
AcDbEntity
  8
2
100
AcDbLine
 10
355.654222
 20
384.906399
 30
0.0
 11
355.654222
 21
392.70564
 31
0.0
  0
LINE
  5
336
330
1F
100
AcDbEntity
  8
2
100
AcDbLine
 10
392.174849
 20
391.70564
 30
0.0
 11
355.654222
 21
391.70564
 31
0.0
  0
SOLID
  5
337
330
1F
100
AcDbEntity
  8
2
100
AcDbTrace
 10
392.174849
 20
391.70564
 30
0.0
 11
388.674851
 21
391.088495
 31
0.0
 12
388.674846
 22
392.322784
 32
0.0
 13
388.674846
 23
392.322784
 33
0.0
  0
SOLID
  5
338
330
1F
100
AcDbEntity
  8
2
100
AcDbTrace
 10
355.654222
 20
391.70564
 30
0.0
 11
359.15422
 21
392.322784
 31
0.0
 12
359.154225
 22
391.088495
 32
0.0
 13
359.154225
 23
391.088495
 33
0.0
  0
MTEXT
  5
339
330
1F
100
AcDbEntity
  8
2
100
AcDbMText
 10
355.360349
 20
401.500866
 30
0.0
 40
3.5
 41
0.0
 71
     7
 72
     5
  1
\W0.7045;70
  7
cesky
 73
     2
 44
0.8433729999999998
  0
LINE
  5
33A
330
1F
100
AcDbEntity
  8
2
100
AcDbLine
 10
392.174849
 20
387.508075
 30
0.0
 11
392.174849
 21
402.626699
 31
0.0
  0
LINE
  5
33B
330
1F
100
AcDbEntity
  8
2
100
AcDbLine
 10
322.174849
 20
366.008075
 30
0.0
 11
322.174849
 21
402.626699
 31
0.0
  0
LINE
  5
33C
330
1F
100
AcDbEntity
  8
2
100
AcDbLine
 10
392.174849
 20
401.626699
 30
0.0
 11
322.174849
 21
401.626699
 31
0.0
  0
SOLID
  5
33D
330
1F
100
AcDbEntity
  8
2
100
AcDbTrace
 10
392.174849
 20
401.626699
 30
0.0
 11
388.674851
 21
401.009554
 31
0.0
 12
388.674846
 22
402.243843
 32
0.0
 13
388.674846
 23
402.243843
 33
0.0
  0
SOLID
  5
33E
330
1F
100
AcDbEntity
  8
2
100
AcDbTrace
 10
322.174849
 20
401.626699
 30
0.0
 11
325.674846
 21
402.243843
 31
0.0
 12
325.674851
 22
401.009554
 32
0.0
 13
325.674851
 23
401.009554
 33
0.0
  0
MTEXT
  5
33F
330
1F
100
AcDbEntity
  8
SK2
100
AcDbMText
 10
249.418113
 20
367.534325
 30
0.0
 40
3.5
 41
0.0
 71
     7
 72
     5
  1
\W0.7045;32
  7
cesky
 11
0.0000000000000001
 21
1.0
 31
0.0
 73
     2
 44
0.8433729999999998
  0
MTEXT
  5
340
330
1F
100
AcDbEntity
  8
SK2
100
AcDbMText
 10
249.418113
 20
360.796825
 30
0.0
 40
3.5
 41
0.0
 71
     7
 72
     5
  1
\W3.0115;\H2.63;%%c\H3.50;
  7
cesky
 11
0.0000000000000001
 21
1.0
 31
0.0
 73
     2
 44
0.8433729999999998
  0
LINE
  5
341
330
1F
100
AcDbEntity
  8
SK2
100
AcDbLine
 10
262.674798
 20
382.008075
 30
0.0
 11
248.605529
 21
382.008075
 31
0.0
  0
LINE
  5
342
330
1F
100
AcDbEntity
  8
SK2
100
AcDbLine
 10
262.674798
 20
350.008075
 30
0.0
 11
248.605529
 21
350.008075
 31
0.0
  0
LINE
  5
343
330
1F
100
AcDbEntity
  8
SK2
100
AcDbLine
 10
249.605529
 20
382.008075
 30
0.0
 11
249.605529
 21
350.008075
 31
0.0
  0
SOLID
  5
344
330
1F
100
AcDbEntity
  8
SK2
100
AcDbTrace
 10
249.605529
 20
382.008075
 30
0.0
 11
250.222674
 21
378.508077
 31
0.0
 12
248.988385
 22
378.508073
 32
0.0
 13
248.988385
 23
378.508073
 33
0.0
  0
SOLID
  5
345
330
1F
100
AcDbEntity
  8
SK2
100
AcDbTrace
 10
249.605529
 20
350.008075
 30
0.0
 11
248.988385
 21
353.508073
 31
0.0
 12
250.222674
 22
353.508077
 32
0.0
 13
250.222674
 23
353.508077
 33
0.0
  0
MTEXT
  5
346
330
1F
100
AcDbEntity
  8
SK2
100
AcDbMText
 10
323.597823
 20
410.3175059999999
 30
0.0
 40
3.5
 41
0.0
 71
     7
 72
     5
  1
\W0.9524;131
  7
cesky
 73
     2
 44
0.8433729999999998
  0
LINE
  5
347
330
1F
100
AcDbEntity
  8
SK2
100
AcDbLine
 10
392.174849
 20
387.508075
 30
0.0
 11
392.174849
 21
411.443339
 31
0.0
  0
LINE
  5
348
330
1F
100
AcDbEntity
  8
SK2
100
AcDbLine
 10
261.174798
 20
366.008075
 30
0.0
 11
261.174798
 21
411.443339
 31
0.0
  0
LINE
  5
349
330
1F
100
AcDbEntity
  8
SK2
100
AcDbLine
 10
392.174849
 20
410.443339
 30
0.0
 11
261.174798
 21
410.443339
 31
0.0
  0
SOLID
  5
34A
330
1F
100
AcDbEntity
  8
SK2
100
AcDbTrace
 10
392.174849
 20
410.443339
 30
0.0
 11
388.674851
 21
409.8261939999999
 31
0.0
 12
388.674846
 22
411.060483
 32
0.0
 13
388.674846
 23
411.060483
 33
0.0
  0
SOLID
  5
34B
330
1F
100
AcDbEntity
  8
SK2
100
AcDbTrace
 10
261.174798
 20
410.443339
 30
0.0
 11
264.674796
 21
411.060483
 31
0.0
 12
264.6748
 22
409.8261939999999
 32
0.0
 13
264.6748
 23
409.8261939999999
 33
0.0
  0
LINE
  5
356
330
1F
100
AcDbEntity
  8
CUT
100
AcDbLine
 10
357.6239136321717
 20
384.9950071636288
 30
0.0
 11
358.0667823326899
 21
385.0147874086499
 31
0.0
  0
LINE
  5
358
330
1F
100
AcDbEntity
  8
CUT
100
AcDbLine
 10
358.0667823326899
 20
385.0147874086499
 30
0.0
 11
358.1518015006452
 21
385.0187545310868
 31
0.0
  0
ELLIPSE
  5
359
330
1F
100
AcDbEntity
  8
CUT
100
AcDbEllipse
 10
388.6832
 20
365.366588
 30
0.0
 11
-2.370646491433348
 21
0.2645041941412736
 31
0.0
210
0.0
220
0.0
230
1.0
 40
0.028832
 41
4.594443277509241
 42
5.104600662133119
  0
ELLIPSE
  5
35A
330
1F
100
AcDbEntity
  8
CUT
100
AcDbEllipse
 10
373.199326
 20
366.643962
 30
0.0
 11
-0.0000000000000012
 21
-19.25361789020254
 31
0.0
210
0.0
220
0.0
230
1.0
 40
0.9848079999999999
 41
1.605290996013304
 42
1.609399481175215
  0
ELLIPSE
  5
35B
330
1F
100
AcDbEntity
  8
CUT
100
AcDbEllipse
 10
373.473632
 20
386.947516
 30
0.0
 11
-0.0000000000000012
 21
-19.65676275012361
 31
0.0
210
0.0
220
0.0
230
1.0
 40
0.9848079999999999
 41
4.922158151577315
 42
5.012693829712591
  0
ELLIPSE
  5
35C
330
1F
100
AcDbEntity
  8
CUT
100
AcDbEllipse
 10
373.473632
 20
386.947516
 30
0.0
 11
-0.0000000000000012
 21
-19.65676275012362
 31
0.0
210
0.0
220
0.0
230
1.0
 40
0.9848079999999999
 41
5.042182043201223
 42
6.170378920405585
  0
ELLIPSE
  5
35D
330
1F
100
AcDbEntity
  8
CUT
100
AcDbEllipse
 10
390.036936
 20
365.499836
 30
0.0
 11
-2.401434640463404
 21
-0.729643648545633
 31
0.0
210
0.0
220
0.0
230
1.0
 40
0.038586
 41
4.223261592841553
 42
4.886486708621156
  0
ELLIPSE
  5
35E
330
1F
100
AcDbEntity
  8
CUT
100
AcDbEllipse
 10
373.498191
 20
369.075003
 30
0.0
 11
-13.22203563723534
 21
-16.04936390825458
 31
0.0
210
0.0
220
0.0
230
1.0
 40
0.8687629999999998
 41
2.043075214581868
 42
2.077057904907004
  0
ELLIPSE
  5
35F
330
1F
100
AcDbEntity
  8
CUT
100
AcDbEllipse
 10
373.218394
 20
366.378252
 30
0.0
 11
-6.937293338000754
 21
18.06774117731148
 31
0.0
210
0.0
220
0.0
230
0.9999999999999998
 40
0.977349
 41
4.409346257466243
 42
4.64391141144507
  0
LINE
  5
360
330
1F
100
AcDbEntity
  8
CUT
100
AcDbLine
 10
358.151802
 20
385.018755
 30
0.0
 11
371.995496
 21
385.641522
 31
0.0
  0
LINE
  5
361
330
1F
100
AcDbEntity
  8
CUT
100
AcDbLine
 10
355.654222
 20
384.906399
 30
0.0
 11
357.623914
 21
384.995007
 31
0.0
  0
LINE
  5
362
330
1F
100
AcDbEntity
  8
CUT
100
AcDbLine
 10
354.715876
 20
383.66301
 30
0.0
 11
355.654222
 21
384.906399
 31
0.0
  0
LINE
  5
363
330
1F
100
AcDbEntity
  8
CUT
100
AcDbLine
 10
354.539849
 20
382.854307
 30
0.0
 11
354.715876
 21
383.66301
 31
0.0
  0
LINE
  5
364
330
1F
100
AcDbEntity
  8
CUT
100
AcDbLine
 10
385.731518
 20
365.754932
 30
0.0
 11
371.294539
 21
367.415689
 31
0.0
  0
LINE
  5
365
330
1F
100
AcDbEntity
  8
CUT
100
AcDbLine
 10
389.281021
 20
365.367528
 30
0.0
 11
388.969733
 21
365.403337
 31
0.0
  0
LINE
  5
366
330
1F
100
AcDbEntity
  8
CUT
100
AcDbLine
 10
389.593232
 20
365.464709
 30
0.0
 11
389.281021
 21
365.367528
 31
0.0
  0
LINE
  5
367
330
1F
100
AcDbEntity
  8
CUT
100
AcDbLine
 10
391.929909
 20
366.146737
 30
0.0
 11
391.140411
 21
365.92446
 31
0.0
  0
ARC
  5
368
330
1F
100
AcDbEntity
  8
CUT
100
AcDbCircle
 10
392.6458080067062
 20
414.2618397402141
 30
0.0
 40
48.9729064511238
100
AcDbArc
 50
263.9625997728077
 51
264.3026763978154
  0
ARC
  5
369
330
1F
100
AcDbEntity
  8
CUT
100
AcDbCircle
 10
408.453090429431
 20
562.1983046776008
 30
0.0
 40
197.7514717617146
100
AcDbArc
 50
263.661133661944
 51
263.9162416840818
  0
LINE
  5
36A
330
1F
100
AcDbEntity
  8
CUT
100
AcDbLine
 10
386.6196401776353
 20
365.6558282659442
 30
0.0
 11
386.6196401776353
 21
365.6558282659442
 31
0.0
  0
ARC
  5
36B
330
1F
100
AcDbEntity
  8
CUT
100
AcDbCircle
 10
409.4008998884328
 20
573.630654200927
 30
0.0
 40
209.2188185051651
100
AcDbArc
 50
263.5655640915676
 51
263.7488261827755
  0
ARC
  5
36C
330
1F
100
AcDbEntity
  8
CUT
100
AcDbCircle
 10
390.1011030222424
 20
367.2346769102483
 30
0.0
 40
2.049366716283288
100
AcDbArc
 50
352.5377513477601
 51
2.049756939090234
  0
ARC
  5
36D
330
1F
100
AcDbEntity
  8
CUT
100
AcDbCircle
 10
390.6052397027181
 20
367.1725152669203
 30
0.0
 40
1.541431412408327
100
AcDbArc
 50
346.4579492077931
 51
352.3950712614886
  0
LINE
  5
36E
330
1F
100
AcDbEntity
  8
CUT
100
AcDbLine
 10
355.1314477250791
 20
380.6631907305568
 30
0.0
 11
355.1314477250791
 21
380.6631907305568
 31
0.0
  0
ARC
  5
36F
330
1F
100
AcDbEntity
  8
CUT
100
AcDbCircle
 10
373.9727493071396
 20
386.9237621911538
 30
0.0
 40
19.85420359317889
100
AcDbArc
 50
196.9581614748525
 51
198.3805708258496
  0
LINE
  5
370
330
1F
100
AcDbEntity
  8
CUT
100
AcDbLine
 10
392.1424970231856
 20
367.4575763217235
 30
0.0
 11
392.1424970231856
 21
367.4575763217235
 31
0.0
  0
ARC
  5
371
330
1F
100
AcDbEntity
  8
CUT
100
AcDbCircle
 10
389.9383609054762
 20
367.303012737456
 30
0.0
 40
2.209548806198461
100
AcDbArc
 50
2.179116179679489
 51
4.011262136487739
  0
LINE
  5
372
330
1F
100
AcDbEntity
  8
CUT
100
AcDbLine
 10
355.1587210474225
 20
380.5817273019009
 30
0.0
 11
355.1587210474225
 21
380.5817273019009
 31
0.0
  0
ARC
  5
373
330
1F
100
AcDbEntity
  8
CUT
100
AcDbCircle
 10
374.4232116135174
 20
387.0766260789311
 30
0.0
 40
20.32988703596329
100
AcDbArc
 50
198.3890882692585
 51
198.6312022280577
  0
LINE
  5
374
330
1F
100
AcDbEntity
  8
CUT
100
AcDbLine
 10
389.2842631644141
 20
376.4465868514836
 30
0.0
 11
389.2842631644141
 21
376.4465868514836
 31
0.0
  0
ARC
  5
375
330
1F
100
AcDbEntity
  8
CUT
100
AcDbCircle
 10
371.5897135452327
 20
365.8291036077745
 30
0.0
 40
20.63560119444353
100
AcDbArc
 50
17.12743869963295
 51
30.96555045295701
  0
ARC
  5
376
330
1F
100
AcDbEntity
  8
CUT
100
AcDbCircle
 10
407.0850550286792
 20
554.3738898021143
 30
0.0
 40
189.8238835137253
100
AcDbArc
 50
263.5579980917979
 51
263.6087945136624
  0
ARC
  5
377
330
1F
100
AcDbEntity
  8
CUT
100
AcDbCircle
 10
390.5581615427242
 20
407.8077783733901
 30
0.0
 40
42.32893072803571
100
AcDbArc
 50
263.4524889155764
 51
263.5284957054133
  0
LINE
  5
378
330
1F
100
AcDbEntity
  8
CUT
100
AcDbLine
 10
389.2678538690953
 20
376.4731823518441
 30
0.0
 11
389.2678538690953
 21
376.4731823518441
 31
0.0
  0
ARC
  5
379
330
1F
100
AcDbEntity
  8
CUT
100
AcDbCircle
 10
388.1560308762613
 20
375.7688329549936
 30
0.0
 40
1.316152893944311
100
AcDbArc
 50
30.99416191846112
 51
32.35460899710644
  0
LINE
  5
37A
330
1F
100
AcDbEntity
  8
CUT
100
AcDbLine
 10
385.9212911879716
 20
380.5050028158983
 30
0.0
 11
385.9212911879716
 21
380.5050028158983
 31
0.0
  0
ARC
  5
37B
330
1F
100
AcDbEntity
  8
CUT
100
AcDbCircle
 10
372.0386557997267
 20
365.5770964125579
 30
0.0
 40
20.3855329807646
100
AcDbArc
 50
32.31007072289675
 51
47.07782835902402
  0
LINE
  5
37C
330
1F
100
AcDbEntity
  8
CUT
100
AcDbLine
 10
371.9954963016249
 20
385.6415218402982
 30
0.0
 11
371.9954963016249
 21
385.6415218402982
 31
0.0
  0
ARC
  5
37D
330
1F
100
AcDbEntity
  8
CUT
100
AcDbCircle
 10
372.8395468698588
 20
366.4842443342773
 30
0.0
 40
19.17586250483736
100
AcDbArc
 50
46.98431992030315
 51
92.52276343615525
  0
ENDSEC
  0
SECTION
  2
OBJECTS
  0
DICTIONARY
  5
C
330
0
100
AcDbDictionary
281
     1
  3
ACAD_CIP_PREVIOUS_PRODUCT_INFO
350
2B1
  3
ACAD_COLOR
350
2AB
  3
ACAD_DETAILVIEWSTYLE
350
2A7
  3
ACAD_FIELDLIST
350
31B
  3
ACAD_GROUP
350
D
  3
ACAD_IMAGE_DICT
350
FD
  3
ACAD_IMAGE_VARS
350
2B0
  3
ACAD_LAYOUT
350
1A
  3
ACAD_MATERIAL
350
43
  3
ACAD_MLEADERSTYLE
350
6B
  3
ACAD_MLINESTYLE
350
17
  3
ACAD_PLOTSETTINGS
350
19
  3
ACAD_PLOTSTYLENAME
350
E
  3
ACAD_SCALELIST
350
47
  3
ACAD_SECTIONVIEWSTYLE
350
2A8
  3
ACAD_TABLESTYLE
350
69
  3
ACAD_VISUALSTYLE
350
2A
  3
ACDB_RECOMPOSE_DATA
350
3AA
  3
AcDbVariableDictionary
350
264
  3
AcmDictionary
350
2DD
  3
AMG
350
2C3
  3
AMGSNAPSETTINGS
350
325
  0
DICTIONARY
  5
38C
330
10
100
AcDbDictionary
280
     1
281
     1
  3
ADSK_XREC_LAYER_RECONCILED
360
38D
  0
DICTIONARY
  5
38E
330
78
100
AcDbDictionary
280
     1
281
     1
  3
ADSK_XREC_LAYER_RECONCILED
360
38F
  0
DICTIONARY
  5
390
330
37E
100
AcDbDictionary
280
     1
281
     1
  3
ADSK_XREC_LAYER_RECONCILED
360
391
  0
DICTIONARY
  5
392
330
37F
100
AcDbDictionary
280
     1
281
     1
  3
ADSK_XREC_LAYER_RECONCILED
360
393
  0
DICTIONARY
  5
394
330
380
100
AcDbDictionary
280
     1
281
     1
  3
ADSK_XREC_LAYER_RECONCILED
360
395
  0
DICTIONARY
  5
396
330
382
100
AcDbDictionary
280
     1
281
     1
  3
ADSK_XREC_LAYER_RECONCILED
360
397
  0
DICTIONARY
  5
398
330
383
100
AcDbDictionary
280
     1
281
     1
  3
ADSK_XREC_LAYER_RECONCILED
360
399
  0
DICTIONARY
  5
39A
330
385
100
AcDbDictionary
280
     1
281
     1
  3
ADSK_XREC_LAYER_RECONCILED
360
39B
  0
DICTIONARY
  5
39C
330
386
100
AcDbDictionary
280
     1
281
     1
  3
ADSK_XREC_LAYER_RECONCILED
360
39D
  0
DICTIONARY
  5
39E
330
387
100
AcDbDictionary
280
     1
281
     1
  3
ADSK_XREC_LAYER_RECONCILED
360
39F
  0
DICTIONARY
  5
3A0
330
388
100
AcDbDictionary
280
     1
281
     1
  3
ADSK_XREC_LAYER_RECONCILED
360
3A1
  0
DICTIONARY
  5
3A2
330
389
100
AcDbDictionary
280
     1
281
     1
  3
ADSK_XREC_LAYER_RECONCILED
360
3A3
  0
DICTIONARY
  5
3A4
330
38A
100
AcDbDictionary
280
     1
281
     1
  3
ADSK_XREC_LAYER_RECONCILED
360
3A5
  0
DICTIONARY
  5
32C
330
1F
100
AcDbDictionary
280
     1
281
     1
  3
ACAD_SORTENTS
360
32D
  0
XRECORD
  5
2B1
102
{ACAD_REACTORS
330
C
102
}
330
C
100
AcDbXrecord
280
     1
300
AMECH_PP
300
2019
300

  0
DICTIONARY
  5
2AB
102
{ACAD_REACTORS
330
C
102
}
330
C
100
AcDbDictionary
281
     1
  0
DICTIONARY
  5
2A7
102
{ACAD_REACTORS
330
C
102
}
330
C
100
AcDbDictionary
281
     1
  3
Metric50
350
2AD
  0
FIELDLIST
  5
31B
102
{ACAD_REACTORS
330
C
102
}
330
C
100
AcDbIdSet
 90
        3
330
319
330
31A
330
31C
100
AcDbFieldList
  0
DICTIONARY
  5
D
102
{ACAD_REACTORS
330
C
102
}
330
C
100
AcDbDictionary
281
     1
  3
NULOVY_BOD
350
38B
  0
DICTIONARY
  5
FD
102
{ACAD_REACTORS
330
C
102
}
330
C
100
AcDbDictionary
281
     1
  3
40L2R070B32-SZP40-C_115009857ndi000_00-2D_DormerPramet_jpg
350
FE
  0
RASTERVARIABLES
  5
2B0
102
{ACAD_REACTORS
330
C
102
}
330
C
100
AcDbRasterVariables
 90
        0
 70
     1
 71
     1
 72
     1
  0
DICTIONARY
  5
1A
102
{ACAD_REACTORS
330
C
102
}
330
C
100
AcDbDictionary
281
     1
  3
Layout1
350
1E
  3
Layout2
350
26
  3
Model
350
22
  0
DICTIONARY
  5
43
102
{ACAD_REACTORS
330
C
102
}
330
C
100
AcDbDictionary
281
     1
  3
ByBlock
350
45
  3
ByLayer
350
44
  3
Global
350
46
  0
DICTIONARY
  5
6B
102
{ACAD_REACTORS
330
C
102
}
330
C
100
AcDbDictionary
281
     1
  3
Standard
350
6C
  0
DICTIONARY
  5
17
102
{ACAD_REACTORS
330
C
102
}
330
C
100
AcDbDictionary
281
     1
  3
Standard
350
18
  0
DICTIONARY
  5
19
102
{ACAD_REACTORS
330
C
102
}
330
C
100
AcDbDictionary
281
     1
  0
ACDBDICTIONARYWDFLT
  5
E
102
{ACAD_REACTORS
330
C
102
}
330
C
100
AcDbDictionary
281
     1
  3
Normal
350
F
100
AcDbDictionaryWithDefault
340
F
  0
DICTIONARY
  5
47
102
{ACAD_REACTORS
330
C
102
}
330
C
100
AcDbDictionary
281
     1
  3
A0
350
48
  3
A1
350
49
  3
A2
350
4A
  3
A3
350
4B
  3
A4
350
4C
  3
A5
350
4D
  3
A6
350
4E
  3
A7
350
4F
  3
A8
350
50
  3
A9
350
51
  3
B0
350
52
  3
B1
350
53
  3
B2
350
54
  3
B3
350
55
  3
B4
350
56
  3
B5
350
57
  3
B6
350
58
  3
B7
350
59
  3
B8
350
5A
  3
B9
350
5B
  3
C0
350
5C
  3
C1
350
5D
  3
C2
350
5E
  3
C3
350
5F
  3
C4
350
60
  3
C5
350
61
  3
C6
350
62
  3
C7
350
63
  3
C8
350
64
  3
C9
350
65
  3
D0
350
66
  3
D1
350
67
  3
D2
350
68
  0
DICTIONARY
  5
2A8
102
{ACAD_REACTORS
330
C
102
}
330
C
100
AcDbDictionary
281
     1
  3
Metric50
350
2AC
  0
DICTIONARY
  5
69
102
{ACAD_REACTORS
330
C
102
}
330
C
100
AcDbDictionary
281
     1
  3
Standard
350
6A
  0
DICTIONARY
  5
2A
102
{ACAD_REACTORS
330
C
102
}
330
C
100
AcDbDictionary
281
     1
  3
2dWireframe
350
2F
  3
Basic
350
32
  3
Brighten
350
36
  3
ColorChange
350
3A
  3
Conceptual
350
34
  3
Dim
350
35
  3
EdgeColorOff
350
3D
  3
Facepattern
350
39
  3
Flat
350
2B
  3
FlatWithEdges
350
2C
  3
Gouraud
350
2D
  3
GouraudWithEdges
350
2E
  3
Hidden
350
31
  3
JitterOff
350
3B
  3
Linepattern
350
38
  3
OverhangOff
350
3C
  3
Realistic
350
33
  3
Shaded
350
42
  3
Shaded with edges
350
41
  3
Shades of Gray
350
3E
  3
Sketchy
350
3F
  3
Thicken
350
37
  3
Wireframe
350
30
  3
X-Ray
350
40
  0
XRECORD
  5
3AA
102
{ACAD_REACTORS
330
C
102
}
330
C
100
AcDbXrecord
280
     1
 90
        1
330
6A
  0
DICTIONARY
  5
264
102
{ACAD_REACTORS
330
C
102
}
330
C
100
AcDbDictionary
281
     1
  3
CANNOSCALE
350
265
  3
CMLEADERSTYLE
350
2A6
  3
CTABLESTYLE
350
2A5
  3
CVIEWDETAILSTYLE
350
3A6
  3
CVIEWSECTIONSTYLE
350
3A7
  3
MSLTSCALE
350
266
  3
XCLIPFRAME
350
3A8
  0
DICTIONARY
  5
2DD
102
{ACAD_REACTORS
330
C
102
}
330
C
100
AcDbDictionary
281
     1
  3
AcmStdDictionary
350
2E4
  0
DICTIONARY
  5
2C3
102
{ACAD_REACTORS
330
C
102
}
330
C
100
AcDbDictionary
281
     1
  0
DICTIONARY
  5
325
102
{ACAD_REACTORS
330
C
102
}
330
C
100
AcDbDictionary
281
     1
  0
XRECORD
  5
38D
102
{ACAD_REACTORS
330
38C
102
}
330
38C
100
AcDbXrecord
280
     1
290
     1
  0
XRECORD
  5
38F
102
{ACAD_REACTORS
330
38E
102
}
330
38E
100
AcDbXrecord
280
     1
290
     1
  0
XRECORD
  5
391
102
{ACAD_REACTORS
330
390
102
}
330
390
100
AcDbXrecord
280
     1
290
     1
  0
XRECORD
  5
393
102
{ACAD_REACTORS
330
392
102
}
330
392
100
AcDbXrecord
280
     1
290
     1
  0
XRECORD
  5
395
102
{ACAD_REACTORS
330
394
102
}
330
394
100
AcDbXrecord
280
     1
290
     1
  0
XRECORD
  5
397
102
{ACAD_REACTORS
330
396
102
}
330
396
100
AcDbXrecord
280
     1
290
     1
  0
XRECORD
  5
399
102
{ACAD_REACTORS
330
398
102
}
330
398
100
AcDbXrecord
280
     1
290
     1
  0
XRECORD
  5
39B
102
{ACAD_REACTORS
330
39A
102
}
330
39A
100
AcDbXrecord
280
     1
290
     1
  0
XRECORD
  5
39D
102
{ACAD_REACTORS
330
39C
102
}
330
39C
100
AcDbXrecord
280
     1
290
     1
  0
XRECORD
  5
39F
102
{ACAD_REACTORS
330
39E
102
}
330
39E
100
AcDbXrecord
280
     1
290
     1
  0
XRECORD
  5
3A1
102
{ACAD_REACTORS
330
3A0
102
}
330
3A0
100
AcDbXrecord
280
     1
290
     1
  0
XRECORD
  5
3A3
102
{ACAD_REACTORS
330
3A2
102
}
330
3A2
100
AcDbXrecord
280
     1
290
     1
  0
XRECORD
  5
3A5
102
{ACAD_REACTORS
330
3A4
102
}
330
3A4
100
AcDbXrecord
280
     1
290
     1
  0
SORTENTSTABLE
  5
32D
102
{ACAD_REACTORS
330
32C
102
}
330
32C
100
AcDbSortentsTable
330
1F
331
32E
  5
1EF
331
32F
  5
220
331
330
  5
32E
331
331
  5
32F
331
332
  5
330
331
333
  5
33A
331
334
  5
33B
331
335
  5
33C
331
336
  5
33D
331
337
  5
33E
331
338
  5
33F
331
339
  5
346
331
33A
  5
347
331
33B
  5
348
331
33C
  5
349
331
33D
  5
34A
331
33E
  5
34B
331
33F
  5
332
331
340
  5
333
331
341
  5
334
331
342
  5
335
331
343
  5
336
331
344
  5
337
331
345
  5
339
331
346
  5
340
331
347
  5
341
331
348
  5
342
331
349
  5
343
331
34A
  5
344
331
34B
  5
345
331
356
  5
372
331
358
  5
375
331
360
  5
376
331
361
  5
377
331
362
  5
378
331
363
  5
379
331
364
  5
37A
331
365
  5
37B
331
366
  5
37C
331
367
  5
37D
331
368
  5
356
331
369
  5
358
331
36A
  5
360
331
36B
  5
361
331
36C
  5
362
331
36D
  5
363
331
36E
  5
364
331
36F
  5
365
331
370
  5
366
331
371
  5
367
331
372
  5
368
331
373
  5
369
331
374
  5
36A
331
375
  5
36B
331
376
  5
36C
331
377
  5
36D
331
378
  5
36E
331
379
  5
36F
331
37A
  5
370
331
37B
  5
371
331
37C
  5
373
331
37D
  5
374
  0
ACDBDETAILVIEWSTYLE
  5
2AD
102
{ACAD_XDICTIONARY
360
3DE
102
}
102
{ACAD_REACTORS
330
2A7
330
30F
102
}
330
2A7
100
AcDbModelDocViewStyle
 70
     0
  3
Metric50
290
     0
100
AcDbDetailViewStyle
 70
     0
 71
     0
 90
        3
 71
     1
340
11
 62
   256
 40
5.0
340
0
 62
   256
 40
5.0
300

 40
0.0
280
     1
 71
     2
340
16
 90
       25
 62
   256
 71
     3
340
11
 62
   256
 40
5.0
 90
        0
 40
15.0
 90
        1
300
%<\AcVar ViewDetailId>% (%<\AcVar ViewScale \f "%sn">%)
 71
     4
340
16
 90
       25
 62
   256
340
16
 90
       25
 62
   256
280
     0
  0
GROUP
  5
38B
102
{ACAD_REACTORS
330
D
102
}
330
D
100
AcDbGroup
300

 70
     0
 71
     1
340
73
  0
IMAGEDEF
  5
FE
102
{ACAD_REACTORS
330
FD
330
101
102
}
330
FD
100
AcDbRasterImageDef
 90
        0
  1
R:\Katalog\Data\ZP\40L2R070B32-SZP40-C\40L2R070B32-SZP40-C_115009857ndi000_00-2D_DormerPramet.jpg
 10
2089.0
 20
531.0
 11
0.0004786979415989
 21
0.0004786979415989
280
     1
281
     0
  0
LAYOUT
  5
1E
102
{ACAD_REACTORS
330
1A
102
}
330
1A
100
AcDbPlotSettings
  1

  2
none_device
  4

  6

 40
0.0
 41
0.0
 42
0.0
 43
0.0
 44
0.0
 45
0.0
 46
0.0
 47
0.0
 48
0.0
 49
0.0
140
0.0
141
0.0
142
1.0
143
1.0
 70
   688
 72
     0
 73
     0
 74
     5
  7

 75
    16
147
1.0
 76
     0
 77
     2
 78
   300
148
0.0
149
0.0
100
AcDbLayout
  1
Layout1
 70
     1
 71
     1
 10
-0.5
 20
-0.5
 11
5.0
 21
5.0
 12
0.0
 22
0.0
 32
0.0
 14
-0.5
 24
-0.5
 34
-0.5
 15
5.0
 25
5.0
 35
5.0
146
0.0
 13
0.0
 23
0.0
 33
0.0
 16
1.0
 26
0.0
 36
0.0
 17
0.0
 27
1.0
 37
0.0
 76
     0
330
1B
  0
LAYOUT
  5
26
102
{ACAD_REACTORS
330
1A
102
}
330
1A
100
AcDbPlotSettings
  1

  2
none_device
  4

  6

 40
0.0
 41
0.0
 42
0.0
 43
0.0
 44
0.0
 45
0.0
 46
0.0
 47
0.0
 48
0.0
 49
0.0
140
0.0
141
0.0
142
1.0
143
1.0
 70
   688
 72
     0
 73
     0
 74
     5
  7

 75
    16
147
1.0
 76
     0
 77
     2
 78
   300
148
0.0
149
0.0
100
AcDbLayout
  1
Layout2
 70
     1
 71
     2
 10
0.0
 20
0.0
 11
0.0
 21
0.0
 12
0.0
 22
0.0
 32
0.0
 14
0.0
 24
0.0
 34
0.0
 15
0.0
 25
0.0
 35
0.0
146
0.0
 13
0.0
 23
0.0
 33
0.0
 16
1.0
 26
0.0
 36
0.0
 17
0.0
 27
1.0
 37
0.0
 76
     0
330
23
  0
LAYOUT
  5
22
102
{ACAD_REACTORS
330
1A
102
}
330
1A
100
AcDbPlotSettings
  1

  2
none_device
  4
Letter_(8.50_x_11.00_Inches)
  6

 40
6.349999999999999
 41
6.349999999999999
 42
6.350005
 43
6.350005
 44
215.9
 45
279.4
 46
0.0
 47
0.0
 48
0.0
 49
0.0
140
0.0
141
0.0
142
1.0
143
1.0
 70
  1712
 72
     0
 73
     0
 74
     0
  7

 75
     0
147
1.0
 76
     0
 77
     2
 78
   300
148
0.0
149
0.0
100
AcDbLayout
  1
Model
 70
     1
 71
     0
 10
-0.5
 20
-0.5
 11
5.0
 21
5.0
 12
0.0
 22
0.0
 32
0.0
 14
-0.5
 24
-0.5
 34
-0.5
 15
5.0
 25
5.0
 35
5.0
146
0.0
 13
0.0
 23
0.0
 33
0.0
 16
1.0
 26
0.0
 36
0.0
 17
0.0
 27
1.0
 37
0.0
 76
     0
330
1F
331
29
  0
MATERIAL
  5
45
102
{ACAD_XDICTIONARY
360
29A
102
}
102
{ACAD_REACTORS
330
43
102
}
330
43
100
AcDbMaterial
  1
ByBlock
  0
MATERIAL
  5
44
102
{ACAD_XDICTIONARY
360
298
102
}
102
{ACAD_REACTORS
330
43
102
}
330
43
100
AcDbMaterial
  1
ByLayer
  0
MATERIAL
  5
46
102
{ACAD_XDICTIONARY
360
29C
102
}
102
{ACAD_REACTORS
330
43
102
}
330
43
100
AcDbMaterial
  1
Global
  0
MLEADERSTYLE
  5
6C
102
{ACAD_REACTORS
330
6B
102
}
330
6B
100
AcDbMLeaderStyle
170
     2
171
     1
172
     0
 90
        2
 40
0.0
 41
0.0
173
     1
 91
-1056964608
340
14
 92
       -2
290
     1
 42
0.09
291
     1
 43
0.36
  3
Standard
 44
0.18
300

342
11
174
     1
178
     6
175
     1
176
     0
 93
-1056964608
 45
0.18
292
     0
297
     0
 46
0.18
 94
-1056964608
 47
1.0
 49
1.0
140
1.0
293
     1
141
0.0
294
     1
177
     0
142
1.0
295
     0
296
     0
143
0.125
1001
ACAD_MLEADERVER
1070
     2
  0
MLINESTYLE
  5
18
102
{ACAD_REACTORS
330
17
102
}
330
17
100
AcDbMlineStyle
  2
STANDARD
 70
     0
  3

 62
   256
 51
90.0
 52
90.0
 71
     2
 49
0.5
 62
   256
  6
BYLAYER
 49
-0.5
 62
   256
  6
BYLAYER
  0
ACDBPLACEHOLDER
  5
F
102
{ACAD_REACTORS
330
E
102
}
330
E
  0
SCALE
  5
48
102
{ACAD_REACTORS
330
47
102
}
330
47
100
AcDbScale
 70
     0
300
1:1
140
1.0
141
1.0
290
     1
  0
SCALE
  5
49
102
{ACAD_REACTORS
330
47
102
}
330
47
100
AcDbScale
 70
     0
300
1:2
140
1.0
141
2.0
290
     0
  0
SCALE
  5
4A
102
{ACAD_REACTORS
330
47
102
}
330
47
100
AcDbScale
 70
     0
300
1:4
140
1.0
141
4.0
290
     0
  0
SCALE
  5
4B
102
{ACAD_REACTORS
330
47
102
}
330
47
100
AcDbScale
 70
     0
300
1:5
140
1.0
141
5.0
290
     0
  0
SCALE
  5
4C
102
{ACAD_REACTORS
330
47
102
}
330
47
100
AcDbScale
 70
     0
300
1:8
140
1.0
141
8.0
290
     0
  0
SCALE
  5
4D
102
{ACAD_REACTORS
330
47
102
}
330
47
100
AcDbScale
 70
     0
300
1:10
140
1.0
141
10.0
290
     0
  0
SCALE
  5
4E
102
{ACAD_REACTORS
330
47
102
}
330
47
100
AcDbScale
 70
     0
300
1:16
140
1.0
141
16.0
290
     0
  0
SCALE
  5
4F
102
{ACAD_REACTORS
330
47
102
}
330
47
100
AcDbScale
 70
     0
300
1:20
140
1.0
141
20.0
290
     0
  0
SCALE
  5
50
102
{ACAD_REACTORS
330
47
102
}
330
47
100
AcDbScale
 70
     0
300
1:30
140
1.0
141
30.0
290
     0
  0
SCALE
  5
51
102
{ACAD_REACTORS
330
47
102
}
330
47
100
AcDbScale
 70
     0
300
1:40
140
1.0
141
40.0
290
     0
  0
SCALE
  5
52
102
{ACAD_REACTORS
330
47
102
}
330
47
100
AcDbScale
 70
     0
300
1:50
140
1.0
141
50.0
290
     0
  0
SCALE
  5
53
102
{ACAD_REACTORS
330
47
102
}
330
47
100
AcDbScale
 70
     0
300
1:100
140
1.0
141
100.0
290
     0
  0
SCALE
  5
54
102
{ACAD_REACTORS
330
47
102
}
330
47
100
AcDbScale
 70
     0
300
2:1
140
2.0
141
1.0
290
     0
  0
SCALE
  5
55
102
{ACAD_REACTORS
330
47
102
}
330
47
100
AcDbScale
 70
     0
300
4:1
140
4.0
141
1.0
290
     0
  0
SCALE
  5
56
102
{ACAD_REACTORS
330
47
102
}
330
47
100
AcDbScale
 70
     0
300
8:1
140
8.0
141
1.0
290
     0
  0
SCALE
  5
57
102
{ACAD_REACTORS
330
47
102
}
330
47
100
AcDbScale
 70
     0
300
10:1
140
10.0
141
1.0
290
     0
  0
SCALE
  5
58
102
{ACAD_REACTORS
330
47
102
}
330
47
100
AcDbScale
 70
     0
300
100:1
140
100.0
141
1.0
290
     0
  0
SCALE
  5
59
102
{ACAD_REACTORS
330
47
102
}
330
47
100
AcDbScale
 70
     0
300
1/128" = 1'-0"
140
0.007812
141
12.0
290
     0
  0
SCALE
  5
5A
102
{ACAD_REACTORS
330
47
102
}
330
47
100
AcDbScale
 70
     0
300
1/64" = 1'-0"
140
0.015625
141
12.0
290
     0
  0
SCALE
  5
5B
102
{ACAD_REACTORS
330
47
102
}
330
47
100
AcDbScale
 70
     0
300
1/32" = 1'-0"
140
0.03125
141
12.0
290
     0
  0
SCALE
  5
5C
102
{ACAD_REACTORS
330
47
102
}
330
47
100
AcDbScale
 70
     0
300
1/16" = 1'-0"
140
0.0625
141
12.0
290
     0
  0
SCALE
  5
5D
102
{ACAD_REACTORS
330
47
102
}
330
47
100
AcDbScale
 70
     0
300
3/32" = 1'-0"
140
0.09375
141
12.0
290
     0
  0
SCALE
  5
5E
102
{ACAD_REACTORS
330
47
102
}
330
47
100
AcDbScale
 70
     0
300
1/8" = 1'-0"
140
0.125
141
12.0
290
     0
  0
SCALE
  5
5F
102
{ACAD_REACTORS
330
47
102
}
330
47
100
AcDbScale
 70
     0
300
3/16" = 1'-0"
140
0.1875
141
12.0
290
     0
  0
SCALE
  5
60
102
{ACAD_REACTORS
330
47
102
}
330
47
100
AcDbScale
 70
     0
300
1/4" = 1'-0"
140
0.25
141
12.0
290
     0
  0
SCALE
  5
61
102
{ACAD_REACTORS
330
47
102
}
330
47
100
AcDbScale
 70
     0
300
3/8" = 1'-0"
140
0.375
141
12.0
290
     0
  0
SCALE
  5
62
102
{ACAD_REACTORS
330
47
102
}
330
47
100
AcDbScale
 70
     0
300
1/2" = 1'-0"
140
0.5
141
12.0
290
     0
  0
SCALE
  5
63
102
{ACAD_REACTORS
330
47
102
}
330
47
100
AcDbScale
 70
     0
300
3/4" = 1'-0"
140
0.75
141
12.0
290
     0
  0
SCALE
  5
64
102
{ACAD_REACTORS
330
47
102
}
330
47
100
AcDbScale
 70
     0
300
1" = 1'-0"
140
1.0
141
12.0
290
     0
  0
SCALE
  5
65
102
{ACAD_REACTORS
330
47
102
}
330
47
100
AcDbScale
 70
     0
300
1-1/2" = 1'-0"
140
1.5
141
12.0
290
     0
  0
SCALE
  5
66
102
{ACAD_REACTORS
330
47
102
}
330
47
100
AcDbScale
 70
     0
300
3" = 1'-0"
140
3.0
141
12.0
290
     0
  0
SCALE
  5
67
102
{ACAD_REACTORS
330
47
102
}
330
47
100
AcDbScale
 70
     0
300
6" = 1'-0"
140
6.0
141
12.0
290
     0
  0
SCALE
  5
68
102
{ACAD_REACTORS
330
47
102
}
330
47
100
AcDbScale
 70
     0
300
1'-0" = 1'-0"
140
12.0
141
12.0
290
     0
  0
ACDBSECTIONVIEWSTYLE
  5
2AC
102
{ACAD_XDICTIONARY
360
3DC
102
}
102
{ACAD_REACTORS
330
2A8
330
30E
102
}
330
2A8
100
AcDbModelDocViewStyle
 70
     0
  3
Metric50
290
     0
100
AcDbSectionViewStyle
 70
     0
 71
     0
 90
      102
 71
     1
340
11
 62
   256
 40
5.0
340
0
340
0
 62
   256
 40
5.0
300
I, O, Q, S, X, Z
 40
10.0
 90
        0
 40
2.5
 90
        0
 71
     2
340
16
 90
       25
 62
   256
340
16
 90
       50
 62
   256
 40
5.0
 40
2.5
 40
5.0
 71
     3
340
11
 62
   256
 40
5.0
 90
        0
 40
15.0
 90
        1
300
%<\AcVar ViewSectionStartId>%-%<\AcVar ViewSectionEndId>% (%<\AcVar ViewScale \f "%sn">%)
 71
     4
 62
   256
 62
   257
300
ANSI31
 40
1.0
 90
        0
290
     0
290
     0
 90
        6
 40
0.0
 40
1.570796326794896
 40
0.2617993877991494
 40
1.308996938995747
 40
-0.2617993877991494
 40
1.832595714594046
  0
TABLESTYLE
  5
6A
102
{ACAD_XDICTIONARY
360
29E
102
}
102
{ACAD_REACTORS
330
69
102
}
330
69
100
AcDbTableStyle
  3
Standard
 70
     0
 71
     0
 40
0.06
 41
0.06
280
     0
281
     0
  7
Standard
140
0.18
170
     2
 62
     0
 63
     7
283
     0
274
    -2
284
     1
 64
     0
275
    -2
285
     1
 65
     0
276
    -2
286
     1
 66
     0
277
    -2
287
     1
 67
     0
278
    -2
288
     1
 68
     0
279
    -2
289
     1
 69
     0
  7
Standard
140
0.25
170
     5
 62
     0
 63
     7
283
     0
274
    -2
284
     1
 64
     0
275
    -2
285
     1
 65
     0
276
    -2
286
     1
 66
     0
277
    -2
287
     1
 67
     0
278
    -2
288
     1
 68
     0
279
    -2
289
     1
 69
     0
  7
Standard
140
0.18
170
     5
 62
     0
 63
     7
283
     0
274
    -2
284
     1
 64
     0
275
    -2
285
     1
 65
     0
276
    -2
286
     1
 66
     0
277
    -2
287
     1
 67
     0
278
    -2
288
     1
 68
     0
279
    -2
289
     1
 69
     0
  0
VISUALSTYLE
  5
2F
102
{ACAD_XDICTIONARY
360
3B3
102
}
102
{ACAD_REACTORS
330
2A
102
}
330
2A
100
AcDbVisualStyle
  2

 70
     4
 71
     0
 72
     2
 73
     0
 90
        0
 40
-0.6
 41
-30.0
 62
     5
 63
     7
421
 16777215
 74
     1
 91
        4
 64
     7
 65
   257
 75
     1
175
     1
 42
1.0
 92
        0
 66
   257
 43
1.0
 76
     1
 77
     6
 78
     2
 67
     7
 79
     5
170
     0
171
     0
290
     0
174
     0
 93
        1
 44
0.0
173
     0
291
     0
 45
0.0
1001
ACAD
1000
AcDbSavedByObjectVersion
1070
     0
  0
VISUALSTYLE
  5
32
102
{ACAD_XDICTIONARY
360
3B9
102
}
102
{ACAD_REACTORS
330
2A
102
}
330
2A
100
AcDbVisualStyle
  2

 70
     7
 71
     1
 72
     0
 73
     1
 90
        0
 40
-0.6
 41
-30.0
 62
     5
 63
     7
421
 16777215
 74
     0
 91
        4
 64
     7
 65
   257
 75
     1
175
     1
 42
1.0
 92
        8
 66
     7
 43
1.0
 76
     1
 77
     6
 78
     2
 67
     7
 79
     5
170
     0
171
     0
290
     0
174
     0
 93
        1
 44
0.0
173
     0
291
     1
 45
0.0
1001
ACAD
1000
AcDbSavedByObjectVersion
1070
     0
  0
VISUALSTYLE
  5
36
102
{ACAD_XDICTIONARY
360
3C1
102
}
102
{ACAD_REACTORS
330
2A
102
}
330
2A
100
AcDbVisualStyle
  2

 70
    12
 71
     2
 72
     2
 73
     0
 90
        0
 40
-0.6
 41
-30.0
 62
     5
 63
     7
421
 16777215
 74
     1
 91
        4
 64
     7
 65
   257
 75
     1
175
     1
 42
1.0
 92
        8
 66
     7
 43
1.0
 76
     1
 77
     6
 78
     2
 67
     7
 79
     5
170
     0
171
     0
290
     0
174
     0
 93
        1
 44
50.0
173
     0
291
     1
 45
0.0
1001
ACAD
1000
AcDbSavedByObjectVersion
1070
     0
  0
VISUALSTYLE
  5
3A
102
{ACAD_XDICTIONARY
360
3C9
102
}
102
{ACAD_REACTORS
330
2A
102
}
330
2A
100
AcDbVisualStyle
  2

 70
    16
 71
     2
 72
     2
 73
     3
 90
        0
 40
-0.6
 41
-30.0
 62
     5
 63
     8
421
  8421504
 74
     1
 91
        4
 64
     7
 65
   257
 75
     1
175
     1
 42
1.0
 92
        8
 66
     8
424
  8421504
 43
1.0
 76
     1
 77
     6
 78
     2
 67
     7
 79
     5
170
     0
171
     0
290
     0
174
     0
 93
        1
 44
0.0
173
     0
291
     1
 45
0.0
1001
ACAD
1000
AcDbSavedByObjectVersion
1070
     0
  0
VISUALSTYLE
  5
34
102
{ACAD_XDICTIONARY
360
3BD
102
}
102
{ACAD_REACTORS
330
2A
102
}
330
2A
100
AcDbVisualStyle
  2

 70
     9
 71
     3
 72
     2
 73
     0
 90
        0
 40
-0.6
 41
-30.0
 62
     5
 63
     7
421
 16777215
 74
     2
 91
        2
 64
     7
 65
   257
 75
     1
175
     1
 42
179.0
 92
        8
 66
     7
 43
1.0
 76
     1
 77
     6
 78
     2
 67
     7
 79
     3
170
     0
171
     0
290
     0
174
     0
 93
        1
 44
0.0
173
     0
291
     0
 45
0.0
1001
ACAD
1000
AcDbSavedByObjectVersion
1070
     0
  0
VISUALSTYLE
  5
35
102
{ACAD_XDICTIONARY
360
3BF
102
}
102
{ACAD_REACTORS
330
2A
102
}
330
2A
100
AcDbVisualStyle
  2

 70
    11
 71
     2
 72
     2
 73
     0
 90
        0
 40
-0.6
 41
-30.0
 62
     5
 63
     7
421
 16777215
 74
     1
 91
        4
 64
     7
 65
   257
 75
     1
175
     1
 42
1.0
 92
        8
 66
     7
 43
1.0
 76
     1
 77
     6
 78
     2
 67
     7
 79
     5
170
     0
171
     0
290
     0
174
     0
 93
        1
 44
-50.0
173
     0
291
     1
 45
0.0
1001
ACAD
1000
AcDbSavedByObjectVersion
1070
     0
  0
VISUALSTYLE
  5
3D
102
{ACAD_XDICTIONARY
360
3CF
102
}
102
{ACAD_REACTORS
330
2A
102
}
330
2A
100
AcDbVisualStyle
  2

 70
    22
 71
     2
 72
     2
 73
     0
 90
        0
 40
-0.6
 41
-30.0
 62
     5
 63
     7
421
 16777215
 74
     1
 91
        4
 64
     7
 65
   257
 75
     1
175
     1
 42
1.0
 92
        8
 66
     7
 43
1.0
 76
     1
 77
     6
 78
     2
 67
     7
 79
     5
170
     0
171
     0
290
     0
174
     0
 93
        1
 44
0.0
173
     0
291
     1
 45
0.0
1001
ACAD
1000
AcDbSavedByObjectVersion
1070
     0
  0
VISUALSTYLE
  5
39
102
{ACAD_XDICTIONARY
360
3C7
102
}
102
{ACAD_REACTORS
330
2A
102
}
330
2A
100
AcDbVisualStyle
  2

 70
    15
 71
     2
 72
     2
 73
     0
 90
        0
 40
-0.6
 41
-30.0
 62
     5
 63
     7
421
 16777215
 74
     1
 91
        4
 64
     7
 65
   257
 75
     1
175
     1
 42
1.0
 92
        8
 66
     7
 43
1.0
 76
     1
 77
     6
 78
     2
 67
     7
 79
     5
170
     0
171
     0
290
     0
174
     0
 93
        1
 44
0.0
173
     0
291
     1
 45
0.0
1001
ACAD
1000
AcDbSavedByObjectVersion
1070
     0
  0
VISUALSTYLE
  5
2B
102
{ACAD_XDICTIONARY
360
3AB
102
}
102
{ACAD_REACTORS
330
2A
102
}
330
2A
100
AcDbVisualStyle
  2

 70
     0
 71
     2
 72
     1
 73
     1
 90
        2
 40
-0.6
 41
30.0
 62
     5
 63
     7
421
 16777215
 74
     0
 91
        0
 64
     7
 65
   257
 75
     1
175
     1
 42
1.0
 92
        8
 66
     7
 43
1.0
 76
     1
 77
     6
 78
     2
 67
     7
 79
     5
170
     0
171
     0
290
     0
174
     0
 93
       13
 44
0.0
173
     0
291
     1
 45
0.0
1001
ACAD
1000
AcDbSavedByObjectVersion
1070
     0
  0
VISUALSTYLE
  5
2C
102
{ACAD_XDICTIONARY
360
3AD
102
}
102
{ACAD_REACTORS
330
2A
102
}
330
2A
100
AcDbVisualStyle
  2

 70
     1
 71
     2
 72
     1
 73
     1
 90
        2
 40
-0.6
 41
30.0
 62
     5
 63
     7
421
 16777215
 74
     1
 91
        0
 64
     7
 65
   257
 75
     1
175
     1
 42
1.0
 92
        0
 66
   257
 43
1.0
 76
     1
 77
     6
 78
     2
 67
     7
 79
     5
170
     0
171
     0
290
     0
174
     0
 93
       13
 44
0.0
173
     0
291
     1
 45
0.0
1001
ACAD
1000
AcDbSavedByObjectVersion
1070
     0
  0
VISUALSTYLE
  5
2D
102
{ACAD_XDICTIONARY
360
3AF
102
}
102
{ACAD_REACTORS
330
2A
102
}
330
2A
100
AcDbVisualStyle
  2

 70
     2
 71
     2
 72
     2
 73
     1
 90
        2
 40
-0.6
 41
30.0
 62
     5
 63
     7
421
 16777215
 74
     0
 91
        0
 64
     7
 65
   257
 75
     1
175
     1
 42
1.0
 92
        0
 66
     7
 43
1.0
 76
     1
 77
     6
 78
     2
 67
     7
 79
     5
170
     0
171
     0
290
     0
174
     0
 93
       13
 44
0.0
173
     0
291
     1
 45
0.0
1001
ACAD
1000
AcDbSavedByObjectVersion
1070
     0
  0
VISUALSTYLE
  5
2E
102
{ACAD_XDICTIONARY
360
3B1
102
}
102
{ACAD_REACTORS
330
2A
102
}
330
2A
100
AcDbVisualStyle
  2

 70
     3
 71
     2
 72
     2
 73
     1
 90
        2
 40
-0.6
 41
30.0
 62
     5
 63
     7
421
 16777215
 74
     1
 91
        0
 64
     7
 65
   257
 75
     1
175
     1
 42
1.0
 92
        0
 66
   257
 43
1.0
 76
     1
 77
     6
 78
     2
 67
     7
 79
     5
170
     0
171
     0
290
     0
174
     0
 93
       13
 44
0.0
173
     0
291
     1
 45
0.0
1001
ACAD
1000
AcDbSavedByObjectVersion
1070
     0
  0
VISUALSTYLE
  5
31
102
{ACAD_XDICTIONARY
360
3B7
102
}
102
{ACAD_REACTORS
330
2A
102
}
330
2A
100
AcDbVisualStyle
  2

 70
     6
 71
     1
 72
     2
 73
     2
 90
        0
 40
-0.6
 41
-30.0
 62
     5
 63
     7
421
 16777215
 74
     2
 91
        2
 64
     7
 65
   257
 75
     2
175
     1
 42
40.0
 92
        0
 66
   257
 43
1.0
 76
     1
 77
     6
 78
     2
 67
     7
 79
     3
170
     0
171
     0
290
     0
174
     0
 93
        1
 44
0.0
173
     0
291
     0
 45
0.0
1001
ACAD
1000
AcDbSavedByObjectVersion
1070
     0
  0
VISUALSTYLE
  5
3B
102
{ACAD_XDICTIONARY
360
3CB
102
}
102
{ACAD_REACTORS
330
2A
102
}
330
2A
100
AcDbVisualStyle
  2

 70
    20
 71
     2
 72
     2
 73
     0
 90
        0
 40
-0.6
 41
-30.0
 62
     5
 63
     7
421
 16777215
 74
     1
 91
        4
 64
     7
 65
   257
 75
     1
175
     1
 42
1.0
 92
       10
 66
     7
 43
1.0
 76
     1
 77
     6
 78
     2
 67
     7
 79
     5
170
     0
171
     0
290
     0
174
     0
 93
        1
 44
0.0
173
     0
291
     1
 45
0.0
1001
ACAD
1000
AcDbSavedByObjectVersion
1070
     0
  0
VISUALSTYLE
  5
38
102
{ACAD_XDICTIONARY
360
3C5
102
}
102
{ACAD_REACTORS
330
2A
102
}
330
2A
100
AcDbVisualStyle
  2

 70
    14
 71
     2
 72
     2
 73
     0
 90
        0
 40
-0.6
 41
-30.0
 62
     5
 63
     7
421
 16777215
 74
     1
 91
        4
 64
     7
 65
   257
 75
     7
175
     7
 42
1.0
 92
        8
 66
     7
 43
1.0
 76
     1
 77
     6
 78
     2
 67
     7
 79
     5
170
     0
171
     0
290
     0
174
     0
 93
        1
 44
0.0
173
     0
291
     1
 45
0.0
1001
ACAD
1000
AcDbSavedByObjectVersion
1070
     0
  0
VISUALSTYLE
  5
3C
102
{ACAD_XDICTIONARY
360
3CD
102
}
102
{ACAD_REACTORS
330
2A
102
}
330
2A
100
AcDbVisualStyle
  2

 70
    21
 71
     2
 72
     2
 73
     0
 90
        0
 40
-0.6
 41
-30.0
 62
     5
 63
     7
421
 16777215
 74
     1
 91
        4
 64
     7
 65
   257
 75
     1
175
     1
 42
1.0
 92
        9
 66
     7
 43
1.0
 76
     1
 77
     6
 78
     2
 67
     7
 79
     5
170
     0
171
     0
290
     0
174
     0
 93
        1
 44
0.0
173
     0
291
     1
 45
0.0
1001
ACAD
1000
AcDbSavedByObjectVersion
1070
     0
  0
VISUALSTYLE
  5
33
102
{ACAD_XDICTIONARY
360
3BB
102
}
102
{ACAD_REACTORS
330
2A
102
}
330
2A
100
AcDbVisualStyle
  2

 70
     8
 71
     2
 72
     3
 73
     0
 90
        2
 40
-0.6
 41
30.0
 62
     5
 63
     7
421
 16777215
 74
     0
 91
        0
 64
     7
 65
   257
 75
     1
175
     1
 42
1.0
 92
        8
 66
   257
 43
1.0
 76
     1
 77
     6
 78
     2
 67
     7
 79
     3
170
     0
171
     0
290
     0
174
     0
 93
       13
 44
0.0
173
     0
291
     0
 45
0.0
1001
ACAD
1000
AcDbSavedByObjectVersion
1070
     0
  0
VISUALSTYLE
  5
42
102
{ACAD_XDICTIONARY
360
3D9
102
}
102
{ACAD_REACTORS
330
2A
102
}
330
2A
100
AcDbVisualStyle
  2

 70
    27
 71
     2
 72
     2
 73
     1
 90
        2
 40
-0.6
 41
30.0
 62
     5
 63
     7
421
 16777215
 74
     0
 91
        4
 64
     7
 65
   257
 75
     1
175
     1
 42
1.0
 92
        8
 66
   257
 43
1.0
 76
     1
 77
     6
 78
     2
 67
     8
425
  7895160
 79
     3
170
     0
171
     0
290
     0
174
     0
 93
        5
 44
0.0
173
     0
291
     0
 45
0.0
1001
ACAD
1000
AcDbSavedByObjectVersion
1070
     0
  0
VISUALSTYLE
  5
41
102
{ACAD_XDICTIONARY
360
3D7
102
}
102
{ACAD_REACTORS
330
2A
102
}
330
2A
100
AcDbVisualStyle
  2

 70
    26
 71
     2
 72
     2
 73
     1
 90
        2
 40
-0.6
 41
30.0
 62
     5
 63
     7
421
 16777215
 74
     1
 91
       10
 64
     7
 65
   257
 75
     2
175
     1
 42
1.0
 92
        8
 66
   257
 43
1.0
 76
     1
 77
     6
 78
     2
 67
     7
 79
     3
170
     0
171
     0
290
     0
174
     0
 93
        5
 44
0.0
173
     0
291
     0
 45
0.0
1001
ACAD
1000
AcDbSavedByObjectVersion
1070
     0
  0
VISUALSTYLE
  5
3E
102
{ACAD_XDICTIONARY
360
3D1
102
}
102
{ACAD_REACTORS
330
2A
102
}
330
2A
100
AcDbVisualStyle
  2

 70
    23
 71
     2
 72
     2
 73
     3
 90
        0
 40
-0.6
 41
-30.0
 62
     5
 63
     7
421
 16777215
 74
     2
 91
        2
 64
     7
 65
     7
 75
     1
175
     1
 42
40.0
 92
        8
 66
     7
 43
1.0
 76
     1
 77
     6
 78
     2
 67
     7
 79
     3
170
     0
171
     0
290
     0
174
     0
 93
        1
 44
0.0
173
     0
291
     0
 45
0.0
1001
ACAD
1000
AcDbSavedByObjectVersion
1070
     0
  0
VISUALSTYLE
  5
3F
102
{ACAD_XDICTIONARY
360
3D3
102
}
102
{ACAD_REACTORS
330
2A
102
}
330
2A
100
AcDbVisualStyle
  2

 70
    24
 71
     1
 72
     2
 73
     2
 90
        0
 40
-0.6
 41
-30.0
 62
     5
 63
     7
421
 16777215
 74
     2
 91
        2
 64
     7
 65
     7
 75
     1
175
     1
 42
40.0
 92
       11
 66
     7
 43
1.0
 76
     1
 77
     6
 78
     2
 67
     7
 79
     6
170
     0
171
     0
290
     0
174
     0
 93
        1
 44
0.0
173
     0
291
     0
 45
0.0
1001
ACAD
1000
AcDbSavedByObjectVersion
1070
     0
  0
VISUALSTYLE
  5
37
102
{ACAD_XDICTIONARY
360
3C3
102
}
102
{ACAD_REACTORS
330
2A
102
}
330
2A
100
AcDbVisualStyle
  2

 70
    13
 71
     2
 72
     2
 73
     0
 90
        0
 40
-0.6
 41
-30.0
 62
     5
 63
     7
421
 16777215
 74
     1
 91
        4
 64
     7
 65
   257
 75
     1
175
     1
 42
1.0
 92
       12
 66
     7
 43
1.0
 76
     1
 77
     6
 78
     2
 67
     7
 79
     5
170
     0
171
     0
290
     0
174
     0
 93
        1
 44
0.0
173
     0
291
     1
 45
0.0
1001
ACAD
1000
AcDbSavedByObjectVersion
1070
     0
  0
VISUALSTYLE
  5
30
102
{ACAD_XDICTIONARY
360
3B5
102
}
102
{ACAD_REACTORS
330
2A
102
}
330
2A
100
AcDbVisualStyle
  2

 70
     5
 71
     0
 72
     2
 73
     0
 90
        0
 40
-0.6
 41
-30.0
 62
     5
 63
     7
421
 16777215
 74
     1
 91
        4
 64
     7
 65
   257
 75
     1
175
     1
 42
1.0
 92
        0
 66
   257
 43
1.0
 76
     1
 77
     6
 78
     2
 67
     7
 79
     3
170
     0
171
     0
290
     0
174
     0
 93
        1
 44
0.0
173
     0
291
     0
 45
0.0
1001
ACAD
1000
AcDbSavedByObjectVersion
1070
     0
  0
VISUALSTYLE
  5
40
102
{ACAD_XDICTIONARY
360
3D5
102
}
102
{ACAD_REACTORS
330
2A
102
}
330
2A
100
AcDbVisualStyle
  2

 70
    25
 71
     2
 72
     2
 73
     1
 90
        1
 40
0.5
 41
-30.0
 62
     5
 63
     7
421
 16777215
 74
     1
 91
        0
 64
     7
 65
   257
 75
     1
175
     1
 42
1.0
 92
        8
 66
     7
 43
1.0
 76
     1
 77
     6
 78
     2
 67
     7
 79
     3
170
     0
171
     0
290
     0
174
     0
 93
       13
 44
0.0
173
     0
291
     0
 45
0.0
1001
ACAD
1000
AcDbSavedByObjectVersion
1070
     0
  0
DICTIONARYVAR
  5
265
102
{ACAD_REACTORS
330
264
102
}
330
264
100
DictionaryVariables
280
     0
  1
1:1
  0
DICTIONARYVAR
  5
2A6
102
{ACAD_REACTORS
330
264
102
}
330
264
100
DictionaryVariables
280
     0
  1
STANDARD
  0
DICTIONARYVAR
  5
2A5
102
{ACAD_REACTORS
330
264
102
}
330
264
100
DictionaryVariables
280
     0
  1
STANDARD
  0
DICTIONARYVAR
  5
3A6
102
{ACAD_REACTORS
330
264
102
}
330
264
100
DictionaryVariables
280
     0
  1
Metric50
  0
DICTIONARYVAR
  5
3A7
102
{ACAD_REACTORS
330
264
102
}
330
264
100
DictionaryVariables
280
     0
  1
Metric50
  0
DICTIONARYVAR
  5
266
102
{ACAD_REACTORS
330
264
102
}
330
264
100
DictionaryVariables
280
     0
  1
1
  0
DICTIONARYVAR
  5
3A8
102
{ACAD_REACTORS
330
264
102
}
330
264
100
DictionaryVariables
280
     0
  1
2
  0
DICTIONARY
  5
2E4
102
{ACAD_REACTORS
330
2DD
102
}
330
2DD
100
AcDbDictionary
281
     1
  0
DICTIONARY
  5
3DE
330
2AD
100
AcDbDictionary
280
     1
281
     1
  3
ACAD_XREC_ROUNDTRIP
360
3DF
  0
DICTIONARY
  5
29A
330
45
100
AcDbDictionary
280
     1
281
     1
  3
ACAD_XREC_ROUNDTRIP
360
29B
  0
DICTIONARY
  5
298
330
44
100
AcDbDictionary
280
     1
281
     1
  3
ACAD_XREC_ROUNDTRIP
360
299
  0
DICTIONARY
  5
29C
330
46
100
AcDbDictionary
280
     1
281
     1
  3
ACAD_XREC_ROUNDTRIP
360
29D
  0
DICTIONARY
  5
3DC
330
2AC
100
AcDbDictionary
280
     1
281
     1
  3
ACAD_XREC_ROUNDTRIP
360
3DD
  0
DICTIONARY
  5
29E
330
6A
100
AcDbDictionary
280
     1
281
     1
  3
ACAD_ROUNDTRIP_2008_TABLESTYLE_CELLSTYLEMAP
360
3A9
  3
ACAD_XREC_ROUNDTRIP
360
3DB
  0
DICTIONARY
  5
3B3
330
2F
100
AcDbDictionary
280
     1
281
     1
  3
ACAD_XREC_ROUNDTRIP
360
3B4
  0
DICTIONARY
  5
3B9
330
32
100
AcDbDictionary
280
     1
281
     1
  3
ACAD_XREC_ROUNDTRIP
360
3BA
  0
DICTIONARY
  5
3C1
330
36
100
AcDbDictionary
280
     1
281
     1
  3
ACAD_XREC_ROUNDTRIP
360
3C2
  0
DICTIONARY
  5
3C9
330
3A
100
AcDbDictionary
280
     1
281
     1
  3
ACAD_XREC_ROUNDTRIP
360
3CA
  0
DICTIONARY
  5
3BD
330
34
100
AcDbDictionary
280
     1
281
     1
  3
ACAD_XREC_ROUNDTRIP
360
3BE
  0
DICTIONARY
  5
3BF
330
35
100
AcDbDictionary
280
     1
281
     1
  3
ACAD_XREC_ROUNDTRIP
360
3C0
  0
DICTIONARY
  5
3CF
330
3D
100
AcDbDictionary
280
     1
281
     1
  3
ACAD_XREC_ROUNDTRIP
360
3D0
  0
DICTIONARY
  5
3C7
330
39
100
AcDbDictionary
280
     1
281
     1
  3
ACAD_XREC_ROUNDTRIP
360
3C8
  0
DICTIONARY
  5
3AB
330
2B
100
AcDbDictionary
280
     1
281
     1
  3
ACAD_XREC_ROUNDTRIP
360
3AC
  0
DICTIONARY
  5
3AD
330
2C
100
AcDbDictionary
280
     1
281
     1
  3
ACAD_XREC_ROUNDTRIP
360
3AE
  0
DICTIONARY
  5
3AF
330
2D
100
AcDbDictionary
280
     1
281
     1
  3
ACAD_XREC_ROUNDTRIP
360
3B0
  0
DICTIONARY
  5
3B1
330
2E
100
AcDbDictionary
280
     1
281
     1
  3
ACAD_XREC_ROUNDTRIP
360
3B2
  0
DICTIONARY
  5
3B7
330
31
100
AcDbDictionary
280
     1
281
     1
  3
ACAD_XREC_ROUNDTRIP
360
3B8
  0
DICTIONARY
  5
3CB
330
3B
100
AcDbDictionary
280
     1
281
     1
  3
ACAD_XREC_ROUNDTRIP
360
3CC
  0
DICTIONARY
  5
3C5
330
38
100
AcDbDictionary
280
     1
281
     1
  3
ACAD_XREC_ROUNDTRIP
360
3C6
  0
DICTIONARY
  5
3CD
330
3C
100
AcDbDictionary
280
     1
281
     1
  3
ACAD_XREC_ROUNDTRIP
360
3CE
  0
DICTIONARY
  5
3BB
330
33
100
AcDbDictionary
280
     1
281
     1
  3
ACAD_XREC_ROUNDTRIP
360
3BC
  0
DICTIONARY
  5
3D9
330
42
100
AcDbDictionary
280
     1
281
     1
  3
ACAD_XREC_ROUNDTRIP
360
3DA
  0
DICTIONARY
  5
3D7
330
41
100
AcDbDictionary
280
     1
281
     1
  3
ACAD_XREC_ROUNDTRIP
360
3D8
  0
DICTIONARY
  5
3D1
330
3E
100
AcDbDictionary
280
     1
281
     1
  3
ACAD_XREC_ROUNDTRIP
360
3D2
  0
DICTIONARY
  5
3D3
330
3F
100
AcDbDictionary
280
     1
281
     1
  3
ACAD_XREC_ROUNDTRIP
360
3D4
  0
DICTIONARY
  5
3C3
330
37
100
AcDbDictionary
280
     1
281
     1
  3
ACAD_XREC_ROUNDTRIP
360
3C4
  0
DICTIONARY
  5
3B5
330
30
100
AcDbDictionary
280
     1
281
     1
  3
ACAD_XREC_ROUNDTRIP
360
3B6
  0
DICTIONARY
  5
3D5
330
40
100
AcDbDictionary
280
     1
281
     1
  3
ACAD_XREC_ROUNDTRIP
360
3D6
  0
XRECORD
  5
3DF
102
{ACAD_REACTORS
330
3DE
102
}
330
3DE
100
AcDbXrecord
280
     1
102
DISPLAYNAME
  1
Metric50
102
FLAGS
 90
        0
  0
XRECORD
  5
29B
102
{ACAD_REACTORS
330
29A
102
}
330
29A
100
AcDbXrecord
280
     1
102
MATERIAL
148
0.0
149
0.0
149
0.0
 93
        0
 94
      127
282
     0
 72
     1
 77
     1
171
     1
175
     1
179
     1
273
     0
  0
XRECORD
  5
299
102
{ACAD_REACTORS
330
298
102
}
330
298
100
AcDbXrecord
280
     1
102
MATERIAL
148
0.0
149
0.0
149
0.0
 93
        0
 94
      127
282
     0
 72
     1
 77
     1
171
     1
175
     1
179
     1
273
     0
  0
XRECORD
  5
29D
102
{ACAD_REACTORS
330
29C
102
}
330
29C
100
AcDbXrecord
280
     1
102
MATERIAL
148
0.0
149
0.0
149
0.0
 93
        0
 94
      127
282
     0
 72
     1
 77
     1
171
     1
175
     1
179
     1
273
     0
  0
XRECORD
  5
3DD
102
{ACAD_REACTORS
330
3DC
102
}
330
3DC
100
AcDbXrecord
280
     1
102
DISPLAYNAME
  1
Metric50
102
FLAGS
 90
        0
  0
CELLSTYLEMAP
  5
3A9
102
{ACAD_REACTORS
330
29E
102
}
330
29E
100
AcDbCellStyleMap
 90
        3
300
CELLSTYLE
  1
TABLEFORMAT_BEGIN
 90
        5
170
     1
 91
        0
 92
    32768
 62
   257
 93
        1
300
CONTENTFORMAT
  1
CONTENTFORMAT_BEGIN
 90
        0
 91
        0
 92
        4
 93
        0
300

 40
0.0
140
1.0
 94
        5
 62
     0
340
11
144
0.25
309
CONTENTFORMAT_END
171
     1
301
MARGIN
  1
CELLMARGIN_BEGIN
 40
0.06
 40
0.06
 40
0.06
 40
0.06
 40
0.18
 40
0.18
309
CELLMARGIN_END
 94
        6
 95
        1
302
GRIDFORMAT
  1
GRIDFORMAT_BEGIN
 90
        0
 91
        1
 62
     0
 92
       -2
340
14
 93
        0
 40
0.045
309
GRIDFORMAT_END
 95
        2
302
GRIDFORMAT
  1
GRIDFORMAT_BEGIN
 90
        0
 91
        1
 62
     0
 92
       -2
340
14
 93
        0
 40
0.045
309
GRIDFORMAT_END
 95
        4
302
GRIDFORMAT
  1
GRIDFORMAT_BEGIN
 90
        0
 91
        1
 62
     0
 92
       -2
340
14
 93
        0
 40
0.045
309
GRIDFORMAT_END
 95
        8
302
GRIDFORMAT
  1
GRIDFORMAT_BEGIN
 90
        0
 91
        1
 62
     0
 92
       -2
340
14
 93
        0
 40
0.045
309
GRIDFORMAT_END
 95
       16
302
GRIDFORMAT
  1
GRIDFORMAT_BEGIN
 90
        0
 91
        1
 62
     0
 92
       -2
340
14
 93
        0
 40
0.045
309
GRIDFORMAT_END
 95
       32
302
GRIDFORMAT
  1
GRIDFORMAT_BEGIN
 90
        0
 91
        1
 62
     0
 92
       -2
340
14
 93
        0
 40
0.045
309
GRIDFORMAT_END
309
TABLEFORMAT_END
  1
CELLSTYLE_BEGIN
 90
        1
 91
        1
300
_TITLE
309
CELLSTYLE_END
300
CELLSTYLE
  1
TABLEFORMAT_BEGIN
 90
        5
170
     1
 91
        0
 92
        0
 62
   257
 93
        1
300
CONTENTFORMAT
  1
CONTENTFORMAT_BEGIN
 90
        0
 91
        0
 92
        4
 93
        0
300

 40
0.0
140
1.0
 94
        5
 62
     0
340
11
144
0.18
309
CONTENTFORMAT_END
171
     1
301
MARGIN
  1
CELLMARGIN_BEGIN
 40
0.06
 40
0.06
 40
0.06
 40
0.06
 40
0.18
 40
0.18
309
CELLMARGIN_END
 94
        6
 95
        1
302
GRIDFORMAT
  1
GRIDFORMAT_BEGIN
 90
        0
 91
        1
 62
     0
 92
       -2
340
14
 93
        0
 40
0.045
309
GRIDFORMAT_END
 95
        2
302
GRIDFORMAT
  1
GRIDFORMAT_BEGIN
 90
        0
 91
        1
 62
     0
 92
       -2
340
14
 93
        0
 40
0.045
309
GRIDFORMAT_END
 95
        4
302
GRIDFORMAT
  1
GRIDFORMAT_BEGIN
 90
        0
 91
        1
 62
     0
 92
       -2
340
14
 93
        0
 40
0.045
309
GRIDFORMAT_END
 95
        8
302
GRIDFORMAT
  1
GRIDFORMAT_BEGIN
 90
        0
 91
        1
 62
     0
 92
       -2
340
14
 93
        0
 40
0.045
309
GRIDFORMAT_END
 95
       16
302
GRIDFORMAT
  1
GRIDFORMAT_BEGIN
 90
        0
 91
        1
 62
     0
 92
       -2
340
14
 93
        0
 40
0.045
309
GRIDFORMAT_END
 95
       32
302
GRIDFORMAT
  1
GRIDFORMAT_BEGIN
 90
        0
 91
        1
 62
     0
 92
       -2
340
14
 93
        0
 40
0.045
309
GRIDFORMAT_END
309
TABLEFORMAT_END
  1
CELLSTYLE_BEGIN
 90
        2
 91
        1
300
_HEADER
309
CELLSTYLE_END
300
CELLSTYLE
  1
TABLEFORMAT_BEGIN
 90
        5
170
     1
 91
        0
 92
        0
 62
   257
 93
        1
300
CONTENTFORMAT
  1
CONTENTFORMAT_BEGIN
 90
        0
 91
        0
 92
        4
 93
        0
300

 40
0.0
140
1.0
 94
        2
 62
     0
340
11
144
0.18
309
CONTENTFORMAT_END
171
     1
301
MARGIN
  1
CELLMARGIN_BEGIN
 40
0.06
 40
0.06
 40
0.06
 40
0.06
 40
0.18
 40
0.18
309
CELLMARGIN_END
 94
        6
 95
        1
302
GRIDFORMAT
  1
GRIDFORMAT_BEGIN
 90
        0
 91
        1
 62
     0
 92
       -2
340
14
 93
        0
 40
0.045
309
GRIDFORMAT_END
 95
        2
302
GRIDFORMAT
  1
GRIDFORMAT_BEGIN
 90
        0
 91
        1
 62
     0
 92
       -2
340
14
 93
        0
 40
0.045
309
GRIDFORMAT_END
 95
        4
302
GRIDFORMAT
  1
GRIDFORMAT_BEGIN
 90
        0
 91
        1
 62
     0
 92
       -2
340
14
 93
        0
 40
0.045
309
GRIDFORMAT_END
 95
        8
302
GRIDFORMAT
  1
GRIDFORMAT_BEGIN
 90
        0
 91
        1
 62
     0
 92
       -2
340
14
 93
        0
 40
0.045
309
GRIDFORMAT_END
 95
       16
302
GRIDFORMAT
  1
GRIDFORMAT_BEGIN
 90
        0
 91
        1
 62
     0
 92
       -2
340
14
 93
        0
 40
0.045
309
GRIDFORMAT_END
 95
       32
302
GRIDFORMAT
  1
GRIDFORMAT_BEGIN
 90
        0
 91
        1
 62
     0
 92
       -2
340
14
 93
        0
 40
0.045
309
GRIDFORMAT_END
309
TABLEFORMAT_END
  1
CELLSTYLE_BEGIN
 90
        3
 91
        2
300
_DATA
309
CELLSTYLE_END
  0
XRECORD
  5
3DB
102
{ACAD_REACTORS
330
29E
102
}
330
29E
100
AcDbXrecord
280
     1
102
ACAD_ROUNDTRIP_PRE2007_TABLESTYLE
 90
        4
 91
        0
  1

 92
        4
 93
        0
  2

 94
        4
 95
        0
  3

  0
XRECORD
  5
3B4
102
{ACAD_REACTORS
330
3B3
102
}
330
3B3
100
AcDbXrecord
280
     1
102
RTVSPost2010Prop28
280
     1
102
RTVSPost2010PropOp28
 70
     1
102
RTVSPost2010Prop29
280
     1
102
RTVSPost2010PropOp29
 70
     1
102
RTVSPost2010Prop30
280
     0
102
RTVSPost2010PropOp30
 70
     1
102
RTVSPost2010Prop31
280
     0
102
RTVSPost2010PropOp31
 70
     1
102
RTVSPost2010Prop32
280
     0
102
RTVSPost2010PropOp32
 70
     1
102
RTVSPost2010Prop33
280
     0
102
RTVSPost2010PropOp33
 70
     1
102
RTVSPost2010Prop34
280
     0
102
RTVSPost2010PropOp34
 70
     1
102
RTVSPost2010Prop35
280
     0
102
RTVSPost2010PropOp35
 70
     1
102
RTVSPost2010Prop36
280
     0
102
RTVSPost2010PropOp36
 70
     1
102
RTVSPost2010Prop37
 90
       50
102
RTVSPost2010PropOp37
 70
     1
102
RTVSPost2010Prop38
140
0.0
102
RTVSPost2010PropOp38
 70
     1
102
RTVSPost2010Prop39
140
1.0
102
RTVSPost2010PropOp39
 70
     1
102
RTVSPost2010Prop40
 90
        0
102
RTVSPost2010PropOp40
 70
     1
102
RTVSPost2010Prop41ColorIndex
 90
       18
102
RTVSPost2010Prop41ColorRGB
 90
        0
102
RTVSPost2010PropOp41
 70
     1
102
RTVSPost2010Prop42
 90
       50
102
RTVSPost2010PropOp42
 70
     1
102
RTVSPost2010Prop43
 90
        3
102
RTVSPost2010PropOp43
 70
     1
102
RTVSPost2010Prop44ColorIndex
 90
        5
102
RTVSPost2010Prop44ColorRGB
 90
      255
102
RTVSPost2010PropOp44
 70
     1
102
RTVSPost2010Prop45
280
     0
102
RTVSPost2010PropOp45
 70
     1
102
RTVSPost2010Prop46
 90
       50
102
RTVSPost2010PropOp46
 70
     1
102
RTVSPost2010Prop47
 90
       50
102
RTVSPost2010PropOp47
 70
     1
102
RTVSPost2010Prop48
 90
       50
102
RTVSPost2010PropOp48
 70
     1
102
RTVSPost2010Prop49
280
     0
102
RTVSPost2010PropOp49
 70
     1
102
RTVSPost2010Prop50
 90
       50
102
RTVSPost2010PropOp50
 70
     1
102
RTVSPost2010Prop51ColorIndex
 90
      256
102
RTVSPost2010Prop51ColorRGB
 90
-16777216
102
RTVSPost2010PropOp51
 70
     0
102
RTVSPost2010Prop52
140
1.0
102
RTVSPost2010PropOp52
 70
     0
102
RTVSPost2010Prop53
 90
        2
102
RTVSPost2010PropOp53
 70
     1
102
RTVSPost2010Prop54
  1
strokes_ogs.tif
102
RTVSPost2010PropOp54
 70
     1
102
RTVSPost2010Prop55
280
     0
102
RTVSPost2010PropOp55
 70
     1
102
RTVSPost2010Prop56
140
1.0
102
RTVSPost2010PropOp56
 70
     1
102
RTVSPost2010Prop57
140
1.0
102
RTVSPost2010PropOp57
 70
     1
102
RTVSPropertyOp0
 70
     1
102
RTVSPropertyOp1
 70
     1
102
RTVSPropertyOp2
 70
     1
102
RTVSPropertyOp3
 70
     1
102
RTVSPropertyOp4
 70
     1
102
RTVSPropertyOp5
 70
     1
102
RTVSPropertyOp6
 70
     1
102
RTVSPropertyOp7
 70
     1
102
RTVSPropertyOp8
 70
     1
102
RTVSPropertyOp9
 70
     1
102
RTVSPropertyOp10
 70
     1
102
RTVSPropertyOp11
 70
     1
102
RTVSPropertyOp12
 70
     1
102
RTVSPropertyOp13
 70
     1
102
RTVSPropertyOp14
 70
     1
102
RTVSPropertyOp15
 70
     1
102
RTVSPropertyOp16
 70
     1
102
RTVSPropertyOp17
 70
     1
102
RTVSPropertyOp18
 70
     1
102
RTVSPropertyOp19
 70
     1
102
RTVSPropertyOp20
 70
     1
102
RTVSPropertyOp21
 70
     1
102
RTVSPropertyOp22
 70
     1
102
RTVSPropertyOp23
 70
     1
102
RTVSPropertyOp24
 70
     1
102
RTVSPropertyOp25
 70
     1
102
RTVSPropertyOp26
 70
     1
102
RTVSPropertyOp27
 70
     1
102
RTVSPropertyOp28
 70
     1
102
RTVSPropertyOp29
 70
     1
102
RTVSPropertyOp30
 70
     1
102
RTVSPropertyOp31
 70
     1
102
RTVSPropertyOp32
 70
     1
102
RTVSPropertyOp33
 70
     1
102
RTVSPropertyOp34
 70
     1
102
RTVSPropertyOp35
 70
     1
102
RTVSPropertyOp36
 70
     1
102
RTVSPropertyOp37
 70
     1
102
RTVSPropertyOp38
 70
     1
102
RTVSPropertyOp39
 70
     1
102
RTVSPropertyOp40
 70
     1
102
RTVSPropertyOp41
 70
     1
102
RTVSPropertyOp42
 70
     1
102
RTVSPropertyOp43
 70
     1
102
RTVSPropertyOp44
 70
     1
102
RTVSPropertyOp45
 70
     1
102
RTVSPropertyOp46
 70
     1
102
RTVSPropertyOp47
 70
     1
102
RTVSPropertyOp48
 70
     1
102
RTVSPropertyOp49
 70
     1
102
RTVSPropertyOp50
 70
     1
102
RTVSPropertyOp51
 70
     0
102
RTVSPropertyOp52
 70
     0
102
RTVSPropertyOp53
 70
     1
102
RTVSPropertyOp54
 70
     1
102
RTVSPropertyOp55
 70
     1
102
RTVSPropertyOp56
 70
     1
102
RTVSPropertyOp57
 70
     1
102
RTVSPropertyOp58
 70
     1
102
RTVSPropertyOp59
 70
     1
102
RTVSPropertyOp60
 70
     1
102
RTVSPropertyOp61
 70
     1
102
RTVSPropertyOp62
 70
     1
  0
XRECORD
  5
3BA
102
{ACAD_REACTORS
330
3B9
102
}
330
3B9
100
AcDbXrecord
280
     1
102
RTVSPost2010Prop28
280
     0
102
RTVSPost2010PropOp28
 70
     1
102
RTVSPost2010Prop29
280
     1
102
RTVSPost2010PropOp29
 70
     1
102
RTVSPost2010Prop30
280
     1
102
RTVSPost2010PropOp30
 70
     1
102
RTVSPost2010Prop31
280
     0
102
RTVSPost2010PropOp31
 70
     1
102
RTVSPost2010Prop32
280
     0
102
RTVSPost2010PropOp32
 70
     1
102
RTVSPost2010Prop33
280
     0
102
RTVSPost2010PropOp33
 70
     1
102
RTVSPost2010Prop34
280
     0
102
RTVSPost2010PropOp34
 70
     1
102
RTVSPost2010Prop35
280
     0
102
RTVSPost2010PropOp35
 70
     1
102
RTVSPost2010Prop36
280
     0
102
RTVSPost2010PropOp36
 70
     1
102
RTVSPost2010Prop37
 90
       50
102
RTVSPost2010PropOp37
 70
     1
102
RTVSPost2010Prop38
140
0.0
102
RTVSPost2010PropOp38
 70
     1
102
RTVSPost2010Prop39
140
1.0
102
RTVSPost2010PropOp39
 70
     1
102
RTVSPost2010Prop40
 90
        0
102
RTVSPost2010PropOp40
 70
     1
102
RTVSPost2010Prop41ColorIndex
 90
       18
102
RTVSPost2010Prop41ColorRGB
 90
        0
102
RTVSPost2010PropOp41
 70
     1
102
RTVSPost2010Prop42
 90
       50
102
RTVSPost2010PropOp42
 70
     1
102
RTVSPost2010Prop43
 90
        3
102
RTVSPost2010PropOp43
 70
     1
102
RTVSPost2010Prop44ColorIndex
 90
        5
102
RTVSPost2010Prop44ColorRGB
 90
      255
102
RTVSPost2010PropOp44
 70
     1
102
RTVSPost2010Prop45
280
     0
102
RTVSPost2010PropOp45
 70
     1
102
RTVSPost2010Prop46
 90
       50
102
RTVSPost2010PropOp46
 70
     1
102
RTVSPost2010Prop47
 90
       50
102
RTVSPost2010PropOp47
 70
     1
102
RTVSPost2010Prop48
 90
       50
102
RTVSPost2010PropOp48
 70
     1
102
RTVSPost2010Prop49
280
     0
102
RTVSPost2010PropOp49
 70
     1
102
RTVSPost2010Prop50
 90
       50
102
RTVSPost2010PropOp50
 70
     1
102
RTVSPost2010Prop51ColorIndex
 90
      256
102
RTVSPost2010Prop51ColorRGB
 90
-16777216
102
RTVSPost2010PropOp51
 70
     0
102
RTVSPost2010Prop52
140
1.0
102
RTVSPost2010PropOp52
 70
     0
102
RTVSPost2010Prop53
 90
        2
102
RTVSPost2010PropOp53
 70
     1
102
RTVSPost2010Prop54
  1
strokes_ogs.tif
102
RTVSPost2010PropOp54
 70
     1
102
RTVSPost2010Prop55
280
     0
102
RTVSPost2010PropOp55
 70
     1
102
RTVSPost2010Prop56
140
1.0
102
RTVSPost2010PropOp56
 70
     1
102
RTVSPost2010Prop57
140
1.0
102
RTVSPost2010PropOp57
 70
     1
102
RTVSPropertyOp0
 70
     1
102
RTVSPropertyOp1
 70
     1
102
RTVSPropertyOp2
 70
     1
102
RTVSPropertyOp3
 70
     1
102
RTVSPropertyOp4
 70
     1
102
RTVSPropertyOp5
 70
     1
102
RTVSPropertyOp6
 70
     1
102
RTVSPropertyOp7
 70
     1
102
RTVSPropertyOp8
 70
     1
102
RTVSPropertyOp9
 70
     1
102
RTVSPropertyOp10
 70
     1
102
RTVSPropertyOp11
 70
     1
102
RTVSPropertyOp12
 70
     1
102
RTVSPropertyOp13
 70
     1
102
RTVSPropertyOp14
 70
     1
102
RTVSPropertyOp15
 70
     1
102
RTVSPropertyOp16
 70
     1
102
RTVSPropertyOp17
 70
     1
102
RTVSPropertyOp18
 70
     1
102
RTVSPropertyOp19
 70
     1
102
RTVSPropertyOp20
 70
     1
102
RTVSPropertyOp21
 70
     1
102
RTVSPropertyOp22
 70
     1
102
RTVSPropertyOp23
 70
     1
102
RTVSPropertyOp24
 70
     1
102
RTVSPropertyOp25
 70
     1
102
RTVSPropertyOp26
 70
     1
102
RTVSPropertyOp27
 70
     1
102
RTVSPropertyOp28
 70
     1
102
RTVSPropertyOp29
 70
     1
102
RTVSPropertyOp30
 70
     1
102
RTVSPropertyOp31
 70
     1
102
RTVSPropertyOp32
 70
     1
102
RTVSPropertyOp33
 70
     1
102
RTVSPropertyOp34
 70
     1
102
RTVSPropertyOp35
 70
     1
102
RTVSPropertyOp36
 70
     1
102
RTVSPropertyOp37
 70
     1
102
RTVSPropertyOp38
 70
     1
102
RTVSPropertyOp39
 70
     1
102
RTVSPropertyOp40
 70
     1
102
RTVSPropertyOp41
 70
     1
102
RTVSPropertyOp42
 70
     1
102
RTVSPropertyOp43
 70
     1
102
RTVSPropertyOp44
 70
     1
102
RTVSPropertyOp45
 70
     1
102
RTVSPropertyOp46
 70
     1
102
RTVSPropertyOp47
 70
     1
102
RTVSPropertyOp48
 70
     1
102
RTVSPropertyOp49
 70
     1
102
RTVSPropertyOp50
 70
     1
102
RTVSPropertyOp51
 70
     0
102
RTVSPropertyOp52
 70
     0
102
RTVSPropertyOp53
 70
     1
102
RTVSPropertyOp54
 70
     1
102
RTVSPropertyOp55
 70
     1
102
RTVSPropertyOp56
 70
     1
102
RTVSPropertyOp57
 70
     1
102
RTVSPropertyOp58
 70
     1
102
RTVSPropertyOp59
 70
     1
102
RTVSPropertyOp60
 70
     1
102
RTVSPropertyOp61
 70
     1
102
RTVSPropertyOp62
 70
     1
  0
XRECORD
  5
3C2
102
{ACAD_REACTORS
330
3C1
102
}
330
3C1
100
AcDbXrecord
280
     1
102
RTVSPost2010Prop28
280
     0
102
RTVSPost2010PropOp28
 70
     1
102
RTVSPost2010Prop29
280
     1
102
RTVSPost2010PropOp29
 70
     1
102
RTVSPost2010Prop30
280
     1
102
RTVSPost2010PropOp30
 70
     1
102
RTVSPost2010Prop31
280
     0
102
RTVSPost2010PropOp31
 70
     1
102
RTVSPost2010Prop32
280
     0
102
RTVSPost2010PropOp32
 70
     1
102
RTVSPost2010Prop33
280
     0
102
RTVSPost2010PropOp33
 70
     1
102
RTVSPost2010Prop34
280
     0
102
RTVSPost2010PropOp34
 70
     1
102
RTVSPost2010Prop35
280
     0
102
RTVSPost2010PropOp35
 70
     1
102
RTVSPost2010Prop36
280
     0
102
RTVSPost2010PropOp36
 70
     1
102
RTVSPost2010Prop37
 90
       50
102
RTVSPost2010PropOp37
 70
     1
102
RTVSPost2010Prop38
140
0.0
102
RTVSPost2010PropOp38
 70
     1
102
RTVSPost2010Prop39
140
1.0
102
RTVSPost2010PropOp39
 70
     1
102
RTVSPost2010Prop40
 90
        0
102
RTVSPost2010PropOp40
 70
     1
102
RTVSPost2010Prop41ColorIndex
 90
       18
102
RTVSPost2010Prop41ColorRGB
 90
        0
102
RTVSPost2010PropOp41
 70
     1
102
RTVSPost2010Prop42
 90
       50
102
RTVSPost2010PropOp42
 70
     1
102
RTVSPost2010Prop43
 90
        3
102
RTVSPost2010PropOp43
 70
     1
102
RTVSPost2010Prop44ColorIndex
 90
        5
102
RTVSPost2010Prop44ColorRGB
 90
      255
102
RTVSPost2010PropOp44
 70
     1
102
RTVSPost2010Prop45
280
     0
102
RTVSPost2010PropOp45
 70
     1
102
RTVSPost2010Prop46
 90
       50
102
RTVSPost2010PropOp46
 70
     1
102
RTVSPost2010Prop47
 90
       50
102
RTVSPost2010PropOp47
 70
     1
102
RTVSPost2010Prop48
 90
       50
102
RTVSPost2010PropOp48
 70
     1
102
RTVSPost2010Prop49
280
     0
102
RTVSPost2010PropOp49
 70
     1
102
RTVSPost2010Prop50
 90
       50
102
RTVSPost2010PropOp50
 70
     1
102
RTVSPost2010Prop51ColorIndex
 90
      256
102
RTVSPost2010Prop51ColorRGB
 90
-16777216
102
RTVSPost2010PropOp51
 70
     0
102
RTVSPost2010Prop52
140
1.0
102
RTVSPost2010PropOp52
 70
     0
102
RTVSPost2010Prop53
 90
        2
102
RTVSPost2010PropOp53
 70
     1
102
RTVSPost2010Prop54
  1
strokes_ogs.tif
102
RTVSPost2010PropOp54
 70
     1
102
RTVSPost2010Prop55
280
     0
102
RTVSPost2010PropOp55
 70
     1
102
RTVSPost2010Prop56
140
1.0
102
RTVSPost2010PropOp56
 70
     1
102
RTVSPost2010Prop57
140
1.0
102
RTVSPost2010PropOp57
 70
     1
102
RTVSPropertyOp0
 70
     1
102
RTVSPropertyOp1
 70
     1
102
RTVSPropertyOp2
 70
     1
102
RTVSPropertyOp3
 70
     1
102
RTVSPropertyOp4
 70
     1
102
RTVSPropertyOp5
 70
     1
102
RTVSPropertyOp6
 70
     1
102
RTVSPropertyOp7
 70
     1
102
RTVSPropertyOp8
 70
     1
102
RTVSPropertyOp9
 70
     1
102
RTVSPropertyOp10
 70
     1
102
RTVSPropertyOp11
 70
     1
102
RTVSPropertyOp12
 70
     1
102
RTVSPropertyOp13
 70
     1
102
RTVSPropertyOp14
 70
     1
102
RTVSPropertyOp15
 70
     1
102
RTVSPropertyOp16
 70
     1
102
RTVSPropertyOp17
 70
     1
102
RTVSPropertyOp18
 70
     1
102
RTVSPropertyOp19
 70
     1
102
RTVSPropertyOp20
 70
     1
102
RTVSPropertyOp21
 70
     1
102
RTVSPropertyOp22
 70
     1
102
RTVSPropertyOp23
 70
     1
102
RTVSPropertyOp24
 70
     1
102
RTVSPropertyOp25
 70
     1
102
RTVSPropertyOp26
 70
     1
102
RTVSPropertyOp27
 70
     1
102
RTVSPropertyOp28
 70
     1
102
RTVSPropertyOp29
 70
     1
102
RTVSPropertyOp30
 70
     1
102
RTVSPropertyOp31
 70
     1
102
RTVSPropertyOp32
 70
     1
102
RTVSPropertyOp33
 70
     1
102
RTVSPropertyOp34
 70
     1
102
RTVSPropertyOp35
 70
     1
102
RTVSPropertyOp36
 70
     1
102
RTVSPropertyOp37
 70
     1
102
RTVSPropertyOp38
 70
     1
102
RTVSPropertyOp39
 70
     1
102
RTVSPropertyOp40
 70
     1
102
RTVSPropertyOp41
 70
     1
102
RTVSPropertyOp42
 70
     1
102
RTVSPropertyOp43
 70
     1
102
RTVSPropertyOp44
 70
     1
102
RTVSPropertyOp45
 70
     1
102
RTVSPropertyOp46
 70
     1
102
RTVSPropertyOp47
 70
     1
102
RTVSPropertyOp48
 70
     1
102
RTVSPropertyOp49
 70
     1
102
RTVSPropertyOp50
 70
     1
102
RTVSPropertyOp51
 70
     0
102
RTVSPropertyOp52
 70
     0
102
RTVSPropertyOp53
 70
     1
102
RTVSPropertyOp54
 70
     1
102
RTVSPropertyOp55
 70
     1
102
RTVSPropertyOp56
 70
     1
102
RTVSPropertyOp57
 70
     1
102
RTVSPropertyOp58
 70
     1
102
RTVSPropertyOp59
 70
     1
102
RTVSPropertyOp60
 70
     1
102
RTVSPropertyOp61
 70
     1
102
RTVSPropertyOp62
 70
     1
  0
XRECORD
  5
3CA
102
{ACAD_REACTORS
330
3C9
102
}
330
3C9
100
AcDbXrecord
280
     1
102
RTVSPost2010Prop28
280
     0
102
RTVSPost2010PropOp28
 70
     1
102
RTVSPost2010Prop29
280
     1
102
RTVSPost2010PropOp29
 70
     1
102
RTVSPost2010Prop30
280
     1
102
RTVSPost2010PropOp30
 70
     1
102
RTVSPost2010Prop31
280
     0
102
RTVSPost2010PropOp31
 70
     1
102
RTVSPost2010Prop32
280
     0
102
RTVSPost2010PropOp32
 70
     1
102
RTVSPost2010Prop33
280
     0
102
RTVSPost2010PropOp33
 70
     1
102
RTVSPost2010Prop34
280
     0
102
RTVSPost2010PropOp34
 70
     1
102
RTVSPost2010Prop35
280
     0
102
RTVSPost2010PropOp35
 70
     1
102
RTVSPost2010Prop36
280
     0
102
RTVSPost2010PropOp36
 70
     1
102
RTVSPost2010Prop37
 90
       50
102
RTVSPost2010PropOp37
 70
     1
102
RTVSPost2010Prop38
140
0.0
102
RTVSPost2010PropOp38
 70
     1
102
RTVSPost2010Prop39
140
1.0
102
RTVSPost2010PropOp39
 70
     1
102
RTVSPost2010Prop40
 90
        0
102
RTVSPost2010PropOp40
 70
     1
102
RTVSPost2010Prop41ColorIndex
 90
       18
102
RTVSPost2010Prop41ColorRGB
 90
        0
102
RTVSPost2010PropOp41
 70
     1
102
RTVSPost2010Prop42
 90
       50
102
RTVSPost2010PropOp42
 70
     1
102
RTVSPost2010Prop43
 90
        3
102
RTVSPost2010PropOp43
 70
     1
102
RTVSPost2010Prop44ColorIndex
 90
        5
102
RTVSPost2010Prop44ColorRGB
 90
      255
102
RTVSPost2010PropOp44
 70
     1
102
RTVSPost2010Prop45
280
     0
102
RTVSPost2010PropOp45
 70
     1
102
RTVSPost2010Prop46
 90
       50
102
RTVSPost2010PropOp46
 70
     1
102
RTVSPost2010Prop47
 90
       50
102
RTVSPost2010PropOp47
 70
     1
102
RTVSPost2010Prop48
 90
       50
102
RTVSPost2010PropOp48
 70
     1
102
RTVSPost2010Prop49
280
     0
102
RTVSPost2010PropOp49
 70
     1
102
RTVSPost2010Prop50
 90
       50
102
RTVSPost2010PropOp50
 70
     1
102
RTVSPost2010Prop51ColorIndex
 90
      256
102
RTVSPost2010Prop51ColorRGB
 90
-16777216
102
RTVSPost2010PropOp51
 70
     0
102
RTVSPost2010Prop52
140
1.0
102
RTVSPost2010PropOp52
 70
     0
102
RTVSPost2010Prop53
 90
        2
102
RTVSPost2010PropOp53
 70
     1
102
RTVSPost2010Prop54
  1
strokes_ogs.tif
102
RTVSPost2010PropOp54
 70
     1
102
RTVSPost2010Prop55
280
     0
102
RTVSPost2010PropOp55
 70
     1
102
RTVSPost2010Prop56
140
1.0
102
RTVSPost2010PropOp56
 70
     1
102
RTVSPost2010Prop57
140
1.0
102
RTVSPost2010PropOp57
 70
     1
102
RTVSPropertyOp0
 70
     1
102
RTVSPropertyOp1
 70
     1
102
RTVSPropertyOp2
 70
     1
102
RTVSPropertyOp3
 70
     1
102
RTVSPropertyOp4
 70
     1
102
RTVSPropertyOp5
 70
     1
102
RTVSPropertyOp6
 70
     1
102
RTVSPropertyOp7
 70
     1
102
RTVSPropertyOp8
 70
     1
102
RTVSPropertyOp9
 70
     1
102
RTVSPropertyOp10
 70
     1
102
RTVSPropertyOp11
 70
     1
102
RTVSPropertyOp12
 70
     1
102
RTVSPropertyOp13
 70
     1
102
RTVSPropertyOp14
 70
     1
102
RTVSPropertyOp15
 70
     1
102
RTVSPropertyOp16
 70
     1
102
RTVSPropertyOp17
 70
     1
102
RTVSPropertyOp18
 70
     1
102
RTVSPropertyOp19
 70
     1
102
RTVSPropertyOp20
 70
     1
102
RTVSPropertyOp21
 70
     1
102
RTVSPropertyOp22
 70
     1
102
RTVSPropertyOp23
 70
     1
102
RTVSPropertyOp24
 70
     1
102
RTVSPropertyOp25
 70
     1
102
RTVSPropertyOp26
 70
     1
102
RTVSPropertyOp27
 70
     1
102
RTVSPropertyOp28
 70
     1
102
RTVSPropertyOp29
 70
     1
102
RTVSPropertyOp30
 70
     1
102
RTVSPropertyOp31
 70
     1
102
RTVSPropertyOp32
 70
     1
102
RTVSPropertyOp33
 70
     1
102
RTVSPropertyOp34
 70
     1
102
RTVSPropertyOp35
 70
     1
102
RTVSPropertyOp36
 70
     1
102
RTVSPropertyOp37
 70
     1
102
RTVSPropertyOp38
 70
     1
102
RTVSPropertyOp39
 70
     1
102
RTVSPropertyOp40
 70
     1
102
RTVSPropertyOp41
 70
     1
102
RTVSPropertyOp42
 70
     1
102
RTVSPropertyOp43
 70
     1
102
RTVSPropertyOp44
 70
     1
102
RTVSPropertyOp45
 70
     1
102
RTVSPropertyOp46
 70
     1
102
RTVSPropertyOp47
 70
     1
102
RTVSPropertyOp48
 70
     1
102
RTVSPropertyOp49
 70
     1
102
RTVSPropertyOp50
 70
     1
102
RTVSPropertyOp51
 70
     0
102
RTVSPropertyOp52
 70
     0
102
RTVSPropertyOp53
 70
     1
102
RTVSPropertyOp54
 70
     1
102
RTVSPropertyOp55
 70
     1
102
RTVSPropertyOp56
 70
     1
102
RTVSPropertyOp57
 70
     1
102
RTVSPropertyOp58
 70
     1
102
RTVSPropertyOp59
 70
     1
102
RTVSPropertyOp60
 70
     1
102
RTVSPropertyOp61
 70
     1
102
RTVSPropertyOp62
 70
     1
  0
XRECORD
  5
3BE
102
{ACAD_REACTORS
330
3BD
102
}
330
3BD
100
AcDbXrecord
280
     1
102
RTVSPost2010Prop28
280
     0
102
RTVSPost2010PropOp28
 70
     1
102
RTVSPost2010Prop29
280
     1
102
RTVSPost2010PropOp29
 70
     1
102
RTVSPost2010Prop30
280
     1
102
RTVSPost2010PropOp30
 70
     1
102
RTVSPost2010Prop31
280
     0
102
RTVSPost2010PropOp31
 70
     1
102
RTVSPost2010Prop32
280
     0
102
RTVSPost2010PropOp32
 70
     1
102
RTVSPost2010Prop33
280
     0
102
RTVSPost2010PropOp33
 70
     1
102
RTVSPost2010Prop34
280
     0
102
RTVSPost2010PropOp34
 70
     1
102
RTVSPost2010Prop35
280
     0
102
RTVSPost2010PropOp35
 70
     1
102
RTVSPost2010Prop36
280
     0
102
RTVSPost2010PropOp36
 70
     1
102
RTVSPost2010Prop37
 90
       50
102
RTVSPost2010PropOp37
 70
     1
102
RTVSPost2010Prop38
140
0.0
102
RTVSPost2010PropOp38
 70
     1
102
RTVSPost2010Prop39
140
1.0
102
RTVSPost2010PropOp39
 70
     1
102
RTVSPost2010Prop40
 90
        0
102
RTVSPost2010PropOp40
 70
     1
102
RTVSPost2010Prop41ColorIndex
 90
       18
102
RTVSPost2010Prop41ColorRGB
 90
        0
102
RTVSPost2010PropOp41
 70
     1
102
RTVSPost2010Prop42
 90
       50
102
RTVSPost2010PropOp42
 70
     1
102
RTVSPost2010Prop43
 90
        3
102
RTVSPost2010PropOp43
 70
     1
102
RTVSPost2010Prop44ColorIndex
 90
        5
102
RTVSPost2010Prop44ColorRGB
 90
      255
102
RTVSPost2010PropOp44
 70
     1
102
RTVSPost2010Prop45
280
     0
102
RTVSPost2010PropOp45
 70
     1
102
RTVSPost2010Prop46
 90
       50
102
RTVSPost2010PropOp46
 70
     1
102
RTVSPost2010Prop47
 90
       50
102
RTVSPost2010PropOp47
 70
     1
102
RTVSPost2010Prop48
 90
       50
102
RTVSPost2010PropOp48
 70
     1
102
RTVSPost2010Prop49
280
     0
102
RTVSPost2010PropOp49
 70
     1
102
RTVSPost2010Prop50
 90
       50
102
RTVSPost2010PropOp50
 70
     1
102
RTVSPost2010Prop51ColorIndex
 90
      256
102
RTVSPost2010Prop51ColorRGB
 90
-16777216
102
RTVSPost2010PropOp51
 70
     0
102
RTVSPost2010Prop52
140
1.0
102
RTVSPost2010PropOp52
 70
     0
102
RTVSPost2010Prop53
 90
        2
102
RTVSPost2010PropOp53
 70
     1
102
RTVSPost2010Prop54
  1
strokes_ogs.tif
102
RTVSPost2010PropOp54
 70
     1
102
RTVSPost2010Prop55
280
     0
102
RTVSPost2010PropOp55
 70
     1
102
RTVSPost2010Prop56
140
1.0
102
RTVSPost2010PropOp56
 70
     1
102
RTVSPost2010Prop57
140
1.0
102
RTVSPost2010PropOp57
 70
     1
102
RTVSPropertyOp0
 70
     1
102
RTVSPropertyOp1
 70
     1
102
RTVSPropertyOp2
 70
     1
102
RTVSPropertyOp3
 70
     1
102
RTVSPropertyOp4
 70
     1
102
RTVSPropertyOp5
 70
     1
102
RTVSPropertyOp6
 70
     1
102
RTVSPropertyOp7
 70
     1
102
RTVSPropertyOp8
 70
     1
102
RTVSPropertyOp9
 70
     1
102
RTVSPropertyOp10
 70
     1
102
RTVSPropertyOp11
 70
     1
102
RTVSPropertyOp12
 70
     1
102
RTVSPropertyOp13
 70
     1
102
RTVSPropertyOp14
 70
     1
102
RTVSPropertyOp15
 70
     1
102
RTVSPropertyOp16
 70
     1
102
RTVSPropertyOp17
 70
     1
102
RTVSPropertyOp18
 70
     1
102
RTVSPropertyOp19
 70
     1
102
RTVSPropertyOp20
 70
     1
102
RTVSPropertyOp21
 70
     1
102
RTVSPropertyOp22
 70
     1
102
RTVSPropertyOp23
 70
     1
102
RTVSPropertyOp24
 70
     1
102
RTVSPropertyOp25
 70
     1
102
RTVSPropertyOp26
 70
     1
102
RTVSPropertyOp27
 70
     1
102
RTVSPropertyOp28
 70
     1
102
RTVSPropertyOp29
 70
     1
102
RTVSPropertyOp30
 70
     1
102
RTVSPropertyOp31
 70
     1
102
RTVSPropertyOp32
 70
     1
102
RTVSPropertyOp33
 70
     1
102
RTVSPropertyOp34
 70
     1
102
RTVSPropertyOp35
 70
     1
102
RTVSPropertyOp36
 70
     1
102
RTVSPropertyOp37
 70
     1
102
RTVSPropertyOp38
 70
     1
102
RTVSPropertyOp39
 70
     1
102
RTVSPropertyOp40
 70
     1
102
RTVSPropertyOp41
 70
     1
102
RTVSPropertyOp42
 70
     1
102
RTVSPropertyOp43
 70
     1
102
RTVSPropertyOp44
 70
     1
102
RTVSPropertyOp45
 70
     1
102
RTVSPropertyOp46
 70
     1
102
RTVSPropertyOp47
 70
     1
102
RTVSPropertyOp48
 70
     1
102
RTVSPropertyOp49
 70
     1
102
RTVSPropertyOp50
 70
     1
102
RTVSPropertyOp51
 70
     0
102
RTVSPropertyOp52
 70
     0
102
RTVSPropertyOp53
 70
     1
102
RTVSPropertyOp54
 70
     1
102
RTVSPropertyOp55
 70
     1
102
RTVSPropertyOp56
 70
     1
102
RTVSPropertyOp57
 70
     1
102
RTVSPropertyOp58
 70
     1
102
RTVSPropertyOp59
 70
     1
102
RTVSPropertyOp60
 70
     1
102
RTVSPropertyOp61
 70
     1
102
RTVSPropertyOp62
 70
     1
  0
XRECORD
  5
3C0
102
{ACAD_REACTORS
330
3BF
102
}
330
3BF
100
AcDbXrecord
280
     1
102
RTVSPost2010Prop28
280
     0
102
RTVSPost2010PropOp28
 70
     1
102
RTVSPost2010Prop29
280
     1
102
RTVSPost2010PropOp29
 70
     1
102
RTVSPost2010Prop30
280
     1
102
RTVSPost2010PropOp30
 70
     1
102
RTVSPost2010Prop31
280
     0
102
RTVSPost2010PropOp31
 70
     1
102
RTVSPost2010Prop32
280
     0
102
RTVSPost2010PropOp32
 70
     1
102
RTVSPost2010Prop33
280
     0
102
RTVSPost2010PropOp33
 70
     1
102
RTVSPost2010Prop34
280
     0
102
RTVSPost2010PropOp34
 70
     1
102
RTVSPost2010Prop35
280
     0
102
RTVSPost2010PropOp35
 70
     1
102
RTVSPost2010Prop36
280
     0
102
RTVSPost2010PropOp36
 70
     1
102
RTVSPost2010Prop37
 90
       50
102
RTVSPost2010PropOp37
 70
     1
102
RTVSPost2010Prop38
140
0.0
102
RTVSPost2010PropOp38
 70
     1
102
RTVSPost2010Prop39
140
1.0
102
RTVSPost2010PropOp39
 70
     1
102
RTVSPost2010Prop40
 90
        0
102
RTVSPost2010PropOp40
 70
     1
102
RTVSPost2010Prop41ColorIndex
 90
       18
102
RTVSPost2010Prop41ColorRGB
 90
        0
102
RTVSPost2010PropOp41
 70
     1
102
RTVSPost2010Prop42
 90
       50
102
RTVSPost2010PropOp42
 70
     1
102
RTVSPost2010Prop43
 90
        3
102
RTVSPost2010PropOp43
 70
     1
102
RTVSPost2010Prop44ColorIndex
 90
        5
102
RTVSPost2010Prop44ColorRGB
 90
      255
102
RTVSPost2010PropOp44
 70
     1
102
RTVSPost2010Prop45
280
     0
102
RTVSPost2010PropOp45
 70
     1
102
RTVSPost2010Prop46
 90
       50
102
RTVSPost2010PropOp46
 70
     1
102
RTVSPost2010Prop47
 90
       50
102
RTVSPost2010PropOp47
 70
     1
102
RTVSPost2010Prop48
 90
       50
102
RTVSPost2010PropOp48
 70
     1
102
RTVSPost2010Prop49
280
     0
102
RTVSPost2010PropOp49
 70
     1
102
RTVSPost2010Prop50
 90
       50
102
RTVSPost2010PropOp50
 70
     1
102
RTVSPost2010Prop51ColorIndex
 90
      256
102
RTVSPost2010Prop51ColorRGB
 90
-16777216
102
RTVSPost2010PropOp51
 70
     0
102
RTVSPost2010Prop52
140
1.0
102
RTVSPost2010PropOp52
 70
     0
102
RTVSPost2010Prop53
 90
        2
102
RTVSPost2010PropOp53
 70
     1
102
RTVSPost2010Prop54
  1
strokes_ogs.tif
102
RTVSPost2010PropOp54
 70
     1
102
RTVSPost2010Prop55
280
     0
102
RTVSPost2010PropOp55
 70
     1
102
RTVSPost2010Prop56
140
1.0
102
RTVSPost2010PropOp56
 70
     1
102
RTVSPost2010Prop57
140
1.0
102
RTVSPost2010PropOp57
 70
     1
102
RTVSPropertyOp0
 70
     1
102
RTVSPropertyOp1
 70
     1
102
RTVSPropertyOp2
 70
     1
102
RTVSPropertyOp3
 70
     1
102
RTVSPropertyOp4
 70
     1
102
RTVSPropertyOp5
 70
     1
102
RTVSPropertyOp6
 70
     1
102
RTVSPropertyOp7
 70
     1
102
RTVSPropertyOp8
 70
     1
102
RTVSPropertyOp9
 70
     1
102
RTVSPropertyOp10
 70
     1
102
RTVSPropertyOp11
 70
     1
102
RTVSPropertyOp12
 70
     1
102
RTVSPropertyOp13
 70
     1
102
RTVSPropertyOp14
 70
     1
102
RTVSPropertyOp15
 70
     1
102
RTVSPropertyOp16
 70
     1
102
RTVSPropertyOp17
 70
     1
102
RTVSPropertyOp18
 70
     1
102
RTVSPropertyOp19
 70
     1
102
RTVSPropertyOp20
 70
     1
102
RTVSPropertyOp21
 70
     1
102
RTVSPropertyOp22
 70
     1
102
RTVSPropertyOp23
 70
     1
102
RTVSPropertyOp24
 70
     1
102
RTVSPropertyOp25
 70
     1
102
RTVSPropertyOp26
 70
     1
102
RTVSPropertyOp27
 70
     1
102
RTVSPropertyOp28
 70
     1
102
RTVSPropertyOp29
 70
     1
102
RTVSPropertyOp30
 70
     1
102
RTVSPropertyOp31
 70
     1
102
RTVSPropertyOp32
 70
     1
102
RTVSPropertyOp33
 70
     1
102
RTVSPropertyOp34
 70
     1
102
RTVSPropertyOp35
 70
     1
102
RTVSPropertyOp36
 70
     1
102
RTVSPropertyOp37
 70
     1
102
RTVSPropertyOp38
 70
     1
102
RTVSPropertyOp39
 70
     1
102
RTVSPropertyOp40
 70
     1
102
RTVSPropertyOp41
 70
     1
102
RTVSPropertyOp42
 70
     1
102
RTVSPropertyOp43
 70
     1
102
RTVSPropertyOp44
 70
     1
102
RTVSPropertyOp45
 70
     1
102
RTVSPropertyOp46
 70
     1
102
RTVSPropertyOp47
 70
     1
102
RTVSPropertyOp48
 70
     1
102
RTVSPropertyOp49
 70
     1
102
RTVSPropertyOp50
 70
     1
102
RTVSPropertyOp51
 70
     0
102
RTVSPropertyOp52
 70
     0
102
RTVSPropertyOp53
 70
     1
102
RTVSPropertyOp54
 70
     1
102
RTVSPropertyOp55
 70
     1
102
RTVSPropertyOp56
 70
     1
102
RTVSPropertyOp57
 70
     1
102
RTVSPropertyOp58
 70
     1
102
RTVSPropertyOp59
 70
     1
102
RTVSPropertyOp60
 70
     1
102
RTVSPropertyOp61
 70
     1
102
RTVSPropertyOp62
 70
     1
  0
XRECORD
  5
3D0
102
{ACAD_REACTORS
330
3CF
102
}
330
3CF
100
AcDbXrecord
280
     1
102
RTVSPost2010Prop28
280
     0
102
RTVSPost2010PropOp28
 70
     0
102
RTVSPost2010Prop29
280
     1
102
RTVSPost2010PropOp29
 70
     0
102
RTVSPost2010Prop30
280
     1
102
RTVSPost2010PropOp30
 70
     0
102
RTVSPost2010Prop31
280
     0
102
RTVSPost2010PropOp31
 70
     0
102
RTVSPost2010Prop32
280
     0
102
RTVSPost2010PropOp32
 70
     0
102
RTVSPost2010Prop33
280
     0
102
RTVSPost2010PropOp33
 70
     0
102
RTVSPost2010Prop34
280
     0
102
RTVSPost2010PropOp34
 70
     0
102
RTVSPost2010Prop35
280
     0
102
RTVSPost2010PropOp35
 70
     0
102
RTVSPost2010Prop36
280
     0
102
RTVSPost2010PropOp36
 70
     0
102
RTVSPost2010Prop37
 90
       50
102
RTVSPost2010PropOp37
 70
     0
102
RTVSPost2010Prop38
140
0.0
102
RTVSPost2010PropOp38
 70
     0
102
RTVSPost2010Prop39
140
1.0
102
RTVSPost2010PropOp39
 70
     0
102
RTVSPost2010Prop40
 90
        0
102
RTVSPost2010PropOp40
 70
     0
102
RTVSPost2010Prop41ColorIndex
 90
       18
102
RTVSPost2010Prop41ColorRGB
 90
        0
102
RTVSPost2010PropOp41
 70
     0
102
RTVSPost2010Prop42
 90
       50
102
RTVSPost2010PropOp42
 70
     0
102
RTVSPost2010Prop43
 90
        3
102
RTVSPost2010PropOp43
 70
     0
102
RTVSPost2010Prop44ColorIndex
 90
        5
102
RTVSPost2010Prop44ColorRGB
 90
      255
102
RTVSPost2010PropOp44
 70
     0
102
RTVSPost2010Prop45
280
     0
102
RTVSPost2010PropOp45
 70
     0
102
RTVSPost2010Prop46
 90
       50
102
RTVSPost2010PropOp46
 70
     0
102
RTVSPost2010Prop47
 90
       50
102
RTVSPost2010PropOp47
 70
     0
102
RTVSPost2010Prop48
 90
       50
102
RTVSPost2010PropOp48
 70
     0
102
RTVSPost2010Prop49
280
     0
102
RTVSPost2010PropOp49
 70
     0
102
RTVSPost2010Prop50
 90
       50
102
RTVSPost2010PropOp50
 70
     0
102
RTVSPost2010Prop51ColorIndex
 90
      256
102
RTVSPost2010Prop51ColorRGB
 90
-16777216
102
RTVSPost2010PropOp51
 70
     0
102
RTVSPost2010Prop52
140
1.0
102
RTVSPost2010PropOp52
 70
     0
102
RTVSPost2010Prop53
 90
        2
102
RTVSPost2010PropOp53
 70
     0
102
RTVSPost2010Prop54
  1
strokes_ogs.tif
102
RTVSPost2010PropOp54
 70
     0
102
RTVSPost2010Prop55
280
     0
102
RTVSPost2010PropOp55
 70
     0
102
RTVSPost2010Prop56
140
1.0
102
RTVSPost2010PropOp56
 70
     0
102
RTVSPost2010Prop57
140
1.0
102
RTVSPost2010PropOp57
 70
     0
102
RTVSPropertyOp0
 70
     0
102
RTVSPropertyOp1
 70
     0
102
RTVSPropertyOp2
 70
     0
102
RTVSPropertyOp3
 70
     0
102
RTVSPropertyOp4
 70
     0
102
RTVSPropertyOp5
 70
     0
102
RTVSPropertyOp6
 70
     0
102
RTVSPropertyOp7
 70
     0
102
RTVSPropertyOp8
 70
     0
102
RTVSPropertyOp9
 70
     0
102
RTVSPropertyOp10
 70
     0
102
RTVSPropertyOp11
 70
     0
102
RTVSPropertyOp12
 70
     0
102
RTVSPropertyOp13
 70
     0
102
RTVSPropertyOp14
 70
     2
102
RTVSPropertyOp15
 70
     0
102
RTVSPropertyOp16
 70
     0
102
RTVSPropertyOp17
 70
     0
102
RTVSPropertyOp18
 70
     0
102
RTVSPropertyOp19
 70
     0
102
RTVSPropertyOp20
 70
     0
102
RTVSPropertyOp21
 70
     0
102
RTVSPropertyOp22
 70
     0
102
RTVSPropertyOp23
 70
     0
102
RTVSPropertyOp24
 70
     0
102
RTVSPropertyOp25
 70
     0
102
RTVSPropertyOp26
 70
     0
102
RTVSPropertyOp27
 70
     0
102
RTVSPropertyOp28
 70
     0
102
RTVSPropertyOp29
 70
     0
102
RTVSPropertyOp30
 70
     0
102
RTVSPropertyOp31
 70
     0
102
RTVSPropertyOp32
 70
     0
102
RTVSPropertyOp33
 70
     0
102
RTVSPropertyOp34
 70
     0
102
RTVSPropertyOp35
 70
     0
102
RTVSPropertyOp36
 70
     0
102
RTVSPropertyOp37
 70
     0
102
RTVSPropertyOp38
 70
     0
102
RTVSPropertyOp39
 70
     0
102
RTVSPropertyOp40
 70
     0
102
RTVSPropertyOp41
 70
     0
102
RTVSPropertyOp42
 70
     0
102
RTVSPropertyOp43
 70
     0
102
RTVSPropertyOp44
 70
     0
102
RTVSPropertyOp45
 70
     0
102
RTVSPropertyOp46
 70
     0
102
RTVSPropertyOp47
 70
     0
102
RTVSPropertyOp48
 70
     0
102
RTVSPropertyOp49
 70
     0
102
RTVSPropertyOp50
 70
     0
102
RTVSPropertyOp51
 70
     0
102
RTVSPropertyOp52
 70
     0
102
RTVSPropertyOp53
 70
     0
102
RTVSPropertyOp54
 70
     0
102
RTVSPropertyOp55
 70
     0
102
RTVSPropertyOp56
 70
     0
102
RTVSPropertyOp57
 70
     0
102
RTVSPropertyOp58
 70
     1
102
RTVSPropertyOp59
 70
     1
102
RTVSPropertyOp60
 70
     1
102
RTVSPropertyOp61
 70
     1
102
RTVSPropertyOp62
 70
     1
  0
XRECORD
  5
3C8
102
{ACAD_REACTORS
330
3C7
102
}
330
3C7
100
AcDbXrecord
280
     1
102
RTVSPost2010Prop28
280
     0
102
RTVSPost2010PropOp28
 70
     1
102
RTVSPost2010Prop29
280
     1
102
RTVSPost2010PropOp29
 70
     1
102
RTVSPost2010Prop30
280
     1
102
RTVSPost2010PropOp30
 70
     1
102
RTVSPost2010Prop31
280
     0
102
RTVSPost2010PropOp31
 70
     1
102
RTVSPost2010Prop32
280
     0
102
RTVSPost2010PropOp32
 70
     1
102
RTVSPost2010Prop33
280
     0
102
RTVSPost2010PropOp33
 70
     1
102
RTVSPost2010Prop34
280
     0
102
RTVSPost2010PropOp34
 70
     1
102
RTVSPost2010Prop35
280
     0
102
RTVSPost2010PropOp35
 70
     1
102
RTVSPost2010Prop36
280
     0
102
RTVSPost2010PropOp36
 70
     1
102
RTVSPost2010Prop37
 90
       50
102
RTVSPost2010PropOp37
 70
     1
102
RTVSPost2010Prop38
140
0.0
102
RTVSPost2010PropOp38
 70
     1
102
RTVSPost2010Prop39
140
1.0
102
RTVSPost2010PropOp39
 70
     1
102
RTVSPost2010Prop40
 90
        0
102
RTVSPost2010PropOp40
 70
     1
102
RTVSPost2010Prop41ColorIndex
 90
       18
102
RTVSPost2010Prop41ColorRGB
 90
        0
102
RTVSPost2010PropOp41
 70
     1
102
RTVSPost2010Prop42
 90
       50
102
RTVSPost2010PropOp42
 70
     1
102
RTVSPost2010Prop43
 90
        3
102
RTVSPost2010PropOp43
 70
     1
102
RTVSPost2010Prop44ColorIndex
 90
        5
102
RTVSPost2010Prop44ColorRGB
 90
      255
102
RTVSPost2010PropOp44
 70
     1
102
RTVSPost2010Prop45
280
     0
102
RTVSPost2010PropOp45
 70
     1
102
RTVSPost2010Prop46
 90
       50
102
RTVSPost2010PropOp46
 70
     1
102
RTVSPost2010Prop47
 90
       50
102
RTVSPost2010PropOp47
 70
     1
102
RTVSPost2010Prop48
 90
       50
102
RTVSPost2010PropOp48
 70
     1
102
RTVSPost2010Prop49
280
     0
102
RTVSPost2010PropOp49
 70
     1
102
RTVSPost2010Prop50
 90
       50
102
RTVSPost2010PropOp50
 70
     1
102
RTVSPost2010Prop51ColorIndex
 90
      256
102
RTVSPost2010Prop51ColorRGB
 90
-16777216
102
RTVSPost2010PropOp51
 70
     0
102
RTVSPost2010Prop52
140
1.0
102
RTVSPost2010PropOp52
 70
     0
102
RTVSPost2010Prop53
 90
        2
102
RTVSPost2010PropOp53
 70
     1
102
RTVSPost2010Prop54
  1
strokes_ogs.tif
102
RTVSPost2010PropOp54
 70
     1
102
RTVSPost2010Prop55
280
     0
102
RTVSPost2010PropOp55
 70
     1
102
RTVSPost2010Prop56
140
1.0
102
RTVSPost2010PropOp56
 70
     1
102
RTVSPost2010Prop57
140
1.0
102
RTVSPost2010PropOp57
 70
     1
102
RTVSPropertyOp0
 70
     1
102
RTVSPropertyOp1
 70
     1
102
RTVSPropertyOp2
 70
     1
102
RTVSPropertyOp3
 70
     1
102
RTVSPropertyOp4
 70
     1
102
RTVSPropertyOp5
 70
     1
102
RTVSPropertyOp6
 70
     1
102
RTVSPropertyOp7
 70
     1
102
RTVSPropertyOp8
 70
     1
102
RTVSPropertyOp9
 70
     1
102
RTVSPropertyOp10
 70
     1
102
RTVSPropertyOp11
 70
     1
102
RTVSPropertyOp12
 70
     1
102
RTVSPropertyOp13
 70
     1
102
RTVSPropertyOp14
 70
     1
102
RTVSPropertyOp15
 70
     1
102
RTVSPropertyOp16
 70
     1
102
RTVSPropertyOp17
 70
     1
102
RTVSPropertyOp18
 70
     1
102
RTVSPropertyOp19
 70
     1
102
RTVSPropertyOp20
 70
     1
102
RTVSPropertyOp21
 70
     1
102
RTVSPropertyOp22
 70
     1
102
RTVSPropertyOp23
 70
     1
102
RTVSPropertyOp24
 70
     1
102
RTVSPropertyOp25
 70
     1
102
RTVSPropertyOp26
 70
     1
102
RTVSPropertyOp27
 70
     1
102
RTVSPropertyOp28
 70
     1
102
RTVSPropertyOp29
 70
     1
102
RTVSPropertyOp30
 70
     1
102
RTVSPropertyOp31
 70
     1
102
RTVSPropertyOp32
 70
     1
102
RTVSPropertyOp33
 70
     1
102
RTVSPropertyOp34
 70
     1
102
RTVSPropertyOp35
 70
     1
102
RTVSPropertyOp36
 70
     1
102
RTVSPropertyOp37
 70
     1
102
RTVSPropertyOp38
 70
     1
102
RTVSPropertyOp39
 70
     1
102
RTVSPropertyOp40
 70
     1
102
RTVSPropertyOp41
 70
     1
102
RTVSPropertyOp42
 70
     1
102
RTVSPropertyOp43
 70
     1
102
RTVSPropertyOp44
 70
     1
102
RTVSPropertyOp45
 70
     1
102
RTVSPropertyOp46
 70
     1
102
RTVSPropertyOp47
 70
     1
102
RTVSPropertyOp48
 70
     1
102
RTVSPropertyOp49
 70
     1
102
RTVSPropertyOp50
 70
     1
102
RTVSPropertyOp51
 70
     0
102
RTVSPropertyOp52
 70
     0
102
RTVSPropertyOp53
 70
     1
102
RTVSPropertyOp54
 70
     1
102
RTVSPropertyOp55
 70
     1
102
RTVSPropertyOp56
 70
     1
102
RTVSPropertyOp57
 70
     1
102
RTVSPropertyOp58
 70
     1
102
RTVSPropertyOp59
 70
     1
102
RTVSPropertyOp60
 70
     1
102
RTVSPropertyOp61
 70
     1
102
RTVSPropertyOp62
 70
     1
  0
XRECORD
  5
3AC
102
{ACAD_REACTORS
330
3AB
102
}
330
3AB
100
AcDbXrecord
280
     1
102
RTVSPost2010Prop28
280
     0
102
RTVSPost2010PropOp28
 70
     1
102
RTVSPost2010Prop29
280
     1
102
RTVSPost2010PropOp29
 70
     1
102
RTVSPost2010Prop30
280
     1
102
RTVSPost2010PropOp30
 70
     1
102
RTVSPost2010Prop31
280
     0
102
RTVSPost2010PropOp31
 70
     1
102
RTVSPost2010Prop32
280
     0
102
RTVSPost2010PropOp32
 70
     1
102
RTVSPost2010Prop33
280
     0
102
RTVSPost2010PropOp33
 70
     1
102
RTVSPost2010Prop34
280
     0
102
RTVSPost2010PropOp34
 70
     1
102
RTVSPost2010Prop35
280
     0
102
RTVSPost2010PropOp35
 70
     1
102
RTVSPost2010Prop36
280
     0
102
RTVSPost2010PropOp36
 70
     1
102
RTVSPost2010Prop37
 90
       50
102
RTVSPost2010PropOp37
 70
     1
102
RTVSPost2010Prop38
140
0.0
102
RTVSPost2010PropOp38
 70
     1
102
RTVSPost2010Prop39
140
1.0
102
RTVSPost2010PropOp39
 70
     1
102
RTVSPost2010Prop40
 90
        0
102
RTVSPost2010PropOp40
 70
     1
102
RTVSPost2010Prop41ColorIndex
 90
       18
102
RTVSPost2010Prop41ColorRGB
 90
        0
102
RTVSPost2010PropOp41
 70
     1
102
RTVSPost2010Prop42
 90
       50
102
RTVSPost2010PropOp42
 70
     1
102
RTVSPost2010Prop43
 90
        3
102
RTVSPost2010PropOp43
 70
     1
102
RTVSPost2010Prop44ColorIndex
 90
        5
102
RTVSPost2010Prop44ColorRGB
 90
      255
102
RTVSPost2010PropOp44
 70
     1
102
RTVSPost2010Prop45
280
     0
102
RTVSPost2010PropOp45
 70
     1
102
RTVSPost2010Prop46
 90
       50
102
RTVSPost2010PropOp46
 70
     1
102
RTVSPost2010Prop47
 90
       50
102
RTVSPost2010PropOp47
 70
     1
102
RTVSPost2010Prop48
 90
       50
102
RTVSPost2010PropOp48
 70
     1
102
RTVSPost2010Prop49
280
     0
102
RTVSPost2010PropOp49
 70
     1
102
RTVSPost2010Prop50
 90
       50
102
RTVSPost2010PropOp50
 70
     1
102
RTVSPost2010Prop51ColorIndex
 90
      256
102
RTVSPost2010Prop51ColorRGB
 90
-16777216
102
RTVSPost2010PropOp51
 70
     0
102
RTVSPost2010Prop52
140
1.0
102
RTVSPost2010PropOp52
 70
     0
102
RTVSPost2010Prop53
 90
        2
102
RTVSPost2010PropOp53
 70
     1
102
RTVSPost2010Prop54
  1
strokes_ogs.tif
102
RTVSPost2010PropOp54
 70
     1
102
RTVSPost2010Prop55
280
     0
102
RTVSPost2010PropOp55
 70
     1
102
RTVSPost2010Prop56
140
1.0
102
RTVSPost2010PropOp56
 70
     1
102
RTVSPost2010Prop57
140
1.0
102
RTVSPost2010PropOp57
 70
     1
102
RTVSPropertyOp0
 70
     1
102
RTVSPropertyOp1
 70
     1
102
RTVSPropertyOp2
 70
     1
102
RTVSPropertyOp3
 70
     1
102
RTVSPropertyOp4
 70
     1
102
RTVSPropertyOp5
 70
     1
102
RTVSPropertyOp6
 70
     1
102
RTVSPropertyOp7
 70
     1
102
RTVSPropertyOp8
 70
     1
102
RTVSPropertyOp9
 70
     1
102
RTVSPropertyOp10
 70
     1
102
RTVSPropertyOp11
 70
     1
102
RTVSPropertyOp12
 70
     1
102
RTVSPropertyOp13
 70
     1
102
RTVSPropertyOp14
 70
     1
102
RTVSPropertyOp15
 70
     1
102
RTVSPropertyOp16
 70
     1
102
RTVSPropertyOp17
 70
     1
102
RTVSPropertyOp18
 70
     1
102
RTVSPropertyOp19
 70
     1
102
RTVSPropertyOp20
 70
     1
102
RTVSPropertyOp21
 70
     1
102
RTVSPropertyOp22
 70
     1
102
RTVSPropertyOp23
 70
     1
102
RTVSPropertyOp24
 70
     1
102
RTVSPropertyOp25
 70
     1
102
RTVSPropertyOp26
 70
     1
102
RTVSPropertyOp27
 70
     1
102
RTVSPropertyOp28
 70
     1
102
RTVSPropertyOp29
 70
     1
102
RTVSPropertyOp30
 70
     1
102
RTVSPropertyOp31
 70
     1
102
RTVSPropertyOp32
 70
     1
102
RTVSPropertyOp33
 70
     1
102
RTVSPropertyOp34
 70
     1
102
RTVSPropertyOp35
 70
     1
102
RTVSPropertyOp36
 70
     1
102
RTVSPropertyOp37
 70
     1
102
RTVSPropertyOp38
 70
     1
102
RTVSPropertyOp39
 70
     1
102
RTVSPropertyOp40
 70
     1
102
RTVSPropertyOp41
 70
     1
102
RTVSPropertyOp42
 70
     1
102
RTVSPropertyOp43
 70
     1
102
RTVSPropertyOp44
 70
     1
102
RTVSPropertyOp45
 70
     1
102
RTVSPropertyOp46
 70
     1
102
RTVSPropertyOp47
 70
     1
102
RTVSPropertyOp48
 70
     1
102
RTVSPropertyOp49
 70
     1
102
RTVSPropertyOp50
 70
     1
102
RTVSPropertyOp51
 70
     0
102
RTVSPropertyOp52
 70
     0
102
RTVSPropertyOp53
 70
     1
102
RTVSPropertyOp54
 70
     1
102
RTVSPropertyOp55
 70
     1
102
RTVSPropertyOp56
 70
     1
102
RTVSPropertyOp57
 70
     1
102
RTVSPropertyOp58
 70
     1
102
RTVSPropertyOp59
 70
     1
102
RTVSPropertyOp60
 70
     1
102
RTVSPropertyOp61
 70
     1
102
RTVSPropertyOp62
 70
     1
  0
XRECORD
  5
3AE
102
{ACAD_REACTORS
330
3AD
102
}
330
3AD
100
AcDbXrecord
280
     1
102
RTVSPost2010Prop28
280
     0
102
RTVSPost2010PropOp28
 70
     1
102
RTVSPost2010Prop29
280
     1
102
RTVSPost2010PropOp29
 70
     1
102
RTVSPost2010Prop30
280
     1
102
RTVSPost2010PropOp30
 70
     1
102
RTVSPost2010Prop31
280
     0
102
RTVSPost2010PropOp31
 70
     1
102
RTVSPost2010Prop32
280
     0
102
RTVSPost2010PropOp32
 70
     1
102
RTVSPost2010Prop33
280
     0
102
RTVSPost2010PropOp33
 70
     1
102
RTVSPost2010Prop34
280
     0
102
RTVSPost2010PropOp34
 70
     1
102
RTVSPost2010Prop35
280
     0
102
RTVSPost2010PropOp35
 70
     1
102
RTVSPost2010Prop36
280
     0
102
RTVSPost2010PropOp36
 70
     1
102
RTVSPost2010Prop37
 90
       50
102
RTVSPost2010PropOp37
 70
     1
102
RTVSPost2010Prop38
140
0.0
102
RTVSPost2010PropOp38
 70
     1
102
RTVSPost2010Prop39
140
1.0
102
RTVSPost2010PropOp39
 70
     1
102
RTVSPost2010Prop40
 90
        0
102
RTVSPost2010PropOp40
 70
     1
102
RTVSPost2010Prop41ColorIndex
 90
       18
102
RTVSPost2010Prop41ColorRGB
 90
        0
102
RTVSPost2010PropOp41
 70
     1
102
RTVSPost2010Prop42
 90
       50
102
RTVSPost2010PropOp42
 70
     1
102
RTVSPost2010Prop43
 90
        3
102
RTVSPost2010PropOp43
 70
     1
102
RTVSPost2010Prop44ColorIndex
 90
        5
102
RTVSPost2010Prop44ColorRGB
 90
      255
102
RTVSPost2010PropOp44
 70
     1
102
RTVSPost2010Prop45
280
     0
102
RTVSPost2010PropOp45
 70
     1
102
RTVSPost2010Prop46
 90
       50
102
RTVSPost2010PropOp46
 70
     1
102
RTVSPost2010Prop47
 90
       50
102
RTVSPost2010PropOp47
 70
     1
102
RTVSPost2010Prop48
 90
       50
102
RTVSPost2010PropOp48
 70
     1
102
RTVSPost2010Prop49
280
     0
102
RTVSPost2010PropOp49
 70
     1
102
RTVSPost2010Prop50
 90
       50
102
RTVSPost2010PropOp50
 70
     1
102
RTVSPost2010Prop51ColorIndex
 90
      256
102
RTVSPost2010Prop51ColorRGB
 90
-16777216
102
RTVSPost2010PropOp51
 70
     0
102
RTVSPost2010Prop52
140
1.0
102
RTVSPost2010PropOp52
 70
     0
102
RTVSPost2010Prop53
 90
        2
102
RTVSPost2010PropOp53
 70
     1
102
RTVSPost2010Prop54
  1
strokes_ogs.tif
102
RTVSPost2010PropOp54
 70
     1
102
RTVSPost2010Prop55
280
     0
102
RTVSPost2010PropOp55
 70
     1
102
RTVSPost2010Prop56
140
1.0
102
RTVSPost2010PropOp56
 70
     1
102
RTVSPost2010Prop57
140
1.0
102
RTVSPost2010PropOp57
 70
     1
102
RTVSPropertyOp0
 70
     1
102
RTVSPropertyOp1
 70
     1
102
RTVSPropertyOp2
 70
     1
102
RTVSPropertyOp3
 70
     1
102
RTVSPropertyOp4
 70
     1
102
RTVSPropertyOp5
 70
     1
102
RTVSPropertyOp6
 70
     1
102
RTVSPropertyOp7
 70
     1
102
RTVSPropertyOp8
 70
     1
102
RTVSPropertyOp9
 70
     1
102
RTVSPropertyOp10
 70
     1
102
RTVSPropertyOp11
 70
     1
102
RTVSPropertyOp12
 70
     1
102
RTVSPropertyOp13
 70
     1
102
RTVSPropertyOp14
 70
     1
102
RTVSPropertyOp15
 70
     1
102
RTVSPropertyOp16
 70
     1
102
RTVSPropertyOp17
 70
     1
102
RTVSPropertyOp18
 70
     1
102
RTVSPropertyOp19
 70
     1
102
RTVSPropertyOp20
 70
     1
102
RTVSPropertyOp21
 70
     1
102
RTVSPropertyOp22
 70
     1
102
RTVSPropertyOp23
 70
     1
102
RTVSPropertyOp24
 70
     1
102
RTVSPropertyOp25
 70
     1
102
RTVSPropertyOp26
 70
     1
102
RTVSPropertyOp27
 70
     1
102
RTVSPropertyOp28
 70
     1
102
RTVSPropertyOp29
 70
     1
102
RTVSPropertyOp30
 70
     1
102
RTVSPropertyOp31
 70
     1
102
RTVSPropertyOp32
 70
     1
102
RTVSPropertyOp33
 70
     1
102
RTVSPropertyOp34
 70
     1
102
RTVSPropertyOp35
 70
     1
102
RTVSPropertyOp36
 70
     1
102
RTVSPropertyOp37
 70
     1
102
RTVSPropertyOp38
 70
     1
102
RTVSPropertyOp39
 70
     1
102
RTVSPropertyOp40
 70
     1
102
RTVSPropertyOp41
 70
     1
102
RTVSPropertyOp42
 70
     1
102
RTVSPropertyOp43
 70
     1
102
RTVSPropertyOp44
 70
     1
102
RTVSPropertyOp45
 70
     1
102
RTVSPropertyOp46
 70
     1
102
RTVSPropertyOp47
 70
     1
102
RTVSPropertyOp48
 70
     1
102
RTVSPropertyOp49
 70
     1
102
RTVSPropertyOp50
 70
     1
102
RTVSPropertyOp51
 70
     0
102
RTVSPropertyOp52
 70
     0
102
RTVSPropertyOp53
 70
     1
102
RTVSPropertyOp54
 70
     1
102
RTVSPropertyOp55
 70
     1
102
RTVSPropertyOp56
 70
     1
102
RTVSPropertyOp57
 70
     1
102
RTVSPropertyOp58
 70
     1
102
RTVSPropertyOp59
 70
     1
102
RTVSPropertyOp60
 70
     1
102
RTVSPropertyOp61
 70
     1
102
RTVSPropertyOp62
 70
     1
  0
XRECORD
  5
3B0
102
{ACAD_REACTORS
330
3AF
102
}
330
3AF
100
AcDbXrecord
280
     1
102
RTVSPost2010Prop28
280
     0
102
RTVSPost2010PropOp28
 70
     1
102
RTVSPost2010Prop29
280
     1
102
RTVSPost2010PropOp29
 70
     1
102
RTVSPost2010Prop30
280
     1
102
RTVSPost2010PropOp30
 70
     1
102
RTVSPost2010Prop31
280
     0
102
RTVSPost2010PropOp31
 70
     1
102
RTVSPost2010Prop32
280
     0
102
RTVSPost2010PropOp32
 70
     1
102
RTVSPost2010Prop33
280
     0
102
RTVSPost2010PropOp33
 70
     1
102
RTVSPost2010Prop34
280
     0
102
RTVSPost2010PropOp34
 70
     1
102
RTVSPost2010Prop35
280
     0
102
RTVSPost2010PropOp35
 70
     1
102
RTVSPost2010Prop36
280
     0
102
RTVSPost2010PropOp36
 70
     1
102
RTVSPost2010Prop37
 90
       50
102
RTVSPost2010PropOp37
 70
     1
102
RTVSPost2010Prop38
140
0.0
102
RTVSPost2010PropOp38
 70
     1
102
RTVSPost2010Prop39
140
1.0
102
RTVSPost2010PropOp39
 70
     1
102
RTVSPost2010Prop40
 90
        0
102
RTVSPost2010PropOp40
 70
     1
102
RTVSPost2010Prop41ColorIndex
 90
       18
102
RTVSPost2010Prop41ColorRGB
 90
        0
102
RTVSPost2010PropOp41
 70
     1
102
RTVSPost2010Prop42
 90
       50
102
RTVSPost2010PropOp42
 70
     1
102
RTVSPost2010Prop43
 90
        3
102
RTVSPost2010PropOp43
 70
     1
102
RTVSPost2010Prop44ColorIndex
 90
        5
102
RTVSPost2010Prop44ColorRGB
 90
      255
102
RTVSPost2010PropOp44
 70
     1
102
RTVSPost2010Prop45
280
     0
102
RTVSPost2010PropOp45
 70
     1
102
RTVSPost2010Prop46
 90
       50
102
RTVSPost2010PropOp46
 70
     1
102
RTVSPost2010Prop47
 90
       50
102
RTVSPost2010PropOp47
 70
     1
102
RTVSPost2010Prop48
 90
       50
102
RTVSPost2010PropOp48
 70
     1
102
RTVSPost2010Prop49
280
     0
102
RTVSPost2010PropOp49
 70
     1
102
RTVSPost2010Prop50
 90
       50
102
RTVSPost2010PropOp50
 70
     1
102
RTVSPost2010Prop51ColorIndex
 90
      256
102
RTVSPost2010Prop51ColorRGB
 90
-16777216
102
RTVSPost2010PropOp51
 70
     0
102
RTVSPost2010Prop52
140
1.0
102
RTVSPost2010PropOp52
 70
     0
102
RTVSPost2010Prop53
 90
        2
102
RTVSPost2010PropOp53
 70
     1
102
RTVSPost2010Prop54
  1
strokes_ogs.tif
102
RTVSPost2010PropOp54
 70
     1
102
RTVSPost2010Prop55
280
     0
102
RTVSPost2010PropOp55
 70
     1
102
RTVSPost2010Prop56
140
1.0
102
RTVSPost2010PropOp56
 70
     1
102
RTVSPost2010Prop57
140
1.0
102
RTVSPost2010PropOp57
 70
     1
102
RTVSPropertyOp0
 70
     1
102
RTVSPropertyOp1
 70
     1
102
RTVSPropertyOp2
 70
     1
102
RTVSPropertyOp3
 70
     1
102
RTVSPropertyOp4
 70
     1
102
RTVSPropertyOp5
 70
     1
102
RTVSPropertyOp6
 70
     1
102
RTVSPropertyOp7
 70
     1
102
RTVSPropertyOp8
 70
     1
102
RTVSPropertyOp9
 70
     1
102
RTVSPropertyOp10
 70
     1
102
RTVSPropertyOp11
 70
     1
102
RTVSPropertyOp12
 70
     1
102
RTVSPropertyOp13
 70
     1
102
RTVSPropertyOp14
 70
     1
102
RTVSPropertyOp15
 70
     1
102
RTVSPropertyOp16
 70
     1
102
RTVSPropertyOp17
 70
     1
102
RTVSPropertyOp18
 70
     1
102
RTVSPropertyOp19
 70
     1
102
RTVSPropertyOp20
 70
     1
102
RTVSPropertyOp21
 70
     1
102
RTVSPropertyOp22
 70
     1
102
RTVSPropertyOp23
 70
     1
102
RTVSPropertyOp24
 70
     1
102
RTVSPropertyOp25
 70
     1
102
RTVSPropertyOp26
 70
     1
102
RTVSPropertyOp27
 70
     1
102
RTVSPropertyOp28
 70
     1
102
RTVSPropertyOp29
 70
     1
102
RTVSPropertyOp30
 70
     1
102
RTVSPropertyOp31
 70
     1
102
RTVSPropertyOp32
 70
     1
102
RTVSPropertyOp33
 70
     1
102
RTVSPropertyOp34
 70
     1
102
RTVSPropertyOp35
 70
     1
102
RTVSPropertyOp36
 70
     1
102
RTVSPropertyOp37
 70
     1
102
RTVSPropertyOp38
 70
     1
102
RTVSPropertyOp39
 70
     1
102
RTVSPropertyOp40
 70
     1
102
RTVSPropertyOp41
 70
     1
102
RTVSPropertyOp42
 70
     1
102
RTVSPropertyOp43
 70
     1
102
RTVSPropertyOp44
 70
     1
102
RTVSPropertyOp45
 70
     1
102
RTVSPropertyOp46
 70
     1
102
RTVSPropertyOp47
 70
     1
102
RTVSPropertyOp48
 70
     1
102
RTVSPropertyOp49
 70
     1
102
RTVSPropertyOp50
 70
     1
102
RTVSPropertyOp51
 70
     0
102
RTVSPropertyOp52
 70
     0
102
RTVSPropertyOp53
 70
     1
102
RTVSPropertyOp54
 70
     1
102
RTVSPropertyOp55
 70
     1
102
RTVSPropertyOp56
 70
     1
102
RTVSPropertyOp57
 70
     1
102
RTVSPropertyOp58
 70
     1
102
RTVSPropertyOp59
 70
     1
102
RTVSPropertyOp60
 70
     1
102
RTVSPropertyOp61
 70
     1
102
RTVSPropertyOp62
 70
     1
  0
XRECORD
  5
3B2
102
{ACAD_REACTORS
330
3B1
102
}
330
3B1
100
AcDbXrecord
280
     1
102
RTVSPost2010Prop28
280
     0
102
RTVSPost2010PropOp28
 70
     1
102
RTVSPost2010Prop29
280
     1
102
RTVSPost2010PropOp29
 70
     1
102
RTVSPost2010Prop30
280
     1
102
RTVSPost2010PropOp30
 70
     1
102
RTVSPost2010Prop31
280
     0
102
RTVSPost2010PropOp31
 70
     1
102
RTVSPost2010Prop32
280
     0
102
RTVSPost2010PropOp32
 70
     1
102
RTVSPost2010Prop33
280
     0
102
RTVSPost2010PropOp33
 70
     1
102
RTVSPost2010Prop34
280
     0
102
RTVSPost2010PropOp34
 70
     1
102
RTVSPost2010Prop35
280
     0
102
RTVSPost2010PropOp35
 70
     1
102
RTVSPost2010Prop36
280
     0
102
RTVSPost2010PropOp36
 70
     1
102
RTVSPost2010Prop37
 90
       50
102
RTVSPost2010PropOp37
 70
     1
102
RTVSPost2010Prop38
140
0.0
102
RTVSPost2010PropOp38
 70
     1
102
RTVSPost2010Prop39
140
1.0
102
RTVSPost2010PropOp39
 70
     1
102
RTVSPost2010Prop40
 90
        0
102
RTVSPost2010PropOp40
 70
     1
102
RTVSPost2010Prop41ColorIndex
 90
       18
102
RTVSPost2010Prop41ColorRGB
 90
        0
102
RTVSPost2010PropOp41
 70
     1
102
RTVSPost2010Prop42
 90
       50
102
RTVSPost2010PropOp42
 70
     1
102
RTVSPost2010Prop43
 90
        3
102
RTVSPost2010PropOp43
 70
     1
102
RTVSPost2010Prop44ColorIndex
 90
        5
102
RTVSPost2010Prop44ColorRGB
 90
      255
102
RTVSPost2010PropOp44
 70
     1
102
RTVSPost2010Prop45
280
     0
102
RTVSPost2010PropOp45
 70
     1
102
RTVSPost2010Prop46
 90
       50
102
RTVSPost2010PropOp46
 70
     1
102
RTVSPost2010Prop47
 90
       50
102
RTVSPost2010PropOp47
 70
     1
102
RTVSPost2010Prop48
 90
       50
102
RTVSPost2010PropOp48
 70
     1
102
RTVSPost2010Prop49
280
     0
102
RTVSPost2010PropOp49
 70
     1
102
RTVSPost2010Prop50
 90
       50
102
RTVSPost2010PropOp50
 70
     1
102
RTVSPost2010Prop51ColorIndex
 90
      256
102
RTVSPost2010Prop51ColorRGB
 90
-16777216
102
RTVSPost2010PropOp51
 70
     0
102
RTVSPost2010Prop52
140
1.0
102
RTVSPost2010PropOp52
 70
     0
102
RTVSPost2010Prop53
 90
        2
102
RTVSPost2010PropOp53
 70
     1
102
RTVSPost2010Prop54
  1
strokes_ogs.tif
102
RTVSPost2010PropOp54
 70
     1
102
RTVSPost2010Prop55
280
     0
102
RTVSPost2010PropOp55
 70
     1
102
RTVSPost2010Prop56
140
1.0
102
RTVSPost2010PropOp56
 70
     1
102
RTVSPost2010Prop57
140
1.0
102
RTVSPost2010PropOp57
 70
     1
102
RTVSPropertyOp0
 70
     1
102
RTVSPropertyOp1
 70
     1
102
RTVSPropertyOp2
 70
     1
102
RTVSPropertyOp3
 70
     1
102
RTVSPropertyOp4
 70
     1
102
RTVSPropertyOp5
 70
     1
102
RTVSPropertyOp6
 70
     1
102
RTVSPropertyOp7
 70
     1
102
RTVSPropertyOp8
 70
     1
102
RTVSPropertyOp9
 70
     1
102
RTVSPropertyOp10
 70
     1
102
RTVSPropertyOp11
 70
     1
102
RTVSPropertyOp12
 70
     1
102
RTVSPropertyOp13
 70
     1
102
RTVSPropertyOp14
 70
     1
102
RTVSPropertyOp15
 70
     1
102
RTVSPropertyOp16
 70
     1
102
RTVSPropertyOp17
 70
     1
102
RTVSPropertyOp18
 70
     1
102
RTVSPropertyOp19
 70
     1
102
RTVSPropertyOp20
 70
     1
102
RTVSPropertyOp21
 70
     1
102
RTVSPropertyOp22
 70
     1
102
RTVSPropertyOp23
 70
     1
102
RTVSPropertyOp24
 70
     1
102
RTVSPropertyOp25
 70
     1
102
RTVSPropertyOp26
 70
     1
102
RTVSPropertyOp27
 70
     1
102
RTVSPropertyOp28
 70
     1
102
RTVSPropertyOp29
 70
     1
102
RTVSPropertyOp30
 70
     1
102
RTVSPropertyOp31
 70
     1
102
RTVSPropertyOp32
 70
     1
102
RTVSPropertyOp33
 70
     1
102
RTVSPropertyOp34
 70
     1
102
RTVSPropertyOp35
 70
     1
102
RTVSPropertyOp36
 70
     1
102
RTVSPropertyOp37
 70
     1
102
RTVSPropertyOp38
 70
     1
102
RTVSPropertyOp39
 70
     1
102
RTVSPropertyOp40
 70
     1
102
RTVSPropertyOp41
 70
     1
102
RTVSPropertyOp42
 70
     1
102
RTVSPropertyOp43
 70
     1
102
RTVSPropertyOp44
 70
     1
102
RTVSPropertyOp45
 70
     1
102
RTVSPropertyOp46
 70
     1
102
RTVSPropertyOp47
 70
     1
102
RTVSPropertyOp48
 70
     1
102
RTVSPropertyOp49
 70
     1
102
RTVSPropertyOp50
 70
     1
102
RTVSPropertyOp51
 70
     0
102
RTVSPropertyOp52
 70
     0
102
RTVSPropertyOp53
 70
     1
102
RTVSPropertyOp54
 70
     1
102
RTVSPropertyOp55
 70
     1
102
RTVSPropertyOp56
 70
     1
102
RTVSPropertyOp57
 70
     1
102
RTVSPropertyOp58
 70
     1
102
RTVSPropertyOp59
 70
     1
102
RTVSPropertyOp60
 70
     1
102
RTVSPropertyOp61
 70
     1
102
RTVSPropertyOp62
 70
     1
  0
XRECORD
  5
3B8
102
{ACAD_REACTORS
330
3B7
102
}
330
3B7
100
AcDbXrecord
280
     1
102
RTVSPost2010Prop28
280
     0
102
RTVSPost2010PropOp28
 70
     1
102
RTVSPost2010Prop29
280
     1
102
RTVSPost2010PropOp29
 70
     1
102
RTVSPost2010Prop30
280
     1
102
RTVSPost2010PropOp30
 70
     1
102
RTVSPost2010Prop31
280
     0
102
RTVSPost2010PropOp31
 70
     1
102
RTVSPost2010Prop32
280
     0
102
RTVSPost2010PropOp32
 70
     1
102
RTVSPost2010Prop33
280
     0
102
RTVSPost2010PropOp33
 70
     1
102
RTVSPost2010Prop34
280
     0
102
RTVSPost2010PropOp34
 70
     1
102
RTVSPost2010Prop35
280
     0
102
RTVSPost2010PropOp35
 70
     1
102
RTVSPost2010Prop36
280
     0
102
RTVSPost2010PropOp36
 70
     1
102
RTVSPost2010Prop37
 90
       50
102
RTVSPost2010PropOp37
 70
     1
102
RTVSPost2010Prop38
140
0.0
102
RTVSPost2010PropOp38
 70
     1
102
RTVSPost2010Prop39
140
1.0
102
RTVSPost2010PropOp39
 70
     1
102
RTVSPost2010Prop40
 90
        0
102
RTVSPost2010PropOp40
 70
     1
102
RTVSPost2010Prop41ColorIndex
 90
       18
102
RTVSPost2010Prop41ColorRGB
 90
        0
102
RTVSPost2010PropOp41
 70
     1
102
RTVSPost2010Prop42
 90
       50
102
RTVSPost2010PropOp42
 70
     1
102
RTVSPost2010Prop43
 90
        3
102
RTVSPost2010PropOp43
 70
     1
102
RTVSPost2010Prop44ColorIndex
 90
        5
102
RTVSPost2010Prop44ColorRGB
 90
      255
102
RTVSPost2010PropOp44
 70
     1
102
RTVSPost2010Prop45
280
     0
102
RTVSPost2010PropOp45
 70
     1
102
RTVSPost2010Prop46
 90
       50
102
RTVSPost2010PropOp46
 70
     1
102
RTVSPost2010Prop47
 90
       50
102
RTVSPost2010PropOp47
 70
     1
102
RTVSPost2010Prop48
 90
       50
102
RTVSPost2010PropOp48
 70
     1
102
RTVSPost2010Prop49
280
     0
102
RTVSPost2010PropOp49
 70
     1
102
RTVSPost2010Prop50
 90
       50
102
RTVSPost2010PropOp50
 70
     1
102
RTVSPost2010Prop51ColorIndex
 90
      256
102
RTVSPost2010Prop51ColorRGB
 90
-16777216
102
RTVSPost2010PropOp51
 70
     0
102
RTVSPost2010Prop52
140
1.0
102
RTVSPost2010PropOp52
 70
     0
102
RTVSPost2010Prop53
 90
        2
102
RTVSPost2010PropOp53
 70
     1
102
RTVSPost2010Prop54
  1
strokes_ogs.tif
102
RTVSPost2010PropOp54
 70
     1
102
RTVSPost2010Prop55
280
     0
102
RTVSPost2010PropOp55
 70
     1
102
RTVSPost2010Prop56
140
1.0
102
RTVSPost2010PropOp56
 70
     1
102
RTVSPost2010Prop57
140
1.0
102
RTVSPost2010PropOp57
 70
     1
102
RTVSPropertyOp0
 70
     1
102
RTVSPropertyOp1
 70
     1
102
RTVSPropertyOp2
 70
     1
102
RTVSPropertyOp3
 70
     1
102
RTVSPropertyOp4
 70
     1
102
RTVSPropertyOp5
 70
     1
102
RTVSPropertyOp6
 70
     1
102
RTVSPropertyOp7
 70
     1
102
RTVSPropertyOp8
 70
     1
102
RTVSPropertyOp9
 70
     1
102
RTVSPropertyOp10
 70
     1
102
RTVSPropertyOp11
 70
     1
102
RTVSPropertyOp12
 70
     1
102
RTVSPropertyOp13
 70
     1
102
RTVSPropertyOp14
 70
     1
102
RTVSPropertyOp15
 70
     1
102
RTVSPropertyOp16
 70
     1
102
RTVSPropertyOp17
 70
     1
102
RTVSPropertyOp18
 70
     1
102
RTVSPropertyOp19
 70
     1
102
RTVSPropertyOp20
 70
     1
102
RTVSPropertyOp21
 70
     1
102
RTVSPropertyOp22
 70
     1
102
RTVSPropertyOp23
 70
     1
102
RTVSPropertyOp24
 70
     1
102
RTVSPropertyOp25
 70
     1
102
RTVSPropertyOp26
 70
     1
102
RTVSPropertyOp27
 70
     1
102
RTVSPropertyOp28
 70
     1
102
RTVSPropertyOp29
 70
     1
102
RTVSPropertyOp30
 70
     1
102
RTVSPropertyOp31
 70
     1
102
RTVSPropertyOp32
 70
     1
102
RTVSPropertyOp33
 70
     1
102
RTVSPropertyOp34
 70
     1
102
RTVSPropertyOp35
 70
     1
102
RTVSPropertyOp36
 70
     1
102
RTVSPropertyOp37
 70
     1
102
RTVSPropertyOp38
 70
     1
102
RTVSPropertyOp39
 70
     1
102
RTVSPropertyOp40
 70
     1
102
RTVSPropertyOp41
 70
     1
102
RTVSPropertyOp42
 70
     1
102
RTVSPropertyOp43
 70
     1
102
RTVSPropertyOp44
 70
     1
102
RTVSPropertyOp45
 70
     1
102
RTVSPropertyOp46
 70
     1
102
RTVSPropertyOp47
 70
     1
102
RTVSPropertyOp48
 70
     1
102
RTVSPropertyOp49
 70
     1
102
RTVSPropertyOp50
 70
     1
102
RTVSPropertyOp51
 70
     0
102
RTVSPropertyOp52
 70
     0
102
RTVSPropertyOp53
 70
     1
102
RTVSPropertyOp54
 70
     1
102
RTVSPropertyOp55
 70
     1
102
RTVSPropertyOp56
 70
     1
102
RTVSPropertyOp57
 70
     1
102
RTVSPropertyOp58
 70
     1
102
RTVSPropertyOp59
 70
     1
102
RTVSPropertyOp60
 70
     1
102
RTVSPropertyOp61
 70
     1
102
RTVSPropertyOp62
 70
     1
  0
XRECORD
  5
3CC
102
{ACAD_REACTORS
330
3CB
102
}
330
3CB
100
AcDbXrecord
280
     1
102
RTVSPost2010Prop28
280
     0
102
RTVSPost2010PropOp28
 70
     0
102
RTVSPost2010Prop29
280
     1
102
RTVSPost2010PropOp29
 70
     0
102
RTVSPost2010Prop30
280
     1
102
RTVSPost2010PropOp30
 70
     0
102
RTVSPost2010Prop31
280
     0
102
RTVSPost2010PropOp31
 70
     0
102
RTVSPost2010Prop32
280
     0
102
RTVSPost2010PropOp32
 70
     0
102
RTVSPost2010Prop33
280
     0
102
RTVSPost2010PropOp33
 70
     0
102
RTVSPost2010Prop34
280
     0
102
RTVSPost2010PropOp34
 70
     0
102
RTVSPost2010Prop35
280
     0
102
RTVSPost2010PropOp35
 70
     0
102
RTVSPost2010Prop36
280
     0
102
RTVSPost2010PropOp36
 70
     0
102
RTVSPost2010Prop37
 90
       50
102
RTVSPost2010PropOp37
 70
     0
102
RTVSPost2010Prop38
140
0.0
102
RTVSPost2010PropOp38
 70
     0
102
RTVSPost2010Prop39
140
1.0
102
RTVSPost2010PropOp39
 70
     0
102
RTVSPost2010Prop40
 90
        0
102
RTVSPost2010PropOp40
 70
     0
102
RTVSPost2010Prop41ColorIndex
 90
       18
102
RTVSPost2010Prop41ColorRGB
 90
        0
102
RTVSPost2010PropOp41
 70
     0
102
RTVSPost2010Prop42
 90
       50
102
RTVSPost2010PropOp42
 70
     0
102
RTVSPost2010Prop43
 90
        3
102
RTVSPost2010PropOp43
 70
     0
102
RTVSPost2010Prop44ColorIndex
 90
        5
102
RTVSPost2010Prop44ColorRGB
 90
      255
102
RTVSPost2010PropOp44
 70
     0
102
RTVSPost2010Prop45
280
     0
102
RTVSPost2010PropOp45
 70
     0
102
RTVSPost2010Prop46
 90
       50
102
RTVSPost2010PropOp46
 70
     0
102
RTVSPost2010Prop47
 90
       50
102
RTVSPost2010PropOp47
 70
     0
102
RTVSPost2010Prop48
 90
       50
102
RTVSPost2010PropOp48
 70
     0
102
RTVSPost2010Prop49
280
     0
102
RTVSPost2010PropOp49
 70
     0
102
RTVSPost2010Prop50
 90
       50
102
RTVSPost2010PropOp50
 70
     0
102
RTVSPost2010Prop51ColorIndex
 90
      256
102
RTVSPost2010Prop51ColorRGB
 90
-16777216
102
RTVSPost2010PropOp51
 70
     0
102
RTVSPost2010Prop52
140
1.0
102
RTVSPost2010PropOp52
 70
     0
102
RTVSPost2010Prop53
 90
        2
102
RTVSPost2010PropOp53
 70
     0
102
RTVSPost2010Prop54
  1
strokes_ogs.tif
102
RTVSPost2010PropOp54
 70
     0
102
RTVSPost2010Prop55
280
     0
102
RTVSPost2010PropOp55
 70
     0
102
RTVSPost2010Prop56
140
1.0
102
RTVSPost2010PropOp56
 70
     0
102
RTVSPost2010Prop57
140
1.0
102
RTVSPost2010PropOp57
 70
     0
102
RTVSPropertyOp0
 70
     0
102
RTVSPropertyOp1
 70
     0
102
RTVSPropertyOp2
 70
     0
102
RTVSPropertyOp3
 70
     0
102
RTVSPropertyOp4
 70
     0
102
RTVSPropertyOp5
 70
     0
102
RTVSPropertyOp6
 70
     0
102
RTVSPropertyOp7
 70
     0
102
RTVSPropertyOp8
 70
     0
102
RTVSPropertyOp9
 70
     0
102
RTVSPropertyOp10
 70
     0
102
RTVSPropertyOp11
 70
     0
102
RTVSPropertyOp12
 70
     0
102
RTVSPropertyOp13
 70
     0
102
RTVSPropertyOp14
 70
     2
102
RTVSPropertyOp15
 70
     0
102
RTVSPropertyOp16
 70
     0
102
RTVSPropertyOp17
 70
     0
102
RTVSPropertyOp18
 70
     0
102
RTVSPropertyOp19
 70
     0
102
RTVSPropertyOp20
 70
     0
102
RTVSPropertyOp21
 70
     0
102
RTVSPropertyOp22
 70
     0
102
RTVSPropertyOp23
 70
     0
102
RTVSPropertyOp24
 70
     0
102
RTVSPropertyOp25
 70
     0
102
RTVSPropertyOp26
 70
     0
102
RTVSPropertyOp27
 70
     0
102
RTVSPropertyOp28
 70
     0
102
RTVSPropertyOp29
 70
     0
102
RTVSPropertyOp30
 70
     0
102
RTVSPropertyOp31
 70
     0
102
RTVSPropertyOp32
 70
     0
102
RTVSPropertyOp33
 70
     0
102
RTVSPropertyOp34
 70
     0
102
RTVSPropertyOp35
 70
     0
102
RTVSPropertyOp36
 70
     0
102
RTVSPropertyOp37
 70
     0
102
RTVSPropertyOp38
 70
     0
102
RTVSPropertyOp39
 70
     0
102
RTVSPropertyOp40
 70
     0
102
RTVSPropertyOp41
 70
     0
102
RTVSPropertyOp42
 70
     0
102
RTVSPropertyOp43
 70
     0
102
RTVSPropertyOp44
 70
     0
102
RTVSPropertyOp45
 70
     0
102
RTVSPropertyOp46
 70
     0
102
RTVSPropertyOp47
 70
     0
102
RTVSPropertyOp48
 70
     0
102
RTVSPropertyOp49
 70
     0
102
RTVSPropertyOp50
 70
     0
102
RTVSPropertyOp51
 70
     0
102
RTVSPropertyOp52
 70
     0
102
RTVSPropertyOp53
 70
     0
102
RTVSPropertyOp54
 70
     0
102
RTVSPropertyOp55
 70
     0
102
RTVSPropertyOp56
 70
     0
102
RTVSPropertyOp57
 70
     0
102
RTVSPropertyOp58
 70
     1
102
RTVSPropertyOp59
 70
     1
102
RTVSPropertyOp60
 70
     1
102
RTVSPropertyOp61
 70
     1
102
RTVSPropertyOp62
 70
     1
  0
XRECORD
  5
3C6
102
{ACAD_REACTORS
330
3C5
102
}
330
3C5
100
AcDbXrecord
280
     1
102
RTVSPost2010Prop28
280
     0
102
RTVSPost2010PropOp28
 70
     1
102
RTVSPost2010Prop29
280
     1
102
RTVSPost2010PropOp29
 70
     1
102
RTVSPost2010Prop30
280
     1
102
RTVSPost2010PropOp30
 70
     1
102
RTVSPost2010Prop31
280
     0
102
RTVSPost2010PropOp31
 70
     1
102
RTVSPost2010Prop32
280
     0
102
RTVSPost2010PropOp32
 70
     1
102
RTVSPost2010Prop33
280
     0
102
RTVSPost2010PropOp33
 70
     1
102
RTVSPost2010Prop34
280
     0
102
RTVSPost2010PropOp34
 70
     1
102
RTVSPost2010Prop35
280
     0
102
RTVSPost2010PropOp35
 70
     1
102
RTVSPost2010Prop36
280
     0
102
RTVSPost2010PropOp36
 70
     1
102
RTVSPost2010Prop37
 90
       50
102
RTVSPost2010PropOp37
 70
     1
102
RTVSPost2010Prop38
140
0.0
102
RTVSPost2010PropOp38
 70
     1
102
RTVSPost2010Prop39
140
1.0
102
RTVSPost2010PropOp39
 70
     1
102
RTVSPost2010Prop40
 90
        0
102
RTVSPost2010PropOp40
 70
     1
102
RTVSPost2010Prop41ColorIndex
 90
       18
102
RTVSPost2010Prop41ColorRGB
 90
        0
102
RTVSPost2010PropOp41
 70
     1
102
RTVSPost2010Prop42
 90
       50
102
RTVSPost2010PropOp42
 70
     1
102
RTVSPost2010Prop43
 90
        3
102
RTVSPost2010PropOp43
 70
     1
102
RTVSPost2010Prop44ColorIndex
 90
        5
102
RTVSPost2010Prop44ColorRGB
 90
      255
102
RTVSPost2010PropOp44
 70
     1
102
RTVSPost2010Prop45
280
     0
102
RTVSPost2010PropOp45
 70
     1
102
RTVSPost2010Prop46
 90
       50
102
RTVSPost2010PropOp46
 70
     1
102
RTVSPost2010Prop47
 90
       50
102
RTVSPost2010PropOp47
 70
     1
102
RTVSPost2010Prop48
 90
       50
102
RTVSPost2010PropOp48
 70
     1
102
RTVSPost2010Prop49
280
     0
102
RTVSPost2010PropOp49
 70
     1
102
RTVSPost2010Prop50
 90
       50
102
RTVSPost2010PropOp50
 70
     1
102
RTVSPost2010Prop51ColorIndex
 90
      256
102
RTVSPost2010Prop51ColorRGB
 90
-16777216
102
RTVSPost2010PropOp51
 70
     0
102
RTVSPost2010Prop52
140
1.0
102
RTVSPost2010PropOp52
 70
     0
102
RTVSPost2010Prop53
 90
        2
102
RTVSPost2010PropOp53
 70
     1
102
RTVSPost2010Prop54
  1
strokes_ogs.tif
102
RTVSPost2010PropOp54
 70
     1
102
RTVSPost2010Prop55
280
     0
102
RTVSPost2010PropOp55
 70
     1
102
RTVSPost2010Prop56
140
1.0
102
RTVSPost2010PropOp56
 70
     1
102
RTVSPost2010Prop57
140
1.0
102
RTVSPost2010PropOp57
 70
     1
102
RTVSPropertyOp0
 70
     1
102
RTVSPropertyOp1
 70
     1
102
RTVSPropertyOp2
 70
     1
102
RTVSPropertyOp3
 70
     1
102
RTVSPropertyOp4
 70
     1
102
RTVSPropertyOp5
 70
     1
102
RTVSPropertyOp6
 70
     1
102
RTVSPropertyOp7
 70
     1
102
RTVSPropertyOp8
 70
     1
102
RTVSPropertyOp9
 70
     1
102
RTVSPropertyOp10
 70
     1
102
RTVSPropertyOp11
 70
     1
102
RTVSPropertyOp12
 70
     1
102
RTVSPropertyOp13
 70
     1
102
RTVSPropertyOp14
 70
     1
102
RTVSPropertyOp15
 70
     1
102
RTVSPropertyOp16
 70
     1
102
RTVSPropertyOp17
 70
     1
102
RTVSPropertyOp18
 70
     1
102
RTVSPropertyOp19
 70
     1
102
RTVSPropertyOp20
 70
     1
102
RTVSPropertyOp21
 70
     1
102
RTVSPropertyOp22
 70
     1
102
RTVSPropertyOp23
 70
     1
102
RTVSPropertyOp24
 70
     1
102
RTVSPropertyOp25
 70
     1
102
RTVSPropertyOp26
 70
     1
102
RTVSPropertyOp27
 70
     1
102
RTVSPropertyOp28
 70
     1
102
RTVSPropertyOp29
 70
     1
102
RTVSPropertyOp30
 70
     1
102
RTVSPropertyOp31
 70
     1
102
RTVSPropertyOp32
 70
     1
102
RTVSPropertyOp33
 70
     1
102
RTVSPropertyOp34
 70
     1
102
RTVSPropertyOp35
 70
     1
102
RTVSPropertyOp36
 70
     1
102
RTVSPropertyOp37
 70
     1
102
RTVSPropertyOp38
 70
     1
102
RTVSPropertyOp39
 70
     1
102
RTVSPropertyOp40
 70
     1
102
RTVSPropertyOp41
 70
     1
102
RTVSPropertyOp42
 70
     1
102
RTVSPropertyOp43
 70
     1
102
RTVSPropertyOp44
 70
     1
102
RTVSPropertyOp45
 70
     1
102
RTVSPropertyOp46
 70
     1
102
RTVSPropertyOp47
 70
     1
102
RTVSPropertyOp48
 70
     1
102
RTVSPropertyOp49
 70
     1
102
RTVSPropertyOp50
 70
     1
102
RTVSPropertyOp51
 70
     0
102
RTVSPropertyOp52
 70
     0
102
RTVSPropertyOp53
 70
     1
102
RTVSPropertyOp54
 70
     1
102
RTVSPropertyOp55
 70
     1
102
RTVSPropertyOp56
 70
     1
102
RTVSPropertyOp57
 70
     1
102
RTVSPropertyOp58
 70
     1
102
RTVSPropertyOp59
 70
     1
102
RTVSPropertyOp60
 70
     1
102
RTVSPropertyOp61
 70
     1
102
RTVSPropertyOp62
 70
     1
  0
XRECORD
  5
3CE
102
{ACAD_REACTORS
330
3CD
102
}
330
3CD
100
AcDbXrecord
280
     1
102
RTVSPost2010Prop28
280
     0
102
RTVSPost2010PropOp28
 70
     0
102
RTVSPost2010Prop29
280
     1
102
RTVSPost2010PropOp29
 70
     0
102
RTVSPost2010Prop30
280
     1
102
RTVSPost2010PropOp30
 70
     0
102
RTVSPost2010Prop31
280
     0
102
RTVSPost2010PropOp31
 70
     0
102
RTVSPost2010Prop32
280
     0
102
RTVSPost2010PropOp32
 70
     0
102
RTVSPost2010Prop33
280
     0
102
RTVSPost2010PropOp33
 70
     0
102
RTVSPost2010Prop34
280
     0
102
RTVSPost2010PropOp34
 70
     0
102
RTVSPost2010Prop35
280
     0
102
RTVSPost2010PropOp35
 70
     0
102
RTVSPost2010Prop36
280
     0
102
RTVSPost2010PropOp36
 70
     0
102
RTVSPost2010Prop37
 90
       50
102
RTVSPost2010PropOp37
 70
     0
102
RTVSPost2010Prop38
140
0.0
102
RTVSPost2010PropOp38
 70
     0
102
RTVSPost2010Prop39
140
1.0
102
RTVSPost2010PropOp39
 70
     0
102
RTVSPost2010Prop40
 90
        0
102
RTVSPost2010PropOp40
 70
     0
102
RTVSPost2010Prop41ColorIndex
 90
       18
102
RTVSPost2010Prop41ColorRGB
 90
        0
102
RTVSPost2010PropOp41
 70
     0
102
RTVSPost2010Prop42
 90
       50
102
RTVSPost2010PropOp42
 70
     0
102
RTVSPost2010Prop43
 90
        3
102
RTVSPost2010PropOp43
 70
     0
102
RTVSPost2010Prop44ColorIndex
 90
        5
102
RTVSPost2010Prop44ColorRGB
 90
      255
102
RTVSPost2010PropOp44
 70
     0
102
RTVSPost2010Prop45
280
     0
102
RTVSPost2010PropOp45
 70
     0
102
RTVSPost2010Prop46
 90
       50
102
RTVSPost2010PropOp46
 70
     0
102
RTVSPost2010Prop47
 90
       50
102
RTVSPost2010PropOp47
 70
     0
102
RTVSPost2010Prop48
 90
       50
102
RTVSPost2010PropOp48
 70
     0
102
RTVSPost2010Prop49
280
     0
102
RTVSPost2010PropOp49
 70
     0
102
RTVSPost2010Prop50
 90
       50
102
RTVSPost2010PropOp50
 70
     0
102
RTVSPost2010Prop51ColorIndex
 90
      256
102
RTVSPost2010Prop51ColorRGB
 90
-16777216
102
RTVSPost2010PropOp51
 70
     0
102
RTVSPost2010Prop52
140
1.0
102
RTVSPost2010PropOp52
 70
     0
102
RTVSPost2010Prop53
 90
        2
102
RTVSPost2010PropOp53
 70
     0
102
RTVSPost2010Prop54
  1
strokes_ogs.tif
102
RTVSPost2010PropOp54
 70
     0
102
RTVSPost2010Prop55
280
     0
102
RTVSPost2010PropOp55
 70
     0
102
RTVSPost2010Prop56
140
1.0
102
RTVSPost2010PropOp56
 70
     0
102
RTVSPost2010Prop57
140
1.0
102
RTVSPost2010PropOp57
 70
     0
102
RTVSPropertyOp0
 70
     0
102
RTVSPropertyOp1
 70
     0
102
RTVSPropertyOp2
 70
     0
102
RTVSPropertyOp3
 70
     0
102
RTVSPropertyOp4
 70
     0
102
RTVSPropertyOp5
 70
     0
102
RTVSPropertyOp6
 70
     0
102
RTVSPropertyOp7
 70
     0
102
RTVSPropertyOp8
 70
     0
102
RTVSPropertyOp9
 70
     0
102
RTVSPropertyOp10
 70
     0
102
RTVSPropertyOp11
 70
     0
102
RTVSPropertyOp12
 70
     0
102
RTVSPropertyOp13
 70
     0
102
RTVSPropertyOp14
 70
     2
102
RTVSPropertyOp15
 70
     0
102
RTVSPropertyOp16
 70
     0
102
RTVSPropertyOp17
 70
     0
102
RTVSPropertyOp18
 70
     0
102
RTVSPropertyOp19
 70
     0
102
RTVSPropertyOp20
 70
     0
102
RTVSPropertyOp21
 70
     0
102
RTVSPropertyOp22
 70
     0
102
RTVSPropertyOp23
 70
     0
102
RTVSPropertyOp24
 70
     0
102
RTVSPropertyOp25
 70
     0
102
RTVSPropertyOp26
 70
     0
102
RTVSPropertyOp27
 70
     0
102
RTVSPropertyOp28
 70
     0
102
RTVSPropertyOp29
 70
     0
102
RTVSPropertyOp30
 70
     0
102
RTVSPropertyOp31
 70
     0
102
RTVSPropertyOp32
 70
     0
102
RTVSPropertyOp33
 70
     0
102
RTVSPropertyOp34
 70
     0
102
RTVSPropertyOp35
 70
     0
102
RTVSPropertyOp36
 70
     0
102
RTVSPropertyOp37
 70
     0
102
RTVSPropertyOp38
 70
     0
102
RTVSPropertyOp39
 70
     0
102
RTVSPropertyOp40
 70
     0
102
RTVSPropertyOp41
 70
     0
102
RTVSPropertyOp42
 70
     0
102
RTVSPropertyOp43
 70
     0
102
RTVSPropertyOp44
 70
     0
102
RTVSPropertyOp45
 70
     0
102
RTVSPropertyOp46
 70
     0
102
RTVSPropertyOp47
 70
     0
102
RTVSPropertyOp48
 70
     0
102
RTVSPropertyOp49
 70
     0
102
RTVSPropertyOp50
 70
     0
102
RTVSPropertyOp51
 70
     0
102
RTVSPropertyOp52
 70
     0
102
RTVSPropertyOp53
 70
     0
102
RTVSPropertyOp54
 70
     0
102
RTVSPropertyOp55
 70
     0
102
RTVSPropertyOp56
 70
     0
102
RTVSPropertyOp57
 70
     0
102
RTVSPropertyOp58
 70
     1
102
RTVSPropertyOp59
 70
     1
102
RTVSPropertyOp60
 70
     1
102
RTVSPropertyOp61
 70
     1
102
RTVSPropertyOp62
 70
     1
  0
XRECORD
  5
3BC
102
{ACAD_REACTORS
330
3BB
102
}
330
3BB
100
AcDbXrecord
280
     1
102
RTVSPost2010Prop28
280
     0
102
RTVSPost2010PropOp28
 70
     1
102
RTVSPost2010Prop29
280
     1
102
RTVSPost2010PropOp29
 70
     1
102
RTVSPost2010Prop30
280
     1
102
RTVSPost2010PropOp30
 70
     1
102
RTVSPost2010Prop31
280
     0
102
RTVSPost2010PropOp31
 70
     1
102
RTVSPost2010Prop32
280
     0
102
RTVSPost2010PropOp32
 70
     1
102
RTVSPost2010Prop33
280
     0
102
RTVSPost2010PropOp33
 70
     1
102
RTVSPost2010Prop34
280
     0
102
RTVSPost2010PropOp34
 70
     1
102
RTVSPost2010Prop35
280
     0
102
RTVSPost2010PropOp35
 70
     1
102
RTVSPost2010Prop36
280
     0
102
RTVSPost2010PropOp36
 70
     1
102
RTVSPost2010Prop37
 90
       50
102
RTVSPost2010PropOp37
 70
     1
102
RTVSPost2010Prop38
140
0.0
102
RTVSPost2010PropOp38
 70
     1
102
RTVSPost2010Prop39
140
1.0
102
RTVSPost2010PropOp39
 70
     1
102
RTVSPost2010Prop40
 90
        0
102
RTVSPost2010PropOp40
 70
     1
102
RTVSPost2010Prop41ColorIndex
 90
       18
102
RTVSPost2010Prop41ColorRGB
 90
        0
102
RTVSPost2010PropOp41
 70
     1
102
RTVSPost2010Prop42
 90
       50
102
RTVSPost2010PropOp42
 70
     1
102
RTVSPost2010Prop43
 90
        3
102
RTVSPost2010PropOp43
 70
     1
102
RTVSPost2010Prop44ColorIndex
 90
        5
102
RTVSPost2010Prop44ColorRGB
 90
      255
102
RTVSPost2010PropOp44
 70
     1
102
RTVSPost2010Prop45
280
     0
102
RTVSPost2010PropOp45
 70
     1
102
RTVSPost2010Prop46
 90
       50
102
RTVSPost2010PropOp46
 70
     1
102
RTVSPost2010Prop47
 90
       50
102
RTVSPost2010PropOp47
 70
     1
102
RTVSPost2010Prop48
 90
       50
102
RTVSPost2010PropOp48
 70
     1
102
RTVSPost2010Prop49
280
     0
102
RTVSPost2010PropOp49
 70
     1
102
RTVSPost2010Prop50
 90
       50
102
RTVSPost2010PropOp50
 70
     1
102
RTVSPost2010Prop51ColorIndex
 90
      256
102
RTVSPost2010Prop51ColorRGB
 90
-16777216
102
RTVSPost2010PropOp51
 70
     0
102
RTVSPost2010Prop52
140
1.0
102
RTVSPost2010PropOp52
 70
     0
102
RTVSPost2010Prop53
 90
        2
102
RTVSPost2010PropOp53
 70
     1
102
RTVSPost2010Prop54
  1
strokes_ogs.tif
102
RTVSPost2010PropOp54
 70
     1
102
RTVSPost2010Prop55
280
     0
102
RTVSPost2010PropOp55
 70
     1
102
RTVSPost2010Prop56
140
1.0
102
RTVSPost2010PropOp56
 70
     1
102
RTVSPost2010Prop57
140
1.0
102
RTVSPost2010PropOp57
 70
     1
102
RTVSPropertyOp0
 70
     1
102
RTVSPropertyOp1
 70
     1
102
RTVSPropertyOp2
 70
     1
102
RTVSPropertyOp3
 70
     1
102
RTVSPropertyOp4
 70
     1
102
RTVSPropertyOp5
 70
     1
102
RTVSPropertyOp6
 70
     1
102
RTVSPropertyOp7
 70
     1
102
RTVSPropertyOp8
 70
     1
102
RTVSPropertyOp9
 70
     1
102
RTVSPropertyOp10
 70
     1
102
RTVSPropertyOp11
 70
     1
102
RTVSPropertyOp12
 70
     1
102
RTVSPropertyOp13
 70
     1
102
RTVSPropertyOp14
 70
     1
102
RTVSPropertyOp15
 70
     1
102
RTVSPropertyOp16
 70
     1
102
RTVSPropertyOp17
 70
     1
102
RTVSPropertyOp18
 70
     1
102
RTVSPropertyOp19
 70
     1
102
RTVSPropertyOp20
 70
     1
102
RTVSPropertyOp21
 70
     1
102
RTVSPropertyOp22
 70
     1
102
RTVSPropertyOp23
 70
     1
102
RTVSPropertyOp24
 70
     1
102
RTVSPropertyOp25
 70
     1
102
RTVSPropertyOp26
 70
     1
102
RTVSPropertyOp27
 70
     1
102
RTVSPropertyOp28
 70
     1
102
RTVSPropertyOp29
 70
     1
102
RTVSPropertyOp30
 70
     1
102
RTVSPropertyOp31
 70
     1
102
RTVSPropertyOp32
 70
     1
102
RTVSPropertyOp33
 70
     1
102
RTVSPropertyOp34
 70
     1
102
RTVSPropertyOp35
 70
     1
102
RTVSPropertyOp36
 70
     1
102
RTVSPropertyOp37
 70
     1
102
RTVSPropertyOp38
 70
     1
102
RTVSPropertyOp39
 70
     1
102
RTVSPropertyOp40
 70
     1
102
RTVSPropertyOp41
 70
     1
102
RTVSPropertyOp42
 70
     1
102
RTVSPropertyOp43
 70
     1
102
RTVSPropertyOp44
 70
     1
102
RTVSPropertyOp45
 70
     1
102
RTVSPropertyOp46
 70
     1
102
RTVSPropertyOp47
 70
     1
102
RTVSPropertyOp48
 70
     1
102
RTVSPropertyOp49
 70
     1
102
RTVSPropertyOp50
 70
     1
102
RTVSPropertyOp51
 70
     0
102
RTVSPropertyOp52
 70
     0
102
RTVSPropertyOp53
 70
     1
102
RTVSPropertyOp54
 70
     1
102
RTVSPropertyOp55
 70
     1
102
RTVSPropertyOp56
 70
     1
102
RTVSPropertyOp57
 70
     1
102
RTVSPropertyOp58
 70
     1
102
RTVSPropertyOp59
 70
     1
102
RTVSPropertyOp60
 70
     1
102
RTVSPropertyOp61
 70
     1
102
RTVSPropertyOp62
 70
     1
  0
XRECORD
  5
3DA
102
{ACAD_REACTORS
330
3D9
102
}
330
3D9
100
AcDbXrecord
280
     1
102
RTVSPost2010Prop28
280
     0
102
RTVSPost2010PropOp28
 70
     1
102
RTVSPost2010Prop29
280
     1
102
RTVSPost2010PropOp29
 70
     1
102
RTVSPost2010Prop30
280
     1
102
RTVSPost2010PropOp30
 70
     1
102
RTVSPost2010Prop31
280
     0
102
RTVSPost2010PropOp31
 70
     1
102
RTVSPost2010Prop32
280
     0
102
RTVSPost2010PropOp32
 70
     1
102
RTVSPost2010Prop33
280
     0
102
RTVSPost2010PropOp33
 70
     1
102
RTVSPost2010Prop34
280
     0
102
RTVSPost2010PropOp34
 70
     1
102
RTVSPost2010Prop35
280
     0
102
RTVSPost2010PropOp35
 70
     1
102
RTVSPost2010Prop36
280
     0
102
RTVSPost2010PropOp36
 70
     1
102
RTVSPost2010Prop37
 90
       50
102
RTVSPost2010PropOp37
 70
     1
102
RTVSPost2010Prop38
140
0.0
102
RTVSPost2010PropOp38
 70
     1
102
RTVSPost2010Prop39
140
1.0
102
RTVSPost2010PropOp39
 70
     1
102
RTVSPost2010Prop40
 90
        0
102
RTVSPost2010PropOp40
 70
     1
102
RTVSPost2010Prop41ColorIndex
 90
       18
102
RTVSPost2010Prop41ColorRGB
 90
        0
102
RTVSPost2010PropOp41
 70
     1
102
RTVSPost2010Prop42
 90
       50
102
RTVSPost2010PropOp42
 70
     1
102
RTVSPost2010Prop43
 90
        3
102
RTVSPost2010PropOp43
 70
     1
102
RTVSPost2010Prop44ColorIndex
 90
        5
102
RTVSPost2010Prop44ColorRGB
 90
      255
102
RTVSPost2010PropOp44
 70
     1
102
RTVSPost2010Prop45
280
     0
102
RTVSPost2010PropOp45
 70
     1
102
RTVSPost2010Prop46
 90
       50
102
RTVSPost2010PropOp46
 70
     1
102
RTVSPost2010Prop47
 90
       50
102
RTVSPost2010PropOp47
 70
     1
102
RTVSPost2010Prop48
 90
       50
102
RTVSPost2010PropOp48
 70
     1
102
RTVSPost2010Prop49
280
     0
102
RTVSPost2010PropOp49
 70
     1
102
RTVSPost2010Prop50
 90
       50
102
RTVSPost2010PropOp50
 70
     1
102
RTVSPost2010Prop51ColorIndex
 90
      256
102
RTVSPost2010Prop51ColorRGB
 90
-16777216
102
RTVSPost2010PropOp51
 70
     0
102
RTVSPost2010Prop52
140
1.0
102
RTVSPost2010PropOp52
 70
     0
102
RTVSPost2010Prop53
 90
        2
102
RTVSPost2010PropOp53
 70
     1
102
RTVSPost2010Prop54
  1
strokes_ogs.tif
102
RTVSPost2010PropOp54
 70
     1
102
RTVSPost2010Prop55
280
     0
102
RTVSPost2010PropOp55
 70
     1
102
RTVSPost2010Prop56
140
1.0
102
RTVSPost2010PropOp56
 70
     1
102
RTVSPost2010Prop57
140
1.0
102
RTVSPost2010PropOp57
 70
     1
102
RTVSPropertyOp0
 70
     1
102
RTVSPropertyOp1
 70
     1
102
RTVSPropertyOp2
 70
     1
102
RTVSPropertyOp3
 70
     1
102
RTVSPropertyOp4
 70
     1
102
RTVSPropertyOp5
 70
     1
102
RTVSPropertyOp6
 70
     1
102
RTVSPropertyOp7
 70
     1
102
RTVSPropertyOp8
 70
     1
102
RTVSPropertyOp9
 70
     1
102
RTVSPropertyOp10
 70
     1
102
RTVSPropertyOp11
 70
     1
102
RTVSPropertyOp12
 70
     1
102
RTVSPropertyOp13
 70
     1
102
RTVSPropertyOp14
 70
     1
102
RTVSPropertyOp15
 70
     1
102
RTVSPropertyOp16
 70
     1
102
RTVSPropertyOp17
 70
     1
102
RTVSPropertyOp18
 70
     1
102
RTVSPropertyOp19
 70
     1
102
RTVSPropertyOp20
 70
     1
102
RTVSPropertyOp21
 70
     1
102
RTVSPropertyOp22
 70
     1
102
RTVSPropertyOp23
 70
     1
102
RTVSPropertyOp24
 70
     1
102
RTVSPropertyOp25
 70
     1
102
RTVSPropertyOp26
 70
     1
102
RTVSPropertyOp27
 70
     1
102
RTVSPropertyOp28
 70
     1
102
RTVSPropertyOp29
 70
     1
102
RTVSPropertyOp30
 70
     1
102
RTVSPropertyOp31
 70
     1
102
RTVSPropertyOp32
 70
     1
102
RTVSPropertyOp33
 70
     1
102
RTVSPropertyOp34
 70
     1
102
RTVSPropertyOp35
 70
     1
102
RTVSPropertyOp36
 70
     1
102
RTVSPropertyOp37
 70
     1
102
RTVSPropertyOp38
 70
     1
102
RTVSPropertyOp39
 70
     1
102
RTVSPropertyOp40
 70
     1
102
RTVSPropertyOp41
 70
     1
102
RTVSPropertyOp42
 70
     1
102
RTVSPropertyOp43
 70
     1
102
RTVSPropertyOp44
 70
     1
102
RTVSPropertyOp45
 70
     1
102
RTVSPropertyOp46
 70
     1
102
RTVSPropertyOp47
 70
     1
102
RTVSPropertyOp48
 70
     1
102
RTVSPropertyOp49
 70
     1
102
RTVSPropertyOp50
 70
     1
102
RTVSPropertyOp51
 70
     0
102
RTVSPropertyOp52
 70
     0
102
RTVSPropertyOp53
 70
     1
102
RTVSPropertyOp54
 70
     1
102
RTVSPropertyOp55
 70
     1
102
RTVSPropertyOp56
 70
     1
102
RTVSPropertyOp57
 70
     1
102
RTVSPropertyOp58
 70
     1
102
RTVSPropertyOp59
 70
     1
102
RTVSPropertyOp60
 70
     1
102
RTVSPropertyOp61
 70
     1
102
RTVSPropertyOp62
 70
     1
  0
XRECORD
  5
3D8
102
{ACAD_REACTORS
330
3D7
102
}
330
3D7
100
AcDbXrecord
280
     1
102
RTVSPost2010Prop28
280
     0
102
RTVSPost2010PropOp28
 70
     1
102
RTVSPost2010Prop29
280
     1
102
RTVSPost2010PropOp29
 70
     1
102
RTVSPost2010Prop30
280
     1
102
RTVSPost2010PropOp30
 70
     1
102
RTVSPost2010Prop31
280
     0
102
RTVSPost2010PropOp31
 70
     1
102
RTVSPost2010Prop32
280
     0
102
RTVSPost2010PropOp32
 70
     1
102
RTVSPost2010Prop33
280
     0
102
RTVSPost2010PropOp33
 70
     1
102
RTVSPost2010Prop34
280
     0
102
RTVSPost2010PropOp34
 70
     1
102
RTVSPost2010Prop35
280
     0
102
RTVSPost2010PropOp35
 70
     1
102
RTVSPost2010Prop36
280
     0
102
RTVSPost2010PropOp36
 70
     1
102
RTVSPost2010Prop37
 90
       50
102
RTVSPost2010PropOp37
 70
     1
102
RTVSPost2010Prop38
140
0.0
102
RTVSPost2010PropOp38
 70
     1
102
RTVSPost2010Prop39
140
1.0
102
RTVSPost2010PropOp39
 70
     1
102
RTVSPost2010Prop40
 90
        0
102
RTVSPost2010PropOp40
 70
     1
102
RTVSPost2010Prop41ColorIndex
 90
       18
102
RTVSPost2010Prop41ColorRGB
 90
        0
102
RTVSPost2010PropOp41
 70
     1
102
RTVSPost2010Prop42
 90
       50
102
RTVSPost2010PropOp42
 70
     1
102
RTVSPost2010Prop43
 90
        3
102
RTVSPost2010PropOp43
 70
     1
102
RTVSPost2010Prop44ColorIndex
 90
        5
102
RTVSPost2010Prop44ColorRGB
 90
      255
102
RTVSPost2010PropOp44
 70
     1
102
RTVSPost2010Prop45
280
     0
102
RTVSPost2010PropOp45
 70
     1
102
RTVSPost2010Prop46
 90
       50
102
RTVSPost2010PropOp46
 70
     1
102
RTVSPost2010Prop47
 90
       50
102
RTVSPost2010PropOp47
 70
     1
102
RTVSPost2010Prop48
 90
       50
102
RTVSPost2010PropOp48
 70
     1
102
RTVSPost2010Prop49
280
     0
102
RTVSPost2010PropOp49
 70
     1
102
RTVSPost2010Prop50
 90
       50
102
RTVSPost2010PropOp50
 70
     1
102
RTVSPost2010Prop51ColorIndex
 90
      256
102
RTVSPost2010Prop51ColorRGB
 90
-16777216
102
RTVSPost2010PropOp51
 70
     0
102
RTVSPost2010Prop52
140
1.0
102
RTVSPost2010PropOp52
 70
     0
102
RTVSPost2010Prop53
 90
        2
102
RTVSPost2010PropOp53
 70
     1
102
RTVSPost2010Prop54
  1
strokes_ogs.tif
102
RTVSPost2010PropOp54
 70
     1
102
RTVSPost2010Prop55
280
     0
102
RTVSPost2010PropOp55
 70
     1
102
RTVSPost2010Prop56
140
1.0
102
RTVSPost2010PropOp56
 70
     1
102
RTVSPost2010Prop57
140
1.0
102
RTVSPost2010PropOp57
 70
     1
102
RTVSPropertyOp0
 70
     1
102
RTVSPropertyOp1
 70
     1
102
RTVSPropertyOp2
 70
     1
102
RTVSPropertyOp3
 70
     1
102
RTVSPropertyOp4
 70
     1
102
RTVSPropertyOp5
 70
     1
102
RTVSPropertyOp6
 70
     1
102
RTVSPropertyOp7
 70
     1
102
RTVSPropertyOp8
 70
     1
102
RTVSPropertyOp9
 70
     1
102
RTVSPropertyOp10
 70
     1
102
RTVSPropertyOp11
 70
     1
102
RTVSPropertyOp12
 70
     1
102
RTVSPropertyOp13
 70
     1
102
RTVSPropertyOp14
 70
     1
102
RTVSPropertyOp15
 70
     1
102
RTVSPropertyOp16
 70
     1
102
RTVSPropertyOp17
 70
     1
102
RTVSPropertyOp18
 70
     1
102
RTVSPropertyOp19
 70
     1
102
RTVSPropertyOp20
 70
     1
102
RTVSPropertyOp21
 70
     1
102
RTVSPropertyOp22
 70
     1
102
RTVSPropertyOp23
 70
     1
102
RTVSPropertyOp24
 70
     1
102
RTVSPropertyOp25
 70
     1
102
RTVSPropertyOp26
 70
     1
102
RTVSPropertyOp27
 70
     1
102
RTVSPropertyOp28
 70
     1
102
RTVSPropertyOp29
 70
     1
102
RTVSPropertyOp30
 70
     1
102
RTVSPropertyOp31
 70
     1
102
RTVSPropertyOp32
 70
     1
102
RTVSPropertyOp33
 70
     1
102
RTVSPropertyOp34
 70
     1
102
RTVSPropertyOp35
 70
     1
102
RTVSPropertyOp36
 70
     1
102
RTVSPropertyOp37
 70
     1
102
RTVSPropertyOp38
 70
     1
102
RTVSPropertyOp39
 70
     1
102
RTVSPropertyOp40
 70
     1
102
RTVSPropertyOp41
 70
     1
102
RTVSPropertyOp42
 70
     1
102
RTVSPropertyOp43
 70
     1
102
RTVSPropertyOp44
 70
     1
102
RTVSPropertyOp45
 70
     1
102
RTVSPropertyOp46
 70
     1
102
RTVSPropertyOp47
 70
     1
102
RTVSPropertyOp48
 70
     1
102
RTVSPropertyOp49
 70
     1
102
RTVSPropertyOp50
 70
     1
102
RTVSPropertyOp51
 70
     0
102
RTVSPropertyOp52
 70
     0
102
RTVSPropertyOp53
 70
     1
102
RTVSPropertyOp54
 70
     1
102
RTVSPropertyOp55
 70
     1
102
RTVSPropertyOp56
 70
     1
102
RTVSPropertyOp57
 70
     1
102
RTVSPropertyOp58
 70
     1
102
RTVSPropertyOp59
 70
     1
102
RTVSPropertyOp60
 70
     1
102
RTVSPropertyOp61
 70
     1
102
RTVSPropertyOp62
 70
     1
  0
XRECORD
  5
3D2
102
{ACAD_REACTORS
330
3D1
102
}
330
3D1
100
AcDbXrecord
280
     1
102
RTVSPost2010Prop28
280
     0
102
RTVSPost2010PropOp28
 70
     1
102
RTVSPost2010Prop29
280
     1
102
RTVSPost2010PropOp29
 70
     1
102
RTVSPost2010Prop30
280
     1
102
RTVSPost2010PropOp30
 70
     1
102
RTVSPost2010Prop31
280
     0
102
RTVSPost2010PropOp31
 70
     1
102
RTVSPost2010Prop32
280
     0
102
RTVSPost2010PropOp32
 70
     1
102
RTVSPost2010Prop33
280
     0
102
RTVSPost2010PropOp33
 70
     1
102
RTVSPost2010Prop34
280
     0
102
RTVSPost2010PropOp34
 70
     1
102
RTVSPost2010Prop35
280
     0
102
RTVSPost2010PropOp35
 70
     1
102
RTVSPost2010Prop36
280
     0
102
RTVSPost2010PropOp36
 70
     1
102
RTVSPost2010Prop37
 90
       50
102
RTVSPost2010PropOp37
 70
     1
102
RTVSPost2010Prop38
140
0.0
102
RTVSPost2010PropOp38
 70
     1
102
RTVSPost2010Prop39
140
1.0
102
RTVSPost2010PropOp39
 70
     1
102
RTVSPost2010Prop40
 90
        0
102
RTVSPost2010PropOp40
 70
     1
102
RTVSPost2010Prop41ColorIndex
 90
       18
102
RTVSPost2010Prop41ColorRGB
 90
        0
102
RTVSPost2010PropOp41
 70
     1
102
RTVSPost2010Prop42
 90
       50
102
RTVSPost2010PropOp42
 70
     1
102
RTVSPost2010Prop43
 90
        3
102
RTVSPost2010PropOp43
 70
     1
102
RTVSPost2010Prop44ColorIndex
 90
        5
102
RTVSPost2010Prop44ColorRGB
 90
      255
102
RTVSPost2010PropOp44
 70
     1
102
RTVSPost2010Prop45
280
     0
102
RTVSPost2010PropOp45
 70
     1
102
RTVSPost2010Prop46
 90
       50
102
RTVSPost2010PropOp46
 70
     1
102
RTVSPost2010Prop47
 90
       50
102
RTVSPost2010PropOp47
 70
     1
102
RTVSPost2010Prop48
 90
       50
102
RTVSPost2010PropOp48
 70
     1
102
RTVSPost2010Prop49
280
     0
102
RTVSPost2010PropOp49
 70
     1
102
RTVSPost2010Prop50
 90
       50
102
RTVSPost2010PropOp50
 70
     1
102
RTVSPost2010Prop51ColorIndex
 90
      256
102
RTVSPost2010Prop51ColorRGB
 90
-16777216
102
RTVSPost2010PropOp51
 70
     0
102
RTVSPost2010Prop52
140
1.0
102
RTVSPost2010PropOp52
 70
     0
102
RTVSPost2010Prop53
 90
        2
102
RTVSPost2010PropOp53
 70
     1
102
RTVSPost2010Prop54
  1
strokes_ogs.tif
102
RTVSPost2010PropOp54
 70
     1
102
RTVSPost2010Prop55
280
     0
102
RTVSPost2010PropOp55
 70
     1
102
RTVSPost2010Prop56
140
1.0
102
RTVSPost2010PropOp56
 70
     1
102
RTVSPost2010Prop57
140
1.0
102
RTVSPost2010PropOp57
 70
     1
102
RTVSPropertyOp0
 70
     1
102
RTVSPropertyOp1
 70
     1
102
RTVSPropertyOp2
 70
     1
102
RTVSPropertyOp3
 70
     1
102
RTVSPropertyOp4
 70
     1
102
RTVSPropertyOp5
 70
     1
102
RTVSPropertyOp6
 70
     1
102
RTVSPropertyOp7
 70
     1
102
RTVSPropertyOp8
 70
     1
102
RTVSPropertyOp9
 70
     1
102
RTVSPropertyOp10
 70
     1
102
RTVSPropertyOp11
 70
     1
102
RTVSPropertyOp12
 70
     1
102
RTVSPropertyOp13
 70
     1
102
RTVSPropertyOp14
 70
     1
102
RTVSPropertyOp15
 70
     1
102
RTVSPropertyOp16
 70
     1
102
RTVSPropertyOp17
 70
     1
102
RTVSPropertyOp18
 70
     1
102
RTVSPropertyOp19
 70
     1
102
RTVSPropertyOp20
 70
     1
102
RTVSPropertyOp21
 70
     1
102
RTVSPropertyOp22
 70
     1
102
RTVSPropertyOp23
 70
     1
102
RTVSPropertyOp24
 70
     1
102
RTVSPropertyOp25
 70
     1
102
RTVSPropertyOp26
 70
     1
102
RTVSPropertyOp27
 70
     1
102
RTVSPropertyOp28
 70
     1
102
RTVSPropertyOp29
 70
     1
102
RTVSPropertyOp30
 70
     1
102
RTVSPropertyOp31
 70
     1
102
RTVSPropertyOp32
 70
     1
102
RTVSPropertyOp33
 70
     1
102
RTVSPropertyOp34
 70
     1
102
RTVSPropertyOp35
 70
     1
102
RTVSPropertyOp36
 70
     1
102
RTVSPropertyOp37
 70
     1
102
RTVSPropertyOp38
 70
     1
102
RTVSPropertyOp39
 70
     1
102
RTVSPropertyOp40
 70
     1
102
RTVSPropertyOp41
 70
     1
102
RTVSPropertyOp42
 70
     1
102
RTVSPropertyOp43
 70
     1
102
RTVSPropertyOp44
 70
     1
102
RTVSPropertyOp45
 70
     1
102
RTVSPropertyOp46
 70
     1
102
RTVSPropertyOp47
 70
     1
102
RTVSPropertyOp48
 70
     1
102
RTVSPropertyOp49
 70
     1
102
RTVSPropertyOp50
 70
     1
102
RTVSPropertyOp51
 70
     0
102
RTVSPropertyOp52
 70
     0
102
RTVSPropertyOp53
 70
     1
102
RTVSPropertyOp54
 70
     1
102
RTVSPropertyOp55
 70
     1
102
RTVSPropertyOp56
 70
     1
102
RTVSPropertyOp57
 70
     1
102
RTVSPropertyOp58
 70
     1
102
RTVSPropertyOp59
 70
     1
102
RTVSPropertyOp60
 70
     1
102
RTVSPropertyOp61
 70
     1
102
RTVSPropertyOp62
 70
     1
  0
XRECORD
  5
3D4
102
{ACAD_REACTORS
330
3D3
102
}
330
3D3
100
AcDbXrecord
280
     1
102
RTVSPost2010Prop28
280
     0
102
RTVSPost2010PropOp28
 70
     1
102
RTVSPost2010Prop29
280
     1
102
RTVSPost2010PropOp29
 70
     1
102
RTVSPost2010Prop30
280
     1
102
RTVSPost2010PropOp30
 70
     1
102
RTVSPost2010Prop31
280
     0
102
RTVSPost2010PropOp31
 70
     1
102
RTVSPost2010Prop32
280
     0
102
RTVSPost2010PropOp32
 70
     1
102
RTVSPost2010Prop33
280
     0
102
RTVSPost2010PropOp33
 70
     1
102
RTVSPost2010Prop34
280
     0
102
RTVSPost2010PropOp34
 70
     1
102
RTVSPost2010Prop35
280
     0
102
RTVSPost2010PropOp35
 70
     1
102
RTVSPost2010Prop36
280
     0
102
RTVSPost2010PropOp36
 70
     1
102
RTVSPost2010Prop37
 90
       50
102
RTVSPost2010PropOp37
 70
     1
102
RTVSPost2010Prop38
140
0.0
102
RTVSPost2010PropOp38
 70
     1
102
RTVSPost2010Prop39
140
1.0
102
RTVSPost2010PropOp39
 70
     1
102
RTVSPost2010Prop40
 90
        0
102
RTVSPost2010PropOp40
 70
     1
102
RTVSPost2010Prop41ColorIndex
 90
       18
102
RTVSPost2010Prop41ColorRGB
 90
        0
102
RTVSPost2010PropOp41
 70
     1
102
RTVSPost2010Prop42
 90
       50
102
RTVSPost2010PropOp42
 70
     1
102
RTVSPost2010Prop43
 90
        3
102
RTVSPost2010PropOp43
 70
     1
102
RTVSPost2010Prop44ColorIndex
 90
        5
102
RTVSPost2010Prop44ColorRGB
 90
      255
102
RTVSPost2010PropOp44
 70
     1
102
RTVSPost2010Prop45
280
     0
102
RTVSPost2010PropOp45
 70
     1
102
RTVSPost2010Prop46
 90
       50
102
RTVSPost2010PropOp46
 70
     1
102
RTVSPost2010Prop47
 90
       50
102
RTVSPost2010PropOp47
 70
     1
102
RTVSPost2010Prop48
 90
       50
102
RTVSPost2010PropOp48
 70
     1
102
RTVSPost2010Prop49
280
     0
102
RTVSPost2010PropOp49
 70
     1
102
RTVSPost2010Prop50
 90
       50
102
RTVSPost2010PropOp50
 70
     1
102
RTVSPost2010Prop51ColorIndex
 90
      256
102
RTVSPost2010Prop51ColorRGB
 90
-16777216
102
RTVSPost2010PropOp51
 70
     0
102
RTVSPost2010Prop52
140
1.0
102
RTVSPost2010PropOp52
 70
     0
102
RTVSPost2010Prop53
 90
        2
102
RTVSPost2010PropOp53
 70
     1
102
RTVSPost2010Prop54
  1
strokes_ogs.tif
102
RTVSPost2010PropOp54
 70
     1
102
RTVSPost2010Prop55
280
     0
102
RTVSPost2010PropOp55
 70
     1
102
RTVSPost2010Prop56
140
1.0
102
RTVSPost2010PropOp56
 70
     1
102
RTVSPost2010Prop57
140
1.0
102
RTVSPost2010PropOp57
 70
     1
102
RTVSPropertyOp0
 70
     1
102
RTVSPropertyOp1
 70
     1
102
RTVSPropertyOp2
 70
     1
102
RTVSPropertyOp3
 70
     1
102
RTVSPropertyOp4
 70
     1
102
RTVSPropertyOp5
 70
     1
102
RTVSPropertyOp6
 70
     1
102
RTVSPropertyOp7
 70
     1
102
RTVSPropertyOp8
 70
     1
102
RTVSPropertyOp9
 70
     1
102
RTVSPropertyOp10
 70
     1
102
RTVSPropertyOp11
 70
     1
102
RTVSPropertyOp12
 70
     1
102
RTVSPropertyOp13
 70
     1
102
RTVSPropertyOp14
 70
     1
102
RTVSPropertyOp15
 70
     1
102
RTVSPropertyOp16
 70
     1
102
RTVSPropertyOp17
 70
     1
102
RTVSPropertyOp18
 70
     1
102
RTVSPropertyOp19
 70
     1
102
RTVSPropertyOp20
 70
     1
102
RTVSPropertyOp21
 70
     1
102
RTVSPropertyOp22
 70
     1
102
RTVSPropertyOp23
 70
     1
102
RTVSPropertyOp24
 70
     1
102
RTVSPropertyOp25
 70
     1
102
RTVSPropertyOp26
 70
     1
102
RTVSPropertyOp27
 70
     1
102
RTVSPropertyOp28
 70
     1
102
RTVSPropertyOp29
 70
     1
102
RTVSPropertyOp30
 70
     1
102
RTVSPropertyOp31
 70
     1
102
RTVSPropertyOp32
 70
     1
102
RTVSPropertyOp33
 70
     1
102
RTVSPropertyOp34
 70
     1
102
RTVSPropertyOp35
 70
     1
102
RTVSPropertyOp36
 70
     1
102
RTVSPropertyOp37
 70
     1
102
RTVSPropertyOp38
 70
     1
102
RTVSPropertyOp39
 70
     1
102
RTVSPropertyOp40
 70
     1
102
RTVSPropertyOp41
 70
     1
102
RTVSPropertyOp42
 70
     1
102
RTVSPropertyOp43
 70
     1
102
RTVSPropertyOp44
 70
     1
102
RTVSPropertyOp45
 70
     1
102
RTVSPropertyOp46
 70
     1
102
RTVSPropertyOp47
 70
     1
102
RTVSPropertyOp48
 70
     1
102
RTVSPropertyOp49
 70
     1
102
RTVSPropertyOp50
 70
     1
102
RTVSPropertyOp51
 70
     0
102
RTVSPropertyOp52
 70
     0
102
RTVSPropertyOp53
 70
     1
102
RTVSPropertyOp54
 70
     1
102
RTVSPropertyOp55
 70
     1
102
RTVSPropertyOp56
 70
     1
102
RTVSPropertyOp57
 70
     1
102
RTVSPropertyOp58
 70
     1
102
RTVSPropertyOp59
 70
     1
102
RTVSPropertyOp60
 70
     1
102
RTVSPropertyOp61
 70
     1
102
RTVSPropertyOp62
 70
     1
  0
XRECORD
  5
3C4
102
{ACAD_REACTORS
330
3C3
102
}
330
3C3
100
AcDbXrecord
280
     1
102
RTVSPost2010Prop28
280
     0
102
RTVSPost2010PropOp28
 70
     1
102
RTVSPost2010Prop29
280
     1
102
RTVSPost2010PropOp29
 70
     1
102
RTVSPost2010Prop30
280
     1
102
RTVSPost2010PropOp30
 70
     1
102
RTVSPost2010Prop31
280
     0
102
RTVSPost2010PropOp31
 70
     1
102
RTVSPost2010Prop32
280
     0
102
RTVSPost2010PropOp32
 70
     1
102
RTVSPost2010Prop33
280
     0
102
RTVSPost2010PropOp33
 70
     1
102
RTVSPost2010Prop34
280
     0
102
RTVSPost2010PropOp34
 70
     1
102
RTVSPost2010Prop35
280
     0
102
RTVSPost2010PropOp35
 70
     1
102
RTVSPost2010Prop36
280
     0
102
RTVSPost2010PropOp36
 70
     1
102
RTVSPost2010Prop37
 90
       50
102
RTVSPost2010PropOp37
 70
     1
102
RTVSPost2010Prop38
140
0.0
102
RTVSPost2010PropOp38
 70
     1
102
RTVSPost2010Prop39
140
1.0
102
RTVSPost2010PropOp39
 70
     1
102
RTVSPost2010Prop40
 90
        0
102
RTVSPost2010PropOp40
 70
     1
102
RTVSPost2010Prop41ColorIndex
 90
       18
102
RTVSPost2010Prop41ColorRGB
 90
        0
102
RTVSPost2010PropOp41
 70
     1
102
RTVSPost2010Prop42
 90
       50
102
RTVSPost2010PropOp42
 70
     1
102
RTVSPost2010Prop43
 90
        3
102
RTVSPost2010PropOp43
 70
     1
102
RTVSPost2010Prop44ColorIndex
 90
        5
102
RTVSPost2010Prop44ColorRGB
 90
      255
102
RTVSPost2010PropOp44
 70
     1
102
RTVSPost2010Prop45
280
     0
102
RTVSPost2010PropOp45
 70
     1
102
RTVSPost2010Prop46
 90
       50
102
RTVSPost2010PropOp46
 70
     1
102
RTVSPost2010Prop47
 90
       50
102
RTVSPost2010PropOp47
 70
     1
102
RTVSPost2010Prop48
 90
       50
102
RTVSPost2010PropOp48
 70
     1
102
RTVSPost2010Prop49
280
     0
102
RTVSPost2010PropOp49
 70
     1
102
RTVSPost2010Prop50
 90
       50
102
RTVSPost2010PropOp50
 70
     1
102
RTVSPost2010Prop51ColorIndex
 90
      256
102
RTVSPost2010Prop51ColorRGB
 90
-16777216
102
RTVSPost2010PropOp51
 70
     0
102
RTVSPost2010Prop52
140
1.0
102
RTVSPost2010PropOp52
 70
     0
102
RTVSPost2010Prop53
 90
        2
102
RTVSPost2010PropOp53
 70
     1
102
RTVSPost2010Prop54
  1
strokes_ogs.tif
102
RTVSPost2010PropOp54
 70
     1
102
RTVSPost2010Prop55
280
     0
102
RTVSPost2010PropOp55
 70
     1
102
RTVSPost2010Prop56
140
1.0
102
RTVSPost2010PropOp56
 70
     1
102
RTVSPost2010Prop57
140
1.0
102
RTVSPost2010PropOp57
 70
     1
102
RTVSPropertyOp0
 70
     1
102
RTVSPropertyOp1
 70
     1
102
RTVSPropertyOp2
 70
     1
102
RTVSPropertyOp3
 70
     1
102
RTVSPropertyOp4
 70
     1
102
RTVSPropertyOp5
 70
     1
102
RTVSPropertyOp6
 70
     1
102
RTVSPropertyOp7
 70
     1
102
RTVSPropertyOp8
 70
     1
102
RTVSPropertyOp9
 70
     1
102
RTVSPropertyOp10
 70
     1
102
RTVSPropertyOp11
 70
     1
102
RTVSPropertyOp12
 70
     1
102
RTVSPropertyOp13
 70
     1
102
RTVSPropertyOp14
 70
     1
102
RTVSPropertyOp15
 70
     1
102
RTVSPropertyOp16
 70
     1
102
RTVSPropertyOp17
 70
     1
102
RTVSPropertyOp18
 70
     1
102
RTVSPropertyOp19
 70
     1
102
RTVSPropertyOp20
 70
     1
102
RTVSPropertyOp21
 70
     1
102
RTVSPropertyOp22
 70
     1
102
RTVSPropertyOp23
 70
     1
102
RTVSPropertyOp24
 70
     1
102
RTVSPropertyOp25
 70
     1
102
RTVSPropertyOp26
 70
     1
102
RTVSPropertyOp27
 70
     1
102
RTVSPropertyOp28
 70
     1
102
RTVSPropertyOp29
 70
     1
102
RTVSPropertyOp30
 70
     1
102
RTVSPropertyOp31
 70
     1
102
RTVSPropertyOp32
 70
     1
102
RTVSPropertyOp33
 70
     1
102
RTVSPropertyOp34
 70
     1
102
RTVSPropertyOp35
 70
     1
102
RTVSPropertyOp36
 70
     1
102
RTVSPropertyOp37
 70
     1
102
RTVSPropertyOp38
 70
     1
102
RTVSPropertyOp39
 70
     1
102
RTVSPropertyOp40
 70
     1
102
RTVSPropertyOp41
 70
     1
102
RTVSPropertyOp42
 70
     1
102
RTVSPropertyOp43
 70
     1
102
RTVSPropertyOp44
 70
     1
102
RTVSPropertyOp45
 70
     1
102
RTVSPropertyOp46
 70
     1
102
RTVSPropertyOp47
 70
     1
102
RTVSPropertyOp48
 70
     1
102
RTVSPropertyOp49
 70
     1
102
RTVSPropertyOp50
 70
     1
102
RTVSPropertyOp51
 70
     0
102
RTVSPropertyOp52
 70
     0
102
RTVSPropertyOp53
 70
     1
102
RTVSPropertyOp54
 70
     1
102
RTVSPropertyOp55
 70
     1
102
RTVSPropertyOp56
 70
     1
102
RTVSPropertyOp57
 70
     1
102
RTVSPropertyOp58
 70
     1
102
RTVSPropertyOp59
 70
     1
102
RTVSPropertyOp60
 70
     1
102
RTVSPropertyOp61
 70
     1
102
RTVSPropertyOp62
 70
     1
  0
XRECORD
  5
3B6
102
{ACAD_REACTORS
330
3B5
102
}
330
3B5
100
AcDbXrecord
280
     1
102
RTVSPost2010Prop28
280
     0
102
RTVSPost2010PropOp28
 70
     1
102
RTVSPost2010Prop29
280
     1
102
RTVSPost2010PropOp29
 70
     1
102
RTVSPost2010Prop30
280
     1
102
RTVSPost2010PropOp30
 70
     1
102
RTVSPost2010Prop31
280
     0
102
RTVSPost2010PropOp31
 70
     1
102
RTVSPost2010Prop32
280
     0
102
RTVSPost2010PropOp32
 70
     1
102
RTVSPost2010Prop33
280
     0
102
RTVSPost2010PropOp33
 70
     1
102
RTVSPost2010Prop34
280
     0
102
RTVSPost2010PropOp34
 70
     1
102
RTVSPost2010Prop35
280
     0
102
RTVSPost2010PropOp35
 70
     1
102
RTVSPost2010Prop36
280
     0
102
RTVSPost2010PropOp36
 70
     1
102
RTVSPost2010Prop37
 90
       50
102
RTVSPost2010PropOp37
 70
     1
102
RTVSPost2010Prop38
140
0.0
102
RTVSPost2010PropOp38
 70
     1
102
RTVSPost2010Prop39
140
1.0
102
RTVSPost2010PropOp39
 70
     1
102
RTVSPost2010Prop40
 90
        0
102
RTVSPost2010PropOp40
 70
     1
102
RTVSPost2010Prop41ColorIndex
 90
       18
102
RTVSPost2010Prop41ColorRGB
 90
        0
102
RTVSPost2010PropOp41
 70
     1
102
RTVSPost2010Prop42
 90
       50
102
RTVSPost2010PropOp42
 70
     1
102
RTVSPost2010Prop43
 90
        3
102
RTVSPost2010PropOp43
 70
     1
102
RTVSPost2010Prop44ColorIndex
 90
        5
102
RTVSPost2010Prop44ColorRGB
 90
      255
102
RTVSPost2010PropOp44
 70
     1
102
RTVSPost2010Prop45
280
     0
102
RTVSPost2010PropOp45
 70
     1
102
RTVSPost2010Prop46
 90
       50
102
RTVSPost2010PropOp46
 70
     1
102
RTVSPost2010Prop47
 90
       50
102
RTVSPost2010PropOp47
 70
     1
102
RTVSPost2010Prop48
 90
       50
102
RTVSPost2010PropOp48
 70
     1
102
RTVSPost2010Prop49
280
     0
102
RTVSPost2010PropOp49
 70
     1
102
RTVSPost2010Prop50
 90
       50
102
RTVSPost2010PropOp50
 70
     1
102
RTVSPost2010Prop51ColorIndex
 90
      256
102
RTVSPost2010Prop51ColorRGB
 90
-16777216
102
RTVSPost2010PropOp51
 70
     0
102
RTVSPost2010Prop52
140
1.0
102
RTVSPost2010PropOp52
 70
     0
102
RTVSPost2010Prop53
 90
        2
102
RTVSPost2010PropOp53
 70
     1
102
RTVSPost2010Prop54
  1
strokes_ogs.tif
102
RTVSPost2010PropOp54
 70
     1
102
RTVSPost2010Prop55
280
     0
102
RTVSPost2010PropOp55
 70
     1
102
RTVSPost2010Prop56
140
1.0
102
RTVSPost2010PropOp56
 70
     1
102
RTVSPost2010Prop57
140
1.0
102
RTVSPost2010PropOp57
 70
     1
102
RTVSPropertyOp0
 70
     1
102
RTVSPropertyOp1
 70
     1
102
RTVSPropertyOp2
 70
     1
102
RTVSPropertyOp3
 70
     1
102
RTVSPropertyOp4
 70
     1
102
RTVSPropertyOp5
 70
     1
102
RTVSPropertyOp6
 70
     1
102
RTVSPropertyOp7
 70
     1
102
RTVSPropertyOp8
 70
     1
102
RTVSPropertyOp9
 70
     1
102
RTVSPropertyOp10
 70
     1
102
RTVSPropertyOp11
 70
     1
102
RTVSPropertyOp12
 70
     1
102
RTVSPropertyOp13
 70
     1
102
RTVSPropertyOp14
 70
     1
102
RTVSPropertyOp15
 70
     1
102
RTVSPropertyOp16
 70
     1
102
RTVSPropertyOp17
 70
     1
102
RTVSPropertyOp18
 70
     1
102
RTVSPropertyOp19
 70
     1
102
RTVSPropertyOp20
 70
     1
102
RTVSPropertyOp21
 70
     1
102
RTVSPropertyOp22
 70
     1
102
RTVSPropertyOp23
 70
     1
102
RTVSPropertyOp24
 70
     1
102
RTVSPropertyOp25
 70
     1
102
RTVSPropertyOp26
 70
     1
102
RTVSPropertyOp27
 70
     1
102
RTVSPropertyOp28
 70
     1
102
RTVSPropertyOp29
 70
     1
102
RTVSPropertyOp30
 70
     1
102
RTVSPropertyOp31
 70
     1
102
RTVSPropertyOp32
 70
     1
102
RTVSPropertyOp33
 70
     1
102
RTVSPropertyOp34
 70
     1
102
RTVSPropertyOp35
 70
     1
102
RTVSPropertyOp36
 70
     1
102
RTVSPropertyOp37
 70
     1
102
RTVSPropertyOp38
 70
     1
102
RTVSPropertyOp39
 70
     1
102
RTVSPropertyOp40
 70
     1
102
RTVSPropertyOp41
 70
     1
102
RTVSPropertyOp42
 70
     1
102
RTVSPropertyOp43
 70
     1
102
RTVSPropertyOp44
 70
     1
102
RTVSPropertyOp45
 70
     1
102
RTVSPropertyOp46
 70
     1
102
RTVSPropertyOp47
 70
     1
102
RTVSPropertyOp48
 70
     1
102
RTVSPropertyOp49
 70
     1
102
RTVSPropertyOp50
 70
     1
102
RTVSPropertyOp51
 70
     0
102
RTVSPropertyOp52
 70
     0
102
RTVSPropertyOp53
 70
     1
102
RTVSPropertyOp54
 70
     1
102
RTVSPropertyOp55
 70
     1
102
RTVSPropertyOp56
 70
     1
102
RTVSPropertyOp57
 70
     1
102
RTVSPropertyOp58
 70
     1
102
RTVSPropertyOp59
 70
     1
102
RTVSPropertyOp60
 70
     1
102
RTVSPropertyOp61
 70
     1
102
RTVSPropertyOp62
 70
     1
  0
XRECORD
  5
3D6
102
{ACAD_REACTORS
330
3D5
102
}
330
3D5
100
AcDbXrecord
280
     1
102
RTVSPost2010Prop28
280
     0
102
RTVSPost2010PropOp28
 70
     1
102
RTVSPost2010Prop29
280
     1
102
RTVSPost2010PropOp29
 70
     1
102
RTVSPost2010Prop30
280
     1
102
RTVSPost2010PropOp30
 70
     1
102
RTVSPost2010Prop31
280
     0
102
RTVSPost2010PropOp31
 70
     1
102
RTVSPost2010Prop32
280
     0
102
RTVSPost2010PropOp32
 70
     1
102
RTVSPost2010Prop33
280
     0
102
RTVSPost2010PropOp33
 70
     1
102
RTVSPost2010Prop34
280
     0
102
RTVSPost2010PropOp34
 70
     1
102
RTVSPost2010Prop35
280
     0
102
RTVSPost2010PropOp35
 70
     1
102
RTVSPost2010Prop36
280
     0
102
RTVSPost2010PropOp36
 70
     1
102
RTVSPost2010Prop37
 90
       50
102
RTVSPost2010PropOp37
 70
     1
102
RTVSPost2010Prop38
140
0.0
102
RTVSPost2010PropOp38
 70
     1
102
RTVSPost2010Prop39
140
1.0
102
RTVSPost2010PropOp39
 70
     1
102
RTVSPost2010Prop40
 90
        0
102
RTVSPost2010PropOp40
 70
     1
102
RTVSPost2010Prop41ColorIndex
 90
       18
102
RTVSPost2010Prop41ColorRGB
 90
        0
102
RTVSPost2010PropOp41
 70
     1
102
RTVSPost2010Prop42
 90
       50
102
RTVSPost2010PropOp42
 70
     1
102
RTVSPost2010Prop43
 90
        3
102
RTVSPost2010PropOp43
 70
     1
102
RTVSPost2010Prop44ColorIndex
 90
        5
102
RTVSPost2010Prop44ColorRGB
 90
      255
102
RTVSPost2010PropOp44
 70
     1
102
RTVSPost2010Prop45
280
     0
102
RTVSPost2010PropOp45
 70
     1
102
RTVSPost2010Prop46
 90
       50
102
RTVSPost2010PropOp46
 70
     1
102
RTVSPost2010Prop47
 90
       50
102
RTVSPost2010PropOp47
 70
     1
102
RTVSPost2010Prop48
 90
       50
102
RTVSPost2010PropOp48
 70
     1
102
RTVSPost2010Prop49
280
     0
102
RTVSPost2010PropOp49
 70
     1
102
RTVSPost2010Prop50
 90
       50
102
RTVSPost2010PropOp50
 70
     1
102
RTVSPost2010Prop51ColorIndex
 90
      256
102
RTVSPost2010Prop51ColorRGB
 90
-16777216
102
RTVSPost2010PropOp51
 70
     0
102
RTVSPost2010Prop52
140
1.0
102
RTVSPost2010PropOp52
 70
     0
102
RTVSPost2010Prop53
 90
        2
102
RTVSPost2010PropOp53
 70
     1
102
RTVSPost2010Prop54
  1
strokes_ogs.tif
102
RTVSPost2010PropOp54
 70
     1
102
RTVSPost2010Prop55
280
     0
102
RTVSPost2010PropOp55
 70
     1
102
RTVSPost2010Prop56
140
1.0
102
RTVSPost2010PropOp56
 70
     1
102
RTVSPost2010Prop57
140
1.0
102
RTVSPost2010PropOp57
 70
     1
102
RTVSPropertyOp0
 70
     1
102
RTVSPropertyOp1
 70
     1
102
RTVSPropertyOp2
 70
     1
102
RTVSPropertyOp3
 70
     1
102
RTVSPropertyOp4
 70
     1
102
RTVSPropertyOp5
 70
     1
102
RTVSPropertyOp6
 70
     1
102
RTVSPropertyOp7
 70
     1
102
RTVSPropertyOp8
 70
     1
102
RTVSPropertyOp9
 70
     1
102
RTVSPropertyOp10
 70
     1
102
RTVSPropertyOp11
 70
     1
102
RTVSPropertyOp12
 70
     1
102
RTVSPropertyOp13
 70
     1
102
RTVSPropertyOp14
 70
     1
102
RTVSPropertyOp15
 70
     1
102
RTVSPropertyOp16
 70
     1
102
RTVSPropertyOp17
 70
     1
102
RTVSPropertyOp18
 70
     1
102
RTVSPropertyOp19
 70
     1
102
RTVSPropertyOp20
 70
     1
102
RTVSPropertyOp21
 70
     1
102
RTVSPropertyOp22
 70
     1
102
RTVSPropertyOp23
 70
     1
102
RTVSPropertyOp24
 70
     1
102
RTVSPropertyOp25
 70
     1
102
RTVSPropertyOp26
 70
     1
102
RTVSPropertyOp27
 70
     1
102
RTVSPropertyOp28
 70
     1
102
RTVSPropertyOp29
 70
     1
102
RTVSPropertyOp30
 70
     1
102
RTVSPropertyOp31
 70
     1
102
RTVSPropertyOp32
 70
     1
102
RTVSPropertyOp33
 70
     1
102
RTVSPropertyOp34
 70
     1
102
RTVSPropertyOp35
 70
     1
102
RTVSPropertyOp36
 70
     1
102
RTVSPropertyOp37
 70
     1
102
RTVSPropertyOp38
 70
     1
102
RTVSPropertyOp39
 70
     1
102
RTVSPropertyOp40
 70
     1
102
RTVSPropertyOp41
 70
     1
102
RTVSPropertyOp42
 70
     1
102
RTVSPropertyOp43
 70
     1
102
RTVSPropertyOp44
 70
     1
102
RTVSPropertyOp45
 70
     1
102
RTVSPropertyOp46
 70
     1
102
RTVSPropertyOp47
 70
     1
102
RTVSPropertyOp48
 70
     1
102
RTVSPropertyOp49
 70
     1
102
RTVSPropertyOp50
 70
     1
102
RTVSPropertyOp51
 70
     0
102
RTVSPropertyOp52
 70
     0
102
RTVSPropertyOp53
 70
     1
102
RTVSPropertyOp54
 70
     1
102
RTVSPropertyOp55
 70
     1
102
RTVSPropertyOp56
 70
     1
102
RTVSPropertyOp57
 70
     1
102
RTVSPropertyOp58
 70
     1
102
RTVSPropertyOp59
 70
     1
102
RTVSPropertyOp60
 70
     1
102
RTVSPropertyOp61
 70
     1
102
RTVSPropertyOp62
 70
     1
  0
ENDSEC
  0
EOF
