  0
SECTION
  2
HEADER
  9
$ACADVER
  1
AC1018
  9
$ACADMAINTVER
 70
   104
  9
$DWGCODEPAGE
  3
ANSI_1250
  9
$LASTSAVEDBY
  1
wq7085
  9
$INSBASE
 10
0.0
 20
0.0
 30
0.0
  9
$EXTMIN
 10
125.157676
 20
144.7778146666666
 30
-0.0000000000000002
  9
$EXTMAX
 10
490.3664089999999
 20
251.8683696666666
 30
0.0000000000000002
  9
$LIMMIN
 10
-0.5
 20
-0.5
  9
$LIMMAX
 10
5.0
 20
5.0
  9
$ORTHOMODE
 70
     0
  9
$REGENMODE
 70
     1
  9
$FILLMODE
 70
     1
  9
$QTEXTMODE
 70
     0
  9
$MIRRTEXT
 70
     1
  9
$LTSCALE
 40
1.0
  9
$ATTMODE
 70
     1
  9
$TEXTSIZE
 40
0.2
  9
$TRACEWID
 40
0.05
  9
$TEXTSTYLE
  7
Standard
  9
$CLAYER
  8
0
  9
$CELTYPE
  6
ByLayer
  9
$CECOLOR
 62
   256
  9
$CELTSCALE
 40
1.0
  9
$DISPSILH
 70
     0
  9
$DIMSCALE
 40
1.0
  9
$DIMASZ
 40
0.18
  9
$DIMEXO
 40
0.0625
  9
$DIMDLI
 40
0.38
  9
$DIMRND
 40
0.0
  9
$DIMDLE
 40
0.0
  9
$DIMEXE
 40
0.18
  9
$DIMTP
 40
0.0
  9
$DIMTM
 40
0.0
  9
$DIMTXT
 40
0.18
  9
$DIMCEN
 40
0.09
  9
$DIMTSZ
 40
0.0
  9
$DIMTOL
 70
     0
  9
$DIMLIM
 70
     0
  9
$DIMTIH
 70
     1
  9
$DIMTOH
 70
     1
  9
$DIMSE1
 70
     0
  9
$DIMSE2
 70
     0
  9
$DIMTAD
 70
     0
  9
$DIMZIN
 70
     0
  9
$DIMBLK
  1

  9
$DIMASO
 70
     1
  9
$DIMSHO
 70
     1
  9
$DIMPOST
  1

  9
$DIMAPOST
  1

  9
$DIMALT
 70
     0
  9
$DIMALTD
 70
     2
  9
$DIMALTF
 40
25.4
  9
$DIMLFAC
 40
1.0
  9
$DIMTOFL
 70
     0
  9
$DIMTVP
 40
0.0
  9
$DIMTIX
 70
     0
  9
$DIMSOXD
 70
     0
  9
$DIMSAH
 70
     0
  9
$DIMBLK1
  1

  9
$DIMBLK2
  1

  9
$DIMSTYLE
  2
Standard
  9
$DIMCLRD
 70
     0
  9
$DIMCLRE
 70
     0
  9
$DIMCLRT
 70
     0
  9
$DIMTFAC
 40
1.0
  9
$DIMGAP
 40
0.09
  9
$DIMJUST
 70
     0
  9
$DIMSD1
 70
     0
  9
$DIMSD2
 70
     0
  9
$DIMTOLJ
 70
     1
  9
$DIMTZIN
 70
     0
  9
$DIMALTZ
 70
     0
  9
$DIMALTTZ
 70
     0
  9
$DIMUPT
 70
     0
  9
$DIMDEC
 70
     4
  9
$DIMTDEC
 70
     4
  9
$DIMALTU
 70
     2
  9
$DIMALTTD
 70
     2
  9
$DIMTXSTY
  7
Standard
  9
$DIMAUNIT
 70
     0
  9
$DIMADEC
 70
     0
  9
$DIMALTRND
 40
0.0
  9
$DIMAZIN
 70
     0
  9
$DIMDSEP
 70
    46
  9
$DIMATFIT
 70
     3
  9
$DIMFRAC
 70
     0
  9
$DIMLDRBLK
  1

  9
$DIMLUNIT
 70
     2
  9
$DIMLWD
 70
    -2
  9
$DIMLWE
 70
    -2
  9
$DIMTMOVE
 70
     0
  9
$LUNITS
 70
     2
  9
$LUPREC
 70
     4
  9
$SKETCHINC
 40
0.1
  9
$FILLETRAD
 40
0.5
  9
$AUNITS
 70
     0
  9
$AUPREC
 70
     0
  9
$MENU
  1
.
  9
$ELEVATION
 40
0.0
  9
$PELEVATION
 40
0.0
  9
$THICKNESS
 40
0.0
  9
$LIMCHECK
 70
     0
  9
$CHAMFERA
 40
0.0
  9
$CHAMFERB
 40
0.0
  9
$CHAMFERC
 40
0.0
  9
$CHAMFERD
 40
0.0
  9
$SKPOLY
 70
     0
  9
$TDCREATE
 40
2458870.564722222
  9
$TDUCREATE
 40
2458870.523066227
  9
$TDUPDATE
 40
2458870.565462963
  9
$TDUUPDATE
 40
2458870.523796296
  9
$TDINDWG
 40
0.0004051042
  9
$TDUSRTIMER
 40
0.0004051042
  9
$USRTIMER
 70
     1
  9
$ANGBASE
 50
0.0
  9
$ANGDIR
 70
     0
  9
$PDMODE
 70
     0
  9
$PDSIZE
 40
0.0
  9
$PLINEWID
 40
0.0
  9
$SPLFRAME
 70
     0
  9
$SPLINETYPE
 70
     6
  9
$SPLINESEGS
 70
     8
  9
$HANDSEED
  5
45E
  9
$SURFTAB1
 70
     6
  9
$SURFTAB2
 70
     6
  9
$SURFTYPE
 70
     6
  9
$SURFU
 70
     6
  9
$SURFV
 70
     6
  9
$UCSBASE
  2

  9
$UCSNAME
  2

  9
$UCSORG
 10
434.5074969999999
 20
197.578985
 30
0.0
  9
$UCSXDIR
 10
1.0
 20
0.0
 30
0.0
  9
$UCSYDIR
 10
0.0
 20
1.0
 30
0.0
  9
$UCSORTHOREF
  2

  9
$UCSORTHOVIEW
 70
     0
  9
$UCSORGTOP
 10
0.0
 20
0.0
 30
0.0
  9
$UCSORGBOTTOM
 10
0.0
 20
0.0
 30
0.0
  9
$UCSORGLEFT
 10
0.0
 20
0.0
 30
0.0
  9
$UCSORGRIGHT
 10
0.0
 20
0.0
 30
0.0
  9
$UCSORGFRONT
 10
0.0
 20
0.0
 30
0.0
  9
$UCSORGBACK
 10
0.0
 20
0.0
 30
0.0
  9
$PUCSBASE
  2

  9
$PUCSNAME
  2

  9
$PUCSORG
 10
0.0
 20
0.0
 30
0.0
  9
$PUCSXDIR
 10
1.0
 20
0.0
 30
0.0
  9
$PUCSYDIR
 10
0.0
 20
1.0
 30
0.0
  9
$PUCSORTHOREF
  2

  9
$PUCSORTHOVIEW
 70
     0
  9
$PUCSORGTOP
 10
0.0
 20
0.0
 30
0.0
  9
$PUCSORGBOTTOM
 10
0.0
 20
0.0
 30
0.0
  9
$PUCSORGLEFT
 10
0.0
 20
0.0
 30
0.0
  9
$PUCSORGRIGHT
 10
0.0
 20
0.0
 30
0.0
  9
$PUCSORGFRONT
 10
0.0
 20
0.0
 30
0.0
  9
$PUCSORGBACK
 10
0.0
 20
0.0
 30
0.0
  9
$USERI1
 70
     0
  9
$USERI2
 70
     0
  9
$USERI3
 70
     0
  9
$USERI4
 70
     0
  9
$USERI5
 70
     0
  9
$USERR1
 40
0.0
  9
$USERR2
 40
0.0
  9
$USERR3
 40
0.0
  9
$USERR4
 40
0.0
  9
$USERR5
 40
0.0
  9
$WORLDVIEW
 70
     1
  9
$SHADEDGE
 70
     3
  9
$SHADEDIF
 70
    70
  9
$TILEMODE
 70
     1
  9
$MAXACTVP
 70
    64
  9
$PINSBASE
 10
0.0
 20
0.0
 30
0.0
  9
$PLIMCHECK
 70
     0
  9
$PEXTMIN
 10
-0.5
 20
-0.5
 30
-0.5
  9
$PEXTMAX
 10
5.0
 20
5.0
 30
5.0
  9
$PLIMMIN
 10
-0.5
 20
-0.5
  9
$PLIMMAX
 10
5.0
 20
5.0
  9
$UNITMODE
 70
     0
  9
$VISRETAIN
 70
     1
  9
$PLINEGEN
 70
     0
  9
$PSLTSCALE
 70
     1
  9
$TREEDEPTH
 70
  3020
  9
$CMLSTYLE
  2
Standard
  9
$CMLJUST
 70
     0
  9
$CMLSCALE
 40
1.0
  9
$PROXYGRAPHICS
 70
     1
  9
$MEASUREMENT
 70
     1
  9
$CELWEIGHT
370
    13
  9
$ENDCAPS
280
     0
  9
$JOINSTYLE
280
     0
  9
$LWDISPLAY
290
     0
  9
$INSUNITS
 70
     4
  9
$HYPERLINKBASE
  1

  9
$STYLESHEET
  1

  9
$XEDIT
290
     1
  9
$CEPSNTYPE
380
     0
  9
$PSTYLEMODE
290
     1
  9
$FINGERPRINTGUID
  2
{AB18D0E7-C8A5-4CE5-BE71-28C9F5A71699}
  9
$VERSIONGUID
  2
{83C2BC8B-59A7-EF4D-AF3B-B03BA912511F}
  9
$EXTNAMES
290
     1
  9
$PSVPSCALE
 40
0.0
  9
$OLESTARTUP
290
     0
  9
$SORTENTS
280
   127
  9
$INDEXCTL
280
     0
  9
$HIDETEXT
280
     1
  9
$XCLIPFRAME
290
     0
  9
$HALOGAP
280
     0
  9
$OBSCOLOR
 70
   257
  9
$OBSLTYPE
280
     0
  9
$INTERSECTIONDISPLAY
280
     0
  9
$INTERSECTIONCOLOR
 70
   257
  9
$DIMASSOC
280
     2
  9
$PROJECTNAME
  1

  0
ENDSEC
  0
SECTION
  2
CLASSES
  0
CLASS
  1
ACDBDICTIONARYWDFLT
  2
AcDbDictionaryWithDefault
  3
ObjectDBX Classes
 90
        0
 91
        1
280
     0
281
     0
  0
CLASS
  1
VISUALSTYLE
  2
AcDbVisualStyle
  3
ObjectDBX Classes
 90
     4095
 91
       24
280
     0
281
     0
  0
CLASS
  1
MATERIAL
  2
AcDbMaterial
  3
ObjectDBX Classes
 90
     1153
 91
        3
280
     0
281
     0
  0
CLASS
  1
SCALE
  2
AcDbScale
  3
ObjectDBX Classes
 90
     1153
 91
       33
280
     0
281
     0
  0
CLASS
  1
TABLESTYLE
  2
AcDbTableStyle
  3
ObjectDBX Classes
 90
     4095
 91
        1
280
     0
281
     0
  0
CLASS
  1
MLEADERSTYLE
  2
AcDbMLeaderStyle
  3
ACDB_MLEADERSTYLE_CLASS
 90
     4095
 91
        1
280
     0
281
     0
  0
CLASS
  1
SUN
  2
AcDbSun
  3
SCENEOE
 90
     1153
 91
        0
280
     0
281
     0
  0
CLASS
  1
DIMASSOC
  2
AcDbDimAssoc
  3
"AcDbDimAssoc|Product Desc:     AcDim ARX App For Dimension|Company:          Autodesk, Inc.|WEB Address:      www.autodesk.com"
 90
        0
 91
        8
280
     0
281
     0
  0
CLASS
  1
DICTIONARYVAR
  2
AcDbDictionaryVar
  3
ObjectDBX Classes
 90
        0
 91
        8
280
     0
281
     0
  0
CLASS
  1
CELLSTYLEMAP
  2
AcDbCellStyleMap
  3
ObjectDBX Classes
 90
     1152
 91
        2
280
     0
281
     0
  0
CLASS
  1
ACDBSECTIONVIEWSTYLE
  2
AcDbSectionViewStyle
  3
ObjectDBX Classes
 90
     1025
 91
        1
280
     0
281
     0
  0
CLASS
  1
ACDBDETAILVIEWSTYLE
  2
AcDbDetailViewStyle
  3
ObjectDBX Classes
 90
     1025
 91
        1
280
     0
281
     0
  0
CLASS
  1
SORTENTSTABLE
  2
AcDbSortentsTable
  3
ObjectDBX Classes
 90
        0
 91
        1
280
     0
281
     0
  0
ENDSEC
  0
SECTION
  2
TABLES
  0
TABLE
  2
VPORT
  5
8
330
0
100
AcDbSymbolTable
 70
    16
  0
VPORT
  5
29
330
8
100
AcDbSymbolTableRecord
100
AcDbViewportTableRecord
  2
*Active
 70
     0
 10
0.0
 20
0.0
 11
1.0
 21
1.0
 12
492.5835028544296
 22
180.0016714321257
 13
0.0
 23
0.0
 14
0.5
 24
0.5
 15
0.5
 25
0.5
 16
0.0
 26
0.0
 36
1.0
 17
0.0
 27
0.0
 37
0.0
 40
208.9156561323089
 41
2.292712066905615
 42
50.0
 43
567.3742089999999
 44
-567.3742089999999
 50
0.0
 51
0.0
 71
     0
 72
   100
 73
     1
 74
     3
 75
     0
 76
     0
 77
     0
 78
     0
281
     0
 65
     1
110
434.5074969999999
120
197.578985
130
0.0
111
1.0
121
0.0
131
0.0
112
0.0
122
1.0
132
0.0
 79
     0
146
0.0
1001
ACAD_NAV_VCDISPLAY
1070
     3
  0
VPORT
  5
34E
330
8
100
AcDbSymbolTableRecord
100
AcDbViewportTableRecord
  2
L1
 70
     0
 10
0.0
 20
0.0
 11
1.0
 21
1.0
 12
307.76205
 22
198.33226
 13
0.0
 23
0.0
 14
0.5
 24
0.5
 15
0.5
 25
0.5
 16
0.0
 26
0.0
 36
1.0
 17
0.0
 27
0.0
 37
0.0
 40
207.433333
 41
0.085602
 42
50.0
 43
567.3742089999999
 44
-567.3742089999999
 50
0.0
 51
0.0
 71
     0
 72
   100
 73
     1
 74
     3
 75
     0
 76
     0
 77
     0
 78
     0
281
     0
 65
     1
110
0.0
120
0.0
130
0.0
111
1.0
121
0.0
131
0.0
112
0.0
122
1.0
132
0.0
 79
     0
146
0.0
  0
VPORT
  5
34F
330
8
100
AcDbSymbolTableRecord
100
AcDbViewportTableRecord
  2
L2
 70
     0
 10
0.0
 20
0.0
 11
0.5
 21
1.0
 12
0.0
 22
0.0
 13
0.0
 23
0.0
 14
0.5
 24
0.5
 15
0.5
 25
0.5
 16
0.0
 26
-1.0
 36
0.0
 17
0.0
 27
0.0
 37
0.0
 40
1311.475104
 41
0.01354
 42
50.0
 43
675.4659889999999
 44
-675.4659889999999
 50
0.0
 51
0.0
 71
     0
 72
   100
 73
     1
 74
     3
 75
     0
 76
     0
 77
     0
 78
     0
281
     0
 65
     1
110
0.0
120
0.0
130
0.0
111
1.0
121
0.0
131
0.0
112
0.0
122
1.0
132
0.0
 79
     0
146
0.0
  0
VPORT
  5
350
330
8
100
AcDbSymbolTableRecord
100
AcDbViewportTableRecord
  2
L2
 70
     0
 10
0.5
 20
0.0
 11
1.0
 21
1.0
 12
0.0
 22
0.0
 13
0.0
 23
0.0
 14
0.5
 24
0.5
 15
0.5
 25
0.5
 16
1.0
 26
0.0
 36
0.0
 17
0.0
 27
0.0
 37
0.0
 40
1311.475104
 41
0.01354
 42
50.0
 43
663.889211
 44
-663.889211
 50
0.0
 51
0.0
 71
     0
 72
   100
 73
     1
 74
     3
 75
     0
 76
     0
 77
     0
 78
     0
281
     0
 65
     1
110
0.0
120
0.0
130
0.0
111
1.0
121
0.0
131
0.0
112
0.0
122
1.0
132
0.0
 79
     0
146
0.0
  0
VPORT
  5
351
330
8
100
AcDbSymbolTableRecord
100
AcDbViewportTableRecord
  2
L3
 70
     0
 10
0.0
 20
0.5
 11
1.0
 21
1.0
 12
307.76205
 22
198.33226
 13
0.0
 23
0.0
 14
0.5
 24
0.5
 15
0.5
 25
0.5
 16
0.0
 26
0.0
 36
1.0
 17
0.0
 27
0.0
 37
0.0
 40
207.433333
 41
0.085602
 42
50.0
 43
567.3742089999999
 44
-567.3742089999999
 50
0.0
 51
0.0
 71
     0
 72
   100
 73
     1
 74
     3
 75
     0
 76
     0
 77
     0
 78
     0
281
     0
 65
     1
110
0.0
120
0.0
130
0.0
111
1.0
121
0.0
131
0.0
112
0.0
122
1.0
132
0.0
 79
     0
146
0.0
  0
VPORT
  5
352
330
8
100
AcDbSymbolTableRecord
100
AcDbViewportTableRecord
  2
L3
 70
     0
 10
0.0
 20
0.0
 11
1.0
 21
0.5
 12
0.0
 22
0.0
 13
0.0
 23
0.0
 14
0.5
 24
0.5
 15
0.5
 25
0.5
 16
0.0
 26
-1.0
 36
0.0
 17
0.0
 27
0.0
 37
0.0
 40
1311.475104
 41
0.01354
 42
50.0
 43
675.4659889999999
 44
-675.4659889999999
 50
0.0
 51
0.0
 71
     0
 72
   100
 73
     1
 74
     3
 75
     0
 76
     0
 77
     0
 78
     0
281
     0
 65
     1
110
0.0
120
0.0
130
0.0
111
1.0
121
0.0
131
0.0
112
0.0
122
1.0
132
0.0
 79
     0
146
0.0
  0
VPORT
  5
353
330
8
100
AcDbSymbolTableRecord
100
AcDbViewportTableRecord
  2
L4
 70
     0
 10
0.0
 20
0.5
 11
0.5
 21
1.0
 12
307.76205
 22
198.33226
 13
0.0
 23
0.0
 14
0.5
 24
0.5
 15
0.5
 25
0.5
 16
0.0
 26
0.0
 36
1.0
 17
0.0
 27
0.0
 37
0.0
 40
207.433333
 41
0.085602
 42
50.0
 43
567.3742089999999
 44
-567.3742089999999
 50
0.0
 51
0.0
 71
     0
 72
   100
 73
     1
 74
     3
 75
     0
 76
     0
 77
     0
 78
     0
281
     0
 65
     1
110
0.0
120
0.0
130
0.0
111
1.0
121
0.0
131
0.0
112
0.0
122
1.0
132
0.0
 79
     0
146
0.0
  0
VPORT
  5
354
330
8
100
AcDbSymbolTableRecord
100
AcDbViewportTableRecord
  2
L4
 70
     0
 10
0.0
 20
0.0
 11
0.5
 21
0.5
 12
0.0
 22
0.0
 13
0.0
 23
0.0
 14
0.5
 24
0.5
 15
0.5
 25
0.5
 16
0.0
 26
-1.0
 36
0.0
 17
0.0
 27
0.0
 37
0.0
 40
1311.475104
 41
0.01354
 42
50.0
 43
675.4659889999999
 44
-675.4659889999999
 50
0.0
 51
0.0
 71
     0
 72
   100
 73
     1
 74
     3
 75
     0
 76
     0
 77
     0
 78
     0
281
     0
 65
     1
110
0.0
120
0.0
130
0.0
111
1.0
121
0.0
131
0.0
112
0.0
122
1.0
132
0.0
 79
     0
146
0.0
  0
VPORT
  5
355
330
8
100
AcDbSymbolTableRecord
100
AcDbViewportTableRecord
  2
L4
 70
     0
 10
0.5
 20
0.0
 11
1.0
 21
0.5
 12
0.0
 22
0.0
 13
0.0
 23
0.0
 14
0.5
 24
0.5
 15
0.5
 25
0.5
 16
1.0
 26
0.0
 36
0.0
 17
0.0
 27
0.0
 37
0.0
 40
1311.475104
 41
0.01354
 42
50.0
 43
663.889211
 44
-663.889211
 50
0.0
 51
0.0
 71
     0
 72
   100
 73
     1
 74
     3
 75
     0
 76
     0
 77
     0
 78
     0
281
     0
 65
     1
110
0.0
120
0.0
130
0.0
111
1.0
121
0.0
131
0.0
112
0.0
122
1.0
132
0.0
 79
     0
146
0.0
  0
VPORT
  5
356
330
8
100
AcDbSymbolTableRecord
100
AcDbViewportTableRecord
  2
L4
 70
     0
 10
0.5
 20
0.5
 11
1.0
 21
1.0
 12
0.0
 22
0.0
 13
0.0
 23
0.0
 14
0.5
 24
0.5
 15
0.5
 25
0.5
 16
0.5773502691896259
 26
-0.5773502691896259
 36
0.5773502691896259
 17
0.0
 27
0.0
 37
0.0
 40
1287.818467
 41
0.013788
 42
50.0
 43
670.773434
 44
-670.773434
 50
0.0
 51
0.0
 71
     0
 72
   100
 73
     1
 74
     3
 75
     0
 76
     0
 77
     0
 78
     0
281
     0
 65
     1
110
0.0
120
0.0
130
0.0
111
1.0
121
0.0
131
0.0
112
0.0
122
1.0
132
0.0
 79
     0
146
0.0
  0
VPORT
  5
357
330
8
100
AcDbSymbolTableRecord
100
AcDbViewportTableRecord
  2
L6
 70
     0
 10
0.0
 20
0.5
 11
0.333333
 21
1.0
 12
0.0
 22
0.0
 13
0.0
 23
0.0
 14
0.5
 24
0.5
 15
0.5
 25
0.5
 16
0.7188730927569434
 26
-0.5850486126764433
 36
0.3754192287502549
 17
0.0
 27
0.0
 37
0.0
 40
1359.077926
 41
0.013065
 42
50.0
 43
703.6802759999999
 44
-703.6802759999999
 50
0.0
 51
0.0
 71
     0
 72
   100
 73
     1
 74
     3
 75
     0
 76
     0
 77
     0
 78
     0
281
     0
 65
     1
110
0.0
120
0.0
130
0.0
111
1.0
121
0.0
131
0.0
112
0.0
122
1.0
132
0.0
 79
     0
146
0.0
  0
VPORT
  5
358
330
8
100
AcDbSymbolTableRecord
100
AcDbViewportTableRecord
  2
L6
 70
     0
 10
0.0
 20
0.0
 11
0.333333
 21
0.5
 12
0.0
 22
0.0
 13
0.0
 23
0.0
 14
0.5
 24
0.5
 15
0.5
 25
0.5
 16
-1.0
 26
0.0
 36
0.0
 17
0.0
 27
0.0
 37
0.0
 40
1311.475104
 41
0.01354
 42
50.0
 43
663.889211
 44
-663.889211
 50
0.0
 51
0.0
 71
     0
 72
   100
 73
     1
 74
     3
 75
     0
 76
     0
 77
     0
 78
     0
281
     0
 65
     1
110
0.0
120
0.0
130
0.0
111
1.0
121
0.0
131
0.0
112
0.0
122
1.0
132
0.0
 79
     0
146
0.0
  0
VPORT
  5
359
330
8
100
AcDbSymbolTableRecord
100
AcDbViewportTableRecord
  2
L6
 70
     0
 10
0.333333
 20
0.5
 11
0.666667
 21
1.0
 12
307.76205
 22
198.33226
 13
0.0
 23
0.0
 14
0.5
 24
0.5
 15
0.5
 25
0.5
 16
0.0
 26
0.0
 36
1.0
 17
0.0
 27
0.0
 37
0.0
 40
207.433333
 41
0.085602
 42
50.0
 43
567.3742089999999
 44
-567.3742089999999
 50
0.0
 51
0.0
 71
     0
 72
   100
 73
     1
 74
     3
 75
     0
 76
     0
 77
     0
 78
     0
281
     0
 65
     1
110
0.0
120
0.0
130
0.0
111
1.0
121
0.0
131
0.0
112
0.0
122
1.0
132
0.0
 79
     0
146
0.0
  0
VPORT
  5
35A
330
8
100
AcDbSymbolTableRecord
100
AcDbViewportTableRecord
  2
L6
 70
     0
 10
0.333333
 20
0.0
 11
0.666667
 21
0.5
 12
0.0
 22
0.0
 13
0.0
 23
0.0
 14
0.5
 24
0.5
 15
0.5
 25
0.5
 16
0.0
 26
-1.0
 36
0.0
 17
0.0
 27
0.0
 37
0.0
 40
1311.475104
 41
0.01354
 42
50.0
 43
675.4659889999999
 44
-675.4659889999999
 50
0.0
 51
0.0
 71
     0
 72
   100
 73
     1
 74
     3
 75
     0
 76
     0
 77
     0
 78
     0
281
     0
 65
     1
110
0.0
120
0.0
130
0.0
111
1.0
121
0.0
131
0.0
112
0.0
122
1.0
132
0.0
 79
     0
146
0.0
  0
VPORT
  5
35B
330
8
100
AcDbSymbolTableRecord
100
AcDbViewportTableRecord
  2
L6
 70
     0
 10
0.666667
 20
0.5
 11
1.0
 21
1.0
 12
0.0
 22
0.0
 13
0.0
 23
0.0
 14
0.5
 24
0.5
 15
0.5
 25
0.5
 16
0.5773502691896259
 26
-0.5773502691896259
 36
0.5773502691896259
 17
0.0
 27
0.0
 37
0.0
 40
1287.818467
 41
0.013788
 42
50.0
 43
670.773434
 44
-670.773434
 50
0.0
 51
0.0
 71
     0
 72
   100
 73
     1
 74
     3
 75
     0
 76
     0
 77
     0
 78
     0
281
     0
 65
     1
110
0.0
120
0.0
130
0.0
111
1.0
121
0.0
131
0.0
112
0.0
122
1.0
132
0.0
 79
     0
146
0.0
  0
VPORT
  5
35C
330
8
100
AcDbSymbolTableRecord
100
AcDbViewportTableRecord
  2
L6
 70
     0
 10
0.666667
 20
0.0
 11
1.0
 21
0.5
 12
0.0
 22
0.0
 13
0.0
 23
0.0
 14
0.5
 24
0.5
 15
0.5
 25
0.5
 16
1.0
 26
0.0
 36
0.0
 17
0.0
 27
0.0
 37
0.0
 40
1311.475104
 41
0.01354
 42
50.0
 43
663.889211
 44
-663.889211
 50
0.0
 51
0.0
 71
     0
 72
   100
 73
     1
 74
     3
 75
     0
 76
     0
 77
     0
 78
     0
281
     0
 65
     1
110
0.0
120
0.0
130
0.0
111
1.0
121
0.0
131
0.0
112
0.0
122
1.0
132
0.0
 79
     0
146
0.0
  0
ENDTAB
  0
TABLE
  2
LTYPE
  5
5
330
0
100
AcDbSymbolTable
 70
     7
  0
LTYPE
  5
14
330
5
100
AcDbSymbolTableRecord
100
AcDbLinetypeTableRecord
  2
ByBlock
 70
     0
  3

 72
    65
 73
     0
 40
0.0
  0
LTYPE
  5
15
330
5
100
AcDbSymbolTableRecord
100
AcDbLinetypeTableRecord
  2
ByLayer
 70
     0
  3

 72
    65
 73
     0
 40
0.0
  0
LTYPE
  5
16
330
5
100
AcDbSymbolTableRecord
100
AcDbLinetypeTableRecord
  2
Continuous
 70
     0
  3
Solid line
 72
    65
 73
     0
 40
0.0
  0
LTYPE
  5
6E
330
5
100
AcDbSymbolTableRecord
100
AcDbLinetypeTableRecord
  2
CENTER
 70
     0
  3
____ _ ____ _ ____ _ ____
 72
    65
 73
     4
 40
47.4
 49
22.0
 74
     4
 75
     0
340
0
 46
0.0
 50
0.0
 44
0.0
 45
0.0
 49
-8.5
 74
     4
 75
     0
340
0
 46
0.0
 50
0.0
 44
0.0
 45
0.0
 49
8.5
 74
     4
 75
     0
340
0
 46
0.0
 50
0.0
 44
0.0
 45
0.0
 49
-8.5
 74
     4
 75
     0
340
0
 46
0.0
 50
0.0
 44
0.0
 45
0.0
  0
LTYPE
  5
6F
330
5
100
AcDbSymbolTableRecord
100
AcDbLinetypeTableRecord
  2
DASHDOT
 70
     0
  3
_._._._._._._._._._._._._._._._.
 72
    65
 73
     4
 40
70.0
 49
31.0
 74
     4
 75
     0
340
0
 46
0.0
 50
0.0
 44
0.0
 45
0.0
 49
-13.0
 74
     4
 75
     0
340
0
 46
0.0
 50
0.0
 44
0.0
 45
0.0
 49
13.0
 74
     4
 75
     0
340
0
 46
0.0
 50
0.0
 44
0.0
 45
0.0
 49
-13.0
 74
     4
 75
     0
340
0
 46
0.0
 50
0.0
 44
0.0
 45
0.0
  0
LTYPE
  5
70
330
5
100
AcDbSymbolTableRecord
100
AcDbLinetypeTableRecord
  2
DASHED
 70
     0
  3
__ __ __ __ __ __ __ __ __
 72
    65
 73
     2
 40
25.72
 49
12.86
 74
     4
 75
     0
340
0
 46
0.0
 50
0.0
 44
0.0
 45
0.0
 49
-12.86
 74
     4
 75
     0
340
0
 46
0.0
 50
0.0
 44
0.0
 45
0.0
  0
LTYPE
  5
71
330
5
100
AcDbSymbolTableRecord
100
AcDbLinetypeTableRecord
  2
DOT
 70
     0
  3
.........................
 72
    65
 73
     2
 40
10.0
 49
0.0
 74
     4
 75
     0
340
0
 46
0.0
 50
0.0
 44
0.0
 45
0.0
 49
-10.0
 74
     4
 75
     0
340
0
 46
0.0
 50
0.0
 44
0.0
 45
0.0
  0
LTYPE
  5
72
330
5
100
AcDbSymbolTableRecord
100
AcDbLinetypeTableRecord
  2
PHANTOM
 70
     0
  3
____ _ _ ____ _ _ _____ _ _ ____
 72
    65
 73
     6
 40
50.5
 49
18.0
 74
     4
 75
     0
340
0
 46
0.0
 50
0.0
 44
0.0
 45
0.0
 49
-6.5
 74
     4
 75
     0
340
0
 46
0.0
 50
0.0
 44
0.0
 45
0.0
 49
6.5
 74
     4
 75
     0
340
0
 46
0.0
 50
0.0
 44
0.0
 45
0.0
 49
-6.5
 74
     4
 75
     0
340
0
 46
0.0
 50
0.0
 44
0.0
 45
0.0
 49
6.5
 74
     4
 75
     0
340
0
 46
0.0
 50
0.0
 44
0.0
 45
0.0
 49
-6.5
 74
     4
 75
     0
340
0
 46
0.0
 50
0.0
 44
0.0
 45
0.0
  0
LTYPE
  5
3FD
330
5
100
AcDbSymbolTableRecord
100
AcDbLinetypeTableRecord
  2
CENTER2
 70
     0
  3
Center (.5x) ___ _ ___ _ ___ _ ___ _ ___ _ ___
 72
    65
 73
     4
 40
1.125
 49
0.75
 74
     0
 49
-0.125
 74
     0
 49
0.125
 74
     0
 49
-0.125
 74
     0
  0
ENDTAB
  0
TABLE
  2
LAYER
  5
2
330
0
100
AcDbSymbolTable
 70
    23
  0
LAYER
  5
10
102
{ACAD_XDICTIONARY
360
409
102
}
330
2
100
AcDbSymbolTableRecord
100
AcDbLayerTableRecord
  2
0
 70
     0
 62
     7
  6
Continuous
370
    -3
390
F
  0
LAYER
  5
289
330
2
100
AcDbSymbolTableRecord
100
AcDbLayerTableRecord
  2
Defpoints
 70
     0
 62
     7
  6
Continuous
290
     0
370
    -3
390
F
  0
LAYER
  5
3FA
102
{ACAD_XDICTIONARY
360
40B
102
}
330
2
100
AcDbSymbolTableRecord
100
AcDbLayerTableRecord
  2
1
 70
     0
 62
     4
  6
Continuous
370
    -3
390
F
  0
LAYER
  5
3FB
102
{ACAD_XDICTIONARY
360
40D
102
}
330
2
100
AcDbSymbolTableRecord
100
AcDbLayerTableRecord
  2
2
 70
     0
 62
     7
  6
Continuous
370
    -3
390
F
  0
LAYER
  5
3FC
102
{ACAD_XDICTIONARY
360
40F
102
}
330
2
100
AcDbSymbolTableRecord
100
AcDbLayerTableRecord
  2
4
 70
     0
 62
     2
  6
CENTER2
370
    -3
390
F
  0
LAYER
  5
3FF
102
{ACAD_XDICTIONARY
360
411
102
}
330
2
100
AcDbSymbolTableRecord
100
AcDbLayerTableRecord
  2
SK2
 70
     0
 62
     7
  6
Continuous
370
    -3
390
F
  0
LAYER
  5
400
102
{ACAD_XDICTIONARY
360
413
102
}
330
2
100
AcDbSymbolTableRecord
100
AcDbLayerTableRecord
  2
SK3
 70
     0
 62
     1
  6
DASHED
370
    -3
390
F
  0
LAYER
  5
401
102
{ACAD_XDICTIONARY
360
415
102
}
330
2
100
AcDbSymbolTableRecord
100
AcDbLayerTableRecord
  2
SK4
 70
     0
 62
     2
  6
CENTER2
370
    -3
390
F
  0
LAYER
  5
402
102
{ACAD_XDICTIONARY
360
417
102
}
330
2
100
AcDbSymbolTableRecord
100
AcDbLayerTableRecord
  2
SK6
 70
     0
 62
     5
  6
Continuous
370
    -3
390
F
  0
LAYER
  5
403
102
{ACAD_XDICTIONARY
360
419
102
}
330
2
100
AcDbSymbolTableRecord
100
AcDbLayerTableRecord
  2
CUT
 70
     0
 62
     1
  6
Continuous
370
    -3
390
F
  0
LAYER
  5
404
102
{ACAD_XDICTIONARY
360
41B
102
}
330
2
100
AcDbSymbolTableRecord
100
AcDbLayerTableRecord
  2
NOCUT
 70
     0
 62
     7
  6
Continuous
370
    -3
390
F
  0
LAYER
  5
405
102
{ACAD_XDICTIONARY
360
41D
102
}
330
2
100
AcDbSymbolTableRecord
100
AcDbLayerTableRecord
  2
80
 70
     0
 62
     6
  6
Continuous
370
    -3
390
F
  0
LAYER
  5
406
102
{ACAD_XDICTIONARY
360
41F
102
}
330
2
100
AcDbSymbolTableRecord
100
AcDbLayerTableRecord
  2
81
 70
     0
 62
     3
  6
Continuous
370
    -3
390
F
  0
LAYER
  5
407
102
{ACAD_XDICTIONARY
360
421
102
}
330
2
100
AcDbSymbolTableRecord
100
AcDbLayerTableRecord
  2
SK1
 70
     0
 62
     4
  6
Continuous
370
    -3
390
F
  0
ENDTAB
  0
TABLE
  2
STYLE
  5
3
330
0
100
AcDbSymbolTable
 70
     3
  0
STYLE
  5
11
330
3
100
AcDbSymbolTableRecord
100
AcDbTextStyleTableRecord
  2
Standard
 70
     0
 40
0.0
 41
1.0
 50
0.0
 71
     0
 42
0.2
  3
txt
  4

  0
STYLE
  5
27D
330
3
100
AcDbSymbolTableRecord
100
AcDbTextStyleTableRecord
  2
cesky
 70
     0
 40
0.0
 41
1.0
 50
0.0
 71
     0
 42
0.2
  3
simplex.shx
  4

  0
STYLE
  5
27E
330
3
100
AcDbSymbolTableRecord
100
AcDbTextStyleTableRecord
  2
DWGDirectTextStyle
 70
     0
 40
0.0
 41
1.0
 50
0.0
 71
     0
 42
0.2
  3
simplex
  4

  0
ENDTAB
  0
TABLE
  2
VIEW
  5
6
330
0
100
AcDbSymbolTable
 70
     0
  0
ENDTAB
  0
TABLE
  2
UCS
  5
7
330
0
100
AcDbSymbolTable
 70
     0
  0
ENDTAB
  0
TABLE
  2
APPID
  5
9
330
0
100
AcDbSymbolTable
 70
     8
  0
APPID
  5
12
330
9
100
AcDbSymbolTableRecord
100
AcDbRegAppTableRecord
  2
ACAD
 70
     0
  0
APPID
  5
285
330
9
100
AcDbSymbolTableRecord
100
AcDbRegAppTableRecord
  2
ACAD_DSTYLE_DIMBREAK
 70
     0
  0
APPID
  5
2EC
330
9
100
AcDbSymbolTableRecord
100
AcDbRegAppTableRecord
  2
ACAD_DSTYLE_DIMANGULAR_EXTENSION
 70
     0
  0
APPID
  5
35D
330
9
100
AcDbSymbolTableRecord
100
AcDbRegAppTableRecord
  2
ACAD_DSTYLE_DIM_LINETYPE
 70
     0
  0
APPID
  5
35E
330
9
100
AcDbSymbolTableRecord
100
AcDbRegAppTableRecord
  2
ACAD_DSTYLE_DIM_EXT1_LINETYPE
 70
     0
  0
APPID
  5
35F
330
9
100
AcDbSymbolTableRecord
100
AcDbRegAppTableRecord
  2
ACAD_DSTYLE_DIM_EXT2_LINETYPE
 70
     0
  0
APPID
  5
39F
330
9
100
AcDbSymbolTableRecord
100
AcDbRegAppTableRecord
  2
ACAD_MLEADERVER
 70
     0
  0
APPID
  5
426
330
9
100
AcDbSymbolTableRecord
100
AcDbRegAppTableRecord
  2
ACAD_NAV_VCDISPLAY
 70
     0
  0
ENDTAB
  0
TABLE
  2
DIMSTYLE
  5
A
330
0
100
AcDbSymbolTable
 70
     1
100
AcDbDimStyleTable
 71
     0
  0
DIMSTYLE
105
27
330
A
100
AcDbSymbolTableRecord
100
AcDbDimStyleTableRecord
  2
Standard
 70
     0
340
11
1001
ACAD_DSTYLE_DIMBREAK
1070
   391
1040
6.349999999999999
  0
ENDTAB
  0
TABLE
  2
BLOCK_RECORD
  5
1
330
0
100
AcDbSymbolTable
 70
    18
  0
BLOCK_RECORD
  5
1F
102
{ACAD_XDICTIONARY
360
3AF
102
}
330
1
100
AcDbSymbolTableRecord
100
AcDbBlockTableRecord
  2
*Model_Space
340
22
  0
BLOCK_RECORD
  5
1B
330
1
100
AcDbSymbolTableRecord
100
AcDbBlockTableRecord
  2
*Paper_Space
340
1E
  0
BLOCK_RECORD
  5
23
330
1
100
AcDbSymbolTableRecord
100
AcDbBlockTableRecord
  2
*Paper_Space0
340
26
  0
BLOCK_RECORD
  5
280
330
1
100
AcDbSymbolTableRecord
100
AcDbBlockTableRecord
  2
ASSORTED_DRAFT1
340
0
  0
BLOCK_RECORD
  5
28A
330
1
100
AcDbSymbolTableRecord
100
AcDbBlockTableRecord
  2
*D2
340
0
  0
BLOCK_RECORD
  5
296
330
1
100
AcDbSymbolTableRecord
100
AcDbBlockTableRecord
  2
_U0
340
0
  0
BLOCK_RECORD
  5
2A2
330
1
100
AcDbSymbolTableRecord
100
AcDbBlockTableRecord
  2
*D4
340
0
  0
BLOCK_RECORD
  5
2AF
330
1
100
AcDbSymbolTableRecord
100
AcDbBlockTableRecord
  2
_U1
340
0
  0
BLOCK_RECORD
  5
2BB
330
1
100
AcDbSymbolTableRecord
100
AcDbBlockTableRecord
  2
*D6
340
0
  0
BLOCK_RECORD
  5
2C9
330
1
100
AcDbSymbolTableRecord
100
AcDbBlockTableRecord
  2
_U2
340
0
  0
BLOCK_RECORD
  5
2D5
330
1
100
AcDbSymbolTableRecord
100
AcDbBlockTableRecord
  2
*D8
340
0
  0
BLOCK_RECORD
  5
2E2
330
1
100
AcDbSymbolTableRecord
100
AcDbBlockTableRecord
  2
_U3
340
0
  0
BLOCK_RECORD
  5
2EF
330
1
100
AcDbSymbolTableRecord
100
AcDbBlockTableRecord
  2
*D10
340
0
  0
BLOCK_RECORD
  5
2FD
330
1
100
AcDbSymbolTableRecord
100
AcDbBlockTableRecord
  2
_U4
340
0
  0
BLOCK_RECORD
  5
309
330
1
100
AcDbSymbolTableRecord
100
AcDbBlockTableRecord
  2
*D12
340
0
  0
BLOCK_RECORD
  5
315
330
1
100
AcDbSymbolTableRecord
100
AcDbBlockTableRecord
  2
_U5
340
0
  0
BLOCK_RECORD
  5
322
330
1
100
AcDbSymbolTableRecord
100
AcDbBlockTableRecord
  2
*D14
340
0
  0
BLOCK_RECORD
  5
32D
330
1
100
AcDbSymbolTableRecord
100
AcDbBlockTableRecord
  2
_U6
340
0
  0
BLOCK_RECORD
  5
338
330
1
100
AcDbSymbolTableRecord
100
AcDbBlockTableRecord
  2
*D16
340
0
  0
BLOCK_RECORD
  5
344
330
1
100
AcDbSymbolTableRecord
100
AcDbBlockTableRecord
  2
_U7
340
0
  0
ENDTAB
  0
ENDSEC
  0
SECTION
  2
BLOCKS
  0
BLOCK
  5
20
330
1F
100
AcDbEntity
  8
0
100
AcDbBlockBegin
  2
*Model_Space
 70
     0
 10
0.0
 20
0.0
 30
0.0
  3
*Model_Space
  1

  0
ENDBLK
  5
21
330
1F
100
AcDbEntity
  8
0
100
AcDbBlockEnd
  0
BLOCK
  5
1C
330
1B
100
AcDbEntity
 67
     1
  8
0
100
AcDbBlockBegin
  2
*Paper_Space
 70
     0
 10
0.0
 20
0.0
 30
0.0
  3
*Paper_Space
  1

  0
ENDBLK
  5
1D
330
1B
100
AcDbEntity
 67
     1
  8
0
100
AcDbBlockEnd
  0
BLOCK
  5
24
330
23
100
AcDbEntity
 67
     1
  8
0
100
AcDbBlockBegin
  2
*Paper_Space0
 70
     0
 10
0.0
 20
0.0
 30
0.0
  3
*Paper_Space0
  1

  0
ENDBLK
  5
25
330
23
100
AcDbEntity
 67
     1
  8
0
100
AcDbBlockEnd
  0
BLOCK
  5
283
330
280
100
AcDbEntity
  8
0
100
AcDbBlockBegin
  2
ASSORTED_DRAFT1
 70
     0
 10
0.0
 20
0.0
 30
0.0
  3
ASSORTED_DRAFT1
  1

  0
SOLID
  5
281
330
280
100
AcDbEntity
  8
0
 62
   254
370
    13
100
AcDbTrace
 10
144.287676
 20
195.735816
 30
0.0
 11
149.287672
 21
196.84429
 31
0.0
 12
149.28768
 22
194.627343
 32
0.0
 13
144.287676
 23
195.735816
 33
0.0
  0
ENDBLK
  5
284
330
280
100
AcDbEntity
  8
0
100
AcDbBlockEnd
  0
BLOCK
  5
28B
330
28A
100
AcDbEntity
  8
0
100
AcDbBlockBegin
  2
*D2
 70
     1
 10
0.0
 20
0.0
 30
0.0
  3
*D2
  1

  0
LINE
  5
28D
330
28A
100
AcDbEntity
  8
0
 62
   254
370
    -2
100
AcDbLine
 10
474.507497
 20
217.578985
 30
0.0
 11
474.507497
 21
248.327536
 31
0.0
  0
LINE
  5
28E
330
28A
100
AcDbEntity
  8
0
 62
   254
370
    -2
100
AcDbLine
 10
434.5074969999999
 20
206.578985
 30
0.0
 11
434.5074969999999
 21
248.327536
 31
0.0
  0
LINE
  5
28F
330
28A
100
AcDbEntity
  8
0
 62
   254
370
    -2
100
AcDbLine
 10
471.0074969999999
 20
247.327536
 30
0.0
 11
438.0074969999999
 21
247.327536
 31
0.0
  0
SOLID
  5
290
330
28A
100
AcDbEntity
  8
0
 62
   254
100
AcDbTrace
 10
471.0074969999999
 20
246.744203
 30
0.0
 11
471.0074969999999
 21
247.91087
 31
0.0
 12
474.507497
 22
247.327536
 32
0.0
 13
474.507497
 23
247.327536
 33
0.0
  0
SOLID
  5
291
330
28A
100
AcDbEntity
  8
0
 62
   254
100
AcDbTrace
 10
438.0074969999999
 20
247.91087
 30
0.0
 11
438.0074969999999
 21
246.744203
 31
0.0
 12
434.5074969999999
 22
247.327536
 32
0.0
 13
434.5074969999999
 23
247.327536
 33
0.0
  0
MTEXT
  5
292
330
28A
100
AcDbEntity
  8
0
 62
   254
370
    13
100
AcDbMText
 10
454.5074969999999
 20
252.577536
 30
0.0
 40
3.5
 41
0.0
 71
     5
 72
     1
  1
\A1;40
  7
cesky
 73
     1
 44
1.0
  0
POINT
  5
293
330
28A
100
AcDbEntity
  8
Defpoints
 62
     0
100
AcDbPoint
 10
474.507497
 20
217.578985
 30
0.0
  0
POINT
  5
294
330
28A
100
AcDbEntity
  8
Defpoints
 62
     0
100
AcDbPoint
 10
434.5074969999999
 20
206.578985
 30
0.0
  0
POINT
  5
295
330
28A
100
AcDbEntity
  8
Defpoints
 62
     0
100
AcDbPoint
 10
434.5074969999999
 20
247.327536
 30
0.0
  0
ENDBLK
  5
28C
330
28A
100
AcDbEntity
  8
0
100
AcDbBlockEnd
  0
BLOCK
  5
29D
330
296
100
AcDbEntity
  8
0
100
AcDbBlockBegin
  2
_U0
 70
     0
 10
0.0
 20
0.0
 30
0.0
  3
_U0
  1

  0
ENDBLK
  5
29E
330
296
100
AcDbEntity
  8
0
100
AcDbBlockEnd
  0
BLOCK
  5
2A3
330
2A2
100
AcDbEntity
  8
0
100
AcDbBlockBegin
  2
*D4
 70
     1
 10
0.0
 20
0.0
 30
0.0
  3
*D4
  1

  0
LINE
  5
2A5
330
2A2
100
AcDbEntity
  8
0
 62
   254
370
    -2
100
AcDbLine
 10
474.507497
 20
215.578985
 30
0.0
 11
474.507497
 21
227.034228
 31
0.0
  0
LINE
  5
2A6
330
2A2
100
AcDbEntity
  8
0
 62
   254
370
    -2
100
AcDbLine
 10
466.4917519999999
 20
217.668369
 30
0.0
 11
466.4917519999999
 21
227.034228
 31
0.0
  0
LINE
  5
2A7
330
2A2
100
AcDbEntity
  8
0
 62
   254
370
    -2
100
AcDbLine
 10
478.007497
 20
226.034228
 30
0.0
 11
481.507497
 21
226.034228
 31
0.0
  0
LINE
  5
2A8
330
2A2
100
AcDbEntity
  8
0
 62
   254
370
    -2
100
AcDbLine
 10
462.9917519999999
 20
226.034228
 30
0.0
 11
459.491752
 21
226.034228
 31
0.0
  0
SOLID
  5
2A9
330
2A2
100
AcDbEntity
  8
0
 62
   254
100
AcDbTrace
 10
478.007497
 20
226.617561
 30
0.0
 11
478.007497
 21
225.450894
 31
0.0
 12
474.507497
 22
226.034228
 32
0.0
 13
474.507497
 23
226.034228
 33
0.0
  0
SOLID
  5
2AA
330
2A2
100
AcDbEntity
  8
0
 62
   254
100
AcDbTrace
 10
462.9917519999999
 20
225.450894
 30
0.0
 11
462.9917519999999
 21
226.617561
 31
0.0
 12
466.4917519999999
 22
226.034228
 32
0.0
 13
466.4917519999999
 23
226.034228
 33
0.0
  0
MTEXT
  5
2AB
330
2A2
100
AcDbEntity
  8
0
 62
   254
370
    13
100
AcDbMText
 10
470.4996249999999
 20
231.284228
 30
0.0
 40
3.5
 41
0.0
 71
     5
 72
     1
  1
\A1;8
  7
cesky
 73
     1
 44
1.0
  0
POINT
  5
2AC
330
2A2
100
AcDbEntity
  8
Defpoints
 62
     0
100
AcDbPoint
 10
474.507497
 20
215.578985
 30
0.0
  0
POINT
  5
2AD
330
2A2
100
AcDbEntity
  8
Defpoints
 62
     0
100
AcDbPoint
 10
466.4917519999999
 20
217.668369
 30
0.0
  0
POINT
  5
2AE
330
2A2
100
AcDbEntity
  8
Defpoints
 62
     0
100
AcDbPoint
 10
466.4917519999999
 20
226.034228
 30
0.0
  0
ENDBLK
  5
2A4
330
2A2
100
AcDbEntity
  8
0
100
AcDbBlockEnd
  0
BLOCK
  5
2B6
330
2AF
100
AcDbEntity
  8
0
100
AcDbBlockBegin
  2
_U1
 70
     0
 10
0.0
 20
0.0
 30
0.0
  3
_U1
  1

  0
ENDBLK
  5
2B7
330
2AF
100
AcDbEntity
  8
0
100
AcDbBlockEnd
  0
BLOCK
  5
2BC
330
2BB
100
AcDbEntity
  8
0
100
AcDbBlockBegin
  2
*D6
 70
     1
 10
0.0
 20
0.0
 30
0.0
  3
*D6
  1

  0
LINE
  5
2BE
330
2BB
100
AcDbEntity
  8
0
 62
    95
370
    -2
100
AcDbLine
 10
440.1074969999999
 20
197.578985
 30
0.0
 11
440.1074969999999
 21
164.521772
 31
0.0
  0
LINE
  5
2BF
330
2BB
100
AcDbEntity
  8
0
 62
    95
370
    -2
100
AcDbLine
 10
434.5074969999999
 20
182.578985
 30
0.0
 11
434.5074969999999
 21
164.521772
 31
0.0
  0
LINE
  5
2C0
330
2BB
100
AcDbEntity
  8
0
 62
    95
370
    -2
100
AcDbLine
 10
440.1074969999999
 20
165.521772
 30
0.0
 11
461.274164
 21
165.521772
 31
0.0
  0
LINE
  5
2C1
330
2BB
100
AcDbEntity
  8
0
 62
    95
370
    -2
100
AcDbLine
 10
443.6074969999999
 20
165.521772
 30
0.0
 11
447.107497
 21
165.521772
 31
0.0
  0
LINE
  5
2C2
330
2BB
100
AcDbEntity
  8
0
 62
    95
370
    -2
100
AcDbLine
 10
431.007497
 20
165.521772
 30
0.0
 11
427.507497
 21
165.521772
 31
0.0
  0
SOLID
  5
2C3
330
2BB
100
AcDbEntity
  8
0
 62
    95
100
AcDbTrace
 10
443.6074969999999
 20
166.105105
 30
0.0
 11
443.6074969999999
 21
164.938438
 31
0.0
 12
440.1074969999999
 22
165.521772
 32
0.0
 13
440.1074969999999
 23
165.521772
 33
0.0
  0
SOLID
  5
2C4
330
2BB
100
AcDbEntity
  8
0
 62
    95
100
AcDbTrace
 10
431.007497
 20
164.938438
 30
0.0
 11
431.007497
 21
166.105105
 31
0.0
 12
434.5074969999999
 22
165.521772
 32
0.0
 13
434.5074969999999
 23
165.521772
 33
0.0
  0
MTEXT
  5
2C5
330
2BB
100
AcDbEntity
  8
0
 62
    95
370
    13
100
AcDbMText
 10
454.1908309999999
 20
170.771772
 30
0.0
 40
3.5
 41
0.0
 71
     5
 72
     1
  1
\A1;5.6
  7
cesky
 73
     1
 44
1.0
  0
POINT
  5
2C6
330
2BB
100
AcDbEntity
  8
Defpoints
 62
     0
100
AcDbPoint
 10
440.1074969999999
 20
197.578985
 30
0.0
  0
POINT
  5
2C7
330
2BB
100
AcDbEntity
  8
Defpoints
 62
     0
100
AcDbPoint
 10
434.5074969999999
 20
182.578985
 30
0.0
  0
POINT
  5
2C8
330
2BB
100
AcDbEntity
  8
Defpoints
 62
     0
100
AcDbPoint
 10
434.5074969999999
 20
165.521772
 30
0.0
  0
ENDBLK
  5
2BD
330
2BB
100
AcDbEntity
  8
0
100
AcDbBlockEnd
  0
BLOCK
  5
2D0
330
2C9
100
AcDbEntity
  8
0
100
AcDbBlockBegin
  2
_U2
 70
     0
 10
0.0
 20
0.0
 30
0.0
  3
_U2
  1

  0
ENDBLK
  5
2D1
330
2C9
100
AcDbEntity
  8
0
100
AcDbBlockEnd
  0
BLOCK
  5
2D6
330
2D5
100
AcDbEntity
  8
0
100
AcDbBlockBegin
  2
*D8
 70
     1
 10
0.0
 20
0.0
 30
0.0
  3
*D8
  1

  0
LINE
  5
2D8
330
2D5
100
AcDbEntity
  8
0
 62
    95
370
    -2
100
AcDbLine
 10
437.4074969999999
 20
193.378985
 30
0.0
 11
424.185095
 21
193.378985
 31
0.0
  0
LINE
  5
2D9
330
2D5
100
AcDbEntity
  8
0
 62
    95
370
    -2
100
AcDbLine
 10
437.4074969999999
 20
201.778985
 30
0.0
 11
424.185095
 21
201.778985
 31
0.0
  0
LINE
  5
2DA
330
2D5
100
AcDbEntity
  8
0
 62
    95
370
    -2
100
AcDbLine
 10
425.185095
 20
189.878985
 30
0.0
 11
425.185095
 21
186.378985
 31
0.0
  0
LINE
  5
2DB
330
2D5
100
AcDbEntity
  8
0
 62
    95
370
    -2
100
AcDbLine
 10
425.185095
 20
205.278985
 30
0.0
 11
425.185095
 21
208.778985
 31
0.0
  0
SOLID
  5
2DC
330
2D5
100
AcDbEntity
  8
0
 62
    95
100
AcDbTrace
 10
425.768428
 20
189.878985
 30
0.0
 11
424.6017609999999
 21
189.878985
 31
0.0
 12
425.185095
 22
193.378985
 32
0.0
 13
425.185095
 23
193.378985
 33
0.0
  0
SOLID
  5
2DD
330
2D5
100
AcDbEntity
  8
0
 62
    95
100
AcDbTrace
 10
424.6017609999999
 20
205.278985
 30
0.0
 11
425.768428
 21
205.278985
 31
0.0
 12
425.185095
 22
201.778985
 32
0.0
 13
425.185095
 23
201.778985
 33
0.0
  0
MTEXT
  5
2DE
330
2D5
100
AcDbEntity
  8
0
 62
    95
370
    13
100
AcDbMText
 10
419.935095
 20
197.748114
 30
0.0
 40
3.5
 41
0.0
 71
     5
 72
     1
  1
\A1;8.4
  7
cesky
 11
0.0
 21
1.0
 31
0.0
 73
     1
 44
1.0
  0
POINT
  5
2DF
330
2D5
100
AcDbEntity
  8
Defpoints
 62
     0
100
AcDbPoint
 10
437.4074969999999
 20
193.378985
 30
0.0
  0
POINT
  5
2E0
330
2D5
100
AcDbEntity
  8
Defpoints
 62
     0
100
AcDbPoint
 10
437.4074969999999
 20
201.778985
 30
0.0
  0
POINT
  5
2E1
330
2D5
100
AcDbEntity
  8
Defpoints
 62
     0
100
AcDbPoint
 10
425.185095
 20
201.778985
 30
0.0
  0
ENDBLK
  5
2D7
330
2D5
100
AcDbEntity
  8
0
100
AcDbBlockEnd
  0
BLOCK
  5
2E9
330
2E2
100
AcDbEntity
  8
0
100
AcDbBlockBegin
  2
_U3
 70
     0
 10
0.0
 20
0.0
 30
0.0
  3
_U3
  1

  0
ENDBLK
  5
2EA
330
2E2
100
AcDbEntity
  8
0
100
AcDbBlockEnd
  0
BLOCK
  5
2F0
330
2EF
100
AcDbEntity
  8
0
100
AcDbBlockBegin
  2
*D10
 70
     1
 10
0.0
 20
0.0
 30
0.0
  3
*D10
  1

  0
LINE
  5
2F2
330
2EF
100
AcDbEntity
  8
0
 62
   254
370
    -2
100
AcDbLine
 10
474.507497
 20
219.578985
 30
0.0
 11
474.507497
 21
243.812856
 31
0.0
  0
LINE
  5
2F3
330
2EF
100
AcDbEntity
  8
0
 62
   254
370
    -2
100
AcDbLine
 10
473.9925589999999
 20
217.592594
 30
0.0
 11
448.287236
 21
217.592594
 31
0.0
  0
ARC
  5
2F4
330
2EF
100
AcDbEntity
  8
0
 62
   254
370
    -2
100
AcDbCircle
 10
474.507497
 20
217.592594
 30
0.0
 40
25.22026123036086
100
AcDbArc
 50
97.95774899999999
 51
172.042251
  0
SOLID
  5
2F5
330
2EF
100
AcDbEntity
  8
0
 62
   254
100
AcDbTrace
 10
471.05641
 20
241.988068
 30
0.0
 11
470.975457
 21
243.151923
 31
0.0
 12
474.507497
 22
242.812856
 32
0.0
 13
474.507497
 23
242.812856
 33
0.0
  0
SOLID
  5
2F6
330
2EF
100
AcDbEntity
  8
0
 62
   254
100
AcDbTrace
 10
448.948169
 20
221.124635
 30
0.0
 11
450.112024
 21
221.043682
 31
0.0
 12
449.2872359999999
 22
217.592594
 32
0.0
 13
449.2872359999999
 23
217.592594
 33
0.0
  0
MTEXT
  5
2F7
330
2EF
100
AcDbEntity
  8
0
 62
   254
370
    13
100
AcDbMText
 10
452.9617690000001
 20
239.138323
 30
0.0
 40
3.5
 41
0.0
 71
     5
 72
     1
  1
\A1;90%%d
  7
cesky
 11
0.707106781186547
 21
0.7071067811865481
 31
0.0
 73
     1
 44
1.0
  0
POINT
  5
2F8
330
2EF
100
AcDbEntity
  8
Defpoints
 62
     0
100
AcDbPoint
 10
461.8973669999999
 20
239.433981
 30
0.0
  0
POINT
  5
2F9
330
2EF
100
AcDbEntity
  8
Defpoints
 62
     0
100
AcDbPoint
 10
473.9925589999999
 20
217.592594
 30
0.0
  0
POINT
  5
2FA
330
2EF
100
AcDbEntity
  8
Defpoints
 62
     0
100
AcDbPoint
 10
474.507497
 20
215.578985
 30
0.0
  0
POINT
  5
2FB
330
2EF
100
AcDbEntity
  8
Defpoints
 62
     0
100
AcDbPoint
 10
474.507497
 20
219.578985
 30
0.0
  0
POINT
  5
2FC
330
2EF
100
AcDbEntity
  8
Defpoints
 62
     0
100
AcDbPoint
 10
474.992559
 20
217.592594
 30
0.0
  0
ENDBLK
  5
2F1
330
2EF
100
AcDbEntity
  8
0
100
AcDbBlockEnd
  0
BLOCK
  5
304
330
2FD
100
AcDbEntity
  8
0
100
AcDbBlockBegin
  2
_U4
 70
     0
 10
0.0
 20
0.0
 30
0.0
  3
_U4
  1

  0
ENDBLK
  5
305
330
2FD
100
AcDbEntity
  8
0
100
AcDbBlockEnd
  0
BLOCK
  5
30A
330
309
100
AcDbEntity
  8
0
100
AcDbBlockBegin
  2
*D12
 70
     1
 10
0.0
 20
0.0
 30
0.0
  3
*D12
  1

  0
LINE
  5
30C
330
309
100
AcDbEntity
  8
0
 62
    95
370
    -2
100
AcDbLine
 10
443.132497
 20
205.578985
 30
0.0
 11
415.444233
 21
205.578985
 31
0.0
  0
LINE
  5
30D
330
309
100
AcDbEntity
  8
0
 62
    95
370
    -2
100
AcDbLine
 10
444.77107
 20
189.578985
 30
0.0
 11
415.444233
 21
189.578985
 31
0.0
  0
LINE
  5
30E
330
309
100
AcDbEntity
  8
0
 62
    95
370
    -2
100
AcDbLine
 10
416.4442329999999
 20
202.078985
 30
0.0
 11
416.4442329999999
 21
193.078985
 31
0.0
  0
SOLID
  5
30F
330
309
100
AcDbEntity
  8
0
 62
    95
100
AcDbTrace
 10
417.027566
 20
202.078985
 30
0.0
 11
415.860899
 21
202.078985
 31
0.0
 12
416.4442329999999
 22
205.578985
 32
0.0
 13
416.4442329999999
 23
205.578985
 33
0.0
  0
SOLID
  5
310
330
309
100
AcDbEntity
  8
0
 62
    95
100
AcDbTrace
 10
415.860899
 20
193.078985
 30
0.0
 11
417.027566
 21
193.078985
 31
0.0
 12
416.4442329999999
 22
189.578985
 32
0.0
 13
416.4442329999999
 23
189.578985
 33
0.0
  0
MTEXT
  5
311
330
309
100
AcDbEntity
  8
0
 62
    95
370
    13
100
AcDbMText
 10
411.1942329999999
 20
197.578985
 30
0.0
 40
3.5
 41
0.0
 71
     5
 72
     1
  1
\A1;16
  7
cesky
 11
0.0
 21
1.0
 31
0.0
 73
     1
 44
1.0
  0
POINT
  5
312
330
309
100
AcDbEntity
  8
Defpoints
 62
     0
100
AcDbPoint
 10
443.132497
 20
205.578985
 30
0.0
  0
POINT
  5
313
330
309
100
AcDbEntity
  8
Defpoints
 62
     0
100
AcDbPoint
 10
444.77107
 20
189.578985
 30
0.0
  0
POINT
  5
314
330
309
100
AcDbEntity
  8
Defpoints
 62
     0
100
AcDbPoint
 10
416.4442329999999
 20
189.578985
 30
0.0
  0
ENDBLK
  5
30B
330
309
100
AcDbEntity
  8
0
100
AcDbBlockEnd
  0
BLOCK
  5
31D
330
315
100
AcDbEntity
  8
0
100
AcDbBlockBegin
  2
_U5
 70
     0
 10
0.0
 20
0.0
 30
0.0
  3
_U5
  1

  0
ENDBLK
  5
31E
330
315
100
AcDbEntity
  8
0
100
AcDbBlockEnd
  0
BLOCK
  5
323
330
322
100
AcDbEntity
  8
0
100
AcDbBlockBegin
  2
*D14
 70
     1
 10
0.0
 20
0.0
 30
0.0
  3
*D14
  1

  0
LINE
  5
325
330
322
100
AcDbEntity
  8
0
 62
   254
370
    -2
100
AcDbLine
 10
462.3265799999999
 20
197.578985
 30
0.0
 11
490.3664089999999
 21
197.578985
 31
0.0
  0
LINE
  5
326
330
322
100
AcDbEntity
  8
0
 62
   254
370
    -2
100
AcDbLine
 10
476.5074969999999
 20
217.578985
 30
0.0
 11
490.3664089999999
 21
217.578985
 31
0.0
  0
LINE
  5
327
330
322
100
AcDbEntity
  8
0
 62
   254
370
    -2
100
AcDbLine
 10
489.3664089999999
 20
214.078985
 30
0.0
 11
489.3664089999999
 21
196.82075
 31
0.0
  0
SOLID
  5
328
330
322
100
AcDbEntity
  8
0
 62
   254
100
AcDbTrace
 10
489.9497429999999
 20
214.078985
 30
0.0
 11
488.7830759999999
 21
214.078985
 31
0.0
 12
489.3664089999999
 22
217.578985
 32
0.0
 13
489.3664089999999
 23
217.578985
 33
0.0
  0
MTEXT
  5
329
330
322
100
AcDbEntity
  8
0
 62
   254
370
    13
100
AcDbMText
 10
484.1164089999999
 20
203.154084
 30
0.0
 40
3.5
 41
0.0
 71
     5
 72
     1
  1
\A1;40
  7
cesky
 11
0.0
 21
1.0
 31
0.0
 73
     1
 44
1.0
  0
POINT
  5
32A
330
322
100
AcDbEntity
  8
Defpoints
 62
     0
100
AcDbPoint
 10
462.3265799999999
 20
197.578985
 30
0.0
  0
POINT
  5
32B
330
322
100
AcDbEntity
  8
Defpoints
 62
     0
100
AcDbPoint
 10
476.5074969999999
 20
217.578985
 30
0.0
  0
POINT
  5
32C
330
322
100
AcDbEntity
  8
Defpoints
 62
     0
100
AcDbPoint
 10
489.3664089999999
 20
217.578985
 30
0.0
  0
ENDBLK
  5
324
330
322
100
AcDbEntity
  8
0
100
AcDbBlockEnd
  0
BLOCK
  5
333
330
32D
100
AcDbEntity
  8
0
100
AcDbBlockBegin
  2
_U6
 70
     0
 10
0.0
 20
0.0
 30
0.0
  3
_U6
  1

  0
ENDBLK
  5
334
330
32D
100
AcDbEntity
  8
0
100
AcDbBlockEnd
  0
BLOCK
  5
339
330
338
100
AcDbEntity
  8
0
100
AcDbBlockBegin
  2
*D16
 70
     1
 10
0.0
 20
0.0
 30
0.0
  3
*D16
  1

  0
LINE
  5
33B
330
338
100
AcDbEntity
  8
0
 62
    95
370
    -2
100
AcDbLine
 10
441.336817
 20
213.578985
 30
0.0
 11
403.6412439999999
 21
213.578985
 31
0.0
  0
LINE
  5
33C
330
338
100
AcDbEntity
  8
0
 62
    95
370
    -2
100
AcDbLine
 10
443.5734469999999
 20
181.578985
 30
0.0
 11
403.6412439999999
 21
181.578985
 31
0.0
  0
LINE
  5
33D
330
338
100
AcDbEntity
  8
0
 62
    95
370
    -2
100
AcDbLine
 10
404.641244
 20
210.078985
 30
0.0
 11
404.641244
 21
185.078985
 31
0.0
  0
SOLID
  5
33E
330
338
100
AcDbEntity
  8
0
 62
    95
100
AcDbTrace
 10
405.2245769999999
 20
210.078985
 30
0.0
 11
404.057911
 21
210.078985
 31
0.0
 12
404.641244
 22
213.578985
 32
0.0
 13
404.641244
 23
213.578985
 33
0.0
  0
SOLID
  5
33F
330
338
100
AcDbEntity
  8
0
 62
    95
100
AcDbTrace
 10
404.057911
 20
185.078985
 30
0.0
 11
405.2245769999999
 21
185.078985
 31
0.0
 12
404.641244
 22
181.578985
 32
0.0
 13
404.641244
 23
181.578985
 33
0.0
  0
MTEXT
  5
340
330
338
100
AcDbEntity
  8
0
 62
    95
370
    13
100
AcDbMText
 10
399.391244
 20
197.578985
 30
0.0
 40
3.5
 41
0.0
 71
     5
 72
     1
  1
\A1;32
  7
cesky
 11
0.0
 21
1.0
 31
0.0
 73
     1
 44
1.0
  0
POINT
  5
341
330
338
100
AcDbEntity
  8
Defpoints
 62
     0
100
AcDbPoint
 10
441.336817
 20
213.578985
 30
0.0
  0
POINT
  5
342
330
338
100
AcDbEntity
  8
Defpoints
 62
     0
100
AcDbPoint
 10
443.5734469999999
 20
181.578985
 30
0.0
  0
POINT
  5
343
330
338
100
AcDbEntity
  8
Defpoints
 62
     0
100
AcDbPoint
 10
404.641244
 20
181.578985
 30
0.0
  0
ENDBLK
  5
33A
330
338
100
AcDbEntity
  8
0
100
AcDbBlockEnd
  0
BLOCK
  5
34C
330
344
100
AcDbEntity
  8
0
100
AcDbBlockBegin
  2
_U7
 70
     0
 10
0.0
 20
0.0
 30
0.0
  3
_U7
  1

  0
ENDBLK
  5
34D
330
344
100
AcDbEntity
  8
0
100
AcDbBlockEnd
  0
ENDSEC
  0
SECTION
  2
ENTITIES
  0
POINT
  5
73
102
{ACAD_REACTORS
330
408
102
}
330
1F
100
AcDbEntity
  8
80
100
AcDbPoint
 10
434.5074969999999
 20
197.578985
 30
0.0
  0
POINT
  5
76
330
1F
100
AcDbEntity
  8
SK4
 60
     1
100
AcDbPoint
 10
448.137308
 20
197.578985
 30
0.0
  0
POINT
  5
78
330
1F
100
AcDbEntity
  8
SK4
 60
     1
100
AcDbPoint
 10
462.3265799999999
 20
197.578985
 30
0.0
  0
POINT
  5
79
330
1F
100
AcDbEntity
  8
4
 60
     1
100
AcDbPoint
 10
448.137308
 20
197.578985
 30
0.0
  0
POINT
  5
7A
330
1F
100
AcDbEntity
  8
4
 60
     1
100
AcDbPoint
 10
462.3265799999999
 20
197.578985
 30
0.0
  0
POINT
  5
7B
330
1F
100
AcDbEntity
  8
SK6
 60
     1
100
AcDbPoint
 10
466.4917519999999
 20
217.668369
 30
0.0
  0
POINT
  5
7C
330
1F
100
AcDbEntity
  8
SK6
 60
     1
100
AcDbPoint
 10
434.5074969999999
 20
182.578985
 30
0.0
  0
LINE
  5
7D
330
1F
100
AcDbEntity
  8
1
100
AcDbLine
 10
468.6612839999999
 20
210.901114
 30
0.0
 11
468.909777
 21
211.121923
 31
0.0
  0
LINE
  5
7F
330
1F
100
AcDbEntity
  8
1
100
AcDbLine
 10
468.3198400000001
 20
211.391759
 30
0.0
 11
468.5683329999999
 21
211.612567
 31
0.0
  0
LINE
  5
80
330
1F
100
AcDbEntity
  8
1
100
AcDbLine
 10
469.4799809999999
 20
210.920739
 30
0.0
 11
469.2277209999999
 21
210.696583
 31
0.0
  0
LINE
  5
81
330
1F
100
AcDbEntity
  8
1
100
AcDbLine
 10
468.3667349999999
 20
212.02018
 30
0.0
 11
468.620984
 21
212.246103
 31
0.0
  0
LINE
  5
82
330
1F
100
AcDbEntity
  8
1
100
AcDbLine
 10
468.485223
 20
212.635458
 30
0.0
 11
468.72744
 21
212.85069
 31
0.0
  0
LINE
  5
83
330
1F
100
AcDbEntity
  8
1
100
AcDbLine
 10
470.647457
 20
211.716764
 30
0.0
 11
470.406119
 21
211.502313
 31
0.0
  0
LINE
  5
84
330
1F
100
AcDbEntity
  8
1
100
AcDbLine
 10
470.508667
 20
211.541085
 30
0.0
 11
470.6341209999999
 21
211.652562
 31
0.0
  0
LINE
  5
85
330
1F
100
AcDbEntity
  8
1
100
AcDbLine
 10
469.5451339999999
 20
212.825911
 30
0.0
 11
469.6968169999999
 21
212.960695
 31
0.0
  0
LINE
  5
86
330
1F
100
AcDbEntity
  8
1
100
AcDbLine
 10
466.337433
 20
181.907441
 30
0.0
 11
466.3714409999999
 21
180.786229
 31
0.0
  0
LINE
  5
88
330
1F
100
AcDbEntity
  8
1
100
AcDbLine
 10
473.798618
 20
204.182932
 30
0.0
 11
474.1168449999999
 21
205.799895
 31
0.0
  0
LINE
  5
8A
330
1F
100
AcDbEntity
  8
1
100
AcDbLine
 10
474.0247769999999
 20
186.689441
 30
0.0
 11
473.76193
 21
186.976109
 31
0.0
  0
LINE
  5
8B
330
1F
100
AcDbEntity
  8
1
100
AcDbLine
 10
464.957796
 20
179.895402
 30
0.0
 11
464.9801509999999
 21
179.158382
 31
0.0
  0
LINE
  5
8C
330
1F
100
AcDbEntity
  8
1
100
AcDbLine
 10
465.363621
 20
178.799993
 30
0.0
 11
473.9925589999999
 21
178.329819
 31
0.0
  0
LINE
  5
8D
330
1F
100
AcDbEntity
  8
1
100
AcDbLine
 10
466.8032440000001
 20
207.354884
 30
0.0
 11
465.10604
 21
207.447362
 31
0.0
  0
LINE
  5
8E
330
1F
100
AcDbEntity
  8
1
100
AcDbLine
 10
474.355521
 20
186.740606
 30
0.0
 11
474.118448
 21
192.91564
 31
0.0
  0
LINE
  5
8F
330
1F
100
AcDbEntity
  8
1
100
AcDbLine
 10
474.118448
 20
192.91564
 30
0.0
 11
473.720719
 21
190.34757
 31
0.0
  0
LINE
  5
90
330
1F
100
AcDbEntity
  8
1
100
AcDbLine
 10
474.355521
 20
209.811947
 30
0.0
 11
474.118448
 21
205.812376
 31
0.0
  0
LINE
  5
91
330
1F
100
AcDbEntity
  8
1
100
AcDbLine
 10
474.355521
 20
178.647536
 30
0.0
 11
474.118448
 21
186.4634889999999
 31
0.0
  0
LINE
  5
92
330
1F
100
AcDbEntity
  8
1
100
AcDbLine
 10
473.7976869999999
 20
181.165434
 30
0.0
 11
474.355521
 21
178.647536
 31
0.0
  0
LINE
  5
93
330
1F
100
AcDbEntity
  8
1
100
AcDbLine
 10
468.024204
 20
181.66778
 30
0.0
 11
467.328625
 21
181.705681
 31
0.0
  0
LINE
  5
94
330
1F
100
AcDbEntity
  8
1
100
AcDbLine
 10
474.355521
 20
215.977751
 30
0.0
 11
474.118448
 21
207.330845
 31
0.0
  0
LINE
  5
95
330
1F
100
AcDbEntity
  8
1
100
AcDbLine
 10
465.363621
 20
216.842254
 30
0.0
 11
473.9925589999999
 21
216.37208
 31
0.0
  0
LINE
  5
96
330
1F
100
AcDbEntity
  8
1
100
AcDbLine
 10
464.743078
 20
207.841691
 30
0.0
 11
464.9801509999999
 21
216.488596
 31
0.0
  0
LINE
  5
97
330
1F
100
AcDbEntity
  8
1
100
AcDbLine
 10
474.13153
 20
186.0319439999999
 30
0.0
 11
474.343803
 21
186.661663
 31
0.0
  0
LINE
  5
98
330
1F
100
AcDbEntity
  8
1
100
AcDbLine
 10
473.734978
 20
193.129481
 30
0.0
 11
473.6655419999999
 21
193.119576
 31
0.0
  0
LINE
  5
99
330
1F
100
AcDbEntity
  8
1
100
AcDbLine
 10
468.1997919999999
 20
181.218033
 30
0.0
 11
468.1942059999999
 21
181.402181
 31
0.0
  0
LINE
  5
9A
330
1F
100
AcDbEntity
  8
1
100
AcDbLine
 10
434.5074969999999
 20
192.378985
 30
0.0
 11
434.5074969999999
 21
182.578985
 31
0.0
  0
LINE
  5
9B
330
1F
100
AcDbEntity
  8
1
100
AcDbLine
 10
434.5074969999999
 20
182.578985
 30
0.0
 11
435.507497
 21
181.578985
 31
0.0
  0
LINE
  5
9C
330
1F
100
AcDbEntity
  8
1
100
AcDbLine
 10
435.507497
 20
193.378985
 30
0.0
 11
435.507497
 21
181.578985
 31
0.0
  0
LINE
  5
9D
330
1F
100
AcDbEntity
  8
1
100
AcDbLine
 10
447.166136
 20
213.578985
 30
0.0
 11
435.507497
 21
213.578985
 31
0.0
  0
LINE
  5
9E
330
1F
100
AcDbEntity
  8
1
100
AcDbLine
 10
434.5074969999999
 20
212.578985
 30
0.0
 11
434.5074969999999
 21
202.778985
 31
0.0
  0
LINE
  5
9F
330
1F
100
AcDbEntity
  8
1
100
AcDbLine
 10
435.507497
 20
213.578985
 30
0.0
 11
434.5074969999999
 21
212.578985
 31
0.0
  0
LINE
  5
A0
330
1F
100
AcDbEntity
  8
1
100
AcDbLine
 10
435.507497
 20
213.578985
 30
0.0
 11
435.507497
 21
201.778985
 31
0.0
  0
LINE
  5
A1
330
1F
100
AcDbEntity
  8
SK3
100
AcDbLine
 10
450.6245419999999
 20
189.578985
 30
0.0
 11
450.757497
 21
205.578985
 31
0.0
  0
LINE
  5
A2
330
1F
100
AcDbEntity
  8
SK3
100
AcDbLine
 10
435.507497
 20
205.578985
 30
0.0
 11
450.757497
 21
205.578985
 31
0.0
  0
LINE
  5
A3
330
1F
100
AcDbEntity
  8
SK3
100
AcDbLine
 10
450.6245419999999
 20
189.578985
 30
0.0
 11
435.507497
 21
189.578985
 31
0.0
  0
LINE
  5
A4
330
1F
100
AcDbEntity
  8
1
100
AcDbLine
 10
473.693666
 20
194.674499
 30
0.0
 11
473.6640099999999
 21
194.670268
 31
0.0
  0
LINE
  5
A5
330
1F
100
AcDbEntity
  8
1
100
AcDbLine
 10
464.7901499999999
 20
209.558489
 30
0.0
 11
464.656848
 21
209.436037
 31
0.0
  0
LINE
  5
A6
330
1F
100
AcDbEntity
  8
1
100
AcDbLine
 10
464.0767309999999
 20
208.718817
 30
0.0
 11
464.2731719999999
 21
215.88371
 31
0.0
  0
LINE
  5
A7
330
1F
100
AcDbEntity
  8
1
100
AcDbLine
 10
473.298694
 20
216.578985
 30
0.0
 11
470.195276
 21
216.578985
 31
0.0
  0
LINE
  5
A8
330
1F
100
AcDbEntity
  8
1
100
AcDbLine
 10
464.9930679999999
 20
216.578985
 30
0.0
 11
463.2977519999999
 21
216.578985
 31
0.0
  0
LINE
  5
A9
330
1F
100
AcDbEntity
  8
1
100
AcDbLine
 10
464.790124
 20
209.557452
 30
0.0
 11
464.656848
 21
209.436037
 31
0.0
  0
LINE
  5
AA
330
1F
100
AcDbEntity
  8
1
100
AcDbLine
 10
465.446892
 20
194.620693
 30
0.0
 11
466.5258429999999
 21
196.651375
 31
0.0
  0
LINE
  5
AB
330
1F
100
AcDbEntity
  8
1
100
AcDbLine
 10
465.9343769999999
 20
194.445085
 30
0.0
 11
473.6657
 21
193.081844
 31
0.0
  0
LINE
  5
AC
330
1F
100
AcDbEntity
  8
1
100
AcDbLine
 10
466.890749
 20
193.994998
 30
0.0
 11
465.9177309999999
 21
194.350685
 31
0.0
  0
LINE
  5
AD
330
1F
100
AcDbEntity
  8
1
100
AcDbLine
 10
465.86299
 20
201.787747
 30
0.0
 11
466.841988
 21
201.615124
 31
0.0
  0
LINE
  5
AE
330
1F
100
AcDbEntity
  8
1
100
AcDbLine
 10
473.693666
 20
192.795461
 30
0.0
 11
466.890749
 21
193.994998
 31
0.0
  0
LINE
  5
AF
330
1F
100
AcDbEntity
  8
1
100
AcDbLine
 10
466.890749
 20
193.994998
 30
0.0
 11
466.7764570000001
 21
193.346817
 31
0.0
  0
LINE
  5
B0
330
1F
100
AcDbEntity
  8
1
100
AcDbLine
 10
459.525223
 20
209.589497
 30
0.0
 11
452.2513059999999
 21
214.268399
 31
0.0
  0
LINE
  5
B1
330
1F
100
AcDbEntity
  8
1
100
AcDbLine
 10
440.1074969999999
 20
194.178985
 30
0.0
 11
440.1074969999999
 21
200.978985
 31
0.0
  0
LINE
  5
B2
330
1F
100
AcDbEntity
  8
1
100
AcDbLine
 10
439.3074969999999
 20
201.778985
 30
0.0
 11
435.507497
 21
201.778985
 31
0.0
  0
LINE
  5
B3
330
1F
100
AcDbEntity
  8
1
100
AcDbLine
 10
435.507497
 20
193.378985
 30
0.0
 11
439.3074969999999
 21
193.378985
 31
0.0
  0
LINE
  5
B4
330
1F
100
AcDbEntity
  8
1
100
AcDbLine
 10
435.507497
 20
181.578985
 30
0.0
 11
447.166136
 21
181.578985
 31
0.0
  0
LINE
  5
B5
330
1F
100
AcDbEntity
  8
1
100
AcDbLine
 10
473.693666
 20
207.062067
 30
0.0
 11
466.890749
 21
207.432745
 31
0.0
  0
LINE
  5
B6
330
1F
100
AcDbEntity
  8
1
100
AcDbLine
 10
466.890749
 20
207.432745
 30
0.0
 11
466.7764570000001
 21
207.331186
 31
0.0
  0
LINE
  5
B7
330
1F
100
AcDbEntity
  8
1
100
AcDbLine
 10
473.798617
 20
184.277972
 30
0.0
 11
473.798617
 21
181.196732
 31
0.0
  0
LINE
  5
B8
330
1F
100
AcDbEntity
  8
1
100
AcDbLine
 10
473.798617
 20
205.685668
 30
0.0
 11
473.798617
 21
200.672919
 31
0.0
  0
LINE
  5
B9
330
1F
100
AcDbEntity
  8
1
100
AcDbLine
 10
468.1997919999999
 20
201.710559
 30
0.0
 11
468.1864169999999
 21
201.634705
 31
0.0
  0
LINE
  5
BA
330
1F
100
AcDbEntity
  8
1
100
AcDbLine
 10
448.137308
 20
181.483761
 30
0.0
 11
453.5850769999999
 21
180.405074
 31
0.0
  0
LINE
  5
BB
330
1F
100
AcDbEntity
  8
1
100
AcDbLine
 10
462.3265799999999
 20
216.483761
 30
0.0
 11
448.137308
 21
213.674209
 31
0.0
  0
LINE
  5
BC
330
1F
100
AcDbEntity
  8
1
100
AcDbLine
 10
466.359289
 20
200.774173
 30
0.0
 11
466.3714409999999
 21
200.843092
 31
0.0
  0
LINE
  5
BD
330
1F
100
AcDbEntity
  8
1
100
AcDbLine
 10
464.87641
 20
197.781837
 30
0.0
 11
464.656848
 21
197.65067
 31
0.0
  0
LINE
  5
BE
330
1F
100
AcDbEntity
  8
1
100
AcDbLine
 10
464.0767309999999
 20
197.277804
 30
0.0
 11
464.2731719999999
 21
198.391875
 31
0.0
  0
LINE
  5
BF
330
1F
100
AcDbEntity
  8
1
100
AcDbLine
 10
459.525223
 20
198.180039
 30
0.0
 11
452.2513059999999
 21
200.148203
 31
0.0
  0
LINE
  5
C0
330
1F
100
AcDbEntity
  8
1
100
AcDbLine
 10
473.3169329999999
 20
200.730065
 30
0.0
 11
467.328625
 21
201.785965
 31
0.0
  0
LINE
  5
C1
330
1F
100
AcDbEntity
  8
1
100
AcDbLine
 10
466.9464269999999
 20
201.797078
 30
0.0
 11
464.981423
 21
198.373673
 31
0.0
  0
LINE
  5
C2
330
1F
100
AcDbEntity
  8
1
100
AcDbLine
 10
474.355508
 20
196.720769
 30
0.0
 11
473.679883
 21
200.609788
 31
0.0
  0
LINE
  5
C3
330
1F
100
AcDbEntity
  8
1
100
AcDbLine
 10
473.734978
 20
195.380231
 30
0.0
 11
465.10604
 21
196.901746
 31
0.0
  0
LINE
  5
C4
330
1F
100
AcDbEntity
  8
1
100
AcDbLine
 10
474.355521
 20
196.717085
 30
0.0
 11
474.118448
 21
195.372576
 31
0.0
  0
LINE
  5
C5
330
1F
100
AcDbEntity
  8
1
100
AcDbLine
 10
465.363621
 20
198.36256
 30
0.0
 11
473.9925589999999
 21
196.841046
 31
0.0
  0
LINE
  5
C6
330
1F
100
AcDbEntity
  8
1
100
AcDbLine
 10
464.743078
 20
197.025706
 30
0.0
 11
464.9801509999999
 21
198.370216
 31
0.0
  0
LINE
  5
C7
330
1F
100
AcDbEntity
  8
1
100
AcDbLine
 10
469.1970289999999
 20
196.433565
 30
0.0
 11
469.254594
 21
196.760032
 31
0.0
  0
LINE
  5
C8
330
1F
100
AcDbEntity
  8
1
100
AcDbLine
 10
469.242245
 20
196.436594
 30
0.0
 11
469.2980389999999
 21
196.753017
 31
0.0
  0
LINE
  5
C9
330
1F
100
AcDbEntity
  8
1
100
AcDbLine
 10
468.6838119999999
 20
196.570769
 30
0.0
 11
468.736068
 21
196.86713
 31
0.0
  0
LINE
  5
CA
330
1F
100
AcDbEntity
  8
1
100
AcDbLine
 10
468.544904
 20
196.830563
 30
0.0
 11
468.5529769999999
 21
196.876346
 31
0.0
  0
LINE
  5
CB
330
1F
100
AcDbEntity
  8
1
100
AcDbLine
 10
470.0946839999999
 20
196.623556
 30
0.0
 11
470.0890429999999
 21
196.5915629999999
 31
0.0
  0
LINE
  5
CC
330
1F
100
AcDbEntity
  8
1
100
AcDbLine
 10
471.4857900000001
 20
196.393827
 30
0.0
 11
471.514474
 21
196.5565
 31
0.0
  0
LINE
  5
CD
330
1F
100
AcDbEntity
  8
81
100
AcDbLine
 10
472.507497
 20
217.578985
 30
0.0
 11
476.5074969999999
 21
217.578985
 31
0.0
  0
LINE
  5
CE
330
1F
100
AcDbEntity
  8
81
100
AcDbLine
 10
474.507497
 20
215.578985
 30
0.0
 11
474.507497
 21
219.578985
 31
0.0
  0
LINE
  5
CF
330
1F
100
AcDbEntity
  8
1
100
AcDbLine
 10
470.258236
 20
196.509013
 30
0.0
 11
470.227893
 21
196.336926
 31
0.0
  0
LINE
  5
D0
330
1F
100
AcDbEntity
  8
1
100
AcDbLine
 10
468.5449619999999
 20
196.825406
 30
0.0
 11
468.553948
 21
196.87637
 31
0.0
  0
LINE
  5
D1
330
1F
100
AcDbEntity
  8
80
100
AcDbLine
 10
433.5079239999999
 20
197.578985
 30
0.0
 11
435.5070709999999
 21
197.578985
 31
0.0
  0
LINE
  5
D2
330
1F
100
AcDbEntity
  8
80
100
AcDbLine
 10
434.5074969999999
 20
196.579412
 30
0.0
 11
434.5074969999999
 21
198.578559
 31
0.0
  0
LINE
  5
108
330
1F
100
AcDbEntity
  8
NOCUT
100
AcDbLine
 10
454.757497
 20
206.078985
 30
0.0
 11
450.757497
 21
206.078985
 31
0.0
  0
LINE
  5
109
330
1F
100
AcDbEntity
  8
NOCUT
100
AcDbLine
 10
448.137308
 20
213.674209
 30
0.0
 11
462.3265799999999
 21
216.483761
 31
0.0
  0
LINE
  5
10A
330
1F
100
AcDbEntity
  8
NOCUT
100
AcDbLine
 10
463.2977519999999
 20
216.578985
 30
0.0
 11
473.298694
 21
216.578985
 31
0.0
  0
LINE
  5
10B
330
1F
100
AcDbEntity
  8
NOCUT
100
AcDbLine
 10
473.798617
 20
216.070259
 30
0.0
 11
473.632337
 21
206.54408
 31
0.0
  0
LINE
  5
10C
330
1F
100
AcDbEntity
  8
NOCUT
100
AcDbLine
 10
471.6326419999999
 20
204.578985
 30
0.0
 11
460.1574969999999
 21
204.578985
 31
0.0
  0
LINE
  5
10D
330
1F
100
AcDbEntity
  8
NOCUT
100
AcDbLine
 10
459.757497
 20
204.178985
 30
0.0
 11
459.757497
 21
202.578985
 31
0.0
  0
LINE
  5
10E
330
1F
100
AcDbEntity
  8
NOCUT
100
AcDbLine
 10
459.757497
 20
202.578985
 30
0.0
 11
459.257497
 21
202.078985
 31
0.0
  0
LINE
  5
10F
330
1F
100
AcDbEntity
  8
NOCUT
100
AcDbLine
 10
459.257497
 20
202.078985
 30
0.0
 11
455.257497
 21
202.078985
 31
0.0
  0
LINE
  5
110
330
1F
100
AcDbEntity
  8
NOCUT
100
AcDbLine
 10
455.257497
 20
202.078985
 30
0.0
 11
454.757497
 21
202.578985
 31
0.0
  0
LINE
  5
111
330
1F
100
AcDbEntity
  8
NOCUT
100
AcDbLine
 10
454.757497
 20
202.578985
 30
0.0
 11
454.757497
 21
206.078985
 31
0.0
  0
LINE
  5
112
330
1F
100
AcDbEntity
  8
NOCUT
100
AcDbLine
 10
450.757497
 20
206.078985
 30
0.0
 11
450.757497
 21
205.578985
 31
0.0
  0
LINE
  5
113
330
1F
100
AcDbEntity
  8
NOCUT
100
AcDbLine
 10
450.757497
 20
205.578985
 30
0.0
 11
435.507497
 21
205.578985
 31
0.0
  0
LINE
  5
114
330
1F
100
AcDbEntity
  8
NOCUT
100
AcDbLine
 10
435.507497
 20
205.578985
 30
0.0
 11
434.5074969999999
 21
206.578985
 31
0.0
  0
LINE
  5
115
330
1F
100
AcDbEntity
  8
NOCUT
100
AcDbLine
 10
434.5074969999999
 20
206.578985
 30
0.0
 11
434.5074969999999
 21
212.578985
 31
0.0
  0
LINE
  5
116
330
1F
100
AcDbEntity
  8
NOCUT
100
AcDbLine
 10
434.5074969999999
 20
212.578985
 30
0.0
 11
435.507497
 21
213.578985
 31
0.0
  0
LINE
  5
117
330
1F
100
AcDbEntity
  8
NOCUT
100
AcDbLine
 10
435.507497
 20
213.578985
 30
0.0
 11
447.166136
 21
213.578985
 31
0.0
  0
ARC
  5
120
330
1F
100
AcDbEntity
  8
1
100
AcDbCircle
 10
473.298694
 20
216.078985
 30
0.0
 40
0.5
100
AcDbArc
 50
38.24437899999999
 51
90.0
  0
ARC
  5
121
330
1F
100
AcDbEntity
  8
1
100
AcDbCircle
 10
463.2977519999999
 20
211.578985
 30
0.0
 40
5.0
100
AcDbArc
 50
90.0
 51
101.2
  0
ARC
  5
122
330
1F
100
AcDbEntity
  8
1
100
AcDbCircle
 10
447.166136
 20
218.578985
 30
0.0
 40
5.0
100
AcDbArc
 50
270.0
 51
281.2
  0
ARC
  5
123
330
1F
100
AcDbEntity
  8
1
100
AcDbCircle
 10
447.166136
 20
176.578985
 30
0.0
 40
5.0
100
AcDbArc
 50
78.79999999999999
 51
90.0
  0
ARC
  5
124
330
1F
100
AcDbEntity
  8
1
100
AcDbCircle
 10
470.19602
 20
201.172594
 30
0.0
 40
5.0
100
AcDbArc
 50
236.743336
 51
242.872717
  0
ARC
  5
125
330
1F
100
AcDbEntity
  8
1
100
AcDbCircle
 10
470.19602
 20
201.172594
 30
0.0
 40
5.0
100
AcDbArc
 50
277.127283
 51
283.256664
  0
ARC
  5
150
330
1F
100
AcDbEntity
  8
NOCUT
100
AcDbCircle
 10
463.2977519999999
 20
211.578985
 30
0.0
 40
5.0
100
AcDbArc
 50
90.0
 51
101.2
  0
ARC
  5
151
330
1F
100
AcDbEntity
  8
NOCUT
100
AcDbCircle
 10
473.298694
 20
216.078985
 30
0.0
 40
0.5
100
AcDbArc
 50
359.0
 51
90.0
  0
ARC
  5
152
330
1F
100
AcDbEntity
  8
NOCUT
100
AcDbCircle
 10
471.6326419999999
 20
206.578985
 30
0.0
 40
2.0
100
AcDbArc
 50
270.0
 51
359.0
  0
ARC
  5
153
330
1F
100
AcDbEntity
  8
NOCUT
100
AcDbCircle
 10
460.1574969999999
 20
204.178985
 30
0.0
 40
0.4
100
AcDbArc
 50
90.0
 51
180.0
  0
ARC
  5
154
330
1F
100
AcDbEntity
  8
NOCUT
100
AcDbCircle
 10
447.166136
 20
218.578985
 30
0.0
 40
5.0
100
AcDbArc
 50
270.0
 51
281.2
  0
ELLIPSE
  5
155
330
1F
100
AcDbEntity
  8
1
100
AcDbEllipse
 10
470.484202
 20
185.652315
 30
0.0
 11
1.027510611216476
 21
-0.3927110182278316
 31
0.0
210
0.0
220
0.0
230
1.0
 40
0.8770190000000001
 41
0.8006849925914494
 42
2.358227553915332
  0
ELLIPSE
  5
156
330
1F
100
AcDbEntity
  8
1
100
AcDbEllipse
 10
469.0999769999999
 20
210.659981
 30
0.0
 11
-0.0663612756009546
 21
0.0746815325420286
 31
0.0
210
0.0
220
0.0
230
1.0
 40
0.973318
 41
2.432739040217541
 42
3.805272968226636
  0
ELLIPSE
  5
157
330
1F
100
AcDbEntity
  8
1
100
AcDbEllipse
 10
469.086019
 20
211.110713
 30
0.0
 11
-0.3692972529965406
 21
0.4155990759307555
 31
0.0
210
0.0
220
0.0
230
1.0
 40
0.973318
 41
1.512615467047694
 42
2.432739040217551
  0
ELLIPSE
  5
158
330
1F
100
AcDbEntity
  8
1
100
AcDbEllipse
 10
468.737144
 20
210.836183
 30
0.0
 11
-0.0663612756009545
 21
0.0746815325420285
 31
0.0
210
0.0
220
0.0
230
1.0
 40
0.973318
 41
0.140081539038656
 42
1.512615467047624
  0
ELLIPSE
  5
159
330
1F
100
AcDbEntity
  8
1
100
AcDbEllipse
 10
468.585424
 20
210.966046
 30
0.0
 11
-0.0663612756009545
 21
0.0746815325420285
 31
0.0
210
0.0
220
0.0
230
0.9999999999999998
 40
0.973318
 41
3.281674192628323
 42
4.130609345039158
  0
ELLIPSE
  5
15A
330
1F
100
AcDbEntity
  8
1
100
AcDbEllipse
 10
468.1417249999999
 20
210.907039
 30
0.0
 11
-0.3692972529965404
 21
0.4155990759307553
 31
0.0
210
0.0
220
0.0
230
1.0
 40
0.973318
 41
4.130609345039185
 42
5.050732918209016
  0
ELLIPSE
  5
15B
330
1F
100
AcDbEntity
  8
1
100
AcDbEllipse
 10
469.3864269999999
 20
211.761247
 30
0.0
 11
1.095994498387584
 21
-1.233408310132595
 31
0.0
210
0.0
220
0.0
230
1.0
 40
0.973318
 41
0.0
 42
6.283185307179585
  0
ELLIPSE
  5
15C
330
1F
100
AcDbEntity
  8
1
100
AcDbEllipse
 10
469.417694
 20
211.78903
 30
0.0
 11
1.394902088856926
 21
-1.569792394714212
 31
0.0
210
0.0
220
0.0
230
1.0
 40
0.973318
 41
0.0
 42
6.283185307179585
  0
ELLIPSE
  5
15D
330
1F
100
AcDbEntity
  8
1
100
AcDbEllipse
 10
474.784657
 20
197.578986
 30
0.0
 11
-109.1193181639641
 21
8.866305449471836
 31
0.0
210
0.0
220
0.0
230
0.9999999999999998
 40
0.154
 41
1.522931220063917
 42
1.56969158341275
  0
ELLIPSE
  5
15E
330
1F
100
AcDbEntity
  8
1
100
AcDbEllipse
 10
473.7038379999999
 20
205.772792
 30
0.0
 11
-0.413976235192258
 21
-0.0564832752935687
 31
0.0
210
0.0
220
0.0
230
1.0
 40
0.4527350000000001
 41
1.584251689437889
 42
3.052499324311181
  0
ELLIPSE
  5
15F
330
1F
100
AcDbEntity
  8
1
100
AcDbEllipse
 10
465.1600259999999
 20
207.861687
 30
0.0
 11
-0.3154153170352884
 21
-0.2943902518437651
 31
0.0
210
0.0
220
0.0
230
0.9999999999999996
 40
0.927087
 41
5.542635491293305
 42
7.010883126165727
  0
ELLIPSE
  5
160
330
1F
100
AcDbEntity
  8
1
100
AcDbEllipse
 10
468.354181
 20
211.298334
 30
0.0
 11
-0.0663612756009545
 21
0.0746815325420285
 31
0.0
210
0.0
220
0.0
230
0.9999999999999998
 40
0.973318
 41
5.050732918209014
 42
5.899668070619786
  0
ELLIPSE
  5
161
330
1F
100
AcDbEntity
  8
1
100
AcDbEllipse
 10
468.285499
 20
211.485184
 30
0.0
 11
-0.0663612756009546
 21
0.0746815325420286
 31
0.0
210
0.0
220
0.0
230
1.0
 40
0.973318
 41
1.385541489021014
 42
2.758075417030068
  0
ELLIPSE
  5
162
330
1F
100
AcDbEntity
  8
1
100
AcDbEllipse
 10
468.667442
 20
211.712196
 30
0.0
 11
-0.3692972529965406
 21
0.4155990759307555
 31
0.0
210
0.0
220
0.0
230
1.0
 40
0.973318
 41
0.4654179158510833
 42
1.385541489020948
  0
ELLIPSE
  5
163
330
1F
100
AcDbEntity
  8
1
100
AcDbEllipse
 10
468.247808
 20
211.884523
 30
0.0
 11
-0.0663612756009545
 21
0.0746815325420285
 31
0.0
210
0.0
220
0.0
230
1.0
 40
0.973318
 41
5.376069295021581
 42
6.748603223030603
  0
ELLIPSE
  5
164
330
1F
100
AcDbEntity
  8
1
100
AcDbEllipse
 10
468.280567
 20
212.078293
 30
0.0
 11
-0.0663612756009545
 21
0.0746815325420285
 31
0.0
210
0.0
220
0.0
230
0.9999999999999998
 40
0.973318
 41
2.234476641431731
 42
3.083411793842648
  0
ELLIPSE
  5
165
330
1F
100
AcDbEntity
  8
1
100
AcDbEllipse
 10
467.9974379999999
 20
212.435779
 30
0.0
 11
-0.3692972529965404
 21
0.4155990759307553
 31
0.0
210
0.0
220
0.0
230
1.0
 40
0.973318
 41
3.083411793842601
 42
4.003535367012443
  0
ELLIPSE
  5
166
330
1F
100
AcDbEntity
  8
1
100
AcDbEllipse
 10
468.4465269999999
 20
212.43768
 30
0.0
 11
-0.0663612756009545
 21
0.0746815325420285
 31
0.0
210
0.0
220
0.0
230
0.9999999999999998
 40
0.973318
 41
4.003535367012446
 42
4.852470519423264
  0
ELLIPSE
  5
167
330
1F
100
AcDbEntity
  8
1
100
AcDbEllipse
 10
468.571949
 20
212.58645
 30
0.0
 11
-0.0663612756009546
 21
0.0746815325420286
 31
0.0
210
0.0
220
0.0
230
1.0
 40
0.973318
 41
0.3383439378243512
 42
1.710877865833404
  0
ELLIPSE
  5
168
330
1F
100
AcDbEntity
  8
1
100
AcDbEllipse
 10
468.96785
 20
212.36273
 30
0.0
 11
-0.3692972529965406
 21
0.4155990759307555
 31
0.0
210
0.0
220
0.0
230
1.0
 40
0.973318
 41
5.70140567183407
 42
6.621529245003928
  0
ELLIPSE
  5
169
330
1F
100
AcDbEntity
  8
1
100
AcDbEllipse
 10
468.897091
 20
212.809587
 30
0.0
 11
-0.0663612756009545
 21
0.0746815325420285
 31
0.0
210
0.0
220
0.0
230
1.0
 40
0.973318
 41
4.328871743824982
 42
5.701405671834059
  0
ELLIPSE
  5
16A
330
1F
100
AcDbEntity
  8
1
100
AcDbEllipse
 10
469.0815699999999
 20
212.873494
 30
0.0
 11
-0.0663612756009545
 21
0.0746815325420285
 31
0.0
210
0.0
220
0.0
230
0.9999999999999998
 40
0.973318
 41
1.187279090235163
 42
2.036214242646076
  0
ELLIPSE
  5
16B
330
1F
100
AcDbEntity
  8
1
100
AcDbEllipse
 10
469.24214
 20
213.289987
 30
0.0
 11
-0.3692972529965404
 21
0.4155990759307553
 31
0.0
210
0.0
220
0.0
230
1.0
 40
0.973318
 41
2.036214242645988
 42
2.956337815815834
  0
ELLIPSE
  5
16C
330
1F
100
AcDbEntity
  8
1
100
AcDbEllipse
 10
469.478773
 20
212.900592
 30
0.0
 11
-0.0663612756009545
 21
0.0746815325420285
 31
0.0
210
0.0
220
0.0
230
0.9999999999999998
 40
0.973318
 41
2.956337815815836
 42
3.805272968226611
  0
ELLIPSE
  5
16D
330
1F
100
AcDbEntity
  8
1
100
AcDbEllipse
 10
469.6728779999999
 20
212.862513
 30
0.0
 11
-0.0663612756009546
 21
0.0746815325420286
 31
0.0
210
0.0
220
0.0
230
1.0
 40
0.973318
 41
5.574331693807332
 42
6.946865621816463
  0
ELLIPSE
  5
16E
330
1F
100
AcDbEntity
  8
1
100
AcDbEllipse
 10
469.6868349999999
 20
212.41178
 30
0.0
 11
-0.3692972529965406
 21
0.4155990759307555
 31
0.0
210
0.0
220
0.0
230
1.0
 40
0.973318
 41
4.654208120637478
 42
5.574331693807322
  0
ELLIPSE
  5
16F
330
1F
100
AcDbEntity
  8
1
100
AcDbEllipse
 10
470.0357099999999
 20
212.686311
 30
0.0
 11
-0.0663612756009545
 21
0.0746815325420285
 31
0.0
210
0.0
220
0.0
230
1.0
 40
0.973318
 41
3.281674192628451
 42
4.654208120637421
  0
ELLIPSE
  5
170
330
1F
100
AcDbEntity
  8
1
100
AcDbEllipse
 10
470.187431
 20
212.556448
 30
0.0
 11
-0.0663612756009545
 21
0.0746815325420285
 31
0.0
210
0.0
220
0.0
230
0.9999999999999998
 40
0.973318
 41
0.1400815390385312
 42
0.9890166914494209
  0
ELLIPSE
  5
171
330
1F
100
AcDbEntity
  8
1
100
AcDbEllipse
 10
470.63113
 20
212.615455
 30
0.0
 11
-0.3692972529965404
 21
0.4155990759307553
 31
0.0
210
0.0
220
0.0
230
1.0
 40
0.973318
 41
0.9890166914493857
 42
1.909140264619225
  0
ELLIPSE
  5
172
330
1F
100
AcDbEntity
  8
1
100
AcDbEllipse
 10
470.418673
 20
212.224159
 30
0.0
 11
-0.0663612756009545
 21
0.0746815325420285
 31
0.0
210
0.0
220
0.0
230
0.9999999999999998
 40
0.973318
 41
1.909140264619246
 42
2.758075417030116
  0
ELLIPSE
  5
173
330
1F
100
AcDbEntity
  8
1
100
AcDbEllipse
 10
470.487356
 20
212.037309
 30
0.0
 11
-0.0663612756009546
 21
0.0746815325420286
 31
0.0
210
0.0
220
0.0
230
1.0
 40
0.973318
 41
4.527134142610785
 42
5.899668070619781
  0
ELLIPSE
  5
174
330
1F
100
AcDbEntity
  8
1
100
AcDbEllipse
 10
470.105413
 20
211.810297
 30
0.0
 11
-0.3692972529965406
 21
0.4155990759307555
 31
0.0
210
0.0
220
0.0
230
1.0
 40
0.973318
 41
3.607010569440881
 42
4.527134142610728
  0
ELLIPSE
  5
175
330
1F
100
AcDbEntity
  8
1
100
AcDbEllipse
 10
470.525047
 20
211.637971
 30
0.0
 11
-0.0663612756009545
 21
0.0746815325420285
 31
0.0
210
0.0
220
0.0
230
1.0
 40
0.973318
 41
2.234476641431804
 42
3.607010569440875
  0
ELLIPSE
  5
176
330
1F
100
AcDbEntity
  8
1
100
AcDbEllipse
 10
470.4922879999999
 20
211.4442
 30
0.0
 11
-0.0663612756009545
 21
0.0746815325420285
 31
0.0
210
0.0
220
0.0
230
0.9999999999999998
 40
0.973318
 41
5.376069295021511
 42
6.225004447432291
  0
ELLIPSE
  5
177
330
1F
100
AcDbEntity
  8
1
100
AcDbEllipse
 10
470.775416
 20
211.086714
 30
0.0
 11
-0.3692972529965404
 21
0.4155990759307553
 31
0.0
210
0.0
220
0.0
230
1.0
 40
0.973318
 41
6.225004447432382
 42
7.145128020602228
  0
ELLIPSE
  5
178
330
1F
100
AcDbEntity
  8
1
100
AcDbEllipse
 10
470.326328
 20
211.084814
 30
0.0
 11
-0.0663612756009545
 21
0.0746815325420285
 31
0.0
210
0.0
220
0.0
230
0.9999999999999998
 40
0.973318
 41
0.8619427134226327
 42
1.710877865833446
  0
ELLIPSE
  5
179
330
1F
100
AcDbEntity
  8
1
100
AcDbEllipse
 10
470.200905
 20
210.936043
 30
0.0
 11
-0.0663612756009546
 21
0.0746815325420286
 31
0.0
210
0.0
220
0.0
230
1.0
 40
0.973318
 41
3.479936591414194
 42
4.852470519423134
  0
ELLIPSE
  5
17A
330
1F
100
AcDbEntity
  8
1
100
AcDbEllipse
 10
469.805004
 20
211.159764
 30
0.0
 11
-0.3692972529965406
 21
0.4155990759307555
 31
0.0
210
0.0
220
0.0
230
1.0
 40
0.973318
 41
2.559813018244295
 42
3.479936591414133
  0
ELLIPSE
  5
17B
330
1F
100
AcDbEntity
  8
1
100
AcDbEllipse
 10
469.8757639999999
 20
210.712907
 30
0.0
 11
-0.0663612756009545
 21
0.0746815325420285
 31
0.0
210
0.0
220
0.0
230
1.0
 40
0.973318
 41
1.187279090235157
 42
2.559813018244256
  0
ELLIPSE
  5
17C
330
1F
100
AcDbEntity
  8
1
100
AcDbEllipse
 10
469.691284
 20
210.648999
 30
0.0
 11
-0.0663612756009545
 21
0.0746815325420285
 31
0.0
210
0.0
220
0.0
230
0.9999999999999998
 40
0.973318
 41
4.328871743824923
 42
5.177806896235789
  0
ELLIPSE
  5
17D
330
1F
100
AcDbEntity
  8
1
100
AcDbEllipse
 10
469.5307139999999
 20
210.232506
 30
0.0
 11
-0.3692972529965404
 21
0.4155990759307553
 31
0.0
210
0.0
220
0.0
230
1.0
 40
0.973318
 41
5.177806896235781
 42
6.097930469405643
  0
ELLIPSE
  5
17E
330
1F
100
AcDbEntity
  8
1
100
AcDbEllipse
 10
469.294082
 20
210.621901
 30
0.0
 11
-0.0663612756009545
 21
0.0746815325420285
 31
0.0
210
0.0
220
0.0
230
0.9999999999999998
 40
0.973318
 41
6.097930469405547
 42
6.946865621816472
  0
ELLIPSE
  5
17F
330
1F
100
AcDbEntity
  8
1
100
AcDbEllipse
 10
473.7038379999999
 20
192.82587
 30
0.0
 11
-0.4020022932437048
 21
-0.1525526209068654
 31
0.0
210
0.0
220
0.0
230
1.0
 40
0.6692770000000001
 41
2.920273059304541
 42
4.388520694176802
  0
ELLIPSE
  5
180
330
1F
100
AcDbEntity
  8
1
100
AcDbEllipse
 10
473.938573
 20
209.732908
 30
0.0
 11
-0.4146629953801793
 21
-0.1042061124689364
 31
0.0
210
0.0
220
0.0
230
1.0
 40
0.432334
 41
3.006123768692463
 42
3.957616289536486
  0
ELLIPSE
  5
181
330
1F
100
AcDbEntity
  8
1
100
AcDbEllipse
 10
473.938573
 20
178.708744
 30
0.0
 11
-0.3732387432601315
 21
0.2303090177079026
 31
0.0
210
0.0
220
0.0
230
1.0
 40
0.8084489999999998
 41
2.163325253257391
 42
3.631572888128898
  0
ELLIPSE
  5
182
330
1F
100
AcDbEntity
  8
1
100
AcDbEllipse
 10
465.394761
 20
179.17428
 30
0.0
 11
-0.4138456892605711
 21
-0.0305683635082741
 31
0.0
210
0.0
220
0.0
230
0.9999999999999998
 40
0.9030329999999999
 41
6.243982273631525
 42
7.712229908503937
  0
ELLIPSE
  5
183
330
1F
100
AcDbEntity
  8
1
100
AcDbEllipse
 10
473.7038379999999
 20
186.447591
 30
0.0
 11
-0.4138456892606648
 21
-0.0305683635089285
 31
0.0
210
0.0
220
0.0
230
1.0
 40
0.9030329999999999
 41
3.102389620040361
 42
3.761013856418573
  0
ELLIPSE
  5
184
330
1F
100
AcDbEntity
  8
1
100
AcDbEllipse
 10
467.3597639999999
 20
182.079968
 30
0.0
 11
-0.4138456892604819
 21
-0.0305683635076316
 31
0.0
210
0.0
220
0.0
230
0.9999999999999998
 40
0.9030329999999999
 41
6.243982273632812
 42
7.712229908505596
  0
ELLIPSE
  5
185
330
1F
100
AcDbEntity
  8
1
100
AcDbEllipse
 10
473.7038379999999
 20
207.396152
 30
0.0
 11
-0.2991279028594222
 21
0.3271295133497729
 31
0.0
210
0.0
220
0.0
230
1.0
 40
0.8783059999999998
 41
2.411211069510875
 42
3.879458704383643
  0
ELLIPSE
  5
186
330
1F
100
AcDbEntity
  8
1
100
AcDbEllipse
 10
465.394761
 20
216.42329
 30
0.0
 11
-0.2991279028598001
 21
0.3271295133503209
 31
0.0
210
0.0
220
0.0
230
1.0
 40
0.8783059999999998
 41
5.552803723101431
 42
7.021051357973044
  0
ELLIPSE
  5
187
330
1F
100
AcDbEntity
  8
1
100
AcDbEllipse
 10
473.938573
 20
215.957754
 30
0.0
 11
-0.3154153170351464
 21
-0.2943902518432914
 31
0.0
210
0.0
220
0.0
230
0.9999999999999998
 40
0.927087
 41
2.401042837703679
 42
3.869290472576849
  0
ELLIPSE
  5
188
330
1F
100
AcDbEntity
  8
1
100
AcDbEllipse
 10
473.938573
 20
186.711753
 30
0.0
 11
-0.4160564173878754
 21
-0.0417301169034849
 31
0.0
210
0.0
220
0.0
230
1.0
 40
0.7076850000000001
 41
2.83153823748044
 42
3.09797777193562
  0
ELLIPSE
  5
189
330
1F
100
AcDbEntity
  8
1
100
AcDbEllipse
 10
451.6397019999999
 20
197.579057
 30
0.0
 11
-109.126401706433
 21
3.029021401707927
 31
0.0
210
0.0
220
0.0
230
1.0
 40
0.171883
 41
4.601131898302976
 42
4.610126153086495
  0
ELLIPSE
  5
18A
330
1F
100
AcDbEntity
  8
1
100
AcDbEllipse
 10
468.13174
 20
197.578984
 30
0.0
 11
-39.28894189460097
 21
-4.214110349719576
 31
0.0
210
0.0
220
0.0
230
0.9999999999999996
 40
0.4715520000000001
 41
4.742414984585626
 42
4.760096264445907
  0
ELLIPSE
  5
18B
330
1F
100
AcDbEntity
  8
1
100
AcDbEllipse
 10
464.6835809999999
 20
217.86764
 30
0.0
 11
6.642390899318697
 21
-7.475201879591491
 31
0.0
210
0.0
220
0.0
230
0.9999999999999998
 40
0.973318
 41
4.992195428474075
 42
5.467820388166148
  0
ELLIPSE
  5
18C
330
1F
100
AcDbEntity
  8
1
100
AcDbEllipse
 10
466.137398
 20
208.823382
 30
0.0
 11
-2.159469055310662
 21
-1.175235460416333
 31
0.0
210
0.0
220
0.0
230
1.0
 40
0.5555399999999999
 41
5.134652305262065
 42
5.570379368366757
  0
ELLIPSE
  5
18D
330
1F
100
AcDbEntity
  8
1
100
AcDbEllipse
 10
465.452224
 20
208.199185
 30
0.0
 11
-1.143380524432916
 21
-1.067164662807825
 31
0.0
210
0.0
220
0.0
230
0.9999999999999998
 40
0.927087
 41
5.141690045177071
 42
5.603033065942325
  0
ELLIPSE
  5
18E
330
1F
100
AcDbEntity
  8
1
100
AcDbEllipse
 10
466.191128
 20
195.901195
 30
0.0
 11
-1.477211629518313
 21
0.2604722665003945
 31
0.0
210
0.0
220
0.0
230
1.0
 40
0.985715
 41
1.223473044724383
 42
1.570796326794897
  0
ELLIPSE
  5
18F
330
1F
100
AcDbEntity
  8
1
100
AcDbEllipse
 10
466.1892969999999
 20
195.890813
 30
0.0
 11
-0.7283120390204854
 21
1.508184512663865
 31
0.0
210
0.0
220
0.0
230
1.0
 40
0.8362860000000001
 41
2.08328255902921
 42
2.430369921989436
  0
ELLIPSE
  5
190
330
1F
100
AcDbEntity
  8
1
100
AcDbEllipse
 10
451.639717
 20
197.578891
 30
0.0
 11
-109.1190252274102
 21
8.86627060998189
 31
0.0
210
0.0
220
0.0
230
0.9999999999999998
 40
0.154
 41
1.69034234083659
 42
1.69933660182949
  0
ELLIPSE
  5
191
330
1F
100
AcDbEntity
  8
1
100
AcDbEllipse
 10
468.13174
 20
197.578984
 30
0.0
 11
-39.118852581314
 21
-10.1099260445293
 31
0.0
210
0.0
220
0.0
230
0.9999999999999998
 40
0.411232
 41
1.366671808576432
 42
1.392842074955917
  0
ELLIPSE
  5
192
330
1F
100
AcDbEntity
  8
1
100
AcDbEllipse
 10
465.6656289999999
 20
197.578985
 30
0.0
 11
-5.434234763507114
 21
-18.82915316623346
 31
0.0
210
0.0
220
0.0
230
1.0
 40
0.46782
 41
0.5173309530732514
 42
0.6210154921109583
  0
ELLIPSE
  5
193
330
1F
100
AcDbEntity
  8
1
100
AcDbEllipse
 10
471.088275
 20
187.232845
 30
0.0
 11
-0.6259701172709658
 21
-1.132160260180854
 31
0.0
210
0.0
220
0.0
230
0.9999999999999998
 40
0.949412
 41
0.0
 42
6.283185307179585
  0
ELLIPSE
  5
194
330
1F
100
AcDbEntity
  8
1
100
AcDbEllipse
 10
464.8102429999999
 20
194.412057
 30
0.0
 11
-1.705321004886785
 21
1.605217452143196
 31
0.0
210
0.0
220
0.0
230
1.0
 40
0.6350540000000001
 41
1.548643957985805
 42
3.536365906927224
  0
ELLIPSE
  5
195
330
1F
100
AcDbEntity
  8
1
100
AcDbEllipse
 10
867.3311679999999
 20
197.578987
 30
0.0
 11
-701.9686727772879
 21
2.918645559351256
 31
0.0
210
0.0
220
0.0
230
1.0
 40
0.026745
 41
0.9576042456325795
 42
0.9749217329629265
  0
ELLIPSE
  5
196
330
1F
100
AcDbEntity
  8
1
100
AcDbEllipse
 10
460.4683539999999
 20
208.449449
 30
0.0
 11
-1.925162095405264
 21
1.208651997539903
 31
0.0
210
0.0
220
0.0
230
1.0
 40
0.194131
 41
5.398855226739213
 42
7.054433528846324
  0
ELLIPSE
  5
197
330
1F
100
AcDbEntity
  8
1
100
AcDbEllipse
 10
460.4683539999999
 20
195.85589
 30
0.0
 11
-1.115667435393495
 21
1.735500587646221
 31
0.0
210
0.0
220
0.0
230
1.0
 40
0.9140739999999999
 41
6.235446365656563
 42
7.891024667763653
  0
ELLIPSE
  5
198
330
1F
100
AcDbEntity
  8
1
100
AcDbEllipse
 10
471.088275
 20
206.232824
 30
0.0
 11
-1.243866979042508
 21
0.0240003171361388
 31
0.0
210
0.0
220
0.0
230
1.0
 40
0.165567
 41
0.0
 42
6.283185307179585
  0
ELLIPSE
  5
199
330
1F
100
AcDbEntity
  8
1
100
AcDbEllipse
 10
464.8102429999999
 20
207.554205
 30
0.0
 11
-1.986603353519275
 21
0.1881100352729624
 31
0.0
210
0.0
220
0.0
230
0.9999999999999998
 40
0.141074
 41
1.023218485897108
 42
3.010940434838334
  0
ELLIPSE
  5
19A
330
1F
100
AcDbEntity
  8
1
100
AcDbEllipse
 10
466.799184
 20
200.965781
 30
0.0
 11
1.231009691265259
 21
-0.2170602220836614
 31
0.0
210
0.0
220
0.0
230
1.0
 40
0.987786
 41
0.8163243168460326
 42
2.590137641176318
  0
ELLIPSE
  5
19B
330
1F
100
AcDbEntity
  8
1
100
AcDbEllipse
 10
493.9412089999999
 20
197.13402
 30
0.0
 11
-41.77751784101963
 21
1.994791883270113
 31
0.0
210
0.0
220
0.0
230
1.0
 40
0.5669420000000001
 41
6.240054854697866
 42
6.821883243419326
  0
ELLIPSE
  5
19C
330
1F
100
AcDbEntity
  8
1
100
AcDbEllipse
 10
493.9412089999999
 20
189.582685
 30
0.0
 11
-41.70643092426275
 21
24.65941011781583
 31
0.0
210
0.0
220
0.0
230
1.0
 40
0.108917
 41
6.277300529204169
 42
6.859128917925804
  0
ELLIPSE
  5
19D
330
1F
100
AcDbEntity
  8
1
100
AcDbEllipse
 10
493.9412089999999
 20
205.300282
 30
0.0
 11
-41.62645809766988
 21
-24.14876186387737
 31
0.0
210
0.0
220
0.0
230
1.0
 40
0.154265
 41
6.123734955741266
 42
6.70556334446273
  0
ELLIPSE
  5
19E
330
1F
100
AcDbEntity
  8
1
100
AcDbEllipse
 10
474.784656
 20
197.578985
 30
0.0
 11
-109.1267023120894
 21
18.77449048969539
 31
0.0
210
0.0
220
0.0
230
1.0
 40
0.026745
 41
4.73060745666971
 42
4.777367821312219
  0
ELLIPSE
  5
19F
330
1F
100
AcDbEntity
  8
1
100
AcDbEllipse
 10
867.331391
 20
197.578979
 30
0.0
 11
-701.9689317110324
 21
18.75753302333768
 31
0.0
210
0.0
220
0.0
230
1.0
 40
0.00431
 41
0.9576080948492691
 42
0.9749255773434358
  0
ELLIPSE
  5
1A0
330
1F
100
AcDbEntity
  8
1
100
AcDbEllipse
 10
465.6656289999999
 20
197.578985
 30
0.0
 11
-10.31644238357972
 21
-18.99461063551679
 31
0.0
210
0.0
220
0.0
230
1.0
 40
0.043863
 41
4.563556040876153
 42
4.667240579898865
  0
ELLIPSE
  5
1A1
330
1F
100
AcDbEntity
  8
1
100
AcDbEllipse
 10
468.13174
 20
197.578985
 30
0.0
 11
-39.32535465054364
 21
-18.87550035104858
 31
0.0
210
0.0
220
0.0
230
1.0
 40
0.05522
 41
4.757963111498471
 42
4.784133375859563
  0
ELLIPSE
  5
1A2
330
1F
100
AcDbEntity
  8
1
100
AcDbEllipse
 10
466.137398
 20
198.253637
 30
0.0
 11
-2.25433291704197
 21
-1.17031227356337
 31
0.0
210
0.0
220
0.0
230
1.0
 40
0.074275
 41
5.389713037221138
 42
5.825440100330737
  0
ELLIPSE
  5
1A3
330
1F
100
AcDbEntity
  8
1
100
AcDbEllipse
 10
465.452224
 20
196.96408
 30
0.0
 11
-1.511537321822996
 21
0.2411268153905504
 31
0.0
210
0.0
220
0.0
230
0.9999999999999998
 40
0.154955
 41
5.879707426728961
 42
6.341050447504513
  0
ELLIPSE
  5
1A4
330
1F
100
AcDbEntity
  8
1
100
AcDbEllipse
 10
451.639482
 20
197.578972
 30
0.0
 11
-109.1274835768645
 21
18.77462039872378
 31
0.0
210
0.0
220
0.0
230
0.9999999999999996
 40
0.026746
 41
4.600961404120627
 42
4.609955577888431
  0
ELLIPSE
  5
1A5
330
1F
100
AcDbEntity
  8
1
100
AcDbEllipse
 10
464.6835809999999
 20
198.640688
 30
0.0
 11
9.848077530122083
 21
-1.736481776669291
 31
0.0
210
0.0
220
0.0
230
1.0
 40
0.155814
 41
4.188790204786389
 42
4.664415164478454
  0
ELLIPSE
  5
1A6
330
1F
100
AcDbEntity
  8
1
100
AcDbEllipse
 10
467.3597639999999
 20
201.713676
 30
0.0
 11
-0.4145795021581929
 21
0.0801078958225505
 31
0.0
210
0.0
220
0.0
230
1.0
 40
0.154955
 41
4.817470106498851
 42
6.285717741370533
  0
ELLIPSE
  5
1A7
330
1F
100
AcDbEntity
  8
1
100
AcDbEllipse
 10
473.262947
 20
200.672786
 30
0.0
 11
-0.4169758129176106
 21
0.0665177421768702
 31
0.0
210
0.0
220
0.0
230
1.0
 40
0.154955
 41
3.139060219398821
 42
4.607307854271114
  0
ELLIPSE
  5
1A8
330
1F
100
AcDbEntity
  8
1
100
AcDbEllipse
 10
469.5492999999999
 20
196.871396
 30
0.0
 11
-1.969615506024416
 21
0.3472963553338593
 31
0.0
210
0.0
220
0.0
230
1.0
 40
0.155814
 41
3.141592113864833
 42
6.283185307179585
  0
ELLIPSE
  5
1A9
330
1F
100
AcDbEntity
  8
1
100
AcDbEllipse
 10
473.7038379999999
 20
195.452521
 30
0.0
 11
-0.4145795021579414
 21
0.0801078958224705
 31
0.0
210
0.0
220
0.0
230
1.0
 40
0.154955
 41
1.675877452908486
 42
3.144125087780851
  0
ELLIPSE
  5
1AA
330
1F
100
AcDbEntity
  8
1
100
AcDbEllipse
 10
473.938573
 20
196.783767
 30
0.0
 11
-0.4169758129169276
 21
0.0665177421768553
 31
0.0
210
0.0
220
0.0
230
1.0
 40
0.154955
 41
3.139060219398638
 42
4.607307854272626
  0
ELLIPSE
  5
1AB
330
1F
100
AcDbEntity
  8
1
100
AcDbEllipse
 10
465.394761
 20
198.290271
 30
0.0
 11
-0.4145795021577304
 21
0.0801078958224067
 31
0.0
210
0.0
220
0.0
230
0.9999999999999998
 40
0.154955
 41
4.817470106497803
 42
6.285717741370608
  0
ELLIPSE
  5
1AC
330
1F
100
AcDbEntity
  8
1
100
AcDbEllipse
 10
465.1600259999999
 20
196.959025
 30
0.0
 11
-0.4169758129175777
 21
0.0665177421768778
 31
0.0
210
0.0
220
0.0
230
1.0
 40
0.154955
 41
6.280652872988553
 42
7.748900507860996
  0
ELLIPSE
  5
1AD
330
1F
100
AcDbEntity
  8
1
100
AcDbEllipse
 10
468.354181
 20
196.680069
 30
0.0
 11
-0.0983879143853203
 21
0.0173484438817664
 31
0.0
210
0.0
220
0.0
230
1.0
 40
0.155814
 41
4.247327694521366
 42
5.096262846932219
  0
ELLIPSE
  5
1AE
330
1F
100
AcDbEntity
  8
1
100
AcDbEllipse
 10
468.285499
 20
196.721493
 30
0.0
 11
-0.0983879143853204
 21
0.0173484438817664
 31
0.0
210
0.0
220
0.0
230
0.9999999999999998
 40
0.155814
 41
0.5821362653332822
 42
1.954670193342316
  0
ELLIPSE
  5
1AF
330
1F
100
AcDbEntity
  8
1
100
AcDbEllipse
 10
468.667442
 20
196.693819
 30
0.0
 11
-0.5475239314121169
 21
0.0965432416915268
 31
0.0
210
0.0
220
0.0
230
1.0
 40
0.155814
 41
5.945197999342992
 42
6.865321572512852
  0
ELLIPSE
  5
1B0
330
1F
100
AcDbEntity
  8
1
100
AcDbEllipse
 10
468.247808
 20
196.791738
 30
0.0
 11
-0.0983879143853203
 21
0.0173484438817664
 31
0.0
210
0.0
220
0.0
230
1.0
 40
0.155814
 41
4.572664071333826
 42
5.945197999343117
  0
ELLIPSE
  5
1B1
330
1F
100
AcDbEntity
  8
1
100
AcDbEllipse
 10
468.280567
 20
196.817268
 30
0.0
 11
-0.0983879143853203
 21
0.0173484438817664
 31
0.0
210
0.0
220
0.0
230
1.0
 40
0.155814
 41
1.431071417744095
 42
2.280006570154878
  0
ELLIPSE
  5
1B2
330
1F
100
AcDbEntity
  8
1
100
AcDbEllipse
 10
467.9974379999999
 20
196.921949
 30
0.0
 11
-0.5475239314121167
 21
0.0965432416915268
 31
0.0
210
0.0
220
0.0
230
1.0
 40
0.155814
 41
2.280006570154899
 42
3.200130143324726
  0
ELLIPSE
  5
1B3
330
1F
100
AcDbEntity
  8
1
100
AcDbEllipse
 10
468.4465269999999
 20
196.846985
 30
0.0
 11
-0.0983879143853203
 21
0.0173484438817664
 31
0.0
210
0.0
220
0.0
230
1.0
 40
0.155814
 41
3.20013014332468
 42
4.049065295735526
  0
ELLIPSE
  5
1B4
330
1F
100
AcDbEntity
  8
1
100
AcDbEllipse
 10
468.571949
 20
196.849779
 30
0.0
 11
-0.0983879143853204
 21
0.0173484438817664
 31
0.0
210
0.0
220
0.0
230
0.9999999999999998
 40
0.155814
 41
5.818124021316293
 42
7.190657949325277
  0
ELLIPSE
  5
1B5
330
1F
100
AcDbEntity
  8
1
100
AcDbEllipse
 10
468.96785
 20
196.74761
 30
0.0
 11
-0.5475239314121169
 21
0.0965432416915268
 31
0.0
210
0.0
220
0.0
230
1.0
 40
0.155814
 41
4.898000448146377
 42
5.818124021316228
  0
ELLIPSE
  5
1B6
330
1F
100
AcDbEntity
  8
1
100
AcDbEllipse
 10
468.897091
 20
196.831005
 30
0.0
 11
-0.0983879143853203
 21
0.0173484438817664
 31
0.0
210
0.0
220
0.0
230
1.0
 40
0.155814
 41
3.525466520137262
 42
4.898000448146527
  0
ELLIPSE
  5
1B7
330
1F
100
AcDbEntity
  8
1
100
AcDbEllipse
 10
469.0815699999999
 20
196.810316
 30
0.0
 11
-0.0983879143853203
 21
0.0173484438817664
 31
0.0
210
0.0
220
0.0
230
1.0
 40
0.155814
 41
0.3838738665474699
 42
1.232809018958409
  0
ELLIPSE
  5
1B8
330
1F
100
AcDbEntity
  8
1
100
AcDbEllipse
 10
469.24214
 20
196.850078
 30
0.0
 11
-0.5475239314121167
 21
0.0965432416915268
 31
0.0
210
0.0
220
0.0
230
1.0
 40
0.155814
 41
1.232809018958314
 42
2.152932592128149
  0
ELLIPSE
  5
1B9
330
1F
100
AcDbEntity
  8
1
100
AcDbEllipse
 10
469.478773
 20
196.748081
 30
0.0
 11
-0.0983879143853203
 21
0.0173484438817664
 31
0.0
210
0.0
220
0.0
230
1.0
 40
0.155814
 41
2.152932592128114
 42
3.001867744538946
  0
ELLIPSE
  5
1BA
330
1F
100
AcDbEntity
  8
1
100
AcDbEllipse
 10
469.6728779999999
 20
196.709453
 30
0.0
 11
-0.0983879143853204
 21
0.0173484438817664
 31
0.0
210
0.0
220
0.0
230
0.9999999999999998
 40
0.155814
 41
4.770926470119619
 42
6.14346039812874
  0
ELLIPSE
  5
1BB
330
1F
100
AcDbEntity
  8
1
100
AcDbEllipse
 10
469.6868349999999
 20
196.634957
 30
0.0
 11
-0.5475239314121169
 21
0.0965432416915268
 31
0.0
210
0.0
220
0.0
230
1.0
 40
0.155814
 41
3.850802896949792
 42
4.770926470119646
  0
ELLIPSE
  5
1BC
330
1F
100
AcDbEntity
  8
1
100
AcDbEllipse
 10
470.0357099999999
 20
196.620433
 30
0.0
 11
-0.0983879143853203
 21
0.0173484438817664
 31
0.0
210
0.0
220
0.0
230
1.0
 40
0.155814
 41
2.478268968940594
 42
3.850802896949776
  0
ELLIPSE
  5
1BD
330
1F
100
AcDbEntity
  8
1
100
AcDbEllipse
 10
470.187431
 20
196.574215
 30
0.0
 11
-0.0983879143853203
 21
0.0173484438817664
 31
0.0
210
0.0
220
0.0
230
1.0
 40
0.155814
 41
5.619861622530387
 42
6.468796774941231
  0
ELLIPSE
  5
1BE
330
1F
100
AcDbEntity
  8
1
100
AcDbEllipse
 10
470.63113
 20
196.509295
 30
0.0
 11
-0.5475239314121167
 21
0.0965432416915268
 31
0.0
210
0.0
220
0.0
230
1.0
 40
0.155814
 41
0.1856114677617173
 42
1.105735040931539
  0
ELLIPSE
  5
1BF
330
1F
100
AcDbEntity
  8
1
100
AcDbEllipse
 10
470.418673
 20
196.482263
 30
0.0
 11
-0.0983879143853203
 21
0.0173484438817664
 31
0.0
210
0.0
220
0.0
230
1.0
 40
0.155814
 41
1.105735040931574
 42
1.954670193342535
  0
ELLIPSE
  5
1C0
330
1F
100
AcDbEntity
  8
1
100
AcDbEllipse
 10
470.487356
 20
196.440839
 30
0.0
 11
-0.0983879143853204
 21
0.0173484438817664
 31
0.0
210
0.0
220
0.0
230
0.9999999999999998
 40
0.155814
 41
3.723728918923113
 42
5.096262846932153
  0
ELLIPSE
  5
1C1
330
1F
100
AcDbEntity
  8
1
100
AcDbEllipse
 10
470.105413
 20
196.468513
 30
0.0
 11
-0.5475239314121169
 21
0.0965432416915268
 31
0.0
210
0.0
220
0.0
230
1.0
 40
0.155814
 41
2.80360534575318
 42
3.723728918923042
  0
ELLIPSE
  5
1C2
330
1F
100
AcDbEntity
  8
1
100
AcDbEllipse
 10
470.525047
 20
196.370594
 30
0.0
 11
-0.0983879143853203
 21
0.0173484438817664
 31
0.0
210
0.0
220
0.0
230
1.0
 40
0.155814
 41
1.43107141774397
 42
2.803605345753247
  0
ELLIPSE
  5
1C3
330
1F
100
AcDbEntity
  8
1
100
AcDbEllipse
 10
470.4922879999999
 20
196.345065
 30
0.0
 11
-0.0983879143853203
 21
0.0173484438817664
 31
0.0
210
0.0
220
0.0
230
1.0
 40
0.155814
 41
4.572664071333888
 42
5.421599223744762
  0
ELLIPSE
  5
1C4
330
1F
100
AcDbEntity
  8
1
100
AcDbEllipse
 10
470.775416
 20
196.240383
 30
0.0
 11
-0.5475239314121167
 21
0.0965432416915268
 31
0.0
210
0.0
220
0.0
230
1.0
 40
0.155814
 41
5.421599223744702
 42
6.34172279691453
  0
ELLIPSE
  5
1C5
330
1F
100
AcDbEntity
  8
1
100
AcDbEllipse
 10
470.326328
 20
196.315348
 30
0.0
 11
-0.0983879143853203
 21
0.0173484438817664
 31
0.0
210
0.0
220
0.0
230
1.0
 40
0.155814
 41
0.0585374897348873
 42
0.9074726421457487
  0
ELLIPSE
  5
1C6
330
1F
100
AcDbEntity
  8
1
100
AcDbEllipse
 10
470.200905
 20
196.312553
 30
0.0
 11
-0.0983879143853204
 21
0.0173484438817664
 31
0.0
210
0.0
220
0.0
230
0.9999999999999998
 40
0.155814
 41
2.676531367726499
 42
4.04906529573545
  0
ELLIPSE
  5
1C7
330
1F
100
AcDbEntity
  8
1
100
AcDbEllipse
 10
469.805004
 20
196.414722
 30
0.0
 11
-0.5475239314121169
 21
0.0965432416915268
 31
0.0
210
0.0
220
0.0
230
1.0
 40
0.155814
 41
1.756407794556612
 42
2.67653136772645
  0
ELLIPSE
  5
1C8
330
1F
100
AcDbEntity
  8
1
100
AcDbEllipse
 10
469.8757639999999
 20
196.331327
 30
0.0
 11
-0.0983879143853203
 21
0.0173484438817664
 31
0.0
210
0.0
220
0.0
230
1.0
 40
0.155814
 41
0.3838738665475225
 42
1.756407794556561
  0
ELLIPSE
  5
1C9
330
1F
100
AcDbEntity
  8
1
100
AcDbEllipse
 10
469.691284
 20
196.352016
 30
0.0
 11
-0.0983879143853203
 21
0.0173484438817664
 31
0.0
210
0.0
220
0.0
230
1.0
 40
0.155814
 41
3.525466520137262
 42
4.374401672548202
  0
ELLIPSE
  5
1CA
330
1F
100
AcDbEntity
  8
1
100
AcDbEllipse
 10
469.5307139999999
 20
196.312254
 30
0.0
 11
-0.5475239314121167
 21
0.0965432416915268
 31
0.0
210
0.0
220
0.0
230
1.0
 40
0.155814
 41
4.374401672548084
 42
5.294525245717931
  0
ELLIPSE
  5
1CB
330
1F
100
AcDbEntity
  8
1
100
AcDbEllipse
 10
469.294082
 20
196.414251
 30
0.0
 11
-0.0983879143853203
 21
0.0173484438817664
 31
0.0
210
0.0
220
0.0
230
1.0
 40
0.155814
 41
5.294525245717936
 42
6.143460398128806
  0
ELLIPSE
  5
1CC
330
1F
100
AcDbEntity
  8
1
100
AcDbEllipse
 10
469.0999769999999
 20
196.45288
 30
0.0
 11
-0.0983879143853204
 21
0.0173484438817664
 31
0.0
210
0.0
220
0.0
230
0.9999999999999998
 40
0.155814
 41
1.629333816529819
 42
3.001867744538946
  0
ELLIPSE
  5
1CD
330
1F
100
AcDbEntity
  8
1
100
AcDbEllipse
 10
469.086019
 20
196.527375
 30
0.0
 11
-0.5475239314121169
 21
0.0965432416915268
 31
0.0
210
0.0
220
0.0
230
1.0
 40
0.155814
 41
0.7092102433600082
 42
1.629333816529853
  0
ELLIPSE
  5
1CE
330
1F
100
AcDbEntity
  8
1
100
AcDbEllipse
 10
468.737144
 20
196.541899
 30
0.0
 11
-0.0983879143853203
 21
0.0173484438817664
 31
0.0
210
0.0
220
0.0
230
1.0
 40
0.155814
 41
5.619861622530566
 42
6.99239555053961
  0
ELLIPSE
  5
1CF
330
1F
100
AcDbEntity
  8
1
100
AcDbEllipse
 10
468.585424
 20
196.588118
 30
0.0
 11
-0.0983879143853203
 21
0.0173484438817664
 31
0.0
210
0.0
220
0.0
230
1.0
 40
0.155814
 41
2.478268968940549
 42
3.327204121351492
  0
ELLIPSE
  5
1D0
330
1F
100
AcDbEntity
  8
1
100
AcDbEllipse
 10
468.1417249999999
 20
196.653037
 30
0.0
 11
-0.5475239314121167
 21
0.0965432416915268
 31
0.0
210
0.0
220
0.0
230
1.0
 40
0.155814
 41
3.327204121351513
 42
4.247327694521353
  0
ELLIPSE
  5
1D1
330
1F
100
AcDbEntity
  8
1
100
AcDbEllipse
 10
469.3864269999999
 20
196.581166
 30
0.0
 11
1.624932792470144
 21
-0.286519493150433
 31
0.0
210
0.0
220
0.0
230
1.0
 40
0.155814
 41
0.0
 42
6.283185307179585
  0
ELLIPSE
  5
1D2
330
1F
100
AcDbEntity
  8
1
100
AcDbEllipse
 10
469.417694
 20
196.758488
 30
0.0
 11
2.068096281325638
 21
-0.3646611731005511
 31
0.0
210
0.0
220
0.0
230
0.9999999999999998
 40
0.155814
 41
3.263666565525021
 42
3.48946834106329
  0
ELLIPSE
  5
1D3
330
1F
100
AcDbEntity
  8
1
100
AcDbEllipse
 10
469.417694
 20
196.758488
 30
0.0
 11
2.068096281325638
 21
-0.3646611731005511
 31
0.0
210
0.0
220
0.0
230
0.9999999999999998
 40
0.155814
 41
5.935395067970529
 42
6.283185307179585
  0
ELLIPSE
  5
1D4
330
1F
100
AcDbEntity
  8
1
100
AcDbEllipse
 10
469.417694
 20
196.758488
 30
0.0
 11
2.068096281325638
 21
-0.3646611731005511
 31
0.0
210
0.0
220
0.0
230
0.9999999999999998
 40
0.155814
 41
0.0
 42
3.263666210406107
  0
SPLINE
  5
1E9
330
1F
100
AcDbEntity
  8
1
100
AcDbSpline
210
0.0
220
0.0
230
1.0
 70
     8
 71
     3
 72
    20
 73
    16
 74
     0
 42
0.000000001
 43
0.0000000001
 40
0.0
 40
0.0
 40
0.0
 40
0.0
 40
0.1250000000000024
 40
0.1250000000000024
 40
0.250000000000005
 40
0.250000000000005
 40
0.3750000000000074
 40
0.3750000000000074
 40
0.5000000000000099
 40
0.5000000000000099
 40
0.6250000000000125
 40
0.6250000000000125
 40
0.750000000000015
 40
0.750000000000015
 40
1.0
 40
1.0
 40
1.0
 40
1.0
 10
468.9029371955466
 20
210.9912761246709
 30
0.0
 10
468.8993300379906
 20
210.9960382998208
 30
0.0
 10
468.896220447581
 20
211.0010630241782
 30
0.0
 10
468.8909433008906
 20
211.011609107774
 30
0.0
 10
468.8887617588165
 20
211.0171887391825
 30
0.0
 10
468.8854600879116
 20
211.0285457623128
 30
0.0
 10
468.8843323052436
 20
211.0343022534556
 30
0.0
 10
468.8830713158796
 20
211.0459627998935
 30
0.0
 10
468.8829432151073
 20
211.051920532089
 30
0.0
 10
468.8836973579425
 20
211.0637191947725
 30
0.0
 10
468.8845661945132
 20
211.0695166864575
 30
0.0
 10
468.8872363139131
 20
211.0809178376855
 30
0.0
 10
468.8890489897011
 20
211.0865478621821
 30
0.0
 10
468.8958581643177
 20
211.1029639483017
 30
0.0
 10
468.9020175363065
 20
211.1129278442477
 30
0.0
 10
468.9097766720841
 20
211.1219225202351
 30
0.0
  0
SPLINE
  5
1EA
330
1F
100
AcDbEntity
  8
1
100
AcDbSpline
210
0.0
220
0.0
230
1.0
 70
     8
 71
     3
 72
    14
 73
    10
 74
     0
 42
0.000000001
 43
0.0000000001
 40
0.0
 40
0.0
 40
0.0
 40
0.0
 40
0.25
 40
0.25
 40
0.5
 40
0.5
 40
0.75
 40
0.75
 40
1.0
 40
1.0
 40
1.0
 40
1.0
 10
468.9357614694844
 20
211.20391075214
 30
0.0
 10
468.9366035744133
 20
211.1965022126641
 30
0.0
 10
468.9366113865124
 20
211.1889999561299
 30
0.0
 10
468.9350803464026
 20
211.1743543779893
 30
0.0
 10
468.9335583058366
 20
211.1671909410866
 30
0.0
 10
468.9290500241341
 20
211.1531708861419
 30
0.0
 10
468.9260444502163
 20
211.1463276588449
 30
0.0
 10
468.9188453598837
 20
211.1335584692209
 30
0.0
 10
468.9146291719209
 20
211.1275477167793
 30
0.0
 10
468.9097766720841
 20
211.1219225202351
 30
0.0
  0
SPLINE
  5
1EB
330
1F
100
AcDbEntity
  8
1
100
AcDbSpline
210
0.0
220
0.0
230
1.0
 70
     8
 71
     3
 72
    22
 73
    18
 74
     0
 42
0.000000001
 43
0.0000000001
 40
0.0
 40
0.0
 40
0.0
 40
0.0
 40
0.125
 40
0.125
 40
0.25
 40
0.25
 40
0.375
 40
0.375
 40
0.5
 40
0.5
 40
0.625
 40
0.625
 40
0.75
 40
0.75
 40
0.875
 40
0.875
 40
1.0
 40
1.0
 40
1.0
 40
1.0
 10
468.5683327876339
 20
211.6125674491104
 30
0.0
 10
468.5627948776308
 20
211.6104588370407
 30
0.0
 10
468.5571128426557
 20
211.6088028402606
 30
0.0
 10
468.5456658139957
 20
211.606425809049
 30
0.0
 10
468.5398742747373
 20
211.6056937034541
 30
0.0
 10
468.5281517115493
 20
211.605168589515
 30
0.0
 10
468.522222886751
 20
211.6053865529855
 30
0.0
 10
468.5106319089562
 20
211.6067761362688
 30
0.0
 10
468.5049179749788
 20
211.6079427685158
 30
0.0
 10
468.4936612736438
 20
211.6112605169641
 30
0.0
 10
468.4881450499389
 20
211.6134149402757
 30
0.0
 10
468.4776896014379
 20
211.6185877121577
 30
0.0
 10
468.4726997799576
 20
211.6216187565895
 30
0.0
 10
468.4632241908491
 20
211.6286206608579
 30
0.0
 10
468.4588156241268
 20
211.632543881048
 30
0.0
 10
468.450837344139
 20
211.6410647840015
 30
0.0
 10
468.4472359953458
 20
211.645684762312
 30
0.0
 10
468.4440475934895
 20
211.6506871330883
 30
0.0
  0
SPLINE
  5
1EC
330
1F
100
AcDbEntity
  8
1
100
AcDbSpline
210
0.0
220
0.0
230
1.0
 70
     8
 71
     3
 72
    21
 73
    17
 74
     0
 42
0.000000001
 43
0.0000000001
 40
0.0
 40
0.0
 40
0.0
 40
0.0
 40
0.2095389445345337
 40
0.2095389445345337
 40
0.2754106991566214
 40
0.2754106991566214
 40
0.3412824537787091
 40
0.3412824537787091
 40
0.4730259630229213
 40
0.6047694722671336
 40
0.6047694722671336
 40
0.6706412268892603
 40
0.6706412268892603
 40
0.7365129815113872
 40
0.7365129815113872
 40
1.0
 40
1.0
 40
1.0
 40
1.0
 10
469.3189724944074
 20
210.7766153642552
 30
0.0
 10
469.2850433764804
 20
210.7776094620267
 30
0.0
 10
469.2514820155961
 20
210.7817613130142
 30
0.0
 10
469.2078494238256
 20
210.7913625991958
 30
0.0
 10
469.1974285202475
 20
210.7939821497046
 30
0.0
 10
469.1768938028343
 20
210.7997960922084
 30
0.0
 10
469.1667548793166
 20
210.8029946417355
 30
0.0
 10
469.1367162303786
 20
210.8134489662288
 30
0.0
 10
469.0976705419628
 20
210.8296722988048
 30
0.0
 10
469.0606221619841
 20
210.8504325025972
 30
0.0
 10
469.0336101743991
 20
210.8677610533253
 30
0.0
 10
469.0247544046447
 20
210.8738218478097
 30
0.0
 10
469.0075325262013
 20
210.8863702988322
 30
0.0
 10
468.999137786969
 20
210.8928758802948
 30
0.0
 10
468.9582261440526
 20
210.9265399708445
 30
0.0
 10
468.9288529838611
 20
210.9570620596673
 30
0.0
 10
468.9029371955466
 20
210.9912761246709
 30
0.0
  0
SPLINE
  5
1ED
330
1F
100
AcDbEntity
  8
1
100
AcDbSpline
210
0.0
220
0.0
230
1.0
 70
     8
 71
     3
 72
    14
 73
    10
 74
     0
 42
0.000000001
 43
0.0000000001
 40
0.0
 40
0.0
 40
0.0
 40
0.0
 40
0.25
 40
0.25
 40
0.5
 40
0.5
 40
0.75
 40
0.75
 40
1.0
 40
1.0
 40
1.0
 40
1.0
 10
468.5683327876345
 20
211.6125674491104
 30
0.0
 10
468.5752607667891
 20
211.615205343272
 30
0.0
 10
468.5824377022983
 20
211.6171439800543
 30
0.0
 10
468.5969549952556
 20
211.6195453679782
 30
0.0
 10
468.6042408981143
 20
211.6200107257431
 30
0.0
 10
468.6188691855504
 20
211.6194534727566
 30
0.0
 10
468.6262424105358
 20
211.6184051049777
 30
0.0
 10
468.6403878568551
 20
211.6148301929003
 30
0.0
 10
468.6472432797196
 20
211.6123096403303
 30
0.0
 10
468.653863291556
 20
211.6089902330119
 30
0.0
  0
SPLINE
  5
1EE
330
1F
100
AcDbEntity
  8
1
100
AcDbSpline
210
0.0
220
0.0
230
1.0
 70
     8
 71
     3
 72
    21
 73
    17
 74
     0
 42
0.000000001
 43
0.0000000001
 40
0.0
 40
0.0
 40
0.0
 40
0.0
 40
0.2499999999999126
 40
0.2499999999999126
 40
0.3124999999999153
 40
0.3124999999999153
 40
0.3749999999999178
 40
0.3749999999999178
 40
0.4999999999999306
 40
0.6249999999999432
 40
0.6249999999999432
 40
0.6874999999999495
 40
0.6874999999999495
 40
0.7499999999999558
 40
0.7499999999999558
 40
1.0
 40
1.0
 40
1.0
 40
1.0
 10
468.653863291556
 20
211.6089902330119
 30
0.0
 10
468.6922740306201
 20
211.5897303145248
 30
0.0
 10
468.7277585781177
 20
211.5662937745012
 30
0.0
 10
468.7683570217911
 20
211.5315417299416
 30
0.0
 10
468.7762864063506
 20
211.524315060611
 30
0.0
 10
468.791751732836
 20
211.5092887842164
 30
0.0
 10
468.7993035112951
 20
211.5014681622243
 30
0.0
 10
468.8210216831335
 20
211.4774811584754
 30
0.0
 10
468.8477022548155
 20
211.4439097706392
 30
0.0
 10
468.8699231574841
 20
211.4072253610655
 30
0.0
 10
468.8848900666349
 20
211.3785267779072
 30
0.0
 10
468.8896106904374
 20
211.3687265322324
 30
0.0
 10
468.8983901517178
 20
211.3489110697685
 30
0.0
 10
468.9024434165664
 20
211.3389159855728
 30
0.0
 10
468.9210878410218
 20
211.2885180733659
 30
0.0
 10
468.9308789524708
 20
211.246865399239
 30
0.0
 10
468.9357614694844
 20
211.20391075214
 30
0.0
  0
SPLINE
  5
1EF
330
1F
100
AcDbEntity
  8
1
100
AcDbSpline
210
0.0
220
0.0
230
1.0
 70
     8
 71
     3
 72
    21
 73
    17
 74
     0
 42
0.000000001
 43
0.0000000001
 40
0.0
 40
0.0
 40
0.0
 40
0.0
 40
0.3278418928250343
 40
0.3278418928250343
 40
0.4098023660312964
 40
0.4098023660312964
 40
0.4917628392375585
 40
0.4917628392375585
 40
0.6556837856500838
 40
0.8196047320626091
 40
0.8196047320626091
 40
0.9015652052688787
 40
0.9015652052688787
 40
0.9835256784751488
 40
0.9835256784751488
 40
1.0
 40
1.0
 40
1.0
 40
1.0
 10
468.4440475934895
 20
211.6506871330883
 30
0.0
 10
468.4211133207238
 20
211.686669340171
 30
0.0
 10
468.402745877205
 20
211.7247632200772
 30
0.0
 10
468.3854847747603
 20
211.7750044387337
 30
0.0
 10
468.3823164165933
 20
211.7852077309139
 30
0.0
 10
468.3766301815904
 20
211.8056519150706
 30
0.0
 10
468.3741028176076
 20
211.8159163183479
 30
0.0
 10
468.367450598377
 20
211.8468339750064
 30
0.0
 10
468.3610546016766
 20
211.8883885278274
 30
0.0
 10
468.35957168946
 20
211.9305998666075
 30
0.0
 10
468.3603637406311
 20
211.9625131891726
 30
0.0
 10
468.3609478458353
 20
211.9731726400311
 30
0.0
 10
468.3627347984626
 20
211.994297591126
 30
0.0
 10
468.363938108718
 20
212.0047966584347
 30
0.0
 10
468.365748783141
 20
212.0173313539533
 30
0.0
 10
468.3660639659038
 20
212.0194267119906
 30
0.0
 10
468.366391309197
 20
212.0215195839104
 30
0.0
  0
SPLINE
  5
1F0
330
1F
100
AcDbEntity
  8
1
100
AcDbSpline
210
0.0
220
0.0
230
1.0
 70
     8
 71
     3
 72
     8
 73
     4
 74
     0
 42
0.000000001
 43
0.0000000001
 40
0.0
 40
0.0
 40
0.0
 40
0.0
 40
1.0
 40
1.0
 40
1.0
 40
1.0
 10
469.4799533946253
 20
210.9207148316172
 30
0.0
 10
469.4847155773421
 20
210.9249578336641
 30
0.0
 10
469.4898505759121
 20
210.9287770489481
 30
0.0
 10
469.4953863026336
 20
210.9321410928306
 30
0.0
  0
SPLINE
  5
1F1
330
1F
100
AcDbEntity
  8
1
100
AcDbSpline
210
0.0
220
0.0
230
1.0
 70
     8
 71
     3
 72
    21
 73
    17
 74
     0
 42
0.000000001
 43
0.0000000001
 40
0.0
 40
0.0
 40
0.0
 40
0.0
 40
0.2500000000000362
 40
0.2500000000000362
 40
0.3125000000000564
 40
0.3125000000000564
 40
0.3750000000000766
 40
0.3750000000000766
 40
0.5000000000000769
 40
0.6250000000000771
 40
0.6250000000000771
 40
0.6875000000000586
 40
0.6875000000000586
 40
0.7500000000000401
 40
0.7500000000000401
 40
1.0
 40
1.0
 40
1.0
 40
1.0
 10
469.4953863026336
 20
210.9321410928306
 30
0.0
 10
469.5325023735243
 20
210.9546964134786
 30
0.0
 10
469.571394405958
 20
210.9726733744861
 30
0.0
 10
469.6222643733439
 20
210.9892537778513
 30
0.0
 10
469.6325526071551
 20
210.9922715035426
 30
0.0
 10
469.6533647743821
 20
210.9976898929319
 30
0.0
 10
469.6639146130548
 20
211.0000933086874
 30
0.0
 10
469.6954509744087
 20
211.0062557141323
 30
0.0
 10
469.7374735889696
 20
211.0117697220486
 30
0.0
 10
469.7794371950588
 20
211.0119932605778
 30
0.0
 10
469.8108905952874
 20
211.0101447382255
 30
0.0
 10
469.8214094740571
 20
211.0091866002988
 30
0.0
 10
469.8422444697222
 20
211.0066079279336
 30
0.0
 10
469.8525411292028
 20
211.0049928341798
 30
0.0
 10
469.903447722539
 20
210.9953447837247
 30
0.0
 10
469.9423487404689
 20
210.9826585981539
 30
0.0
 10
469.9795997299341
 20
210.9651750932075
 30
0.0
  0
SPLINE
  5
1F2
330
1F
100
AcDbEntity
  8
1
100
AcDbSpline
210
0.0
220
0.0
230
1.0
 70
     8
 71
     3
 72
    14
 73
    10
 74
     0
 42
0.000000001
 43
0.0000000001
 40
0.0
 40
0.0
 40
0.0
 40
0.0
 40
0.25
 40
0.25
 40
0.5
 40
0.5
 40
0.75
 40
0.75
 40
1.0
 40
1.0
 40
1.0
 40
1.0
 10
469.9795997299341
 20
210.9651750932075
 30
0.0
 10
469.9860244756823
 20
210.9621596813841
 30
0.0
 10
469.9920811621601
 20
210.9583877985776
 30
0.0
 10
470.0030849386794
 20
210.9497096408262
 30
0.0
 10
470.0080580441836
 20
210.9448069063405
 30
0.0
 10
470.0169845526268
 20
210.933908237646
 30
0.0
 10
470.0209159477718
 20
210.9279040287073
 30
0.0
 10
470.027414738525
 20
210.9153444962157
 30
0.0
 10
470.0300383878546
 20
210.9087271795167
 30
0.0
 10
470.0320165508051
 20
210.9017611837505
 30
0.0
  0
SPLINE
  5
1F3
330
1F
100
AcDbEntity
  8
1
100
AcDbSpline
210
0.0
220
0.0
230
1.0
 70
     8
 71
     3
 72
    20
 73
    16
 74
     0
 42
0.000000001
 43
0.0000000001
 40
0.0
 40
0.0
 40
0.0
 40
0.0
 40
0.1250000000000029
 40
0.1250000000000029
 40
0.2500000000000058
 40
0.2500000000000058
 40
0.3750000000000085
 40
0.3750000000000085
 40
0.5000000000000115
 40
0.5000000000000115
 40
0.6250000000000143
 40
0.6250000000000143
 40
0.7500000000000171
 40
0.7500000000000171
 40
1.0
 40
1.0
 40
1.0
 40
1.0
 10
470.1334816042258
 20
210.8302501575887
 30
0.0
 10
470.1277737163076
 20
210.8295640174669
 30
0.0
 10
470.1221121183809
 20
210.8294353429997
 30
0.0
 10
470.1108778729578
 20
210.8302329774426
 30
0.0
 10
470.1052509498548
 20
210.8311767552357
 30
0.0
 10
470.0943926127115
 20
210.8340695847083
 30
0.0
 10
470.0891724215737
 20
210.8360019256825
 30
0.0
 10
470.079131522434
 20
210.8407901101936
 30
0.0
 10
470.0742699301757
 20
210.8436776336525
 30
0.0
 10
470.0651718127939
 20
210.8502540490826
 30
0.0
 10
470.060961592702
 20
210.8539106718075
 30
0.0
 10
470.0531857265456
 20
210.8619219202259
 30
0.0
 10
470.0496043063646
 20
210.8663003251764
 30
0.0
 10
470.0399657429811
 20
210.8803608360262
 30
0.0
 10
470.0351795760856
 20
210.8906227582187
 30
0.0
 10
470.0320165508051
 20
210.9017611837505
 30
0.0
  0
SPLINE
  5
1F4
330
1F
100
AcDbEntity
  8
1
100
AcDbSpline
210
0.0
220
0.0
230
1.0
 70
     8
 71
     3
 72
    21
 73
    17
 74
     0
 42
0.000000001
 43
0.0000000001
 40
0.0
 40
0.0
 40
0.0
 40
0.0
 40
0.2669559420142055
 40
0.2669559420142055
 40
0.3336949275177557
 40
0.3336949275177557
 40
0.4004339130213058
 40
0.4004339130213058
 40
0.5339118840284158
 40
0.6673898550355259
 40
0.6673898550355259
 40
0.7341288405390872
 40
0.7341288405390872
 40
0.8008678260426481
 40
0.8008678260426481
 40
1.0
 40
1.0
 40
1.0
 40
1.0
 10
468.7980452574601
 20
212.663034497085
 30
0.0
 10
468.801022568038
 20
212.6227138231171
 30
0.0
 10
468.7989598008833
 20
212.5824950830153
 30
0.0
 10
468.7898533120936
 20
212.5321982124623
 30
0.0
 10
468.787701433467
 20
212.5221378234224
 30
0.0
 10
468.7827131439544
 20
212.5020120021755
 30
0.0
 10
468.7798668058583
 20
212.4919227472802
 30
0.0
 10
468.7704108417333
 20
212.4620948788903
 30
0.0
 10
468.755309752735
 20
212.4232234114933
 30
0.0
 10
468.7353267481445
 20
212.386102167725
 30
0.0
 10
468.7184795801125
 20
212.3589319112236
 30
0.0
 10
468.7125303272516
 20
212.3499558016316
 30
0.0
 10
468.7001160152854
 20
212.332399989079
 30
0.0
 10
468.6936654464956
 20
212.3238358281527
 30
0.0
 10
468.6670313789154
 20
212.290542511743
 30
0.0
 10
468.6450167663003
 20
212.2674240778053
 30
0.0
 10
468.6209852071058
 20
212.2460942717307
 30
0.0
  0
SPLINE
  5
1F5
330
1F
100
AcDbEntity
  8
1
100
AcDbSpline
210
0.0
220
0.0
230
1.0
 70
     8
 71
     3
 72
    14
 73
    10
 74
     0
 42
0.000000001
 43
0.0000000001
 40
0.0
 40
0.0
 40
0.0
 40
0.0
 40
0.25
 40
0.25
 40
0.5
 40
0.5
 40
0.75
 40
0.75
 40
1.0
 40
1.0
 40
1.0
 40
1.0
 10
468.7577306261053
 20
212.7328729867889
 30
0.0
 10
468.7635059928074
 20
212.7286950907464
 30
0.0
 10
468.7688084281372
 20
212.7239665049921
 30
0.0
 10
468.7782296060434
 20
212.7136359461662
 30
0.0
 10
468.7823236615898
 20
212.7080779570364
 30
0.0
 10
468.7892650036691
 20
212.6961641128569
 30
0.0
 10
468.7921055192906
 20
212.689771346318
 30
0.0
 10
468.7962153904461
 20
212.6767129796404
 30
0.0
 10
468.7975320935701
 20
212.6699840958434
 30
0.0
 10
468.7980452574601
 20
212.663034497085
 30
0.0
  0
SPLINE
  5
1F6
330
1F
100
AcDbEntity
  8
1
100
AcDbSpline
210
0.0
220
0.0
230
1.0
 70
     8
 71
     3
 72
    22
 73
    18
 74
     0
 42
0.000000001
 43
0.0000000001
 40
0.0
 40
0.0
 40
0.0
 40
0.0
 40
0.125
 40
0.125
 40
0.25
 40
0.25
 40
0.375
 40
0.375
 40
0.5
 40
0.5
 40
0.625
 40
0.625
 40
0.75
 40
0.75
 40
0.875
 40
0.875
 40
1.0
 40
1.0
 40
1.0
 40
1.0
 10
468.7577306261053
 20
212.7328729867889
 30
0.0
 10
468.7531138918283
 20
212.7362127289835
 30
0.0
 10
468.7488119995712
 20
212.7398953762566
 30
0.0
 10
468.740968367056
 20
212.7477974099377
 30
0.0
 10
468.7374035815165
 20
212.7520323712208
 30
0.0
 10
468.7310089662033
 20
212.7610853716561
 30
0.0
 10
468.7281894892849
 20
212.7659074571056
 30
0.0
 10
468.7235042386408
 20
212.7758181151433
 30
0.0
 10
468.7216079067344
 20
212.7809453416756
 30
0.0
 10
468.7187471528966
 20
212.7915562318618
 30
0.0
 10
468.7177989590698
 20
212.7970208144882
 30
0.0
 10
468.7169372277963
 20
212.8079217416745
 30
0.0
 10
468.7170088945746
 20
212.8134047444794
 30
0.0
 10
468.7182152203774
 20
212.8244370068309
 30
0.0
 10
468.7193482388724
 20
212.8299015843439
 30
0.0
 10
468.7226195079868
 20
212.8404965133512
 30
0.0
 10
468.7247608706971
 20
212.845663369839
 30
0.0
 10
468.7274404333783
 20
212.8506904163976
 30
0.0
  0
SPLINE
  5
1F7
330
1F
100
AcDbEntity
  8
1
100
AcDbSpline
210
0.0
220
0.0
230
1.0
 70
     8
 71
     3
 72
    10
 73
     6
 74
     0
 42
0.000000001
 43
0.0000000001
 40
0.0
 40
0.0
 40
0.0
 40
0.0
 40
0.1535730214088178
 40
0.1535730214088178
 40
1.0
 40
1.0
 40
1.0
 40
1.0
 10
470.2733796885303
 20
210.8678437514324
 30
0.0
 10
470.2664966474896
 20
210.8648947194699
 30
0.0
 10
470.2595701119234
 20
210.8621051362873
 30
0.0
 10
470.2141883736238
 20
210.8449654165315
 30
0.0
 10
470.174488819738
 20
210.8351795984345
 30
0.0
 10
470.1334816042258
 20
210.8302501575887
 30
0.0
  0
SPLINE
  5
1F8
330
1F
100
AcDbEntity
  8
1
100
AcDbSpline
210
0.0
220
0.0
230
1.0
 70
     8
 71
     3
 72
    32
 73
    28
 74
     0
 42
0.000000001
 43
0.0000000001
 40
0.0
 40
0.0
 40
0.0
 40
0.0
 40
0.0624999999999871
 40
0.0624999999999871
 40
0.1249999999999742
 40
0.1249999999999742
 40
0.2499999999999596
 40
0.2499999999999596
 40
0.2812499999999568
 40
0.2812499999999568
 40
0.312499999999954
 40
0.3749999999999731
 40
0.4374999999999923
 40
0.4374999999999923
 40
0.5000000000000116
 40
0.5000000000000116
 40
0.6250000000000272
 40
0.6250000000000272
 40
0.6875000000000228
 40
0.6875000000000228
 40
0.7500000000000182
 40
0.7500000000000182
 40
0.8750000000000092
 40
0.8750000000000092
 40
0.9375000000000047
 40
0.9375000000000047
 40
1.0
 40
1.0
 40
1.0
 40
1.0
 10
473.7986174535306
 20
181.1967324547816
 30
0.0
 10
473.7989074631571
 20
181.1819178325555
 30
0.0
 10
473.7983674863516
 20
181.1670440324624
 30
0.0
 10
473.7955923900385
 20
181.1375049903205
 30
0.0
 10
473.7933771168241
 20
181.1229846210082
 30
0.0
 10
473.784328911175
 20
181.0801466501717
 30
0.0
 10
473.7751171159144
 20
181.0525451050857
 30
0.0
 10
473.759531261651
 20
181.0192686099444
 30
0.0
 10
473.7562027182327
 20
181.0126667817749
 30
0.0
 10
473.7492080561692
 20
180.9997346465689
 30
0.0
 10
473.7381858747458
 20
180.9806899822196
 30
0.0
 10
473.7172212543856
 20
180.9506788096674
 30
0.0
 10
473.6977238143183
 20
180.9284874432421
 30
0.0
 10
473.6768433114691
 20
180.9072183262504
 30
0.0
 10
473.6656498972865
 20
180.8970016091669
 30
0.0
 10
473.6306418906278
 20
180.8683607154698
 30
0.0
 10
473.6052950811064
 20
180.8517600490985
 30
0.0
 10
473.5643275472416
 20
180.8305183800447
 30
0.0
 10
473.5501378458336
 20
180.8240368426632
 30
0.0
 10
473.5209040421899
 20
180.8124104746674
 30
0.0
 10
473.5060209281651
 20
180.8073249766421
 30
0.0
 10
473.4606009630597
 20
180.7941749659024
 30
0.0
 10
473.4293007583937
 20
180.7881970656342
 30
0.0
 10
473.3807943902393
 20
180.7834836786807
 30
0.0
 10
473.3643699648322
 20
180.7826359688904
 30
0.0
 10
473.3315906689596
 20
180.7824119675823
 30
0.0
 10
473.3151617616336
 20
180.7830265255555
 30
0.0
 10
473.2986936059524
 20
180.7843674379443
 30
0.0
  0
SPLINE
  5
1F9
330
1F
100
AcDbEntity
  8
1
100
AcDbSpline
210
0.0
220
0.0
230
1.0
 70
     8
 71
     3
 72
    96
 73
    92
 74
     0
 42
0.000000001
 43
0.0000000001
 40
0.0
 40
0.0
 40
0.0
 40
0.0
 40
0.0312499999999887
 40
0.0312499999999887
 40
0.0468749999999831
 40
0.0468749999999831
 40
0.0624999999999775
 40
0.0624999999999775
 40
0.0937499999999667
 40
0.0937499999999667
 40
0.1093749999999621
 40
0.1093749999999621
 40
0.1249999999999575
 40
0.1249999999999575
 40
0.1562499999999514
 40
0.1874999999999453
 40
0.1874999999999453
 40
0.2031249999999416
 40
0.2031249999999416
 40
0.2187499999999378
 40
0.2187499999999378
 40
0.2499999999999308
 40
0.2499999999999308
 40
0.2656249999999273
 40
0.2656249999999273
 40
0.2734374999999241
 40
0.2734374999999241
 40
0.2812499999999207
 40
0.2812499999999207
 40
0.312499999999915
 40
0.3437499999999092
 40
0.3437499999999092
 40
0.3593749999999081
 40
0.3593749999999081
 40
0.374999999999907
 40
0.3906249999999059
 40
0.3906249999999059
 40
0.4062499999999049
 40
0.4062499999999049
 40
0.4374999999999066
 40
0.4687499999999081
 40
0.4687499999999081
 40
0.4765624999999111
 40
0.4765624999999111
 40
0.4843749999999142
 40
0.4999999999999166
 40
0.4999999999999166
 40
0.5312499999999217
 40
0.5312499999999217
 40
0.5468749999999261
 40
0.5468749999999261
 40
0.5546874999999282
 40
0.5546874999999282
 40
0.5624999999999304
 40
0.5937499999999357
 40
0.6249999999999412
 40
0.6249999999999412
 40
0.6406249999999421
 40
0.6406249999999421
 40
0.656249999999943
 40
0.656249999999943
 40
0.687499999999944
 40
0.687499999999944
 40
0.7031249999999455
 40
0.7031249999999455
 40
0.7187499999999469
 40
0.7187499999999469
 40
0.7499999999999514
 40
0.7499999999999514
 40
0.7656249999999539
 40
0.7656249999999539
 40
0.7812499999999565
 40
0.7812499999999565
 40
0.8124999999999634
 40
0.8437499999999703
 40
0.8437499999999703
 40
0.8515624999999721
 40
0.8515624999999721
 40
0.8593749999999738
 40
0.8593749999999738
 40
0.8749999999999781
 40
0.8749999999999781
 40
0.9062499999999868
 40
0.9062499999999868
 40
0.9218749999999909
 40
0.9296874999999925
 40
0.9296874999999925
 40
0.9374999999999939
 40
0.9374999999999939
 40
0.9687499999999968
 40
1.0
 40
1.0
 40
1.0
 40
1.0
 10
468.1997917630792
 20
181.2180331856603
 30
0.0
 10
468.2094581974961
 20
181.2465892313479
 30
0.0
 10
468.2152983430535
 20
181.2756794172916
 30
0.0
 10
468.2181878537134
 20
181.3201491008781
 30
0.0
 10
468.218161053195
 20
181.3351643471174
 30
0.0
 10
468.2161250494841
 20
181.3650641334725
 30
0.0
 10
468.2141250992614
 20
181.3799806282126
 30
0.0
 10
468.2052456054872
 20
181.4246300862673
 30
0.0
 10
468.1954995148508
 20
181.4542642061949
 30
0.0
 10
468.1751582269187
 20
181.498496189029
 30
0.0
 10
468.1674208233241
 20
181.5132033587303
 30
0.0
 10
468.1499940867738
 20
181.5425368037769
 30
0.0
 10
468.1402733118071
 20
181.5571965555923
 30
0.0
 10
468.1085962650944
 20
181.600394297003
 30
0.0
 10
468.0594810120659
 20
181.6563116839196
 30
0.0
 10
467.9969726998713
 20
181.7088265872783
 30
0.0
 10
467.9449168982143
 20
181.7468368563256
 30
0.0
 10
467.9266683958401
 20
181.7592897353607
 30
0.0
 10
467.8889867341212
 20
181.7833437106968
 30
0.0
 10
467.8694908707973
 20
181.7949936489941
 30
0.0
 10
467.8090733423224
 20
181.8288162782953
 30
0.0
 10
467.7662306636728
 20
181.8498670391035
 30
0.0
 10
467.6980952835922
 20
181.8791172061674
 30
0.0
 10
467.6747360461373
 20
181.8884783074572
 30
0.0
 10
467.6387018120403
 20
181.901914026556
 30
0.0
 10
467.6265005769812
 20
181.9062995983315
 30
0.0
 10
467.6018893962876
 20
181.9148194447226
 30
0.0
 10
467.5894884267896
 20
181.918951375516
 30
0.0
 10
467.5270131998381
 20
181.9389767832951
 30
0.0
 10
467.4240554515111
 20
181.9669744075111
 30
0.0
 10
467.3152176959368
 20
181.9869068477998
 30
0.0
 10
467.2313007297765
 20
181.9986780815581
 30
0.0
 10
467.2029509008233
 20
182.0020645669502
 30
0.0
 10
467.1462151217111
 20
182.0076721924538
 30
0.0
 10
467.0892610326033
 20
182.0121423261586
 30
0.0
 10
467.0318721006898
 20
182.0143407528003
 30
0.0
 10
466.974263539698
 20
182.0153903006668
 30
0.0
 10
466.94529328623
 20
182.0153360694983
 30
0.0
 10
466.8591380878463
 20
182.0134517313286
 30
0.0
 10
466.7456158138613
 20
182.0063932074504
 30
0.0
 10
466.6347283087989
 20
181.9905073661579
 30
0.0
 10
466.5662727145939
 20
181.9777603765611
 30
0.0
 10
466.5525975535969
 20
181.9750636987268
 30
0.0
 10
466.5255020832413
 20
181.9694193983085
 30
0.0
 10
466.4852294251089
 20
181.9605763206402
 30
0.0
 10
466.4460501404048
 20
181.950626061836
 30
0.0
 10
466.3691211697901
 20
181.9292901328081
 30
0.0
 10
466.3197347463984
 20
181.9131584192493
 30
0.0
 10
466.2485143204206
 20
181.886146371387
 30
0.0
 10
466.2252523482301
 20
181.8766717421677
 30
0.0
 10
466.1910934099804
 20
181.8617454348494
 30
0.0
 10
466.1798248341459
 20
181.8566478222248
 30
0.0
 10
466.1577070588493
 20
181.846294485231
 30
0.0
 10
466.1033532780494
 20
181.8199672103577
 30
0.0
 10
466.0137979860299
 20
181.7687014518351
 30
0.0
 10
465.9457210190367
 20
181.7179095534683
 30
0.0
 10
465.8991439896366
 20
181.6778507667091
 30
0.0
 10
465.8845012316258
 20
181.6642808602342
 30
0.0
 10
465.8570754620233
 20
181.636854192909
 30
0.0
 10
465.8442687587553
 20
181.6229770650488
 30
0.0
 10
465.8085263956517
 20
181.580874977915
 30
0.0
 10
465.7882559468212
 20
181.5521819632106
 30
0.0
 10
465.7632528553091
 20
181.5082377977928
 30
0.0
 10
465.755821575893
 20
181.4934372996666
 30
0.0
 10
465.7428186257685
 20
181.4635346517039
 30
0.0
 10
465.7373220038988
 20
181.4486054146796
 30
0.0
 10
465.7237647004948
 20
181.4038884840456
 30
0.0
 10
465.7186232881892
 20
181.3741719754201
 30
0.0
 10
465.7166856796314
 20
181.3297493609946
 30
0.0
 10
465.7170056001276
 20
181.3149670766693
 30
0.0
 10
465.7196062455478
 20
181.2854534532415
 30
0.0
 10
465.7218911018575
 20
181.2707035546283
 30
0.0
 10
465.731747961705
 20
181.2266464350287
 30
0.0
 10
465.7526073147423
 20
181.1694829355694
 30
0.0
 10
465.7883224081931
 20
181.1152947935701
 30
0.0
 10
465.8153708307857
 20
181.0823393871627
 30
0.0
 10
465.8210178766678
 20
181.0757940648119
 30
0.0
 10
465.8327930727311
 20
181.0627951054733
 30
0.0
 10
465.8389329350488
 20
181.0563298862899
 30
0.0
 10
465.8579967157373
 20
181.0371615576588
 30
0.0
 10
465.8715283471697
 20
181.0247163470073
 30
0.0
 10
465.9145281053711
 20
180.9883418723584
 30
0.0
 10
465.9463902409988
 20
180.9653697630105
 30
0.0
 10
465.9989352258592
 20
180.932747367228
 30
0.0
 10
466.0263997754476
 20
180.9168966479236
 30
0.0
 10
466.0556826173773
 20
180.9017353536143
 30
0.0
 10
466.0756147202075
 20
180.8917818662127
 30
0.0
 10
466.085805851312
 20
180.8868730761987
 30
0.0
 10
466.1374631046971
 20
180.8628724585241
 30
0.0
 10
466.2247586058508
 20
180.8278197115146
 30
0.0
 10
466.321020888142
 20
180.799051226703
 30
0.0
 10
466.3714414571264
 20
180.7862289171049
 30
0.0
  0
SPLINE
  5
1FA
330
1F
100
AcDbEntity
  8
1
100
AcDbSpline
210
0.0
220
0.0
230
1.0
 70
    24
 71
     3
 72
     8
 73
     4
 74
     0
 42
0.000000001
 43
0.0000000001
 40
0.0
 40
0.0
 40
0.0
 40
0.0
 40
1.0
 40
1.0
 40
1.0
 40
1.0
 10
434.5074973024384
 20
192.3789851258946
 30
0.0
 10
434.8331650703804
 20
192.7046528938365
 30
0.0
 10
435.1668569964247
 20
193.0383448198809
 30
0.0
 10
435.5074973024383
 20
193.3789851258946
 30
0.0
  0
SPLINE
  5
1FB
330
1F
100
AcDbEntity
  8
1
100
AcDbSpline
210
0.0
220
0.0
230
1.0
 70
    24
 71
     3
 72
     8
 73
     4
 74
     0
 42
0.000000001
 43
0.0000000001
 40
0.0
 40
0.0
 40
0.0
 40
0.0
 40
1.0
 40
1.0
 40
1.0
 40
1.0
 10
435.5074973024384
 20
201.7789851258946
 30
0.0
 10
435.1668569964247
 20
202.1196254319082
 30
0.0
 10
434.8331650703804
 20
202.4533173579527
 30
0.0
 10
434.5074973024384
 20
202.7789851258946
 30
0.0
  0
SPLINE
  5
1FC
330
1F
100
AcDbEntity
  8
1
100
AcDbSpline
210
0.0
220
0.0
230
1.0
 70
     8
 71
     3
 72
     9
 73
     5
 74
     0
 42
0.000000001
 43
0.0000000001
 40
0.0
 40
0.0
 40
0.0
 40
0.0
 40
0.5
 40
1.0
 40
1.0
 40
1.0
 40
1.0
 10
463.2977515888504
 20
215.9287753601426
 30
0.0
 10
463.1346301245939
 20
215.9361840048183
 30
0.0
 10
462.8096524191181
 20
215.934990071625
 30
0.0
 10
462.4871789155925
 20
215.9021058090948
 30
0.0
 10
462.3265798327506
 20
215.8775940658286
 30
0.0
  0
SPLINE
  5
1FD
330
1F
100
AcDbEntity
  8
1
100
AcDbSpline
210
0.0
220
0.0
230
1.0
 70
     8
 71
     3
 72
    10
 73
     6
 74
     0
 42
0.000000001
 43
0.0000000001
 40
0.0
 40
0.0
 40
0.0
 40
0.0
 40
0.5
 40
0.5
 40
1.0
 40
1.0
 40
1.0
 40
1.0
 10
463.2855513984788
 20
207.8734452733069
 30
0.0
 10
463.382479919712
 20
207.9015120297095
 30
0.0
 10
463.4858665422049
 20
207.9287910164014
 30
0.0
 10
463.704588476191
 20
207.9827154051884
 30
0.0
 10
463.8199321432786
 20
208.0093581451954
 30
0.0
 10
463.9410554500453
 20
208.0361433155994
 30
0.0
  0
SPLINE
  5
1FE
330
1F
100
AcDbEntity
  8
1
100
AcDbSpline
210
0.0
220
0.0
230
1.0
 70
     8
 71
     3
 72
    10
 73
     6
 74
     0
 42
0.000000001
 43
0.0000000001
 40
0.0
 40
0.0
 40
0.0
 40
0.0
 40
0.5
 40
0.5
 40
1.0
 40
1.0
 40
1.0
 40
1.0
 10
463.0164316371576
 20
207.5869994333791
 30
0.0
 10
463.060814641191
 20
207.6233464499762
 30
0.0
 10
463.105350280509
 20
207.6660669221596
 30
0.0
 10
463.1948445142843
 20
207.7620614980113
 30
0.0
 10
463.2398133600509
 20
207.815370357107
 30
0.0
 10
463.2855513984788
 20
207.8734452733069
 30
0.0
  0
SPLINE
  5
1FF
330
1F
100
AcDbEntity
  8
1
100
AcDbSpline
210
0.0
220
0.0
230
1.0
 70
     8
 71
     3
 72
    57
 73
    53
 74
     0
 42
0.000000001
 43
0.0000000001
 40
0.0
 40
0.0
 40
0.0
 40
0.0
 40
0.0156249999999993
 40
0.0156249999999993
 40
0.0312499999999985
 40
0.0312499999999985
 40
0.0624999999999983
 40
0.0624999999999983
 40
0.1249999999999988
 40
0.1249999999999988
 40
0.1406249999999981
 40
0.1406249999999981
 40
0.1562499999999974
 40
0.1874999999999966
 40
0.1874999999999966
 40
0.2499999999999949
 40
0.2499999999999949
 40
0.3124999999999934
 40
0.3124999999999934
 40
0.3281249999999927
 40
0.3281249999999927
 40
0.3437499999999921
 40
0.3437499999999921
 40
0.3749999999999909
 40
0.3749999999999909
 40
0.4374999999999904
 40
0.4999999999999899
 40
0.4999999999999899
 40
0.5312499999999894
 40
0.5312499999999894
 40
0.5624999999999889
 40
0.5624999999999889
 40
0.624999999999988
 40
0.624999999999988
 40
0.6874999999999872
 40
0.6874999999999872
 40
0.7499999999999863
 40
0.7499999999999863
 40
0.7812499999999865
 40
0.7812499999999865
 40
0.7968749999999877
 40
0.7968749999999877
 40
0.8124999999999888
 40
0.8124999999999888
 40
0.8749999999999907
 40
0.8749999999999907
 40
0.9374999999999927
 40
0.9374999999999927
 40
0.9531249999999944
 40
0.9531249999999944
 40
0.9687499999999964
 40
1.0
 40
1.0
 40
1.0
 40
1.0
 10
463.2855513984788
 20
207.8734452733069
 30
0.0
 10
463.2772406224508
 20
207.8786766542755
 30
0.0
 10
463.268338226485
 20
207.8839628328007
 30
0.0
 10
463.2495403535558
 20
207.8945896242588
 30
0.0
 10
463.2396295562188
 20
207.8999399457182
 30
0.0
 10
463.2084741082218
 20
207.9161155424231
 30
0.0
 10
463.1858108356967
 20
207.9270654932382
 30
0.0
 10
463.1128494960458
 20
207.9605230978382
 30
0.0
 10
463.0576211619513
 20
207.9836384333225
 30
0.0
 10
462.9818401357016
 20
208.0139037213007
 30
0.0
 10
462.9663235904168
 20
208.0200328784717
 30
0.0
 10
462.934827074237
 20
208.0323622507939
 30
0.0
 10
462.8868313934638
 20
208.0509851689913
 30
0.0
 10
462.8367240096522
 20
208.0700309741551
 30
0.0
 10
462.7339778863452
 20
208.1087731620163
 30
0.0
 10
462.6621230803016
 20
208.1354700123628
 30
0.0
 10
462.512640253598
 20
208.1910090811653
 30
0.0
 10
462.4350053433188
 20
208.2198497062292
 30
0.0
 10
462.3346175656181
 20
208.2574791340512
 30
0.0
 10
462.3143718102343
 20
208.2650839553145
 30
0.0
 10
462.2735469402848
 20
208.2804575606419
 30
0.0
 10
462.2529566684423
 20
208.2882306155371
 30
0.0
 10
462.1909596176744
 20
208.3117020214797
 30
0.0
 10
462.1492436990904
 20
208.3275839889334
 30
0.0
 10
462.0229950124192
 20
208.3759749122704
 30
0.0
 10
461.8517396626606
 20
208.4424846904712
 30
0.0
 10
461.6748817939726
 20
208.5133693199971
 30
0.0
 10
461.540095942213
 20
208.5683150962401
 30
0.0
 10
461.4948089190287
 20
208.5869273796913
 30
0.0
 10
461.403494541369
 20
208.6247700807272
 30
0.0
 10
461.3573965203328
 20
208.6440310371759
 30
0.0
 10
461.219386320353
 20
208.7021641374116
 30
0.0
 10
461.1273332089074
 20
208.7415629198176
 30
0.0
 10
460.943085303637
 20
208.8215718696175
 30
0.0
 10
460.8508907650603
 20
208.862182374216
 30
0.0
 10
460.6662588897957
 20
208.944481029595
 30
0.0
 10
460.5738222880889
 20
208.9861700927311
 30
0.0
 10
460.434859912566
 20
209.0493545291208
 30
0.0
 10
460.388487295418
 20
209.0705238076325
 30
0.0
 10
460.3188282733834
 20
209.102411883243
 30
0.0
 10
460.2955762763175
 20
209.1130707348509
 30
0.0
 10
460.2493749493565
 20
209.1342711321401
 30
0.0
 10
460.2263845770496
 20
209.1448314415644
 30
0.0
 10
460.1119796083631
 20
209.1974138846544
 30
0.0
 10
460.0222020127716
 20
209.2387859034185
 30
0.0
 10
459.8460805549677
 20
209.3195323082969
 30
0.0
 10
459.7597357294629
 20
209.35891052676
 30
0.0
 10
459.6539796678698
 20
209.4063577229965
 30
0.0
 10
459.6329126310839
 20
209.4157685873084
 30
0.0
 10
459.5912053778443
 20
209.4343029647818
 30
0.0
 10
459.5292326647914
 20
209.4616969372798
 30
0.0
 10
459.4690186467937
 20
209.4878079968099
 30
0.0
 10
459.4296611780971
 20
209.5045814505333
 30
0.0
  0
SPLINE
  5
200
330
1F
100
AcDbEntity
  8
1
100
AcDbSpline
210
0.0
220
0.0
230
1.0
 70
     8
 71
     3
 72
     8
 73
     4
 74
     0
 42
0.000000001
 43
0.0000000001
 40
0.0
 40
0.0
 40
0.0
 40
0.0
 40
1.0
 40
1.0
 40
1.0
 40
1.0
 10
465.4471871452604
 20
194.6204537995264
 30
0.0
 10
465.4470886137641
 20
194.6205336628475
 30
0.0
 10
465.4469900676513
 20
194.620613546314
 30
0.0
 10
465.4468915069424
 20
194.6206934499309
 30
0.0
  0
SPLINE
  5
201
330
1F
100
AcDbEntity
  8
1
100
AcDbSpline
210
0.0
220
0.0
230
1.0
 70
     8
 71
     3
 72
    10
 73
     6
 74
     0
 42
0.000000001
 43
0.0000000001
 40
0.0
 40
0.0
 40
0.0
 40
0.0
 40
0.5
 40
0.5
 40
1.0
 40
1.0
 40
1.0
 40
1.0
 10
463.2855513984788
 20
195.9022800733435
 30
0.0
 10
463.382479919712
 20
196.1228448718639
 30
0.0
 10
463.4858665422049
 20
196.3403489837686
 30
0.0
 10
463.704588476191
 20
196.7698503759251
 30
0.0
 10
463.8199321432786
 20
196.9818433851448
 30
0.0
 10
463.9410554500451
 20
197.1912577094229
 30
0.0
  0
SPLINE
  5
202
330
1F
100
AcDbEntity
  8
1
100
AcDbSpline
210
0.0
220
0.0
230
1.0
 70
     8
 71
     3
 72
    30
 73
    26
 74
     0
 42
0.000000001
 43
0.0000000001
 40
0.0
 40
0.0
 40
0.0
 40
0.0
 40
0.0625000000000039
 40
0.0625000000000039
 40
0.1250000000000078
 40
0.1250000000000078
 40
0.2500000000000087
 40
0.2500000000000087
 40
0.3750000000000097
 40
0.3750000000000097
 40
0.4375000000000096
 40
0.4375000000000096
 40
0.5000000000000095
 40
0.5000000000000095
 40
0.6250000000000118
 40
0.6250000000000118
 40
0.6875000000000124
 40
0.6875000000000124
 40
0.7500000000000129
 40
0.7500000000000129
 40
0.875000000000009
 40
0.875000000000009
 40
0.9375000000000046
 40
0.9375000000000046
 40
1.0
 40
1.0
 40
1.0
 40
1.0
 10
462.9924149563842
 20
194.5967447077853
 30
0.0
 10
462.9841476752651
 20
194.6088198494351
 30
0.0
 10
462.9763351780708
 20
194.6213366987369
 30
0.0
 10
462.9616416327047
 20
194.6473219293633
 30
0.0
 10
462.9547450613268
 20
194.6608245117126
 30
0.0
 10
462.9356117982816
 20
194.7026566285921
 30
0.0
 10
462.9250564878501
 20
194.7319847276081
 30
0.0
 10
462.9083239189388
 20
194.7937998597534
 30
0.0
 10
462.9021438432098
 20
194.8262840119804
 30
0.0
 10
462.896351217839
 20
194.8777311777043
 30
0.0
 10
462.8950065811931
 20
194.8953887023964
 30
0.0
 10
462.8935572332126
 20
194.9309405090452
 30
0.0
 10
462.8934397584278
 20
194.9489146408773
 30
0.0
 10
462.8948774326898
 20
195.0034450054025
 30
0.0
 10
462.8982108099572
 20
195.0406068871392
 30
0.0
 10
462.9068528784208
 20
195.0976522526291
 30
0.0
 10
462.9103552471029
 20
195.1169399282066
 30
0.0
 10
462.9185806406233
 20
195.1557348154523
 30
0.0
 10
462.9232558694353
 20
195.1750329404246
 30
0.0
 10
462.9389072005106
 20
195.2326400360486
 30
0.0
 10
462.9514981889568
 20
195.2706642792292
 30
0.0
 10
462.9735849502801
 20
195.3271228025896
 30
0.0
 10
462.9815150411972
 20
195.3459134142869
 30
0.0
 10
462.9983126860888
 20
195.3829418008187
 30
0.0
 10
463.0071551142394
 20
195.4011356644271
 30
0.0
 10
463.0164316371576
 20
195.4190193967044
 30
0.0
  0
SPLINE
  5
203
330
1F
100
AcDbEntity
  8
1
100
AcDbSpline
210
0.0
220
0.0
230
1.0
 70
     8
 71
     3
 72
    10
 73
     6
 74
     0
 42
0.000000001
 43
0.0000000001
 40
0.0
 40
0.0
 40
0.0
 40
0.0
 40
0.5000000000000005
 40
0.5000000000000005
 40
1.0
 40
1.0
 40
1.0
 40
1.0
 10
463.0164316371576
 20
195.4190193967044
 30
0.0
 10
463.060814641191
 20
195.5045831115561
 30
0.0
 10
463.105350280509
 20
195.5874097761446
 30
0.0
 10
463.1948445142843
 20
195.748421240169
 30
0.0
 10
463.2398133600509
 20
195.82658504588
 30
0.0
 10
463.2855513984788
 20
195.9022800733435
 30
0.0
  0
SPLINE
  5
204
330
1F
100
AcDbEntity
  8
1
100
AcDbSpline
210
0.0
220
0.0
230
1.0
 70
     8
 71
     3
 72
    58
 73
    54
 74
     0
 42
0.000000001
 43
0.0000000001
 40
0.0
 40
0.0
 40
0.0
 40
0.0
 40
0.0156249999999985
 40
0.0156249999999985
 40
0.0312499999999971
 40
0.0312499999999971
 40
0.0624999999999952
 40
0.0624999999999952
 40
0.1249999999999903
 40
0.1249999999999903
 40
0.1406249999999883
 40
0.1406249999999883
 40
0.1562499999999861
 40
0.1874999999999834
 40
0.1874999999999834
 40
0.2499999999999779
 40
0.2499999999999779
 40
0.3124999999999722
 40
0.3124999999999722
 40
0.3281249999999721
 40
0.3281249999999721
 40
0.343749999999972
 40
0.343749999999972
 40
0.3749999999999718
 40
0.3749999999999718
 40
0.4374999999999732
 40
0.4374999999999732
 40
0.4999999999999747
 40
0.4999999999999747
 40
0.5312499999999753
 40
0.5312499999999753
 40
0.5624999999999759
 40
0.5624999999999759
 40
0.6249999999999766
 40
0.6249999999999766
 40
0.6874999999999775
 40
0.6874999999999775
 40
0.7499999999999783
 40
0.7499999999999783
 40
0.7812499999999789
 40
0.7812499999999789
 40
0.7968749999999805
 40
0.7968749999999805
 40
0.812499999999982
 40
0.812499999999982
 40
0.8749999999999866
 40
0.8749999999999866
 40
0.9374999999999912
 40
0.9374999999999912
 40
0.9531249999999934
 40
0.9531249999999934
 40
0.9687499999999955
 40
1.0
 40
1.0
 40
1.0
 40
1.0
 10
463.2855513984788
 20
195.9022800733435
 30
0.0
 10
463.2772406224508
 20
195.9266656442115
 30
0.0
 10
463.268338226485
 20
195.9508582802784
 30
0.0
 10
463.2495403535558
 20
195.9986045363045
 30
0.0
 10
463.2396295562188
 20
196.0222035355151
 30
0.0
 10
463.2084741082218
 20
196.0922397599399
 30
0.0
 10
463.1858108356967
 20
196.1379186089513
 30
0.0
 10
463.1128494960458
 20
196.2723079364199
 30
0.0
 10
463.0576211619513
 20
196.3583934680383
 30
0.0
 10
462.9818401357016
 20
196.462442059142
 30
0.0
 10
462.9663235904168
 20
196.48309588596
 30
0.0
 10
462.934827074237
 20
196.5238137939993
 30
0.0
 10
462.8868313934638
 20
196.5840850323428
 30
0.0
 10
462.8367240096522
 20
196.6420853171749
 30
0.0
 10
462.7339778863452
 20
196.7553508736534
 30
0.0
 10
462.6621230803016
 20
196.8272332192347
 30
0.0
 10
462.512640253598
 20
196.9647014515521
 30
0.0
 10
462.4350053433188
 20
197.0302801931815
 30
0.0
 10
462.3346175656181
 20
197.1085765512564
 30
0.0
 10
462.3143718102343
 20
197.124050919059
 30
0.0
 10
462.2735469402848
 20
197.1546325216946
 30
0.0
 10
462.2529566684423
 20
197.1697471202602
 30
0.0
 10
462.1909596176743
 20
197.2143508007983
 30
0.0
 10
462.1492436990904
 20
197.2431645979509
 30
0.0
 10
462.0229950124192
 20
197.3269281824435
 30
0.0
 10
461.9373670423493
 20
197.3792117962412
 30
0.0
 10
461.7633107283167
 20
197.4768161545304
 30
0.0
 10
461.6748817939726
 20
197.5221360131905
 30
0.0
 10
461.5400959422131
 20
197.5847330115226
 30
0.0
 10
461.4948089190287
 20
197.6046987873813
 30
0.0
 10
461.403494541369
 20
197.6427691337791
 30
0.0
 10
461.3573965203328
 20
197.6608944558575
 30
0.0
 10
461.219386320353
 20
197.7118459840134
 30
0.0
 10
461.1273332089074
 20
197.7414506434567
 30
0.0
 10
460.943085303637
 20
197.7916915954971
 30
0.0
 10
460.8508907650601
 20
197.812329466941
 30
0.0
 10
460.6662588897957
 20
197.8440122915998
 30
0.0
 10
460.5738222880889
 20
197.8550621302247
 30
0.0
 10
460.434859912566
 20
197.8636190303296
 30
0.0
 10
460.388487295418
 20
197.8651309014752
 30
0.0
 10
460.3188282733834
 20
197.8652382201153
 30
0.0
 10
460.2955762763174
 20
197.8649115836519
 30
0.0
 10
460.2493749493564
 20
197.8635236339682
 30
0.0
 10
460.2263845770496
 20
197.8624630260399
 30
0.0
 10
460.1119796083631
 20
197.8553085631517
 30
0.0
 10
460.0222020127716
 20
197.8436818678183
 30
0.0
 10
459.8460805549677
 20
197.807828417289
 30
0.0
 10
459.7597357294629
 20
197.7836103295897
 30
0.0
 10
459.6539796678698
 20
197.7445562492269
 30
0.0
 10
459.6329126310839
 20
197.7362930848545
 30
0.0
 10
459.5912053778443
 20
197.718941677023
 30
0.0
 10
459.5292326647914
 20
197.6916603778493
 30
0.0
 10
459.4690186467937
 20
197.6605677655745
 30
0.0
 10
459.4296611780971
 20
197.6380794579721
 30
0.0
  0
SPLINE
  5
205
330
1F
100
AcDbEntity
  8
1
100
AcDbSpline
210
0.0
220
0.0
230
1.0
 70
     8
 71
     3
 72
    32
 73
    28
 74
     0
 42
0.000000001
 43
0.0000000001
 40
0.0
 40
0.0
 40
0.0
 40
0.0
 40
0.1249999999999772
 40
0.1249999999999772
 40
0.1562499999999832
 40
0.1562499999999832
 40
0.1874999999999893
 40
0.1874999999999893
 40
0.2499999999999993
 40
0.3125000000000093
 40
0.3125000000000093
 40
0.343750000000016
 40
0.343750000000016
 40
0.3750000000000227
 40
0.3750000000000227
 40
0.5000000000000279
 40
0.5000000000000279
 40
0.5625000000000258
 40
0.5625000000000258
 40
0.6250000000000237
 40
0.6875000000000217
 40
0.6875000000000217
 40
0.7500000000000196
 40
0.7500000000000196
 40
0.8750000000000095
 40
0.8750000000000095
 40
1.0
 40
1.0
 40
1.0
 40
1.0
 10
473.2986936059524
 20
183.6781681822378
 30
0.0
 10
473.3356245929514
 20
183.677344786318
 30
0.0
 10
473.3717816246659
 20
183.6813635514862
 30
0.0
 10
473.4160597436427
 20
183.6921314357674
 30
0.0
 10
473.4248689165176
 20
183.6945756273979
 30
0.0
 10
473.4423934599241
 20
183.7000508740918
 30
0.0
 10
473.4511027370559
 20
183.7030828414966
 30
0.0
 10
473.4767197009463
 20
183.7129150007169
 30
0.0
 10
473.5097732568882
 20
183.7280582773923
 30
0.0
 10
473.5407582619837
 20
183.7470176749688
 30
0.0
 10
473.5632426504927
 20
183.7626288975409
 30
0.0
 10
473.5706310223121
 20
183.7680812553493
 30
0.0
 10
473.5850163716595
 20
183.7793366612028
 30
0.0
 10
473.5920229583833
 20
183.7851444052138
 30
0.0
 10
473.6261663606671
 20
183.8150437515832
 30
0.0
 10
473.6506636884199
 20
183.841689072479
 30
0.0
 10
473.6835716147203
 20
183.8853704025084
 30
0.0
 10
473.6937829747816
 20
183.9004102570298
 30
0.0
 10
473.712691192902
 20
183.9312088967325
 30
0.0
 10
473.7301256218936
 20
183.9627815561234
 30
0.0
 10
473.7447677828256
 20
183.9958206874874
 30
0.0
 10
473.758050931918
 20
184.0295735586257
 30
0.0
 10
473.7639982843774
 20
184.0467891426738
 30
0.0
 10
473.7796083369055
 20
184.0986707326806
 30
0.0
 10
473.7871668341612
 20
184.1338336858001
 30
0.0
 10
473.7969430850803
 20
184.2052382143937
 30
0.0
 10
473.799142149441
 20
184.2416217692873
 30
0.0
 10
473.7986174535306
 20
184.2779718157686
 30
0.0
  0
SPLINE
  5
206
330
1F
100
AcDbEntity
  8
1
100
AcDbSpline
210
0.0
220
0.0
230
1.0
 70
     8
 71
     3
 72
     9
 73
     5
 74
     0
 42
0.000000001
 43
0.0000000001
 40
0.0
 40
0.0
 40
0.0
 40
0.0
 40
0.5
 40
1.0
 40
1.0
 40
1.0
 40
1.0
 10
463.2977515888504
 20
179.8370864035367
 30
0.0
 10
463.1346301245939
 20
179.8473077130207
 30
0.0
 10
462.8096524191181
 20
179.8820463732578
 30
0.0
 10
462.4871789155925
 20
179.945080577746
 30
0.0
 10
462.3265798327506
 20
179.9838028453588
 30
0.0
  0
SPLINE
  5
207
330
1F
100
AcDbEntity
  8
1
100
AcDbSpline
210
0.0
220
0.0
230
1.0
 70
     8
 71
     3
 72
    10
 73
     6
 74
     0
 42
0.000000001
 43
0.0000000001
 40
0.0
 40
0.0
 40
0.0
 40
0.0
 40
0.5
 40
0.5
 40
1.0
 40
1.0
 40
1.0
 40
1.0
 10
462.3265798327503
 20
184.0422453321308
 30
0.0
 10
462.4857680357279
 20
184.0003236397356
 30
0.0
 10
462.6462901576256
 20
183.9678668605231
 30
0.0
 10
462.9700003713562
 20
183.9218698746198
 30
0.0
 10
463.1331881937386
 20
183.9083277560223
 30
0.0
 10
463.2977515888502
 20
183.9045461080677
 30
0.0
  0
SPLINE
  5
208
330
1F
100
AcDbEntity
  8
1
100
AcDbSpline
210
0.0
220
0.0
230
1.0
 70
     8
 71
     3
 72
    51
 73
    47
 74
     0
 42
0.000000001
 43
0.0000000001
 40
0.0
 40
0.0
 40
0.0
 40
0.0
 40
0.0625000000000045
 40
0.0625000000000045
 40
0.125000000000009
 40
0.125000000000009
 40
0.1562500000000108
 40
0.1562500000000108
 40
0.171875000000011
 40
0.171875000000011
 40
0.1875000000000113
 40
0.1875000000000113
 40
0.2500000000000145
 40
0.2500000000000145
 40
0.3125000000000178
 40
0.3125000000000178
 40
0.3281250000000175
 40
0.3281250000000175
 40
0.3437500000000173
 40
0.3750000000000168
 40
0.3750000000000168
 40
0.4375000000000141
 40
0.4375000000000141
 40
0.5000000000000114
 40
0.5000000000000114
 40
0.5312500000000099
 40
0.5312500000000099
 40
0.5625000000000085
 40
0.5625000000000085
 40
0.6250000000000057
 40
0.6250000000000057
 40
0.6875000000000031
 40
0.6875000000000031
 40
0.7187500000000026
 40
0.7187500000000026
 40
0.7500000000000022
 40
0.7500000000000022
 40
0.8125000000000007
 40
0.8125000000000007
 40
0.8749999999999994
 40
0.8749999999999994
 40
0.9062499999999996
 40
0.9062499999999996
 40
0.9374999999999998
 40
0.9374999999999998
 40
1.0
 40
1.0
 40
1.0
 40
1.0
 10
458.9243845942666
 20
194.7725135542153
 30
0.0
 10
458.9792993828886
 20
194.6931329686616
 30
0.0
 10
459.0387438563204
 20
194.6192531729342
 30
0.0
 10
459.1660941747568
 20
194.4814077524656
 30
0.0
 10
459.2340049261268
 20
194.4174493488617
 30
0.0
 10
459.3420737791303
 20
194.328543134686
 30
0.0
 10
459.3791331458556
 20
194.3000831051276
 30
0.0
 10
459.4362797626017
 20
194.2591324399325
 30
0.0
 10
459.4556032310356
 20
194.2457639051862
 30
0.0
 10
459.4945171992517
 20
194.2197690726665
 30
0.0
 10
459.5141369166407
 20
194.2071210192854
 30
0.0
 10
459.6130333074959
 20
194.1455766128218
 30
0.0
 10
459.6946961370625
 20
194.1017476818861
 30
0.0
 10
459.8628334353038
 20
194.0239510900047
 30
0.0
 10
459.9493092881673
 20
193.9899876508743
 30
0.0
 10
460.0603368919396
 20
193.9533770288799
 30
0.0
 10
460.0827150568933
 20
193.9463404553768
 30
0.0
 10
460.1276323517468
 20
193.9328879427045
 30
0.0
 10
460.1951995341551
 20
193.913652816303
 30
0.0
 10
460.2633304860856
 20
193.8971691131197
 30
0.0
 10
460.4003224481042
 20
193.8677017349926
 30
0.0
 10
460.4926225323928
 20
193.8527118501733
 30
0.0
 10
460.6790873356384
 20
193.8314622763171
 30
0.0
 10
460.7732522441203
 20
193.8252039428542
 30
0.0
 10
460.9158685739047
 20
193.8222025466716
 30
0.0
 10
460.9636545549078
 20
193.8222749571466
 30
0.0
 10
461.0588734631427
 20
193.824518774308
 30
0.0
 10
461.1064072637394
 20
193.8266862805601
 30
0.0
 10
461.2487810936719
 20
193.8362506553833
 30
0.0
 10
461.3433954398413
 20
193.8466975026475
 30
0.0
 10
461.531973710547
 20
193.8756227111795
 30
0.0
 10
461.6259381689973
 20
193.8940991189197
 30
0.0
 10
461.7663118712382
 20
193.9280570800771
 30
0.0
 10
461.8130070425959
 20
193.940420262241
 30
0.0
 10
461.9061827240003
 20
193.96731769538
 30
0.0
 10
461.9527540921783
 20
193.9818856287842
 30
0.0
 10
462.0909823707783
 20
194.0286310424797
 30
0.0
 10
462.181408055175
 20
194.063883430384
 30
0.0
 10
462.3583824910278
 20
194.1432241781575
 30
0.0
 10
462.4449372982061
 20
194.1873010998153
 30
0.0
 10
462.5712658955832
 20
194.2610896302778
 30
0.0
 10
462.6127880727078
 20
194.2869713994933
 30
0.0
 10
462.6945000510156
 20
194.3415945975832
 30
0.0
 10
462.7347448809754
 20
194.3703917494421
 30
0.0
 10
462.8516081217139
 20
194.4603864250985
 30
0.0
 10
462.9249065741238
 20
194.5254529270293
 30
0.0
 10
462.9924149563829
 20
194.5967447077854
 30
0.0
  0
SPLINE
  5
209
330
1F
100
AcDbEntity
  8
1
100
AcDbSpline
210
0.0
220
0.0
230
1.0
 70
     8
 71
     3
 72
    14
 73
    10
 74
     0
 42
0.000000001
 43
0.0000000001
 40
0.0
 40
0.0
 40
0.0
 40
0.0
 40
0.25
 40
0.25
 40
0.5
 40
0.5
 40
0.75
 40
0.75
 40
1.0
 40
1.0
 40
1.0
 40
1.0
 10
463.7533187721906
 20
193.3649077498879
 30
0.0
 10
463.6859628426731
 20
193.4301212633067
 30
0.0
 10
463.6216078821984
 20
193.4975690162756
 30
0.0
 10
463.4991372912073
 20
193.6370674993766
 30
0.0
 10
463.4410199980653
 20
193.7091170895114
 30
0.0
 10
463.3314373517928
 20
193.8580789744368
 30
0.0
 10
463.279968562127
 20
193.9349888756881
 30
0.0
 10
463.1843448308541
 20
194.094107584902
 30
0.0
 10
463.140182732754
 20
194.1763113787952
 30
0.0
 10
463.1002077641021
 20
194.2615231154145
 30
0.0
  0
SPLINE
  5
20A
330
1F
100
AcDbEntity
  8
1
100
AcDbSpline
210
0.0
220
0.0
230
1.0
 70
     8
 71
     3
 72
    12
 73
     8
 74
     0
 42
0.000000001
 43
0.0000000001
 40
0.0
 40
0.0
 40
0.0
 40
0.0
 40
0.2500000000000034
 40
0.2500000000000034
 40
0.500000000000007
 40
0.500000000000007
 40
1.0
 40
1.0
 40
1.0
 40
1.0
 10
463.1002077641023
 20
194.2615231154147
 30
0.0
 10
463.0877287135448
 20
194.2881238009246
 30
0.0
 10
463.0760766782797
 20
194.3151762188541
 30
0.0
 10
463.0544484396588
 20
194.3701944439359
 30
0.0
 10
463.0444619057336
 20
194.3982134141698
 30
0.0
 10
463.0174217055524
 20
194.4824881678374
 30
0.0
 10
463.0031211724203
 20
194.5393117325906
 30
0.0
 10
462.992414956384
 20
194.5967447077843
 30
0.0
  0
SPLINE
  5
20B
330
1F
100
AcDbEntity
  8
1
100
AcDbSpline
210
0.0
220
0.0
230
1.0
 70
     8
 71
     3
 72
    34
 73
    30
 74
     0
 42
0.000000001
 43
0.0000000001
 40
0.0
 40
0.0
 40
0.0
 40
0.0
 40
0.1249999999999969
 40
0.1249999999999969
 40
0.1874999999999944
 40
0.1874999999999944
 40
0.2499999999999918
 40
0.2499999999999918
 40
0.374999999999987
 40
0.374999999999987
 40
0.4374999999999843
 40
0.4374999999999843
 40
0.4687499999999832
 40
0.4687499999999832
 40
0.4999999999999818
 40
0.4999999999999818
 40
0.6249999999999817
 40
0.6249999999999817
 40
0.6562499999999828
 40
0.6562499999999828
 40
0.687499999999984
 40
0.687499999999984
 40
0.7499999999999865
 40
0.7499999999999865
 40
0.8749999999999932
 40
0.8749999999999932
 40
0.9374999999999968
 40
0.9374999999999968
 40
1.0
 40
1.0
 40
1.0
 40
1.0
 10
440.1074973024383
 20
200.9789851258946
 30
0.0
 10
440.1074973024383
 20
201.031341511895
 30
0.0
 10
440.1024075498798
 20
201.0827929197829
 30
0.0
 10
440.087481357571
 20
201.1586778180909
 30
0.0
 10
440.0812817141114
 20
201.1837559142809
 30
0.0
 10
440.0663846796762
 20
201.2334715502742
 30
0.0
 10
440.0576318528695
 20
201.2582233568309
 30
0.0
 10
440.0280643012113
 20
201.3303916337267
 30
0.0
 10
440.0039266605753
 20
201.3760646232948
 30
0.0
 10
439.9611360225125
 20
201.4409677209699
 30
0.0
 10
439.9457674302157
 20
201.4619968547491
 30
0.0
 10
439.920989630121
 20
201.4925992178261
 30
0.0
 10
439.9124603357805
 20
201.5026176113806
 30
0.0
 10
439.8950102069442
 20
201.5221240018791
 30
0.0
 10
439.8860692232033
 20
201.531637265605
 30
0.0
 10
439.8402971783166
 20
201.5780193257935
 30
0.0
 10
439.8002960377996
 20
201.6113700337924
 30
0.0
 10
439.7459503006396
 20
201.6482620098897
 30
0.0
 10
439.7348619502445
 20
201.6553983846018
 30
0.0
 10
439.7122355607102
 20
201.669175230895
 30
0.0
 10
439.7007072976741
 20
201.6758069662577
 30
0.0
 10
439.6658488240381
 20
201.6947248112614
 30
0.0
 10
439.6421159674093
 20
201.7061170411966
 30
0.0
 10
439.569461048492
 20
201.736703337728
 30
0.0
 10
439.5190975392892
 20
201.7523440365643
 30
0.0
 10
439.4405019123996
 20
201.7683040981523
 30
0.0
 10
439.4140505410011
 20
201.7723057611711
 30
0.0
 10
439.3609804916382
 20
201.7776407284398
 30
0.0
 10
439.3343084989187
 20
201.7789851258946
 30
0.0
 10
439.3074973024384
 20
201.7789851258946
 30
0.0
  0
SPLINE
  5
20C
330
1F
100
AcDbEntity
  8
1
100
AcDbSpline
210
0.0
220
0.0
230
1.0
 70
     8
 71
     3
 72
    32
 73
    28
 74
     0
 42
0.000000001
 43
0.0000000001
 40
0.0
 40
0.0
 40
0.0
 40
0.0
 40
0.1250000000000072
 40
0.1250000000000072
 40
0.1875000000000118
 40
0.1875000000000118
 40
0.2187500000000139
 40
0.2187500000000139
 40
0.250000000000016
 40
0.250000000000016
 40
0.3750000000000152
 40
0.3750000000000152
 40
0.4062500000000142
 40
0.4062500000000142
 40
0.4375000000000133
 40
0.4375000000000133
 40
0.5000000000000134
 40
0.5000000000000134
 40
0.6250000000000107
 40
0.6250000000000107
 40
0.7500000000000081
 40
0.7500000000000081
 40
0.812500000000006
 40
0.812500000000006
 40
0.8750000000000039
 40
0.8750000000000039
 40
1.0
 40
1.0
 40
1.0
 40
1.0
 10
439.3074973024384
 20
193.3789851258946
 30
0.0
 10
439.3610905687132
 20
193.3789851258946
 30
0.0
 10
439.4137346478441
 20
193.3843159505964
 30
0.0
 10
439.4913421368611
 20
193.3999488977331
 30
0.0
 10
439.5169831390683
 20
193.4064424662663
 30
0.0
 10
439.5550952584491
 20
193.4181488285527
 30
0.0
 10
439.5677761460743
 20
193.4223929054062
 30
0.0
 10
439.5927802610186
 20
193.4314622178231
 30
0.0
 10
439.6051151428244
 20
193.436288755212
 30
0.0
 10
439.6659724716055
 20
193.4618491554212
 30
0.0
 10
439.712067338659
 20
193.4868244496659
 30
0.0
 10
439.7665003467556
 20
193.5236310898554
 30
0.0
 10
439.7772262039829
 20
193.5312743797176
 30
0.0
 10
439.7983518005359
 20
193.5471336296103
 30
0.0
 10
439.8087272935783
 20
193.5553336913644
 30
0.0
 10
439.8390400815438
 20
193.5805264913845
 30
0.0
 10
439.8582695156136
 20
193.5981870048454
 30
0.0
 10
439.9131132870886
 20
193.6536897499234
 30
0.0
 10
439.9459379828328
 20
193.6940706246867
 30
0.0
 10
440.0037622537247
 20
193.7815386597202
 30
0.0
 10
440.027909676105
 20
193.8273179450456
 30
0.0
 10
440.0573212173449
 20
193.898931478911
 30
0.0
 10
440.06598153702
 20
193.9232970382317
 30
0.0
 10
440.080970576127
 20
193.9730389504718
 30
0.0
 10
440.0873012720463
 20
193.9984813369101
 30
0.0
 10
440.1024120153856
 20
194.0749947678989
 30
0.0
 10
440.1074973024383
 20
194.1266560060833
 30
0.0
 10
440.1074973024383
 20
194.1789851258946
 30
0.0
  0
SPLINE
  5
20D
330
1F
100
AcDbEntity
  8
1
100
AcDbSpline
210
0.0
220
0.0
230
1.0
 70
     8
 71
     3
 72
    51
 73
    47
 74
     0
 42
0.000000001
 43
0.0000000001
 40
0.0
 40
0.0
 40
0.0
 40
0.0
 40
0.0624999999999993
 40
0.0624999999999993
 40
0.1249999999999985
 40
0.1249999999999985
 40
0.1562499999999988
 40
0.1562499999999988
 40
0.1718750000000001
 40
0.1718750000000001
 40
0.1875000000000015
 40
0.1875000000000015
 40
0.2500000000000029
 40
0.2500000000000029
 40
0.3125000000000043
 40
0.3125000000000043
 40
0.3281250000000047
 40
0.3281250000000047
 40
0.3437500000000052
 40
0.3750000000000042
 40
0.3750000000000042
 40
0.4375000000000022
 40
0.4375000000000022
 40
0.5
 40
0.5
 40
0.5312500000000002
 40
0.5312500000000002
 40
0.5625000000000004
 40
0.5625000000000004
 40
0.6250000000000005
 40
0.6250000000000005
 40
0.6875000000000007
 40
0.6875000000000007
 40
0.7187500000000007
 40
0.7187500000000007
 40
0.7500000000000008
 40
0.7500000000000008
 40
0.8125000000000007
 40
0.8125000000000007
 40
0.8750000000000007
 40
0.8750000000000007
 40
0.9062500000000007
 40
0.9062500000000007
 40
0.9375000000000005
 40
0.9375000000000005
 40
1.0
 40
1.0
 40
1.0
 40
1.0
 10
458.9243845942666
 20
209.0555976456627
 30
0.0
 10
458.9792993828886
 20
209.0036400748549
 30
0.0
 10
459.0387438563204
 20
208.9515282384214
 30
0.0
 10
459.1660941747566
 20
208.8475955799466
 30
0.0
 10
459.2340049261265
 20
208.7957725657907
 30
0.0
 10
459.3420737791298
 20
208.7186303201667
 30
0.0
 10
459.3791331458549
 20
208.6930144041826
 30
0.0
 10
459.436279762601
 20
208.6547813851741
 30
0.0
 10
459.4556032310348
 20
208.6420598878611
 30
0.0
 10
459.4945171992509
 20
208.616849813578
 30
0.0
 10
459.5141369166398
 20
208.6043413324337
 30
0.0
 10
459.6130333074949
 20
208.5422849163034
 30
0.0
 10
459.6946961370614
 20
208.4941940674459
 30
0.0
 10
459.8628334353024
 20
208.4012172492305
 30
0.0
 10
459.9493092881659
 20
208.3563311674752
 30
0.0
 10
460.0603368919381
 20
208.3023016944136
 30
0.0
 10
460.0827150568918
 20
208.2915877583723
 30
0.0
 10
460.1276323517451
 20
208.2704320332971
 30
0.0
 10
460.1951995341533
 20
208.2391289905639
 30
0.0
 10
460.2633304860837
 20
208.2090975296836
 30
0.0
 10
460.4003224481023
 20
208.150686119164
 30
0.0
 10
460.4926225323906
 20
208.1139446699552
 30
0.0
 10
460.6790873356361
 20
208.0446960494002
 30
0.0
 10
460.7732522441178
 20
208.0121892722443
 30
0.0
 10
460.915868573902
 20
207.9665396121913
 30
0.0
 10
460.963654554905
 20
207.9518394609036
 30
0.0
 10
461.0588734631399
 20
207.9236998974617
 30
0.0
 10
461.1064072637366
 20
207.9102272158491
 30
0.0
 10
461.2487810936688
 20
207.8715378471704
 30
0.0
 10
461.3433954398381
 20
207.848046436755
 30
0.0
 10
461.5319737105435
 20
207.8054222995449
 30
0.0
 10
461.6259381689939
 20
207.7862897474789
 30
0.0
 10
461.7663118712346
 20
207.7607577155703
 30
0.0
 10
461.8130070425921
 20
207.7527756522157
 30
0.0
 10
461.9061827239966
 20
207.7378620975721
 30
0.0
 10
461.9527540921743
 20
207.7309194166258
 30
0.0
 10
462.0909823707743
 20
207.7118154015726
 30
0.0
 10
462.1814080551709
 20
207.7013257500087
 30
0.0
 10
462.3583824910237
 20
207.6846363200771
 30
0.0
 10
462.4449372982019
 20
207.6784350009227
 30
0.0
 10
462.5712658955791
 20
207.6723286823718
 30
0.0
 10
462.6127880727036
 20
207.6708273234757
 30
0.0
 10
462.6945000510115
 20
207.668912518496
 30
0.0
 10
462.7347448809713
 20
207.6685029092652
 30
0.0
 10
462.8516081217099
 20
207.6689395869393
 30
0.0
 10
462.9249065741198
 20
207.6714200681565
 30
0.0
 10
462.9924149563791
 20
207.6761179293659
 30
0.0
  0
SPLINE
  5
20E
330
1F
100
AcDbEntity
  8
1
100
AcDbSpline
210
0.0
220
0.0
230
1.0
 70
     8
 71
     3
 72
    14
 73
    10
 74
     0
 42
0.000000001
 43
0.0000000001
 40
0.0
 40
0.0
 40
0.0
 40
0.0
 40
0.25
 40
0.25
 40
0.5
 40
0.5
 40
0.75
 40
0.75
 40
1.0
 40
1.0
 40
1.0
 40
1.0
 10
463.7533187721906
 20
207.4128586564425
 30
0.0
 10
463.6859628426731
 20
207.4251306948437
 30
0.0
 10
463.6216078821984
 20
207.4385555298686
 30
0.0
 10
463.4991372912074
 20
207.4673843736254
 30
0.0
 10
463.4410199980653
 20
207.4827887109235
 30
0.0
 10
463.3314373517928
 20
207.5152658265382
 30
0.0
 10
463.279968562127
 20
207.5323389157958
 30
0.0
 10
463.1843448308541
 20
207.5678483137319
 30
0.0
 10
463.140182732754
 20
207.5862849774217
 30
0.0
 10
463.1002077641021
 20
207.6052485303855
 30
0.0
  0
SPLINE
  5
20F
330
1F
100
AcDbEntity
  8
1
100
AcDbSpline
210
0.0
220
0.0
230
1.0
 70
     8
 71
     3
 72
    14
 73
    10
 74
     0
 42
0.000000001
 43
0.0000000001
 40
0.0
 40
0.0
 40
0.0
 40
0.0
 40
0.4999999999999972
 40
0.4999999999999972
 40
0.7500000000000022
 40
0.7500000000000022
 40
0.875000000000001
 40
0.875000000000001
 40
1.0
 40
1.0
 40
1.0
 40
1.0
 10
463.1002077641023
 20
207.6052485303856
 30
0.0
 10
463.0752715908672
 20
207.6170778940551
 30
0.0
 10
463.0538125458332
 20
207.628962580336
 30
0.0
 10
463.0268082641562
 20
207.6467444407186
 30
0.0
 10
463.0186735608606
 20
207.6526643927816
 30
0.0
 10
463.0077923724655
 20
207.6615186372011
 30
0.0
 10
463.0043812255539
 20
207.6644702769728
 30
0.0
 10
462.9980433290661
 20
207.6703257231992
 30
0.0
 10
462.9951121137479
 20
207.6732326054013
 30
0.0
 10
462.9924149563856
 20
207.6761179293638
 30
0.0
  0
SPLINE
  5
210
330
1F
100
AcDbEntity
  8
1
100
AcDbSpline
210
0.0
220
0.0
230
1.0
 70
     8
 71
     3
 72
     8
 73
     4
 74
     0
 42
0.000000001
 43
0.0000000001
 40
0.0
 40
0.0
 40
0.0
 40
0.0
 40
1.0
 40
1.0
 40
1.0
 40
1.0
 10
473.6613588272261
 20
194.2949656823105
 30
0.0
 10
473.6624090818007
 20
194.6620941801064
 30
0.0
 10
473.6638615235619
 20
195.0292168446626
 30
0.0
 10
473.6656995110165
 20
195.3963339173442
 30
0.0
  0
SPLINE
  5
211
330
1F
100
AcDbEntity
  8
1
100
AcDbSpline
210
0.0
220
0.0
230
1.0
 70
     8
 71
     3
 72
     8
 73
     4
 74
     0
 42
0.000000001
 43
0.0000000001
 40
0.0
 40
0.0
 40
0.0
 40
0.0
 40
1.0
 40
1.0
 40
1.0
 40
1.0
 10
473.6658505050164
 20
195.3924202294623
 30
0.0
 10
473.6750836977198
 20
195.1531067751765
 30
0.0
 10
473.6843605878925
 20
194.9138004736477
 30
0.0
 10
473.6936663034007
 20
194.6744988904842
 30
0.0
  0
SPLINE
  5
212
330
1F
100
AcDbEntity
  8
1
100
AcDbSpline
210
0.0
220
0.0
230
1.0
 70
     8
 71
     3
 72
     8
 73
     4
 74
     0
 42
0.000000001
 43
0.0000000001
 40
0.0
 40
0.0
 40
0.0
 40
0.0
 40
1.0
 40
1.0
 40
1.0
 40
1.0
 10
473.6936663034007
 20
194.6744988904842
 30
0.0
 10
473.6967016741522
 20
194.9115606390606
 30
0.0
 10
473.699904953365
 20
195.1486244661893
 30
0.0
 10
473.7032584683464
 20
195.3856901530988
 30
0.0
  0
SPLINE
  5
213
330
1F
100
AcDbEntity
  8
1
100
AcDbSpline
210
0.0
220
0.0
230
1.0
 70
     8
 71
     3
 72
     8
 73
     4
 74
     0
 42
0.000000001
 43
0.0000000001
 40
0.0
 40
0.0
 40
0.0
 40
0.0
 40
1.0
 40
1.0
 40
1.0
 40
1.0
 10
473.7832150539116
 20
200.0136150380044
 30
0.0
 10
473.7873610372894
 20
200.2252174199593
 30
0.0
 10
473.791555648293
 20
200.4368202708256
 30
0.0
 10
473.795791900968
 20
200.6484234589455
 30
0.0
  0
SPLINE
  5
214
330
1F
100
AcDbEntity
  8
1
100
AcDbSpline
210
0.0
220
0.0
230
1.0
 70
     8
 71
     3
 72
    10
 73
     6
 74
     0
 42
0.000000001
 43
0.0000000001
 40
0.0
 40
0.0
 40
0.0
 40
0.0
 40
0.5
 40
0.5
 40
1.0
 40
1.0
 40
1.0
 40
1.0
 10
473.6936663034007
 20
207.062067100526
 30
0.0
 10
473.7067146312467
 20
206.8327792665286
 30
0.0
 10
473.7228658039941
 20
206.6034130586176
 30
0.0
 10
473.7585660664282
 20
206.1445948157378
 30
0.0
 10
473.7781267487014
 20
205.9151424256455
 30
0.0
 10
473.7986174535306
 20
205.685667622665
 30
0.0
  0
SPLINE
  5
215
330
1F
100
AcDbEntity
  8
1
100
AcDbSpline
210
0.0
220
0.0
230
1.0
 70
     8
 71
     3
 72
     8
 73
     4
 74
     0
 42
0.000000001
 43
0.0000000001
 40
0.0
 40
0.0
 40
0.0
 40
0.0
 40
1.0
 40
1.0
 40
1.0
 40
1.0
 10
473.6595076223062
 20
195.3932844197713
 30
0.0
 10
473.6600952122638
 20
194.6228084599223
 30
0.0
 10
473.6621975464763
 20
193.852328242565
 30
0.0
 10
473.6656995110165
 20
193.0818440912512
 30
0.0
  0
SPLINE
  5
216
330
1F
100
AcDbEntity
  8
1
100
AcDbSpline
210
0.0
220
0.0
230
1.0
 70
     8
 71
     3
 72
     8
 73
     4
 74
     0
 42
0.000000001
 43
0.0000000001
 40
0.0
 40
0.0
 40
0.0
 40
0.0
 40
1.0
 40
1.0
 40
1.0
 40
1.0
 10
473.6656995110165
 20
193.0818440912512
 30
0.0
 10
473.6749825569128
 20
192.9863895226694
 30
0.0
 10
473.6843098599316
 20
192.8909275115545
 30
0.0
 10
473.6936663034007
 20
192.7954606000134
 30
0.0
  0
SPLINE
  5
217
330
1F
100
AcDbEntity
  8
1
100
AcDbSpline
210
0.0
220
0.0
230
1.0
 70
     8
 71
     3
 72
    10
 73
     6
 74
     0
 42
0.000000001
 43
0.0000000001
 40
0.0
 40
0.0
 40
0.0
 40
0.0
 40
0.5000000000000001
 40
0.5000000000000001
 40
1.0
 40
1.0
 40
1.0
 40
1.0
 10
473.6936663034007
 20
192.7954606000134
 30
0.0
 10
473.7067147059299
 20
191.3758482031899
 30
0.0
 10
473.7228659215988
 20
189.9562574063661
 30
0.0
 10
473.7585661542446
 20
187.1170994662561
 30
0.0
 10
473.7781267607516
 20
185.6975324036496
 30
0.0
 10
473.7986174535306
 20
184.2779718157686
 30
0.0
  0
SPLINE
  5
218
330
1F
100
AcDbEntity
  8
1
100
AcDbSpline
210
0.0
220
0.0
230
1.0
 70
     8
 71
     3
 72
    33
 73
    29
 74
     0
 42
0.000000001
 43
0.0000000001
 40
0.0
 40
0.0
 40
0.0
 40
0.0
 40
0.1249999999999645
 40
0.1249999999999645
 40
0.1874999999999581
 40
0.1874999999999581
 40
0.2499999999999518
 40
0.2499999999999518
 40
0.2812499999999515
 40
0.2812499999999515
 40
0.3124999999999512
 40
0.3124999999999512
 40
0.3749999999999572
 40
0.4374999999999634
 40
0.4374999999999634
 40
0.4999999999999695
 40
0.4999999999999695
 40
0.6249999999999815
 40
0.6249999999999815
 40
0.6874999999999823
 40
0.6874999999999823
 40
0.749999999999983
 40
0.749999999999983
 40
0.8749999999999847
 40
0.8749999999999847
 40
0.9374999999999925
 40
0.9374999999999925
 40
1.0
 40
1.0
 40
1.0
 40
1.0
 10
473.2986936059524
 20
205.601957158543
 30
0.0
 10
473.3352629265377
 20
205.6008730070141
 30
0.0
 10
473.3714499130754
 20
205.6005634334263
 30
0.0
 10
473.4251515794396
 20
205.6012717023906
 30
0.0
 10
473.4426321322565
 20
205.6017014870763
 30
0.0
 10
473.4765913319233
 20
205.6029184361999
 30
0.0
 10
473.4931072846593
 20
205.6037061980726
 30
0.0
 10
473.5172101670971
 20
205.6051473273596
 30
0.0
 10
473.5251323587099
 20
205.605671052624
 30
0.0
 10
473.5407536375257
 20
205.6068047752115
 30
0.0
 10
473.5484496942262
 20
205.6074149524599
 30
0.0
 10
473.5709344061429
 20
205.6093496699199
 30
0.0
 10
473.5995042149702
 20
205.6122197551097
 30
0.0
 10
473.6254553802408
 20
205.6156293582445
 30
0.0
 10
473.6501499428254
 20
205.6192978586609
 30
0.0
 10
473.6618689737931
 20
205.621264480368
 30
0.0
 10
473.6945760076692
 20
205.6274215159055
 30
0.0
 10
473.7133913243438
 20
205.6319012429919
 30
0.0
 10
473.7375622540339
 20
205.6391291897335
 30
0.0
 10
473.7449488538618
 20
205.6416305308102
 30
0.0
 10
473.7581836303518
 20
205.6467200489471
 30
0.0
 10
473.7640647170215
 20
205.6493167442262
 30
0.0
 10
473.7796155074713
 20
205.6572544257547
 30
0.0
 10
473.7872088685896
 20
205.6627418701587
 30
0.0
 10
473.7945669005653
 20
205.6712574410256
 30
0.0
 10
473.7963228621112
 20
205.6741230334271
 30
0.0
 10
473.7984755327736
 20
205.6798732380899
 30
0.0
 10
473.7988768032415
 20
205.6827631728509
 30
0.0
 10
473.7986174535306
 20
205.685667622665
 30
0.0
  0
SPLINE
  5
219
330
1F
100
AcDbEntity
  8
1
100
AcDbSpline
210
0.0
220
0.0
230
1.0
 70
     8
 71
     3
 72
     8
 73
     4
 74
     0
 42
0.000000001
 43
0.0000000001
 40
0.0
 40
0.0
 40
0.0
 40
0.0
 40
1.0
 40
1.0
 40
1.0
 40
1.0
 10
473.7986174535306
 20
200.6729194214977
 30
0.0
 10
473.7816253947364
 20
200.521866824779
 30
0.0
 10
473.7646334979053
 20
200.3708141997554
 30
0.0
 10
473.7476419667372
 20
200.2197615108286
 30
0.0
  0
SPLINE
  5
21A
330
1F
100
AcDbEntity
  8
1
100
AcDbSpline
210
0.0
220
0.0
230
1.0
 70
     8
 71
     3
 72
    32
 73
    28
 74
     0
 42
0.000000001
 43
0.0000000001
 40
0.0
 40
0.0
 40
0.0
 40
0.0
 40
0.0624999999999908
 40
0.0624999999999908
 40
0.1249999999999815
 40
0.1249999999999815
 40
0.2499999999999709
 40
0.2499999999999709
 40
0.2812499999999623
 40
0.2812499999999623
 40
0.3124999999999536
 40
0.3749999999999483
 40
0.4374999999999429
 40
0.4374999999999429
 40
0.4999999999999377
 40
0.4999999999999377
 40
0.6249999999999354
 40
0.6249999999999354
 40
0.6874999999999416
 40
0.6874999999999416
 40
0.7499999999999478
 40
0.7499999999999478
 40
0.8749999999999602
 40
0.8749999999999602
 40
0.9374999999999801
 40
0.9374999999999801
 40
1.0
 40
1.0
 40
1.0
 40
1.0
 10
473.7986174535306
 20
200.6729194214977
 30
0.0
 10
473.7989074631571
 20
200.6754974909184
 30
0.0
 10
473.7983674863516
 20
200.6782404577702
 30
0.0
 10
473.7955923900385
 20
200.6840046476376
 30
0.0
 10
473.7933771168241
 20
200.6869964405378
 30
0.0
 10
473.784328911175
 20
200.6962902061922
 30
0.0
 10
473.7751171159144
 20
200.7029074483855
 30
0.0
 10
473.759531261651
 20
200.7117185432191
 30
0.0
 10
473.7562027182327
 20
200.7135105792637
 30
0.0
 10
473.7492080561692
 20
200.7171092035599
 30
0.0
 10
473.7381858747458
 20
200.7225429482309
 30
0.0
 10
473.7172212543856
 20
200.7317744061951
 30
0.0
 10
473.6977238143183
 20
200.7393436657385
 30
0.0
 10
473.6768433114691
 20
200.7470063355345
 30
0.0
 10
473.6656498972865
 20
200.7509035293062
 30
0.0
 10
473.6306418906276
 20
200.7625037143007
 30
0.0
 10
473.6052950811064
 20
200.7701677386966
 30
0.0
 10
473.5643275472416
 20
200.781561870422
 30
0.0
 10
473.5501378458335
 20
200.7853527920617
 30
0.0
 10
473.5209040421899
 20
200.7928560766836
 30
0.0
 10
473.5060209281651
 20
200.7965279534328
 30
0.0
 10
473.4606009630597
 20
200.8073126807457
 30
0.0
 10
473.4293007583937
 20
200.8141968065296
 30
0.0
 10
473.3807943902393
 20
200.8240567502671
 30
0.0
 10
473.3643699648322
 20
200.8272624234185
 30
0.0
 10
473.3315906689596
 20
200.8333994150824
 30
0.0
 10
473.3151617616336
 20
200.8363461307149
 30
0.0
 10
473.2986936059524
 20
200.8391711003766
 30
0.0
  0
SPLINE
  5
21B
330
1F
100
AcDbEntity
  8
1
100
AcDbSpline
210
0.0
220
0.0
230
1.0
 70
     8
 71
     3
 72
    10
 73
     6
 74
     0
 42
0.000000001
 43
0.0000000001
 40
0.0
 40
0.0
 40
0.0
 40
0.0
 40
0.5
 40
0.5
 40
1.0
 40
1.0
 40
1.0
 40
1.0
 10
462.3265798327506
 20
179.9838028453591
 30
0.0
 10
460.6450130097303
 20
180.3892477543692
 30
0.0
 10
458.9644615046752
 20
180.799278579548
 30
0.0
 10
455.6059052372268
 20
181.629937432447
 30
0.0
 10
453.9278725743038
 20
182.0505673051017
 30
0.0
 10
452.2513056146284
 20
182.4774348841774
 30
0.0
  0
SPLINE
  5
21C
330
1F
100
AcDbEntity
  8
1
100
AcDbSpline
210
0.0
220
0.0
230
1.0
 70
     8
 71
     3
 72
     8
 73
     4
 74
     0
 42
0.000000001
 43
0.0000000001
 40
0.0
 40
0.0
 40
0.0
 40
0.0
 40
1.0
 40
1.0
 40
1.0
 40
1.0
 10
462.1191225707915
 20
184.0969205432052
 30
0.0
 10
462.1882714508486
 20
184.0786823503444
 30
0.0
 10
462.2574238836599
 20
184.0604573250486
 30
0.0
 10
462.3265798327506
 20
184.0422453321318
 30
0.0
  0
SPLINE
  5
21D
330
1F
100
AcDbEntity
  8
1
100
AcDbSpline
210
0.0
220
0.0
230
1.0
 70
     8
 71
     3
 72
    23
 73
    19
 74
     0
 42
0.000000001
 43
0.0000000001
 40
0.0
 40
0.0
 40
0.0
 40
0.0
 40
0.1249999999999987
 40
0.1249999999999987
 40
0.2499999999999973
 40
0.2499999999999973
 40
0.374999999999996
 40
0.374999999999996
 40
0.4999999999999948
 40
0.4999999999999948
 40
0.5312499999999945
 40
0.5312499999999945
 40
0.5624999999999943
 40
0.6249999999999952
 40
0.6249999999999952
 40
0.7499999999999974
 40
0.7499999999999974
 40
1.0
 40
1.0
 40
1.0
 40
1.0
 10
462.1191225707915
 20
184.0969205432052
 30
0.0
 10
461.8951777722059
 20
184.1559865530001
 30
0.0
 10
461.6745024400286
 20
184.221192393654
 30
0.0
 10
461.239565148354
 20
184.3637851777658
 30
0.0
 10
461.0253038274371
 20
184.441173220226
 30
0.0
 10
460.603227442564
 20
184.6083774156264
 30
0.0
 10
460.3954126016381
 20
184.6981937535435
 30
0.0
 10
459.9864056959198
 20
184.8908242478016
 30
0.0
 10
459.7852135172018
 20
184.9936378115719
 30
0.0
 10
459.5380617554521
 20
185.1308402257598
 30
0.0
 10
459.4888160850597
 20
185.1587358512251
 30
0.0
 10
459.391202738768
 20
185.2151574528079
 30
0.0
 10
459.2459480372328
 20
185.3008174988081
 30
0.0
 10
459.1041622089063
 20
185.3895689400548
 30
0.0
 10
458.8251615465567
 20
185.5712337852843
 30
0.0
 10
458.6452508580244
 20
185.6978877757349
 30
0.0
 10
458.1235560530552
 20
186.0950068920167
 30
0.0
 10
457.7997555082756
 20
186.3825607273796
 30
0.0
 10
457.5001435433705
 20
186.6952411755146
 30
0.0
  0
SPLINE
  5
21E
330
1F
100
AcDbEntity
  8
1
100
AcDbSpline
210
0.0
220
0.0
230
1.0
 70
     8
 71
     3
 72
     8
 73
     4
 74
     0
 42
0.000000001
 43
0.0000000001
 40
0.0
 40
0.0
 40
0.0
 40
0.0
 40
1.0
 40
1.0
 40
1.0
 40
1.0
 10
462.1191225707916
 20
205.960727978138
 30
0.0
 10
462.1882714508488
 20
205.955985217774
 30
0.0
 10
462.2574238836599
 20
205.9512444884686
 30
0.0
 10
462.3265798327506
 20
205.9465057693698
 30
0.0
  0
SPLINE
  5
21F
330
1F
100
AcDbEntity
  8
1
100
AcDbSpline
210
0.0
220
0.0
230
1.0
 70
     8
 71
     3
 72
    23
 73
    19
 74
     0
 42
0.000000001
 43
0.0000000001
 40
0.0
 40
0.0
 40
0.0
 40
0.0
 40
0.1249999999999979
 40
0.1249999999999979
 40
0.2499999999999958
 40
0.2499999999999958
 40
0.3749999999999937
 40
0.3749999999999937
 40
0.4999999999999917
 40
0.4999999999999917
 40
0.5312499999999916
 40
0.5312499999999916
 40
0.5624999999999916
 40
0.6249999999999933
 40
0.6249999999999933
 40
0.7499999999999961
 40
0.7499999999999961
 40
1.0
 40
1.0
 40
1.0
 40
1.0
 10
462.1191225707913
 20
205.9607279781378
 30
0.0
 10
461.8951777722058
 20
205.9760878294265
 30
0.0
 10
461.6745024400287
 20
206.0000354034984
 30
0.0
 10
461.2395651483541
 20
206.0643591160448
 30
0.0
 10
461.0253038274372
 20
206.1047372363901
 30
0.0
 10
460.603227442564
 20
206.2014453991106
 30
0.0
 10
460.3954126016381
 20
206.2577767380439
 30
0.0
 10
459.9864056959198
 20
206.3861310064732
 30
0.0
 10
459.7852135172018
 20
206.4581547874375
 30
0.0
 10
459.5380617554521
 20
206.5579446337354
 30
0.0
 10
459.4888160850597
 20
206.5784061724409
 30
0.0
 10
459.391202738768
 20
206.62011495871
 30
0.0
 10
459.2459480372328
 20
206.6839157294198
 30
0.0
 10
459.1041622089063
 20
206.7513494154296
 30
0.0
 10
458.8251615465567
 20
206.8908643260728
 30
0.0
 10
458.6452508580244
 20
206.9900671386397
 30
0.0
 10
458.1235560530552
 20
207.3048554338197
 30
0.0
 10
457.7997555082756
 20
207.5375970716395
 30
0.0
 10
457.5001435433705
 20
207.7900310499648
 30
0.0
  0
SPLINE
  5
220
330
1F
100
AcDbEntity
  8
1
100
AcDbSpline
210
0.0
220
0.0
230
1.0
 70
     8
 71
     3
 72
    10
 73
     6
 74
     0
 42
0.000000001
 43
0.0000000001
 40
0.0
 40
0.0
 40
0.0
 40
0.0
 40
0.5
 40
0.5
 40
1.0
 40
1.0
 40
1.0
 40
1.0
 10
462.3265798327506
 20
215.8775940658284
 30
0.0
 10
460.6450130097303
 20
215.6209417019334
 30
0.0
 10
458.9644615046752
 20
215.3590831596472
 30
0.0
 10
455.6059052372268
 20
214.8233125086342
 30
0.0
 10
453.9278725743038
 20
214.5494015598111
 30
0.0
 10
452.2513056146284
 20
214.2683994968072
 30
0.0
  0
SPLINE
  5
221
330
1F
100
AcDbEntity
  8
1
100
AcDbSpline
210
0.0
220
0.0
230
1.0
 70
     8
 71
     3
 72
    10
 73
     6
 74
     0
 42
0.000000001
 43
0.0000000001
 40
0.0
 40
0.0
 40
0.0
 40
0.0
 40
0.2448911726845431
 40
0.2448911726845431
 40
1.0
 40
1.0
 40
1.0
 40
1.0
 10
458.8173464357087
 20
180.8439248041413
 30
0.0
 10
458.6994715745378
 20
180.8309308349176
 30
0.0
 10
458.5841473268754
 20
180.8168578976045
 30
0.0
 10
458.1235560530552
 20
180.7556259433689
 30
0.0
 10
457.7997555082756
 20
180.7006023493988
 30
0.0
 10
457.5001435433705
 20
180.6414155156385
 30
0.0
  0
SPLINE
  5
222
330
1F
100
AcDbEntity
  8
1
100
AcDbSpline
210
0.0
220
0.0
230
1.0
 70
     8
 71
     3
 72
    96
 73
    92
 74
     0
 42
0.000000001
 43
0.0000000001
 40
0.0
 40
0.0
 40
0.0
 40
0.0
 40
0.031249999999988
 40
0.031249999999988
 40
0.0468749999999822
 40
0.0468749999999822
 40
0.0624999999999764
 40
0.0624999999999764
 40
0.0937499999999655
 40
0.0937499999999655
 40
0.1093749999999603
 40
0.1093749999999603
 40
0.1249999999999551
 40
0.1249999999999551
 40
0.1562499999999462
 40
0.1874999999999372
 40
0.1874999999999372
 40
0.2031249999999329
 40
0.2031249999999329
 40
0.2187499999999286
 40
0.2187499999999286
 40
0.2499999999999196
 40
0.2499999999999196
 40
0.2656249999999153
 40
0.2656249999999153
 40
0.2734374999999147
 40
0.2734374999999147
 40
0.2812499999999139
 40
0.2812499999999139
 40
0.3124999999999146
 40
0.3437499999999151
 40
0.3437499999999151
 40
0.3593749999999172
 40
0.3593749999999172
 40
0.3749999999999193
 40
0.3906249999999215
 40
0.3906249999999215
 40
0.4062499999999237
 40
0.4062499999999237
 40
0.437499999999924
 40
0.4687499999999245
 40
0.4687499999999245
 40
0.4765624999999238
 40
0.4765624999999238
 40
0.4843749999999231
 40
0.4999999999999253
 40
0.4999999999999253
 40
0.5312499999999297
 40
0.5312499999999297
 40
0.5468749999999334
 40
0.5468749999999334
 40
0.5546874999999353
 40
0.5546874999999353
 40
0.5624999999999372
 40
0.5937499999999436
 40
0.6249999999999499
 40
0.6249999999999499
 40
0.6406249999999524
 40
0.6406249999999524
 40
0.6562499999999549
 40
0.6562499999999549
 40
0.6874999999999588
 40
0.6874999999999588
 40
0.7031249999999614
 40
0.7031249999999614
 40
0.718749999999964
 40
0.718749999999964
 40
0.7499999999999691
 40
0.7499999999999691
 40
0.7656249999999717
 40
0.7656249999999717
 40
0.7812499999999743
 40
0.7812499999999743
 40
0.8124999999999793
 40
0.8437499999999847
 40
0.8437499999999847
 40
0.8515624999999857
 40
0.8515624999999857
 40
0.8593749999999868
 40
0.8593749999999868
 40
0.8749999999999895
 40
0.8749999999999895
 40
0.9062499999999948
 40
0.9062499999999948
 40
0.9218749999999971
 40
0.9296874999999987
 40
0.9296874999999987
 40
0.9375
 40
0.9375
 40
0.96875
 40
1.0
 40
1.0
 40
1.0
 40
1.0
 10
468.1997917630792
 20
201.7105586339118
 30
0.0
 10
468.2094581974959
 20
201.7653797076802
 30
0.0
 10
468.2152983430535
 20
201.8207605104328
 30
0.0
 10
468.2181878537134
 20
201.9046867445412
 30
0.0
 10
468.218161053195
 20
201.9329031690714
 30
0.0
 10
468.2161250494841
 20
201.9888500338095
 30
0.0
 10
468.2141250992614
 20
202.0166416587277
 30
0.0
 10
468.2052456054872
 20
202.0994839548576
 30
0.0
 10
468.1954995148508
 20
202.1540042645296
 30
0.0
 10
468.1751582269187
 20
202.2347321940351
 30
0.0
 10
468.1674208233241
 20
202.2614655243704
 30
0.0
 10
468.1499940867738
 20
202.3145748703906
 30
0.0
 10
468.1402733118071
 20
202.3410103290384
 30
0.0
 10
468.1085962650944
 20
202.4186106104919
 30
0.0
 10
468.0594810120659
 20
202.5182657809445
 30
0.0
 10
467.9969726998715
 20
202.6105405837036
 30
0.0
 10
467.9449168982143
 20
202.6769141446658
 30
0.0
 10
467.9266683958401
 20
202.6985869559682
 30
0.0
 10
467.8889867341212
 20
202.740326000158
 30
0.0
 10
467.8694908707973
 20
202.7604777562336
 30
0.0
 10
467.8090733423224
 20
202.8188236644226
 30
0.0
 10
467.7662306636728
 20
202.8549181970326
 30
0.0
 10
467.6980952835922
 20
202.9048503016848
 30
0.0
 10
467.6747360461373
 20
202.9207902967179
 30
0.0
 10
467.6387018120403
 20
202.9436205467416
 30
0.0
 10
467.6265005769811
 20
202.9510642000765
 30
0.0
 10
467.6018893962876
 20
202.9655102882663
 30
0.0
 10
467.5894884267896
 20
202.9725087911619
 30
0.0
 10
467.5270131998381
 20
203.0063949965875
 30
0.0
 10
467.4240554515111
 20
203.0535637268595
 30
0.0
 10
467.3152176959368
 20
203.0869506688956
 30
0.0
 10
467.2313007297765
 20
203.1066402248817
 30
0.0
 10
467.2029509008233
 20
203.1122986545327
 30
0.0
 10
467.1462151217111
 20
203.1216633051698
 30
0.0
 10
467.0892610326033
 20
203.1291223446705
 30
0.0
 10
467.0318721006897
 20
203.1327878039362
 30
0.0
 10
466.974263539698
 20
203.1345377441425
 30
0.0
 10
466.94529328623
 20
203.1344473459776
 30
0.0
 10
466.8591380878463
 20
203.131305458024
 30
0.0
 10
466.7456158138613
 20
203.1195387629896
 30
0.0
 10
466.6347283087989
 20
203.092984750644
 30
0.0
 10
466.5662727145939
 20
203.0716136869346
 30
0.0
 10
466.5525975535969
 20
203.0670899216024
 30
0.0
 10
466.5255020832413
 20
203.0576146592236
 30
0.0
 10
466.4852294251089
 20
203.0427598230178
 30
0.0
 10
466.4460501404048
 20
203.0260093856685
 30
0.0
 10
466.3691211697901
 20
202.9900257755515
 30
0.0
 10
466.3197347463984
 20
202.9627379717148
 30
0.0
 10
466.2485143204206
 20
202.916821372791
 30
0.0
 10
466.2252523482301
 20
202.9006821477713
 30
0.0
 10
466.1910934099804
 20
202.8751907679495
 30
0.0
 10
466.1798248341459
 20
202.8664744735682
 30
0.0
 10
466.1577070588493
 20
202.8487482813585
 30
0.0
 10
466.1033532780494
 20
202.8036156058615
 30
0.0
 10
466.0137979860299
 20
202.7151719153381
 30
0.0
 10
465.9457210190367
 20
202.6264696086812
 30
0.0
 10
465.8991439896366
 20
202.5560015283858
 30
0.0
 10
465.8845012316258
 20
202.5320490566162
 30
0.0
 10
465.8570754620233
 20
202.4834610908311
 30
0.0
 10
465.8442687587553
 20
202.4587897908743
 30
0.0
 10
465.8085263956517
 20
202.3836569286161
 30
0.0
 10
465.7882559468212
 20
202.332081508667
 30
0.0
 10
465.7632528553091
 20
202.2524472400502
 30
0.0
 10
465.755821575893
 20
202.2255208664684
 30
0.0
 10
465.7428186257683
 20
202.1708928579755
 30
0.0
 10
465.7373220038988
 20
202.1435070735278
 30
0.0
 10
465.7237647004948
 20
202.0611385154035
 30
0.0
 10
465.7186232881892
 20
202.0059452967805
 30
0.0
 10
465.7166856796314
 20
201.9227361066608
 30
0.0
 10
465.7170056001276
 20
201.8949296239797
 30
0.0
 10
465.7196062455478
 20
201.8391744548287
 30
0.0
 10
465.7218911018575
 20
201.8111903967466
 30
0.0
 10
465.731747961705
 20
201.727241870257
 30
0.0
 10
465.7526080738491
 20
201.6173548473873
 30
0.0
 10
465.7883224081931
 20
201.5114185832178
 30
0.0
 10
465.8153708307857
 20
201.4464740224898
 30
0.0
 10
465.8210178766678
 20
201.4335486750332
 30
0.0
 10
465.8327930727311
 20
201.407827078019
 30
0.0
 10
465.8389329350488
 20
201.3950077993656
 30
0.0
 10
465.8579967157373
 20
201.3569246026466
 30
0.0
 10
465.8715283471697
 20
201.332096592891
 30
0.0
 10
465.9145281053711
 20
201.259255519628
 30
0.0
 10
465.9463902409988
 20
201.2128779224902
 30
0.0
 10
465.9989352258592
 20
201.146571758834
 30
0.0
 10
466.0263997754476
 20
201.1142365675658
 30
0.0
 10
466.0556826173773
 20
201.0831517812894
 30
0.0
 10
466.0756147202075
 20
201.0627110103237
 30
0.0
 10
466.085805851312
 20
201.0526131280078
 30
0.0
 10
466.1374631046971
 20
201.003163147551
 30
0.0
 10
466.224758904399
 20
200.9304375923602
 30
0.0
 10
466.321020888142
 20
200.8700936749058
 30
0.0
 10
466.3714414571264
 20
200.8430919272851
 30
0.0
  0
SPLINE
  5
223
330
1F
100
AcDbEntity
  8
1
100
AcDbSpline
210
0.0
220
0.0
230
1.0
 70
     8
 71
     3
 72
    10
 73
     6
 74
     0
 42
0.000000001
 43
0.0000000001
 40
0.0
 40
0.0
 40
0.0
 40
0.0
 40
0.5
 40
0.5
 40
1.0
 40
1.0
 40
1.0
 40
1.0
 10
462.3265798327506
 20
198.7171533693938
 30
0.0
 10
460.6450130097303
 20
198.9579047646628
 30
0.0
 10
458.9644615046752
 20
199.1976525545736
 30
0.0
 10
455.6059052372268
 20
199.6747916881065
 30
0.0
 10
453.9278725743038
 20
199.912187893659
 30
0.0
 10
452.2513056146284
 20
200.1482032564495
 30
0.0
  0
SPLINE
  5
224
330
1F
100
AcDbEntity
  8
1
100
AcDbSpline
210
0.0
220
0.0
230
1.0
 70
     8
 71
     3
 72
    10
 73
     6
 74
     0
 42
0.000000001
 43
0.0000000001
 40
0.0
 40
0.0
 40
0.0
 40
0.0
 40
0.5
 40
0.5
 40
1.0
 40
1.0
 40
1.0
 40
1.0
 10
462.3265798327503
 20
205.9465057693696
 30
0.0
 10
462.4857680357279
 20
205.9355978404398
 30
0.0
 10
462.6462901576256
 20
205.9261816240437
 30
0.0
 10
462.9700003713562
 20
205.9103305274545
 30
0.0
 10
463.1331881937387
 20
205.9038953459363
 30
0.0
 10
463.2977515888504
 20
205.8989984581259
 30
0.0
  0
SPLINE
  5
225
330
1F
100
AcDbEntity
  8
1
100
AcDbSpline
210
0.0
220
0.0
230
1.0
 70
     8
 71
     3
 72
     9
 73
     5
 74
     0
 42
0.000000001
 43
0.0000000001
 40
0.0
 40
0.0
 40
0.0
 40
0.0
 40
0.5
 40
1.0
 40
1.0
 40
1.0
 40
1.0
 10
463.2977515888504
 20
198.5625742536054
 30
0.0
 10
463.1346301245939
 20
198.591100118656
 30
0.0
 10
462.8096524191181
 20
198.6453766271561
 30
0.0
 10
462.4871789155925
 20
198.6941602580029
 30
0.0
 10
462.3265798327506
 20
198.7171533693939
 30
0.0
  0
LINE
  5
27A
330
1F
100
AcDbEntity
  8
SK4
100
AcDbLine
 10
431.6373079999999
 20
197.578985
 30
0.0
 11
476.8265799999999
 21
197.578985
 31
0.0
  0
LINE
  5
27B
330
1F
100
AcDbEntity
  8
4
100
AcDbLine
 10
431.6373079999999
 20
197.578985
 30
0.0
 11
477.3265799999999
 21
197.578985
 31
0.0
  0
MTEXT
  5
27C
330
1F
100
AcDbEntity
  8
SK6
100
AcDbMText
 10
438.1363839999999
 20
143.611148
 30
0.0
 40
3.5
 41
0.0
 71
     7
 72
     5
  1
\W0.7106;40A05R-S90SO09-C
  7
cesky
 73
     2
 44
0.8433729999999998
  0
MTEXT
  5
3B1
330
1F
100
AcDbEntity
  8
2
100
AcDbMText
 10
452.692997
 20
247.201703
 30
0.0
 40
3.5
 41
0.0
 71
     7
 72
     5
  1
\W0.7045;40
  7
cesky
 73
     2
 44
0.8433729999999998
  0
LINE
  5
3B2
330
1F
100
AcDbEntity
  8
2
100
AcDbLine
 10
474.507497
 20
217.578985
 30
0.0
 11
474.507497
 21
248.327536
 31
0.0
  0
LINE
  5
3B3
330
1F
100
AcDbEntity
  8
2
100
AcDbLine
 10
434.5074969999999
 20
212.578985
 30
0.0
 11
434.5074969999999
 21
248.327536
 31
0.0
  0
LINE
  5
3B4
330
1F
100
AcDbEntity
  8
2
100
AcDbLine
 10
474.507497
 20
247.327536
 30
0.0
 11
434.5074969999999
 21
247.327536
 31
0.0
  0
SOLID
  5
3B5
330
1F
100
AcDbEntity
  8
2
100
AcDbTrace
 10
474.507497
 20
247.327536
 30
0.0
 11
471.0074999999999
 21
246.710392
 31
0.0
 12
471.007495
 22
247.944681
 32
0.0
 13
471.007495
 23
247.944681
 33
0.0
  0
SOLID
  5
3B6
330
1F
100
AcDbEntity
  8
2
100
AcDbTrace
 10
434.5074969999999
 20
247.327536
 30
0.0
 11
438.007495
 21
247.944681
 31
0.0
 12
438.0074999999999
 22
246.710392
 32
0.0
 13
438.0074999999999
 23
246.710392
 33
0.0
  0
MTEXT
  5
3B7
330
1F
100
AcDbEntity
  8
2
100
AcDbMText
 10
469.947625
 20
225.908394
 30
0.0
 40
3.5
 41
0.0
 71
     7
 72
     5
  1
\W0.6094;8
  7
cesky
 73
     2
 44
0.8433729999999998
  0
LINE
  5
3B8
330
1F
100
AcDbEntity
  8
2
100
AcDbLine
 10
474.507497
 20
219.578985
 30
0.0
 11
474.507497
 21
227.034228
 31
0.0
  0
LINE
  5
3B9
330
1F
100
AcDbEntity
  8
2
100
AcDbLine
 10
466.4917519999999
 20
217.668369
 30
0.0
 11
466.4917519999999
 21
227.034228
 31
0.0
  0
LINE
  5
3BA
330
1F
100
AcDbEntity
  8
2
100
AcDbLine
 10
483.257497
 20
226.034228
 30
0.0
 11
457.741752
 21
226.034228
 31
0.0
  0
SOLID
  5
3BB
330
1F
100
AcDbEntity
  8
2
100
AcDbTrace
 10
474.507497
 20
226.034228
 30
0.0
 11
478.007495
 21
226.651372
 31
0.0
 12
478.0075
 22
225.417083
 32
0.0
 13
478.0075
 23
225.417083
 33
0.0
  0
SOLID
  5
3BC
330
1F
100
AcDbEntity
  8
2
100
AcDbTrace
 10
466.4917519999999
 20
226.034228
 30
0.0
 11
462.991755
 21
225.417083
 31
0.0
 12
462.99175
 22
226.651372
 32
0.0
 13
462.99175
 23
226.651372
 33
0.0
  0
MTEXT
  5
3BD
330
1F
100
AcDbEntity
  8
2
100
AcDbMText
 10
456.3115719999999
 20
230.675013
 30
0.0
 40
3.5
 41
0.0
 71
     7
 72
     5
  1
\W1.0515;90%%d
  7
cesky
 11
0.7071067811865476
 21
0.7071067811865476
 31
0.0
 73
     2
 44
0.8433729999999998
  0
LINE
  5
3BE
330
1F
100
AcDbEntity
  8
2
100
AcDbLine
 10
474.507497
 20
219.578985
 30
0.0
 11
474.507497
 21
241.012856
 31
0.0
  0
LINE
  5
3BF
330
1F
100
AcDbEntity
  8
2
100
AcDbLine
 10
473.9925589999999
 20
217.592594
 30
0.0
 11
451.087236
 21
217.592594
 31
0.0
  0
ARC
  5
3C0
330
1F
100
AcDbEntity
  8
2
100
AcDbCircle
 10
474.507497
 20
217.592594
 30
0.0
 40
22.4202611886376
100
AcDbArc
 50
90.0
 51
179.999943
  0
SOLID
  5
3C1
330
1F
100
AcDbEntity
  8
2
100
AcDbTrace
 10
474.507497
 20
240.012856
 30
0.0
 11
471.0341849999999
 21
239.259895
 31
0.0
 12
470.986119
 22
240.493248
 32
0.0
 13
470.986119
 23
240.493248
 33
0.0
  0
SOLID
  5
3C2
330
1F
100
AcDbEntity
  8
2
100
AcDbTrace
 10
452.087236
 20
217.592594
 30
0.0
 11
451.606844
 21
221.113968
 31
0.0
 12
452.8401969999999
 22
221.065912
 32
0.0
 13
452.8401969999999
 23
221.065912
 33
0.0
  0
MTEXT
  5
3C3
330
1F
100
AcDbEntity
  8
2
100
AcDbMText
 10
489.1789929999999
 20
204.680334
 30
0.0
 40
3.5
 41
0.0
 71
     7
 72
     5
  1
\W0.7045;40
  7
cesky
 11
0.0000000000000001
 21
1.0
 31
0.0
 73
     2
 44
0.8433729999999998
  0
MTEXT
  5
3C4
330
1F
100
AcDbEntity
  8
2
100
AcDbMText
 10
489.1789929999999
 20
197.942834
 30
0.0
 40
3.5
 41
0.0
 71
     7
 72
     5
  1
\W3.0115;\H2.63;%%c\H3.50;
  7
cesky
 11
0.0000000000000001
 21
1.0
 31
0.0
 73
     2
 44
0.8433729999999998
  0
LINE
  5
3C5
330
1F
100
AcDbEntity
  8
2
100
AcDbLine
 10
476.5074969999999
 20
217.578985
 30
0.0
 11
490.3664089999999
 21
217.578985
 31
0.0
  0
LINE
  5
3C6
330
1F
100
AcDbEntity
  8
2
100
AcDbLine
 10
489.3664089999999
 20
217.578985
 30
0.0
 11
489.3664089999999
 21
196.785334
 31
0.0
  0
SOLID
  5
3C7
330
1F
100
AcDbEntity
  8
2
100
AcDbTrace
 10
489.3664089999999
 20
217.578985
 30
0.0
 11
489.983554
 21
214.078987
 31
0.0
 12
488.749265
 22
214.078983
 32
0.0
 13
488.749265
 23
214.078983
 33
0.0
  0
MTEXT
  5
3C8
330
1F
100
AcDbEntity
  8
SK2
100
AcDbMText
 10
447.1675679999999
 20
165.395938
 30
0.0
 40
3.5
 41
0.0
 71
     7
 72
     5
  1
\W0.9081;5,6
  7
cesky
 73
     2
 44
0.8433729999999998
  0
LINE
  5
3C9
330
1F
100
AcDbEntity
  8
SK2
100
AcDbLine
 10
440.1074969999999
 20
194.178985
 30
0.0
 11
440.1074969999999
 21
164.521772
 31
0.0
  0
LINE
  5
3CA
330
1F
100
AcDbEntity
  8
SK2
100
AcDbLine
 10
434.5074969999999
 20
182.578985
 30
0.0
 11
434.5074969999999
 21
164.521772
 31
0.0
  0
LINE
  5
3CB
330
1F
100
AcDbEntity
  8
SK2
100
AcDbLine
 10
425.757497
 20
165.521772
 30
0.0
 11
453.5070679999999
 21
165.521772
 31
0.0
  0
SOLID
  5
3CC
330
1F
100
AcDbEntity
  8
SK2
100
AcDbTrace
 10
440.1074969999999
 20
165.521772
 30
0.0
 11
443.607495
 21
166.138916
 31
0.0
 12
443.6075
 22
164.904627
 32
0.0
 13
443.6075
 23
164.904627
 33
0.0
  0
SOLID
  5
3CD
330
1F
100
AcDbEntity
  8
SK2
100
AcDbTrace
 10
434.5074969999999
 20
165.521772
 30
0.0
 11
431.0075
 21
164.904627
 31
0.0
 12
431.0074949999999
 22
166.138916
 32
0.0
 13
431.0074949999999
 23
166.138916
 33
0.0
  0
MTEXT
  5
3CE
330
1F
100
AcDbEntity
  8
SK2
100
AcDbMText
 10
425.653928
 20
194.643114
 30
0.0
 40
3.5
 41
0.0
 71
     7
 72
     5
  1
\W0.8677;8,4
  7
cesky
 11
0.0000000000000001
 21
1.0
 31
0.0
 73
     2
 44
0.8433729999999998
  0
LINE
  5
3CF
330
1F
100
AcDbEntity
  8
SK2
100
AcDbLine
 10
435.507497
 20
193.378985
 30
0.0
 11
424.185095
 21
193.378985
 31
0.0
  0
LINE
  5
3D0
330
1F
100
AcDbEntity
  8
SK2
100
AcDbLine
 10
435.507497
 20
201.778985
 30
0.0
 11
424.185095
 21
201.778985
 31
0.0
  0
LINE
  5
3D1
330
1F
100
AcDbEntity
  8
SK2
100
AcDbLine
 10
425.185095
 20
193.378985
 30
0.0
 11
425.185095
 21
201.778985
 31
0.0
  0
SOLID
  5
3D2
330
1F
100
AcDbEntity
  8
SK2
100
AcDbTrace
 10
425.185095
 20
193.378985
 30
0.0
 11
424.5679499999999
 21
196.878983
 31
0.0
 12
425.8022389999999
 22
196.878987
 32
0.0
 13
425.8022389999999
 23
196.878987
 33
0.0
  0
SOLID
  5
3D3
330
1F
100
AcDbEntity
  8
SK2
100
AcDbTrace
 10
425.185095
 20
201.778985
 30
0.0
 11
425.8022389999999
 21
198.278987
 31
0.0
 12
424.5679499999999
 22
198.278983
 32
0.0
 13
424.5679499999999
 23
198.278983
 33
0.0
  0
MTEXT
  5
3D4
330
1F
100
AcDbEntity
  8
SK2
100
AcDbMText
 10
416.256816
 20
199.105235
 30
0.0
 40
3.5
 41
0.0
 71
     7
 72
     5
  1
\W0.8260;16
  7
cesky
 11
0.0000000000000001
 21
1.0
 31
0.0
 73
     2
 44
0.8433729999999998
  0
MTEXT
  5
3D5
330
1F
100
AcDbEntity
  8
SK2
100
AcDbMText
 10
416.256816
 20
192.367735
 30
0.0
 40
3.5
 41
0.0
 71
     7
 72
     5
  1
\W3.0115;\H2.63;%%c\H3.50;
  7
cesky
 11
0.0000000000000001
 21
1.0
 31
0.0
 73
     2
 44
0.8433729999999998
  0
LINE
  5
3D6
330
1F
100
AcDbEntity
  8
SK2
100
AcDbLine
 10
435.507497
 20
205.578985
 30
0.0
 11
415.444233
 21
205.578985
 31
0.0
  0
LINE
  5
3D7
330
1F
100
AcDbEntity
  8
SK2
100
AcDbLine
 10
435.507497
 20
189.578985
 30
0.0
 11
415.444233
 21
189.578985
 31
0.0
  0
LINE
  5
3D8
330
1F
100
AcDbEntity
  8
SK2
100
AcDbLine
 10
416.4442329999999
 20
205.578985
 30
0.0
 11
416.4442329999999
 21
189.578985
 31
0.0
  0
SOLID
  5
3D9
330
1F
100
AcDbEntity
  8
SK2
100
AcDbTrace
 10
416.4442329999999
 20
205.578985
 30
0.0
 11
417.061377
 21
202.078987
 31
0.0
 12
415.8270879999999
 22
202.078983
 32
0.0
 13
415.8270879999999
 23
202.078983
 33
0.0
  0
SOLID
  5
3DA
330
1F
100
AcDbEntity
  8
SK2
100
AcDbTrace
 10
416.4442329999999
 20
189.578985
 30
0.0
 11
415.8270879999999
 21
193.078983
 31
0.0
 12
417.061377
 22
193.078987
 32
0.0
 13
417.061377
 23
193.078987
 33
0.0
  0
MTEXT
  5
3DB
330
1F
100
AcDbEntity
  8
SK2
100
AcDbMText
 10
404.453827
 20
199.105235
 30
0.0
 40
3.5
 41
0.0
 71
     7
 72
     5
  1
\W0.7045;32
  7
cesky
 11
0.0000000000000001
 21
1.0
 31
0.0
 73
     2
 44
0.8433729999999998
  0
MTEXT
  5
3DC
330
1F
100
AcDbEntity
  8
SK2
100
AcDbMText
 10
404.453827
 20
192.367735
 30
0.0
 40
3.5
 41
0.0
 71
     7
 72
     5
  1
\W3.0115;\H2.63;%%c\H3.50;
  7
cesky
 11
0.0000000000000001
 21
1.0
 31
0.0
 73
     2
 44
0.8433729999999998
  0
LINE
  5
3DD
330
1F
100
AcDbEntity
  8
SK2
100
AcDbLine
 10
435.507497
 20
213.578985
 30
0.0
 11
403.6412439999999
 21
213.578985
 31
0.0
  0
LINE
  5
3DE
330
1F
100
AcDbEntity
  8
SK2
100
AcDbLine
 10
435.507497
 20
181.578985
 30
0.0
 11
403.6412439999999
 21
181.578985
 31
0.0
  0
LINE
  5
3DF
330
1F
100
AcDbEntity
  8
SK2
100
AcDbLine
 10
404.641244
 20
213.578985
 30
0.0
 11
404.641244
 21
181.578985
 31
0.0
  0
SOLID
  5
3E0
330
1F
100
AcDbEntity
  8
SK2
100
AcDbTrace
 10
404.641244
 20
213.578985
 30
0.0
 11
405.2583879999999
 21
210.078987
 31
0.0
 12
404.024099
 22
210.078983
 32
0.0
 13
404.024099
 23
210.078983
 33
0.0
  0
SOLID
  5
3E1
330
1F
100
AcDbEntity
  8
SK2
100
AcDbTrace
 10
404.641244
 20
181.578985
 30
0.0
 11
404.024099
 21
185.078983
 31
0.0
 12
405.2583879999999
 22
185.078987
 32
0.0
 13
405.2583879999999
 23
185.078987
 33
0.0
  0
LINE
  5
3E7
330
1F
100
AcDbEntity
  8
CUT
100
AcDbLine
 10
464.7430779692069
 20
208.5635463292144
 30
0.0
 11
464.9801513303033
 21
217.2205834262936
 31
0.0
  0
ARC
  5
3EA
330
1F
100
AcDbEntity
  8
CUT
100
AcDbCircle
 10
465.3579056786258
 20
217.2165268235161
 30
0.0
 40
0.3777761290799418
100
AcDbArc
 50
90.54460609521774
 51
179.3847396186176
  0
ARC
  5
3EB
330
1F
100
AcDbEntity
  8
CUT
100
AcDbCircle
 10
465.3608042050946
 20
217.197909080447
 30
0.0
 40
0.396429922916726
100
AcDbArc
 50
89.59285168123258
 51
90.93793632422693
  0
ARC
  5
3EC
330
1F
100
AcDbEntity
  8
CUT
100
AcDbCircle
 10
473.7439070274388
 20
208.7823171305227
 30
0.0
 40
0.3747675651437947
100
AcDbArc
 50
300.6557191123373
 51
358.0065096578558
  0
ARC
  5
3ED
330
1F
100
AcDbEntity
  8
CUT
100
AcDbCircle
 10
473.7212324155605
 20
208.8164324047003
 30
0.0
 40
0.4156817652038879
100
AcDbArc
 50
271.8949587803205
 51
300.9467082786327
  0
ARC
  5
3EE
330
1F
100
AcDbEntity
  8
CUT
100
AcDbCircle
 10
465.0994182341306
 20
208.5690257279075
 30
0.0
 40
0.3722059408518004
100
AcDbArc
 50
238.934356402794
 51
271.0194165261785
  0
ARC
  5
3EF
330
1F
100
AcDbEntity
  8
CUT
100
AcDbCircle
 10
465.0860324052676
 20
208.5411106022469
 30
0.0
 40
0.3413997918144701
100
AcDbArc
 50
194.4834694593881
 51
238.4411483589794
  0
ARC
  5
3F0
330
1F
100
AcDbEntity
  8
CUT
100
AcDbCircle
 10
465.1203007058543
 20
208.5523211504212
 30
0.0
 40
0.3773897159206343
100
AcDbArc
 50
178.2955278978269
 51
194.8301933864928
  0
LINE
  5
3F1
330
1F
100
AcDbEntity
  8
CUT
100
AcDbLine
 10
474.3555211389796
 20
217.223557106794
 30
0.0
 11
474.3555211389796
 21
217.223557106794
 31
0.0
  0
ARC
  5
3F2
330
1F
100
AcDbEntity
  8
CUT
100
AcDbCircle
 10
-7114.127688022226
 20
425.7880269363291
 30
0.0
 40
7591.348796742042
100
AcDbArc
 50
358.3618256966985
 51
358.4256595186217
  0
ARC
  5
3F3
330
1F
100
AcDbEntity
  8
CUT
100
AcDbCircle
 10
473.9976689943617
 20
217.2220535341465
 30
0.0
 40
0.3705760557933502
100
AcDbArc
 50
55.69530142353383
 51
90.7901153350564
  0
ARC
  5
3F4
330
1F
100
AcDbEntity
  8
CUT
100
AcDbCircle
 10
474.0093803582377
 20
217.2454268246806
 30
0.0
 40
0.344685807108621
100
AcDbArc
 50
14.48029382285863
 51
55.11369206267065
  0
ARC
  5
3F5
330
1F
100
AcDbEntity
  8
CUT
100
AcDbCircle
 10
473.9764634892611
 20
217.2347841224306
 30
0.0
 40
0.3792238754221848
100
AcDbArc
 50
358.3034965418024
 51
14.79362832912842
  0
LINE
  5
3F6
330
1F
100
AcDbEntity
  8
CUT
100
AcDbLine
 10
473.7349778645666
 20
208.4009779636907
 30
0.0
 11
473.7349778645666
 21
208.4009779636907
 31
0.0
  0
ARC
  5
3F7
330
1F
100
AcDbEntity
  8
CUT
100
AcDbCircle
 10
461.081352150064
 20
560.8629843751004
 30
0.0
 40
352.6890701556817
100
AcDbArc
 50
270.65384120424
 51
272.0560744208062
  0
LINE
  5
3F8
330
1F
100
AcDbEntity
  8
CUT
100
AcDbLine
 10
465.3636212436198
 20
217.5943289942728
 30
0.0
 11
465.3636212436198
 21
217.5943289942728
 31
0.0
  0
ARC
  5
3F9
330
1F
100
AcDbEntity
  8
CUT
100
AcDbCircle
 10
469.8074671255638
 20
861.1777123833524
 30
0.0
 40
643.5987252479277
100
AcDbArc
 50
269.6043875989805
 51
270.3725765362061
  0
ENDSEC
  0
SECTION
  2
OBJECTS
  0
DICTIONARY
  5
C
330
0
100
AcDbDictionary
281
     1
  3
ACAD_CIP_PREVIOUS_PRODUCT_INFO
350
3AE
  3
ACAD_COLOR
350
3A9
  3
ACAD_DETAILVIEWSTYLE
350
3A5
  3
ACAD_GROUP
350
D
  3
ACAD_LAYOUT
350
1A
  3
ACAD_MATERIAL
350
43
  3
ACAD_MLEADERSTYLE
350
6B
  3
ACAD_MLINESTYLE
350
17
  3
ACAD_PLOTSETTINGS
350
19
  3
ACAD_PLOTSTYLENAME
350
E
  3
ACAD_SCALELIST
350
47
  3
ACAD_SECTIONVIEWSTYLE
350
3A6
  3
ACAD_TABLESTYLE
350
69
  3
ACAD_VISUALSTYLE
350
2A
  3
ACDB_RECOMPOSE_DATA
350
428
  3
AcDbVariableDictionary
350
362
  0
DICTIONARY
  5
409
330
10
100
AcDbDictionary
280
     1
281
     1
  3
ADSK_XREC_LAYER_RECONCILED
360
40A
  0
DICTIONARY
  5
40B
330
3FA
100
AcDbDictionary
280
     1
281
     1
  3
ADSK_XREC_LAYER_RECONCILED
360
40C
  0
DICTIONARY
  5
40D
330
3FB
100
AcDbDictionary
280
     1
281
     1
  3
ADSK_XREC_LAYER_RECONCILED
360
40E
  0
DICTIONARY
  5
40F
330
3FC
100
AcDbDictionary
280
     1
281
     1
  3
ADSK_XREC_LAYER_RECONCILED
360
410
  0
DICTIONARY
  5
411
330
3FF
100
AcDbDictionary
280
     1
281
     1
  3
ADSK_XREC_LAYER_RECONCILED
360
412
  0
DICTIONARY
  5
413
330
400
100
AcDbDictionary
280
     1
281
     1
  3
ADSK_XREC_LAYER_RECONCILED
360
414
  0
DICTIONARY
  5
415
330
401
100
AcDbDictionary
280
     1
281
     1
  3
ADSK_XREC_LAYER_RECONCILED
360
416
  0
DICTIONARY
  5
417
330
402
100
AcDbDictionary
280
     1
281
     1
  3
ADSK_XREC_LAYER_RECONCILED
360
418
  0
DICTIONARY
  5
419
330
403
100
AcDbDictionary
280
     1
281
     1
  3
ADSK_XREC_LAYER_RECONCILED
360
41A
  0
DICTIONARY
  5
41B
330
404
100
AcDbDictionary
280
     1
281
     1
  3
ADSK_XREC_LAYER_RECONCILED
360
41C
  0
DICTIONARY
  5
41D
330
405
100
AcDbDictionary
280
     1
281
     1
  3
ADSK_XREC_LAYER_RECONCILED
360
41E
  0
DICTIONARY
  5
41F
330
406
100
AcDbDictionary
280
     1
281
     1
  3
ADSK_XREC_LAYER_RECONCILED
360
420
  0
DICTIONARY
  5
421
330
407
100
AcDbDictionary
280
     1
281
     1
  3
ADSK_XREC_LAYER_RECONCILED
360
422
  0
DICTIONARY
  5
3AF
330
1F
100
AcDbDictionary
280
     1
281
     1
  3
ACAD_SORTENTS
360
3B0
  0
XRECORD
  5
3AE
102
{ACAD_REACTORS
330
C
102
}
330
C
100
AcDbXrecord
280
     1
300
ACD
300
2019
300
87084ACD_2019_0F
  0
DICTIONARY
  5
3A9
102
{ACAD_REACTORS
330
C
102
}
330
C
100
AcDbDictionary
281
     1
  0
DICTIONARY
  5
3A5
102
{ACAD_REACTORS
330
C
102
}
330
C
100
AcDbDictionary
281
     1
  3
Metric50
350
3AB
  0
DICTIONARY
  5
D
102
{ACAD_REACTORS
330
C
102
}
330
C
100
AcDbDictionary
281
     1
  3
NULOVY_BOD
350
408
  0
DICTIONARY
  5
1A
102
{ACAD_REACTORS
330
C
102
}
330
C
100
AcDbDictionary
281
     1
  3
Layout1
350
1E
  3
Layout2
350
26
  3
Model
350
22
  0
DICTIONARY
  5
43
102
{ACAD_REACTORS
330
C
102
}
330
C
100
AcDbDictionary
281
     1
  3
ByBlock
350
45
  3
ByLayer
350
44
  3
Global
350
46
  0
DICTIONARY
  5
6B
102
{ACAD_REACTORS
330
C
102
}
330
C
100
AcDbDictionary
281
     1
  3
Standard
350
6C
  0
DICTIONARY
  5
17
102
{ACAD_REACTORS
330
C
102
}
330
C
100
AcDbDictionary
281
     1
  3
Standard
350
18
  0
DICTIONARY
  5
19
102
{ACAD_REACTORS
330
C
102
}
330
C
100
AcDbDictionary
281
     1
  0
ACDBDICTIONARYWDFLT
  5
E
102
{ACAD_REACTORS
330
C
102
}
330
C
100
AcDbDictionary
281
     1
  3
Normal
350
F
100
AcDbDictionaryWithDefault
340
F
  0
DICTIONARY
  5
47
102
{ACAD_REACTORS
330
C
102
}
330
C
100
AcDbDictionary
281
     1
  3
A0
350
48
  3
A1
350
49
  3
A2
350
4A
  3
A3
350
4B
  3
A4
350
4C
  3
A5
350
4D
  3
A6
350
4E
  3
A7
350
4F
  3
A8
350
50
  3
A9
350
51
  3
B0
350
52
  3
B1
350
53
  3
B2
350
54
  3
B3
350
55
  3
B4
350
56
  3
B5
350
57
  3
B6
350
58
  3
B7
350
59
  3
B8
350
5A
  3
B9
350
5B
  3
C0
350
5C
  3
C1
350
5D
  3
C2
350
5E
  3
C3
350
5F
  3
C4
350
60
  3
C5
350
61
  3
C6
350
62
  3
C7
350
63
  3
C8
350
64
  3
C9
350
65
  3
D0
350
66
  3
D1
350
67
  3
D2
350
68
  0
DICTIONARY
  5
3A6
102
{ACAD_REACTORS
330
C
102
}
330
C
100
AcDbDictionary
281
     1
  3
Metric50
350
3AA
  0
DICTIONARY
  5
69
102
{ACAD_REACTORS
330
C
102
}
330
C
100
AcDbDictionary
281
     1
  3
Standard
350
6A
  0
DICTIONARY
  5
2A
102
{ACAD_REACTORS
330
C
102
}
330
C
100
AcDbDictionary
281
     1
  3
2dWireframe
350
2F
  3
Basic
350
32
  3
Brighten
350
36
  3
ColorChange
350
3A
  3
Conceptual
350
34
  3
Dim
350
35
  3
EdgeColorOff
350
3D
  3
Facepattern
350
39
  3
Flat
350
2B
  3
FlatWithEdges
350
2C
  3
Gouraud
350
2D
  3
GouraudWithEdges
350
2E
  3
Hidden
350
31
  3
JitterOff
350
3B
  3
Linepattern
350
38
  3
OverhangOff
350
3C
  3
Realistic
350
33
  3
Shaded
350
42
  3
Shaded with edges
350
41
  3
Shades of Gray
350
3E
  3
Sketchy
350
3F
  3
Thicken
350
37
  3
Wireframe
350
30
  3
X-Ray
350
40
  0
XRECORD
  5
428
102
{ACAD_REACTORS
330
C
102
}
330
C
100
AcDbXrecord
280
     1
 90
        1
330
6A
  0
DICTIONARY
  5
362
102
{ACAD_REACTORS
330
C
102
}
330
C
100
AcDbDictionary
281
     1
  3
CANNOSCALE
350
363
  3
CMLEADERSTYLE
350
3A4
  3
CTABLESTYLE
350
3A3
  3
CVIEWDETAILSTYLE
350
423
  3
CVIEWSECTIONSTYLE
350
424
  3
MSLTSCALE
350
364
  3
XCLIPFRAME
350
425
  0
XRECORD
  5
40A
102
{ACAD_REACTORS
330
409
102
}
330
409
100
AcDbXrecord
280
     1
290
     1
  0
XRECORD
  5
40C
102
{ACAD_REACTORS
330
40B
102
}
330
40B
100
AcDbXrecord
280
     1
290
     1
  0
XRECORD
  5
40E
102
{ACAD_REACTORS
330
40D
102
}
330
40D
100
AcDbXrecord
280
     1
290
     1
  0
XRECORD
  5
410
102
{ACAD_REACTORS
330
40F
102
}
330
40F
100
AcDbXrecord
280
     1
290
     1
  0
XRECORD
  5
412
102
{ACAD_REACTORS
330
411
102
}
330
411
100
AcDbXrecord
280
     1
290
     1
  0
XRECORD
  5
414
102
{ACAD_REACTORS
330
413
102
}
330
413
100
AcDbXrecord
280
     1
290
     1
  0
XRECORD
  5
416
102
{ACAD_REACTORS
330
415
102
}
330
415
100
AcDbXrecord
280
     1
290
     1
  0
XRECORD
  5
418
102
{ACAD_REACTORS
330
417
102
}
330
417
100
AcDbXrecord
280
     1
290
     1
  0
XRECORD
  5
41A
102
{ACAD_REACTORS
330
419
102
}
330
419
100
AcDbXrecord
280
     1
290
     1
  0
XRECORD
  5
41C
102
{ACAD_REACTORS
330
41B
102
}
330
41B
100
AcDbXrecord
280
     1
290
     1
  0
XRECORD
  5
41E
102
{ACAD_REACTORS
330
41D
102
}
330
41D
100
AcDbXrecord
280
     1
290
     1
  0
XRECORD
  5
420
102
{ACAD_REACTORS
330
41F
102
}
330
41F
100
AcDbXrecord
280
     1
290
     1
  0
XRECORD
  5
422
102
{ACAD_REACTORS
330
421
102
}
330
421
100
AcDbXrecord
280
     1
290
     1
  0
SORTENTSTABLE
  5
3B0
102
{ACAD_REACTORS
330
3AF
102
}
330
3AF
100
AcDbSortentsTable
330
1F
331
3B1
  5
2B8
331
3B2
  5
2D2
331
3B3
  5
306
331
3B4
  5
335
331
3B5
  5
3B1
331
3B6
  5
3B2
331
3B7
  5
3B3
331
3B8
  5
3B4
331
3B9
  5
3B5
331
3BA
  5
3B6
331
3BB
  5
3B7
331
3BC
  5
3B8
331
3BD
  5
3C9
331
3BE
  5
3CA
331
3BF
  5
3CB
331
3C0
  5
3CC
331
3C1
  5
3CD
331
3C2
  5
3CE
331
3C3
  5
3D6
331
3C4
  5
3D7
331
3C5
  5
3D8
331
3C6
  5
3D9
331
3C7
  5
3DA
331
3C8
  5
3BB
331
3C9
  5
3BC
331
3CA
  5
3BD
331
3CB
  5
3BE
331
3CC
  5
3BF
331
3CD
  5
3C0
331
3CE
  5
3C2
331
3CF
  5
3C3
331
3D0
  5
3C4
331
3D1
  5
3C5
331
3D2
  5
3C6
331
3D3
  5
3C8
331
3D4
  5
3CF
331
3D5
  5
3D0
331
3D6
  5
3D1
331
3D7
  5
3D2
331
3D8
  5
3D3
331
3D9
  5
3D4
331
3DA
  5
3D5
331
3E7
  5
3F5
331
3EA
  5
3E7
331
3EB
  5
3EA
331
3EC
  5
3EB
331
3ED
  5
3EC
331
3EE
  5
3ED
331
3EF
  5
3EE
331
3F0
  5
3EF
331
3F1
  5
3F0
331
3F2
  5
3F1
331
3F3
  5
3F2
331
3F4
  5
3F3
331
3F5
  5
3F4
  0
ACDBDETAILVIEWSTYLE
  5
3AB
102
{ACAD_XDICTIONARY
360
45C
102
}
102
{ACAD_REACTORS
330
3A5
102
}
330
3A5
100
AcDbModelDocViewStyle
 70
     0
  3
Metric50
290
     0
100
AcDbDetailViewStyle
 70
     0
 71
     0
 90
        3
 71
     1
340
11
 62
   256
 40
5.0
340
0
 62
   256
 40
5.0
300

 40
0.0
280
     1
 71
     2
340
16
 90
       25
 62
   256
 71
     3
340
11
 62
   256
 40
5.0
 90
        0
 40
15.0
 90
        1
300
%<\AcVar ViewDetailId>% (%<\AcVar ViewScale \f "%sn">%)
 71
     4
340
16
 90
       25
 62
   256
340
16
 90
       25
 62
   256
280
     0
  0
GROUP
  5
408
102
{ACAD_REACTORS
330
D
102
}
330
D
100
AcDbGroup
300

 70
     0
 71
     1
340
73
  0
LAYOUT
  5
1E
102
{ACAD_REACTORS
330
1A
102
}
330
1A
100
AcDbPlotSettings
  1

  2
none_device
  4

  6

 40
0.0
 41
0.0
 42
0.0
 43
0.0
 44
0.0
 45
0.0
 46
0.0
 47
0.0
 48
0.0
 49
0.0
140
0.0
141
0.0
142
1.0
143
1.0
 70
   688
 72
     0
 73
     0
 74
     5
  7

 75
    16
147
1.0
 76
     0
 77
     2
 78
   300
148
0.0
149
0.0
100
AcDbLayout
  1
Layout1
 70
     1
 71
     1
 10
-0.5
 20
-0.5
 11
5.0
 21
5.0
 12
0.0
 22
0.0
 32
0.0
 14
-0.5
 24
-0.5
 34
-0.5
 15
5.0
 25
5.0
 35
5.0
146
0.0
 13
0.0
 23
0.0
 33
0.0
 16
1.0
 26
0.0
 36
0.0
 17
0.0
 27
1.0
 37
0.0
 76
     0
330
1B
  0
LAYOUT
  5
26
102
{ACAD_REACTORS
330
1A
102
}
330
1A
100
AcDbPlotSettings
  1

  2
none_device
  4

  6

 40
0.0
 41
0.0
 42
0.0
 43
0.0
 44
0.0
 45
0.0
 46
0.0
 47
0.0
 48
0.0
 49
0.0
140
0.0
141
0.0
142
1.0
143
1.0
 70
   688
 72
     0
 73
     0
 74
     5
  7

 75
    16
147
1.0
 76
     0
 77
     2
 78
   300
148
0.0
149
0.0
100
AcDbLayout
  1
Layout2
 70
     1
 71
     2
 10
0.0
 20
0.0
 11
0.0
 21
0.0
 12
0.0
 22
0.0
 32
0.0
 14
0.0
 24
0.0
 34
0.0
 15
0.0
 25
0.0
 35
0.0
146
0.0
 13
0.0
 23
0.0
 33
0.0
 16
1.0
 26
0.0
 36
0.0
 17
0.0
 27
1.0
 37
0.0
 76
     0
330
23
  0
LAYOUT
  5
22
102
{ACAD_REACTORS
330
1A
102
}
330
1A
100
AcDbPlotSettings
  1

  2
none_device
  4
Letter_(8.50_x_11.00_Inches)
  6

 40
6.349999999999999
 41
6.349999999999999
 42
6.350005
 43
6.350005
 44
215.9
 45
279.4
 46
0.0
 47
0.0
 48
0.0
 49
0.0
140
0.0
141
0.0
142
1.0
143
1.0
 70
  1712
 72
     0
 73
     0
 74
     0
  7

 75
     0
147
1.0
 76
     0
 77
     2
 78
   300
148
0.0
149
0.0
100
AcDbLayout
  1
Model
 70
     1
 71
     0
 10
-0.5
 20
-0.5
 11
5.0
 21
5.0
 12
0.0
 22
0.0
 32
0.0
 14
-0.5
 24
-0.5
 34
-0.5
 15
5.0
 25
5.0
 35
5.0
146
0.0
 13
0.0
 23
0.0
 33
0.0
 16
1.0
 26
0.0
 36
0.0
 17
0.0
 27
1.0
 37
0.0
 76
     0
330
1F
331
29
  0
MATERIAL
  5
45
102
{ACAD_XDICTIONARY
360
398
102
}
102
{ACAD_REACTORS
330
43
102
}
330
43
100
AcDbMaterial
  1
ByBlock
  0
MATERIAL
  5
44
102
{ACAD_XDICTIONARY
360
396
102
}
102
{ACAD_REACTORS
330
43
102
}
330
43
100
AcDbMaterial
  1
ByLayer
  0
MATERIAL
  5
46
102
{ACAD_XDICTIONARY
360
39A
102
}
102
{ACAD_REACTORS
330
43
102
}
330
43
100
AcDbMaterial
  1
Global
  0
MLEADERSTYLE
  5
6C
102
{ACAD_REACTORS
330
6B
102
}
330
6B
100
AcDbMLeaderStyle
170
     2
171
     1
172
     0
 90
        2
 40
0.0
 41
0.0
173
     1
 91
-1056964608
340
14
 92
       -2
290
     1
 42
0.09
291
     1
 43
0.36
  3
Standard
 44
0.18
300

342
11
174
     1
178
     6
175
     1
176
     0
 93
-1056964608
 45
0.18
292
     0
297
     0
 46
0.18
 94
-1056964608
 47
1.0
 49
1.0
140
1.0
293
     1
141
0.0
294
     1
177
     0
142
1.0
295
     0
296
     0
143
0.125
1001
ACAD_MLEADERVER
1070
     2
  0
MLINESTYLE
  5
18
102
{ACAD_REACTORS
330
17
102
}
330
17
100
AcDbMlineStyle
  2
STANDARD
 70
     0
  3

 62
   256
 51
90.0
 52
90.0
 71
     2
 49
0.5
 62
   256
  6
BYLAYER
 49
-0.5
 62
   256
  6
BYLAYER
  0
ACDBPLACEHOLDER
  5
F
102
{ACAD_REACTORS
330
E
102
}
330
E
  0
SCALE
  5
48
102
{ACAD_REACTORS
330
47
102
}
330
47
100
AcDbScale
 70
     0
300
1:1
140
1.0
141
1.0
290
     1
  0
SCALE
  5
49
102
{ACAD_REACTORS
330
47
102
}
330
47
100
AcDbScale
 70
     0
300
1:2
140
1.0
141
2.0
290
     0
  0
SCALE
  5
4A
102
{ACAD_REACTORS
330
47
102
}
330
47
100
AcDbScale
 70
     0
300
1:4
140
1.0
141
4.0
290
     0
  0
SCALE
  5
4B
102
{ACAD_REACTORS
330
47
102
}
330
47
100
AcDbScale
 70
     0
300
1:5
140
1.0
141
5.0
290
     0
  0
SCALE
  5
4C
102
{ACAD_REACTORS
330
47
102
}
330
47
100
AcDbScale
 70
     0
300
1:8
140
1.0
141
8.0
290
     0
  0
SCALE
  5
4D
102
{ACAD_REACTORS
330
47
102
}
330
47
100
AcDbScale
 70
     0
300
1:10
140
1.0
141
10.0
290
     0
  0
SCALE
  5
4E
102
{ACAD_REACTORS
330
47
102
}
330
47
100
AcDbScale
 70
     0
300
1:16
140
1.0
141
16.0
290
     0
  0
SCALE
  5
4F
102
{ACAD_REACTORS
330
47
102
}
330
47
100
AcDbScale
 70
     0
300
1:20
140
1.0
141
20.0
290
     0
  0
SCALE
  5
50
102
{ACAD_REACTORS
330
47
102
}
330
47
100
AcDbScale
 70
     0
300
1:30
140
1.0
141
30.0
290
     0
  0
SCALE
  5
51
102
{ACAD_REACTORS
330
47
102
}
330
47
100
AcDbScale
 70
     0
300
1:40
140
1.0
141
40.0
290
     0
  0
SCALE
  5
52
102
{ACAD_REACTORS
330
47
102
}
330
47
100
AcDbScale
 70
     0
300
1:50
140
1.0
141
50.0
290
     0
  0
SCALE
  5
53
102
{ACAD_REACTORS
330
47
102
}
330
47
100
AcDbScale
 70
     0
300
1:100
140
1.0
141
100.0
290
     0
  0
SCALE
  5
54
102
{ACAD_REACTORS
330
47
102
}
330
47
100
AcDbScale
 70
     0
300
2:1
140
2.0
141
1.0
290
     0
  0
SCALE
  5
55
102
{ACAD_REACTORS
330
47
102
}
330
47
100
AcDbScale
 70
     0
300
4:1
140
4.0
141
1.0
290
     0
  0
SCALE
  5
56
102
{ACAD_REACTORS
330
47
102
}
330
47
100
AcDbScale
 70
     0
300
8:1
140
8.0
141
1.0
290
     0
  0
SCALE
  5
57
102
{ACAD_REACTORS
330
47
102
}
330
47
100
AcDbScale
 70
     0
300
10:1
140
10.0
141
1.0
290
     0
  0
SCALE
  5
58
102
{ACAD_REACTORS
330
47
102
}
330
47
100
AcDbScale
 70
     0
300
100:1
140
100.0
141
1.0
290
     0
  0
SCALE
  5
59
102
{ACAD_REACTORS
330
47
102
}
330
47
100
AcDbScale
 70
     0
300
1/128" = 1'-0"
140
0.007812
141
12.0
290
     0
  0
SCALE
  5
5A
102
{ACAD_REACTORS
330
47
102
}
330
47
100
AcDbScale
 70
     0
300
1/64" = 1'-0"
140
0.015625
141
12.0
290
     0
  0
SCALE
  5
5B
102
{ACAD_REACTORS
330
47
102
}
330
47
100
AcDbScale
 70
     0
300
1/32" = 1'-0"
140
0.03125
141
12.0
290
     0
  0
SCALE
  5
5C
102
{ACAD_REACTORS
330
47
102
}
330
47
100
AcDbScale
 70
     0
300
1/16" = 1'-0"
140
0.0625
141
12.0
290
     0
  0
SCALE
  5
5D
102
{ACAD_REACTORS
330
47
102
}
330
47
100
AcDbScale
 70
     0
300
3/32" = 1'-0"
140
0.09375
141
12.0
290
     0
  0
SCALE
  5
5E
102
{ACAD_REACTORS
330
47
102
}
330
47
100
AcDbScale
 70
     0
300
1/8" = 1'-0"
140
0.125
141
12.0
290
     0
  0
SCALE
  5
5F
102
{ACAD_REACTORS
330
47
102
}
330
47
100
AcDbScale
 70
     0
300
3/16" = 1'-0"
140
0.1875
141
12.0
290
     0
  0
SCALE
  5
60
102
{ACAD_REACTORS
330
47
102
}
330
47
100
AcDbScale
 70
     0
300
1/4" = 1'-0"
140
0.25
141
12.0
290
     0
  0
SCALE
  5
61
102
{ACAD_REACTORS
330
47
102
}
330
47
100
AcDbScale
 70
     0
300
3/8" = 1'-0"
140
0.375
141
12.0
290
     0
  0
SCALE
  5
62
102
{ACAD_REACTORS
330
47
102
}
330
47
100
AcDbScale
 70
     0
300
1/2" = 1'-0"
140
0.5
141
12.0
290
     0
  0
SCALE
  5
63
102
{ACAD_REACTORS
330
47
102
}
330
47
100
AcDbScale
 70
     0
300
3/4" = 1'-0"
140
0.75
141
12.0
290
     0
  0
SCALE
  5
64
102
{ACAD_REACTORS
330
47
102
}
330
47
100
AcDbScale
 70
     0
300
1" = 1'-0"
140
1.0
141
12.0
290
     0
  0
SCALE
  5
65
102
{ACAD_REACTORS
330
47
102
}
330
47
100
AcDbScale
 70
     0
300
1-1/2" = 1'-0"
140
1.5
141
12.0
290
     0
  0
SCALE
  5
66
102
{ACAD_REACTORS
330
47
102
}
330
47
100
AcDbScale
 70
     0
300
3" = 1'-0"
140
3.0
141
12.0
290
     0
  0
SCALE
  5
67
102
{ACAD_REACTORS
330
47
102
}
330
47
100
AcDbScale
 70
     0
300
6" = 1'-0"
140
6.0
141
12.0
290
     0
  0
SCALE
  5
68
102
{ACAD_REACTORS
330
47
102
}
330
47
100
AcDbScale
 70
     0
300
1'-0" = 1'-0"
140
12.0
141
12.0
290
     0
  0
ACDBSECTIONVIEWSTYLE
  5
3AA
102
{ACAD_XDICTIONARY
360
45A
102
}
102
{ACAD_REACTORS
330
3A6
102
}
330
3A6
100
AcDbModelDocViewStyle
 70
     0
  3
Metric50
290
     0
100
AcDbSectionViewStyle
 70
     0
 71
     0
 90
      102
 71
     1
340
11
 62
   256
 40
5.0
340
0
340
0
 62
   256
 40
5.0
300
I, O, Q, S, X, Z
 40
10.0
 90
        0
 40
2.5
 90
        0
 71
     2
340
16
 90
       25
 62
   256
340
16
 90
       50
 62
   256
 40
5.0
 40
2.5
 40
5.0
 71
     3
340
11
 62
   256
 40
5.0
 90
        0
 40
15.0
 90
        1
300
%<\AcVar ViewSectionStartId>%-%<\AcVar ViewSectionEndId>% (%<\AcVar ViewScale \f "%sn">%)
 71
     4
 62
   256
 62
   257
300
ANSI31
 40
1.0
 90
        0
290
     0
290
     0
 90
        6
 40
0.0
 40
1.570796326794896
 40
0.2617993877991494
 40
1.308996938995747
 40
-0.2617993877991494
 40
1.832595714594046
  0
TABLESTYLE
  5
6A
102
{ACAD_XDICTIONARY
360
39C
102
}
102
{ACAD_REACTORS
330
69
102
}
330
69
100
AcDbTableStyle
  3
Standard
 70
     0
 71
     0
 40
0.06
 41
0.06
280
     0
281
     0
  7
Standard
140
0.18
170
     2
 62
     0
 63
     7
283
     0
274
    -2
284
     1
 64
     0
275
    -2
285
     1
 65
     0
276
    -2
286
     1
 66
     0
277
    -2
287
     1
 67
     0
278
    -2
288
     1
 68
     0
279
    -2
289
     1
 69
     0
  7
Standard
140
0.25
170
     5
 62
     0
 63
     7
283
     0
274
    -2
284
     1
 64
     0
275
    -2
285
     1
 65
     0
276
    -2
286
     1
 66
     0
277
    -2
287
     1
 67
     0
278
    -2
288
     1
 68
     0
279
    -2
289
     1
 69
     0
  7
Standard
140
0.18
170
     5
 62
     0
 63
     7
283
     0
274
    -2
284
     1
 64
     0
275
    -2
285
     1
 65
     0
276
    -2
286
     1
 66
     0
277
    -2
287
     1
 67
     0
278
    -2
288
     1
 68
     0
279
    -2
289
     1
 69
     0
  0
VISUALSTYLE
  5
2F
102
{ACAD_XDICTIONARY
360
431
102
}
102
{ACAD_REACTORS
330
2A
102
}
330
2A
100
AcDbVisualStyle
  2

 70
     4
 71
     0
 72
     2
 73
     0
 90
        0
 40
-0.6
 41
-30.0
 62
     5
 63
     7
421
 16777215
 74
     1
 91
        4
 64
     7
 65
   257
 75
     1
175
     1
 42
1.0
 92
        0
 66
   257
 43
1.0
 76
     1
 77
     6
 78
     2
 67
     7
 79
     5
170
     0
171
     0
290
     0
174
     0
 93
        1
 44
0.0
173
     0
291
     0
 45
0.0
1001
ACAD
1000
AcDbSavedByObjectVersion
1070
     0
  0
VISUALSTYLE
  5
32
102
{ACAD_XDICTIONARY
360
437
102
}
102
{ACAD_REACTORS
330
2A
102
}
330
2A
100
AcDbVisualStyle
  2

 70
     7
 71
     1
 72
     0
 73
     1
 90
        0
 40
-0.6
 41
-30.0
 62
     5
 63
     7
421
 16777215
 74
     0
 91
        4
 64
     7
 65
   257
 75
     1
175
     1
 42
1.0
 92
        8
 66
     7
 43
1.0
 76
     1
 77
     6
 78
     2
 67
     7
 79
     5
170
     0
171
     0
290
     0
174
     0
 93
        1
 44
0.0
173
     0
291
     1
 45
0.0
1001
ACAD
1000
AcDbSavedByObjectVersion
1070
     0
  0
VISUALSTYLE
  5
36
102
{ACAD_XDICTIONARY
360
43F
102
}
102
{ACAD_REACTORS
330
2A
102
}
330
2A
100
AcDbVisualStyle
  2

 70
    12
 71
     2
 72
     2
 73
     0
 90
        0
 40
-0.6
 41
-30.0
 62
     5
 63
     7
421
 16777215
 74
     1
 91
        4
 64
     7
 65
   257
 75
     1
175
     1
 42
1.0
 92
        8
 66
     7
 43
1.0
 76
     1
 77
     6
 78
     2
 67
     7
 79
     5
170
     0
171
     0
290
     0
174
     0
 93
        1
 44
50.0
173
     0
291
     1
 45
0.0
1001
ACAD
1000
AcDbSavedByObjectVersion
1070
     0
  0
VISUALSTYLE
  5
3A
102
{ACAD_XDICTIONARY
360
447
102
}
102
{ACAD_REACTORS
330
2A
102
}
330
2A
100
AcDbVisualStyle
  2

 70
    16
 71
     2
 72
     2
 73
     3
 90
        0
 40
-0.6
 41
-30.0
 62
     5
 63
     8
421
  8421504
 74
     1
 91
        4
 64
     7
 65
   257
 75
     1
175
     1
 42
1.0
 92
        8
 66
     8
424
  8421504
 43
1.0
 76
     1
 77
     6
 78
     2
 67
     7
 79
     5
170
     0
171
     0
290
     0
174
     0
 93
        1
 44
0.0
173
     0
291
     1
 45
0.0
1001
ACAD
1000
AcDbSavedByObjectVersion
1070
     0
  0
VISUALSTYLE
  5
34
102
{ACAD_XDICTIONARY
360
43B
102
}
102
{ACAD_REACTORS
330
2A
102
}
330
2A
100
AcDbVisualStyle
  2

 70
     9
 71
     3
 72
     2
 73
     0
 90
        0
 40
-0.6
 41
-30.0
 62
     5
 63
     7
421
 16777215
 74
     2
 91
        2
 64
     7
 65
   257
 75
     1
175
     1
 42
179.0
 92
        8
 66
     7
 43
1.0
 76
     1
 77
     6
 78
     2
 67
     7
 79
     3
170
     0
171
     0
290
     0
174
     0
 93
        1
 44
0.0
173
     0
291
     0
 45
0.0
1001
ACAD
1000
AcDbSavedByObjectVersion
1070
     0
  0
VISUALSTYLE
  5
35
102
{ACAD_XDICTIONARY
360
43D
102
}
102
{ACAD_REACTORS
330
2A
102
}
330
2A
100
AcDbVisualStyle
  2

 70
    11
 71
     2
 72
     2
 73
     0
 90
        0
 40
-0.6
 41
-30.0
 62
     5
 63
     7
421
 16777215
 74
     1
 91
        4
 64
     7
 65
   257
 75
     1
175
     1
 42
1.0
 92
        8
 66
     7
 43
1.0
 76
     1
 77
     6
 78
     2
 67
     7
 79
     5
170
     0
171
     0
290
     0
174
     0
 93
        1
 44
-50.0
173
     0
291
     1
 45
0.0
1001
ACAD
1000
AcDbSavedByObjectVersion
1070
     0
  0
VISUALSTYLE
  5
3D
102
{ACAD_XDICTIONARY
360
44D
102
}
102
{ACAD_REACTORS
330
2A
102
}
330
2A
100
AcDbVisualStyle
  2

 70
    22
 71
     2
 72
     2
 73
     0
 90
        0
 40
-0.6
 41
-30.0
 62
     5
 63
     7
421
 16777215
 74
     1
 91
        4
 64
     7
 65
   257
 75
     1
175
     1
 42
1.0
 92
        8
 66
     7
 43
1.0
 76
     1
 77
     6
 78
     2
 67
     7
 79
     5
170
     0
171
     0
290
     0
174
     0
 93
        1
 44
0.0
173
     0
291
     1
 45
0.0
1001
ACAD
1000
AcDbSavedByObjectVersion
1070
     0
  0
VISUALSTYLE
  5
39
102
{ACAD_XDICTIONARY
360
445
102
}
102
{ACAD_REACTORS
330
2A
102
}
330
2A
100
AcDbVisualStyle
  2

 70
    15
 71
     2
 72
     2
 73
     0
 90
        0
 40
-0.6
 41
-30.0
 62
     5
 63
     7
421
 16777215
 74
     1
 91
        4
 64
     7
 65
   257
 75
     1
175
     1
 42
1.0
 92
        8
 66
     7
 43
1.0
 76
     1
 77
     6
 78
     2
 67
     7
 79
     5
170
     0
171
     0
290
     0
174
     0
 93
        1
 44
0.0
173
     0
291
     1
 45
0.0
1001
ACAD
1000
AcDbSavedByObjectVersion
1070
     0
  0
VISUALSTYLE
  5
2B
102
{ACAD_XDICTIONARY
360
429
102
}
102
{ACAD_REACTORS
330
2A
102
}
330
2A
100
AcDbVisualStyle
  2

 70
     0
 71
     2
 72
     1
 73
     1
 90
        2
 40
-0.6
 41
30.0
 62
     5
 63
     7
421
 16777215
 74
     0
 91
        0
 64
     7
 65
   257
 75
     1
175
     1
 42
1.0
 92
        8
 66
     7
 43
1.0
 76
     1
 77
     6
 78
     2
 67
     7
 79
     5
170
     0
171
     0
290
     0
174
     0
 93
       13
 44
0.0
173
     0
291
     1
 45
0.0
1001
ACAD
1000
AcDbSavedByObjectVersion
1070
     0
  0
VISUALSTYLE
  5
2C
102
{ACAD_XDICTIONARY
360
42B
102
}
102
{ACAD_REACTORS
330
2A
102
}
330
2A
100
AcDbVisualStyle
  2

 70
     1
 71
     2
 72
     1
 73
     1
 90
        2
 40
-0.6
 41
30.0
 62
     5
 63
     7
421
 16777215
 74
     1
 91
        0
 64
     7
 65
   257
 75
     1
175
     1
 42
1.0
 92
        0
 66
   257
 43
1.0
 76
     1
 77
     6
 78
     2
 67
     7
 79
     5
170
     0
171
     0
290
     0
174
     0
 93
       13
 44
0.0
173
     0
291
     1
 45
0.0
1001
ACAD
1000
AcDbSavedByObjectVersion
1070
     0
  0
VISUALSTYLE
  5
2D
102
{ACAD_XDICTIONARY
360
42D
102
}
102
{ACAD_REACTORS
330
2A
102
}
330
2A
100
AcDbVisualStyle
  2

 70
     2
 71
     2
 72
     2
 73
     1
 90
        2
 40
-0.6
 41
30.0
 62
     5
 63
     7
421
 16777215
 74
     0
 91
        0
 64
     7
 65
   257
 75
     1
175
     1
 42
1.0
 92
        0
 66
     7
 43
1.0
 76
     1
 77
     6
 78
     2
 67
     7
 79
     5
170
     0
171
     0
290
     0
174
     0
 93
       13
 44
0.0
173
     0
291
     1
 45
0.0
1001
ACAD
1000
AcDbSavedByObjectVersion
1070
     0
  0
VISUALSTYLE
  5
2E
102
{ACAD_XDICTIONARY
360
42F
102
}
102
{ACAD_REACTORS
330
2A
102
}
330
2A
100
AcDbVisualStyle
  2

 70
     3
 71
     2
 72
     2
 73
     1
 90
        2
 40
-0.6
 41
30.0
 62
     5
 63
     7
421
 16777215
 74
     1
 91
        0
 64
     7
 65
   257
 75
     1
175
     1
 42
1.0
 92
        0
 66
   257
 43
1.0
 76
     1
 77
     6
 78
     2
 67
     7
 79
     5
170
     0
171
     0
290
     0
174
     0
 93
       13
 44
0.0
173
     0
291
     1
 45
0.0
1001
ACAD
1000
AcDbSavedByObjectVersion
1070
     0
  0
VISUALSTYLE
  5
31
102
{ACAD_XDICTIONARY
360
435
102
}
102
{ACAD_REACTORS
330
2A
102
}
330
2A
100
AcDbVisualStyle
  2

 70
     6
 71
     1
 72
     2
 73
     2
 90
        0
 40
-0.6
 41
-30.0
 62
     5
 63
     7
421
 16777215
 74
     2
 91
        2
 64
     7
 65
   257
 75
     2
175
     1
 42
40.0
 92
        0
 66
   257
 43
1.0
 76
     1
 77
     6
 78
     2
 67
     7
 79
     3
170
     0
171
     0
290
     0
174
     0
 93
        1
 44
0.0
173
     0
291
     0
 45
0.0
1001
ACAD
1000
AcDbSavedByObjectVersion
1070
     0
  0
VISUALSTYLE
  5
3B
102
{ACAD_XDICTIONARY
360
449
102
}
102
{ACAD_REACTORS
330
2A
102
}
330
2A
100
AcDbVisualStyle
  2

 70
    20
 71
     2
 72
     2
 73
     0
 90
        0
 40
-0.6
 41
-30.0
 62
     5
 63
     7
421
 16777215
 74
     1
 91
        4
 64
     7
 65
   257
 75
     1
175
     1
 42
1.0
 92
       10
 66
     7
 43
1.0
 76
     1
 77
     6
 78
     2
 67
     7
 79
     5
170
     0
171
     0
290
     0
174
     0
 93
        1
 44
0.0
173
     0
291
     1
 45
0.0
1001
ACAD
1000
AcDbSavedByObjectVersion
1070
     0
  0
VISUALSTYLE
  5
38
102
{ACAD_XDICTIONARY
360
443
102
}
102
{ACAD_REACTORS
330
2A
102
}
330
2A
100
AcDbVisualStyle
  2

 70
    14
 71
     2
 72
     2
 73
     0
 90
        0
 40
-0.6
 41
-30.0
 62
     5
 63
     7
421
 16777215
 74
     1
 91
        4
 64
     7
 65
   257
 75
     7
175
     7
 42
1.0
 92
        8
 66
     7
 43
1.0
 76
     1
 77
     6
 78
     2
 67
     7
 79
     5
170
     0
171
     0
290
     0
174
     0
 93
        1
 44
0.0
173
     0
291
     1
 45
0.0
1001
ACAD
1000
AcDbSavedByObjectVersion
1070
     0
  0
VISUALSTYLE
  5
3C
102
{ACAD_XDICTIONARY
360
44B
102
}
102
{ACAD_REACTORS
330
2A
102
}
330
2A
100
AcDbVisualStyle
  2

 70
    21
 71
     2
 72
     2
 73
     0
 90
        0
 40
-0.6
 41
-30.0
 62
     5
 63
     7
421
 16777215
 74
     1
 91
        4
 64
     7
 65
   257
 75
     1
175
     1
 42
1.0
 92
        9
 66
     7
 43
1.0
 76
     1
 77
     6
 78
     2
 67
     7
 79
     5
170
     0
171
     0
290
     0
174
     0
 93
        1
 44
0.0
173
     0
291
     1
 45
0.0
1001
ACAD
1000
AcDbSavedByObjectVersion
1070
     0
  0
VISUALSTYLE
  5
33
102
{ACAD_XDICTIONARY
360
439
102
}
102
{ACAD_REACTORS
330
2A
102
}
330
2A
100
AcDbVisualStyle
  2

 70
     8
 71
     2
 72
     3
 73
     0
 90
        2
 40
-0.6
 41
30.0
 62
     5
 63
     7
421
 16777215
 74
     0
 91
        0
 64
     7
 65
   257
 75
     1
175
     1
 42
1.0
 92
        8
 66
   257
 43
1.0
 76
     1
 77
     6
 78
     2
 67
     7
 79
     3
170
     0
171
     0
290
     0
174
     0
 93
       13
 44
0.0
173
     0
291
     0
 45
0.0
1001
ACAD
1000
AcDbSavedByObjectVersion
1070
     0
  0
VISUALSTYLE
  5
42
102
{ACAD_XDICTIONARY
360
457
102
}
102
{ACAD_REACTORS
330
2A
102
}
330
2A
100
AcDbVisualStyle
  2

 70
    27
 71
     2
 72
     2
 73
     1
 90
        2
 40
-0.6
 41
30.0
 62
     5
 63
     7
421
 16777215
 74
     0
 91
        4
 64
     7
 65
   257
 75
     1
175
     1
 42
1.0
 92
        8
 66
   257
 43
1.0
 76
     1
 77
     6
 78
     2
 67
     8
425
  7895160
 79
     3
170
     0
171
     0
290
     0
174
     0
 93
        5
 44
0.0
173
     0
291
     0
 45
0.0
1001
ACAD
1000
AcDbSavedByObjectVersion
1070
     0
  0
VISUALSTYLE
  5
41
102
{ACAD_XDICTIONARY
360
455
102
}
102
{ACAD_REACTORS
330
2A
102
}
330
2A
100
AcDbVisualStyle
  2

 70
    26
 71
     2
 72
     2
 73
     1
 90
        2
 40
-0.6
 41
30.0
 62
     5
 63
     7
421
 16777215
 74
     1
 91
       10
 64
     7
 65
   257
 75
     2
175
     1
 42
1.0
 92
        8
 66
   257
 43
1.0
 76
     1
 77
     6
 78
     2
 67
     7
 79
     3
170
     0
171
     0
290
     0
174
     0
 93
        5
 44
0.0
173
     0
291
     0
 45
0.0
1001
ACAD
1000
AcDbSavedByObjectVersion
1070
     0
  0
VISUALSTYLE
  5
3E
102
{ACAD_XDICTIONARY
360
44F
102
}
102
{ACAD_REACTORS
330
2A
102
}
330
2A
100
AcDbVisualStyle
  2

 70
    23
 71
     2
 72
     2
 73
     3
 90
        0
 40
-0.6
 41
-30.0
 62
     5
 63
     7
421
 16777215
 74
     2
 91
        2
 64
     7
 65
     7
 75
     1
175
     1
 42
40.0
 92
        8
 66
     7
 43
1.0
 76
     1
 77
     6
 78
     2
 67
     7
 79
     3
170
     0
171
     0
290
     0
174
     0
 93
        1
 44
0.0
173
     0
291
     0
 45
0.0
1001
ACAD
1000
AcDbSavedByObjectVersion
1070
     0
  0
VISUALSTYLE
  5
3F
102
{ACAD_XDICTIONARY
360
451
102
}
102
{ACAD_REACTORS
330
2A
102
}
330
2A
100
AcDbVisualStyle
  2

 70
    24
 71
     1
 72
     2
 73
     2
 90
        0
 40
-0.6
 41
-30.0
 62
     5
 63
     7
421
 16777215
 74
     2
 91
        2
 64
     7
 65
     7
 75
     1
175
     1
 42
40.0
 92
       11
 66
     7
 43
1.0
 76
     1
 77
     6
 78
     2
 67
     7
 79
     6
170
     0
171
     0
290
     0
174
     0
 93
        1
 44
0.0
173
     0
291
     0
 45
0.0
1001
ACAD
1000
AcDbSavedByObjectVersion
1070
     0
  0
VISUALSTYLE
  5
37
102
{ACAD_XDICTIONARY
360
441
102
}
102
{ACAD_REACTORS
330
2A
102
}
330
2A
100
AcDbVisualStyle
  2

 70
    13
 71
     2
 72
     2
 73
     0
 90
        0
 40
-0.6
 41
-30.0
 62
     5
 63
     7
421
 16777215
 74
     1
 91
        4
 64
     7
 65
   257
 75
     1
175
     1
 42
1.0
 92
       12
 66
     7
 43
1.0
 76
     1
 77
     6
 78
     2
 67
     7
 79
     5
170
     0
171
     0
290
     0
174
     0
 93
        1
 44
0.0
173
     0
291
     1
 45
0.0
1001
ACAD
1000
AcDbSavedByObjectVersion
1070
     0
  0
VISUALSTYLE
  5
30
102
{ACAD_XDICTIONARY
360
433
102
}
102
{ACAD_REACTORS
330
2A
102
}
330
2A
100
AcDbVisualStyle
  2

 70
     5
 71
     0
 72
     2
 73
     0
 90
        0
 40
-0.6
 41
-30.0
 62
     5
 63
     7
421
 16777215
 74
     1
 91
        4
 64
     7
 65
   257
 75
     1
175
     1
 42
1.0
 92
        0
 66
   257
 43
1.0
 76
     1
 77
     6
 78
     2
 67
     7
 79
     3
170
     0
171
     0
290
     0
174
     0
 93
        1
 44
0.0
173
     0
291
     0
 45
0.0
1001
ACAD
1000
AcDbSavedByObjectVersion
1070
     0
  0
VISUALSTYLE
  5
40
102
{ACAD_XDICTIONARY
360
453
102
}
102
{ACAD_REACTORS
330
2A
102
}
330
2A
100
AcDbVisualStyle
  2

 70
    25
 71
     2
 72
     2
 73
     1
 90
        1
 40
0.5
 41
-30.0
 62
     5
 63
     7
421
 16777215
 74
     1
 91
        0
 64
     7
 65
   257
 75
     1
175
     1
 42
1.0
 92
        8
 66
     7
 43
1.0
 76
     1
 77
     6
 78
     2
 67
     7
 79
     3
170
     0
171
     0
290
     0
174
     0
 93
       13
 44
0.0
173
     0
291
     0
 45
0.0
1001
ACAD
1000
AcDbSavedByObjectVersion
1070
     0
  0
DICTIONARYVAR
  5
363
102
{ACAD_REACTORS
330
362
102
}
330
362
100
DictionaryVariables
280
     0
  1
1:1
  0
DICTIONARYVAR
  5
3A4
102
{ACAD_REACTORS
330
362
102
}
330
362
100
DictionaryVariables
280
     0
  1
STANDARD
  0
DICTIONARYVAR
  5
3A3
102
{ACAD_REACTORS
330
362
102
}
330
362
100
DictionaryVariables
280
     0
  1
STANDARD
  0
DICTIONARYVAR
  5
423
102
{ACAD_REACTORS
330
362
102
}
330
362
100
DictionaryVariables
280
     0
  1
Metric50
  0
DICTIONARYVAR
  5
424
102
{ACAD_REACTORS
330
362
102
}
330
362
100
DictionaryVariables
280
     0
  1
Metric50
  0
DICTIONARYVAR
  5
364
102
{ACAD_REACTORS
330
362
102
}
330
362
100
DictionaryVariables
280
     0
  1
1
  0
DICTIONARYVAR
  5
425
102
{ACAD_REACTORS
330
362
102
}
330
362
100
DictionaryVariables
280
     0
  1
2
  0
DICTIONARY
  5
45C
330
3AB
100
AcDbDictionary
280
     1
281
     1
  3
ACAD_XREC_ROUNDTRIP
360
45D
  0
DICTIONARY
  5
398
330
45
100
AcDbDictionary
280
     1
281
     1
  3
ACAD_XREC_ROUNDTRIP
360
399
  0
DICTIONARY
  5
396
330
44
100
AcDbDictionary
280
     1
281
     1
  3
ACAD_XREC_ROUNDTRIP
360
397
  0
DICTIONARY
  5
39A
330
46
100
AcDbDictionary
280
     1
281
     1
  3
ACAD_XREC_ROUNDTRIP
360
39B
  0
DICTIONARY
  5
45A
330
3AA
100
AcDbDictionary
280
     1
281
     1
  3
ACAD_XREC_ROUNDTRIP
360
45B
  0
DICTIONARY
  5
39C
330
6A
100
AcDbDictionary
280
     1
281
     1
  3
ACAD_ROUNDTRIP_2008_TABLESTYLE_CELLSTYLEMAP
360
427
  3
ACAD_XREC_ROUNDTRIP
360
459
  0
DICTIONARY
  5
431
330
2F
100
AcDbDictionary
280
     1
281
     1
  3
ACAD_XREC_ROUNDTRIP
360
432
  0
DICTIONARY
  5
437
330
32
100
AcDbDictionary
280
     1
281
     1
  3
ACAD_XREC_ROUNDTRIP
360
438
  0
DICTIONARY
  5
43F
330
36
100
AcDbDictionary
280
     1
281
     1
  3
ACAD_XREC_ROUNDTRIP
360
440
  0
DICTIONARY
  5
447
330
3A
100
AcDbDictionary
280
     1
281
     1
  3
ACAD_XREC_ROUNDTRIP
360
448
  0
DICTIONARY
  5
43B
330
34
100
AcDbDictionary
280
     1
281
     1
  3
ACAD_XREC_ROUNDTRIP
360
43C
  0
DICTIONARY
  5
43D
330
35
100
AcDbDictionary
280
     1
281
     1
  3
ACAD_XREC_ROUNDTRIP
360
43E
  0
DICTIONARY
  5
44D
330
3D
100
AcDbDictionary
280
     1
281
     1
  3
ACAD_XREC_ROUNDTRIP
360
44E
  0
DICTIONARY
  5
445
330
39
100
AcDbDictionary
280
     1
281
     1
  3
ACAD_XREC_ROUNDTRIP
360
446
  0
DICTIONARY
  5
429
330
2B
100
AcDbDictionary
280
     1
281
     1
  3
ACAD_XREC_ROUNDTRIP
360
42A
  0
DICTIONARY
  5
42B
330
2C
100
AcDbDictionary
280
     1
281
     1
  3
ACAD_XREC_ROUNDTRIP
360
42C
  0
DICTIONARY
  5
42D
330
2D
100
AcDbDictionary
280
     1
281
     1
  3
ACAD_XREC_ROUNDTRIP
360
42E
  0
DICTIONARY
  5
42F
330
2E
100
AcDbDictionary
280
     1
281
     1
  3
ACAD_XREC_ROUNDTRIP
360
430
  0
DICTIONARY
  5
435
330
31
100
AcDbDictionary
280
     1
281
     1
  3
ACAD_XREC_ROUNDTRIP
360
436
  0
DICTIONARY
  5
449
330
3B
100
AcDbDictionary
280
     1
281
     1
  3
ACAD_XREC_ROUNDTRIP
360
44A
  0
DICTIONARY
  5
443
330
38
100
AcDbDictionary
280
     1
281
     1
  3
ACAD_XREC_ROUNDTRIP
360
444
  0
DICTIONARY
  5
44B
330
3C
100
AcDbDictionary
280
     1
281
     1
  3
ACAD_XREC_ROUNDTRIP
360
44C
  0
DICTIONARY
  5
439
330
33
100
AcDbDictionary
280
     1
281
     1
  3
ACAD_XREC_ROUNDTRIP
360
43A
  0
DICTIONARY
  5
457
330
42
100
AcDbDictionary
280
     1
281
     1
  3
ACAD_XREC_ROUNDTRIP
360
458
  0
DICTIONARY
  5
455
330
41
100
AcDbDictionary
280
     1
281
     1
  3
ACAD_XREC_ROUNDTRIP
360
456
  0
DICTIONARY
  5
44F
330
3E
100
AcDbDictionary
280
     1
281
     1
  3
ACAD_XREC_ROUNDTRIP
360
450
  0
DICTIONARY
  5
451
330
3F
100
AcDbDictionary
280
     1
281
     1
  3
ACAD_XREC_ROUNDTRIP
360
452
  0
DICTIONARY
  5
441
330
37
100
AcDbDictionary
280
     1
281
     1
  3
ACAD_XREC_ROUNDTRIP
360
442
  0
DICTIONARY
  5
433
330
30
100
AcDbDictionary
280
     1
281
     1
  3
ACAD_XREC_ROUNDTRIP
360
434
  0
DICTIONARY
  5
453
330
40
100
AcDbDictionary
280
     1
281
     1
  3
ACAD_XREC_ROUNDTRIP
360
454
  0
XRECORD
  5
45D
102
{ACAD_REACTORS
330
45C
102
}
330
45C
100
AcDbXrecord
280
     1
102
DISPLAYNAME
  1
Metric50
102
FLAGS
 90
        0
  0
XRECORD
  5
399
102
{ACAD_REACTORS
330
398
102
}
330
398
100
AcDbXrecord
280
     1
102
MATERIAL
148
0.0
149
0.0
149
0.0
 93
        0
 94
      127
282
     0
 72
     1
 77
     1
171
     1
175
     1
179
     1
273
     0
  0
XRECORD
  5
397
102
{ACAD_REACTORS
330
396
102
}
330
396
100
AcDbXrecord
280
     1
102
MATERIAL
148
0.0
149
0.0
149
0.0
 93
        0
 94
      127
282
     0
 72
     1
 77
     1
171
     1
175
     1
179
     1
273
     0
  0
XRECORD
  5
39B
102
{ACAD_REACTORS
330
39A
102
}
330
39A
100
AcDbXrecord
280
     1
102
MATERIAL
148
0.0
149
0.0
149
0.0
 93
        0
 94
      127
282
     0
 72
     1
 77
     1
171
     1
175
     1
179
     1
273
     0
  0
XRECORD
  5
45B
102
{ACAD_REACTORS
330
45A
102
}
330
45A
100
AcDbXrecord
280
     1
102
DISPLAYNAME
  1
Metric50
102
FLAGS
 90
        0
  0
CELLSTYLEMAP
  5
427
102
{ACAD_REACTORS
330
39C
102
}
330
39C
100
AcDbCellStyleMap
 90
        3
300
CELLSTYLE
  1
TABLEFORMAT_BEGIN
 90
        5
170
     1
 91
        0
 92
    32768
 62
   257
 93
        1
300
CONTENTFORMAT
  1
CONTENTFORMAT_BEGIN
 90
        0
 91
        0
 92
        4
 93
        0
300

 40
0.0
140
1.0
 94
        5
 62
     0
340
11
144
0.25
309
CONTENTFORMAT_END
171
     1
301
MARGIN
  1
CELLMARGIN_BEGIN
 40
0.06
 40
0.06
 40
0.06
 40
0.06
 40
0.18
 40
0.18
309
CELLMARGIN_END
 94
        6
 95
        1
302
GRIDFORMAT
  1
GRIDFORMAT_BEGIN
 90
        0
 91
        1
 62
     0
 92
       -2
340
14
 93
        0
 40
0.045
309
GRIDFORMAT_END
 95
        2
302
GRIDFORMAT
  1
GRIDFORMAT_BEGIN
 90
        0
 91
        1
 62
     0
 92
       -2
340
14
 93
        0
 40
0.045
309
GRIDFORMAT_END
 95
        4
302
GRIDFORMAT
  1
GRIDFORMAT_BEGIN
 90
        0
 91
        1
 62
     0
 92
       -2
340
14
 93
        0
 40
0.045
309
GRIDFORMAT_END
 95
        8
302
GRIDFORMAT
  1
GRIDFORMAT_BEGIN
 90
        0
 91
        1
 62
     0
 92
       -2
340
14
 93
        0
 40
0.045
309
GRIDFORMAT_END
 95
       16
302
GRIDFORMAT
  1
GRIDFORMAT_BEGIN
 90
        0
 91
        1
 62
     0
 92
       -2
340
14
 93
        0
 40
0.045
309
GRIDFORMAT_END
 95
       32
302
GRIDFORMAT
  1
GRIDFORMAT_BEGIN
 90
        0
 91
        1
 62
     0
 92
       -2
340
14
 93
        0
 40
0.045
309
GRIDFORMAT_END
309
TABLEFORMAT_END
  1
CELLSTYLE_BEGIN
 90
        1
 91
        1
300
_TITLE
309
CELLSTYLE_END
300
CELLSTYLE
  1
TABLEFORMAT_BEGIN
 90
        5
170
     1
 91
        0
 92
        0
 62
   257
 93
        1
300
CONTENTFORMAT
  1
CONTENTFORMAT_BEGIN
 90
        0
 91
        0
 92
        4
 93
        0
300

 40
0.0
140
1.0
 94
        5
 62
     0
340
11
144
0.18
309
CONTENTFORMAT_END
171
     1
301
MARGIN
  1
CELLMARGIN_BEGIN
 40
0.06
 40
0.06
 40
0.06
 40
0.06
 40
0.18
 40
0.18
309
CELLMARGIN_END
 94
        6
 95
        1
302
GRIDFORMAT
  1
GRIDFORMAT_BEGIN
 90
        0
 91
        1
 62
     0
 92
       -2
340
14
 93
        0
 40
0.045
309
GRIDFORMAT_END
 95
        2
302
GRIDFORMAT
  1
GRIDFORMAT_BEGIN
 90
        0
 91
        1
 62
     0
 92
       -2
340
14
 93
        0
 40
0.045
309
GRIDFORMAT_END
 95
        4
302
GRIDFORMAT
  1
GRIDFORMAT_BEGIN
 90
        0
 91
        1
 62
     0
 92
       -2
340
14
 93
        0
 40
0.045
309
GRIDFORMAT_END
 95
        8
302
GRIDFORMAT
  1
GRIDFORMAT_BEGIN
 90
        0
 91
        1
 62
     0
 92
       -2
340
14
 93
        0
 40
0.045
309
GRIDFORMAT_END
 95
       16
302
GRIDFORMAT
  1
GRIDFORMAT_BEGIN
 90
        0
 91
        1
 62
     0
 92
       -2
340
14
 93
        0
 40
0.045
309
GRIDFORMAT_END
 95
       32
302
GRIDFORMAT
  1
GRIDFORMAT_BEGIN
 90
        0
 91
        1
 62
     0
 92
       -2
340
14
 93
        0
 40
0.045
309
GRIDFORMAT_END
309
TABLEFORMAT_END
  1
CELLSTYLE_BEGIN
 90
        2
 91
        1
300
_HEADER
309
CELLSTYLE_END
300
CELLSTYLE
  1
TABLEFORMAT_BEGIN
 90
        5
170
     1
 91
        0
 92
        0
 62
   257
 93
        1
300
CONTENTFORMAT
  1
CONTENTFORMAT_BEGIN
 90
        0
 91
        0
 92
        4
 93
        0
300

 40
0.0
140
1.0
 94
        2
 62
     0
340
11
144
0.18
309
CONTENTFORMAT_END
171
     1
301
MARGIN
  1
CELLMARGIN_BEGIN
 40
0.06
 40
0.06
 40
0.06
 40
0.06
 40
0.18
 40
0.18
309
CELLMARGIN_END
 94
        6
 95
        1
302
GRIDFORMAT
  1
GRIDFORMAT_BEGIN
 90
        0
 91
        1
 62
     0
 92
       -2
340
14
 93
        0
 40
0.045
309
GRIDFORMAT_END
 95
        2
302
GRIDFORMAT
  1
GRIDFORMAT_BEGIN
 90
        0
 91
        1
 62
     0
 92
       -2
340
14
 93
        0
 40
0.045
309
GRIDFORMAT_END
 95
        4
302
GRIDFORMAT
  1
GRIDFORMAT_BEGIN
 90
        0
 91
        1
 62
     0
 92
       -2
340
14
 93
        0
 40
0.045
309
GRIDFORMAT_END
 95
        8
302
GRIDFORMAT
  1
GRIDFORMAT_BEGIN
 90
        0
 91
        1
 62
     0
 92
       -2
340
14
 93
        0
 40
0.045
309
GRIDFORMAT_END
 95
       16
302
GRIDFORMAT
  1
GRIDFORMAT_BEGIN
 90
        0
 91
        1
 62
     0
 92
       -2
340
14
 93
        0
 40
0.045
309
GRIDFORMAT_END
 95
       32
302
GRIDFORMAT
  1
GRIDFORMAT_BEGIN
 90
        0
 91
        1
 62
     0
 92
       -2
340
14
 93
        0
 40
0.045
309
GRIDFORMAT_END
309
TABLEFORMAT_END
  1
CELLSTYLE_BEGIN
 90
        3
 91
        2
300
_DATA
309
CELLSTYLE_END
  0
XRECORD
  5
459
102
{ACAD_REACTORS
330
39C
102
}
330
39C
100
AcDbXrecord
280
     1
102
ACAD_ROUNDTRIP_PRE2007_TABLESTYLE
 90
        4
 91
        0
  1

 92
        4
 93
        0
  2

 94
        4
 95
        0
  3

  0
XRECORD
  5
432
102
{ACAD_REACTORS
330
431
102
}
330
431
100
AcDbXrecord
280
     1
102
RTVSPost2010Prop28
280
     1
102
RTVSPost2010PropOp28
 70
     1
102
RTVSPost2010Prop29
280
     1
102
RTVSPost2010PropOp29
 70
     1
102
RTVSPost2010Prop30
280
     0
102
RTVSPost2010PropOp30
 70
     1
102
RTVSPost2010Prop31
280
     0
102
RTVSPost2010PropOp31
 70
     1
102
RTVSPost2010Prop32
280
     0
102
RTVSPost2010PropOp32
 70
     1
102
RTVSPost2010Prop33
280
     0
102
RTVSPost2010PropOp33
 70
     1
102
RTVSPost2010Prop34
280
     0
102
RTVSPost2010PropOp34
 70
     1
102
RTVSPost2010Prop35
280
     0
102
RTVSPost2010PropOp35
 70
     1
102
RTVSPost2010Prop36
280
     0
102
RTVSPost2010PropOp36
 70
     1
102
RTVSPost2010Prop37
 90
       50
102
RTVSPost2010PropOp37
 70
     1
102
RTVSPost2010Prop38
140
0.0
102
RTVSPost2010PropOp38
 70
     1
102
RTVSPost2010Prop39
140
1.0
102
RTVSPost2010PropOp39
 70
     1
102
RTVSPost2010Prop40
 90
        0
102
RTVSPost2010PropOp40
 70
     1
102
RTVSPost2010Prop41ColorIndex
 90
       18
102
RTVSPost2010Prop41ColorRGB
 90
        0
102
RTVSPost2010PropOp41
 70
     1
102
RTVSPost2010Prop42
 90
       50
102
RTVSPost2010PropOp42
 70
     1
102
RTVSPost2010Prop43
 90
        3
102
RTVSPost2010PropOp43
 70
     1
102
RTVSPost2010Prop44ColorIndex
 90
        5
102
RTVSPost2010Prop44ColorRGB
 90
      255
102
RTVSPost2010PropOp44
 70
     1
102
RTVSPost2010Prop45
280
     0
102
RTVSPost2010PropOp45
 70
     1
102
RTVSPost2010Prop46
 90
       50
102
RTVSPost2010PropOp46
 70
     1
102
RTVSPost2010Prop47
 90
       50
102
RTVSPost2010PropOp47
 70
     1
102
RTVSPost2010Prop48
 90
       50
102
RTVSPost2010PropOp48
 70
     1
102
RTVSPost2010Prop49
280
     0
102
RTVSPost2010PropOp49
 70
     1
102
RTVSPost2010Prop50
 90
       50
102
RTVSPost2010PropOp50
 70
     1
102
RTVSPost2010Prop51ColorIndex
 90
      256
102
RTVSPost2010Prop51ColorRGB
 90
-16777216
102
RTVSPost2010PropOp51
 70
     0
102
RTVSPost2010Prop52
140
1.0
102
RTVSPost2010PropOp52
 70
     0
102
RTVSPost2010Prop53
 90
        2
102
RTVSPost2010PropOp53
 70
     1
102
RTVSPost2010Prop54
  1
strokes_ogs.tif
102
RTVSPost2010PropOp54
 70
     1
102
RTVSPost2010Prop55
280
     0
102
RTVSPost2010PropOp55
 70
     1
102
RTVSPost2010Prop56
140
1.0
102
RTVSPost2010PropOp56
 70
     1
102
RTVSPost2010Prop57
140
1.0
102
RTVSPost2010PropOp57
 70
     1
102
RTVSPropertyOp0
 70
     1
102
RTVSPropertyOp1
 70
     1
102
RTVSPropertyOp2
 70
     1
102
RTVSPropertyOp3
 70
     1
102
RTVSPropertyOp4
 70
     1
102
RTVSPropertyOp5
 70
     1
102
RTVSPropertyOp6
 70
     1
102
RTVSPropertyOp7
 70
     1
102
RTVSPropertyOp8
 70
     1
102
RTVSPropertyOp9
 70
     1
102
RTVSPropertyOp10
 70
     1
102
RTVSPropertyOp11
 70
     1
102
RTVSPropertyOp12
 70
     1
102
RTVSPropertyOp13
 70
     1
102
RTVSPropertyOp14
 70
     1
102
RTVSPropertyOp15
 70
     1
102
RTVSPropertyOp16
 70
     1
102
RTVSPropertyOp17
 70
     1
102
RTVSPropertyOp18
 70
     1
102
RTVSPropertyOp19
 70
     1
102
RTVSPropertyOp20
 70
     1
102
RTVSPropertyOp21
 70
     1
102
RTVSPropertyOp22
 70
     1
102
RTVSPropertyOp23
 70
     1
102
RTVSPropertyOp24
 70
     1
102
RTVSPropertyOp25
 70
     1
102
RTVSPropertyOp26
 70
     1
102
RTVSPropertyOp27
 70
     1
102
RTVSPropertyOp28
 70
     1
102
RTVSPropertyOp29
 70
     1
102
RTVSPropertyOp30
 70
     1
102
RTVSPropertyOp31
 70
     1
102
RTVSPropertyOp32
 70
     1
102
RTVSPropertyOp33
 70
     1
102
RTVSPropertyOp34
 70
     1
102
RTVSPropertyOp35
 70
     1
102
RTVSPropertyOp36
 70
     1
102
RTVSPropertyOp37
 70
     1
102
RTVSPropertyOp38
 70
     1
102
RTVSPropertyOp39
 70
     1
102
RTVSPropertyOp40
 70
     1
102
RTVSPropertyOp41
 70
     1
102
RTVSPropertyOp42
 70
     1
102
RTVSPropertyOp43
 70
     1
102
RTVSPropertyOp44
 70
     1
102
RTVSPropertyOp45
 70
     1
102
RTVSPropertyOp46
 70
     1
102
RTVSPropertyOp47
 70
     1
102
RTVSPropertyOp48
 70
     1
102
RTVSPropertyOp49
 70
     1
102
RTVSPropertyOp50
 70
     1
102
RTVSPropertyOp51
 70
     0
102
RTVSPropertyOp52
 70
     0
102
RTVSPropertyOp53
 70
     1
102
RTVSPropertyOp54
 70
     1
102
RTVSPropertyOp55
 70
     1
102
RTVSPropertyOp56
 70
     1
102
RTVSPropertyOp57
 70
     1
102
RTVSPropertyOp58
 70
     1
102
RTVSPropertyOp59
 70
     1
102
RTVSPropertyOp60
 70
     1
102
RTVSPropertyOp61
 70
     1
102
RTVSPropertyOp62
 70
     1
  0
XRECORD
  5
438
102
{ACAD_REACTORS
330
437
102
}
330
437
100
AcDbXrecord
280
     1
102
RTVSPost2010Prop28
280
     0
102
RTVSPost2010PropOp28
 70
     1
102
RTVSPost2010Prop29
280
     1
102
RTVSPost2010PropOp29
 70
     1
102
RTVSPost2010Prop30
280
     1
102
RTVSPost2010PropOp30
 70
     1
102
RTVSPost2010Prop31
280
     0
102
RTVSPost2010PropOp31
 70
     1
102
RTVSPost2010Prop32
280
     0
102
RTVSPost2010PropOp32
 70
     1
102
RTVSPost2010Prop33
280
     0
102
RTVSPost2010PropOp33
 70
     1
102
RTVSPost2010Prop34
280
     0
102
RTVSPost2010PropOp34
 70
     1
102
RTVSPost2010Prop35
280
     0
102
RTVSPost2010PropOp35
 70
     1
102
RTVSPost2010Prop36
280
     0
102
RTVSPost2010PropOp36
 70
     1
102
RTVSPost2010Prop37
 90
       50
102
RTVSPost2010PropOp37
 70
     1
102
RTVSPost2010Prop38
140
0.0
102
RTVSPost2010PropOp38
 70
     1
102
RTVSPost2010Prop39
140
1.0
102
RTVSPost2010PropOp39
 70
     1
102
RTVSPost2010Prop40
 90
        0
102
RTVSPost2010PropOp40
 70
     1
102
RTVSPost2010Prop41ColorIndex
 90
       18
102
RTVSPost2010Prop41ColorRGB
 90
        0
102
RTVSPost2010PropOp41
 70
     1
102
RTVSPost2010Prop42
 90
       50
102
RTVSPost2010PropOp42
 70
     1
102
RTVSPost2010Prop43
 90
        3
102
RTVSPost2010PropOp43
 70
     1
102
RTVSPost2010Prop44ColorIndex
 90
        5
102
RTVSPost2010Prop44ColorRGB
 90
      255
102
RTVSPost2010PropOp44
 70
     1
102
RTVSPost2010Prop45
280
     0
102
RTVSPost2010PropOp45
 70
     1
102
RTVSPost2010Prop46
 90
       50
102
RTVSPost2010PropOp46
 70
     1
102
RTVSPost2010Prop47
 90
       50
102
RTVSPost2010PropOp47
 70
     1
102
RTVSPost2010Prop48
 90
       50
102
RTVSPost2010PropOp48
 70
     1
102
RTVSPost2010Prop49
280
     0
102
RTVSPost2010PropOp49
 70
     1
102
RTVSPost2010Prop50
 90
       50
102
RTVSPost2010PropOp50
 70
     1
102
RTVSPost2010Prop51ColorIndex
 90
      256
102
RTVSPost2010Prop51ColorRGB
 90
-16777216
102
RTVSPost2010PropOp51
 70
     0
102
RTVSPost2010Prop52
140
1.0
102
RTVSPost2010PropOp52
 70
     0
102
RTVSPost2010Prop53
 90
        2
102
RTVSPost2010PropOp53
 70
     1
102
RTVSPost2010Prop54
  1
strokes_ogs.tif
102
RTVSPost2010PropOp54
 70
     1
102
RTVSPost2010Prop55
280
     0
102
RTVSPost2010PropOp55
 70
     1
102
RTVSPost2010Prop56
140
1.0
102
RTVSPost2010PropOp56
 70
     1
102
RTVSPost2010Prop57
140
1.0
102
RTVSPost2010PropOp57
 70
     1
102
RTVSPropertyOp0
 70
     1
102
RTVSPropertyOp1
 70
     1
102
RTVSPropertyOp2
 70
     1
102
RTVSPropertyOp3
 70
     1
102
RTVSPropertyOp4
 70
     1
102
RTVSPropertyOp5
 70
     1
102
RTVSPropertyOp6
 70
     1
102
RTVSPropertyOp7
 70
     1
102
RTVSPropertyOp8
 70
     1
102
RTVSPropertyOp9
 70
     1
102
RTVSPropertyOp10
 70
     1
102
RTVSPropertyOp11
 70
     1
102
RTVSPropertyOp12
 70
     1
102
RTVSPropertyOp13
 70
     1
102
RTVSPropertyOp14
 70
     1
102
RTVSPropertyOp15
 70
     1
102
RTVSPropertyOp16
 70
     1
102
RTVSPropertyOp17
 70
     1
102
RTVSPropertyOp18
 70
     1
102
RTVSPropertyOp19
 70
     1
102
RTVSPropertyOp20
 70
     1
102
RTVSPropertyOp21
 70
     1
102
RTVSPropertyOp22
 70
     1
102
RTVSPropertyOp23
 70
     1
102
RTVSPropertyOp24
 70
     1
102
RTVSPropertyOp25
 70
     1
102
RTVSPropertyOp26
 70
     1
102
RTVSPropertyOp27
 70
     1
102
RTVSPropertyOp28
 70
     1
102
RTVSPropertyOp29
 70
     1
102
RTVSPropertyOp30
 70
     1
102
RTVSPropertyOp31
 70
     1
102
RTVSPropertyOp32
 70
     1
102
RTVSPropertyOp33
 70
     1
102
RTVSPropertyOp34
 70
     1
102
RTVSPropertyOp35
 70
     1
102
RTVSPropertyOp36
 70
     1
102
RTVSPropertyOp37
 70
     1
102
RTVSPropertyOp38
 70
     1
102
RTVSPropertyOp39
 70
     1
102
RTVSPropertyOp40
 70
     1
102
RTVSPropertyOp41
 70
     1
102
RTVSPropertyOp42
 70
     1
102
RTVSPropertyOp43
 70
     1
102
RTVSPropertyOp44
 70
     1
102
RTVSPropertyOp45
 70
     1
102
RTVSPropertyOp46
 70
     1
102
RTVSPropertyOp47
 70
     1
102
RTVSPropertyOp48
 70
     1
102
RTVSPropertyOp49
 70
     1
102
RTVSPropertyOp50
 70
     1
102
RTVSPropertyOp51
 70
     0
102
RTVSPropertyOp52
 70
     0
102
RTVSPropertyOp53
 70
     1
102
RTVSPropertyOp54
 70
     1
102
RTVSPropertyOp55
 70
     1
102
RTVSPropertyOp56
 70
     1
102
RTVSPropertyOp57
 70
     1
102
RTVSPropertyOp58
 70
     1
102
RTVSPropertyOp59
 70
     1
102
RTVSPropertyOp60
 70
     1
102
RTVSPropertyOp61
 70
     1
102
RTVSPropertyOp62
 70
     1
  0
XRECORD
  5
440
102
{ACAD_REACTORS
330
43F
102
}
330
43F
100
AcDbXrecord
280
     1
102
RTVSPost2010Prop28
280
     0
102
RTVSPost2010PropOp28
 70
     1
102
RTVSPost2010Prop29
280
     1
102
RTVSPost2010PropOp29
 70
     1
102
RTVSPost2010Prop30
280
     1
102
RTVSPost2010PropOp30
 70
     1
102
RTVSPost2010Prop31
280
     0
102
RTVSPost2010PropOp31
 70
     1
102
RTVSPost2010Prop32
280
     0
102
RTVSPost2010PropOp32
 70
     1
102
RTVSPost2010Prop33
280
     0
102
RTVSPost2010PropOp33
 70
     1
102
RTVSPost2010Prop34
280
     0
102
RTVSPost2010PropOp34
 70
     1
102
RTVSPost2010Prop35
280
     0
102
RTVSPost2010PropOp35
 70
     1
102
RTVSPost2010Prop36
280
     0
102
RTVSPost2010PropOp36
 70
     1
102
RTVSPost2010Prop37
 90
       50
102
RTVSPost2010PropOp37
 70
     1
102
RTVSPost2010Prop38
140
0.0
102
RTVSPost2010PropOp38
 70
     1
102
RTVSPost2010Prop39
140
1.0
102
RTVSPost2010PropOp39
 70
     1
102
RTVSPost2010Prop40
 90
        0
102
RTVSPost2010PropOp40
 70
     1
102
RTVSPost2010Prop41ColorIndex
 90
       18
102
RTVSPost2010Prop41ColorRGB
 90
        0
102
RTVSPost2010PropOp41
 70
     1
102
RTVSPost2010Prop42
 90
       50
102
RTVSPost2010PropOp42
 70
     1
102
RTVSPost2010Prop43
 90
        3
102
RTVSPost2010PropOp43
 70
     1
102
RTVSPost2010Prop44ColorIndex
 90
        5
102
RTVSPost2010Prop44ColorRGB
 90
      255
102
RTVSPost2010PropOp44
 70
     1
102
RTVSPost2010Prop45
280
     0
102
RTVSPost2010PropOp45
 70
     1
102
RTVSPost2010Prop46
 90
       50
102
RTVSPost2010PropOp46
 70
     1
102
RTVSPost2010Prop47
 90
       50
102
RTVSPost2010PropOp47
 70
     1
102
RTVSPost2010Prop48
 90
       50
102
RTVSPost2010PropOp48
 70
     1
102
RTVSPost2010Prop49
280
     0
102
RTVSPost2010PropOp49
 70
     1
102
RTVSPost2010Prop50
 90
       50
102
RTVSPost2010PropOp50
 70
     1
102
RTVSPost2010Prop51ColorIndex
 90
      256
102
RTVSPost2010Prop51ColorRGB
 90
-16777216
102
RTVSPost2010PropOp51
 70
     0
102
RTVSPost2010Prop52
140
1.0
102
RTVSPost2010PropOp52
 70
     0
102
RTVSPost2010Prop53
 90
        2
102
RTVSPost2010PropOp53
 70
     1
102
RTVSPost2010Prop54
  1
strokes_ogs.tif
102
RTVSPost2010PropOp54
 70
     1
102
RTVSPost2010Prop55
280
     0
102
RTVSPost2010PropOp55
 70
     1
102
RTVSPost2010Prop56
140
1.0
102
RTVSPost2010PropOp56
 70
     1
102
RTVSPost2010Prop57
140
1.0
102
RTVSPost2010PropOp57
 70
     1
102
RTVSPropertyOp0
 70
     1
102
RTVSPropertyOp1
 70
     1
102
RTVSPropertyOp2
 70
     1
102
RTVSPropertyOp3
 70
     1
102
RTVSPropertyOp4
 70
     1
102
RTVSPropertyOp5
 70
     1
102
RTVSPropertyOp6
 70
     1
102
RTVSPropertyOp7
 70
     1
102
RTVSPropertyOp8
 70
     1
102
RTVSPropertyOp9
 70
     1
102
RTVSPropertyOp10
 70
     1
102
RTVSPropertyOp11
 70
     1
102
RTVSPropertyOp12
 70
     1
102
RTVSPropertyOp13
 70
     1
102
RTVSPropertyOp14
 70
     1
102
RTVSPropertyOp15
 70
     1
102
RTVSPropertyOp16
 70
     1
102
RTVSPropertyOp17
 70
     1
102
RTVSPropertyOp18
 70
     1
102
RTVSPropertyOp19
 70
     1
102
RTVSPropertyOp20
 70
     1
102
RTVSPropertyOp21
 70
     1
102
RTVSPropertyOp22
 70
     1
102
RTVSPropertyOp23
 70
     1
102
RTVSPropertyOp24
 70
     1
102
RTVSPropertyOp25
 70
     1
102
RTVSPropertyOp26
 70
     1
102
RTVSPropertyOp27
 70
     1
102
RTVSPropertyOp28
 70
     1
102
RTVSPropertyOp29
 70
     1
102
RTVSPropertyOp30
 70
     1
102
RTVSPropertyOp31
 70
     1
102
RTVSPropertyOp32
 70
     1
102
RTVSPropertyOp33
 70
     1
102
RTVSPropertyOp34
 70
     1
102
RTVSPropertyOp35
 70
     1
102
RTVSPropertyOp36
 70
     1
102
RTVSPropertyOp37
 70
     1
102
RTVSPropertyOp38
 70
     1
102
RTVSPropertyOp39
 70
     1
102
RTVSPropertyOp40
 70
     1
102
RTVSPropertyOp41
 70
     1
102
RTVSPropertyOp42
 70
     1
102
RTVSPropertyOp43
 70
     1
102
RTVSPropertyOp44
 70
     1
102
RTVSPropertyOp45
 70
     1
102
RTVSPropertyOp46
 70
     1
102
RTVSPropertyOp47
 70
     1
102
RTVSPropertyOp48
 70
     1
102
RTVSPropertyOp49
 70
     1
102
RTVSPropertyOp50
 70
     1
102
RTVSPropertyOp51
 70
     0
102
RTVSPropertyOp52
 70
     0
102
RTVSPropertyOp53
 70
     1
102
RTVSPropertyOp54
 70
     1
102
RTVSPropertyOp55
 70
     1
102
RTVSPropertyOp56
 70
     1
102
RTVSPropertyOp57
 70
     1
102
RTVSPropertyOp58
 70
     1
102
RTVSPropertyOp59
 70
     1
102
RTVSPropertyOp60
 70
     1
102
RTVSPropertyOp61
 70
     1
102
RTVSPropertyOp62
 70
     1
  0
XRECORD
  5
448
102
{ACAD_REACTORS
330
447
102
}
330
447
100
AcDbXrecord
280
     1
102
RTVSPost2010Prop28
280
     0
102
RTVSPost2010PropOp28
 70
     1
102
RTVSPost2010Prop29
280
     1
102
RTVSPost2010PropOp29
 70
     1
102
RTVSPost2010Prop30
280
     1
102
RTVSPost2010PropOp30
 70
     1
102
RTVSPost2010Prop31
280
     0
102
RTVSPost2010PropOp31
 70
     1
102
RTVSPost2010Prop32
280
     0
102
RTVSPost2010PropOp32
 70
     1
102
RTVSPost2010Prop33
280
     0
102
RTVSPost2010PropOp33
 70
     1
102
RTVSPost2010Prop34
280
     0
102
RTVSPost2010PropOp34
 70
     1
102
RTVSPost2010Prop35
280
     0
102
RTVSPost2010PropOp35
 70
     1
102
RTVSPost2010Prop36
280
     0
102
RTVSPost2010PropOp36
 70
     1
102
RTVSPost2010Prop37
 90
       50
102
RTVSPost2010PropOp37
 70
     1
102
RTVSPost2010Prop38
140
0.0
102
RTVSPost2010PropOp38
 70
     1
102
RTVSPost2010Prop39
140
1.0
102
RTVSPost2010PropOp39
 70
     1
102
RTVSPost2010Prop40
 90
        0
102
RTVSPost2010PropOp40
 70
     1
102
RTVSPost2010Prop41ColorIndex
 90
       18
102
RTVSPost2010Prop41ColorRGB
 90
        0
102
RTVSPost2010PropOp41
 70
     1
102
RTVSPost2010Prop42
 90
       50
102
RTVSPost2010PropOp42
 70
     1
102
RTVSPost2010Prop43
 90
        3
102
RTVSPost2010PropOp43
 70
     1
102
RTVSPost2010Prop44ColorIndex
 90
        5
102
RTVSPost2010Prop44ColorRGB
 90
      255
102
RTVSPost2010PropOp44
 70
     1
102
RTVSPost2010Prop45
280
     0
102
RTVSPost2010PropOp45
 70
     1
102
RTVSPost2010Prop46
 90
       50
102
RTVSPost2010PropOp46
 70
     1
102
RTVSPost2010Prop47
 90
       50
102
RTVSPost2010PropOp47
 70
     1
102
RTVSPost2010Prop48
 90
       50
102
RTVSPost2010PropOp48
 70
     1
102
RTVSPost2010Prop49
280
     0
102
RTVSPost2010PropOp49
 70
     1
102
RTVSPost2010Prop50
 90
       50
102
RTVSPost2010PropOp50
 70
     1
102
RTVSPost2010Prop51ColorIndex
 90
      256
102
RTVSPost2010Prop51ColorRGB
 90
-16777216
102
RTVSPost2010PropOp51
 70
     0
102
RTVSPost2010Prop52
140
1.0
102
RTVSPost2010PropOp52
 70
     0
102
RTVSPost2010Prop53
 90
        2
102
RTVSPost2010PropOp53
 70
     1
102
RTVSPost2010Prop54
  1
strokes_ogs.tif
102
RTVSPost2010PropOp54
 70
     1
102
RTVSPost2010Prop55
280
     0
102
RTVSPost2010PropOp55
 70
     1
102
RTVSPost2010Prop56
140
1.0
102
RTVSPost2010PropOp56
 70
     1
102
RTVSPost2010Prop57
140
1.0
102
RTVSPost2010PropOp57
 70
     1
102
RTVSPropertyOp0
 70
     1
102
RTVSPropertyOp1
 70
     1
102
RTVSPropertyOp2
 70
     1
102
RTVSPropertyOp3
 70
     1
102
RTVSPropertyOp4
 70
     1
102
RTVSPropertyOp5
 70
     1
102
RTVSPropertyOp6
 70
     1
102
RTVSPropertyOp7
 70
     1
102
RTVSPropertyOp8
 70
     1
102
RTVSPropertyOp9
 70
     1
102
RTVSPropertyOp10
 70
     1
102
RTVSPropertyOp11
 70
     1
102
RTVSPropertyOp12
 70
     1
102
RTVSPropertyOp13
 70
     1
102
RTVSPropertyOp14
 70
     1
102
RTVSPropertyOp15
 70
     1
102
RTVSPropertyOp16
 70
     1
102
RTVSPropertyOp17
 70
     1
102
RTVSPropertyOp18
 70
     1
102
RTVSPropertyOp19
 70
     1
102
RTVSPropertyOp20
 70
     1
102
RTVSPropertyOp21
 70
     1
102
RTVSPropertyOp22
 70
     1
102
RTVSPropertyOp23
 70
     1
102
RTVSPropertyOp24
 70
     1
102
RTVSPropertyOp25
 70
     1
102
RTVSPropertyOp26
 70
     1
102
RTVSPropertyOp27
 70
     1
102
RTVSPropertyOp28
 70
     1
102
RTVSPropertyOp29
 70
     1
102
RTVSPropertyOp30
 70
     1
102
RTVSPropertyOp31
 70
     1
102
RTVSPropertyOp32
 70
     1
102
RTVSPropertyOp33
 70
     1
102
RTVSPropertyOp34
 70
     1
102
RTVSPropertyOp35
 70
     1
102
RTVSPropertyOp36
 70
     1
102
RTVSPropertyOp37
 70
     1
102
RTVSPropertyOp38
 70
     1
102
RTVSPropertyOp39
 70
     1
102
RTVSPropertyOp40
 70
     1
102
RTVSPropertyOp41
 70
     1
102
RTVSPropertyOp42
 70
     1
102
RTVSPropertyOp43
 70
     1
102
RTVSPropertyOp44
 70
     1
102
RTVSPropertyOp45
 70
     1
102
RTVSPropertyOp46
 70
     1
102
RTVSPropertyOp47
 70
     1
102
RTVSPropertyOp48
 70
     1
102
RTVSPropertyOp49
 70
     1
102
RTVSPropertyOp50
 70
     1
102
RTVSPropertyOp51
 70
     0
102
RTVSPropertyOp52
 70
     0
102
RTVSPropertyOp53
 70
     1
102
RTVSPropertyOp54
 70
     1
102
RTVSPropertyOp55
 70
     1
102
RTVSPropertyOp56
 70
     1
102
RTVSPropertyOp57
 70
     1
102
RTVSPropertyOp58
 70
     1
102
RTVSPropertyOp59
 70
     1
102
RTVSPropertyOp60
 70
     1
102
RTVSPropertyOp61
 70
     1
102
RTVSPropertyOp62
 70
     1
  0
XRECORD
  5
43C
102
{ACAD_REACTORS
330
43B
102
}
330
43B
100
AcDbXrecord
280
     1
102
RTVSPost2010Prop28
280
     0
102
RTVSPost2010PropOp28
 70
     1
102
RTVSPost2010Prop29
280
     1
102
RTVSPost2010PropOp29
 70
     1
102
RTVSPost2010Prop30
280
     1
102
RTVSPost2010PropOp30
 70
     1
102
RTVSPost2010Prop31
280
     0
102
RTVSPost2010PropOp31
 70
     1
102
RTVSPost2010Prop32
280
     0
102
RTVSPost2010PropOp32
 70
     1
102
RTVSPost2010Prop33
280
     0
102
RTVSPost2010PropOp33
 70
     1
102
RTVSPost2010Prop34
280
     0
102
RTVSPost2010PropOp34
 70
     1
102
RTVSPost2010Prop35
280
     0
102
RTVSPost2010PropOp35
 70
     1
102
RTVSPost2010Prop36
280
     0
102
RTVSPost2010PropOp36
 70
     1
102
RTVSPost2010Prop37
 90
       50
102
RTVSPost2010PropOp37
 70
     1
102
RTVSPost2010Prop38
140
0.0
102
RTVSPost2010PropOp38
 70
     1
102
RTVSPost2010Prop39
140
1.0
102
RTVSPost2010PropOp39
 70
     1
102
RTVSPost2010Prop40
 90
        0
102
RTVSPost2010PropOp40
 70
     1
102
RTVSPost2010Prop41ColorIndex
 90
       18
102
RTVSPost2010Prop41ColorRGB
 90
        0
102
RTVSPost2010PropOp41
 70
     1
102
RTVSPost2010Prop42
 90
       50
102
RTVSPost2010PropOp42
 70
     1
102
RTVSPost2010Prop43
 90
        3
102
RTVSPost2010PropOp43
 70
     1
102
RTVSPost2010Prop44ColorIndex
 90
        5
102
RTVSPost2010Prop44ColorRGB
 90
      255
102
RTVSPost2010PropOp44
 70
     1
102
RTVSPost2010Prop45
280
     0
102
RTVSPost2010PropOp45
 70
     1
102
RTVSPost2010Prop46
 90
       50
102
RTVSPost2010PropOp46
 70
     1
102
RTVSPost2010Prop47
 90
       50
102
RTVSPost2010PropOp47
 70
     1
102
RTVSPost2010Prop48
 90
       50
102
RTVSPost2010PropOp48
 70
     1
102
RTVSPost2010Prop49
280
     0
102
RTVSPost2010PropOp49
 70
     1
102
RTVSPost2010Prop50
 90
       50
102
RTVSPost2010PropOp50
 70
     1
102
RTVSPost2010Prop51ColorIndex
 90
      256
102
RTVSPost2010Prop51ColorRGB
 90
-16777216
102
RTVSPost2010PropOp51
 70
     0
102
RTVSPost2010Prop52
140
1.0
102
RTVSPost2010PropOp52
 70
     0
102
RTVSPost2010Prop53
 90
        2
102
RTVSPost2010PropOp53
 70
     1
102
RTVSPost2010Prop54
  1
strokes_ogs.tif
102
RTVSPost2010PropOp54
 70
     1
102
RTVSPost2010Prop55
280
     0
102
RTVSPost2010PropOp55
 70
     1
102
RTVSPost2010Prop56
140
1.0
102
RTVSPost2010PropOp56
 70
     1
102
RTVSPost2010Prop57
140
1.0
102
RTVSPost2010PropOp57
 70
     1
102
RTVSPropertyOp0
 70
     1
102
RTVSPropertyOp1
 70
     1
102
RTVSPropertyOp2
 70
     1
102
RTVSPropertyOp3
 70
     1
102
RTVSPropertyOp4
 70
     1
102
RTVSPropertyOp5
 70
     1
102
RTVSPropertyOp6
 70
     1
102
RTVSPropertyOp7
 70
     1
102
RTVSPropertyOp8
 70
     1
102
RTVSPropertyOp9
 70
     1
102
RTVSPropertyOp10
 70
     1
102
RTVSPropertyOp11
 70
     1
102
RTVSPropertyOp12
 70
     1
102
RTVSPropertyOp13
 70
     1
102
RTVSPropertyOp14
 70
     1
102
RTVSPropertyOp15
 70
     1
102
RTVSPropertyOp16
 70
     1
102
RTVSPropertyOp17
 70
     1
102
RTVSPropertyOp18
 70
     1
102
RTVSPropertyOp19
 70
     1
102
RTVSPropertyOp20
 70
     1
102
RTVSPropertyOp21
 70
     1
102
RTVSPropertyOp22
 70
     1
102
RTVSPropertyOp23
 70
     1
102
RTVSPropertyOp24
 70
     1
102
RTVSPropertyOp25
 70
     1
102
RTVSPropertyOp26
 70
     1
102
RTVSPropertyOp27
 70
     1
102
RTVSPropertyOp28
 70
     1
102
RTVSPropertyOp29
 70
     1
102
RTVSPropertyOp30
 70
     1
102
RTVSPropertyOp31
 70
     1
102
RTVSPropertyOp32
 70
     1
102
RTVSPropertyOp33
 70
     1
102
RTVSPropertyOp34
 70
     1
102
RTVSPropertyOp35
 70
     1
102
RTVSPropertyOp36
 70
     1
102
RTVSPropertyOp37
 70
     1
102
RTVSPropertyOp38
 70
     1
102
RTVSPropertyOp39
 70
     1
102
RTVSPropertyOp40
 70
     1
102
RTVSPropertyOp41
 70
     1
102
RTVSPropertyOp42
 70
     1
102
RTVSPropertyOp43
 70
     1
102
RTVSPropertyOp44
 70
     1
102
RTVSPropertyOp45
 70
     1
102
RTVSPropertyOp46
 70
     1
102
RTVSPropertyOp47
 70
     1
102
RTVSPropertyOp48
 70
     1
102
RTVSPropertyOp49
 70
     1
102
RTVSPropertyOp50
 70
     1
102
RTVSPropertyOp51
 70
     0
102
RTVSPropertyOp52
 70
     0
102
RTVSPropertyOp53
 70
     1
102
RTVSPropertyOp54
 70
     1
102
RTVSPropertyOp55
 70
     1
102
RTVSPropertyOp56
 70
     1
102
RTVSPropertyOp57
 70
     1
102
RTVSPropertyOp58
 70
     1
102
RTVSPropertyOp59
 70
     1
102
RTVSPropertyOp60
 70
     1
102
RTVSPropertyOp61
 70
     1
102
RTVSPropertyOp62
 70
     1
  0
XRECORD
  5
43E
102
{ACAD_REACTORS
330
43D
102
}
330
43D
100
AcDbXrecord
280
     1
102
RTVSPost2010Prop28
280
     0
102
RTVSPost2010PropOp28
 70
     1
102
RTVSPost2010Prop29
280
     1
102
RTVSPost2010PropOp29
 70
     1
102
RTVSPost2010Prop30
280
     1
102
RTVSPost2010PropOp30
 70
     1
102
RTVSPost2010Prop31
280
     0
102
RTVSPost2010PropOp31
 70
     1
102
RTVSPost2010Prop32
280
     0
102
RTVSPost2010PropOp32
 70
     1
102
RTVSPost2010Prop33
280
     0
102
RTVSPost2010PropOp33
 70
     1
102
RTVSPost2010Prop34
280
     0
102
RTVSPost2010PropOp34
 70
     1
102
RTVSPost2010Prop35
280
     0
102
RTVSPost2010PropOp35
 70
     1
102
RTVSPost2010Prop36
280
     0
102
RTVSPost2010PropOp36
 70
     1
102
RTVSPost2010Prop37
 90
       50
102
RTVSPost2010PropOp37
 70
     1
102
RTVSPost2010Prop38
140
0.0
102
RTVSPost2010PropOp38
 70
     1
102
RTVSPost2010Prop39
140
1.0
102
RTVSPost2010PropOp39
 70
     1
102
RTVSPost2010Prop40
 90
        0
102
RTVSPost2010PropOp40
 70
     1
102
RTVSPost2010Prop41ColorIndex
 90
       18
102
RTVSPost2010Prop41ColorRGB
 90
        0
102
RTVSPost2010PropOp41
 70
     1
102
RTVSPost2010Prop42
 90
       50
102
RTVSPost2010PropOp42
 70
     1
102
RTVSPost2010Prop43
 90
        3
102
RTVSPost2010PropOp43
 70
     1
102
RTVSPost2010Prop44ColorIndex
 90
        5
102
RTVSPost2010Prop44ColorRGB
 90
      255
102
RTVSPost2010PropOp44
 70
     1
102
RTVSPost2010Prop45
280
     0
102
RTVSPost2010PropOp45
 70
     1
102
RTVSPost2010Prop46
 90
       50
102
RTVSPost2010PropOp46
 70
     1
102
RTVSPost2010Prop47
 90
       50
102
RTVSPost2010PropOp47
 70
     1
102
RTVSPost2010Prop48
 90
       50
102
RTVSPost2010PropOp48
 70
     1
102
RTVSPost2010Prop49
280
     0
102
RTVSPost2010PropOp49
 70
     1
102
RTVSPost2010Prop50
 90
       50
102
RTVSPost2010PropOp50
 70
     1
102
RTVSPost2010Prop51ColorIndex
 90
      256
102
RTVSPost2010Prop51ColorRGB
 90
-16777216
102
RTVSPost2010PropOp51
 70
     0
102
RTVSPost2010Prop52
140
1.0
102
RTVSPost2010PropOp52
 70
     0
102
RTVSPost2010Prop53
 90
        2
102
RTVSPost2010PropOp53
 70
     1
102
RTVSPost2010Prop54
  1
strokes_ogs.tif
102
RTVSPost2010PropOp54
 70
     1
102
RTVSPost2010Prop55
280
     0
102
RTVSPost2010PropOp55
 70
     1
102
RTVSPost2010Prop56
140
1.0
102
RTVSPost2010PropOp56
 70
     1
102
RTVSPost2010Prop57
140
1.0
102
RTVSPost2010PropOp57
 70
     1
102
RTVSPropertyOp0
 70
     1
102
RTVSPropertyOp1
 70
     1
102
RTVSPropertyOp2
 70
     1
102
RTVSPropertyOp3
 70
     1
102
RTVSPropertyOp4
 70
     1
102
RTVSPropertyOp5
 70
     1
102
RTVSPropertyOp6
 70
     1
102
RTVSPropertyOp7
 70
     1
102
RTVSPropertyOp8
 70
     1
102
RTVSPropertyOp9
 70
     1
102
RTVSPropertyOp10
 70
     1
102
RTVSPropertyOp11
 70
     1
102
RTVSPropertyOp12
 70
     1
102
RTVSPropertyOp13
 70
     1
102
RTVSPropertyOp14
 70
     1
102
RTVSPropertyOp15
 70
     1
102
RTVSPropertyOp16
 70
     1
102
RTVSPropertyOp17
 70
     1
102
RTVSPropertyOp18
 70
     1
102
RTVSPropertyOp19
 70
     1
102
RTVSPropertyOp20
 70
     1
102
RTVSPropertyOp21
 70
     1
102
RTVSPropertyOp22
 70
     1
102
RTVSPropertyOp23
 70
     1
102
RTVSPropertyOp24
 70
     1
102
RTVSPropertyOp25
 70
     1
102
RTVSPropertyOp26
 70
     1
102
RTVSPropertyOp27
 70
     1
102
RTVSPropertyOp28
 70
     1
102
RTVSPropertyOp29
 70
     1
102
RTVSPropertyOp30
 70
     1
102
RTVSPropertyOp31
 70
     1
102
RTVSPropertyOp32
 70
     1
102
RTVSPropertyOp33
 70
     1
102
RTVSPropertyOp34
 70
     1
102
RTVSPropertyOp35
 70
     1
102
RTVSPropertyOp36
 70
     1
102
RTVSPropertyOp37
 70
     1
102
RTVSPropertyOp38
 70
     1
102
RTVSPropertyOp39
 70
     1
102
RTVSPropertyOp40
 70
     1
102
RTVSPropertyOp41
 70
     1
102
RTVSPropertyOp42
 70
     1
102
RTVSPropertyOp43
 70
     1
102
RTVSPropertyOp44
 70
     1
102
RTVSPropertyOp45
 70
     1
102
RTVSPropertyOp46
 70
     1
102
RTVSPropertyOp47
 70
     1
102
RTVSPropertyOp48
 70
     1
102
RTVSPropertyOp49
 70
     1
102
RTVSPropertyOp50
 70
     1
102
RTVSPropertyOp51
 70
     0
102
RTVSPropertyOp52
 70
     0
102
RTVSPropertyOp53
 70
     1
102
RTVSPropertyOp54
 70
     1
102
RTVSPropertyOp55
 70
     1
102
RTVSPropertyOp56
 70
     1
102
RTVSPropertyOp57
 70
     1
102
RTVSPropertyOp58
 70
     1
102
RTVSPropertyOp59
 70
     1
102
RTVSPropertyOp60
 70
     1
102
RTVSPropertyOp61
 70
     1
102
RTVSPropertyOp62
 70
     1
  0
XRECORD
  5
44E
102
{ACAD_REACTORS
330
44D
102
}
330
44D
100
AcDbXrecord
280
     1
102
RTVSPost2010Prop28
280
     0
102
RTVSPost2010PropOp28
 70
     0
102
RTVSPost2010Prop29
280
     1
102
RTVSPost2010PropOp29
 70
     0
102
RTVSPost2010Prop30
280
     1
102
RTVSPost2010PropOp30
 70
     0
102
RTVSPost2010Prop31
280
     0
102
RTVSPost2010PropOp31
 70
     0
102
RTVSPost2010Prop32
280
     0
102
RTVSPost2010PropOp32
 70
     0
102
RTVSPost2010Prop33
280
     0
102
RTVSPost2010PropOp33
 70
     0
102
RTVSPost2010Prop34
280
     0
102
RTVSPost2010PropOp34
 70
     0
102
RTVSPost2010Prop35
280
     0
102
RTVSPost2010PropOp35
 70
     0
102
RTVSPost2010Prop36
280
     0
102
RTVSPost2010PropOp36
 70
     0
102
RTVSPost2010Prop37
 90
       50
102
RTVSPost2010PropOp37
 70
     0
102
RTVSPost2010Prop38
140
0.0
102
RTVSPost2010PropOp38
 70
     0
102
RTVSPost2010Prop39
140
1.0
102
RTVSPost2010PropOp39
 70
     0
102
RTVSPost2010Prop40
 90
        0
102
RTVSPost2010PropOp40
 70
     0
102
RTVSPost2010Prop41ColorIndex
 90
       18
102
RTVSPost2010Prop41ColorRGB
 90
        0
102
RTVSPost2010PropOp41
 70
     0
102
RTVSPost2010Prop42
 90
       50
102
RTVSPost2010PropOp42
 70
     0
102
RTVSPost2010Prop43
 90
        3
102
RTVSPost2010PropOp43
 70
     0
102
RTVSPost2010Prop44ColorIndex
 90
        5
102
RTVSPost2010Prop44ColorRGB
 90
      255
102
RTVSPost2010PropOp44
 70
     0
102
RTVSPost2010Prop45
280
     0
102
RTVSPost2010PropOp45
 70
     0
102
RTVSPost2010Prop46
 90
       50
102
RTVSPost2010PropOp46
 70
     0
102
RTVSPost2010Prop47
 90
       50
102
RTVSPost2010PropOp47
 70
     0
102
RTVSPost2010Prop48
 90
       50
102
RTVSPost2010PropOp48
 70
     0
102
RTVSPost2010Prop49
280
     0
102
RTVSPost2010PropOp49
 70
     0
102
RTVSPost2010Prop50
 90
       50
102
RTVSPost2010PropOp50
 70
     0
102
RTVSPost2010Prop51ColorIndex
 90
      256
102
RTVSPost2010Prop51ColorRGB
 90
-16777216
102
RTVSPost2010PropOp51
 70
     0
102
RTVSPost2010Prop52
140
1.0
102
RTVSPost2010PropOp52
 70
     0
102
RTVSPost2010Prop53
 90
        2
102
RTVSPost2010PropOp53
 70
     0
102
RTVSPost2010Prop54
  1
strokes_ogs.tif
102
RTVSPost2010PropOp54
 70
     0
102
RTVSPost2010Prop55
280
     0
102
RTVSPost2010PropOp55
 70
     0
102
RTVSPost2010Prop56
140
1.0
102
RTVSPost2010PropOp56
 70
     0
102
RTVSPost2010Prop57
140
1.0
102
RTVSPost2010PropOp57
 70
     0
102
RTVSPropertyOp0
 70
     0
102
RTVSPropertyOp1
 70
     0
102
RTVSPropertyOp2
 70
     0
102
RTVSPropertyOp3
 70
     0
102
RTVSPropertyOp4
 70
     0
102
RTVSPropertyOp5
 70
     0
102
RTVSPropertyOp6
 70
     0
102
RTVSPropertyOp7
 70
     0
102
RTVSPropertyOp8
 70
     0
102
RTVSPropertyOp9
 70
     0
102
RTVSPropertyOp10
 70
     0
102
RTVSPropertyOp11
 70
     0
102
RTVSPropertyOp12
 70
     0
102
RTVSPropertyOp13
 70
     0
102
RTVSPropertyOp14
 70
     2
102
RTVSPropertyOp15
 70
     0
102
RTVSPropertyOp16
 70
     0
102
RTVSPropertyOp17
 70
     0
102
RTVSPropertyOp18
 70
     0
102
RTVSPropertyOp19
 70
     0
102
RTVSPropertyOp20
 70
     0
102
RTVSPropertyOp21
 70
     0
102
RTVSPropertyOp22
 70
     0
102
RTVSPropertyOp23
 70
     0
102
RTVSPropertyOp24
 70
     0
102
RTVSPropertyOp25
 70
     0
102
RTVSPropertyOp26
 70
     0
102
RTVSPropertyOp27
 70
     0
102
RTVSPropertyOp28
 70
     0
102
RTVSPropertyOp29
 70
     0
102
RTVSPropertyOp30
 70
     0
102
RTVSPropertyOp31
 70
     0
102
RTVSPropertyOp32
 70
     0
102
RTVSPropertyOp33
 70
     0
102
RTVSPropertyOp34
 70
     0
102
RTVSPropertyOp35
 70
     0
102
RTVSPropertyOp36
 70
     0
102
RTVSPropertyOp37
 70
     0
102
RTVSPropertyOp38
 70
     0
102
RTVSPropertyOp39
 70
     0
102
RTVSPropertyOp40
 70
     0
102
RTVSPropertyOp41
 70
     0
102
RTVSPropertyOp42
 70
     0
102
RTVSPropertyOp43
 70
     0
102
RTVSPropertyOp44
 70
     0
102
RTVSPropertyOp45
 70
     0
102
RTVSPropertyOp46
 70
     0
102
RTVSPropertyOp47
 70
     0
102
RTVSPropertyOp48
 70
     0
102
RTVSPropertyOp49
 70
     0
102
RTVSPropertyOp50
 70
     0
102
RTVSPropertyOp51
 70
     0
102
RTVSPropertyOp52
 70
     0
102
RTVSPropertyOp53
 70
     0
102
RTVSPropertyOp54
 70
     0
102
RTVSPropertyOp55
 70
     0
102
RTVSPropertyOp56
 70
     0
102
RTVSPropertyOp57
 70
     0
102
RTVSPropertyOp58
 70
     1
102
RTVSPropertyOp59
 70
     1
102
RTVSPropertyOp60
 70
     1
102
RTVSPropertyOp61
 70
     1
102
RTVSPropertyOp62
 70
     1
  0
XRECORD
  5
446
102
{ACAD_REACTORS
330
445
102
}
330
445
100
AcDbXrecord
280
     1
102
RTVSPost2010Prop28
280
     0
102
RTVSPost2010PropOp28
 70
     1
102
RTVSPost2010Prop29
280
     1
102
RTVSPost2010PropOp29
 70
     1
102
RTVSPost2010Prop30
280
     1
102
RTVSPost2010PropOp30
 70
     1
102
RTVSPost2010Prop31
280
     0
102
RTVSPost2010PropOp31
 70
     1
102
RTVSPost2010Prop32
280
     0
102
RTVSPost2010PropOp32
 70
     1
102
RTVSPost2010Prop33
280
     0
102
RTVSPost2010PropOp33
 70
     1
102
RTVSPost2010Prop34
280
     0
102
RTVSPost2010PropOp34
 70
     1
102
RTVSPost2010Prop35
280
     0
102
RTVSPost2010PropOp35
 70
     1
102
RTVSPost2010Prop36
280
     0
102
RTVSPost2010PropOp36
 70
     1
102
RTVSPost2010Prop37
 90
       50
102
RTVSPost2010PropOp37
 70
     1
102
RTVSPost2010Prop38
140
0.0
102
RTVSPost2010PropOp38
 70
     1
102
RTVSPost2010Prop39
140
1.0
102
RTVSPost2010PropOp39
 70
     1
102
RTVSPost2010Prop40
 90
        0
102
RTVSPost2010PropOp40
 70
     1
102
RTVSPost2010Prop41ColorIndex
 90
       18
102
RTVSPost2010Prop41ColorRGB
 90
        0
102
RTVSPost2010PropOp41
 70
     1
102
RTVSPost2010Prop42
 90
       50
102
RTVSPost2010PropOp42
 70
     1
102
RTVSPost2010Prop43
 90
        3
102
RTVSPost2010PropOp43
 70
     1
102
RTVSPost2010Prop44ColorIndex
 90
        5
102
RTVSPost2010Prop44ColorRGB
 90
      255
102
RTVSPost2010PropOp44
 70
     1
102
RTVSPost2010Prop45
280
     0
102
RTVSPost2010PropOp45
 70
     1
102
RTVSPost2010Prop46
 90
       50
102
RTVSPost2010PropOp46
 70
     1
102
RTVSPost2010Prop47
 90
       50
102
RTVSPost2010PropOp47
 70
     1
102
RTVSPost2010Prop48
 90
       50
102
RTVSPost2010PropOp48
 70
     1
102
RTVSPost2010Prop49
280
     0
102
RTVSPost2010PropOp49
 70
     1
102
RTVSPost2010Prop50
 90
       50
102
RTVSPost2010PropOp50
 70
     1
102
RTVSPost2010Prop51ColorIndex
 90
      256
102
RTVSPost2010Prop51ColorRGB
 90
-16777216
102
RTVSPost2010PropOp51
 70
     0
102
RTVSPost2010Prop52
140
1.0
102
RTVSPost2010PropOp52
 70
     0
102
RTVSPost2010Prop53
 90
        2
102
RTVSPost2010PropOp53
 70
     1
102
RTVSPost2010Prop54
  1
strokes_ogs.tif
102
RTVSPost2010PropOp54
 70
     1
102
RTVSPost2010Prop55
280
     0
102
RTVSPost2010PropOp55
 70
     1
102
RTVSPost2010Prop56
140
1.0
102
RTVSPost2010PropOp56
 70
     1
102
RTVSPost2010Prop57
140
1.0
102
RTVSPost2010PropOp57
 70
     1
102
RTVSPropertyOp0
 70
     1
102
RTVSPropertyOp1
 70
     1
102
RTVSPropertyOp2
 70
     1
102
RTVSPropertyOp3
 70
     1
102
RTVSPropertyOp4
 70
     1
102
RTVSPropertyOp5
 70
     1
102
RTVSPropertyOp6
 70
     1
102
RTVSPropertyOp7
 70
     1
102
RTVSPropertyOp8
 70
     1
102
RTVSPropertyOp9
 70
     1
102
RTVSPropertyOp10
 70
     1
102
RTVSPropertyOp11
 70
     1
102
RTVSPropertyOp12
 70
     1
102
RTVSPropertyOp13
 70
     1
102
RTVSPropertyOp14
 70
     1
102
RTVSPropertyOp15
 70
     1
102
RTVSPropertyOp16
 70
     1
102
RTVSPropertyOp17
 70
     1
102
RTVSPropertyOp18
 70
     1
102
RTVSPropertyOp19
 70
     1
102
RTVSPropertyOp20
 70
     1
102
RTVSPropertyOp21
 70
     1
102
RTVSPropertyOp22
 70
     1
102
RTVSPropertyOp23
 70
     1
102
RTVSPropertyOp24
 70
     1
102
RTVSPropertyOp25
 70
     1
102
RTVSPropertyOp26
 70
     1
102
RTVSPropertyOp27
 70
     1
102
RTVSPropertyOp28
 70
     1
102
RTVSPropertyOp29
 70
     1
102
RTVSPropertyOp30
 70
     1
102
RTVSPropertyOp31
 70
     1
102
RTVSPropertyOp32
 70
     1
102
RTVSPropertyOp33
 70
     1
102
RTVSPropertyOp34
 70
     1
102
RTVSPropertyOp35
 70
     1
102
RTVSPropertyOp36
 70
     1
102
RTVSPropertyOp37
 70
     1
102
RTVSPropertyOp38
 70
     1
102
RTVSPropertyOp39
 70
     1
102
RTVSPropertyOp40
 70
     1
102
RTVSPropertyOp41
 70
     1
102
RTVSPropertyOp42
 70
     1
102
RTVSPropertyOp43
 70
     1
102
RTVSPropertyOp44
 70
     1
102
RTVSPropertyOp45
 70
     1
102
RTVSPropertyOp46
 70
     1
102
RTVSPropertyOp47
 70
     1
102
RTVSPropertyOp48
 70
     1
102
RTVSPropertyOp49
 70
     1
102
RTVSPropertyOp50
 70
     1
102
RTVSPropertyOp51
 70
     0
102
RTVSPropertyOp52
 70
     0
102
RTVSPropertyOp53
 70
     1
102
RTVSPropertyOp54
 70
     1
102
RTVSPropertyOp55
 70
     1
102
RTVSPropertyOp56
 70
     1
102
RTVSPropertyOp57
 70
     1
102
RTVSPropertyOp58
 70
     1
102
RTVSPropertyOp59
 70
     1
102
RTVSPropertyOp60
 70
     1
102
RTVSPropertyOp61
 70
     1
102
RTVSPropertyOp62
 70
     1
  0
XRECORD
  5
42A
102
{ACAD_REACTORS
330
429
102
}
330
429
100
AcDbXrecord
280
     1
102
RTVSPost2010Prop28
280
     0
102
RTVSPost2010PropOp28
 70
     1
102
RTVSPost2010Prop29
280
     1
102
RTVSPost2010PropOp29
 70
     1
102
RTVSPost2010Prop30
280
     1
102
RTVSPost2010PropOp30
 70
     1
102
RTVSPost2010Prop31
280
     0
102
RTVSPost2010PropOp31
 70
     1
102
RTVSPost2010Prop32
280
     0
102
RTVSPost2010PropOp32
 70
     1
102
RTVSPost2010Prop33
280
     0
102
RTVSPost2010PropOp33
 70
     1
102
RTVSPost2010Prop34
280
     0
102
RTVSPost2010PropOp34
 70
     1
102
RTVSPost2010Prop35
280
     0
102
RTVSPost2010PropOp35
 70
     1
102
RTVSPost2010Prop36
280
     0
102
RTVSPost2010PropOp36
 70
     1
102
RTVSPost2010Prop37
 90
       50
102
RTVSPost2010PropOp37
 70
     1
102
RTVSPost2010Prop38
140
0.0
102
RTVSPost2010PropOp38
 70
     1
102
RTVSPost2010Prop39
140
1.0
102
RTVSPost2010PropOp39
 70
     1
102
RTVSPost2010Prop40
 90
        0
102
RTVSPost2010PropOp40
 70
     1
102
RTVSPost2010Prop41ColorIndex
 90
       18
102
RTVSPost2010Prop41ColorRGB
 90
        0
102
RTVSPost2010PropOp41
 70
     1
102
RTVSPost2010Prop42
 90
       50
102
RTVSPost2010PropOp42
 70
     1
102
RTVSPost2010Prop43
 90
        3
102
RTVSPost2010PropOp43
 70
     1
102
RTVSPost2010Prop44ColorIndex
 90
        5
102
RTVSPost2010Prop44ColorRGB
 90
      255
102
RTVSPost2010PropOp44
 70
     1
102
RTVSPost2010Prop45
280
     0
102
RTVSPost2010PropOp45
 70
     1
102
RTVSPost2010Prop46
 90
       50
102
RTVSPost2010PropOp46
 70
     1
102
RTVSPost2010Prop47
 90
       50
102
RTVSPost2010PropOp47
 70
     1
102
RTVSPost2010Prop48
 90
       50
102
RTVSPost2010PropOp48
 70
     1
102
RTVSPost2010Prop49
280
     0
102
RTVSPost2010PropOp49
 70
     1
102
RTVSPost2010Prop50
 90
       50
102
RTVSPost2010PropOp50
 70
     1
102
RTVSPost2010Prop51ColorIndex
 90
      256
102
RTVSPost2010Prop51ColorRGB
 90
-16777216
102
RTVSPost2010PropOp51
 70
     0
102
RTVSPost2010Prop52
140
1.0
102
RTVSPost2010PropOp52
 70
     0
102
RTVSPost2010Prop53
 90
        2
102
RTVSPost2010PropOp53
 70
     1
102
RTVSPost2010Prop54
  1
strokes_ogs.tif
102
RTVSPost2010PropOp54
 70
     1
102
RTVSPost2010Prop55
280
     0
102
RTVSPost2010PropOp55
 70
     1
102
RTVSPost2010Prop56
140
1.0
102
RTVSPost2010PropOp56
 70
     1
102
RTVSPost2010Prop57
140
1.0
102
RTVSPost2010PropOp57
 70
     1
102
RTVSPropertyOp0
 70
     1
102
RTVSPropertyOp1
 70
     1
102
RTVSPropertyOp2
 70
     1
102
RTVSPropertyOp3
 70
     1
102
RTVSPropertyOp4
 70
     1
102
RTVSPropertyOp5
 70
     1
102
RTVSPropertyOp6
 70
     1
102
RTVSPropertyOp7
 70
     1
102
RTVSPropertyOp8
 70
     1
102
RTVSPropertyOp9
 70
     1
102
RTVSPropertyOp10
 70
     1
102
RTVSPropertyOp11
 70
     1
102
RTVSPropertyOp12
 70
     1
102
RTVSPropertyOp13
 70
     1
102
RTVSPropertyOp14
 70
     1
102
RTVSPropertyOp15
 70
     1
102
RTVSPropertyOp16
 70
     1
102
RTVSPropertyOp17
 70
     1
102
RTVSPropertyOp18
 70
     1
102
RTVSPropertyOp19
 70
     1
102
RTVSPropertyOp20
 70
     1
102
RTVSPropertyOp21
 70
     1
102
RTVSPropertyOp22
 70
     1
102
RTVSPropertyOp23
 70
     1
102
RTVSPropertyOp24
 70
     1
102
RTVSPropertyOp25
 70
     1
102
RTVSPropertyOp26
 70
     1
102
RTVSPropertyOp27
 70
     1
102
RTVSPropertyOp28
 70
     1
102
RTVSPropertyOp29
 70
     1
102
RTVSPropertyOp30
 70
     1
102
RTVSPropertyOp31
 70
     1
102
RTVSPropertyOp32
 70
     1
102
RTVSPropertyOp33
 70
     1
102
RTVSPropertyOp34
 70
     1
102
RTVSPropertyOp35
 70
     1
102
RTVSPropertyOp36
 70
     1
102
RTVSPropertyOp37
 70
     1
102
RTVSPropertyOp38
 70
     1
102
RTVSPropertyOp39
 70
     1
102
RTVSPropertyOp40
 70
     1
102
RTVSPropertyOp41
 70
     1
102
RTVSPropertyOp42
 70
     1
102
RTVSPropertyOp43
 70
     1
102
RTVSPropertyOp44
 70
     1
102
RTVSPropertyOp45
 70
     1
102
RTVSPropertyOp46
 70
     1
102
RTVSPropertyOp47
 70
     1
102
RTVSPropertyOp48
 70
     1
102
RTVSPropertyOp49
 70
     1
102
RTVSPropertyOp50
 70
     1
102
RTVSPropertyOp51
 70
     0
102
RTVSPropertyOp52
 70
     0
102
RTVSPropertyOp53
 70
     1
102
RTVSPropertyOp54
 70
     1
102
RTVSPropertyOp55
 70
     1
102
RTVSPropertyOp56
 70
     1
102
RTVSPropertyOp57
 70
     1
102
RTVSPropertyOp58
 70
     1
102
RTVSPropertyOp59
 70
     1
102
RTVSPropertyOp60
 70
     1
102
RTVSPropertyOp61
 70
     1
102
RTVSPropertyOp62
 70
     1
  0
XRECORD
  5
42C
102
{ACAD_REACTORS
330
42B
102
}
330
42B
100
AcDbXrecord
280
     1
102
RTVSPost2010Prop28
280
     0
102
RTVSPost2010PropOp28
 70
     1
102
RTVSPost2010Prop29
280
     1
102
RTVSPost2010PropOp29
 70
     1
102
RTVSPost2010Prop30
280
     1
102
RTVSPost2010PropOp30
 70
     1
102
RTVSPost2010Prop31
280
     0
102
RTVSPost2010PropOp31
 70
     1
102
RTVSPost2010Prop32
280
     0
102
RTVSPost2010PropOp32
 70
     1
102
RTVSPost2010Prop33
280
     0
102
RTVSPost2010PropOp33
 70
     1
102
RTVSPost2010Prop34
280
     0
102
RTVSPost2010PropOp34
 70
     1
102
RTVSPost2010Prop35
280
     0
102
RTVSPost2010PropOp35
 70
     1
102
RTVSPost2010Prop36
280
     0
102
RTVSPost2010PropOp36
 70
     1
102
RTVSPost2010Prop37
 90
       50
102
RTVSPost2010PropOp37
 70
     1
102
RTVSPost2010Prop38
140
0.0
102
RTVSPost2010PropOp38
 70
     1
102
RTVSPost2010Prop39
140
1.0
102
RTVSPost2010PropOp39
 70
     1
102
RTVSPost2010Prop40
 90
        0
102
RTVSPost2010PropOp40
 70
     1
102
RTVSPost2010Prop41ColorIndex
 90
       18
102
RTVSPost2010Prop41ColorRGB
 90
        0
102
RTVSPost2010PropOp41
 70
     1
102
RTVSPost2010Prop42
 90
       50
102
RTVSPost2010PropOp42
 70
     1
102
RTVSPost2010Prop43
 90
        3
102
RTVSPost2010PropOp43
 70
     1
102
RTVSPost2010Prop44ColorIndex
 90
        5
102
RTVSPost2010Prop44ColorRGB
 90
      255
102
RTVSPost2010PropOp44
 70
     1
102
RTVSPost2010Prop45
280
     0
102
RTVSPost2010PropOp45
 70
     1
102
RTVSPost2010Prop46
 90
       50
102
RTVSPost2010PropOp46
 70
     1
102
RTVSPost2010Prop47
 90
       50
102
RTVSPost2010PropOp47
 70
     1
102
RTVSPost2010Prop48
 90
       50
102
RTVSPost2010PropOp48
 70
     1
102
RTVSPost2010Prop49
280
     0
102
RTVSPost2010PropOp49
 70
     1
102
RTVSPost2010Prop50
 90
       50
102
RTVSPost2010PropOp50
 70
     1
102
RTVSPost2010Prop51ColorIndex
 90
      256
102
RTVSPost2010Prop51ColorRGB
 90
-16777216
102
RTVSPost2010PropOp51
 70
     0
102
RTVSPost2010Prop52
140
1.0
102
RTVSPost2010PropOp52
 70
     0
102
RTVSPost2010Prop53
 90
        2
102
RTVSPost2010PropOp53
 70
     1
102
RTVSPost2010Prop54
  1
strokes_ogs.tif
102
RTVSPost2010PropOp54
 70
     1
102
RTVSPost2010Prop55
280
     0
102
RTVSPost2010PropOp55
 70
     1
102
RTVSPost2010Prop56
140
1.0
102
RTVSPost2010PropOp56
 70
     1
102
RTVSPost2010Prop57
140
1.0
102
RTVSPost2010PropOp57
 70
     1
102
RTVSPropertyOp0
 70
     1
102
RTVSPropertyOp1
 70
     1
102
RTVSPropertyOp2
 70
     1
102
RTVSPropertyOp3
 70
     1
102
RTVSPropertyOp4
 70
     1
102
RTVSPropertyOp5
 70
     1
102
RTVSPropertyOp6
 70
     1
102
RTVSPropertyOp7
 70
     1
102
RTVSPropertyOp8
 70
     1
102
RTVSPropertyOp9
 70
     1
102
RTVSPropertyOp10
 70
     1
102
RTVSPropertyOp11
 70
     1
102
RTVSPropertyOp12
 70
     1
102
RTVSPropertyOp13
 70
     1
102
RTVSPropertyOp14
 70
     1
102
RTVSPropertyOp15
 70
     1
102
RTVSPropertyOp16
 70
     1
102
RTVSPropertyOp17
 70
     1
102
RTVSPropertyOp18
 70
     1
102
RTVSPropertyOp19
 70
     1
102
RTVSPropertyOp20
 70
     1
102
RTVSPropertyOp21
 70
     1
102
RTVSPropertyOp22
 70
     1
102
RTVSPropertyOp23
 70
     1
102
RTVSPropertyOp24
 70
     1
102
RTVSPropertyOp25
 70
     1
102
RTVSPropertyOp26
 70
     1
102
RTVSPropertyOp27
 70
     1
102
RTVSPropertyOp28
 70
     1
102
RTVSPropertyOp29
 70
     1
102
RTVSPropertyOp30
 70
     1
102
RTVSPropertyOp31
 70
     1
102
RTVSPropertyOp32
 70
     1
102
RTVSPropertyOp33
 70
     1
102
RTVSPropertyOp34
 70
     1
102
RTVSPropertyOp35
 70
     1
102
RTVSPropertyOp36
 70
     1
102
RTVSPropertyOp37
 70
     1
102
RTVSPropertyOp38
 70
     1
102
RTVSPropertyOp39
 70
     1
102
RTVSPropertyOp40
 70
     1
102
RTVSPropertyOp41
 70
     1
102
RTVSPropertyOp42
 70
     1
102
RTVSPropertyOp43
 70
     1
102
RTVSPropertyOp44
 70
     1
102
RTVSPropertyOp45
 70
     1
102
RTVSPropertyOp46
 70
     1
102
RTVSPropertyOp47
 70
     1
102
RTVSPropertyOp48
 70
     1
102
RTVSPropertyOp49
 70
     1
102
RTVSPropertyOp50
 70
     1
102
RTVSPropertyOp51
 70
     0
102
RTVSPropertyOp52
 70
     0
102
RTVSPropertyOp53
 70
     1
102
RTVSPropertyOp54
 70
     1
102
RTVSPropertyOp55
 70
     1
102
RTVSPropertyOp56
 70
     1
102
RTVSPropertyOp57
 70
     1
102
RTVSPropertyOp58
 70
     1
102
RTVSPropertyOp59
 70
     1
102
RTVSPropertyOp60
 70
     1
102
RTVSPropertyOp61
 70
     1
102
RTVSPropertyOp62
 70
     1
  0
XRECORD
  5
42E
102
{ACAD_REACTORS
330
42D
102
}
330
42D
100
AcDbXrecord
280
     1
102
RTVSPost2010Prop28
280
     0
102
RTVSPost2010PropOp28
 70
     1
102
RTVSPost2010Prop29
280
     1
102
RTVSPost2010PropOp29
 70
     1
102
RTVSPost2010Prop30
280
     1
102
RTVSPost2010PropOp30
 70
     1
102
RTVSPost2010Prop31
280
     0
102
RTVSPost2010PropOp31
 70
     1
102
RTVSPost2010Prop32
280
     0
102
RTVSPost2010PropOp32
 70
     1
102
RTVSPost2010Prop33
280
     0
102
RTVSPost2010PropOp33
 70
     1
102
RTVSPost2010Prop34
280
     0
102
RTVSPost2010PropOp34
 70
     1
102
RTVSPost2010Prop35
280
     0
102
RTVSPost2010PropOp35
 70
     1
102
RTVSPost2010Prop36
280
     0
102
RTVSPost2010PropOp36
 70
     1
102
RTVSPost2010Prop37
 90
       50
102
RTVSPost2010PropOp37
 70
     1
102
RTVSPost2010Prop38
140
0.0
102
RTVSPost2010PropOp38
 70
     1
102
RTVSPost2010Prop39
140
1.0
102
RTVSPost2010PropOp39
 70
     1
102
RTVSPost2010Prop40
 90
        0
102
RTVSPost2010PropOp40
 70
     1
102
RTVSPost2010Prop41ColorIndex
 90
       18
102
RTVSPost2010Prop41ColorRGB
 90
        0
102
RTVSPost2010PropOp41
 70
     1
102
RTVSPost2010Prop42
 90
       50
102
RTVSPost2010PropOp42
 70
     1
102
RTVSPost2010Prop43
 90
        3
102
RTVSPost2010PropOp43
 70
     1
102
RTVSPost2010Prop44ColorIndex
 90
        5
102
RTVSPost2010Prop44ColorRGB
 90
      255
102
RTVSPost2010PropOp44
 70
     1
102
RTVSPost2010Prop45
280
     0
102
RTVSPost2010PropOp45
 70
     1
102
RTVSPost2010Prop46
 90
       50
102
RTVSPost2010PropOp46
 70
     1
102
RTVSPost2010Prop47
 90
       50
102
RTVSPost2010PropOp47
 70
     1
102
RTVSPost2010Prop48
 90
       50
102
RTVSPost2010PropOp48
 70
     1
102
RTVSPost2010Prop49
280
     0
102
RTVSPost2010PropOp49
 70
     1
102
RTVSPost2010Prop50
 90
       50
102
RTVSPost2010PropOp50
 70
     1
102
RTVSPost2010Prop51ColorIndex
 90
      256
102
RTVSPost2010Prop51ColorRGB
 90
-16777216
102
RTVSPost2010PropOp51
 70
     0
102
RTVSPost2010Prop52
140
1.0
102
RTVSPost2010PropOp52
 70
     0
102
RTVSPost2010Prop53
 90
        2
102
RTVSPost2010PropOp53
 70
     1
102
RTVSPost2010Prop54
  1
strokes_ogs.tif
102
RTVSPost2010PropOp54
 70
     1
102
RTVSPost2010Prop55
280
     0
102
RTVSPost2010PropOp55
 70
     1
102
RTVSPost2010Prop56
140
1.0
102
RTVSPost2010PropOp56
 70
     1
102
RTVSPost2010Prop57
140
1.0
102
RTVSPost2010PropOp57
 70
     1
102
RTVSPropertyOp0
 70
     1
102
RTVSPropertyOp1
 70
     1
102
RTVSPropertyOp2
 70
     1
102
RTVSPropertyOp3
 70
     1
102
RTVSPropertyOp4
 70
     1
102
RTVSPropertyOp5
 70
     1
102
RTVSPropertyOp6
 70
     1
102
RTVSPropertyOp7
 70
     1
102
RTVSPropertyOp8
 70
     1
102
RTVSPropertyOp9
 70
     1
102
RTVSPropertyOp10
 70
     1
102
RTVSPropertyOp11
 70
     1
102
RTVSPropertyOp12
 70
     1
102
RTVSPropertyOp13
 70
     1
102
RTVSPropertyOp14
 70
     1
102
RTVSPropertyOp15
 70
     1
102
RTVSPropertyOp16
 70
     1
102
RTVSPropertyOp17
 70
     1
102
RTVSPropertyOp18
 70
     1
102
RTVSPropertyOp19
 70
     1
102
RTVSPropertyOp20
 70
     1
102
RTVSPropertyOp21
 70
     1
102
RTVSPropertyOp22
 70
     1
102
RTVSPropertyOp23
 70
     1
102
RTVSPropertyOp24
 70
     1
102
RTVSPropertyOp25
 70
     1
102
RTVSPropertyOp26
 70
     1
102
RTVSPropertyOp27
 70
     1
102
RTVSPropertyOp28
 70
     1
102
RTVSPropertyOp29
 70
     1
102
RTVSPropertyOp30
 70
     1
102
RTVSPropertyOp31
 70
     1
102
RTVSPropertyOp32
 70
     1
102
RTVSPropertyOp33
 70
     1
102
RTVSPropertyOp34
 70
     1
102
RTVSPropertyOp35
 70
     1
102
RTVSPropertyOp36
 70
     1
102
RTVSPropertyOp37
 70
     1
102
RTVSPropertyOp38
 70
     1
102
RTVSPropertyOp39
 70
     1
102
RTVSPropertyOp40
 70
     1
102
RTVSPropertyOp41
 70
     1
102
RTVSPropertyOp42
 70
     1
102
RTVSPropertyOp43
 70
     1
102
RTVSPropertyOp44
 70
     1
102
RTVSPropertyOp45
 70
     1
102
RTVSPropertyOp46
 70
     1
102
RTVSPropertyOp47
 70
     1
102
RTVSPropertyOp48
 70
     1
102
RTVSPropertyOp49
 70
     1
102
RTVSPropertyOp50
 70
     1
102
RTVSPropertyOp51
 70
     0
102
RTVSPropertyOp52
 70
     0
102
RTVSPropertyOp53
 70
     1
102
RTVSPropertyOp54
 70
     1
102
RTVSPropertyOp55
 70
     1
102
RTVSPropertyOp56
 70
     1
102
RTVSPropertyOp57
 70
     1
102
RTVSPropertyOp58
 70
     1
102
RTVSPropertyOp59
 70
     1
102
RTVSPropertyOp60
 70
     1
102
RTVSPropertyOp61
 70
     1
102
RTVSPropertyOp62
 70
     1
  0
XRECORD
  5
430
102
{ACAD_REACTORS
330
42F
102
}
330
42F
100
AcDbXrecord
280
     1
102
RTVSPost2010Prop28
280
     0
102
RTVSPost2010PropOp28
 70
     1
102
RTVSPost2010Prop29
280
     1
102
RTVSPost2010PropOp29
 70
     1
102
RTVSPost2010Prop30
280
     1
102
RTVSPost2010PropOp30
 70
     1
102
RTVSPost2010Prop31
280
     0
102
RTVSPost2010PropOp31
 70
     1
102
RTVSPost2010Prop32
280
     0
102
RTVSPost2010PropOp32
 70
     1
102
RTVSPost2010Prop33
280
     0
102
RTVSPost2010PropOp33
 70
     1
102
RTVSPost2010Prop34
280
     0
102
RTVSPost2010PropOp34
 70
     1
102
RTVSPost2010Prop35
280
     0
102
RTVSPost2010PropOp35
 70
     1
102
RTVSPost2010Prop36
280
     0
102
RTVSPost2010PropOp36
 70
     1
102
RTVSPost2010Prop37
 90
       50
102
RTVSPost2010PropOp37
 70
     1
102
RTVSPost2010Prop38
140
0.0
102
RTVSPost2010PropOp38
 70
     1
102
RTVSPost2010Prop39
140
1.0
102
RTVSPost2010PropOp39
 70
     1
102
RTVSPost2010Prop40
 90
        0
102
RTVSPost2010PropOp40
 70
     1
102
RTVSPost2010Prop41ColorIndex
 90
       18
102
RTVSPost2010Prop41ColorRGB
 90
        0
102
RTVSPost2010PropOp41
 70
     1
102
RTVSPost2010Prop42
 90
       50
102
RTVSPost2010PropOp42
 70
     1
102
RTVSPost2010Prop43
 90
        3
102
RTVSPost2010PropOp43
 70
     1
102
RTVSPost2010Prop44ColorIndex
 90
        5
102
RTVSPost2010Prop44ColorRGB
 90
      255
102
RTVSPost2010PropOp44
 70
     1
102
RTVSPost2010Prop45
280
     0
102
RTVSPost2010PropOp45
 70
     1
102
RTVSPost2010Prop46
 90
       50
102
RTVSPost2010PropOp46
 70
     1
102
RTVSPost2010Prop47
 90
       50
102
RTVSPost2010PropOp47
 70
     1
102
RTVSPost2010Prop48
 90
       50
102
RTVSPost2010PropOp48
 70
     1
102
RTVSPost2010Prop49
280
     0
102
RTVSPost2010PropOp49
 70
     1
102
RTVSPost2010Prop50
 90
       50
102
RTVSPost2010PropOp50
 70
     1
102
RTVSPost2010Prop51ColorIndex
 90
      256
102
RTVSPost2010Prop51ColorRGB
 90
-16777216
102
RTVSPost2010PropOp51
 70
     0
102
RTVSPost2010Prop52
140
1.0
102
RTVSPost2010PropOp52
 70
     0
102
RTVSPost2010Prop53
 90
        2
102
RTVSPost2010PropOp53
 70
     1
102
RTVSPost2010Prop54
  1
strokes_ogs.tif
102
RTVSPost2010PropOp54
 70
     1
102
RTVSPost2010Prop55
280
     0
102
RTVSPost2010PropOp55
 70
     1
102
RTVSPost2010Prop56
140
1.0
102
RTVSPost2010PropOp56
 70
     1
102
RTVSPost2010Prop57
140
1.0
102
RTVSPost2010PropOp57
 70
     1
102
RTVSPropertyOp0
 70
     1
102
RTVSPropertyOp1
 70
     1
102
RTVSPropertyOp2
 70
     1
102
RTVSPropertyOp3
 70
     1
102
RTVSPropertyOp4
 70
     1
102
RTVSPropertyOp5
 70
     1
102
RTVSPropertyOp6
 70
     1
102
RTVSPropertyOp7
 70
     1
102
RTVSPropertyOp8
 70
     1
102
RTVSPropertyOp9
 70
     1
102
RTVSPropertyOp10
 70
     1
102
RTVSPropertyOp11
 70
     1
102
RTVSPropertyOp12
 70
     1
102
RTVSPropertyOp13
 70
     1
102
RTVSPropertyOp14
 70
     1
102
RTVSPropertyOp15
 70
     1
102
RTVSPropertyOp16
 70
     1
102
RTVSPropertyOp17
 70
     1
102
RTVSPropertyOp18
 70
     1
102
RTVSPropertyOp19
 70
     1
102
RTVSPropertyOp20
 70
     1
102
RTVSPropertyOp21
 70
     1
102
RTVSPropertyOp22
 70
     1
102
RTVSPropertyOp23
 70
     1
102
RTVSPropertyOp24
 70
     1
102
RTVSPropertyOp25
 70
     1
102
RTVSPropertyOp26
 70
     1
102
RTVSPropertyOp27
 70
     1
102
RTVSPropertyOp28
 70
     1
102
RTVSPropertyOp29
 70
     1
102
RTVSPropertyOp30
 70
     1
102
RTVSPropertyOp31
 70
     1
102
RTVSPropertyOp32
 70
     1
102
RTVSPropertyOp33
 70
     1
102
RTVSPropertyOp34
 70
     1
102
RTVSPropertyOp35
 70
     1
102
RTVSPropertyOp36
 70
     1
102
RTVSPropertyOp37
 70
     1
102
RTVSPropertyOp38
 70
     1
102
RTVSPropertyOp39
 70
     1
102
RTVSPropertyOp40
 70
     1
102
RTVSPropertyOp41
 70
     1
102
RTVSPropertyOp42
 70
     1
102
RTVSPropertyOp43
 70
     1
102
RTVSPropertyOp44
 70
     1
102
RTVSPropertyOp45
 70
     1
102
RTVSPropertyOp46
 70
     1
102
RTVSPropertyOp47
 70
     1
102
RTVSPropertyOp48
 70
     1
102
RTVSPropertyOp49
 70
     1
102
RTVSPropertyOp50
 70
     1
102
RTVSPropertyOp51
 70
     0
102
RTVSPropertyOp52
 70
     0
102
RTVSPropertyOp53
 70
     1
102
RTVSPropertyOp54
 70
     1
102
RTVSPropertyOp55
 70
     1
102
RTVSPropertyOp56
 70
     1
102
RTVSPropertyOp57
 70
     1
102
RTVSPropertyOp58
 70
     1
102
RTVSPropertyOp59
 70
     1
102
RTVSPropertyOp60
 70
     1
102
RTVSPropertyOp61
 70
     1
102
RTVSPropertyOp62
 70
     1
  0
XRECORD
  5
436
102
{ACAD_REACTORS
330
435
102
}
330
435
100
AcDbXrecord
280
     1
102
RTVSPost2010Prop28
280
     0
102
RTVSPost2010PropOp28
 70
     1
102
RTVSPost2010Prop29
280
     1
102
RTVSPost2010PropOp29
 70
     1
102
RTVSPost2010Prop30
280
     1
102
RTVSPost2010PropOp30
 70
     1
102
RTVSPost2010Prop31
280
     0
102
RTVSPost2010PropOp31
 70
     1
102
RTVSPost2010Prop32
280
     0
102
RTVSPost2010PropOp32
 70
     1
102
RTVSPost2010Prop33
280
     0
102
RTVSPost2010PropOp33
 70
     1
102
RTVSPost2010Prop34
280
     0
102
RTVSPost2010PropOp34
 70
     1
102
RTVSPost2010Prop35
280
     0
102
RTVSPost2010PropOp35
 70
     1
102
RTVSPost2010Prop36
280
     0
102
RTVSPost2010PropOp36
 70
     1
102
RTVSPost2010Prop37
 90
       50
102
RTVSPost2010PropOp37
 70
     1
102
RTVSPost2010Prop38
140
0.0
102
RTVSPost2010PropOp38
 70
     1
102
RTVSPost2010Prop39
140
1.0
102
RTVSPost2010PropOp39
 70
     1
102
RTVSPost2010Prop40
 90
        0
102
RTVSPost2010PropOp40
 70
     1
102
RTVSPost2010Prop41ColorIndex
 90
       18
102
RTVSPost2010Prop41ColorRGB
 90
        0
102
RTVSPost2010PropOp41
 70
     1
102
RTVSPost2010Prop42
 90
       50
102
RTVSPost2010PropOp42
 70
     1
102
RTVSPost2010Prop43
 90
        3
102
RTVSPost2010PropOp43
 70
     1
102
RTVSPost2010Prop44ColorIndex
 90
        5
102
RTVSPost2010Prop44ColorRGB
 90
      255
102
RTVSPost2010PropOp44
 70
     1
102
RTVSPost2010Prop45
280
     0
102
RTVSPost2010PropOp45
 70
     1
102
RTVSPost2010Prop46
 90
       50
102
RTVSPost2010PropOp46
 70
     1
102
RTVSPost2010Prop47
 90
       50
102
RTVSPost2010PropOp47
 70
     1
102
RTVSPost2010Prop48
 90
       50
102
RTVSPost2010PropOp48
 70
     1
102
RTVSPost2010Prop49
280
     0
102
RTVSPost2010PropOp49
 70
     1
102
RTVSPost2010Prop50
 90
       50
102
RTVSPost2010PropOp50
 70
     1
102
RTVSPost2010Prop51ColorIndex
 90
      256
102
RTVSPost2010Prop51ColorRGB
 90
-16777216
102
RTVSPost2010PropOp51
 70
     0
102
RTVSPost2010Prop52
140
1.0
102
RTVSPost2010PropOp52
 70
     0
102
RTVSPost2010Prop53
 90
        2
102
RTVSPost2010PropOp53
 70
     1
102
RTVSPost2010Prop54
  1
strokes_ogs.tif
102
RTVSPost2010PropOp54
 70
     1
102
RTVSPost2010Prop55
280
     0
102
RTVSPost2010PropOp55
 70
     1
102
RTVSPost2010Prop56
140
1.0
102
RTVSPost2010PropOp56
 70
     1
102
RTVSPost2010Prop57
140
1.0
102
RTVSPost2010PropOp57
 70
     1
102
RTVSPropertyOp0
 70
     1
102
RTVSPropertyOp1
 70
     1
102
RTVSPropertyOp2
 70
     1
102
RTVSPropertyOp3
 70
     1
102
RTVSPropertyOp4
 70
     1
102
RTVSPropertyOp5
 70
     1
102
RTVSPropertyOp6
 70
     1
102
RTVSPropertyOp7
 70
     1
102
RTVSPropertyOp8
 70
     1
102
RTVSPropertyOp9
 70
     1
102
RTVSPropertyOp10
 70
     1
102
RTVSPropertyOp11
 70
     1
102
RTVSPropertyOp12
 70
     1
102
RTVSPropertyOp13
 70
     1
102
RTVSPropertyOp14
 70
     1
102
RTVSPropertyOp15
 70
     1
102
RTVSPropertyOp16
 70
     1
102
RTVSPropertyOp17
 70
     1
102
RTVSPropertyOp18
 70
     1
102
RTVSPropertyOp19
 70
     1
102
RTVSPropertyOp20
 70
     1
102
RTVSPropertyOp21
 70
     1
102
RTVSPropertyOp22
 70
     1
102
RTVSPropertyOp23
 70
     1
102
RTVSPropertyOp24
 70
     1
102
RTVSPropertyOp25
 70
     1
102
RTVSPropertyOp26
 70
     1
102
RTVSPropertyOp27
 70
     1
102
RTVSPropertyOp28
 70
     1
102
RTVSPropertyOp29
 70
     1
102
RTVSPropertyOp30
 70
     1
102
RTVSPropertyOp31
 70
     1
102
RTVSPropertyOp32
 70
     1
102
RTVSPropertyOp33
 70
     1
102
RTVSPropertyOp34
 70
     1
102
RTVSPropertyOp35
 70
     1
102
RTVSPropertyOp36
 70
     1
102
RTVSPropertyOp37
 70
     1
102
RTVSPropertyOp38
 70
     1
102
RTVSPropertyOp39
 70
     1
102
RTVSPropertyOp40
 70
     1
102
RTVSPropertyOp41
 70
     1
102
RTVSPropertyOp42
 70
     1
102
RTVSPropertyOp43
 70
     1
102
RTVSPropertyOp44
 70
     1
102
RTVSPropertyOp45
 70
     1
102
RTVSPropertyOp46
 70
     1
102
RTVSPropertyOp47
 70
     1
102
RTVSPropertyOp48
 70
     1
102
RTVSPropertyOp49
 70
     1
102
RTVSPropertyOp50
 70
     1
102
RTVSPropertyOp51
 70
     0
102
RTVSPropertyOp52
 70
     0
102
RTVSPropertyOp53
 70
     1
102
RTVSPropertyOp54
 70
     1
102
RTVSPropertyOp55
 70
     1
102
RTVSPropertyOp56
 70
     1
102
RTVSPropertyOp57
 70
     1
102
RTVSPropertyOp58
 70
     1
102
RTVSPropertyOp59
 70
     1
102
RTVSPropertyOp60
 70
     1
102
RTVSPropertyOp61
 70
     1
102
RTVSPropertyOp62
 70
     1
  0
XRECORD
  5
44A
102
{ACAD_REACTORS
330
449
102
}
330
449
100
AcDbXrecord
280
     1
102
RTVSPost2010Prop28
280
     0
102
RTVSPost2010PropOp28
 70
     0
102
RTVSPost2010Prop29
280
     1
102
RTVSPost2010PropOp29
 70
     0
102
RTVSPost2010Prop30
280
     1
102
RTVSPost2010PropOp30
 70
     0
102
RTVSPost2010Prop31
280
     0
102
RTVSPost2010PropOp31
 70
     0
102
RTVSPost2010Prop32
280
     0
102
RTVSPost2010PropOp32
 70
     0
102
RTVSPost2010Prop33
280
     0
102
RTVSPost2010PropOp33
 70
     0
102
RTVSPost2010Prop34
280
     0
102
RTVSPost2010PropOp34
 70
     0
102
RTVSPost2010Prop35
280
     0
102
RTVSPost2010PropOp35
 70
     0
102
RTVSPost2010Prop36
280
     0
102
RTVSPost2010PropOp36
 70
     0
102
RTVSPost2010Prop37
 90
       50
102
RTVSPost2010PropOp37
 70
     0
102
RTVSPost2010Prop38
140
0.0
102
RTVSPost2010PropOp38
 70
     0
102
RTVSPost2010Prop39
140
1.0
102
RTVSPost2010PropOp39
 70
     0
102
RTVSPost2010Prop40
 90
        0
102
RTVSPost2010PropOp40
 70
     0
102
RTVSPost2010Prop41ColorIndex
 90
       18
102
RTVSPost2010Prop41ColorRGB
 90
        0
102
RTVSPost2010PropOp41
 70
     0
102
RTVSPost2010Prop42
 90
       50
102
RTVSPost2010PropOp42
 70
     0
102
RTVSPost2010Prop43
 90
        3
102
RTVSPost2010PropOp43
 70
     0
102
RTVSPost2010Prop44ColorIndex
 90
        5
102
RTVSPost2010Prop44ColorRGB
 90
      255
102
RTVSPost2010PropOp44
 70
     0
102
RTVSPost2010Prop45
280
     0
102
RTVSPost2010PropOp45
 70
     0
102
RTVSPost2010Prop46
 90
       50
102
RTVSPost2010PropOp46
 70
     0
102
RTVSPost2010Prop47
 90
       50
102
RTVSPost2010PropOp47
 70
     0
102
RTVSPost2010Prop48
 90
       50
102
RTVSPost2010PropOp48
 70
     0
102
RTVSPost2010Prop49
280
     0
102
RTVSPost2010PropOp49
 70
     0
102
RTVSPost2010Prop50
 90
       50
102
RTVSPost2010PropOp50
 70
     0
102
RTVSPost2010Prop51ColorIndex
 90
      256
102
RTVSPost2010Prop51ColorRGB
 90
-16777216
102
RTVSPost2010PropOp51
 70
     0
102
RTVSPost2010Prop52
140
1.0
102
RTVSPost2010PropOp52
 70
     0
102
RTVSPost2010Prop53
 90
        2
102
RTVSPost2010PropOp53
 70
     0
102
RTVSPost2010Prop54
  1
strokes_ogs.tif
102
RTVSPost2010PropOp54
 70
     0
102
RTVSPost2010Prop55
280
     0
102
RTVSPost2010PropOp55
 70
     0
102
RTVSPost2010Prop56
140
1.0
102
RTVSPost2010PropOp56
 70
     0
102
RTVSPost2010Prop57
140
1.0
102
RTVSPost2010PropOp57
 70
     0
102
RTVSPropertyOp0
 70
     0
102
RTVSPropertyOp1
 70
     0
102
RTVSPropertyOp2
 70
     0
102
RTVSPropertyOp3
 70
     0
102
RTVSPropertyOp4
 70
     0
102
RTVSPropertyOp5
 70
     0
102
RTVSPropertyOp6
 70
     0
102
RTVSPropertyOp7
 70
     0
102
RTVSPropertyOp8
 70
     0
102
RTVSPropertyOp9
 70
     0
102
RTVSPropertyOp10
 70
     0
102
RTVSPropertyOp11
 70
     0
102
RTVSPropertyOp12
 70
     0
102
RTVSPropertyOp13
 70
     0
102
RTVSPropertyOp14
 70
     2
102
RTVSPropertyOp15
 70
     0
102
RTVSPropertyOp16
 70
     0
102
RTVSPropertyOp17
 70
     0
102
RTVSPropertyOp18
 70
     0
102
RTVSPropertyOp19
 70
     0
102
RTVSPropertyOp20
 70
     0
102
RTVSPropertyOp21
 70
     0
102
RTVSPropertyOp22
 70
     0
102
RTVSPropertyOp23
 70
     0
102
RTVSPropertyOp24
 70
     0
102
RTVSPropertyOp25
 70
     0
102
RTVSPropertyOp26
 70
     0
102
RTVSPropertyOp27
 70
     0
102
RTVSPropertyOp28
 70
     0
102
RTVSPropertyOp29
 70
     0
102
RTVSPropertyOp30
 70
     0
102
RTVSPropertyOp31
 70
     0
102
RTVSPropertyOp32
 70
     0
102
RTVSPropertyOp33
 70
     0
102
RTVSPropertyOp34
 70
     0
102
RTVSPropertyOp35
 70
     0
102
RTVSPropertyOp36
 70
     0
102
RTVSPropertyOp37
 70
     0
102
RTVSPropertyOp38
 70
     0
102
RTVSPropertyOp39
 70
     0
102
RTVSPropertyOp40
 70
     0
102
RTVSPropertyOp41
 70
     0
102
RTVSPropertyOp42
 70
     0
102
RTVSPropertyOp43
 70
     0
102
RTVSPropertyOp44
 70
     0
102
RTVSPropertyOp45
 70
     0
102
RTVSPropertyOp46
 70
     0
102
RTVSPropertyOp47
 70
     0
102
RTVSPropertyOp48
 70
     0
102
RTVSPropertyOp49
 70
     0
102
RTVSPropertyOp50
 70
     0
102
RTVSPropertyOp51
 70
     0
102
RTVSPropertyOp52
 70
     0
102
RTVSPropertyOp53
 70
     0
102
RTVSPropertyOp54
 70
     0
102
RTVSPropertyOp55
 70
     0
102
RTVSPropertyOp56
 70
     0
102
RTVSPropertyOp57
 70
     0
102
RTVSPropertyOp58
 70
     1
102
RTVSPropertyOp59
 70
     1
102
RTVSPropertyOp60
 70
     1
102
RTVSPropertyOp61
 70
     1
102
RTVSPropertyOp62
 70
     1
  0
XRECORD
  5
444
102
{ACAD_REACTORS
330
443
102
}
330
443
100
AcDbXrecord
280
     1
102
RTVSPost2010Prop28
280
     0
102
RTVSPost2010PropOp28
 70
     1
102
RTVSPost2010Prop29
280
     1
102
RTVSPost2010PropOp29
 70
     1
102
RTVSPost2010Prop30
280
     1
102
RTVSPost2010PropOp30
 70
     1
102
RTVSPost2010Prop31
280
     0
102
RTVSPost2010PropOp31
 70
     1
102
RTVSPost2010Prop32
280
     0
102
RTVSPost2010PropOp32
 70
     1
102
RTVSPost2010Prop33
280
     0
102
RTVSPost2010PropOp33
 70
     1
102
RTVSPost2010Prop34
280
     0
102
RTVSPost2010PropOp34
 70
     1
102
RTVSPost2010Prop35
280
     0
102
RTVSPost2010PropOp35
 70
     1
102
RTVSPost2010Prop36
280
     0
102
RTVSPost2010PropOp36
 70
     1
102
RTVSPost2010Prop37
 90
       50
102
RTVSPost2010PropOp37
 70
     1
102
RTVSPost2010Prop38
140
0.0
102
RTVSPost2010PropOp38
 70
     1
102
RTVSPost2010Prop39
140
1.0
102
RTVSPost2010PropOp39
 70
     1
102
RTVSPost2010Prop40
 90
        0
102
RTVSPost2010PropOp40
 70
     1
102
RTVSPost2010Prop41ColorIndex
 90
       18
102
RTVSPost2010Prop41ColorRGB
 90
        0
102
RTVSPost2010PropOp41
 70
     1
102
RTVSPost2010Prop42
 90
       50
102
RTVSPost2010PropOp42
 70
     1
102
RTVSPost2010Prop43
 90
        3
102
RTVSPost2010PropOp43
 70
     1
102
RTVSPost2010Prop44ColorIndex
 90
        5
102
RTVSPost2010Prop44ColorRGB
 90
      255
102
RTVSPost2010PropOp44
 70
     1
102
RTVSPost2010Prop45
280
     0
102
RTVSPost2010PropOp45
 70
     1
102
RTVSPost2010Prop46
 90
       50
102
RTVSPost2010PropOp46
 70
     1
102
RTVSPost2010Prop47
 90
       50
102
RTVSPost2010PropOp47
 70
     1
102
RTVSPost2010Prop48
 90
       50
102
RTVSPost2010PropOp48
 70
     1
102
RTVSPost2010Prop49
280
     0
102
RTVSPost2010PropOp49
 70
     1
102
RTVSPost2010Prop50
 90
       50
102
RTVSPost2010PropOp50
 70
     1
102
RTVSPost2010Prop51ColorIndex
 90
      256
102
RTVSPost2010Prop51ColorRGB
 90
-16777216
102
RTVSPost2010PropOp51
 70
     0
102
RTVSPost2010Prop52
140
1.0
102
RTVSPost2010PropOp52
 70
     0
102
RTVSPost2010Prop53
 90
        2
102
RTVSPost2010PropOp53
 70
     1
102
RTVSPost2010Prop54
  1
strokes_ogs.tif
102
RTVSPost2010PropOp54
 70
     1
102
RTVSPost2010Prop55
280
     0
102
RTVSPost2010PropOp55
 70
     1
102
RTVSPost2010Prop56
140
1.0
102
RTVSPost2010PropOp56
 70
     1
102
RTVSPost2010Prop57
140
1.0
102
RTVSPost2010PropOp57
 70
     1
102
RTVSPropertyOp0
 70
     1
102
RTVSPropertyOp1
 70
     1
102
RTVSPropertyOp2
 70
     1
102
RTVSPropertyOp3
 70
     1
102
RTVSPropertyOp4
 70
     1
102
RTVSPropertyOp5
 70
     1
102
RTVSPropertyOp6
 70
     1
102
RTVSPropertyOp7
 70
     1
102
RTVSPropertyOp8
 70
     1
102
RTVSPropertyOp9
 70
     1
102
RTVSPropertyOp10
 70
     1
102
RTVSPropertyOp11
 70
     1
102
RTVSPropertyOp12
 70
     1
102
RTVSPropertyOp13
 70
     1
102
RTVSPropertyOp14
 70
     1
102
RTVSPropertyOp15
 70
     1
102
RTVSPropertyOp16
 70
     1
102
RTVSPropertyOp17
 70
     1
102
RTVSPropertyOp18
 70
     1
102
RTVSPropertyOp19
 70
     1
102
RTVSPropertyOp20
 70
     1
102
RTVSPropertyOp21
 70
     1
102
RTVSPropertyOp22
 70
     1
102
RTVSPropertyOp23
 70
     1
102
RTVSPropertyOp24
 70
     1
102
RTVSPropertyOp25
 70
     1
102
RTVSPropertyOp26
 70
     1
102
RTVSPropertyOp27
 70
     1
102
RTVSPropertyOp28
 70
     1
102
RTVSPropertyOp29
 70
     1
102
RTVSPropertyOp30
 70
     1
102
RTVSPropertyOp31
 70
     1
102
RTVSPropertyOp32
 70
     1
102
RTVSPropertyOp33
 70
     1
102
RTVSPropertyOp34
 70
     1
102
RTVSPropertyOp35
 70
     1
102
RTVSPropertyOp36
 70
     1
102
RTVSPropertyOp37
 70
     1
102
RTVSPropertyOp38
 70
     1
102
RTVSPropertyOp39
 70
     1
102
RTVSPropertyOp40
 70
     1
102
RTVSPropertyOp41
 70
     1
102
RTVSPropertyOp42
 70
     1
102
RTVSPropertyOp43
 70
     1
102
RTVSPropertyOp44
 70
     1
102
RTVSPropertyOp45
 70
     1
102
RTVSPropertyOp46
 70
     1
102
RTVSPropertyOp47
 70
     1
102
RTVSPropertyOp48
 70
     1
102
RTVSPropertyOp49
 70
     1
102
RTVSPropertyOp50
 70
     1
102
RTVSPropertyOp51
 70
     0
102
RTVSPropertyOp52
 70
     0
102
RTVSPropertyOp53
 70
     1
102
RTVSPropertyOp54
 70
     1
102
RTVSPropertyOp55
 70
     1
102
RTVSPropertyOp56
 70
     1
102
RTVSPropertyOp57
 70
     1
102
RTVSPropertyOp58
 70
     1
102
RTVSPropertyOp59
 70
     1
102
RTVSPropertyOp60
 70
     1
102
RTVSPropertyOp61
 70
     1
102
RTVSPropertyOp62
 70
     1
  0
XRECORD
  5
44C
102
{ACAD_REACTORS
330
44B
102
}
330
44B
100
AcDbXrecord
280
     1
102
RTVSPost2010Prop28
280
     0
102
RTVSPost2010PropOp28
 70
     0
102
RTVSPost2010Prop29
280
     1
102
RTVSPost2010PropOp29
 70
     0
102
RTVSPost2010Prop30
280
     1
102
RTVSPost2010PropOp30
 70
     0
102
RTVSPost2010Prop31
280
     0
102
RTVSPost2010PropOp31
 70
     0
102
RTVSPost2010Prop32
280
     0
102
RTVSPost2010PropOp32
 70
     0
102
RTVSPost2010Prop33
280
     0
102
RTVSPost2010PropOp33
 70
     0
102
RTVSPost2010Prop34
280
     0
102
RTVSPost2010PropOp34
 70
     0
102
RTVSPost2010Prop35
280
     0
102
RTVSPost2010PropOp35
 70
     0
102
RTVSPost2010Prop36
280
     0
102
RTVSPost2010PropOp36
 70
     0
102
RTVSPost2010Prop37
 90
       50
102
RTVSPost2010PropOp37
 70
     0
102
RTVSPost2010Prop38
140
0.0
102
RTVSPost2010PropOp38
 70
     0
102
RTVSPost2010Prop39
140
1.0
102
RTVSPost2010PropOp39
 70
     0
102
RTVSPost2010Prop40
 90
        0
102
RTVSPost2010PropOp40
 70
     0
102
RTVSPost2010Prop41ColorIndex
 90
       18
102
RTVSPost2010Prop41ColorRGB
 90
        0
102
RTVSPost2010PropOp41
 70
     0
102
RTVSPost2010Prop42
 90
       50
102
RTVSPost2010PropOp42
 70
     0
102
RTVSPost2010Prop43
 90
        3
102
RTVSPost2010PropOp43
 70
     0
102
RTVSPost2010Prop44ColorIndex
 90
        5
102
RTVSPost2010Prop44ColorRGB
 90
      255
102
RTVSPost2010PropOp44
 70
     0
102
RTVSPost2010Prop45
280
     0
102
RTVSPost2010PropOp45
 70
     0
102
RTVSPost2010Prop46
 90
       50
102
RTVSPost2010PropOp46
 70
     0
102
RTVSPost2010Prop47
 90
       50
102
RTVSPost2010PropOp47
 70
     0
102
RTVSPost2010Prop48
 90
       50
102
RTVSPost2010PropOp48
 70
     0
102
RTVSPost2010Prop49
280
     0
102
RTVSPost2010PropOp49
 70
     0
102
RTVSPost2010Prop50
 90
       50
102
RTVSPost2010PropOp50
 70
     0
102
RTVSPost2010Prop51ColorIndex
 90
      256
102
RTVSPost2010Prop51ColorRGB
 90
-16777216
102
RTVSPost2010PropOp51
 70
     0
102
RTVSPost2010Prop52
140
1.0
102
RTVSPost2010PropOp52
 70
     0
102
RTVSPost2010Prop53
 90
        2
102
RTVSPost2010PropOp53
 70
     0
102
RTVSPost2010Prop54
  1
strokes_ogs.tif
102
RTVSPost2010PropOp54
 70
     0
102
RTVSPost2010Prop55
280
     0
102
RTVSPost2010PropOp55
 70
     0
102
RTVSPost2010Prop56
140
1.0
102
RTVSPost2010PropOp56
 70
     0
102
RTVSPost2010Prop57
140
1.0
102
RTVSPost2010PropOp57
 70
     0
102
RTVSPropertyOp0
 70
     0
102
RTVSPropertyOp1
 70
     0
102
RTVSPropertyOp2
 70
     0
102
RTVSPropertyOp3
 70
     0
102
RTVSPropertyOp4
 70
     0
102
RTVSPropertyOp5
 70
     0
102
RTVSPropertyOp6
 70
     0
102
RTVSPropertyOp7
 70
     0
102
RTVSPropertyOp8
 70
     0
102
RTVSPropertyOp9
 70
     0
102
RTVSPropertyOp10
 70
     0
102
RTVSPropertyOp11
 70
     0
102
RTVSPropertyOp12
 70
     0
102
RTVSPropertyOp13
 70
     0
102
RTVSPropertyOp14
 70
     2
102
RTVSPropertyOp15
 70
     0
102
RTVSPropertyOp16
 70
     0
102
RTVSPropertyOp17
 70
     0
102
RTVSPropertyOp18
 70
     0
102
RTVSPropertyOp19
 70
     0
102
RTVSPropertyOp20
 70
     0
102
RTVSPropertyOp21
 70
     0
102
RTVSPropertyOp22
 70
     0
102
RTVSPropertyOp23
 70
     0
102
RTVSPropertyOp24
 70
     0
102
RTVSPropertyOp25
 70
     0
102
RTVSPropertyOp26
 70
     0
102
RTVSPropertyOp27
 70
     0
102
RTVSPropertyOp28
 70
     0
102
RTVSPropertyOp29
 70
     0
102
RTVSPropertyOp30
 70
     0
102
RTVSPropertyOp31
 70
     0
102
RTVSPropertyOp32
 70
     0
102
RTVSPropertyOp33
 70
     0
102
RTVSPropertyOp34
 70
     0
102
RTVSPropertyOp35
 70
     0
102
RTVSPropertyOp36
 70
     0
102
RTVSPropertyOp37
 70
     0
102
RTVSPropertyOp38
 70
     0
102
RTVSPropertyOp39
 70
     0
102
RTVSPropertyOp40
 70
     0
102
RTVSPropertyOp41
 70
     0
102
RTVSPropertyOp42
 70
     0
102
RTVSPropertyOp43
 70
     0
102
RTVSPropertyOp44
 70
     0
102
RTVSPropertyOp45
 70
     0
102
RTVSPropertyOp46
 70
     0
102
RTVSPropertyOp47
 70
     0
102
RTVSPropertyOp48
 70
     0
102
RTVSPropertyOp49
 70
     0
102
RTVSPropertyOp50
 70
     0
102
RTVSPropertyOp51
 70
     0
102
RTVSPropertyOp52
 70
     0
102
RTVSPropertyOp53
 70
     0
102
RTVSPropertyOp54
 70
     0
102
RTVSPropertyOp55
 70
     0
102
RTVSPropertyOp56
 70
     0
102
RTVSPropertyOp57
 70
     0
102
RTVSPropertyOp58
 70
     1
102
RTVSPropertyOp59
 70
     1
102
RTVSPropertyOp60
 70
     1
102
RTVSPropertyOp61
 70
     1
102
RTVSPropertyOp62
 70
     1
  0
XRECORD
  5
43A
102
{ACAD_REACTORS
330
439
102
}
330
439
100
AcDbXrecord
280
     1
102
RTVSPost2010Prop28
280
     0
102
RTVSPost2010PropOp28
 70
     1
102
RTVSPost2010Prop29
280
     1
102
RTVSPost2010PropOp29
 70
     1
102
RTVSPost2010Prop30
280
     1
102
RTVSPost2010PropOp30
 70
     1
102
RTVSPost2010Prop31
280
     0
102
RTVSPost2010PropOp31
 70
     1
102
RTVSPost2010Prop32
280
     0
102
RTVSPost2010PropOp32
 70
     1
102
RTVSPost2010Prop33
280
     0
102
RTVSPost2010PropOp33
 70
     1
102
RTVSPost2010Prop34
280
     0
102
RTVSPost2010PropOp34
 70
     1
102
RTVSPost2010Prop35
280
     0
102
RTVSPost2010PropOp35
 70
     1
102
RTVSPost2010Prop36
280
     0
102
RTVSPost2010PropOp36
 70
     1
102
RTVSPost2010Prop37
 90
       50
102
RTVSPost2010PropOp37
 70
     1
102
RTVSPost2010Prop38
140
0.0
102
RTVSPost2010PropOp38
 70
     1
102
RTVSPost2010Prop39
140
1.0
102
RTVSPost2010PropOp39
 70
     1
102
RTVSPost2010Prop40
 90
        0
102
RTVSPost2010PropOp40
 70
     1
102
RTVSPost2010Prop41ColorIndex
 90
       18
102
RTVSPost2010Prop41ColorRGB
 90
        0
102
RTVSPost2010PropOp41
 70
     1
102
RTVSPost2010Prop42
 90
       50
102
RTVSPost2010PropOp42
 70
     1
102
RTVSPost2010Prop43
 90
        3
102
RTVSPost2010PropOp43
 70
     1
102
RTVSPost2010Prop44ColorIndex
 90
        5
102
RTVSPost2010Prop44ColorRGB
 90
      255
102
RTVSPost2010PropOp44
 70
     1
102
RTVSPost2010Prop45
280
     0
102
RTVSPost2010PropOp45
 70
     1
102
RTVSPost2010Prop46
 90
       50
102
RTVSPost2010PropOp46
 70
     1
102
RTVSPost2010Prop47
 90
       50
102
RTVSPost2010PropOp47
 70
     1
102
RTVSPost2010Prop48
 90
       50
102
RTVSPost2010PropOp48
 70
     1
102
RTVSPost2010Prop49
280
     0
102
RTVSPost2010PropOp49
 70
     1
102
RTVSPost2010Prop50
 90
       50
102
RTVSPost2010PropOp50
 70
     1
102
RTVSPost2010Prop51ColorIndex
 90
      256
102
RTVSPost2010Prop51ColorRGB
 90
-16777216
102
RTVSPost2010PropOp51
 70
     0
102
RTVSPost2010Prop52
140
1.0
102
RTVSPost2010PropOp52
 70
     0
102
RTVSPost2010Prop53
 90
        2
102
RTVSPost2010PropOp53
 70
     1
102
RTVSPost2010Prop54
  1
strokes_ogs.tif
102
RTVSPost2010PropOp54
 70
     1
102
RTVSPost2010Prop55
280
     0
102
RTVSPost2010PropOp55
 70
     1
102
RTVSPost2010Prop56
140
1.0
102
RTVSPost2010PropOp56
 70
     1
102
RTVSPost2010Prop57
140
1.0
102
RTVSPost2010PropOp57
 70
     1
102
RTVSPropertyOp0
 70
     1
102
RTVSPropertyOp1
 70
     1
102
RTVSPropertyOp2
 70
     1
102
RTVSPropertyOp3
 70
     1
102
RTVSPropertyOp4
 70
     1
102
RTVSPropertyOp5
 70
     1
102
RTVSPropertyOp6
 70
     1
102
RTVSPropertyOp7
 70
     1
102
RTVSPropertyOp8
 70
     1
102
RTVSPropertyOp9
 70
     1
102
RTVSPropertyOp10
 70
     1
102
RTVSPropertyOp11
 70
     1
102
RTVSPropertyOp12
 70
     1
102
RTVSPropertyOp13
 70
     1
102
RTVSPropertyOp14
 70
     1
102
RTVSPropertyOp15
 70
     1
102
RTVSPropertyOp16
 70
     1
102
RTVSPropertyOp17
 70
     1
102
RTVSPropertyOp18
 70
     1
102
RTVSPropertyOp19
 70
     1
102
RTVSPropertyOp20
 70
     1
102
RTVSPropertyOp21
 70
     1
102
RTVSPropertyOp22
 70
     1
102
RTVSPropertyOp23
 70
     1
102
RTVSPropertyOp24
 70
     1
102
RTVSPropertyOp25
 70
     1
102
RTVSPropertyOp26
 70
     1
102
RTVSPropertyOp27
 70
     1
102
RTVSPropertyOp28
 70
     1
102
RTVSPropertyOp29
 70
     1
102
RTVSPropertyOp30
 70
     1
102
RTVSPropertyOp31
 70
     1
102
RTVSPropertyOp32
 70
     1
102
RTVSPropertyOp33
 70
     1
102
RTVSPropertyOp34
 70
     1
102
RTVSPropertyOp35
 70
     1
102
RTVSPropertyOp36
 70
     1
102
RTVSPropertyOp37
 70
     1
102
RTVSPropertyOp38
 70
     1
102
RTVSPropertyOp39
 70
     1
102
RTVSPropertyOp40
 70
     1
102
RTVSPropertyOp41
 70
     1
102
RTVSPropertyOp42
 70
     1
102
RTVSPropertyOp43
 70
     1
102
RTVSPropertyOp44
 70
     1
102
RTVSPropertyOp45
 70
     1
102
RTVSPropertyOp46
 70
     1
102
RTVSPropertyOp47
 70
     1
102
RTVSPropertyOp48
 70
     1
102
RTVSPropertyOp49
 70
     1
102
RTVSPropertyOp50
 70
     1
102
RTVSPropertyOp51
 70
     0
102
RTVSPropertyOp52
 70
     0
102
RTVSPropertyOp53
 70
     1
102
RTVSPropertyOp54
 70
     1
102
RTVSPropertyOp55
 70
     1
102
RTVSPropertyOp56
 70
     1
102
RTVSPropertyOp57
 70
     1
102
RTVSPropertyOp58
 70
     1
102
RTVSPropertyOp59
 70
     1
102
RTVSPropertyOp60
 70
     1
102
RTVSPropertyOp61
 70
     1
102
RTVSPropertyOp62
 70
     1
  0
XRECORD
  5
458
102
{ACAD_REACTORS
330
457
102
}
330
457
100
AcDbXrecord
280
     1
102
RTVSPost2010Prop28
280
     0
102
RTVSPost2010PropOp28
 70
     1
102
RTVSPost2010Prop29
280
     1
102
RTVSPost2010PropOp29
 70
     1
102
RTVSPost2010Prop30
280
     1
102
RTVSPost2010PropOp30
 70
     1
102
RTVSPost2010Prop31
280
     0
102
RTVSPost2010PropOp31
 70
     1
102
RTVSPost2010Prop32
280
     0
102
RTVSPost2010PropOp32
 70
     1
102
RTVSPost2010Prop33
280
     0
102
RTVSPost2010PropOp33
 70
     1
102
RTVSPost2010Prop34
280
     0
102
RTVSPost2010PropOp34
 70
     1
102
RTVSPost2010Prop35
280
     0
102
RTVSPost2010PropOp35
 70
     1
102
RTVSPost2010Prop36
280
     0
102
RTVSPost2010PropOp36
 70
     1
102
RTVSPost2010Prop37
 90
       50
102
RTVSPost2010PropOp37
 70
     1
102
RTVSPost2010Prop38
140
0.0
102
RTVSPost2010PropOp38
 70
     1
102
RTVSPost2010Prop39
140
1.0
102
RTVSPost2010PropOp39
 70
     1
102
RTVSPost2010Prop40
 90
        0
102
RTVSPost2010PropOp40
 70
     1
102
RTVSPost2010Prop41ColorIndex
 90
       18
102
RTVSPost2010Prop41ColorRGB
 90
        0
102
RTVSPost2010PropOp41
 70
     1
102
RTVSPost2010Prop42
 90
       50
102
RTVSPost2010PropOp42
 70
     1
102
RTVSPost2010Prop43
 90
        3
102
RTVSPost2010PropOp43
 70
     1
102
RTVSPost2010Prop44ColorIndex
 90
        5
102
RTVSPost2010Prop44ColorRGB
 90
      255
102
RTVSPost2010PropOp44
 70
     1
102
RTVSPost2010Prop45
280
     0
102
RTVSPost2010PropOp45
 70
     1
102
RTVSPost2010Prop46
 90
       50
102
RTVSPost2010PropOp46
 70
     1
102
RTVSPost2010Prop47
 90
       50
102
RTVSPost2010PropOp47
 70
     1
102
RTVSPost2010Prop48
 90
       50
102
RTVSPost2010PropOp48
 70
     1
102
RTVSPost2010Prop49
280
     0
102
RTVSPost2010PropOp49
 70
     1
102
RTVSPost2010Prop50
 90
       50
102
RTVSPost2010PropOp50
 70
     1
102
RTVSPost2010Prop51ColorIndex
 90
      256
102
RTVSPost2010Prop51ColorRGB
 90
-16777216
102
RTVSPost2010PropOp51
 70
     0
102
RTVSPost2010Prop52
140
1.0
102
RTVSPost2010PropOp52
 70
     0
102
RTVSPost2010Prop53
 90
        2
102
RTVSPost2010PropOp53
 70
     1
102
RTVSPost2010Prop54
  1
strokes_ogs.tif
102
RTVSPost2010PropOp54
 70
     1
102
RTVSPost2010Prop55
280
     0
102
RTVSPost2010PropOp55
 70
     1
102
RTVSPost2010Prop56
140
1.0
102
RTVSPost2010PropOp56
 70
     1
102
RTVSPost2010Prop57
140
1.0
102
RTVSPost2010PropOp57
 70
     1
102
RTVSPropertyOp0
 70
     1
102
RTVSPropertyOp1
 70
     1
102
RTVSPropertyOp2
 70
     1
102
RTVSPropertyOp3
 70
     1
102
RTVSPropertyOp4
 70
     1
102
RTVSPropertyOp5
 70
     1
102
RTVSPropertyOp6
 70
     1
102
RTVSPropertyOp7
 70
     1
102
RTVSPropertyOp8
 70
     1
102
RTVSPropertyOp9
 70
     1
102
RTVSPropertyOp10
 70
     1
102
RTVSPropertyOp11
 70
     1
102
RTVSPropertyOp12
 70
     1
102
RTVSPropertyOp13
 70
     1
102
RTVSPropertyOp14
 70
     1
102
RTVSPropertyOp15
 70
     1
102
RTVSPropertyOp16
 70
     1
102
RTVSPropertyOp17
 70
     1
102
RTVSPropertyOp18
 70
     1
102
RTVSPropertyOp19
 70
     1
102
RTVSPropertyOp20
 70
     1
102
RTVSPropertyOp21
 70
     1
102
RTVSPropertyOp22
 70
     1
102
RTVSPropertyOp23
 70
     1
102
RTVSPropertyOp24
 70
     1
102
RTVSPropertyOp25
 70
     1
102
RTVSPropertyOp26
 70
     1
102
RTVSPropertyOp27
 70
     1
102
RTVSPropertyOp28
 70
     1
102
RTVSPropertyOp29
 70
     1
102
RTVSPropertyOp30
 70
     1
102
RTVSPropertyOp31
 70
     1
102
RTVSPropertyOp32
 70
     1
102
RTVSPropertyOp33
 70
     1
102
RTVSPropertyOp34
 70
     1
102
RTVSPropertyOp35
 70
     1
102
RTVSPropertyOp36
 70
     1
102
RTVSPropertyOp37
 70
     1
102
RTVSPropertyOp38
 70
     1
102
RTVSPropertyOp39
 70
     1
102
RTVSPropertyOp40
 70
     1
102
RTVSPropertyOp41
 70
     1
102
RTVSPropertyOp42
 70
     1
102
RTVSPropertyOp43
 70
     1
102
RTVSPropertyOp44
 70
     1
102
RTVSPropertyOp45
 70
     1
102
RTVSPropertyOp46
 70
     1
102
RTVSPropertyOp47
 70
     1
102
RTVSPropertyOp48
 70
     1
102
RTVSPropertyOp49
 70
     1
102
RTVSPropertyOp50
 70
     1
102
RTVSPropertyOp51
 70
     0
102
RTVSPropertyOp52
 70
     0
102
RTVSPropertyOp53
 70
     1
102
RTVSPropertyOp54
 70
     1
102
RTVSPropertyOp55
 70
     1
102
RTVSPropertyOp56
 70
     1
102
RTVSPropertyOp57
 70
     1
102
RTVSPropertyOp58
 70
     1
102
RTVSPropertyOp59
 70
     1
102
RTVSPropertyOp60
 70
     1
102
RTVSPropertyOp61
 70
     1
102
RTVSPropertyOp62
 70
     1
  0
XRECORD
  5
456
102
{ACAD_REACTORS
330
455
102
}
330
455
100
AcDbXrecord
280
     1
102
RTVSPost2010Prop28
280
     0
102
RTVSPost2010PropOp28
 70
     1
102
RTVSPost2010Prop29
280
     1
102
RTVSPost2010PropOp29
 70
     1
102
RTVSPost2010Prop30
280
     1
102
RTVSPost2010PropOp30
 70
     1
102
RTVSPost2010Prop31
280
     0
102
RTVSPost2010PropOp31
 70
     1
102
RTVSPost2010Prop32
280
     0
102
RTVSPost2010PropOp32
 70
     1
102
RTVSPost2010Prop33
280
     0
102
RTVSPost2010PropOp33
 70
     1
102
RTVSPost2010Prop34
280
     0
102
RTVSPost2010PropOp34
 70
     1
102
RTVSPost2010Prop35
280
     0
102
RTVSPost2010PropOp35
 70
     1
102
RTVSPost2010Prop36
280
     0
102
RTVSPost2010PropOp36
 70
     1
102
RTVSPost2010Prop37
 90
       50
102
RTVSPost2010PropOp37
 70
     1
102
RTVSPost2010Prop38
140
0.0
102
RTVSPost2010PropOp38
 70
     1
102
RTVSPost2010Prop39
140
1.0
102
RTVSPost2010PropOp39
 70
     1
102
RTVSPost2010Prop40
 90
        0
102
RTVSPost2010PropOp40
 70
     1
102
RTVSPost2010Prop41ColorIndex
 90
       18
102
RTVSPost2010Prop41ColorRGB
 90
        0
102
RTVSPost2010PropOp41
 70
     1
102
RTVSPost2010Prop42
 90
       50
102
RTVSPost2010PropOp42
 70
     1
102
RTVSPost2010Prop43
 90
        3
102
RTVSPost2010PropOp43
 70
     1
102
RTVSPost2010Prop44ColorIndex
 90
        5
102
RTVSPost2010Prop44ColorRGB
 90
      255
102
RTVSPost2010PropOp44
 70
     1
102
RTVSPost2010Prop45
280
     0
102
RTVSPost2010PropOp45
 70
     1
102
RTVSPost2010Prop46
 90
       50
102
RTVSPost2010PropOp46
 70
     1
102
RTVSPost2010Prop47
 90
       50
102
RTVSPost2010PropOp47
 70
     1
102
RTVSPost2010Prop48
 90
       50
102
RTVSPost2010PropOp48
 70
     1
102
RTVSPost2010Prop49
280
     0
102
RTVSPost2010PropOp49
 70
     1
102
RTVSPost2010Prop50
 90
       50
102
RTVSPost2010PropOp50
 70
     1
102
RTVSPost2010Prop51ColorIndex
 90
      256
102
RTVSPost2010Prop51ColorRGB
 90
-16777216
102
RTVSPost2010PropOp51
 70
     0
102
RTVSPost2010Prop52
140
1.0
102
RTVSPost2010PropOp52
 70
     0
102
RTVSPost2010Prop53
 90
        2
102
RTVSPost2010PropOp53
 70
     1
102
RTVSPost2010Prop54
  1
strokes_ogs.tif
102
RTVSPost2010PropOp54
 70
     1
102
RTVSPost2010Prop55
280
     0
102
RTVSPost2010PropOp55
 70
     1
102
RTVSPost2010Prop56
140
1.0
102
RTVSPost2010PropOp56
 70
     1
102
RTVSPost2010Prop57
140
1.0
102
RTVSPost2010PropOp57
 70
     1
102
RTVSPropertyOp0
 70
     1
102
RTVSPropertyOp1
 70
     1
102
RTVSPropertyOp2
 70
     1
102
RTVSPropertyOp3
 70
     1
102
RTVSPropertyOp4
 70
     1
102
RTVSPropertyOp5
 70
     1
102
RTVSPropertyOp6
 70
     1
102
RTVSPropertyOp7
 70
     1
102
RTVSPropertyOp8
 70
     1
102
RTVSPropertyOp9
 70
     1
102
RTVSPropertyOp10
 70
     1
102
RTVSPropertyOp11
 70
     1
102
RTVSPropertyOp12
 70
     1
102
RTVSPropertyOp13
 70
     1
102
RTVSPropertyOp14
 70
     1
102
RTVSPropertyOp15
 70
     1
102
RTVSPropertyOp16
 70
     1
102
RTVSPropertyOp17
 70
     1
102
RTVSPropertyOp18
 70
     1
102
RTVSPropertyOp19
 70
     1
102
RTVSPropertyOp20
 70
     1
102
RTVSPropertyOp21
 70
     1
102
RTVSPropertyOp22
 70
     1
102
RTVSPropertyOp23
 70
     1
102
RTVSPropertyOp24
 70
     1
102
RTVSPropertyOp25
 70
     1
102
RTVSPropertyOp26
 70
     1
102
RTVSPropertyOp27
 70
     1
102
RTVSPropertyOp28
 70
     1
102
RTVSPropertyOp29
 70
     1
102
RTVSPropertyOp30
 70
     1
102
RTVSPropertyOp31
 70
     1
102
RTVSPropertyOp32
 70
     1
102
RTVSPropertyOp33
 70
     1
102
RTVSPropertyOp34
 70
     1
102
RTVSPropertyOp35
 70
     1
102
RTVSPropertyOp36
 70
     1
102
RTVSPropertyOp37
 70
     1
102
RTVSPropertyOp38
 70
     1
102
RTVSPropertyOp39
 70
     1
102
RTVSPropertyOp40
 70
     1
102
RTVSPropertyOp41
 70
     1
102
RTVSPropertyOp42
 70
     1
102
RTVSPropertyOp43
 70
     1
102
RTVSPropertyOp44
 70
     1
102
RTVSPropertyOp45
 70
     1
102
RTVSPropertyOp46
 70
     1
102
RTVSPropertyOp47
 70
     1
102
RTVSPropertyOp48
 70
     1
102
RTVSPropertyOp49
 70
     1
102
RTVSPropertyOp50
 70
     1
102
RTVSPropertyOp51
 70
     0
102
RTVSPropertyOp52
 70
     0
102
RTVSPropertyOp53
 70
     1
102
RTVSPropertyOp54
 70
     1
102
RTVSPropertyOp55
 70
     1
102
RTVSPropertyOp56
 70
     1
102
RTVSPropertyOp57
 70
     1
102
RTVSPropertyOp58
 70
     1
102
RTVSPropertyOp59
 70
     1
102
RTVSPropertyOp60
 70
     1
102
RTVSPropertyOp61
 70
     1
102
RTVSPropertyOp62
 70
     1
  0
XRECORD
  5
450
102
{ACAD_REACTORS
330
44F
102
}
330
44F
100
AcDbXrecord
280
     1
102
RTVSPost2010Prop28
280
     0
102
RTVSPost2010PropOp28
 70
     1
102
RTVSPost2010Prop29
280
     1
102
RTVSPost2010PropOp29
 70
     1
102
RTVSPost2010Prop30
280
     1
102
RTVSPost2010PropOp30
 70
     1
102
RTVSPost2010Prop31
280
     0
102
RTVSPost2010PropOp31
 70
     1
102
RTVSPost2010Prop32
280
     0
102
RTVSPost2010PropOp32
 70
     1
102
RTVSPost2010Prop33
280
     0
102
RTVSPost2010PropOp33
 70
     1
102
RTVSPost2010Prop34
280
     0
102
RTVSPost2010PropOp34
 70
     1
102
RTVSPost2010Prop35
280
     0
102
RTVSPost2010PropOp35
 70
     1
102
RTVSPost2010Prop36
280
     0
102
RTVSPost2010PropOp36
 70
     1
102
RTVSPost2010Prop37
 90
       50
102
RTVSPost2010PropOp37
 70
     1
102
RTVSPost2010Prop38
140
0.0
102
RTVSPost2010PropOp38
 70
     1
102
RTVSPost2010Prop39
140
1.0
102
RTVSPost2010PropOp39
 70
     1
102
RTVSPost2010Prop40
 90
        0
102
RTVSPost2010PropOp40
 70
     1
102
RTVSPost2010Prop41ColorIndex
 90
       18
102
RTVSPost2010Prop41ColorRGB
 90
        0
102
RTVSPost2010PropOp41
 70
     1
102
RTVSPost2010Prop42
 90
       50
102
RTVSPost2010PropOp42
 70
     1
102
RTVSPost2010Prop43
 90
        3
102
RTVSPost2010PropOp43
 70
     1
102
RTVSPost2010Prop44ColorIndex
 90
        5
102
RTVSPost2010Prop44ColorRGB
 90
      255
102
RTVSPost2010PropOp44
 70
     1
102
RTVSPost2010Prop45
280
     0
102
RTVSPost2010PropOp45
 70
     1
102
RTVSPost2010Prop46
 90
       50
102
RTVSPost2010PropOp46
 70
     1
102
RTVSPost2010Prop47
 90
       50
102
RTVSPost2010PropOp47
 70
     1
102
RTVSPost2010Prop48
 90
       50
102
RTVSPost2010PropOp48
 70
     1
102
RTVSPost2010Prop49
280
     0
102
RTVSPost2010PropOp49
 70
     1
102
RTVSPost2010Prop50
 90
       50
102
RTVSPost2010PropOp50
 70
     1
102
RTVSPost2010Prop51ColorIndex
 90
      256
102
RTVSPost2010Prop51ColorRGB
 90
-16777216
102
RTVSPost2010PropOp51
 70
     0
102
RTVSPost2010Prop52
140
1.0
102
RTVSPost2010PropOp52
 70
     0
102
RTVSPost2010Prop53
 90
        2
102
RTVSPost2010PropOp53
 70
     1
102
RTVSPost2010Prop54
  1
strokes_ogs.tif
102
RTVSPost2010PropOp54
 70
     1
102
RTVSPost2010Prop55
280
     0
102
RTVSPost2010PropOp55
 70
     1
102
RTVSPost2010Prop56
140
1.0
102
RTVSPost2010PropOp56
 70
     1
102
RTVSPost2010Prop57
140
1.0
102
RTVSPost2010PropOp57
 70
     1
102
RTVSPropertyOp0
 70
     1
102
RTVSPropertyOp1
 70
     1
102
RTVSPropertyOp2
 70
     1
102
RTVSPropertyOp3
 70
     1
102
RTVSPropertyOp4
 70
     1
102
RTVSPropertyOp5
 70
     1
102
RTVSPropertyOp6
 70
     1
102
RTVSPropertyOp7
 70
     1
102
RTVSPropertyOp8
 70
     1
102
RTVSPropertyOp9
 70
     1
102
RTVSPropertyOp10
 70
     1
102
RTVSPropertyOp11
 70
     1
102
RTVSPropertyOp12
 70
     1
102
RTVSPropertyOp13
 70
     1
102
RTVSPropertyOp14
 70
     1
102
RTVSPropertyOp15
 70
     1
102
RTVSPropertyOp16
 70
     1
102
RTVSPropertyOp17
 70
     1
102
RTVSPropertyOp18
 70
     1
102
RTVSPropertyOp19
 70
     1
102
RTVSPropertyOp20
 70
     1
102
RTVSPropertyOp21
 70
     1
102
RTVSPropertyOp22
 70
     1
102
RTVSPropertyOp23
 70
     1
102
RTVSPropertyOp24
 70
     1
102
RTVSPropertyOp25
 70
     1
102
RTVSPropertyOp26
 70
     1
102
RTVSPropertyOp27
 70
     1
102
RTVSPropertyOp28
 70
     1
102
RTVSPropertyOp29
 70
     1
102
RTVSPropertyOp30
 70
     1
102
RTVSPropertyOp31
 70
     1
102
RTVSPropertyOp32
 70
     1
102
RTVSPropertyOp33
 70
     1
102
RTVSPropertyOp34
 70
     1
102
RTVSPropertyOp35
 70
     1
102
RTVSPropertyOp36
 70
     1
102
RTVSPropertyOp37
 70
     1
102
RTVSPropertyOp38
 70
     1
102
RTVSPropertyOp39
 70
     1
102
RTVSPropertyOp40
 70
     1
102
RTVSPropertyOp41
 70
     1
102
RTVSPropertyOp42
 70
     1
102
RTVSPropertyOp43
 70
     1
102
RTVSPropertyOp44
 70
     1
102
RTVSPropertyOp45
 70
     1
102
RTVSPropertyOp46
 70
     1
102
RTVSPropertyOp47
 70
     1
102
RTVSPropertyOp48
 70
     1
102
RTVSPropertyOp49
 70
     1
102
RTVSPropertyOp50
 70
     1
102
RTVSPropertyOp51
 70
     0
102
RTVSPropertyOp52
 70
     0
102
RTVSPropertyOp53
 70
     1
102
RTVSPropertyOp54
 70
     1
102
RTVSPropertyOp55
 70
     1
102
RTVSPropertyOp56
 70
     1
102
RTVSPropertyOp57
 70
     1
102
RTVSPropertyOp58
 70
     1
102
RTVSPropertyOp59
 70
     1
102
RTVSPropertyOp60
 70
     1
102
RTVSPropertyOp61
 70
     1
102
RTVSPropertyOp62
 70
     1
  0
XRECORD
  5
452
102
{ACAD_REACTORS
330
451
102
}
330
451
100
AcDbXrecord
280
     1
102
RTVSPost2010Prop28
280
     0
102
RTVSPost2010PropOp28
 70
     1
102
RTVSPost2010Prop29
280
     1
102
RTVSPost2010PropOp29
 70
     1
102
RTVSPost2010Prop30
280
     1
102
RTVSPost2010PropOp30
 70
     1
102
RTVSPost2010Prop31
280
     0
102
RTVSPost2010PropOp31
 70
     1
102
RTVSPost2010Prop32
280
     0
102
RTVSPost2010PropOp32
 70
     1
102
RTVSPost2010Prop33
280
     0
102
RTVSPost2010PropOp33
 70
     1
102
RTVSPost2010Prop34
280
     0
102
RTVSPost2010PropOp34
 70
     1
102
RTVSPost2010Prop35
280
     0
102
RTVSPost2010PropOp35
 70
     1
102
RTVSPost2010Prop36
280
     0
102
RTVSPost2010PropOp36
 70
     1
102
RTVSPost2010Prop37
 90
       50
102
RTVSPost2010PropOp37
 70
     1
102
RTVSPost2010Prop38
140
0.0
102
RTVSPost2010PropOp38
 70
     1
102
RTVSPost2010Prop39
140
1.0
102
RTVSPost2010PropOp39
 70
     1
102
RTVSPost2010Prop40
 90
        0
102
RTVSPost2010PropOp40
 70
     1
102
RTVSPost2010Prop41ColorIndex
 90
       18
102
RTVSPost2010Prop41ColorRGB
 90
        0
102
RTVSPost2010PropOp41
 70
     1
102
RTVSPost2010Prop42
 90
       50
102
RTVSPost2010PropOp42
 70
     1
102
RTVSPost2010Prop43
 90
        3
102
RTVSPost2010PropOp43
 70
     1
102
RTVSPost2010Prop44ColorIndex
 90
        5
102
RTVSPost2010Prop44ColorRGB
 90
      255
102
RTVSPost2010PropOp44
 70
     1
102
RTVSPost2010Prop45
280
     0
102
RTVSPost2010PropOp45
 70
     1
102
RTVSPost2010Prop46
 90
       50
102
RTVSPost2010PropOp46
 70
     1
102
RTVSPost2010Prop47
 90
       50
102
RTVSPost2010PropOp47
 70
     1
102
RTVSPost2010Prop48
 90
       50
102
RTVSPost2010PropOp48
 70
     1
102
RTVSPost2010Prop49
280
     0
102
RTVSPost2010PropOp49
 70
     1
102
RTVSPost2010Prop50
 90
       50
102
RTVSPost2010PropOp50
 70
     1
102
RTVSPost2010Prop51ColorIndex
 90
      256
102
RTVSPost2010Prop51ColorRGB
 90
-16777216
102
RTVSPost2010PropOp51
 70
     0
102
RTVSPost2010Prop52
140
1.0
102
RTVSPost2010PropOp52
 70
     0
102
RTVSPost2010Prop53
 90
        2
102
RTVSPost2010PropOp53
 70
     1
102
RTVSPost2010Prop54
  1
strokes_ogs.tif
102
RTVSPost2010PropOp54
 70
     1
102
RTVSPost2010Prop55
280
     0
102
RTVSPost2010PropOp55
 70
     1
102
RTVSPost2010Prop56
140
1.0
102
RTVSPost2010PropOp56
 70
     1
102
RTVSPost2010Prop57
140
1.0
102
RTVSPost2010PropOp57
 70
     1
102
RTVSPropertyOp0
 70
     1
102
RTVSPropertyOp1
 70
     1
102
RTVSPropertyOp2
 70
     1
102
RTVSPropertyOp3
 70
     1
102
RTVSPropertyOp4
 70
     1
102
RTVSPropertyOp5
 70
     1
102
RTVSPropertyOp6
 70
     1
102
RTVSPropertyOp7
 70
     1
102
RTVSPropertyOp8
 70
     1
102
RTVSPropertyOp9
 70
     1
102
RTVSPropertyOp10
 70
     1
102
RTVSPropertyOp11
 70
     1
102
RTVSPropertyOp12
 70
     1
102
RTVSPropertyOp13
 70
     1
102
RTVSPropertyOp14
 70
     1
102
RTVSPropertyOp15
 70
     1
102
RTVSPropertyOp16
 70
     1
102
RTVSPropertyOp17
 70
     1
102
RTVSPropertyOp18
 70
     1
102
RTVSPropertyOp19
 70
     1
102
RTVSPropertyOp20
 70
     1
102
RTVSPropertyOp21
 70
     1
102
RTVSPropertyOp22
 70
     1
102
RTVSPropertyOp23
 70
     1
102
RTVSPropertyOp24
 70
     1
102
RTVSPropertyOp25
 70
     1
102
RTVSPropertyOp26
 70
     1
102
RTVSPropertyOp27
 70
     1
102
RTVSPropertyOp28
 70
     1
102
RTVSPropertyOp29
 70
     1
102
RTVSPropertyOp30
 70
     1
102
RTVSPropertyOp31
 70
     1
102
RTVSPropertyOp32
 70
     1
102
RTVSPropertyOp33
 70
     1
102
RTVSPropertyOp34
 70
     1
102
RTVSPropertyOp35
 70
     1
102
RTVSPropertyOp36
 70
     1
102
RTVSPropertyOp37
 70
     1
102
RTVSPropertyOp38
 70
     1
102
RTVSPropertyOp39
 70
     1
102
RTVSPropertyOp40
 70
     1
102
RTVSPropertyOp41
 70
     1
102
RTVSPropertyOp42
 70
     1
102
RTVSPropertyOp43
 70
     1
102
RTVSPropertyOp44
 70
     1
102
RTVSPropertyOp45
 70
     1
102
RTVSPropertyOp46
 70
     1
102
RTVSPropertyOp47
 70
     1
102
RTVSPropertyOp48
 70
     1
102
RTVSPropertyOp49
 70
     1
102
RTVSPropertyOp50
 70
     1
102
RTVSPropertyOp51
 70
     0
102
RTVSPropertyOp52
 70
     0
102
RTVSPropertyOp53
 70
     1
102
RTVSPropertyOp54
 70
     1
102
RTVSPropertyOp55
 70
     1
102
RTVSPropertyOp56
 70
     1
102
RTVSPropertyOp57
 70
     1
102
RTVSPropertyOp58
 70
     1
102
RTVSPropertyOp59
 70
     1
102
RTVSPropertyOp60
 70
     1
102
RTVSPropertyOp61
 70
     1
102
RTVSPropertyOp62
 70
     1
  0
XRECORD
  5
442
102
{ACAD_REACTORS
330
441
102
}
330
441
100
AcDbXrecord
280
     1
102
RTVSPost2010Prop28
280
     0
102
RTVSPost2010PropOp28
 70
     1
102
RTVSPost2010Prop29
280
     1
102
RTVSPost2010PropOp29
 70
     1
102
RTVSPost2010Prop30
280
     1
102
RTVSPost2010PropOp30
 70
     1
102
RTVSPost2010Prop31
280
     0
102
RTVSPost2010PropOp31
 70
     1
102
RTVSPost2010Prop32
280
     0
102
RTVSPost2010PropOp32
 70
     1
102
RTVSPost2010Prop33
280
     0
102
RTVSPost2010PropOp33
 70
     1
102
RTVSPost2010Prop34
280
     0
102
RTVSPost2010PropOp34
 70
     1
102
RTVSPost2010Prop35
280
     0
102
RTVSPost2010PropOp35
 70
     1
102
RTVSPost2010Prop36
280
     0
102
RTVSPost2010PropOp36
 70
     1
102
RTVSPost2010Prop37
 90
       50
102
RTVSPost2010PropOp37
 70
     1
102
RTVSPost2010Prop38
140
0.0
102
RTVSPost2010PropOp38
 70
     1
102
RTVSPost2010Prop39
140
1.0
102
RTVSPost2010PropOp39
 70
     1
102
RTVSPost2010Prop40
 90
        0
102
RTVSPost2010PropOp40
 70
     1
102
RTVSPost2010Prop41ColorIndex
 90
       18
102
RTVSPost2010Prop41ColorRGB
 90
        0
102
RTVSPost2010PropOp41
 70
     1
102
RTVSPost2010Prop42
 90
       50
102
RTVSPost2010PropOp42
 70
     1
102
RTVSPost2010Prop43
 90
        3
102
RTVSPost2010PropOp43
 70
     1
102
RTVSPost2010Prop44ColorIndex
 90
        5
102
RTVSPost2010Prop44ColorRGB
 90
      255
102
RTVSPost2010PropOp44
 70
     1
102
RTVSPost2010Prop45
280
     0
102
RTVSPost2010PropOp45
 70
     1
102
RTVSPost2010Prop46
 90
       50
102
RTVSPost2010PropOp46
 70
     1
102
RTVSPost2010Prop47
 90
       50
102
RTVSPost2010PropOp47
 70
     1
102
RTVSPost2010Prop48
 90
       50
102
RTVSPost2010PropOp48
 70
     1
102
RTVSPost2010Prop49
280
     0
102
RTVSPost2010PropOp49
 70
     1
102
RTVSPost2010Prop50
 90
       50
102
RTVSPost2010PropOp50
 70
     1
102
RTVSPost2010Prop51ColorIndex
 90
      256
102
RTVSPost2010Prop51ColorRGB
 90
-16777216
102
RTVSPost2010PropOp51
 70
     0
102
RTVSPost2010Prop52
140
1.0
102
RTVSPost2010PropOp52
 70
     0
102
RTVSPost2010Prop53
 90
        2
102
RTVSPost2010PropOp53
 70
     1
102
RTVSPost2010Prop54
  1
strokes_ogs.tif
102
RTVSPost2010PropOp54
 70
     1
102
RTVSPost2010Prop55
280
     0
102
RTVSPost2010PropOp55
 70
     1
102
RTVSPost2010Prop56
140
1.0
102
RTVSPost2010PropOp56
 70
     1
102
RTVSPost2010Prop57
140
1.0
102
RTVSPost2010PropOp57
 70
     1
102
RTVSPropertyOp0
 70
     1
102
RTVSPropertyOp1
 70
     1
102
RTVSPropertyOp2
 70
     1
102
RTVSPropertyOp3
 70
     1
102
RTVSPropertyOp4
 70
     1
102
RTVSPropertyOp5
 70
     1
102
RTVSPropertyOp6
 70
     1
102
RTVSPropertyOp7
 70
     1
102
RTVSPropertyOp8
 70
     1
102
RTVSPropertyOp9
 70
     1
102
RTVSPropertyOp10
 70
     1
102
RTVSPropertyOp11
 70
     1
102
RTVSPropertyOp12
 70
     1
102
RTVSPropertyOp13
 70
     1
102
RTVSPropertyOp14
 70
     1
102
RTVSPropertyOp15
 70
     1
102
RTVSPropertyOp16
 70
     1
102
RTVSPropertyOp17
 70
     1
102
RTVSPropertyOp18
 70
     1
102
RTVSPropertyOp19
 70
     1
102
RTVSPropertyOp20
 70
     1
102
RTVSPropertyOp21
 70
     1
102
RTVSPropertyOp22
 70
     1
102
RTVSPropertyOp23
 70
     1
102
RTVSPropertyOp24
 70
     1
102
RTVSPropertyOp25
 70
     1
102
RTVSPropertyOp26
 70
     1
102
RTVSPropertyOp27
 70
     1
102
RTVSPropertyOp28
 70
     1
102
RTVSPropertyOp29
 70
     1
102
RTVSPropertyOp30
 70
     1
102
RTVSPropertyOp31
 70
     1
102
RTVSPropertyOp32
 70
     1
102
RTVSPropertyOp33
 70
     1
102
RTVSPropertyOp34
 70
     1
102
RTVSPropertyOp35
 70
     1
102
RTVSPropertyOp36
 70
     1
102
RTVSPropertyOp37
 70
     1
102
RTVSPropertyOp38
 70
     1
102
RTVSPropertyOp39
 70
     1
102
RTVSPropertyOp40
 70
     1
102
RTVSPropertyOp41
 70
     1
102
RTVSPropertyOp42
 70
     1
102
RTVSPropertyOp43
 70
     1
102
RTVSPropertyOp44
 70
     1
102
RTVSPropertyOp45
 70
     1
102
RTVSPropertyOp46
 70
     1
102
RTVSPropertyOp47
 70
     1
102
RTVSPropertyOp48
 70
     1
102
RTVSPropertyOp49
 70
     1
102
RTVSPropertyOp50
 70
     1
102
RTVSPropertyOp51
 70
     0
102
RTVSPropertyOp52
 70
     0
102
RTVSPropertyOp53
 70
     1
102
RTVSPropertyOp54
 70
     1
102
RTVSPropertyOp55
 70
     1
102
RTVSPropertyOp56
 70
     1
102
RTVSPropertyOp57
 70
     1
102
RTVSPropertyOp58
 70
     1
102
RTVSPropertyOp59
 70
     1
102
RTVSPropertyOp60
 70
     1
102
RTVSPropertyOp61
 70
     1
102
RTVSPropertyOp62
 70
     1
  0
XRECORD
  5
434
102
{ACAD_REACTORS
330
433
102
}
330
433
100
AcDbXrecord
280
     1
102
RTVSPost2010Prop28
280
     0
102
RTVSPost2010PropOp28
 70
     1
102
RTVSPost2010Prop29
280
     1
102
RTVSPost2010PropOp29
 70
     1
102
RTVSPost2010Prop30
280
     1
102
RTVSPost2010PropOp30
 70
     1
102
RTVSPost2010Prop31
280
     0
102
RTVSPost2010PropOp31
 70
     1
102
RTVSPost2010Prop32
280
     0
102
RTVSPost2010PropOp32
 70
     1
102
RTVSPost2010Prop33
280
     0
102
RTVSPost2010PropOp33
 70
     1
102
RTVSPost2010Prop34
280
     0
102
RTVSPost2010PropOp34
 70
     1
102
RTVSPost2010Prop35
280
     0
102
RTVSPost2010PropOp35
 70
     1
102
RTVSPost2010Prop36
280
     0
102
RTVSPost2010PropOp36
 70
     1
102
RTVSPost2010Prop37
 90
       50
102
RTVSPost2010PropOp37
 70
     1
102
RTVSPost2010Prop38
140
0.0
102
RTVSPost2010PropOp38
 70
     1
102
RTVSPost2010Prop39
140
1.0
102
RTVSPost2010PropOp39
 70
     1
102
RTVSPost2010Prop40
 90
        0
102
RTVSPost2010PropOp40
 70
     1
102
RTVSPost2010Prop41ColorIndex
 90
       18
102
RTVSPost2010Prop41ColorRGB
 90
        0
102
RTVSPost2010PropOp41
 70
     1
102
RTVSPost2010Prop42
 90
       50
102
RTVSPost2010PropOp42
 70
     1
102
RTVSPost2010Prop43
 90
        3
102
RTVSPost2010PropOp43
 70
     1
102
RTVSPost2010Prop44ColorIndex
 90
        5
102
RTVSPost2010Prop44ColorRGB
 90
      255
102
RTVSPost2010PropOp44
 70
     1
102
RTVSPost2010Prop45
280
     0
102
RTVSPost2010PropOp45
 70
     1
102
RTVSPost2010Prop46
 90
       50
102
RTVSPost2010PropOp46
 70
     1
102
RTVSPost2010Prop47
 90
       50
102
RTVSPost2010PropOp47
 70
     1
102
RTVSPost2010Prop48
 90
       50
102
RTVSPost2010PropOp48
 70
     1
102
RTVSPost2010Prop49
280
     0
102
RTVSPost2010PropOp49
 70
     1
102
RTVSPost2010Prop50
 90
       50
102
RTVSPost2010PropOp50
 70
     1
102
RTVSPost2010Prop51ColorIndex
 90
      256
102
RTVSPost2010Prop51ColorRGB
 90
-16777216
102
RTVSPost2010PropOp51
 70
     0
102
RTVSPost2010Prop52
140
1.0
102
RTVSPost2010PropOp52
 70
     0
102
RTVSPost2010Prop53
 90
        2
102
RTVSPost2010PropOp53
 70
     1
102
RTVSPost2010Prop54
  1
strokes_ogs.tif
102
RTVSPost2010PropOp54
 70
     1
102
RTVSPost2010Prop55
280
     0
102
RTVSPost2010PropOp55
 70
     1
102
RTVSPost2010Prop56
140
1.0
102
RTVSPost2010PropOp56
 70
     1
102
RTVSPost2010Prop57
140
1.0
102
RTVSPost2010PropOp57
 70
     1
102
RTVSPropertyOp0
 70
     1
102
RTVSPropertyOp1
 70
     1
102
RTVSPropertyOp2
 70
     1
102
RTVSPropertyOp3
 70
     1
102
RTVSPropertyOp4
 70
     1
102
RTVSPropertyOp5
 70
     1
102
RTVSPropertyOp6
 70
     1
102
RTVSPropertyOp7
 70
     1
102
RTVSPropertyOp8
 70
     1
102
RTVSPropertyOp9
 70
     1
102
RTVSPropertyOp10
 70
     1
102
RTVSPropertyOp11
 70
     1
102
RTVSPropertyOp12
 70
     1
102
RTVSPropertyOp13
 70
     1
102
RTVSPropertyOp14
 70
     1
102
RTVSPropertyOp15
 70
     1
102
RTVSPropertyOp16
 70
     1
102
RTVSPropertyOp17
 70
     1
102
RTVSPropertyOp18
 70
     1
102
RTVSPropertyOp19
 70
     1
102
RTVSPropertyOp20
 70
     1
102
RTVSPropertyOp21
 70
     1
102
RTVSPropertyOp22
 70
     1
102
RTVSPropertyOp23
 70
     1
102
RTVSPropertyOp24
 70
     1
102
RTVSPropertyOp25
 70
     1
102
RTVSPropertyOp26
 70
     1
102
RTVSPropertyOp27
 70
     1
102
RTVSPropertyOp28
 70
     1
102
RTVSPropertyOp29
 70
     1
102
RTVSPropertyOp30
 70
     1
102
RTVSPropertyOp31
 70
     1
102
RTVSPropertyOp32
 70
     1
102
RTVSPropertyOp33
 70
     1
102
RTVSPropertyOp34
 70
     1
102
RTVSPropertyOp35
 70
     1
102
RTVSPropertyOp36
 70
     1
102
RTVSPropertyOp37
 70
     1
102
RTVSPropertyOp38
 70
     1
102
RTVSPropertyOp39
 70
     1
102
RTVSPropertyOp40
 70
     1
102
RTVSPropertyOp41
 70
     1
102
RTVSPropertyOp42
 70
     1
102
RTVSPropertyOp43
 70
     1
102
RTVSPropertyOp44
 70
     1
102
RTVSPropertyOp45
 70
     1
102
RTVSPropertyOp46
 70
     1
102
RTVSPropertyOp47
 70
     1
102
RTVSPropertyOp48
 70
     1
102
RTVSPropertyOp49
 70
     1
102
RTVSPropertyOp50
 70
     1
102
RTVSPropertyOp51
 70
     0
102
RTVSPropertyOp52
 70
     0
102
RTVSPropertyOp53
 70
     1
102
RTVSPropertyOp54
 70
     1
102
RTVSPropertyOp55
 70
     1
102
RTVSPropertyOp56
 70
     1
102
RTVSPropertyOp57
 70
     1
102
RTVSPropertyOp58
 70
     1
102
RTVSPropertyOp59
 70
     1
102
RTVSPropertyOp60
 70
     1
102
RTVSPropertyOp61
 70
     1
102
RTVSPropertyOp62
 70
     1
  0
XRECORD
  5
454
102
{ACAD_REACTORS
330
453
102
}
330
453
100
AcDbXrecord
280
     1
102
RTVSPost2010Prop28
280
     0
102
RTVSPost2010PropOp28
 70
     1
102
RTVSPost2010Prop29
280
     1
102
RTVSPost2010PropOp29
 70
     1
102
RTVSPost2010Prop30
280
     1
102
RTVSPost2010PropOp30
 70
     1
102
RTVSPost2010Prop31
280
     0
102
RTVSPost2010PropOp31
 70
     1
102
RTVSPost2010Prop32
280
     0
102
RTVSPost2010PropOp32
 70
     1
102
RTVSPost2010Prop33
280
     0
102
RTVSPost2010PropOp33
 70
     1
102
RTVSPost2010Prop34
280
     0
102
RTVSPost2010PropOp34
 70
     1
102
RTVSPost2010Prop35
280
     0
102
RTVSPost2010PropOp35
 70
     1
102
RTVSPost2010Prop36
280
     0
102
RTVSPost2010PropOp36
 70
     1
102
RTVSPost2010Prop37
 90
       50
102
RTVSPost2010PropOp37
 70
     1
102
RTVSPost2010Prop38
140
0.0
102
RTVSPost2010PropOp38
 70
     1
102
RTVSPost2010Prop39
140
1.0
102
RTVSPost2010PropOp39
 70
     1
102
RTVSPost2010Prop40
 90
        0
102
RTVSPost2010PropOp40
 70
     1
102
RTVSPost2010Prop41ColorIndex
 90
       18
102
RTVSPost2010Prop41ColorRGB
 90
        0
102
RTVSPost2010PropOp41
 70
     1
102
RTVSPost2010Prop42
 90
       50
102
RTVSPost2010PropOp42
 70
     1
102
RTVSPost2010Prop43
 90
        3
102
RTVSPost2010PropOp43
 70
     1
102
RTVSPost2010Prop44ColorIndex
 90
        5
102
RTVSPost2010Prop44ColorRGB
 90
      255
102
RTVSPost2010PropOp44
 70
     1
102
RTVSPost2010Prop45
280
     0
102
RTVSPost2010PropOp45
 70
     1
102
RTVSPost2010Prop46
 90
       50
102
RTVSPost2010PropOp46
 70
     1
102
RTVSPost2010Prop47
 90
       50
102
RTVSPost2010PropOp47
 70
     1
102
RTVSPost2010Prop48
 90
       50
102
RTVSPost2010PropOp48
 70
     1
102
RTVSPost2010Prop49
280
     0
102
RTVSPost2010PropOp49
 70
     1
102
RTVSPost2010Prop50
 90
       50
102
RTVSPost2010PropOp50
 70
     1
102
RTVSPost2010Prop51ColorIndex
 90
      256
102
RTVSPost2010Prop51ColorRGB
 90
-16777216
102
RTVSPost2010PropOp51
 70
     0
102
RTVSPost2010Prop52
140
1.0
102
RTVSPost2010PropOp52
 70
     0
102
RTVSPost2010Prop53
 90
        2
102
RTVSPost2010PropOp53
 70
     1
102
RTVSPost2010Prop54
  1
strokes_ogs.tif
102
RTVSPost2010PropOp54
 70
     1
102
RTVSPost2010Prop55
280
     0
102
RTVSPost2010PropOp55
 70
     1
102
RTVSPost2010Prop56
140
1.0
102
RTVSPost2010PropOp56
 70
     1
102
RTVSPost2010Prop57
140
1.0
102
RTVSPost2010PropOp57
 70
     1
102
RTVSPropertyOp0
 70
     1
102
RTVSPropertyOp1
 70
     1
102
RTVSPropertyOp2
 70
     1
102
RTVSPropertyOp3
 70
     1
102
RTVSPropertyOp4
 70
     1
102
RTVSPropertyOp5
 70
     1
102
RTVSPropertyOp6
 70
     1
102
RTVSPropertyOp7
 70
     1
102
RTVSPropertyOp8
 70
     1
102
RTVSPropertyOp9
 70
     1
102
RTVSPropertyOp10
 70
     1
102
RTVSPropertyOp11
 70
     1
102
RTVSPropertyOp12
 70
     1
102
RTVSPropertyOp13
 70
     1
102
RTVSPropertyOp14
 70
     1
102
RTVSPropertyOp15
 70
     1
102
RTVSPropertyOp16
 70
     1
102
RTVSPropertyOp17
 70
     1
102
RTVSPropertyOp18
 70
     1
102
RTVSPropertyOp19
 70
     1
102
RTVSPropertyOp20
 70
     1
102
RTVSPropertyOp21
 70
     1
102
RTVSPropertyOp22
 70
     1
102
RTVSPropertyOp23
 70
     1
102
RTVSPropertyOp24
 70
     1
102
RTVSPropertyOp25
 70
     1
102
RTVSPropertyOp26
 70
     1
102
RTVSPropertyOp27
 70
     1
102
RTVSPropertyOp28
 70
     1
102
RTVSPropertyOp29
 70
     1
102
RTVSPropertyOp30
 70
     1
102
RTVSPropertyOp31
 70
     1
102
RTVSPropertyOp32
 70
     1
102
RTVSPropertyOp33
 70
     1
102
RTVSPropertyOp34
 70
     1
102
RTVSPropertyOp35
 70
     1
102
RTVSPropertyOp36
 70
     1
102
RTVSPropertyOp37
 70
     1
102
RTVSPropertyOp38
 70
     1
102
RTVSPropertyOp39
 70
     1
102
RTVSPropertyOp40
 70
     1
102
RTVSPropertyOp41
 70
     1
102
RTVSPropertyOp42
 70
     1
102
RTVSPropertyOp43
 70
     1
102
RTVSPropertyOp44
 70
     1
102
RTVSPropertyOp45
 70
     1
102
RTVSPropertyOp46
 70
     1
102
RTVSPropertyOp47
 70
     1
102
RTVSPropertyOp48
 70
     1
102
RTVSPropertyOp49
 70
     1
102
RTVSPropertyOp50
 70
     1
102
RTVSPropertyOp51
 70
     0
102
RTVSPropertyOp52
 70
     0
102
RTVSPropertyOp53
 70
     1
102
RTVSPropertyOp54
 70
     1
102
RTVSPropertyOp55
 70
     1
102
RTVSPropertyOp56
 70
     1
102
RTVSPropertyOp57
 70
     1
102
RTVSPropertyOp58
 70
     1
102
RTVSPropertyOp59
 70
     1
102
RTVSPropertyOp60
 70
     1
102
RTVSPropertyOp61
 70
     1
102
RTVSPropertyOp62
 70
     1
  0
ENDSEC
  0
EOF
