  0
SECTION
  2
HEADER
  9
$ACADVER
  1
AC1018
  9
$ACADMAINTVER
 70
   104
  9
$DWGCODEPAGE
  3
ANSI_1250
  9
$LASTSAVEDBY
  1
hm1535
  9
$INSBASE
 10
0.0
 20
0.0
 30
0.0
  9
$EXTMIN
 10
108.791847
 20
156.342396
 30
0.0
  9
$EXTMAX
 10
304.179269
 20
228.3146070000003
 30
0.0
  9
$LIMMIN
 10
-0.5
 20
-0.5
  9
$LIMMAX
 10
5.0
 20
5.0
  9
$ORTHOMODE
 70
     0
  9
$REGENMODE
 70
     1
  9
$FILLMODE
 70
     1
  9
$QTEXTMODE
 70
     0
  9
$MIRRTEXT
 70
     1
  9
$LTSCALE
 40
1.0
  9
$ATTMODE
 70
     1
  9
$TEXTSIZE
 40
0.2
  9
$TRACEWID
 40
0.05
  9
$TEXTSTYLE
  7
Standard
  9
$CLAYER
  8
0
  9
$CELTYPE
  6
ByLayer
  9
$CECOLOR
 62
   256
  9
$CELTSCALE
 40
1.0
  9
$DISPSILH
 70
     0
  9
$DIMSCALE
 40
1.0
  9
$DIMASZ
 40
0.18
  9
$DIMEXO
 40
0.0625
  9
$DIMDLI
 40
0.38
  9
$DIMRND
 40
0.0
  9
$DIMDLE
 40
0.0
  9
$DIMEXE
 40
0.18
  9
$DIMTP
 40
0.0
  9
$DIMTM
 40
0.0
  9
$DIMTXT
 40
0.18
  9
$DIMCEN
 40
0.09
  9
$DIMTSZ
 40
0.0
  9
$DIMTOL
 70
     0
  9
$DIMLIM
 70
     0
  9
$DIMTIH
 70
     1
  9
$DIMTOH
 70
     1
  9
$DIMSE1
 70
     0
  9
$DIMSE2
 70
     0
  9
$DIMTAD
 70
     0
  9
$DIMZIN
 70
     0
  9
$DIMBLK
  1

  9
$DIMASO
 70
     1
  9
$DIMSHO
 70
     1
  9
$DIMPOST
  1

  9
$DIMAPOST
  1

  9
$DIMALT
 70
     0
  9
$DIMALTD
 70
     2
  9
$DIMALTF
 40
25.4
  9
$DIMLFAC
 40
1.0
  9
$DIMTOFL
 70
     0
  9
$DIMTVP
 40
0.0
  9
$DIMTIX
 70
     0
  9
$DIMSOXD
 70
     0
  9
$DIMSAH
 70
     0
  9
$DIMBLK1
  1

  9
$DIMBLK2
  1

  9
$DIMSTYLE
  2
Standard
  9
$DIMCLRD
 70
     0
  9
$DIMCLRE
 70
     0
  9
$DIMCLRT
 70
     0
  9
$DIMTFAC
 40
1.0
  9
$DIMGAP
 40
0.09
  9
$DIMJUST
 70
     0
  9
$DIMSD1
 70
     0
  9
$DIMSD2
 70
     0
  9
$DIMTOLJ
 70
     1
  9
$DIMTZIN
 70
     0
  9
$DIMALTZ
 70
     0
  9
$DIMALTTZ
 70
     0
  9
$DIMUPT
 70
     0
  9
$DIMDEC
 70
     4
  9
$DIMTDEC
 70
     4
  9
$DIMALTU
 70
     2
  9
$DIMALTTD
 70
     2
  9
$DIMTXSTY
  7
Standard
  9
$DIMAUNIT
 70
     0
  9
$DIMADEC
 70
     0
  9
$DIMALTRND
 40
0.0
  9
$DIMAZIN
 70
     0
  9
$DIMDSEP
 70
    46
  9
$DIMATFIT
 70
     3
  9
$DIMFRAC
 70
     0
  9
$DIMLDRBLK
  1

  9
$DIMLUNIT
 70
     2
  9
$DIMLWD
 70
    -2
  9
$DIMLWE
 70
    -2
  9
$DIMTMOVE
 70
     0
  9
$LUNITS
 70
     2
  9
$LUPREC
 70
     2
  9
$SKETCHINC
 40
0.1
  9
$FILLETRAD
 40
0.5
  9
$AUNITS
 70
     0
  9
$AUPREC
 70
     0
  9
$MENU
  1
.
  9
$ELEVATION
 40
0.0
  9
$PELEVATION
 40
0.0
  9
$THICKNESS
 40
0.0
  9
$LIMCHECK
 70
     0
  9
$CHAMFERA
 40
0.0
  9
$CHAMFERB
 40
0.0
  9
$CHAMFERC
 40
0.0
  9
$CHAMFERD
 40
0.0
  9
$SKPOLY
 70
     0
  9
$TDCREATE
 40
2458912.312951389
  9
$TDUCREATE
 40
2458912.271290602
  9
$TDUPDATE
 40
2458912.315798611
  9
$TDUUPDATE
 40
2458912.274131944
  9
$TDINDWG
 40
0.0005324190
  9
$TDUSRTIMER
 40
0.0005324190
  9
$USRTIMER
 70
     1
  9
$ANGBASE
 50
0.0
  9
$ANGDIR
 70
     0
  9
$PDMODE
 70
     0
  9
$PDSIZE
 40
0.0
  9
$PLINEWID
 40
0.0
  9
$SPLFRAME
 70
     0
  9
$SPLINETYPE
 70
     6
  9
$SPLINESEGS
 70
     8
  9
$HANDSEED
  5
3CA
  9
$SURFTAB1
 70
     6
  9
$SURFTAB2
 70
     6
  9
$SURFTYPE
 70
     6
  9
$SURFU
 70
     6
  9
$SURFV
 70
     6
  9
$UCSBASE
  2

  9
$UCSNAME
  2

  9
$UCSORG
 10
157.990059
 20
179.699056
 30
0.0
  9
$UCSXDIR
 10
1.0
 20
0.0
 30
0.0
  9
$UCSYDIR
 10
0.0
 20
1.0
 30
0.0
  9
$UCSORTHOREF
  2

  9
$UCSORTHOVIEW
 70
     0
  9
$UCSORGTOP
 10
0.0
 20
0.0
 30
0.0
  9
$UCSORGBOTTOM
 10
0.0
 20
0.0
 30
0.0
  9
$UCSORGLEFT
 10
0.0
 20
0.0
 30
0.0
  9
$UCSORGRIGHT
 10
0.0
 20
0.0
 30
0.0
  9
$UCSORGFRONT
 10
0.0
 20
0.0
 30
0.0
  9
$UCSORGBACK
 10
0.0
 20
0.0
 30
0.0
  9
$PUCSBASE
  2

  9
$PUCSNAME
  2

  9
$PUCSORG
 10
0.0
 20
0.0
 30
0.0
  9
$PUCSXDIR
 10
1.0
 20
0.0
 30
0.0
  9
$PUCSYDIR
 10
0.0
 20
1.0
 30
0.0
  9
$PUCSORTHOREF
  2

  9
$PUCSORTHOVIEW
 70
     0
  9
$PUCSORGTOP
 10
0.0
 20
0.0
 30
0.0
  9
$PUCSORGBOTTOM
 10
0.0
 20
0.0
 30
0.0
  9
$PUCSORGLEFT
 10
0.0
 20
0.0
 30
0.0
  9
$PUCSORGRIGHT
 10
0.0
 20
0.0
 30
0.0
  9
$PUCSORGFRONT
 10
0.0
 20
0.0
 30
0.0
  9
$PUCSORGBACK
 10
0.0
 20
0.0
 30
0.0
  9
$USERI1
 70
     0
  9
$USERI2
 70
     0
  9
$USERI3
 70
     0
  9
$USERI4
 70
     0
  9
$USERI5
 70
     0
  9
$USERR1
 40
0.0
  9
$USERR2
 40
0.0
  9
$USERR3
 40
0.0
  9
$USERR4
 40
0.0
  9
$USERR5
 40
0.0
  9
$WORLDVIEW
 70
     1
  9
$SHADEDGE
 70
     3
  9
$SHADEDIF
 70
    70
  9
$TILEMODE
 70
     1
  9
$MAXACTVP
 70
    64
  9
$PINSBASE
 10
0.0
 20
0.0
 30
0.0
  9
$PLIMCHECK
 70
     0
  9
$PEXTMIN
 10
-0.5
 20
-0.5
 30
-0.5
  9
$PEXTMAX
 10
5.0
 20
5.0
 30
5.0
  9
$PLIMMIN
 10
-0.5
 20
-0.5
  9
$PLIMMAX
 10
5.0
 20
5.0
  9
$UNITMODE
 70
     0
  9
$VISRETAIN
 70
     1
  9
$PLINEGEN
 70
     0
  9
$PSLTSCALE
 70
     1
  9
$TREEDEPTH
 70
  3020
  9
$CMLSTYLE
  2
Standard
  9
$CMLJUST
 70
     0
  9
$CMLSCALE
 40
1.0
  9
$PROXYGRAPHICS
 70
     1
  9
$MEASUREMENT
 70
     1
  9
$CELWEIGHT
370
    13
  9
$ENDCAPS
280
     0
  9
$JOINSTYLE
280
     0
  9
$LWDISPLAY
290
     0
  9
$INSUNITS
 70
     4
  9
$HYPERLINKBASE
  1

  9
$STYLESHEET
  1

  9
$XEDIT
290
     1
  9
$CEPSNTYPE
380
     0
  9
$PSTYLEMODE
290
     1
  9
$FINGERPRINTGUID
  2
{31BD242C-0586-4A6A-87A3-AAEDDD48F1AD}
  9
$VERSIONGUID
  2
{224E3580-AA2E-C34F-BF50-CB9C651E32EA}
  9
$EXTNAMES
290
     1
  9
$PSVPSCALE
 40
0.0
  9
$OLESTARTUP
290
     0
  9
$SORTENTS
280
   127
  9
$INDEXCTL
280
     0
  9
$HIDETEXT
280
     1
  9
$XCLIPFRAME
290
     0
  9
$HALOGAP
280
     0
  9
$OBSCOLOR
 70
   257
  9
$OBSLTYPE
280
     0
  9
$INTERSECTIONDISPLAY
280
     0
  9
$INTERSECTIONCOLOR
 70
   257
  9
$DIMASSOC
280
     2
  9
$PROJECTNAME
  1

  0
ENDSEC
  0
SECTION
  2
CLASSES
  0
CLASS
  1
ACDBDICTIONARYWDFLT
  2
AcDbDictionaryWithDefault
  3
ObjectDBX Classes
 90
        0
 91
        1
280
     0
281
     0
  0
CLASS
  1
VISUALSTYLE
  2
AcDbVisualStyle
  3
ObjectDBX Classes
 90
     4095
 91
       24
280
     0
281
     0
  0
CLASS
  1
MATERIAL
  2
AcDbMaterial
  3
ObjectDBX Classes
 90
     1153
 91
        3
280
     0
281
     0
  0
CLASS
  1
SCALE
  2
AcDbScale
  3
ObjectDBX Classes
 90
     1153
 91
       33
280
     0
281
     0
  0
CLASS
  1
TABLESTYLE
  2
AcDbTableStyle
  3
ObjectDBX Classes
 90
     4095
 91
        1
280
     0
281
     0
  0
CLASS
  1
MLEADERSTYLE
  2
AcDbMLeaderStyle
  3
ACDB_MLEADERSTYLE_CLASS
 90
     4095
 91
        1
280
     0
281
     0
  0
CLASS
  1
SUN
  2
AcDbSun
  3
SCENEOE
 90
     1153
 91
        0
280
     0
281
     0
  0
CLASS
  1
DIMASSOC
  2
AcDbDimAssoc
  3
"AcDbDimAssoc|Product Desc:     AcDim ARX App For Dimension|Company:          Autodesk, Inc.|WEB Address:      www.autodesk.com"
 90
        0
 91
        5
280
     0
281
     0
  0
CLASS
  1
DICTIONARYVAR
  2
AcDbDictionaryVar
  3
ObjectDBX Classes
 90
        0
 91
        8
280
     0
281
     0
  0
CLASS
  1
CELLSTYLEMAP
  2
AcDbCellStyleMap
  3
ObjectDBX Classes
 90
     1152
 91
        2
280
     0
281
     0
  0
CLASS
  1
ACDBSECTIONVIEWSTYLE
  2
AcDbSectionViewStyle
  3
ObjectDBX Classes
 90
     1025
 91
        2
280
     0
281
     0
  0
CLASS
  1
ACDBDETAILVIEWSTYLE
  2
AcDbDetailViewStyle
  3
ObjectDBX Classes
 90
     1025
 91
        2
280
     0
281
     0
  0
CLASS
  1
ACME_DOCUMENT
  2
AcMeDbDoc
  3
AcMeServices
 90
     1024
 91
        1
280
     0
281
     0
  0
CLASS
  1
ACMESCOPE
  2
AcMeScope
  3
AcMeServices
 90
     1024
 91
        1
280
     0
281
     0
  0
CLASS
  1
ACMECOMMANDHISTORY
  2
AcMeCommandHistory
  3
AcMeServices
 90
     1024
 91
        1
280
     0
281
     0
  0
CLASS
  1
ACIMSYSVARMAN
  2
AcImSysVarManager
  3
AcMeServices
 90
     1024
 91
        3
280
     0
281
     0
  0
CLASS
  1
ACIMINTSYSVAR
  2
AcImIntSysVar
  3
AcMeServices
 90
     1024
 91
        2
280
     0
281
     0
  0
CLASS
  1
ACMESTATEMGR
  2
AcMeStateMgr
  3
AcMeServices
 90
     1024
 91
        1
280
     0
281
     0
  0
CLASS
  1
ACDBENTITYCACHE
  2
AcMeEntityCache
  3
AcMeServices
 90
     1024
 91
        1
280
     0
281
     0
  0
CLASS
  1
ACGREFMASTER
  2
AcGrefMaster
  3
AcAttribServices
 90
     1024
 91
        1
280
     0
281
     0
  0
CLASS
  1
ACME_DATABASE
  2
AcMeDbDatabase
  3
AcMeServices
 90
     1024
 91
        1
280
     0
281
     0
  0
CLASS
  1
ACRFINSADJUSTERMGR
  2
AcRfInsAdjusterMgr
  3
AcMeServices
 90
     1024
 91
        1
280
     0
281
     0
  0
CLASS
  1
ACGREFACADMASTER
  2
AcGrefacadMaster
  3
AcGrefServices
 90
     1024
 91
        1
280
     0
281
     0
  0
CLASS
  1
AMIMASTER
  2
AmiMaster
  3
AmiServices
 90
     1024
 91
        1
280
     0
281
     0
  0
CLASS
  1
AMGSETTINGSOBJ
  2
AmgSettingsObj
  3
"AcadM|Product Description: AutoCAD Mechanical|Company: Autodesk, Inc."
 90
     1024
 91
        2
280
     0
281
     0
  0
CLASS
  1
AMDTMENUSTATEMGR
  2
AmdtMenuStateMgr
  3
McadcomServices
 90
     1024
 91
        1
280
     0
281
     0
  0
CLASS
  1
AMDTMCOMMENUSTATE
  2
AmdtMcomMenuState
  3
McadcomServices
 90
     1024
 91
        1
280
     0
281
     0
  0
CLASS
  1
MAPIAMMOUDLE
  2
MApiAmModule
  3
MApiAmServices
 90
     1024
 91
        1
280
     0
281
     0
  0
CLASS
  1
ACIMSTRSYSVAR
  2
AcImStrSysVar
  3
AcMeServices
 90
     1024
 91
        5
280
     0
281
     0
  0
CLASS
  1
AMDTAMMENUSTATE
  2
AmdtAmMenuState
  3
DesignerAssemblies_arx
 90
     1024
 91
        1
280
     0
281
     0
  0
CLASS
  1
ACAMPROJECT
  2
AcAmProject
  3
DesignerAssemblies
 90
     1024
 91
        1
280
     0
281
     0
  0
CLASS
  1
ACAMGRCOMPDEF
  2
AcAmGrCompDef
  3
DesignerAssemblies
 90
     1024
 91
        1
280
     0
281
     0
  0
CLASS
  1
ACAMCOMPDEF
  2
AcAmCompDef
  3
DesignerAssemblies
 90
     1024
 91
        1
280
     0
281
     0
  0
CLASS
  1
ACAMCOMPDEFMGR
  2
AcAmCompDefMgr
  3
DesignerAssemblies
 90
     1024
 91
        1
280
     0
281
     0
  0
CLASS
  1
AMCONTEXTMGR
  2
AcAmContextMgr
  3
DesignerAssemblies
 90
     1024
 91
        1
280
     0
281
     0
  0
CLASS
  1
ACAMCONTEXTMODELER
  2
AcAmContextModeler
  3
DesignerAssemblies
 90
     1024
 91
        1
280
     0
281
     0
  0
CLASS
  1
ACMDATADICTIONARY
  2
AcmDataDictionary
  3
"AcmSymBB|Product Description: AutoCAD Mechanical|Company: Autodesk, Inc."
 90
     1024
 91
        1
280
     0
281
     0
  0
CLASS
  1
ACAMGRCOMPDEFSET
  2
AcAmGrCompDefSet
  3
DesignerAssemblies
 90
     1024
 91
        1
280
     0
281
     0
  0
CLASS
  1
AMDTBROWSERDBTAB
  2
AmdtBrowserDbTab
  3
McadcomServices
 90
     1024
 91
        1
280
     0
281
     0
  0
CLASS
  1
CBROWSERAPPOBJECT
  2
CBrowserAppObject
  3
McadcomServices
 90
     1024
 91
        2
280
     0
281
     0
  0
CLASS
  1
DM_PLACEHOLDER
  2
AcDmSelsetPlaceholder
  3
McadcomServices
 90
     1024
 91
        1
280
     0
281
     0
  0
CLASS
  1
ACMSTANDARDISO
  2
AcmStandardISO
  3
"Amdt_StdImp|Product Description: AutoCAD Mechanical|Company: Autodesk, Inc."
 90
     1024
 91
        1
280
     0
281
     0
  0
CLASS
  1
AMDTEDGESTANDARDISO13715
  2
AmdtEdgeStdISO13715
  3
"Amdt_StdImp|Product Description: AutoCAD Mechanical|Company: Autodesk, Inc."
 90
     1024
 91
        1
280
     0
281
     0
  0
CLASS
  1
ACMSURFSTANDARDISO2002
  2
AcmSurfTextStdISO2002
  3
"Amdt_StdImp|Product Description: AutoCAD Mechanical|Company: Autodesk, Inc."
 90
     1024
 91
        1
280
     0
281
     0
  0
CLASS
  1
ACMFCFSTANDARDISO2012
  2
AcmFCFStdISO2012
  3
"Amdt_StdImp|Product Description: AutoCAD Mechanical|Company: Autodesk, Inc."
 90
     1024
 91
        1
280
     0
281
     0
  0
CLASS
  1
ACMWELDSTANDARDISO
  2
AcmWeldingStdISO
  3
"Amdt_StdImp|Product Description: AutoCAD Mechanical|Company: Autodesk, Inc."
 90
     1024
 91
        1
280
     0
281
     0
  0
CLASS
  1
ACMIDSTANDARDISO2012
  2
AcmIdStdISO2012
  3
"Amdt_StdImp|Product Description: AutoCAD Mechanical|Company: Autodesk, Inc."
 90
     1024
 91
        1
280
     0
281
     0
  0
CLASS
  1
ACMDATUMSTANDARDISO2012
  2
AcmDatumStdISO2012
  3
"Amdt_StdImp|Product Description: AutoCAD Mechanical|Company: Autodesk, Inc."
 90
     1024
 91
        1
280
     0
281
     0
  0
CLASS
  1
ACMBOMSTANDARDISO
  2
AcmBOMStdISO
  3
"Amdt_StdImp|Product Description: AutoCAD Mechanical|Company: Autodesk, Inc."
 90
     1024
 91
        1
280
     0
281
     0
  0
CLASS
  1
ACMDETAILSTANDARDISO
  2
AmdtDetailSymStdISO
  3
"Amdt_StdImp|Product Description: AutoCAD Mechanical|Company: Autodesk, Inc."
 90
     1024
 91
        1
280
     0
281
     0
  0
CLASS
  1
ACMSECTIONSTANDARDISO2001
  2
AmdtSectionSymStdISO2001
  3
"Amdt_StdImp|Product Description: AutoCAD Mechanical|Company: Autodesk, Inc."
 90
     1024
 91
        1
280
     0
281
     0
  0
CLASS
  1
ACMCENTERLINESTANDARDISO
  2
AmdtCenterLineStdISO
  3
"Amdt_StdImp|Product Description: AutoCAD Mechanical|Company: Autodesk, Inc."
 90
     1024
 91
        1
280
     0
281
     0
  0
CLASS
  1
ACMTHREADLINESTANDARDISO
  2
AmdtThreadLineStdISO
  3
"Amdt_StdImp|Product Description: AutoCAD Mechanical|Company: Autodesk, Inc."
 90
     1024
 91
        1
280
     0
281
     0
  0
CLASS
  1
ACMNOTESTANDARDISO
  2
AmdtNoteStdISO
  3
"Amdt_StdImp|Product Description: AutoCAD Mechanical|Company: Autodesk, Inc."
 90
     1024
 91
        1
280
     0
281
     0
  0
CLASS
  1
ACMTAPERSTANDARDISO
  2
AcmTaperStdISO
  3
"Amdt_StdImp|Product Description: AutoCAD Mechanical|Company: Autodesk, Inc."
 90
     1024
 91
        1
280
     0
281
     0
  0
CLASS
  1
ACMANOOTATIONVIEWSTANDARDISO
  2
AmdtAnViewStdISO
  3
"Amdt_StdImp|Product Description: AutoCAD Mechanical|Company: Autodesk, Inc."
 90
     1024
 91
        1
280
     0
281
     0
  0
CLASS
  1
ACAMGLAYSTD
  2
AcAmgLayStd
  3
"AmgLay|Product Description: AutoCAD Mechanical|Company: Autodesk, Inc."
 90
     1024
 91
        1
280
     0
281
     0
  0
CLASS
  1
ACAMGTITLESTD
  2
AcAmgTitleStd
  3
"AmgTitle|Product Description: AutoCAD Mechanical|Company: Autodesk, Inc."
 90
     1024
 91
        1
280
     0
281
     0
  0
CLASS
  1
ACAMGDIMSTD
  2
AcAmgDimStd
  3
"AmgDim|Product Description: AutoCAD Mechanical|Company: Autodesk, Inc."
 90
     1024
 91
        1
280
     0
281
     0
  0
CLASS
  1
AMGOBJPROPCFG
  2
AmgObjPropCfg
  3
"AmgLay|Product Description: AutoCAD Mechanical|Company: Autodesk, Inc."
 90
     1024
 91
        1
280
     0
281
     0
  0
CLASS
  1
ACAMGHOLECHARTSTDISO
  2
AcAmgHoleChartStdISO
  3
"AmgDim" "Product Description: AutoCAD Mechanical|Company: Autodesk, Inc."
 90
     1024
 91
        1
280
     0
281
     0
  0
CLASS
  1
ACMSECTIONSTANDARDCUSTOM
  2
AmdtSectionSymStdCustom
  3
"Amdt_StdImp|Product Description: AutoCAD Mechanical|Company: Autodesk, Inc."
 90
     1024
 91
        1
280
     0
281
     0
  0
CLASS
  1
ACMDETAILTANDARDCUSTOM
  2
AmdtDetailSymStdCustom
  3
"Amdt_StdImp|Product Description: AutoCAD Mechanical|Company: Autodesk, Inc."
 90
     1024
 91
        1
280
     0
281
     0
  0
CLASS
  1
FIELD
  2
AcDbField
  3
ObjectDBX Classes
 90
     1152
 91
        3
280
     0
281
     0
  0
CLASS
  1
FIELDLIST
  2
AcDbFieldList
  3
ObjectDBX Classes
 90
     1152
 91
        1
280
     0
281
     0
  0
CLASS
  1
AMDTNOTETEMPLATEDB
  2
AmdtNoteTemplateDB
  3
"AcmSymBB" "Product Description: AutoCAD Mechanical|Company: Autodesk, Inc."
 90
     1024
 91
        7
280
     0
281
     0
  0
CLASS
  1
ACAMGFILTERDAT
  2
AcAmgFilterDat
  3
"AcadM|Product Description: AutoCAD Mechanical|Company: Autodesk, Inc."
 90
     1024
 91
        6
280
     0
281
     0
  0
CLASS
  1
SORTENTSTABLE
  2
AcDbSortentsTable
  3
ObjectDBX Classes
 90
        0
 91
        1
280
     0
281
     0
  0
ENDSEC
  0
SECTION
  2
TABLES
  0
TABLE
  2
VPORT
  5
8
330
0
100
AcDbSymbolTable
 70
    16
  0
VPORT
  5
29
330
8
100
AcDbSymbolTableRecord
100
AcDbViewportTableRecord
  2
*Active
 70
     0
 10
0.0
 20
0.0
 11
1.0
 21
1.0
 12
242.9716315112033
 22
191.428810599872
 13
0.0
 23
0.0
 14
0.5
 24
0.5
 15
0.5
 25
0.5
 16
0.0
 26
0.0
 36
1.0
 17
0.0
 27
0.0
 37
0.0
 40
101.8892612448835
 41
2.499181669394435
 42
50.0
 43
298.992951
 44
-298.992951
 50
0.0
 51
0.0
 71
     0
 72
   100
 73
     1
 74
     3
 75
     0
 76
     0
 77
     0
 78
     0
281
     0
 65
     0
110
0.0
120
0.0
130
0.0
111
1.0
121
0.0
131
0.0
112
0.0
122
1.0
132
0.0
 79
     0
146
0.0
1001
ACAD_NAV_VCDISPLAY
1070
     3
  0
VPORT
  5
26C
330
8
100
AcDbSymbolTableRecord
100
AcDbViewportTableRecord
  2
L1
 70
     0
 10
0.0
 20
0.0
 11
1.0
 21
1.0
 12
205.95963
 22
192.33243
 13
0.0
 23
0.0
 14
0.5
 24
0.5
 15
0.5
 25
0.5
 16
0.0
 26
0.0
 36
1.0
 17
0.0
 27
0.0
 37
0.0
 40
207.433333
 41
0.085602
 42
50.0
 43
298.992951
 44
-298.992951
 50
0.0
 51
0.0
 71
     0
 72
   100
 73
     1
 74
     3
 75
     0
 76
     0
 77
     0
 78
     0
281
     0
 65
     1
110
0.0
120
0.0
130
0.0
111
1.0
121
0.0
131
0.0
112
0.0
122
1.0
132
0.0
 79
     0
146
0.0
  0
VPORT
  5
26D
330
8
100
AcDbSymbolTableRecord
100
AcDbViewportTableRecord
  2
L2
 70
     0
 10
0.0
 20
0.0
 11
0.5
 21
1.0
 12
0.0
 22
0.0
 13
0.0
 23
0.0
 14
0.5
 24
0.5
 15
0.5
 25
0.5
 16
0.0
 26
-1.0
 36
0.0
 17
0.0
 27
0.0
 37
0.0
 40
1478.660809
 41
0.012009
 42
50.0
 43
765.39502
 44
-765.39502
 50
0.0
 51
0.0
 71
     0
 72
   100
 73
     1
 74
     3
 75
     0
 76
     0
 77
     0
 78
     0
281
     0
 65
     1
110
0.0
120
0.0
130
0.0
111
1.0
121
0.0
131
0.0
112
0.0
122
1.0
132
0.0
 79
     0
146
0.0
  0
VPORT
  5
26E
330
8
100
AcDbSymbolTableRecord
100
AcDbViewportTableRecord
  2
L2
 70
     0
 10
0.5
 20
0.0
 11
1.0
 21
1.0
 12
0.0
 22
0.0
 13
0.0
 23
0.0
 14
0.5
 24
0.5
 15
0.5
 25
0.5
 16
1.0
 26
0.0
 36
0.0
 17
0.0
 27
0.0
 37
0.0
 40
1478.660809
 41
0.012009
 42
50.0
 43
746.5698859999999
 44
-746.5698859999999
 50
0.0
 51
0.0
 71
     0
 72
   100
 73
     1
 74
     3
 75
     0
 76
     0
 77
     0
 78
     0
281
     0
 65
     1
110
0.0
120
0.0
130
0.0
111
1.0
121
0.0
131
0.0
112
0.0
122
1.0
132
0.0
 79
     0
146
0.0
  0
VPORT
  5
26F
330
8
100
AcDbSymbolTableRecord
100
AcDbViewportTableRecord
  2
L3
 70
     0
 10
0.0
 20
0.5
 11
1.0
 21
1.0
 12
205.95963
 22
192.33243
 13
0.0
 23
0.0
 14
0.5
 24
0.5
 15
0.5
 25
0.5
 16
0.0
 26
0.0
 36
1.0
 17
0.0
 27
0.0
 37
0.0
 40
207.433333
 41
0.085602
 42
50.0
 43
298.992951
 44
-298.992951
 50
0.0
 51
0.0
 71
     0
 72
   100
 73
     1
 74
     3
 75
     0
 76
     0
 77
     0
 78
     0
281
     0
 65
     1
110
0.0
120
0.0
130
0.0
111
1.0
121
0.0
131
0.0
112
0.0
122
1.0
132
0.0
 79
     0
146
0.0
  0
VPORT
  5
270
330
8
100
AcDbSymbolTableRecord
100
AcDbViewportTableRecord
  2
L3
 70
     0
 10
0.0
 20
0.0
 11
1.0
 21
0.5
 12
0.0
 22
0.0
 13
0.0
 23
0.0
 14
0.5
 24
0.5
 15
0.5
 25
0.5
 16
0.0
 26
-1.0
 36
0.0
 17
0.0
 27
0.0
 37
0.0
 40
1478.660809
 41
0.012009
 42
50.0
 43
765.39502
 44
-765.39502
 50
0.0
 51
0.0
 71
     0
 72
   100
 73
     1
 74
     3
 75
     0
 76
     0
 77
     0
 78
     0
281
     0
 65
     1
110
0.0
120
0.0
130
0.0
111
1.0
121
0.0
131
0.0
112
0.0
122
1.0
132
0.0
 79
     0
146
0.0
  0
VPORT
  5
271
330
8
100
AcDbSymbolTableRecord
100
AcDbViewportTableRecord
  2
L4
 70
     0
 10
0.0
 20
0.5
 11
0.5
 21
1.0
 12
205.95963
 22
192.33243
 13
0.0
 23
0.0
 14
0.5
 24
0.5
 15
0.5
 25
0.5
 16
0.0
 26
0.0
 36
1.0
 17
0.0
 27
0.0
 37
0.0
 40
207.433333
 41
0.085602
 42
50.0
 43
298.992951
 44
-298.992951
 50
0.0
 51
0.0
 71
     0
 72
   100
 73
     1
 74
     3
 75
     0
 76
     0
 77
     0
 78
     0
281
     0
 65
     1
110
0.0
120
0.0
130
0.0
111
1.0
121
0.0
131
0.0
112
0.0
122
1.0
132
0.0
 79
     0
146
0.0
  0
VPORT
  5
272
330
8
100
AcDbSymbolTableRecord
100
AcDbViewportTableRecord
  2
L4
 70
     0
 10
0.0
 20
0.0
 11
0.5
 21
0.5
 12
0.0
 22
0.0
 13
0.0
 23
0.0
 14
0.5
 24
0.5
 15
0.5
 25
0.5
 16
0.0
 26
-1.0
 36
0.0
 17
0.0
 27
0.0
 37
0.0
 40
1478.660809
 41
0.012009
 42
50.0
 43
765.39502
 44
-765.39502
 50
0.0
 51
0.0
 71
     0
 72
   100
 73
     1
 74
     3
 75
     0
 76
     0
 77
     0
 78
     0
281
     0
 65
     1
110
0.0
120
0.0
130
0.0
111
1.0
121
0.0
131
0.0
112
0.0
122
1.0
132
0.0
 79
     0
146
0.0
  0
VPORT
  5
273
330
8
100
AcDbSymbolTableRecord
100
AcDbViewportTableRecord
  2
L4
 70
     0
 10
0.5
 20
0.0
 11
1.0
 21
0.5
 12
0.0
 22
0.0
 13
0.0
 23
0.0
 14
0.5
 24
0.5
 15
0.5
 25
0.5
 16
1.0
 26
0.0
 36
0.0
 17
0.0
 27
0.0
 37
0.0
 40
1478.660809
 41
0.012009
 42
50.0
 43
746.5698859999999
 44
-746.5698859999999
 50
0.0
 51
0.0
 71
     0
 72
   100
 73
     1
 74
     3
 75
     0
 76
     0
 77
     0
 78
     0
281
     0
 65
     1
110
0.0
120
0.0
130
0.0
111
1.0
121
0.0
131
0.0
112
0.0
122
1.0
132
0.0
 79
     0
146
0.0
  0
VPORT
  5
274
330
8
100
AcDbSymbolTableRecord
100
AcDbViewportTableRecord
  2
L4
 70
     0
 10
0.5
 20
0.5
 11
1.0
 21
1.0
 12
0.0
 22
0.0
 13
0.0
 23
0.0
 14
0.5
 24
0.5
 15
0.5
 25
0.5
 16
0.5773502691896259
 26
-0.5773502691896259
 36
0.5773502691896259
 17
0.0
 27
0.0
 37
0.0
 40
1453.705292
 41
0.012215
 42
50.0
 43
757.5245879999999
 44
-757.5245879999999
 50
0.0
 51
0.0
 71
     0
 72
   100
 73
     1
 74
     3
 75
     0
 76
     0
 77
     0
 78
     0
281
     0
 65
     1
110
0.0
120
0.0
130
0.0
111
1.0
121
0.0
131
0.0
112
0.0
122
1.0
132
0.0
 79
     0
146
0.0
  0
VPORT
  5
275
330
8
100
AcDbSymbolTableRecord
100
AcDbViewportTableRecord
  2
L6
 70
     0
 10
0.0
 20
0.5
 11
0.333333
 21
1.0
 12
0.0
 22
0.0
 13
0.0
 23
0.0
 14
0.5
 24
0.5
 15
0.5
 25
0.5
 16
0.7188730927569434
 26
-0.5850486126764433
 36
0.3754192287502549
 17
0.0
 27
0.0
 37
0.0
 40
1534.989881
 41
0.011568
 42
50.0
 43
794.5176169999999
 44
-794.5176169999999
 50
0.0
 51
0.0
 71
     0
 72
   100
 73
     1
 74
     3
 75
     0
 76
     0
 77
     0
 78
     0
281
     0
 65
     1
110
0.0
120
0.0
130
0.0
111
1.0
121
0.0
131
0.0
112
0.0
122
1.0
132
0.0
 79
     0
146
0.0
  0
VPORT
  5
276
330
8
100
AcDbSymbolTableRecord
100
AcDbViewportTableRecord
  2
L6
 70
     0
 10
0.0
 20
0.0
 11
0.333333
 21
0.5
 12
0.0
 22
0.0
 13
0.0
 23
0.0
 14
0.5
 24
0.5
 15
0.5
 25
0.5
 16
-1.0
 26
0.0
 36
0.0
 17
0.0
 27
0.0
 37
0.0
 40
1478.660809
 41
0.012009
 42
50.0
 43
746.5698859999999
 44
-746.5698859999999
 50
0.0
 51
0.0
 71
     0
 72
   100
 73
     1
 74
     3
 75
     0
 76
     0
 77
     0
 78
     0
281
     0
 65
     1
110
0.0
120
0.0
130
0.0
111
1.0
121
0.0
131
0.0
112
0.0
122
1.0
132
0.0
 79
     0
146
0.0
  0
VPORT
  5
277
330
8
100
AcDbSymbolTableRecord
100
AcDbViewportTableRecord
  2
L6
 70
     0
 10
0.333333
 20
0.5
 11
0.666667
 21
1.0
 12
205.95963
 22
192.33243
 13
0.0
 23
0.0
 14
0.5
 24
0.5
 15
0.5
 25
0.5
 16
0.0
 26
0.0
 36
1.0
 17
0.0
 27
0.0
 37
0.0
 40
207.433333
 41
0.085602
 42
50.0
 43
298.992951
 44
-298.992951
 50
0.0
 51
0.0
 71
     0
 72
   100
 73
     1
 74
     3
 75
     0
 76
     0
 77
     0
 78
     0
281
     0
 65
     1
110
0.0
120
0.0
130
0.0
111
1.0
121
0.0
131
0.0
112
0.0
122
1.0
132
0.0
 79
     0
146
0.0
  0
VPORT
  5
278
330
8
100
AcDbSymbolTableRecord
100
AcDbViewportTableRecord
  2
L6
 70
     0
 10
0.333333
 20
0.0
 11
0.666667
 21
0.5
 12
0.0
 22
0.0
 13
0.0
 23
0.0
 14
0.5
 24
0.5
 15
0.5
 25
0.5
 16
0.0
 26
-1.0
 36
0.0
 17
0.0
 27
0.0
 37
0.0
 40
1478.660809
 41
0.012009
 42
50.0
 43
765.39502
 44
-765.39502
 50
0.0
 51
0.0
 71
     0
 72
   100
 73
     1
 74
     3
 75
     0
 76
     0
 77
     0
 78
     0
281
     0
 65
     1
110
0.0
120
0.0
130
0.0
111
1.0
121
0.0
131
0.0
112
0.0
122
1.0
132
0.0
 79
     0
146
0.0
  0
VPORT
  5
279
330
8
100
AcDbSymbolTableRecord
100
AcDbViewportTableRecord
  2
L6
 70
     0
 10
0.666667
 20
0.5
 11
1.0
 21
1.0
 12
0.0
 22
0.0
 13
0.0
 23
0.0
 14
0.5
 24
0.5
 15
0.5
 25
0.5
 16
0.5773502691896259
 26
-0.5773502691896259
 36
0.5773502691896259
 17
0.0
 27
0.0
 37
0.0
 40
1453.705292
 41
0.012215
 42
50.0
 43
757.5245879999999
 44
-757.5245879999999
 50
0.0
 51
0.0
 71
     0
 72
   100
 73
     1
 74
     3
 75
     0
 76
     0
 77
     0
 78
     0
281
     0
 65
     1
110
0.0
120
0.0
130
0.0
111
1.0
121
0.0
131
0.0
112
0.0
122
1.0
132
0.0
 79
     0
146
0.0
  0
VPORT
  5
27A
330
8
100
AcDbSymbolTableRecord
100
AcDbViewportTableRecord
  2
L6
 70
     0
 10
0.666667
 20
0.0
 11
1.0
 21
0.5
 12
0.0
 22
0.0
 13
0.0
 23
0.0
 14
0.5
 24
0.5
 15
0.5
 25
0.5
 16
1.0
 26
0.0
 36
0.0
 17
0.0
 27
0.0
 37
0.0
 40
1478.660809
 41
0.012009
 42
50.0
 43
746.5698859999999
 44
-746.5698859999999
 50
0.0
 51
0.0
 71
     0
 72
   100
 73
     1
 74
     3
 75
     0
 76
     0
 77
     0
 78
     0
281
     0
 65
     1
110
0.0
120
0.0
130
0.0
111
1.0
121
0.0
131
0.0
112
0.0
122
1.0
132
0.0
 79
     0
146
0.0
  0
ENDTAB
  0
TABLE
  2
LTYPE
  5
5
330
0
100
AcDbSymbolTable
 70
    19
  0
LTYPE
  5
14
330
5
100
AcDbSymbolTableRecord
100
AcDbLinetypeTableRecord
  2
ByBlock
 70
     0
  3

 72
    65
 73
     0
 40
0.0
  0
LTYPE
  5
15
330
5
100
AcDbSymbolTableRecord
100
AcDbLinetypeTableRecord
  2
ByLayer
 70
     0
  3

 72
    65
 73
     0
 40
0.0
  0
LTYPE
  5
16
330
5
100
AcDbSymbolTableRecord
100
AcDbLinetypeTableRecord
  2
Continuous
 70
     0
  3
Solid line
 72
    65
 73
     0
 40
0.0
  0
LTYPE
  5
6E
330
5
100
AcDbSymbolTableRecord
100
AcDbLinetypeTableRecord
  2
CENTER
 70
     0
  3
____ _ ____ _ ____ _ ____
 72
    65
 73
     4
 40
47.4
 49
22.0
 74
     4
 75
     0
340
0
 46
0.0
 50
0.0
 44
0.0
 45
0.0
 49
-8.5
 74
     4
 75
     0
340
0
 46
0.0
 50
0.0
 44
0.0
 45
0.0
 49
8.5
 74
     4
 75
     0
340
0
 46
0.0
 50
0.0
 44
0.0
 45
0.0
 49
-8.5
 74
     4
 75
     0
340
0
 46
0.0
 50
0.0
 44
0.0
 45
0.0
  0
LTYPE
  5
6F
330
5
100
AcDbSymbolTableRecord
100
AcDbLinetypeTableRecord
  2
DASHDOT
 70
     0
  3
_._._._._._._._._._._._._._._._.
 72
    65
 73
     4
 40
70.0
 49
31.0
 74
     4
 75
     0
340
0
 46
0.0
 50
0.0
 44
0.0
 45
0.0
 49
-13.0
 74
     4
 75
     0
340
0
 46
0.0
 50
0.0
 44
0.0
 45
0.0
 49
13.0
 74
     4
 75
     0
340
0
 46
0.0
 50
0.0
 44
0.0
 45
0.0
 49
-13.0
 74
     4
 75
     0
340
0
 46
0.0
 50
0.0
 44
0.0
 45
0.0
  0
LTYPE
  5
70
330
5
100
AcDbSymbolTableRecord
100
AcDbLinetypeTableRecord
  2
DASHED
 70
     0
  3
__ __ __ __ __ __ __ __ __
 72
    65
 73
     2
 40
25.72
 49
12.86
 74
     4
 75
     0
340
0
 46
0.0
 50
0.0
 44
0.0
 45
0.0
 49
-12.86
 74
     4
 75
     0
340
0
 46
0.0
 50
0.0
 44
0.0
 45
0.0
  0
LTYPE
  5
71
330
5
100
AcDbSymbolTableRecord
100
AcDbLinetypeTableRecord
  2
DOT
 70
     0
  3
.........................
 72
    65
 73
     2
 40
10.0
 49
0.0
 74
     4
 75
     0
340
0
 46
0.0
 50
0.0
 44
0.0
 45
0.0
 49
-10.0
 74
     4
 75
     0
340
0
 46
0.0
 50
0.0
 44
0.0
 45
0.0
  0
LTYPE
  5
72
330
5
100
AcDbSymbolTableRecord
100
AcDbLinetypeTableRecord
  2
PHANTOM
 70
     0
  3
____ _ _ ____ _ _ _____ _ _ ____
 72
    65
 73
     6
 40
50.5
 49
18.0
 74
     4
 75
     0
340
0
 46
0.0
 50
0.0
 44
0.0
 45
0.0
 49
-6.5
 74
     4
 75
     0
340
0
 46
0.0
 50
0.0
 44
0.0
 45
0.0
 49
6.5
 74
     4
 75
     0
340
0
 46
0.0
 50
0.0
 44
0.0
 45
0.0
 49
-6.5
 74
     4
 75
     0
340
0
 46
0.0
 50
0.0
 44
0.0
 45
0.0
 49
6.5
 74
     4
 75
     0
340
0
 46
0.0
 50
0.0
 44
0.0
 45
0.0
 49
-6.5
 74
     4
 75
     0
340
0
 46
0.0
 50
0.0
 44
0.0
 45
0.0
  0
LTYPE
  5
2D5
330
5
100
AcDbSymbolTableRecord
100
AcDbLinetypeTableRecord
  2
HIDDEN
 70
     0
  3
Hidden __ __ __ __ __ __ __ __ __ __ __ __ __ _
 72
    65
 73
     2
 40
9.524999999999998
 49
6.349999999999999
 74
     0
 49
-3.174999999999999
 74
     0
  0
LTYPE
  5
2D6
330
5
100
AcDbSymbolTableRecord
100
AcDbLinetypeTableRecord
  2
PHANTOM2
 70
     0
  3
Phantom (.5x) ___ _ _ ___ _ _ ___ _ _ ___ _ _
 72
    65
 73
     6
 40
31.75
 49
15.875
 74
     0
 49
-3.174999999999999
 74
     0
 49
3.174999999999999
 74
     0
 49
-3.174999999999999
 74
     0
 49
3.174999999999999
 74
     0
 49
-3.174999999999999
 74
     0
  0
LTYPE
  5
315
330
5
100
AcDbSymbolTableRecord
100
AcDbLinetypeTableRecord
  2
AM_ISO02W050
 70
     0
  3
__ __ __ __ __ __ __ __ __ __ __ __ __ __ __
 72
    65
 73
     2
 40
7.5
 49
6.0
 74
     0
 49
-1.5
 74
     0
  0
LTYPE
  5
316
330
5
100
AcDbSymbolTableRecord
100
AcDbLinetypeTableRecord
  2
AM_ISO08W050
 70
     0
  3
____ . ____ . ____ . ____ . ____ . ____ . ____
 72
    65
 73
     4
 40
18.0
 49
12.0
 74
     0
 49
-1.5
 74
     0
 49
3.0
 74
     0
 49
-1.5
 74
     0
  0
LTYPE
  5
317
330
5
100
AcDbSymbolTableRecord
100
AcDbLinetypeTableRecord
  2
AM_ISO09W050
 70
     0
  3
_____ . . _____ . . _____ . . ____ .. ____
 72
    65
 73
     6
 40
22.5
 49
12.0
 74
     0
 49
-1.5
 74
     0
 49
3.0
 74
     0
 49
-1.5
 74
     0
 49
3.0
 74
     0
 49
-1.5
 74
     0
  0
LTYPE
  5
318
330
5
100
AcDbSymbolTableRecord
100
AcDbLinetypeTableRecord
  2
Amconstr
 70
     0
  3
_______________________
 72
    65
 73
     2
 40
9999.0
 49
9999.0
 74
     0
 49
0.0
 74
     0
  0
LTYPE
  5
319
330
5
100
AcDbSymbolTableRecord
100
AcDbLinetypeTableRecord
  2
AM_ISO08W050x2
 70
     0
  3
__ . __ . __ . __ . __ . __
 72
    65
 73
     4
 40
9.0
 49
6.0
 74
     0
 49
-0.75
 74
     0
 49
1.5
 74
     0
 49
-0.75
 74
     0
  0
LTYPE
  5
31A
330
5
100
AcDbSymbolTableRecord
100
AcDbLinetypeTableRecord
  2
AM_ISO02W050x2
 70
     0
  3
 _ _ _ _ _ _ _ _ _ _ _ _
 72
    65
 73
     2
 40
3.75
 49
3.0
 74
     0
 49
-0.75
 74
     0
  0
LTYPE
  5
31D
330
5
100
AcDbSymbolTableRecord
100
AcDbLinetypeTableRecord
  2
Amzigzag
 70
     0
  3
/\/-/\/-/\/-/\/-/\/-/\/
 72
    65
 73
     2
 40
11.0001
 49
0.0001
 74
     4
 75
   136
340
31C
 46
0.04
 50
0.0
 44
0.0
 45
0.0
 49
-11.0
 74
     0
  0
LTYPE
  5
32D
330
5
100
AcDbSymbolTableRecord
100
AcDbLinetypeTableRecord
  2
ACISOWELD
 70
     0
  3
_ _ _ _ _
 72
    65
 73
     2
 40
2.0
 49
2.0
 74
     0
 49
-1.0
 74
     0
  0
LTYPE
  5
32E
330
5
100
AcDbSymbolTableRecord
100
AcDbLinetypeTableRecord
  2
ACISOTGL
 70
     0
  3
_ _ _ _ _
 72
    65
 73
     2
 40
3.0
 49
2.0
 74
     0
 49
-1.0
 74
     0
  0
LTYPE
  5
32F
330
5
100
AcDbSymbolTableRecord
100
AcDbLinetypeTableRecord
  2
ACISOTGB
 70
     0
  3
__ . . __ . .
 72
    65
 73
     6
 40
9.0
 49
4.0
 74
     0
 49
-1.0
 74
     0
 49
1.0
 74
     0
 49
-1.0
 74
     0
 49
1.0
 74
     0
 49
-1.0
 74
     0
  0
LTYPE
  5
36C
330
5
100
AcDbSymbolTableRecord
100
AcDbLinetypeTableRecord
  2
CENTER2
 70
     0
  3
Center (.5x) ___ _ ___ _ ___ _ ___ _ ___ _ ___
 72
    65
 73
     4
 40
1.125
 49
0.75
 74
     0
 49
-0.125
 74
     0
 49
0.125
 74
     0
 49
-0.125
 74
     0
  0
ENDTAB
  0
TABLE
  2
LAYER
  5
2
330
0
100
AcDbSymbolTable
 70
    21
  0
LAYER
  5
10
102
{ACAD_XDICTIONARY
360
377
102
}
330
2
100
AcDbSymbolTableRecord
100
AcDbLayerTableRecord
  2
0
 70
     0
 62
     7
  6
Continuous
370
    -3
390
F
  0
LAYER
  5
1F4
330
2
100
AcDbSymbolTableRecord
100
AcDbLayerTableRecord
  2
Defpoints
 70
     0
 62
     7
  6
Continuous
290
     0
370
    -3
390
F
  0
LAYER
  5
369
102
{ACAD_XDICTIONARY
360
379
102
}
330
2
100
AcDbSymbolTableRecord
100
AcDbLayerTableRecord
  2
1
 70
     0
 62
     4
  6
Continuous
370
    -3
390
F
  0
LAYER
  5
36A
102
{ACAD_XDICTIONARY
360
37B
102
}
330
2
100
AcDbSymbolTableRecord
100
AcDbLayerTableRecord
  2
2
 70
     0
 62
     7
  6
Continuous
370
    -3
390
F
  0
LAYER
  5
36B
102
{ACAD_XDICTIONARY
360
37D
102
}
330
2
100
AcDbSymbolTableRecord
100
AcDbLayerTableRecord
  2
4
 70
     0
 62
     2
  6
CENTER2
370
    -3
390
F
  0
LAYER
  5
36D
102
{ACAD_XDICTIONARY
360
37F
102
}
330
2
100
AcDbSymbolTableRecord
100
AcDbLayerTableRecord
  2
SK1
 70
     0
 62
     4
  6
Continuous
370
    -3
390
F
  0
LAYER
  5
36E
102
{ACAD_XDICTIONARY
360
381
102
}
330
2
100
AcDbSymbolTableRecord
100
AcDbLayerTableRecord
  2
SK2
 70
     0
 62
     7
  6
Continuous
370
    -3
390
F
  0
LAYER
  5
370
102
{ACAD_XDICTIONARY
360
383
102
}
330
2
100
AcDbSymbolTableRecord
100
AcDbLayerTableRecord
  2
SK4
 70
     0
 62
     2
  6
CENTER2
370
    -3
390
F
  0
LAYER
  5
371
102
{ACAD_XDICTIONARY
360
385
102
}
330
2
100
AcDbSymbolTableRecord
100
AcDbLayerTableRecord
  2
SK6
 70
     0
 62
     5
  6
Continuous
370
    -3
390
F
  0
LAYER
  5
372
102
{ACAD_XDICTIONARY
360
387
102
}
330
2
100
AcDbSymbolTableRecord
100
AcDbLayerTableRecord
  2
CUT
 70
     0
 62
     1
  6
Continuous
370
    -3
390
F
  0
LAYER
  5
373
102
{ACAD_XDICTIONARY
360
389
102
}
330
2
100
AcDbSymbolTableRecord
100
AcDbLayerTableRecord
  2
NOCUT
 70
     0
 62
     7
  6
Continuous
370
    -3
390
F
  0
LAYER
  5
374
102
{ACAD_XDICTIONARY
360
38B
102
}
330
2
100
AcDbSymbolTableRecord
100
AcDbLayerTableRecord
  2
80
 70
     0
 62
     6
  6
Continuous
370
    -3
390
F
  0
LAYER
  5
375
102
{ACAD_XDICTIONARY
360
38D
102
}
330
2
100
AcDbSymbolTableRecord
100
AcDbLayerTableRecord
  2
81
 70
     0
 62
     3
  6
Continuous
370
    -3
390
F
  0
ENDTAB
  0
TABLE
  2
STYLE
  5
3
330
0
100
AcDbSymbolTable
 70
     6
  0
STYLE
  5
11
330
3
100
AcDbSymbolTableRecord
100
AcDbTextStyleTableRecord
  2
Standard
 70
     0
 40
0.0
 41
1.0
 50
0.0
 71
     0
 42
0.2
  3
txt
  4

  0
STYLE
  5
1EE
330
3
100
AcDbSymbolTableRecord
100
AcDbTextStyleTableRecord
  2
cesky
 70
     0
 40
0.0
 41
1.0
 50
0.0
 71
     0
 42
0.2
  3
simplex.shx
  4

  0
STYLE
  5
1EF
330
3
100
AcDbSymbolTableRecord
100
AcDbTextStyleTableRecord
  2
DWGDirectTextStyle
 70
     0
 40
0.0
 41
1.0
 50
0.0
 71
     0
 42
0.2
  3
simplex
  4

  0
STYLE
  5
31C
330
3
100
AcDbSymbolTableRecord
100
AcDbTextStyleTableRecord
  2

 70
     1
 40
0.0
 41
1.0
 50
0.0
 71
     0
 42
0.2
  3
genltshp.shx
  4

  0
STYLE
  5
32B
330
3
100
AcDbSymbolTableRecord
100
AcDbTextStyleTableRecord
  2
ACISOTS
 70
     0
 40
0.0
 41
1.0
 50
0.0
 71
     0
 42
0.2
  3
isocp.shx
  4

  0
STYLE
  5
32C
330
3
100
AcDbSymbolTableRecord
100
AcDbTextStyleTableRecord
  2
ACISOGDT
 70
     0
 40
0.0
 41
1.0
 50
0.0
 71
     0
 42
0.2
  3
amgdt.shx
  4

  0
ENDTAB
  0
TABLE
  2
VIEW
  5
6
330
0
100
AcDbSymbolTable
 70
     0
  0
ENDTAB
  0
TABLE
  2
UCS
  5
7
330
0
100
AcDbSymbolTable
 70
     0
  0
ENDTAB
  0
TABLE
  2
APPID
  5
9
330
0
100
AcDbSymbolTable
 70
    13
  0
APPID
  5
12
330
9
100
AcDbSymbolTableRecord
100
AcDbRegAppTableRecord
  2
ACAD
 70
     0
  0
APPID
  5
1F0
330
9
100
AcDbSymbolTableRecord
100
AcDbRegAppTableRecord
  2
ACAD_DSTYLE_DIMBREAK
 70
     0
  0
APPID
  5
27B
330
9
100
AcDbSymbolTableRecord
100
AcDbRegAppTableRecord
  2
ACAD_DSTYLE_DIM_LINETYPE
 70
     0
  0
APPID
  5
27C
330
9
100
AcDbSymbolTableRecord
100
AcDbRegAppTableRecord
  2
ACAD_DSTYLE_DIM_EXT1_LINETYPE
 70
     0
  0
APPID
  5
27D
330
9
100
AcDbSymbolTableRecord
100
AcDbRegAppTableRecord
  2
ACAD_DSTYLE_DIM_EXT2_LINETYPE
 70
     0
  0
APPID
  5
2BD
330
9
100
AcDbSymbolTableRecord
100
AcDbRegAppTableRecord
  2
ACAD_MLEADERVER
 70
     0
  0
APPID
  5
2CE
330
9
100
AcDbSymbolTableRecord
100
AcDbRegAppTableRecord
  2
MCAD_NO_VIS
 70
     0
  0
APPID
  5
2CF
330
9
100
AcDbSymbolTableRecord
100
AcDbRegAppTableRecord
  2
ACAD_TEMP_GRAPHIC
 70
     0
  0
APPID
  5
2DB
330
9
100
AcDbSymbolTableRecord
100
AcDbRegAppTableRecord
  2
ACATTRIBSERVICES
 70
     0
  0
APPID
  5
2F7
330
9
100
AcDbSymbolTableRecord
100
AcDbRegAppTableRecord
  2
DESIGNERASSEMBLIES
 70
     0
  0
APPID
  5
313
330
9
100
AcDbSymbolTableRecord
100
AcDbRegAppTableRecord
  2
ACAD_DSTYLE_DIMJAG
 70
     0
  0
APPID
  5
33F
330
9
100
AcDbSymbolTableRecord
100
AcDbRegAppTableRecord
  2
ACAD_NAV_VCDISPLAY
 70
     0
  0
APPID
  5
3C9
330
9
100
AcDbSymbolTableRecord
100
AcDbRegAppTableRecord
  2
ACAD_DSTYLE_DIMARC_LENGTH_SYMBOL
 70
     0
  0
ENDTAB
  0
TABLE
  2
DIMSTYLE
  5
A
330
0
100
AcDbSymbolTable
 70
     8
100
AcDbDimStyleTable
 71
     0
  0
DIMSTYLE
105
27
330
A
100
AcDbSymbolTableRecord
100
AcDbDimStyleTableRecord
  2
Standard
 70
     0
340
11
1001
ACAD_DSTYLE_DIMBREAK
1070
   391
1040
6.349999999999999
  0
DIMSTYLE
105
312
102
{ACAD_REACTORS
330
300
102
}
330
A
100
AcDbSymbolTableRecord
100
AcDbDimStyleTableRecord
  2
AM_ISO
 70
     0
  4
"
 41
3.5
 42
1.0
 43
10.0
 44
1.0
 47
0.1
 48
0.1
 73
     0
 74
     0
 77
     1
 78
     8
 79
     2
140
3.5
141
0.0
143
0.0393701
146
0.71
147
1.5
172
     1
176
   256
177
   256
178
     2
271
     2
272
     3
274
     4
283
     0
284
     8
340
11
371
    -1
372
    -1
1001
ACAD_DSTYLE_DIMJAG
1070
   388
1040
1.5
1001
ACAD_DSTYLE_DIMBREAK
1070
   391
1040
3.75
1001
ACAD_DSTYLE_DIMARC_LENGTH_SYMBOL
1070
   379
1070
     1
1001
ACAD_DSTYLE_DIM_LINETYPE
1070
   380
1005
14
1001
ACAD_DSTYLE_DIM_EXT1_LINETYPE
1070
   381
1005
14
1001
ACAD_DSTYLE_DIM_EXT2_LINETYPE
1070
   382
1005
14
  0
DIMSTYLE
105
31E
330
A
100
AcDbSymbolTableRecord
100
AcDbDimStyleTableRecord
  2
AM_ISO$3
 70
     0
  4
"
 41
3.5
 42
1.0
 43
10.0
 44
1.0
 47
0.1
 48
0.1
 73
     0
 77
     1
 78
     8
 79
     2
140
3.5
141
0.0
143
0.0393701
146
0.71
147
1.5
176
   256
177
   256
178
     2
271
     2
272
     3
274
     4
283
     0
284
     8
288
     1
289
     0
340
11
371
    -1
372
    -1
1001
ACAD_DSTYLE_DIMBREAK
1070
   391
1040
3.75
1001
ACAD_DSTYLE_DIMJAG
1070
   388
1040
1.5
1001
ACAD_DSTYLE_DIMARC_LENGTH_SYMBOL
1070
   379
1070
     1
1001
ACAD_DSTYLE_DIM_LINETYPE
1070
   380
1005
14
1001
ACAD_DSTYLE_DIM_EXT1_LINETYPE
1070
   381
1005
14
1001
ACAD_DSTYLE_DIM_EXT2_LINETYPE
1070
   382
1005
14
  0
DIMSTYLE
105
31F
330
A
100
AcDbSymbolTableRecord
100
AcDbDimStyleTableRecord
  2
AM_ISO$4
 70
     0
  4
"
 41
3.5
 42
1.0
 43
10.0
 44
1.0
 47
0.1
 48
0.1
 73
     0
 77
     1
 78
     8
 79
     2
140
3.5
141
0.0
143
0.0393701
146
0.71
147
1.5
176
   256
177
   256
178
     2
271
     2
272
     3
274
     4
283
     0
284
     8
288
     1
289
     0
340
11
371
    -1
372
    -1
1001
ACAD_DSTYLE_DIMBREAK
1070
   391
1040
3.75
1001
ACAD_DSTYLE_DIMJAG
1070
   388
1040
1.5
1001
ACAD_DSTYLE_DIMARC_LENGTH_SYMBOL
1070
   379
1070
     1
1001
ACAD_DSTYLE_DIM_LINETYPE
1070
   380
1005
14
1001
ACAD_DSTYLE_DIM_EXT1_LINETYPE
1070
   381
1005
14
1001
ACAD_DSTYLE_DIM_EXT2_LINETYPE
1070
   382
1005
14
  0
DIMSTYLE
105
320
330
A
100
AcDbSymbolTableRecord
100
AcDbDimStyleTableRecord
  2
AM_ISO$6
 70
     0
  4
"
 41
3.5
 42
1.0
 43
10.0
 44
1.0
 47
0.1
 48
0.1
 73
     0
 74
     0
 78
     8
 79
     2
140
3.5
141
0.0
143
0.0393701
146
0.71
147
1.5
172
     1
176
   256
177
   256
178
     2
271
     2
272
     3
274
     4
283
     0
284
     8
340
11
371
    -1
372
    -1
1001
ACAD_DSTYLE_DIMBREAK
1070
   391
1040
3.75
1001
ACAD_DSTYLE_DIMJAG
1070
   388
1040
1.5
1001
ACAD_DSTYLE_DIMARC_LENGTH_SYMBOL
1070
   379
1070
     1
1001
ACAD_DSTYLE_DIM_LINETYPE
1070
   380
1005
14
1001
ACAD_DSTYLE_DIM_EXT1_LINETYPE
1070
   381
1005
14
1001
ACAD_DSTYLE_DIM_EXT2_LINETYPE
1070
   382
1005
14
  0
DIMSTYLE
105
321
330
A
100
AcDbSymbolTableRecord
100
AcDbDimStyleTableRecord
  2
AM_ISO$7
 70
     0
  4
"
 41
3.5
 42
1.0
 43
10.0
 44
1.0
 47
0.1
 48
0.1
 73
     0
 74
     0
 77
     1
 78
     8
 79
     2
140
3.5
141
0.0
143
0.0393701
146
0.71
147
1.5
172
     1
176
   256
177
   256
178
     2
271
     2
272
     3
274
     4
283
     0
284
     8
340
11
371
    -1
372
    -1
1001
ACAD_DSTYLE_DIMBREAK
1070
   391
1040
3.75
1001
ACAD_DSTYLE_DIMJAG
1070
   388
1040
1.5
1001
ACAD_DSTYLE_DIMARC_LENGTH_SYMBOL
1070
   379
1070
     1
1001
ACAD_DSTYLE_DIM_LINETYPE
1070
   380
1005
14
1001
ACAD_DSTYLE_DIM_EXT1_LINETYPE
1070
   381
1005
14
1001
ACAD_DSTYLE_DIM_EXT2_LINETYPE
1070
   382
1005
14
  0
DIMSTYLE
105
322
330
A
100
AcDbSymbolTableRecord
100
AcDbDimStyleTableRecord
  2
AM_ISO$SF
 70
     0
  4
"
 41
3.5
 42
1.0
 43
10.0
 44
1.0
 47
0.1
 48
0.1
 73
     0
 74
     0
 75
     1
 76
     1
 77
     1
 78
     8
 79
     2
140
3.5
141
0.0
143
0.0393701
146
0.71
147
1.5
172
     1
176
   256
177
   256
178
     2
271
     2
272
     3
274
     4
283
     0
284
     8
340
11
371
    -1
372
    -1
1001
ACAD_DSTYLE_DIMBREAK
1070
   391
1040
3.75
1001
ACAD_DSTYLE_DIMJAG
1070
   388
1040
1.5
1001
ACAD_DSTYLE_DIMARC_LENGTH_SYMBOL
1070
   379
1070
     1
1001
ACAD_DSTYLE_DIM_LINETYPE
1070
   380
1005
14
1001
ACAD_DSTYLE_DIM_EXT1_LINETYPE
1070
   381
1005
14
1001
ACAD_DSTYLE_DIM_EXT2_LINETYPE
1070
   382
1005
14
  0
DIMSTYLE
105
327
330
A
100
AcDbSymbolTableRecord
100
AcDbDimStyleTableRecord
  2
AM_ISO$SH
 70
     0
  4
"
 41
3.5
 42
1.0
 43
10.0
 44
1.0
 47
0.1
 48
0.1
 73
     0
 74
     0
 75
     1
 76
     1
 77
     1
 78
     8
 79
     2
140
3.5
141
0.0
143
0.0393701
144
2.0
146
0.71
147
1.5
172
     1
173
     1
176
   256
177
   256
178
     2
271
     2
272
     3
274
     4
283
     0
284
     8
340
11
343
323
371
    -1
372
    -1
1001
ACAD_DSTYLE_DIMBREAK
1070
   391
1040
3.75
1001
ACAD_DSTYLE_DIMJAG
1070
   388
1040
1.5
1001
ACAD_DSTYLE_DIMARC_LENGTH_SYMBOL
1070
   379
1070
     1
1001
ACAD_DSTYLE_DIM_LINETYPE
1070
   380
1005
14
1001
ACAD_DSTYLE_DIM_EXT1_LINETYPE
1070
   381
1005
14
1001
ACAD_DSTYLE_DIM_EXT2_LINETYPE
1070
   382
1005
14
  0
ENDTAB
  0
TABLE
  2
BLOCK_RECORD
  5
1
330
0
100
AcDbSymbolTable
 70
    13
  0
BLOCK_RECORD
  5
1F
102
{ACAD_XDICTIONARY
360
347
102
}
330
1
100
AcDbSymbolTableRecord
100
AcDbBlockTableRecord
  2
*Model_Space
340
22
  0
BLOCK_RECORD
  5
1B
330
1
100
AcDbSymbolTableRecord
100
AcDbBlockTableRecord
  2
*Paper_Space
340
1E
  0
BLOCK_RECORD
  5
23
330
1
100
AcDbSymbolTableRecord
100
AcDbBlockTableRecord
  2
*Paper_Space0
340
26
  0
BLOCK_RECORD
  5
1F5
330
1
100
AcDbSymbolTableRecord
100
AcDbBlockTableRecord
  2
*D1
340
0
  0
BLOCK_RECORD
  5
201
330
1
100
AcDbSymbolTableRecord
100
AcDbBlockTableRecord
  2
_U0
340
0
  0
BLOCK_RECORD
  5
20D
330
1
100
AcDbSymbolTableRecord
100
AcDbBlockTableRecord
  2
*D3
340
0
  0
BLOCK_RECORD
  5
21B
330
1
100
AcDbSymbolTableRecord
100
AcDbBlockTableRecord
  2
_U1
340
0
  0
BLOCK_RECORD
  5
227
330
1
100
AcDbSymbolTableRecord
100
AcDbBlockTableRecord
  2
*D5
340
0
  0
BLOCK_RECORD
  5
233
330
1
100
AcDbSymbolTableRecord
100
AcDbBlockTableRecord
  2
_U2
340
0
  0
BLOCK_RECORD
  5
240
330
1
100
AcDbSymbolTableRecord
100
AcDbBlockTableRecord
  2
*D7
340
0
  0
BLOCK_RECORD
  5
24C
330
1
100
AcDbSymbolTableRecord
100
AcDbBlockTableRecord
  2
_U3
340
0
  0
BLOCK_RECORD
  5
259
330
1
100
AcDbSymbolTableRecord
100
AcDbBlockTableRecord
  2
*D9
340
0
  0
BLOCK_RECORD
  5
264
330
1
100
AcDbSymbolTableRecord
100
AcDbBlockTableRecord
  2
_U4
340
0
  0
BLOCK_RECORD
  5
323
330
1
100
AcDbSymbolTableRecord
100
AcDbBlockTableRecord
  2
GENAXEH
340
0
  0
ENDTAB
  0
ENDSEC
  0
SECTION
  2
BLOCKS
  0
BLOCK
  5
20
330
1F
100
AcDbEntity
  8
0
100
AcDbBlockBegin
  2
*Model_Space
 70
     0
 10
0.0
 20
0.0
 30
0.0
  3
*Model_Space
  1

  0
ENDBLK
  5
21
330
1F
100
AcDbEntity
  8
0
100
AcDbBlockEnd
  0
BLOCK
  5
1C
330
1B
100
AcDbEntity
 67
     1
  8
0
100
AcDbBlockBegin
  2
*Paper_Space
 70
     0
 10
0.0
 20
0.0
 30
0.0
  3
*Paper_Space
  1

  0
ENDBLK
  5
1D
330
1B
100
AcDbEntity
 67
     1
  8
0
100
AcDbBlockEnd
  0
BLOCK
  5
24
330
23
100
AcDbEntity
 67
     1
  8
0
100
AcDbBlockBegin
  2
*Paper_Space0
 70
     0
 10
0.0
 20
0.0
 30
0.0
  3
*Paper_Space0
  1

  0
ENDBLK
  5
25
330
23
100
AcDbEntity
 67
     1
  8
0
100
AcDbBlockEnd
  0
BLOCK
  5
1F6
330
1F5
100
AcDbEntity
  8
0
100
AcDbBlockBegin
  2
*D1
 70
     1
 10
0.0
 20
0.0
 30
0.0
  3
*D1
  1

  0
LINE
  5
1F8
330
1F5
100
AcDbEntity
  8
0
 62
   254
370
    -2
100
AcDbLine
 10
157.990059
 20
181.199056
 30
0.0
 11
157.990059
 21
209.124633
 31
0.0
  0
LINE
  5
1F9
330
1F5
100
AcDbEntity
  8
0
 62
   254
370
    -2
100
AcDbLine
 10
199.990059
 20
198.699056
 30
0.0
 11
199.990059
 21
209.124633
 31
0.0
  0
LINE
  5
1FA
330
1F5
100
AcDbEntity
  8
0
 62
   254
370
    -2
100
AcDbLine
 10
160.990059
 20
206.124633
 30
0.0
 11
196.990059
 21
206.124633
 31
0.0
  0
SOLID
  5
1FB
330
1F5
100
AcDbEntity
  8
0
 62
   254
100
AcDbTrace
 10
160.990059
 20
206.624633
 30
0.0
 11
160.990059
 21
205.624633
 31
0.0
 12
157.990059
 22
206.124633
 32
0.0
 13
157.990059
 23
206.124633
 33
0.0
  0
SOLID
  5
1FC
330
1F5
100
AcDbEntity
  8
0
 62
   254
100
AcDbTrace
 10
196.990059
 20
205.624633
 30
0.0
 11
196.990059
 21
206.624633
 31
0.0
 12
199.990059
 22
206.124633
 32
0.0
 13
199.990059
 23
206.124633
 33
0.0
  0
MTEXT
  5
1FD
330
1F5
100
AcDbEntity
  8
0
 62
   254
370
    13
100
AcDbMText
 10
178.990059
 20
212.124633
 30
0.0
 40
3.0
 41
0.0
 71
     5
 72
     1
  1
\A1;42
  7
cesky
 73
     1
 44
1.0
  0
POINT
  5
1FE
330
1F5
100
AcDbEntity
  8
Defpoints
 62
     0
100
AcDbPoint
 10
157.990059
 20
179.699056
 30
0.0
  0
POINT
  5
1FF
330
1F5
100
AcDbEntity
  8
Defpoints
 62
     0
100
AcDbPoint
 10
199.990059
 20
197.199056
 30
0.0
  0
POINT
  5
200
330
1F5
100
AcDbEntity
  8
Defpoints
 62
     0
100
AcDbPoint
 10
199.990059
 20
206.124633
 30
0.0
  0
ENDBLK
  5
1F7
330
1F5
100
AcDbEntity
  8
0
100
AcDbBlockEnd
  0
BLOCK
  5
208
330
201
100
AcDbEntity
  8
0
100
AcDbBlockBegin
  2
_U0
 70
     0
 10
0.0
 20
0.0
 30
0.0
  3
_U0
  1

  0
ENDBLK
  5
209
330
201
100
AcDbEntity
  8
0
100
AcDbBlockEnd
  0
BLOCK
  5
20E
330
20D
100
AcDbEntity
  8
0
100
AcDbBlockBegin
  2
*D3
 70
     1
 10
0.0
 20
0.0
 30
0.0
  3
*D3
  1

  0
LINE
  5
210
330
20D
100
AcDbEntity
  8
0
 62
   254
370
    -2
100
AcDbLine
 10
199.990059
 20
198.699056
 30
0.0
 11
199.990059
 21
204.363245
 31
0.0
  0
LINE
  5
211
330
20D
100
AcDbEntity
  8
0
 62
   254
370
    -2
100
AcDbLine
 10
196.99006
 20
198.699056
 30
0.0
 11
196.99006
 21
204.363245
 31
0.0
  0
LINE
  5
212
330
20D
100
AcDbEntity
  8
0
 62
   254
370
    -2
100
AcDbLine
 10
199.990059
 20
201.363245
 30
0.0
 11
216.990059
 21
201.363245
 31
0.0
  0
LINE
  5
213
330
20D
100
AcDbEntity
  8
0
 62
   254
370
    -2
100
AcDbLine
 10
202.990059
 20
201.363245
 30
0.0
 11
205.990059
 21
201.363245
 31
0.0
  0
LINE
  5
214
330
20D
100
AcDbEntity
  8
0
 62
   254
370
    -2
100
AcDbLine
 10
193.99006
 20
201.363245
 30
0.0
 11
190.99006
 21
201.363245
 31
0.0
  0
SOLID
  5
215
330
20D
100
AcDbEntity
  8
0
 62
   254
100
AcDbTrace
 10
202.990059
 20
201.863245
 30
0.0
 11
202.990059
 21
200.863245
 31
0.0
 12
199.990059
 22
201.363245
 32
0.0
 13
199.990059
 23
201.363245
 33
0.0
  0
SOLID
  5
216
330
20D
100
AcDbEntity
  8
0
 62
   254
100
AcDbTrace
 10
193.99006
 20
200.863245
 30
0.0
 11
193.99006
 21
201.863245
 31
0.0
 12
196.99006
 22
201.363245
 32
0.0
 13
196.99006
 23
201.363245
 33
0.0
  0
MTEXT
  5
217
330
20D
100
AcDbEntity
  8
0
 62
   254
370
    13
100
AcDbMText
 10
211.490059
 20
207.363245
 30
0.0
 40
3.0
 41
0.0
 71
     5
 72
     1
  1
\A1;3
  7
cesky
 73
     1
 44
1.0
  0
POINT
  5
218
330
20D
100
AcDbEntity
  8
Defpoints
 62
     0
100
AcDbPoint
 10
199.990059
 20
197.199056
 30
0.0
  0
POINT
  5
219
330
20D
100
AcDbEntity
  8
Defpoints
 62
     0
100
AcDbPoint
 10
196.99006
 20
197.199056
 30
0.0
  0
POINT
  5
21A
330
20D
100
AcDbEntity
  8
Defpoints
 62
     0
100
AcDbPoint
 10
196.99006
 20
201.363245
 30
0.0
  0
ENDBLK
  5
20F
330
20D
100
AcDbEntity
  8
0
100
AcDbBlockEnd
  0
BLOCK
  5
222
330
21B
100
AcDbEntity
  8
0
100
AcDbBlockBegin
  2
_U1
 70
     0
 10
0.0
 20
0.0
 30
0.0
  3
_U1
  1

  0
ENDBLK
  5
223
330
21B
100
AcDbEntity
  8
0
100
AcDbBlockEnd
  0
BLOCK
  5
228
330
227
100
AcDbEntity
  8
0
100
AcDbBlockBegin
  2
*D5
 70
     1
 10
0.0
 20
0.0
 30
0.0
  3
*D5
  1

  0
LINE
  5
22A
330
227
100
AcDbEntity
  8
0
 62
    95
370
    -2
100
AcDbLine
 10
134.990059
 20
187.699056
 30
0.0
 11
123.939922
 21
187.699056
 31
0.0
  0
LINE
  5
22B
330
227
100
AcDbEntity
  8
0
 62
    95
370
    -2
100
AcDbLine
 10
134.990059
 20
171.699056
 30
0.0
 11
123.939922
 21
171.699056
 31
0.0
  0
LINE
  5
22C
330
227
100
AcDbEntity
  8
0
 62
    95
370
    -2
100
AcDbLine
 10
126.939922
 20
184.699056
 30
0.0
 11
126.939922
 21
174.699056
 31
0.0
  0
SOLID
  5
22D
330
227
100
AcDbEntity
  8
0
 62
    95
100
AcDbTrace
 10
127.439922
 20
184.699056
 30
0.0
 11
126.439922
 21
184.699056
 31
0.0
 12
126.939922
 22
187.699056
 32
0.0
 13
126.939922
 23
187.699056
 33
0.0
  0
SOLID
  5
22E
330
227
100
AcDbEntity
  8
0
 62
    95
100
AcDbTrace
 10
126.439922
 20
174.699056
 30
0.0
 11
127.439922
 21
174.699056
 31
0.0
 12
126.939922
 22
171.699056
 32
0.0
 13
126.939922
 23
171.699056
 33
0.0
  0
MTEXT
  5
22F
330
227
100
AcDbEntity
  8
0
 62
    95
370
    13
100
AcDbMText
 10
120.939922
 20
179.699056
 30
0.0
 40
3.0
 41
0.0
 71
     5
 72
     1
  1
\A1;16
  7
cesky
 11
0.0
 21
1.0
 31
0.0
 73
     1
 44
1.0
  0
POINT
  5
230
330
227
100
AcDbEntity
  8
Defpoints
 62
     0
100
AcDbPoint
 10
136.490059
 20
187.699056
 30
0.0
  0
POINT
  5
231
330
227
100
AcDbEntity
  8
Defpoints
 62
     0
100
AcDbPoint
 10
136.490059
 20
171.699056
 30
0.0
  0
POINT
  5
232
330
227
100
AcDbEntity
  8
Defpoints
 62
     0
100
AcDbPoint
 10
126.939922
 20
171.699056
 30
0.0
  0
ENDBLK
  5
229
330
227
100
AcDbEntity
  8
0
100
AcDbBlockEnd
  0
BLOCK
  5
23B
330
233
100
AcDbEntity
  8
0
100
AcDbBlockBegin
  2
_U2
 70
     0
 10
0.0
 20
0.0
 30
0.0
  3
_U2
  1

  0
ENDBLK
  5
23C
330
233
100
AcDbEntity
  8
0
100
AcDbBlockEnd
  0
BLOCK
  5
241
330
240
100
AcDbEntity
  8
0
100
AcDbBlockBegin
  2
*D7
 70
     1
 10
0.0
 20
0.0
 30
0.0
  3
*D7
  1

  0
LINE
  5
243
330
240
100
AcDbEntity
  8
0
 62
    95
370
    -2
100
AcDbLine
 10
156.990059
 20
194.199056
 30
0.0
 11
110.13999
 21
194.199056
 31
0.0
  0
LINE
  5
244
330
240
100
AcDbEntity
  8
0
 62
    95
370
    -2
100
AcDbLine
 10
156.990059
 20
165.199056
 30
0.0
 11
110.13999
 21
165.199056
 31
0.0
  0
LINE
  5
245
330
240
100
AcDbEntity
  8
0
 62
    95
370
    -2
100
AcDbLine
 10
113.13999
 20
191.199056
 30
0.0
 11
113.13999
 21
168.199056
 31
0.0
  0
SOLID
  5
246
330
240
100
AcDbEntity
  8
0
 62
    95
100
AcDbTrace
 10
113.63999
 20
191.199056
 30
0.0
 11
112.63999
 21
191.199056
 31
0.0
 12
113.13999
 22
194.199056
 32
0.0
 13
113.13999
 23
194.199056
 33
0.0
  0
SOLID
  5
247
330
240
100
AcDbEntity
  8
0
 62
    95
100
AcDbTrace
 10
112.63999
 20
168.199056
 30
0.0
 11
113.63999
 21
168.199056
 31
0.0
 12
113.13999
 22
165.199056
 32
0.0
 13
113.13999
 23
165.199056
 33
0.0
  0
MTEXT
  5
248
330
240
100
AcDbEntity
  8
0
 62
    95
370
    13
100
AcDbMText
 10
107.13999
 20
179.699056
 30
0.0
 40
3.0
 41
0.0
 71
     5
 72
     1
  1
\A1;29
  7
cesky
 11
0.0
 21
1.0
 31
0.0
 73
     1
 44
1.0
  0
POINT
  5
249
330
240
100
AcDbEntity
  8
Defpoints
 62
     0
100
AcDbPoint
 10
158.490059
 20
194.199056
 30
0.0
  0
POINT
  5
24A
330
240
100
AcDbEntity
  8
Defpoints
 62
     0
100
AcDbPoint
 10
158.490059
 20
165.199056
 30
0.0
  0
POINT
  5
24B
330
240
100
AcDbEntity
  8
Defpoints
 62
     0
100
AcDbPoint
 10
113.13999
 20
165.199056
 30
0.0
  0
ENDBLK
  5
242
330
240
100
AcDbEntity
  8
0
100
AcDbBlockEnd
  0
BLOCK
  5
254
330
24C
100
AcDbEntity
  8
0
100
AcDbBlockBegin
  2
_U3
 70
     0
 10
0.0
 20
0.0
 30
0.0
  3
_U3
  1

  0
ENDBLK
  5
255
330
24C
100
AcDbEntity
  8
0
100
AcDbBlockEnd
  0
BLOCK
  5
25A
330
259
100
AcDbEntity
  8
0
100
AcDbBlockBegin
  2
*D9
 70
     1
 10
0.0
 20
0.0
 30
0.0
  3
*D9
  1

  0
LINE
  5
25C
330
259
100
AcDbEntity
  8
0
 62
   254
370
    -2
100
AcDbLine
 10
177.052616
 20
179.699056
 30
0.0
 11
214.263135
 21
179.699056
 31
0.0
  0
LINE
  5
25D
330
259
100
AcDbEntity
  8
0
 62
   254
370
    -2
100
AcDbLine
 10
201.490059
 20
197.199056
 30
0.0
 11
214.263135
 21
197.199056
 31
0.0
  0
LINE
  5
25E
330
259
100
AcDbEntity
  8
0
 62
   254
370
    -2
100
AcDbLine
 10
211.263135
 20
179.699056
 30
0.0
 11
211.263135
 21
197.199056
 31
0.0
  0
SOLID
  5
25F
330
259
100
AcDbEntity
  8
0
 62
   254
100
AcDbTrace
 10
211.763135
 20
194.199056
 30
0.0
 11
210.763135
 21
194.199056
 31
0.0
 12
211.263135
 22
197.199056
 32
0.0
 13
211.263135
 23
197.199056
 33
0.0
  0
MTEXT
  5
260
330
259
100
AcDbEntity
  8
0
 62
   254
370
    13
100
AcDbMText
 10
205.263135
 20
169.770485
 30
0.0
 40
3.0
 41
0.0
 71
     5
 72
     1
  1
\A1;35
  7
cesky
 11
0.0
 21
1.0
 31
0.0
 73
     1
 44
1.0
  0
POINT
  5
261
330
259
100
AcDbEntity
  8
Defpoints
 62
     0
100
AcDbPoint
 10
175.552616
 20
179.699056
 30
0.0
  0
POINT
  5
262
330
259
100
AcDbEntity
  8
Defpoints
 62
     0
100
AcDbPoint
 10
199.990059
 20
197.199056
 30
0.0
  0
POINT
  5
263
330
259
100
AcDbEntity
  8
Defpoints
 62
     0
100
AcDbPoint
 10
211.263135
 20
197.199056
 30
0.0
  0
ENDBLK
  5
25B
330
259
100
AcDbEntity
  8
0
100
AcDbBlockEnd
  0
BLOCK
  5
26A
330
264
100
AcDbEntity
  8
0
100
AcDbBlockBegin
  2
_U4
 70
     0
 10
0.0
 20
0.0
 30
0.0
  3
_U4
  1

  0
ENDBLK
  5
26B
330
264
100
AcDbEntity
  8
0
100
AcDbBlockEnd
  0
BLOCK
  5
325
330
323
100
AcDbEntity
  8
0
370
    13
100
AcDbBlockBegin
  2
GENAXEH
 70
     0
 10
0.0
 20
0.0
 30
0.0
  3
GENAXEH
  1

  0
LINE
  5
324
330
323
100
AcDbEntity
  8
0
100
AcDbLine
 10
-1.0
 20
0.0
 30
0.0
 11
1.0
 21
0.0
 31
0.0
  0
ENDBLK
  5
326
330
323
100
AcDbEntity
  8
0
370
    13
100
AcDbBlockEnd
  0
ENDSEC
  0
SECTION
  2
ENTITIES
  0
POINT
  5
73
102
{ACAD_REACTORS
330
376
102
}
330
1F
100
AcDbEntity
  8
80
100
AcDbPoint
 10
157.990059
 20
179.699056
 30
0.0
  0
POINT
  5
75
330
1F
100
AcDbEntity
  8
4
 60
     1
100
AcDbPoint
 10
175.552616
 20
179.699056
 30
0.0
  0
POINT
  5
77
330
1F
100
AcDbEntity
  8
4
 60
     1
100
AcDbPoint
 10
158.490059
 20
179.699056
 30
0.0
  0
POINT
  5
78
330
1F
100
AcDbEntity
  8
SK6
 60
     1
100
AcDbPoint
 10
158.490059
 20
179.699056
 30
0.0
  0
POINT
  5
7A
330
1F
100
AcDbEntity
  8
SK6
 60
     1
100
AcDbPoint
 10
134.990059
 20
179.699056
 30
0.0
  0
POINT
  5
7B
330
1F
100
AcDbEntity
  8
SK6
 60
     1
100
AcDbPoint
 10
196.99006
 20
197.199056
 30
0.0
  0
LINE
  5
8C
330
1F
100
AcDbEntity
  8
SK1
100
AcDbLine
 10
135.490216
 20
172.699056
 30
0.0
 11
151.490059
 21
172.699056
 31
0.0
  0
LINE
  5
8E
330
1F
100
AcDbEntity
  8
SK1
100
AcDbLine
 10
135.490216
 20
186.699056
 30
0.0
 11
151.490059
 21
186.699056
 31
0.0
  0
LINE
  5
8F
330
1F
100
AcDbEntity
  8
1
100
AcDbLine
 10
198.890059
 20
187.434072
 30
0.0
 11
198.890059
 21
187.711375
 31
0.0
  0
LINE
  5
90
330
1F
100
AcDbEntity
  8
1
100
AcDbLine
 10
179.263144
 20
164.699056
 30
0.0
 11
181.846086
 21
164.699056
 31
0.0
  0
LINE
  5
91
330
1F
100
AcDbEntity
  8
1
100
AcDbLine
 10
187.896444
 20
164.699056
 30
0.0
 11
188.442011
 21
164.699056
 31
0.0
  0
LINE
  5
92
330
1F
100
AcDbEntity
  8
1
100
AcDbLine
 10
198.890059
 20
167.707773
 30
0.0
 11
198.890059
 21
167.896187
 31
0.0
  0
LINE
  5
93
330
1F
100
AcDbEntity
  8
1
100
AcDbLine
 10
198.890059
 20
167.896192
 30
0.0
 11
198.890059
 21
170.541062
 31
0.0
  0
LINE
  5
94
330
1F
100
AcDbEntity
  8
1
100
AcDbLine
 10
198.890059
 20
177.574334
 30
0.0
 11
198.890059
 21
187.434114
 31
0.0
  0
LINE
  5
95
330
1F
100
AcDbEntity
  8
1
100
AcDbLine
 10
188.242918
 20
193.231578
 30
0.0
 11
188.242918
 21
194.566689
 31
0.0
  0
LINE
  5
96
330
1F
100
AcDbEntity
  8
1
100
AcDbLine
 10
188.1837909999999
 20
192.940961
 30
0.0
 11
188.242918
 21
193.231578
 31
0.0
  0
LINE
  5
97
330
1F
100
AcDbEntity
  8
1
100
AcDbLine
 10
188.242918
 20
193.231578
 30
0.0
 11
188.349951
 21
193.2208
 31
0.0
  0
LINE
  5
98
330
1F
100
AcDbEntity
  8
1
100
AcDbLine
 10
182.84864
 20
179.526424
 30
0.0
 11
182.84864
 21
182.982559
 31
0.0
  0
LINE
  5
99
330
1F
100
AcDbEntity
  8
1
100
AcDbLine
 10
188.735888
 20
187.575468
 30
0.0
 11
188.3616
 21
187.949756
 31
0.0
  0
LINE
  5
9A
330
1F
100
AcDbEntity
  8
1
100
AcDbLine
 10
188.445768
 20
188.033924
 30
0.0
 11
188.859304
 21
187.620388
 31
0.0
  0
LINE
  5
9B
330
1F
100
AcDbEntity
  8
1
100
AcDbLine
 10
186.84864
 20
182.982559
 30
0.0
 11
186.84864
 21
179.526424
 31
0.0
  0
LINE
  5
9C
330
1F
100
AcDbEntity
  8
1
100
AcDbLine
 10
188.242918
 20
172.395143
 30
0.0
 11
188.311184
 21
172.414894
 31
0.0
  0
LINE
  5
9D
330
1F
100
AcDbEntity
  8
1
100
AcDbLine
 10
188.242918
 20
172.395143
 30
0.0
 11
179.263144
 21
172.395143
 31
0.0
  0
LINE
  5
9E
330
1F
100
AcDbEntity
  8
1
100
AcDbLine
 10
188.242918
 20
194.566689
 30
0.0
 11
185.988714
 21
194.566689
 31
0.0
  0
LINE
  5
9F
330
1F
100
AcDbEntity
  8
1
100
AcDbLine
 10
183.708553
 20
194.566689
 30
0.0
 11
179.263144
 21
194.566689
 31
0.0
  0
LINE
  5
A0
330
1F
100
AcDbEntity
  8
1
100
AcDbLine
 10
172.990059
 20
194.199056
 30
0.0
 11
172.990059
 21
191.149056
 31
0.0
  0
LINE
  5
A1
330
1F
100
AcDbEntity
  8
1
100
AcDbLine
 10
161.490059
 20
190.649056
 30
0.0
 11
172.490059
 21
190.649056
 31
0.0
  0
LINE
  5
A2
330
1F
100
AcDbEntity
  8
1
100
AcDbLine
 10
160.990059
 20
165.199056
 30
0.0
 11
160.990059
 21
168.249056
 31
0.0
  0
LINE
  5
A3
330
1F
100
AcDbEntity
  8
1
100
AcDbLine
 10
160.990059
 20
191.149056
 30
0.0
 11
160.990059
 21
194.199056
 31
0.0
  0
LINE
  5
A4
330
1F
100
AcDbEntity
  8
1
100
AcDbLine
 10
172.990059
 20
168.249056
 30
0.0
 11
172.990059
 21
165.199056
 31
0.0
  0
LINE
  5
A5
330
1F
100
AcDbEntity
  8
1
100
AcDbLine
 10
172.490059
 20
168.749056
 30
0.0
 11
161.490059
 21
168.749056
 31
0.0
  0
LINE
  5
A6
330
1F
100
AcDbEntity
  8
1
100
AcDbLine
 10
187.4277149999999
 20
169.20061
 30
0.0
 11
193.201663
 21
163.149451
 31
0.0
  0
LINE
  5
A7
330
1F
100
AcDbEntity
  8
1
100
AcDbLine
 10
188.368378
 20
194.57337
 30
0.0
 11
188.368378
 21
193.2709
 31
0.0
  0
LINE
  5
A8
330
1F
100
AcDbEntity
  8
1
100
AcDbLine
 10
188.242918
 20
194.566689
 30
0.0
 11
188.311184
 21
194.6183279999999
 31
0.0
  0
LINE
  5
A9
330
1F
100
AcDbEntity
  8
1
100
AcDbLine
 10
179.263144
 20
194.696402
 30
0.0
 11
184.311412
 21
194.696402
 31
0.0
  0
LINE
  5
AA
330
1F
100
AcDbEntity
  8
1
100
AcDbLine
 10
185.385742
 20
194.696402
 30
0.0
 11
188.249825
 21
194.696402
 31
0.0
  0
LINE
  5
AB
330
1F
100
AcDbEntity
  8
1
100
AcDbLine
 10
193.145981
 20
163.149043
 30
0.0
 11
187.397013
 21
169.174021
 31
0.0
  0
LINE
  5
AC
330
1F
100
AcDbEntity
  8
1
100
AcDbLine
 10
191.84864
 20
184.100224
 30
0.0
 11
191.84864
 21
180.462394
 31
0.0
  0
LINE
  5
AD
330
1F
100
AcDbEntity
  8
1
100
AcDbLine
 10
186.84864
 20
179.526424
 30
0.0
 11
182.84864
 21
179.526424
 31
0.0
  0
LINE
  5
AE
330
1F
100
AcDbEntity
  8
1
100
AcDbLine
 10
179.263144
 20
172.444755
 30
0.0
 11
188.249825
 21
172.444755
 31
0.0
  0
LINE
  5
AF
330
1F
100
AcDbEntity
  8
1
100
AcDbLine
 10
188.9241909999999
 20
174.392562
 30
0.0
 11
188.9241909999999
 21
174.923324
 31
0.0
  0
LINE
  5
B0
330
1F
100
AcDbEntity
  8
1
100
AcDbLine
 10
188.916029
 20
174.981776
 30
0.0
 11
188.708377
 21
175.492095
 31
0.0
  0
LINE
  5
B1
330
1F
100
AcDbEntity
  8
1
100
AcDbLine
 10
188.9241909999999
 20
174.923324
 30
0.0
 11
188.916029
 21
174.981776
 31
0.0
  0
LINE
  5
B2
330
1F
100
AcDbEntity
  8
1
100
AcDbLine
 10
188.9241909999999
 20
194.395925
 30
0.0
 11
188.9241909999999
 21
194.389158
 31
0.0
  0
LINE
  5
B3
330
1F
100
AcDbEntity
  8
1
100
AcDbLine
 10
188.9241909999999
 20
174.923324
 30
0.0
 11
188.824017
 21
175.021669
 31
0.0
  0
LINE
  5
B4
330
1F
100
AcDbEntity
  8
1
100
AcDbLine
 10
195.84864
 20
180.331026
 30
0.0
 11
195.84864
 21
184.366693
 31
0.0
  0
LINE
  5
B5
330
1F
100
AcDbEntity
  8
SK1
100
AcDbLine
 10
151.490059
 20
187.699056
 30
0.0
 11
151.490059
 21
171.699056
 31
0.0
  0
LINE
  5
B6
330
1F
100
AcDbEntity
  8
SK1
100
AcDbLine
 10
156.490059
 20
171.199056
 30
0.0
 11
156.490059
 21
188.199056
 31
0.0
  0
LINE
  5
B7
330
1F
100
AcDbEntity
  8
SK1
100
AcDbLine
 10
151.990059
 20
188.199056
 30
0.0
 11
151.990059
 21
171.199056
 31
0.0
  0
LINE
  5
B8
330
1F
100
AcDbEntity
  8
1
100
AcDbLine
 10
198.890064
 20
170.215655
 30
0.0
 11
199.91783
 21
173.497455
 31
0.0
  0
LINE
  5
BA
330
1F
100
AcDbEntity
  8
1
100
AcDbLine
 10
157.990059
 20
165.699056
 30
0.0
 11
158.490059
 21
165.199056
 31
0.0
  0
LINE
  5
BB
330
1F
100
AcDbEntity
  8
SK1
100
AcDbLine
 10
134.990059
 20
173.199056
 30
0.0
 11
136.490059
 21
171.699056
 31
0.0
  0
LINE
  5
BC
330
1F
100
AcDbEntity
  8
SK1
100
AcDbLine
 10
136.490059
 20
187.699056
 30
0.0
 11
134.990059
 21
186.199056
 31
0.0
  0
LINE
  5
BD
330
1F
100
AcDbEntity
  8
SK1
100
AcDbLine
 10
156.83647
 20
171.399056
 30
0.0
 11
157.790059
 21
171.399056
 31
0.0
  0
LINE
  5
BE
330
1F
100
AcDbEntity
  8
SK1
100
AcDbLine
 10
157.790059
 20
187.999056
 30
0.0
 11
156.83647
 21
187.999056
 31
0.0
  0
LINE
  5
BF
330
1F
100
AcDbEntity
  8
SK1
100
AcDbLine
 10
151.490059
 20
171.699056
 30
0.0
 11
151.990059
 21
171.199056
 31
0.0
  0
LINE
  5
C0
330
1F
100
AcDbEntity
  8
SK1
100
AcDbLine
 10
151.990059
 20
188.199056
 30
0.0
 11
151.490059
 21
187.699056
 31
0.0
  0
LINE
  5
C1
330
1F
100
AcDbEntity
  8
SK1
100
AcDbLine
 10
156.490059
 20
188.199056
 30
0.0
 11
151.990059
 21
188.199056
 31
0.0
  0
LINE
  5
C2
330
1F
100
AcDbEntity
  8
SK1
100
AcDbLine
 10
151.990059
 20
171.199056
 30
0.0
 11
156.490059
 21
171.199056
 31
0.0
  0
LINE
  5
C3
330
1F
100
AcDbEntity
  8
1
100
AcDbLine
 10
158.490059
 20
194.199056
 30
0.0
 11
157.990059
 21
193.699056
 31
0.0
  0
LINE
  5
C4
330
1F
100
AcDbEntity
  8
SK1
100
AcDbLine
 10
136.490059
 20
171.699056
 30
0.0
 11
151.490059
 21
171.699056
 31
0.0
  0
LINE
  5
C5
330
1F
100
AcDbEntity
  8
80
100
AcDbLine
 10
158.990059
 20
179.699056
 30
0.0
 11
156.990059
 21
179.699056
 31
0.0
  0
LINE
  5
C6
330
1F
100
AcDbEntity
  8
80
100
AcDbLine
 10
157.990059
 20
178.699056
 30
0.0
 11
157.990059
 21
180.699056
 31
0.0
  0
LINE
  5
C7
330
1F
100
AcDbEntity
  8
81
100
AcDbLine
 10
199.990059
 20
198.199056
 30
0.0
 11
199.990059
 21
196.199056
 31
0.0
  0
LINE
  5
C8
330
1F
100
AcDbEntity
  8
1
100
AcDbLine
 10
199.91783
 20
174.425658
 30
0.0
 11
198.890064
 21
177.707459
 31
0.0
  0
LINE
  5
C9
330
1F
100
AcDbEntity
  8
1
100
AcDbLine
 10
175.552616
 20
194.199056
 30
0.0
 11
172.990059
 21
194.199056
 31
0.0
  0
LINE
  5
CA
330
1F
100
AcDbEntity
  8
1
100
AcDbLine
 10
158.490059
 20
165.199056
 30
0.0
 11
160.990059
 21
165.199056
 31
0.0
  0
LINE
  5
CB
330
1F
100
AcDbEntity
  8
1
100
AcDbLine
 10
172.990059
 20
165.199056
 30
0.0
 11
175.552616
 21
165.199056
 31
0.0
  0
LINE
  5
CC
330
1F
100
AcDbEntity
  8
1
100
AcDbLine
 10
176.420857
 20
165.123095
 30
0.0
 11
178.394903
 21
164.775017
 31
0.0
  0
LINE
  5
CD
330
1F
100
AcDbEntity
  8
1
100
AcDbLine
 10
177.408399
 20
194.449148
 30
0.0
 11
176.420857
 21
194.275017
 31
0.0
  0
LINE
  5
CE
330
1F
100
AcDbEntity
  8
1
100
AcDbLine
 10
192.887791
 20
181.539279
 30
0.0
 11
192.618719
 21
181.349017
 31
0.0
  0
LINE
  5
D0
330
1F
100
AcDbEntity
  8
81
100
AcDbLine
 10
198.990059
 20
197.199056
 30
0.0
 11
200.990059
 21
197.199056
 31
0.0
  0
LINE
  5
D1
330
1F
100
AcDbEntity
  8
SK1
100
AcDbLine
 10
134.990059
 20
173.199056
 30
0.0
 11
134.990059
 21
186.199056
 31
0.0
  0
LINE
  5
D2
330
1F
100
AcDbEntity
  8
SK1
100
AcDbLine
 10
151.490059
 20
187.699056
 30
0.0
 11
136.490059
 21
187.699056
 31
0.0
  0
LINE
  5
D3
330
1F
100
AcDbEntity
  8
SK1
100
AcDbLine
 10
136.490059
 20
171.699056
 30
0.0
 11
136.490059
 21
187.699056
 31
0.0
  0
LINE
  5
D4
330
1F
100
AcDbEntity
  8
1
100
AcDbLine
 10
157.990059
 20
165.699056
 30
0.0
 11
157.990059
 21
193.699056
 31
0.0
  0
LINE
  5
D5
330
1F
100
AcDbEntity
  8
1
100
AcDbLine
 10
160.990059
 20
194.199056
 30
0.0
 11
158.490059
 21
194.199056
 31
0.0
  0
LINE
  5
D6
330
1F
100
AcDbEntity
  8
1
100
AcDbLine
 10
158.490059
 20
165.199056
 30
0.0
 11
158.490059
 21
194.199056
 31
0.0
  0
LINE
  5
D7
330
1F
100
AcDbEntity
  8
NOCUT
100
AcDbLine
 10
188.442011
 20
164.699056
 30
0.0
 11
179.263144
 21
164.699056
 31
0.0
  0
LINE
  5
D9
330
1F
100
AcDbEntity
  8
NOCUT
100
AcDbLine
 10
178.394903
 20
164.775017
 30
0.0
 11
176.420857
 21
165.123095
 31
0.0
  0
LINE
  5
DA
330
1F
100
AcDbEntity
  8
NOCUT
100
AcDbLine
 10
175.552616
 20
165.199056
 30
0.0
 11
158.490059
 21
165.199056
 31
0.0
  0
LINE
  5
DB
330
1F
100
AcDbEntity
  8
NOCUT
100
AcDbLine
 10
157.990059
 20
165.699056
 30
0.0
 11
158.490059
 21
165.199056
 31
0.0
  0
LINE
  5
DC
330
1F
100
AcDbEntity
  8
NOCUT
100
AcDbLine
 10
157.990059
 20
165.699056
 30
0.0
 11
157.990059
 21
170.199985
 31
0.0
  0
LINE
  5
DD
330
1F
100
AcDbEntity
  8
NOCUT
100
AcDbLine
 10
158.17643
 20
170.895528
 30
0.0
 11
157.990059
 21
170.199985
 31
0.0
  0
LINE
  5
DE
330
1F
100
AcDbEntity
  8
NOCUT
100
AcDbLine
 10
156.83647
 20
171.399056
 30
0.0
 11
157.790059
 21
171.399056
 31
0.0
  0
LINE
  5
DF
330
1F
100
AcDbEntity
  8
NOCUT
100
AcDbLine
 10
156.490059
 20
171.199056
 30
0.0
 11
151.990059
 21
171.199056
 31
0.0
  0
LINE
  5
E0
330
1F
100
AcDbEntity
  8
NOCUT
100
AcDbLine
 10
151.990059
 20
171.199056
 30
0.0
 11
151.490059
 21
171.699056
 31
0.0
  0
LINE
  5
E1
330
1F
100
AcDbEntity
  8
NOCUT
100
AcDbLine
 10
151.490059
 20
171.699056
 30
0.0
 11
136.490059
 21
171.699056
 31
0.0
  0
LINE
  5
E2
330
1F
100
AcDbEntity
  8
NOCUT
100
AcDbLine
 10
134.990059
 20
173.199056
 30
0.0
 11
136.490059
 21
171.699056
 31
0.0
  0
LINE
  5
E3
330
1F
100
AcDbEntity
  8
NOCUT
100
AcDbLine
 10
134.990059
 20
173.199056
 30
0.0
 11
134.990059
 21
176.044356
 31
0.0
  0
LINE
  5
E4
330
1F
100
AcDbEntity
  8
NOCUT
100
AcDbLine
 10
134.990059
 20
176.044356
 30
0.0
 11
136.990058
 21
177.199056
 31
0.0
  0
LINE
  5
E5
330
1F
100
AcDbEntity
  8
NOCUT
100
AcDbLine
 10
136.990058
 20
177.199056
 30
0.0
 11
177.990059
 21
177.199056
 31
0.0
  0
LINE
  5
E6
330
1F
100
AcDbEntity
  8
NOCUT
100
AcDbLine
 10
177.990059
 20
177.199056
 30
0.0
 11
179.433435
 21
179.699056
 31
0.0
  0
LINE
  5
E7
330
1F
100
AcDbEntity
  8
NOCUT
100
AcDbLine
 10
179.433435
 20
179.699056
 30
0.0
 11
177.990059
 21
182.199056
 31
0.0
  0
LINE
  5
E8
330
1F
100
AcDbEntity
  8
NOCUT
100
AcDbLine
 10
177.990059
 20
182.199056
 30
0.0
 11
136.990058
 21
182.199056
 31
0.0
  0
LINE
  5
E9
330
1F
100
AcDbEntity
  8
NOCUT
100
AcDbLine
 10
136.990058
 20
182.199056
 30
0.0
 11
134.990059
 21
183.353756
 31
0.0
  0
LINE
  5
EA
330
1F
100
AcDbEntity
  8
NOCUT
100
AcDbLine
 10
134.990059
 20
183.353756
 30
0.0
 11
134.990059
 21
186.199056
 31
0.0
  0
LINE
  5
EB
330
1F
100
AcDbEntity
  8
NOCUT
100
AcDbLine
 10
151.490059
 20
187.699056
 30
0.0
 11
151.990059
 21
188.199056
 31
0.0
  0
LINE
  5
EC
330
1F
100
AcDbEntity
  8
NOCUT
100
AcDbLine
 10
151.990059
 20
188.199056
 30
0.0
 11
156.490059
 21
188.199056
 31
0.0
  0
LINE
  5
ED
330
1F
100
AcDbEntity
  8
NOCUT
100
AcDbLine
 10
157.790059
 20
187.999056
 30
0.0
 11
156.83647
 21
187.999056
 31
0.0
  0
LINE
  5
EE
330
1F
100
AcDbEntity
  8
NOCUT
100
AcDbLine
 10
157.990059
 20
189.198127
 30
0.0
 11
158.17643
 21
188.502584
 31
0.0
  0
LINE
  5
EF
330
1F
100
AcDbEntity
  8
NOCUT
100
AcDbLine
 10
157.990059
 20
189.198127
 30
0.0
 11
157.990059
 21
193.699056
 31
0.0
  0
LINE
  5
F0
330
1F
100
AcDbEntity
  8
NOCUT
100
AcDbLine
 10
176.420857
 20
194.275017
 30
0.0
 11
178.394903
 21
194.623095
 31
0.0
  0
LINE
  5
F1
330
1F
100
AcDbEntity
  8
NOCUT
100
AcDbLine
 10
179.263144
 20
194.699056
 30
0.0
 11
188.442011
 21
194.699056
 31
0.0
  0
LINE
  5
F2
330
1F
100
AcDbEntity
  8
NOCUT
100
AcDbLine
 10
198.246981
 20
189.290339
 30
0.0
 11
196.791983
 21
186.770208
 31
0.0
  0
LINE
  5
F3
330
1F
100
AcDbEntity
  8
NOCUT
100
AcDbLine
 10
196.390059
 20
185.270208
 30
0.0
 11
196.390059
 21
174.127904
 31
0.0
  0
LINE
  5
F4
330
1F
100
AcDbEntity
  8
NOCUT
100
AcDbLine
 10
196.791983
 20
172.627904
 30
0.0
 11
198.246981
 21
170.107773
 31
0.0
  0
LINE
  5
F5
330
1F
100
AcDbEntity
  8
NOCUT
100
AcDbLine
 10
158.490059
 20
194.199056
 30
0.0
 11
175.552616
 21
194.199056
 31
0.0
  0
LINE
  5
F6
330
1F
100
AcDbEntity
  8
NOCUT
100
AcDbLine
 10
136.490059
 20
187.699056
 30
0.0
 11
151.490059
 21
187.699056
 31
0.0
  0
LINE
  5
F7
330
1F
100
AcDbEntity
  8
NOCUT
100
AcDbLine
 10
136.490059
 20
187.699056
 30
0.0
 11
134.990059
 21
186.199056
 31
0.0
  0
LINE
  5
F8
330
1F
100
AcDbEntity
  8
NOCUT
100
AcDbLine
 10
158.490059
 20
194.199056
 30
0.0
 11
157.990059
 21
193.699056
 31
0.0
  0
ARC
  5
F9
330
1F
100
AcDbEntity
  8
1
100
AcDbCircle
 10
188.442011
 20
159.699056
 30
0.0
 40
5.0
100
AcDbArc
 50
54.80706899999999
 51
90.0
  0
ARC
  5
FA
330
1F
100
AcDbEntity
  8
1
100
AcDbCircle
 10
194.090059
 20
167.707773
 30
0.0
 40
4.799999999999997
100
AcDbArc
 50
234.807069
 51
0.0
  0
ARC
  5
FB
330
1F
100
AcDbEntity
  8
1
100
AcDbCircle
 10
185.469816
 20
192.112393
 30
0.0
 40
0.0953174225105393
100
AcDbArc
 50
159.374089
 51
198.147972
  0
ARC
  5
FC
330
1F
100
AcDbEntity
  8
1
100
AcDbCircle
 10
184.405879
 20
189.285718
 30
0.0
 40
0.0953174225105393
100
AcDbArc
 50
159.374089
 51
228.147972
  0
ARC
  5
FD
330
1F
100
AcDbEntity
  8
1
100
AcDbCircle
 10
183.468879
 20
191.353809
 30
0.0
 40
0.0953174225105371
100
AcDbArc
 50
180.600206
 51
249.374089
  0
ARC
  5
FE
330
1F
100
AcDbEntity
  8
1
100
AcDbCircle
 10
186.323085
 20
191.072648
 30
0.0
 40
0.0953174225105393
100
AcDbArc
 50
279.374089
 51
348.147972
  0
ARC
  5
FF
330
1F
100
AcDbEntity
  8
1
100
AcDbCircle
 10
184.508624
 20
192.207078
 30
0.0
 40
0.0953174225105372
100
AcDbArc
 50
330.600206
 51
9.374088999999999
  0
ARC
  5
100
330
1F
100
AcDbEntity
  8
1
100
AcDbCircle
 10
186.076474
 20
191.616953
 30
0.0
 40
0.0953174225105371
100
AcDbArc
 50
60.60020600000001
 51
129.374089
  0
ARC
  5
101
330
1F
100
AcDbEntity
  8
1
100
AcDbCircle
 10
184.068158
 20
192.455266
 30
0.0
 40
0.6008944156305267
100
AcDbArc
 50
258.147972
 51
330.600206
  0
ARC
  5
102
330
1F
100
AcDbEntity
  8
1
100
AcDbCircle
 10
185.955539
 20
191.764317
 30
0.0
 40
0.0953174225105372
100
AcDbArc
 50
270.600206
 51
309.374089
  0
ARC
  5
103
330
1F
100
AcDbEntity
  8
1
100
AcDbCircle
 10
184.227464
 20
189.352872
 30
0.0
 40
0.0953174225105393
100
AcDbArc
 50
339.374089
 51
18.147972
  0
ARC
  5
104
330
1F
100
AcDbEntity
  8
1
100
AcDbCircle
 10
185.000566
 20
189.227137
 30
0.0
 40
0.0953174225105371
100
AcDbArc
 50
300.600206
 51
9.374088999999999
  0
ARC
  5
105
330
1F
100
AcDbEntity
  8
1
100
AcDbCircle
 10
183.974429
 20
191.359105
 30
0.0
 40
0.6008944156305271
100
AcDbArc
 50
108.147972
 51
180.600206
  0
ARC
  5
106
330
1F
100
AcDbEntity
  8
1
100
AcDbCircle
 10
186.2284
 20
190.111457
 30
0.0
 40
0.0953174225105371
100
AcDbArc
 50
0.6002060000000001
 51
69.374089
  0
ARC
  5
107
330
1F
100
AcDbEntity
  8
1
100
AcDbCircle
 10
185.732959
 20
189.504799
 30
0.0
 40
0.0953174225105393
100
AcDbArc
 50
39.374089
 51
78.147972
  0
ARC
  5
108
330
1F
100
AcDbEntity
  8
1
100
AcDbCircle
 10
183.741741
 20
189.700949
 30
0.0
 40
0.0953174225105372
100
AcDbArc
 50
90.60020599999999
 51
129.374089
  0
ARC
  5
109
330
1F
100
AcDbEntity
  8
1
100
AcDbCircle
 10
184.954075
 20
191.802958
 30
0.0
 40
0.6008944156305271
100
AcDbArc
 50
48.147972
 51
120.600206
  0
ARC
  5
10A
330
1F
100
AcDbEntity
  8
1
100
AcDbCircle
 10
182.966555
 20
190.918032
 30
0.0
 40
0.6008944156305267
100
AcDbArc
 50
318.147972
 51
30.600206
  0
ARC
  5
10B
330
1F
100
AcDbEntity
  8
1
100
AcDbCircle
 10
183.343144
 20
190.580707
 30
0.0
 40
0.0953174225105393
100
AcDbArc
 50
279.374089
 51
318.147972
  0
ARC
  5
10C
330
1F
100
AcDbEntity
  8
1
100
AcDbCircle
 10
185.2914
 20
192.179547
 30
0.0
 40
0.0953174225105393
100
AcDbArc
 50
339.374089
 51
48.147972
  0
ARC
  5
10D
330
1F
100
AcDbEntity
  8
1
100
AcDbCircle
 10
185.880324
 20
189.625734
 30
0.0
 40
0.0953174225105393
100
AcDbArc
 50
219.374089
 51
288.1479720000001
  0
ARC
  5
10E
330
1F
100
AcDbEntity
  8
1
100
AcDbCircle
 10
186.730725
 20
190.547233
 30
0.0
 40
0.6008944156305267
100
AcDbArc
 50
138.147972
 51
210.600206
  0
ARC
  5
10F
330
1F
100
AcDbEntity
  8
1
100
AcDbCircle
 10
184.696714
 20
192.238128
 30
0.0
 40
0.0953174225105371
100
AcDbArc
 50
120.600206
 51
189.374089
  0
ARC
  5
110
330
1F
100
AcDbEntity
  8
1
100
AcDbCircle
 10
183.374195
 20
190.392618
 30
0.0
 40
0.0953174225105393
100
AcDbArc
 50
99.37408900000001
 51
168.147972
  0
ARC
  5
111
330
1F
100
AcDbEntity
  8
1
100
AcDbCircle
 10
183.816955
 20
191.839532
 30
0.0
 40
0.0953174225105393
100
AcDbArc
 50
39.374089
 51
108.147972
  0
ARC
  5
112
330
1F
100
AcDbEntity
  8
1
100
AcDbCircle
 10
185.629122
 20
189.01
 30
0.0
 40
0.6008944156305267
100
AcDbArc
 50
78.147972
 51
150.600206
  0
ARC
  5
113
330
1F
100
AcDbEntity
  8
1
100
AcDbCircle
 10
186.295554
 20
190.289872
 30
0.0
 40
0.0953174225105372
100
AcDbArc
 50
210.600206
 51
249.374089
  0
ARC
  5
114
330
1F
100
AcDbEntity
  8
1
100
AcDbCircle
 10
183.868994
 20
190.28878
 30
0.0
 40
0.6008944156305271
100
AcDbArc
 50
168.147972
 51
240.600206
  0
ARC
  5
115
330
1F
100
AcDbEntity
  8
1
100
AcDbCircle
 10
185.722851
 20
190.106161
 30
0.0
 40
0.6008944156305271
100
AcDbArc
 50
288.1479720000001
 51
0.6002060000000001
  0
ARC
  5
116
330
1F
100
AcDbEntity
  8
1
100
AcDbCircle
 10
184.743205
 20
189.662308
 30
0.0
 40
0.6008944156305271
100
AcDbArc
 50
228.147972
 51
300.600206
  0
ARC
  5
117
330
1F
100
AcDbEntity
  8
1
100
AcDbCircle
 10
183.620806
 20
189.848313
 30
0.0
 40
0.0953174225105371
100
AcDbArc
 50
240.600206
 51
309.374089
  0
ARC
  5
118
330
1F
100
AcDbEntity
  8
1
100
AcDbCircle
 10
186.354135
 20
190.884559
 30
0.0
 40
0.0953174225105393
100
AcDbArc
 50
99.37408900000001
 51
138.147972
  0
ARC
  5
119
330
1F
100
AcDbEntity
  8
1
100
AcDbCircle
 10
185.188655
 20
189.258188
 30
0.0
 40
0.0953174225105372
100
AcDbArc
 50
150.600206
 51
189.374089
  0
ARC
  5
11A
330
1F
100
AcDbEntity
  8
1
100
AcDbCircle
 10
183.401725
 20
191.175393
 30
0.0
 40
0.0953174225105372
100
AcDbArc
 50
30.600206
 51
69.374089
  0
ARC
  5
11B
330
1F
100
AcDbEntity
  8
1
100
AcDbCircle
 10
185.950243
 20
192.269866
 30
0.0
 40
0.6008944156305267
100
AcDbArc
 50
198.147972
 51
270.600206
  0
ARC
  5
11C
330
1F
100
AcDbEntity
  8
1
100
AcDbCircle
 10
183.96432
 20
191.960467
 30
0.0
 40
0.0953174225105393
100
AcDbArc
 50
219.374089
 51
258.147972
  0
ARC
  5
11D
330
1F
100
AcDbEntity
  8
1
100
AcDbCircle
 10
185.828286
 20
191.176486
 30
0.0
 40
0.6008944156305271
100
AcDbArc
 50
348.147972
 51
60.60020600000001
  0
ARC
  5
11E
330
1F
100
AcDbEntity
  8
1
100
AcDbCircle
 10
183.747037
 20
189.195399
 30
0.0
 40
0.6008944156305267
100
AcDbArc
 50
18.147972
 51
90.60020599999999
  0
CIRCLE
  5
11F
330
1F
100
AcDbEntity
  8
1
100
AcDbCircle
 10
184.84864
 20
190.732633
 30
0.0
 40
4.0
  0
ARC
  5
120
330
1F
100
AcDbEntity
  8
1
100
AcDbCircle
 10
192.989633
 20
190.038827
 30
0.0
 40
0.0953174225105372
100
AcDbArc
 50
96.226117
 51
135.0
  0
ARC
  5
121
330
1F
100
AcDbEntity
  8
1
100
AcDbCircle
 10
193.507139
 20
192.608064
 30
0.0
 40
0.0953174225105372
100
AcDbArc
 50
336.226117
 51
15.0
  0
ARC
  5
122
330
1F
100
AcDbEntity
  8
1
100
AcDbCircle
 10
195.473411
 20
191.472837
 30
0.0
 40
0.0953174225105393
100
AcDbArc
 50
105.0
 51
143.773883
  0
ARC
  5
123
330
1F
100
AcDbEntity
  8
1
100
AcDbCircle
 10
194.921476
 20
190.636301
 30
0.0
 40
0.6008944156305271
100
AcDbArc
 50
293.773883
 51
6.226116999999999
  0
ARC
  5
124
330
1F
100
AcDbEntity
  8
1
100
AcDbCircle
 10
194.921476
 20
191.711807
 30
0.0
 40
0.6008944156305271
100
AcDbArc
 50
353.773883
 51
66.226117
  0
ARC
  5
125
330
1F
100
AcDbEntity
  8
1
100
AcDbCircle
 10
193.058646
 20
191.711807
 30
0.0
 40
0.6008944156305271
100
AcDbArc
 50
113.773883
 51
186.226117
  0
ARC
  5
126
330
1F
100
AcDbEntity
  8
1
100
AcDbCircle
 10
193.507139
 20
189.740044
 30
0.0
 40
0.0953174225105393
100
AcDbArc
 50
345.0
 51
23.773883
  0
ARC
  5
127
330
1F
100
AcDbEntity
  8
1
100
AcDbCircle
 10
193.691279
 20
189.690704
 30
0.0
 40
0.0953174225105393
100
AcDbArc
 50
165.0
 51
233.773883
  0
ARC
  5
128
330
1F
100
AcDbEntity
  8
1
100
AcDbCircle
 10
192.854834
 20
190.173626
 30
0.0
 40
0.0953174225105371
100
AcDbArc
 50
246.226117
 51
315.0
  0
CIRCLE
  5
129
330
1F
100
AcDbEntity
  8
1
100
AcDbCircle
 10
193.990061
 20
191.174054
 30
0.0
 40
1.8
  0
ARC
  5
12A
330
1F
100
AcDbEntity
  8
1
100
AcDbCircle
 10
194.288844
 20
192.657404
 30
0.0
 40
0.0953174225105393
100
AcDbArc
 50
345.0
 51
53.77388299999999
  0
ARC
  5
12B
330
1F
100
AcDbEntity
  8
1
100
AcDbCircle
 10
194.935658
 20
189.536232
 30
0.0
 40
0.6008944156305267
100
AcDbArc
 50
83.77388299999999
 51
156.226117
  0
ARC
  5
12C
330
1F
100
AcDbEntity
  8
1
100
AcDbCircle
 10
195.424071
 20
191.656976
 30
0.0
 40
0.0953174225105393
100
AcDbArc
 50
285.0
 51
353.773883
  0
ARC
  5
12D
330
1F
100
AcDbEntity
  8
1
100
AcDbCircle
 10
194.990489
 20
190.038827
 30
0.0
 40
0.0953174225105393
100
AcDbArc
 50
45.0
 51
83.77388299999999
  0
ARC
  5
12E
330
1F
100
AcDbEntity
  8
1
100
AcDbCircle
 10
194.472983
 20
192.608064
 30
0.0
 40
0.0953174225105393
100
AcDbArc
 50
165.0
 51
203.773883
  0
ARC
  5
12F
330
1F
100
AcDbEntity
  8
1
100
AcDbCircle
 10
192.556051
 20
191.656976
 30
0.0
 40
0.0953174225105371
100
AcDbArc
 50
186.226117
 51
255.0
  0
ARC
  5
130
330
1F
100
AcDbEntity
  8
1
100
AcDbCircle
 10
194.472983
 20
189.740044
 30
0.0
 40
0.0953174225105372
100
AcDbArc
 50
156.226117
 51
195.0
  0
ARC
  5
131
330
1F
100
AcDbEntity
  8
1
100
AcDbCircle
 10
192.854834
 20
192.174483
 30
0.0
 40
0.0953174225105393
100
AcDbArc
 50
45.0
 51
113.773883
  0
ARC
  5
132
330
1F
100
AcDbEntity
  8
1
100
AcDbCircle
 10
192.098867
 20
191.174054
 30
0.0
 40
0.6008944156305267
100
AcDbArc
 50
323.773883
 51
36.226117
  0
ARC
  5
133
330
1F
100
AcDbEntity
  8
1
100
AcDbCircle
 10
195.424071
 20
190.691133
 30
0.0
 40
0.0953174225105371
100
AcDbArc
 50
6.226116999999999
 51
75.0
  0
ARC
  5
134
330
1F
100
AcDbEntity
  8
1
100
AcDbCircle
 10
195.125289
 20
190.173626
 30
0.0
 40
0.0953174225105393
100
AcDbArc
 50
225.0
 51
293.773883
  0
ARC
  5
135
330
1F
100
AcDbEntity
  8
1
100
AcDbCircle
 10
194.288844
 20
189.690704
 30
0.0
 40
0.0953174225105371
100
AcDbArc
 50
306.226117
 51
15.0
  0
ARC
  5
136
330
1F
100
AcDbEntity
  8
1
100
AcDbCircle
 10
192.506711
 20
191.472837
 30
0.0
 40
0.0953174225105372
100
AcDbArc
 50
36.226117
 51
75.0
  0
ARC
  5
137
330
1F
100
AcDbEntity
  8
1
100
AcDbCircle
 10
192.989633
 20
192.309282
 30
0.0
 40
0.0953174225105393
100
AcDbArc
 50
225.0
 51
263.773883
  0
ARC
  5
138
330
1F
100
AcDbEntity
  8
1
100
AcDbCircle
 10
192.506711
 20
190.875272
 30
0.0
 40
0.0953174225105393
100
AcDbArc
 50
285.0
 51
323.773883
  0
ARC
  5
139
330
1F
100
AcDbEntity
  8
1
100
AcDbCircle
 10
193.0444639999999
 20
189.536232
 30
0.0
 40
0.6008944156305267
100
AcDbArc
 50
23.773883
 51
96.226117
  0
ARC
  5
13A
330
1F
100
AcDbEntity
  8
1
100
AcDbCircle
 10
194.935658
 20
192.811877
 30
0.0
 40
0.6008944156305267
100
AcDbArc
 50
203.773883
 51
276.226117
  0
ARC
  5
13B
330
1F
100
AcDbEntity
  8
1
100
AcDbCircle
 10
194.990489
 20
192.309282
 30
0.0
 40
0.0953174225105372
100
AcDbArc
 50
276.226117
 51
315.0
  0
ARC
  5
13C
330
1F
100
AcDbEntity
  8
1
100
AcDbCircle
 10
195.473411
 20
190.875272
 30
0.0
 40
0.0953174225105372
100
AcDbArc
 50
216.226117
 51
255.0
  0
ARC
  5
13D
330
1F
100
AcDbEntity
  8
1
100
AcDbCircle
 10
195.125289
 20
192.174483
 30
0.0
 40
0.0953174225105371
100
AcDbArc
 50
66.226117
 51
135.0
  0
ARC
  5
13E
330
1F
100
AcDbEntity
  8
1
100
AcDbCircle
 10
193.058646
 20
190.636301
 30
0.0
 40
0.6008944156305271
100
AcDbArc
 50
173.773883
 51
246.226117
  0
ARC
  5
13F
330
1F
100
AcDbEntity
  8
1
100
AcDbCircle
 10
195.881256
 20
191.174054
 30
0.0
 40
0.6008944156305267
100
AcDbArc
 50
143.773883
 51
216.226117
  0
ARC
  5
140
330
1F
100
AcDbEntity
  8
1
100
AcDbCircle
 10
193.691279
 20
192.657404
 30
0.0
 40
0.0953174225105371
100
AcDbArc
 50
126.226117
 51
195.0
  0
ARC
  5
141
330
1F
100
AcDbEntity
  8
1
100
AcDbCircle
 10
193.990061
 20
192.24956
 30
0.0
 40
0.6008944156305271
100
AcDbArc
 50
53.77388299999999
 51
126.226117
  0
ARC
  5
142
330
1F
100
AcDbEntity
  8
1
100
AcDbCircle
 10
192.556051
 20
190.691133
 30
0.0
 40
0.0953174225105393
100
AcDbArc
 50
105.0
 51
173.773883
  0
ARC
  5
143
330
1F
100
AcDbEntity
  8
1
100
AcDbCircle
 10
193.990061
 20
190.098549
 30
0.0
 40
0.6008944156305271
100
AcDbArc
 50
233.773883
 51
306.226117
  0
ARC
  5
144
330
1F
100
AcDbEntity
  8
1
100
AcDbCircle
 10
193.0444639999999
 20
192.811877
 30
0.0
 40
0.6008944156305267
100
AcDbArc
 50
263.773883
 51
336.226117
  0
ARC
  5
145
330
1F
100
AcDbEntity
  8
1
100
AcDbCircle
 10
193.990061
 20
191.174054
 30
0.0
 40
2.75
100
AcDbArc
 50
179.999994
 51
235.530001
  0
ARC
  5
146
330
1F
100
AcDbEntity
  8
1
100
AcDbCircle
 10
193.990061
 20
191.174054
 30
0.0
 40
2.75
100
AcDbArc
 50
310.798133
 51
90.0
  0
ARC
  5
147
330
1F
100
AcDbEntity
  8
1
100
AcDbCircle
 10
193.990061
 20
191.174054
 30
0.0
 40
2.75
100
AcDbArc
 50
90.0
 51
180.000002
  0
ARC
  5
148
330
1F
100
AcDbEntity
  8
1
100
AcDbCircle
 10
193.990061
 20
191.174054
 30
0.0
 40
6.0
100
AcDbArc
 50
201.898121
 51
215.341869
  0
ARC
  5
149
330
1F
100
AcDbEntity
  8
1
100
AcDbCircle
 10
193.990061
 20
191.174054
 30
0.0
 40
6.0
100
AcDbArc
 50
324.196879
 51
90.0
  0
ARC
  5
14A
330
1F
100
AcDbEntity
  8
1
100
AcDbCircle
 10
193.990061
 20
191.174054
 30
0.0
 40
6.0
100
AcDbArc
 50
90.0
 51
163.631246
  0
ARC
  5
14B
330
1F
100
AcDbEntity
  8
1
100
AcDbCircle
 10
193.990061
 20
191.174054
 30
0.0
 40
3.049999999999998
100
AcDbArc
 50
179.999996
 51
231.575628
  0
ARC
  5
14C
330
1F
100
AcDbEntity
  8
1
100
AcDbCircle
 10
193.990061
 20
191.174054
 30
0.0
 40
3.049999999999998
100
AcDbArc
 50
315.461255
 51
179.999996
  0
ARC
  5
14D
330
1F
100
AcDbEntity
  8
1
100
AcDbCircle
 10
193.990061
 20
191.174054
 30
0.0
 40
3.1637352625837
100
AcDbArc
 50
316.912509
 51
0.000005
  0
ARC
  5
14E
330
1F
100
AcDbEntity
  8
1
100
AcDbCircle
 10
193.990061
 20
191.174054
 30
0.0
 40
3.1637352625837
100
AcDbArc
 50
359.999987
 51
230.366241
  0
ARC
  5
14F
330
1F
100
AcDbEntity
  8
1
100
AcDbCircle
 10
193.720207
 20
190.9042
 30
0.0
 40
5.705875084905231
100
AcDbArc
 50
200.876791
 51
204.150514
  0
ARC
  5
150
330
1F
100
AcDbEntity
  8
1
100
AcDbCircle
 10
193.720207
 20
190.9042
 30
0.0
 40
5.831335279725781
100
AcDbArc
 50
201.911113
 51
203.649931
  0
ARC
  5
151
330
1F
100
AcDbEntity
  8
SK1
100
AcDbCircle
 10
156.83647
 20
170.999056
 30
0.0
 40
0.4000000000000002
100
AcDbArc
 50
90.0
 51
150.0
  0
ARC
  5
152
330
1F
100
AcDbEntity
  8
SK1
100
AcDbCircle
 10
156.83647
 20
188.399056
 30
0.0
 40
0.4000000000000002
100
AcDbArc
 50
210.0
 51
270.0
  0
ARC
  5
153
330
1F
100
AcDbEntity
  8
SK1
100
AcDbCircle
 10
157.790059
 20
170.999056
 30
0.0
 40
0.4000000000000005
100
AcDbArc
 50
59.99907
 51
90.0
  0
ARC
  5
154
330
1F
100
AcDbEntity
  8
SK1
100
AcDbCircle
 10
157.790059
 20
188.399056
 30
0.0
 40
0.4000000000000005
100
AcDbArc
 50
270.0
 51
300.00093
  0
ARC
  5
155
330
1F
100
AcDbEntity
  8
1
100
AcDbCircle
 10
179.263144
 20
169.699056
 30
0.0
 40
5.0
100
AcDbArc
 50
260.0
 51
270.0
  0
ARC
  5
156
330
1F
100
AcDbEntity
  8
1
100
AcDbCircle
 10
175.552616
 20
199.199056
 30
0.0
 40
5.0
100
AcDbArc
 50
270.0
 51
280.0
  0
ARC
  5
157
330
1F
100
AcDbEntity
  8
1
100
AcDbCircle
 10
175.552616
 20
160.199056
 30
0.0
 40
5.0
100
AcDbArc
 50
80.0
 51
90.0
  0
ARC
  5
159
330
1F
100
AcDbEntity
  8
NOCUT
100
AcDbCircle
 10
194.090059
 20
167.707773
 30
0.0
 40
4.799999999999997
100
AcDbArc
 50
234.807069
 51
30.0
  0
ARC
  5
15A
330
1F
100
AcDbEntity
  8
NOCUT
100
AcDbCircle
 10
188.442011
 20
159.699056
 30
0.0
 40
5.0
100
AcDbArc
 50
54.80706899999999
 51
90.0
  0
ARC
  5
15B
330
1F
100
AcDbEntity
  8
NOCUT
100
AcDbCircle
 10
179.263144
 20
169.699056
 30
0.0
 40
5.0
100
AcDbArc
 50
260.0
 51
270.0
  0
ARC
  5
15C
330
1F
100
AcDbEntity
  8
NOCUT
100
AcDbCircle
 10
175.552616
 20
160.199056
 30
0.0
 40
5.0
100
AcDbArc
 50
80.0
 51
90.0
  0
ARC
  5
15D
330
1F
100
AcDbEntity
  8
NOCUT
100
AcDbCircle
 10
157.790059
 20
170.999056
 30
0.0
 40
0.4000000000000005
100
AcDbArc
 50
345.0
 51
90.0
  0
ARC
  5
15E
330
1F
100
AcDbEntity
  8
NOCUT
100
AcDbCircle
 10
156.83647
 20
170.999056
 30
0.0
 40
0.4000000000000002
100
AcDbArc
 50
90.0
 51
150.0
  0
ARC
  5
15F
330
1F
100
AcDbEntity
  8
NOCUT
100
AcDbCircle
 10
156.83647
 20
188.399056
 30
0.0
 40
0.4000000000000002
100
AcDbArc
 50
210.0
 51
270.0
  0
ARC
  5
160
330
1F
100
AcDbEntity
  8
NOCUT
100
AcDbCircle
 10
157.790059
 20
188.399056
 30
0.0
 40
0.4000000000000005
100
AcDbArc
 50
270.0
 51
15.0
  0
ARC
  5
161
330
1F
100
AcDbEntity
  8
NOCUT
100
AcDbCircle
 10
175.552616
 20
199.199056
 30
0.0
 40
5.0
100
AcDbArc
 50
270.0
 51
280.0
  0
ARC
  5
162
330
1F
100
AcDbEntity
  8
NOCUT
100
AcDbCircle
 10
179.263144
 20
189.699056
 30
0.0
 40
5.0
100
AcDbArc
 50
90.0
 51
100.0
  0
ARC
  5
163
330
1F
100
AcDbEntity
  8
NOCUT
100
AcDbCircle
 10
188.442011
 20
199.699056
 30
0.0
 40
5.0
100
AcDbArc
 50
270.0
 51
305.192931
  0
ARC
  5
164
330
1F
100
AcDbEntity
  8
NOCUT
100
AcDbCircle
 10
194.090059
 20
191.690339
 30
0.0
 40
4.799999999999997
100
AcDbArc
 50
330.0
 51
125.192931
  0
ARC
  5
165
330
1F
100
AcDbEntity
  8
NOCUT
100
AcDbCircle
 10
199.390059
 20
185.270208
 30
0.0
 40
3.0
100
AcDbArc
 50
150.0
 51
180.0
  0
ARC
  5
166
330
1F
100
AcDbEntity
  8
NOCUT
100
AcDbCircle
 10
199.390059
 20
174.127904
 30
0.0
 40
3.0
100
AcDbArc
 50
180.0
 51
210.0
  0
ELLIPSE
  5
167
330
1F
100
AcDbEntity
  8
1
100
AcDbEllipse
 10
193.990061
 20
177.399678
 30
0.0
 11
4.936241706048443
 21
0.0
 31
0.0
210
0.0
220
0.0
230
1.0
 40
0.5
 41
3.858072164068529
 42
6.283185307179585
  0
ELLIPSE
  5
168
330
1F
100
AcDbEntity
  8
1
100
AcDbEllipse
 10
193.990061
 20
177.399678
 30
0.0
 11
4.936241706048443
 21
0.0
 31
0.0
210
0.0
220
0.0
230
1.0
 40
0.5
 41
0.0
 42
0.1212457342552409
  0
ELLIPSE
  5
169
330
1F
100
AcDbEntity
  8
1
100
AcDbEllipse
 10
193.990061
 20
173.961557
 30
0.0
 11
6.0
 21
0.0
 31
0.0
210
0.0
220
0.0
230
1.0
 40
0.5
 41
3.539495017636283
 42
6.283185307179585
  0
ELLIPSE
  5
16A
330
1F
100
AcDbEntity
  8
1
100
AcDbEllipse
 10
193.990061
 20
173.961557
 30
0.0
 11
6.0
 21
0.0
 31
0.0
210
0.0
220
0.0
230
1.0
 40
0.5
 41
0.0
 42
0.1553124008891
  0
ELLIPSE
  5
16B
330
1F
100
AcDbEntity
  8
1
100
AcDbEllipse
 10
193.990061
 20
181.149568
 30
0.0
 11
1.35
 21
0.0
 31
0.0
210
0.0
220
0.0
230
1.0
 40
0.5
 41
0.6154574270478106
 42
2.922662134366272
  0
ELLIPSE
  5
16C
330
1F
100
AcDbEntity
  8
1
100
AcDbEllipse
 10
193.990061
 20
170.523436
 30
0.0
 11
-4.936241706048443
 21
0.0
 31
0.0
210
0.0
220
0.0
230
1.0
 40
0.5
 41
3.020248789979568
 42
3.141592873712443
  0
ELLIPSE
  5
16D
330
1F
100
AcDbEntity
  8
1
100
AcDbEllipse
 10
193.990061
 20
170.523436
 30
0.0
 11
-4.936241706048443
 21
0.0
 31
0.0
210
0.0
220
0.0
230
1.0
 40
0.5
 41
3.141592468545895
 42
3.69451282606046
  0
ELLIPSE
  5
16E
330
1F
100
AcDbEntity
  8
1
100
AcDbEllipse
 10
184.84864
 20
172.425217
 30
0.0
 11
3.949999999999999
 21
0.0
 31
0.0
210
0.0
220
0.0
230
0.9999999999999998
 40
0.5
 41
3.463605913670207
 42
5.857794016557209
  0
ELLIPSE
  5
16F
330
1F
100
AcDbEntity
  8
1
100
AcDbEllipse
 10
184.84864
 20
174.182268
 30
0.0
 11
-3.9
 21
0.0
 31
0.0
210
0.0
220
0.0
230
1.0
 40
0.5
 41
1.159149589123509
 42
1.982344947319378
  0
ELLIPSE
  5
170
330
1F
100
AcDbEntity
  8
1
100
AcDbEllipse
 10
184.84864
 20
172.500217
 30
0.0
 11
-4.0
 21
0.0
 31
0.0
210
0.0
220
0.0
230
1.0
 40
0.5
 41
0.0525234017091952
 42
0.4303981952663236
  0
ELLIPSE
  5
171
330
1F
100
AcDbEntity
  8
1
100
AcDbEllipse
 10
184.84864
 20
172.500217
 30
0.0
 11
-4.0
 21
0.0
 31
0.0
210
0.0
220
0.0
230
1.0
 40
0.5
 41
2.716103233704485
 42
3.10035927751233
  0
ELLIPSE
  5
172
330
1F
100
AcDbEntity
  8
1
100
AcDbEllipse
 10
184.84864
 20
174.182268
 30
0.0
 11
-3.949999999999999
 21
0.0
 31
0.0
210
0.0
220
0.0
230
0.9999999999999998
 40
0.5
 41
1.131071424399886
 42
2.010422873458564
  0
ELLIPSE
  5
173
330
1F
100
AcDbEntity
  8
1
100
AcDbEllipse
 10
189.590061
 20
175.616908
 30
0.0
 11
-0.9862126525645498
 21
-0.1929656273650548
 31
0.0
210
0.0
220
0.0
230
0.9999999999999998
 40
0.857577
 41
0.1662331165438706
 42
0.5318840165360097
  0
ELLIPSE
  5
174
330
1F
100
AcDbEntity
  8
1
100
AcDbEllipse
 10
193.84864
 20
181.62731
 30
0.0
 11
2.0
 21
0.0
 31
0.0
210
0.0
220
0.0
230
1.0
 40
0.5
 41
0.0
 42
3.141592653589792
  0
ELLIPSE
  5
175
330
1F
100
AcDbEntity
  8
1
100
AcDbEllipse
 10
193.84864
 20
181.62731
 30
0.0
 11
-1.35
 21
0.0
 31
0.0
210
0.0
220
0.0
230
1.0
 40
0.5
 41
0.0
 42
6.283185307179585
  0
ELLIPSE
  5
176
330
1F
100
AcDbEntity
  8
1
100
AcDbEllipse
 10
184.84864
 20
180.547554
 30
0.0
 11
-1.35
 21
0.0
 31
0.0
210
0.0
220
0.0
230
1.0
 40
0.5
 41
0.0
 42
6.283185307179585
  0
ELLIPSE
  5
177
330
1F
100
AcDbEntity
  8
1
100
AcDbEllipse
 10
184.84864
 20
180.547554
 30
0.0
 11
-2.0
 21
0.0
 31
0.0
210
0.0
220
0.0
230
1.0
 40
0.5
 41
3.14159265358979
 42
6.283185307179585
  0
SPLINE
  5
178
330
1F
100
AcDbEntity
  8
1
100
AcDbSpline
210
0.0
220
0.0
230
1.0
 70
     8
 71
     2
 72
     6
 73
     3
 74
     0
 42
0.000000001
 43
0.0000000001
 40
0.0
 40
0.0
 40
0.0
 40
1.0
 40
1.0
 40
1.0
 10
198.4143936386585
 20
188.1932497754773
 30
0.0
 10
198.3625744530856
 20
188.2322232831052
 30
0.0
 10
198.310313755919
 20
188.2716018815408
 30
0.0
  0
SPLINE
  5
179
330
1F
100
AcDbEntity
  8
1
100
AcDbSpline
210
0.0
220
0.0
230
1.0
 70
     8
 71
     2
 72
     6
 73
     3
 74
     0
 42
0.000000001
 43
0.0000000001
 40
0.0
 40
0.0
 40
0.0
 40
1.0
 40
1.0
 40
1.0
 10
198.1259903466399
 20
176.2189776962447
 30
0.0
 10
198.1685630150271
 20
176.2559509226963
 30
0.0
 10
198.2112817625211
 20
176.2930168565715
 30
0.0
  0
SPLINE
  5
17A
330
1F
100
AcDbEntity
  8
1
100
AcDbSpline
210
0.0
220
0.0
230
1.0
 70
     8
 71
     3
 72
     8
 73
     4
 74
     0
 42
0.000000001
 43
0.0000000001
 40
0.0
 40
0.0
 40
0.0
 40
0.0
 40
1.0
 40
1.0
 40
1.0
 40
1.0
 10
188.4420106378371
 20
173.0981306307746
 30
0.0
 10
188.5668718241396
 20
173.5401691010908
 30
0.0
 10
188.6917329449067
 20
173.9908119061179
 30
0.0
 10
188.8162439025007
 20
174.449166371106
 30
0.0
  0
SPLINE
  5
17B
330
1F
100
AcDbEntity
  8
1
100
AcDbSpline
210
0.0
220
0.0
230
1.0
 70
     8
 71
     3
 72
     8
 73
     4
 74
     0
 42
0.000000001
 43
0.0000000001
 40
0.0
 40
0.0
 40
0.0
 40
0.0
 40
1.0
 40
1.0
 40
1.0
 40
1.0
 10
188.2498250767915
 20
172.4447547791878
 30
0.0
 10
188.3138869306629
 20
172.6597167490085
 30
0.0
 10
188.3779487845342
 20
172.8775962783449
 30
0.0
 10
188.4420106384055
 20
173.0981306306416
 30
0.0
  0
SPLINE
  5
17C
330
1F
100
AcDbEntity
  8
1
100
AcDbSpline
210
0.0
220
0.0
230
1.0
 70
     8
 71
     3
 72
     8
 73
     4
 74
     0
 42
0.000000001
 43
0.0000000001
 40
0.0
 40
0.0
 40
0.0
 40
0.0
 40
1.0
 40
1.0
 40
1.0
 40
1.0
 10
188.8162440213688
 20
174.4491667546047
 30
0.0
 10
188.8188158344155
 20
174.4477561449175
 30
0.0
 10
188.8214067831954
 20
174.4463591002921
 30
0.0
 10
188.8240166755004
 20
174.4449758215762
 30
0.0
  0
SPLINE
  5
17D
330
1F
100
AcDbEntity
  8
1
100
AcDbSpline
210
0.0
220
0.0
230
1.0
 70
    24
 71
     1
 72
     4
 73
     2
 74
     0
 42
0.000000001
 43
0.0000000001
 40
0.0
 40
0.0
 40
1.0
 40
1.0
 10
188.8240166755004
 20
174.4449758215762
 30
0.0
 10
188.9241907576809
 20
174.3925616243541
 30
0.0
  0
SPLINE
  5
17E
330
1F
100
AcDbEntity
  8
1
100
AcDbSpline
210
0.0
220
0.0
230
1.0
 70
     8
 71
     2
 72
     6
 73
     3
 74
     0
 42
0.000000001
 43
0.0000000001
 40
0.0
 40
0.0
 40
0.0
 40
1.0
 40
1.0
 40
1.0
 10
188.924190678187
 20
174.3925614907655
 30
0.0
 10
188.7434629667403
 20
173.7487874401228
 30
0.0
 10
188.5610419920256
 20
173.1251569648779
 30
0.0
  0
SPLINE
  5
17F
330
1F
100
AcDbEntity
  8
1
100
AcDbSpline
210
0.0
220
0.0
230
1.0
 70
    24
 71
     1
 72
     4
 73
     2
 74
     0
 42
0.000000001
 43
0.0000000001
 40
0.0
 40
0.0
 40
1.0
 40
1.0
 10
188.5610419925941
 20
173.1251569498003
 30
0.0
 10
188.4420106384055
 20
173.0981306155722
 30
0.0
  0
SPLINE
  5
180
330
1F
100
AcDbEntity
  8
1
100
AcDbSpline
210
0.0
220
0.0
230
1.0
 70
    24
 71
     1
 72
     4
 73
     2
 74
     0
 42
0.000000001
 43
0.0000000001
 40
0.0
 40
0.0
 40
1.0
 40
1.0
 10
188.3111844482816
 20
172.4148938353365
 30
0.0
 10
188.2498250778806
 20
172.4447547797774
 30
0.0
  0
SPLINE
  5
181
330
1F
100
AcDbEntity
  8
1
100
AcDbSpline
210
0.0
220
0.0
230
1.0
 70
    24
 71
     1
 72
     4
 73
     2
 74
     0
 42
0.000000001
 43
0.0000000001
 40
0.0
 40
0.0
 40
1.0
 40
1.0
 10
188.3683778885732
 20
172.4755514517646
 30
0.0
 10
188.3111844482816
 20
172.4148938353365
 30
0.0
  0
SPLINE
  5
182
330
1F
100
AcDbEntity
  8
1
100
AcDbSpline
210
0.0
220
0.0
230
1.0
 70
     8
 71
     2
 72
     6
 73
     3
 74
     0
 42
0.000000001
 43
0.0000000001
 40
0.0
 40
0.0
 40
0.0
 40
1.0
 40
1.0
 40
1.0
 10
188.5610419925941
 20
173.1251569498003
 30
0.0
 10
188.464811778364
 20
172.7961837892326
 30
0.0
 10
188.3683778885731
 20
172.4755514517646
 30
0.0
  0
SPLINE
  5
183
330
1F
100
AcDbEntity
  8
1
100
AcDbSpline
210
0.0
220
0.0
230
1.0
 70
     8
 71
     3
 72
     8
 73
     4
 74
     0
 42
0.000000001
 43
0.0000000001
 40
0.0
 40
0.0
 40
0.0
 40
0.0
 40
1.0
 40
1.0
 40
1.0
 40
1.0
 10
177.1698629899758
 20
171.5048989989087
 30
0.0
 10
177.1706551681758
 20
171.5000978797578
 30
0.0
 10
177.1714480124942
 20
171.4952939524092
 30
0.0
 10
177.1722415233847
 20
171.4904872168174
 30
0.0
  0
SPLINE
  5
184
330
1F
100
AcDbEntity
  8
1
100
AcDbSpline
210
0.0
220
0.0
230
1.0
 70
     8
 71
     3
 72
     9
 73
     5
 74
     0
 42
0.000000001
 43
0.0000000001
 40
0.0
 40
0.0
 40
0.0
 40
0.0
 40
0.3698578491775665
 40
1.0
 40
1.0
 40
1.0
 40
1.0
 10
197.635665459942
 20
171.616204464328
 30
0.0
 10
197.7100721205634
 20
171.4716526047719
 30
0.0
 10
197.9123675626073
 20
171.0813853293505
 30
0.0
 10
198.1176341580307
 20
170.6926733653953
 30
0.0
 10
198.2469812919629
 20
170.4477295723781
 30
0.0
  0
SPLINE
  5
185
330
1F
100
AcDbEntity
  8
1
100
AcDbSpline
210
0.0
220
0.0
230
1.0
 70
     8
 71
     2
 72
     7
 73
     4
 74
     0
 42
0.000000001
 43
0.0000000001
 40
0.0
 40
0.0
 40
0.0
 40
0.5
 40
1.0
 40
1.0
 40
1.0
 10
191.354066648759
 20
163.8584192967961
 30
0.0
 10
191.7503011822805
 20
163.5791209984956
 30
0.0
 10
192.6269826516621
 20
163.208809656651
 30
0.0
 10
193.0873446907447
 20
163.1229902051251
 30
0.0
  0
SPLINE
  5
186
330
1F
100
AcDbEntity
  8
1
100
AcDbSpline
210
0.0
220
0.0
230
1.0
 70
     8
 71
     3
 72
    13
 73
     9
 74
     0
 42
0.000000001
 43
0.0000000001
 40
0.0
 40
0.0
 40
0.0
 40
0.0
 40
0.0679271741618335
 40
0.3794204942327921
 40
0.5259520728092899
 40
0.6783041815127178
 40
0.8363584691936797
 40
1.0
 40
1.0
 40
1.0
 40
1.0
 10
198.8900889263142
 20
170.5438333173457
 30
0.0
 10
198.8900294456255
 20
170.5745471056724
 30
0.0
 10
198.88394906408
 20
170.7461440135864
 30
0.0
 10
198.8312881673593
 20
170.9837699745133
 30
0.0
 10
198.7108195412851
 20
171.2533669657175
 30
0.0
 10
198.5917392700684
 20
171.4514960969233
 30
0.0
 10
198.4404646678735
 20
171.6528237758313
 30
0.0
 10
198.3122182160645
 20
171.7837255415399
 30
0.0
 10
198.2469812919629
 20
171.8503131814618
 30
0.0
  0
SPLINE
  5
187
330
1F
100
AcDbEntity
  8
1
100
AcDbSpline
210
0.0
220
0.0
230
1.0
 70
    24
 71
     1
 72
     4
 73
     2
 74
     0
 42
0.000000001
 43
0.0000000001
 40
0.0
 40
0.0
 40
1.0
 40
1.0
 10
188.5340571991764
 20
188.5464774131968
 30
0.0
 10
188.4588289099237
 20
188.4712491239442
 30
0.0
  0
SPLINE
  5
188
330
1F
100
AcDbEntity
  8
1
100
AcDbSpline
210
0.0
220
0.0
230
1.0
 70
     8
 71
     3
 72
     9
 73
     5
 74
     0
 42
0.000000001
 43
0.0000000001
 40
0.0
 40
0.0
 40
0.0
 40
0.0
 40
0.5281418020207954
 40
1.0
 40
1.0
 40
1.0
 40
1.0
 10
188.3786247919901
 20
188.5649743312013
 30
0.0
 10
188.4025610863295
 20
188.5648910151425
 30
0.0
 10
188.4478828053219
 20
188.5647332619434
 30
0.0
 10
188.4926303962829
 20
188.5681253760284
 30
0.0
 10
188.5137449139176
 20
188.5697259728679
 30
0.0
  0
SPLINE
  5
189
330
1F
100
AcDbEntity
  8
1
100
AcDbSpline
210
0.0
220
0.0
230
1.0
 70
     8
 71
     2
 72
    12
 73
     9
 74
     0
 42
0.000000001
 43
0.0000000001
 40
0.0
 40
0.0
 40
0.0
 40
0.25
 40
0.25
 40
0.5
 40
0.5
 40
0.75
 40
0.75
 40
1.0
 40
1.0
 40
1.0
 10
188.3615412685875
 20
187.9496974052853
 30
0.0
 10
188.3026416870644
 20
188.0085679391818
 30
0.0
 10
188.2701138716407
 20
188.0899758054871
 30
0.0
 10
188.2386598523692
 20
188.1686962655692
 30
0.0
 10
188.2407833735714
 20
188.2566265589833
 30
0.0
 10
188.2428124586763
 20
188.340646463493
 30
0.0
 10
188.2793147280142
 20
188.4236417966969
 30
0.0
 10
188.314828489722
 20
188.5043895567604
 30
0.0
 10
188.3786247919901
 20
188.5649743312013
 30
0.0
  0
SPLINE
  5
18A
330
1F
100
AcDbEntity
  8
1
100
AcDbSpline
210
0.0
220
0.0
230
1.0
 70
     8
 71
     3
 72
     8
 73
     4
 74
     0
 42
0.000000001
 43
0.0000000001
 40
0.0
 40
0.0
 40
0.0
 40
0.0
 40
1.0
 40
1.0
 40
1.0
 40
1.0
 10
188.5137449139176
 20
188.5697259728679
 30
0.0
 10
188.5204987471552
 20
188.561951877463
 30
0.0
 10
188.5272695635489
 20
188.5542023338689
 30
0.0
 10
188.5340571991764
 20
188.5464774131968
 30
0.0
  0
SPLINE
  5
18B
330
1F
100
AcDbEntity
  8
1
100
AcDbSpline
210
0.0
220
0.0
230
1.0
 70
     8
 71
     3
 72
    15
 73
    11
 74
     0
 42
0.000000001
 43
0.0000000001
 40
0.0
 40
0.0
 40
0.0
 40
0.0
 40
0.1088814655499706
 40
0.2083151449193706
 40
0.2983085354276047
 40
0.3788735880299756
 40
0.4500288672713965
 40
0.5118033416751521
 40
0.764656425897389
 40
1.0
 40
1.0
 40
1.0
 40
1.0
 10
188.4588307041943
 20
188.4712509182147
 30
0.0
 10
188.4469772989565
 20
188.458287916316
 30
0.0
 10
188.4242990238485
 20
188.4334867290295
 30
0.0
 10
188.3990794182423
 20
188.3922827262566
 30
0.0
 10
188.3812339670048
 20
188.3525181955919
 30
0.0
 10
188.369930261954
 20
188.3151611990779
 30
0.0
 10
188.3637089666798
 20
188.2812352251118
 30
0.0
 10
188.3588859628215
 20
188.2193081059614
 30
0.0
 10
188.3724849305659
 20
188.1270876283832
 30
0.0
 10
188.4219286918267
 20
188.0642243502826
 30
0.0
 10
188.4457639051444
 20
188.0339200286619
 30
0.0
  0
SPLINE
  5
18C
330
1F
100
AcDbEntity
  8
1
100
AcDbSpline
210
0.0
220
0.0
230
1.0
 70
    24
 71
     1
 72
     4
 73
     2
 74
     0
 42
0.000000001
 43
0.0000000001
 40
0.0
 40
0.0
 40
1.0
 40
1.0
 10
188.3976384812647
 20
164.7695781186536
 30
0.0
 10
188.4420106378371
 20
164.7008135625943
 30
0.0
  0
SPLINE
  5
18D
330
1F
100
AcDbEntity
  8
1
100
AcDbSpline
210
0.0
220
0.0
230
1.0
 70
     8
 71
     2
 72
     6
 73
     3
 74
     0
 42
0.000000001
 43
0.0000000001
 40
0.0
 40
0.0
 40
0.0
 40
1.0
 40
1.0
 40
1.0
 10
179.263143581236
 20
172.3951432307146
 30
0.0
 10
178.8370555712372
 20
172.3951735007727
 30
0.0
 10
178.4174310272066
 20
172.4321449416884
 30
0.0
  0
SPLINE
  5
18E
330
1F
100
AcDbEntity
  8
1
100
AcDbSpline
210
0.0
220
0.0
230
1.0
 70
    24
 71
     1
 72
     4
 73
     2
 74
     0
 42
0.000000001
 43
0.0000000001
 40
0.0
 40
0.0
 40
1.0
 40
1.0
 10
178.2034672487191
 20
172.45092297438
 30
0.0
 10
178.1809389422071
 20
172.5014910515953
 30
0.0
  0
SPLINE
  5
18F
330
1F
100
AcDbEntity
  8
1
100
AcDbSpline
210
0.0
220
0.0
230
1.0
 70
     8
 71
     3
 72
     8
 73
     4
 74
     0
 42
0.000000001
 43
0.0000000001
 40
0.0
 40
0.0
 40
0.0
 40
0.0
 40
1.0
 40
1.0
 40
1.0
 40
1.0
 10
177.1698629899758
 20
171.5048989989087
 30
0.0
 10
177.1256466828053
 20
171.4865260594839
 30
0.0
 10
177.0814335606483
 20
171.4681397005324
 30
0.0
 10
177.0372236223115
 20
171.4497399248596
 30
0.0
  0
SPLINE
  5
190
330
1F
100
AcDbEntity
  8
1
100
AcDbSpline
210
0.0
220
0.0
230
1.0
 70
    24
 71
     1
 72
     4
 73
     2
 74
     0
 42
0.000000001
 43
0.0000000001
 40
0.0
 40
0.0
 40
1.0
 40
1.0
 10
179.3749274768941
 20
165.4044727284978
 30
0.0
 10
179.263143581236
 20
165.3129698571147
 30
0.0
  0
SPLINE
  5
191
330
1F
100
AcDbEntity
  8
1
100
AcDbSpline
210
0.0
220
0.0
230
1.0
 70
     8
 71
     3
 72
    18
 73
    14
 74
     0
 42
0.000000001
 43
0.0000000001
 40
0.0
 40
0.0
 40
0.0
 40
0.0
 40
0.094836230698407
 40
0.188661143099852
 40
0.2815466549263469
 40
0.3735671304711874
 40
0.4647988589280603
 40
0.5553195078223913
 40
0.6452075593280711
 40
0.7345417380892087
 40
0.8234004397260207
 40
0.9118611694381382
 40
1.0
 40
1.0
 40
1.0
 40
1.0
 10
193.1939164179651
 20
163.0416820574044
 30
0.0
 10
193.1321706447137
 20
163.0527110567896
 30
0.0
 10
193.0093375451966
 20
163.0746514440862
 30
0.0
 10
192.8263223893094
 20
163.1175929866633
 30
0.0
 10
192.6458694738028
 20
163.1674467555933
 30
0.0
 10
192.4682272825394
 20
163.2247399264157
 30
0.0
 10
192.2936462127292
 20
163.289082138034
 30
0.0
 10
192.1223623744575
 20
163.3603173440674
 30
0.0
 10
191.9546127288766
 20
163.4382363531858
 30
0.0
 10
191.7905894940625
 20
163.5225940107042
 30
0.0
 10
191.6306047129279
 20
163.6133253072007
 30
0.0
 10
191.4744806641772
 20
163.7096737749291
 30
0.0
 10
191.3738778603551
 20
163.7789615984747
 30
0.0
 10
191.3236681459802
 20
163.8135423626058
 30
0.0
  0
SPLINE
  5
192
330
1F
100
AcDbEntity
  8
1
100
AcDbSpline
210
0.0
220
0.0
230
1.0
 70
    24
 71
     1
 72
     4
 73
     2
 74
     0
 42
0.000000001
 43
0.0000000001
 40
0.0
 40
0.0
 40
1.0
 40
1.0
 10
198.1346270474475
 20
170.3626326797416
 30
0.0
 10
198.2469812919629
 20
170.4477295723781
 30
0.0
  0
SPLINE
  5
193
330
1F
100
AcDbEntity
  8
1
100
AcDbSpline
210
0.0
220
0.0
230
1.0
 70
     8
 71
     3
 72
     8
 73
     4
 74
     0
 42
0.000000001
 43
0.0000000001
 40
0.0
 40
0.0
 40
0.0
 40
0.0
 40
1.0
 40
1.0
 40
1.0
 40
1.0
 10
186.2567243514524
 20
170.5958859801806
 30
0.0
 10
186.3101174514421
 20
170.5300134812242
 30
0.0
 10
186.3630948526178
 20
170.4637190998449
 30
0.0
 10
186.4160722537935
 20
170.3974247184656
 30
0.0
  0
SPLINE
  5
194
330
1F
100
AcDbEntity
  8
1
100
AcDbSpline
210
0.0
220
0.0
230
1.0
 70
     8
 71
     3
 72
    11
 73
     7
 74
     0
 42
0.000000001
 43
0.0000000001
 40
0.0
 40
0.0
 40
0.0
 40
0.0
 40
0.2694426820330916
 40
0.5258227110141479
 40
0.7692852869753386
 40
1.0
 40
1.0
 40
1.0
 40
1.0
 10
186.4160722537935
 20
170.3974247184656
 30
0.0
 10
186.5022946352038
 20
170.2869044824734
 30
0.0
 10
186.6705593139887
 20
170.071222060992
 30
0.0
 10
186.9265507952622
 20
169.7617434225419
 30
0.0
 10
187.1763065214592
 20
169.472259467359
 30
0.0
 10
187.34542787059
 20
169.2895219274938
 30
0.0
 10
187.4277152015892
 20
169.2006095311219
 30
0.0
  0
SPLINE
  5
195
330
1F
100
AcDbEntity
  8
1
100
AcDbSpline
210
0.0
220
0.0
230
1.0
 70
    24
 71
     1
 72
     4
 73
     2
 74
     0
 42
0.000000001
 43
0.0000000001
 40
0.0
 40
0.0
 40
1.0
 40
1.0
 10
177.1714216646048
 20
171.4896087899447
 30
0.0
 10
177.0371094346405
 20
171.4507670392264
 30
0.0
  0
SPLINE
  5
196
330
1F
100
AcDbEntity
  8
1
100
AcDbSpline
210
0.0
220
0.0
230
1.0
 70
     8
 71
     3
 72
    15
 73
    11
 74
     0
 42
0.000000001
 43
0.0000000001
 40
0.0
 40
0.0
 40
0.0
 40
0.0
 40
0.1248642928826919
 40
0.2497741223486188
 40
0.3747247254126436
 40
0.4997124273891771
 40
0.6247346655324073
 40
0.7497900074195427
 40
0.8748781643465287
 40
1.0
 40
1.0
 40
1.0
 40
1.0
 10
179.263143581236
 20
165.3129698571147
 30
0.0
 10
179.2228823055495
 20
165.3416363222231
 30
0.0
 10
179.1423450713484
 20
165.3989797067728
 30
0.0
 10
179.0256386772528
 20
165.4959097372258
 30
0.0
 10
178.9119741188255
 20
165.6005676558835
 30
0.0
 10
178.8016953598182
 20
165.71354570894
 30
0.0
 10
178.6947387029198
 20
165.8343667770614
 30
0.0
 10
178.591237770325
 20
165.9630461190479
 30
0.0
 10
178.4908935123806
 20
166.0987167504881
 30
0.0
 10
178.4269025038304
 20
166.1952730163071
 30
0.0
 10
178.3949026929014
 20
166.2435576475424
 30
0.0
  0
SPLINE
  5
197
330
1F
100
AcDbEntity
  8
1
100
AcDbSpline
210
0.0
220
0.0
230
1.0
 70
     8
 71
     3
 72
     8
 73
     4
 74
     0
 42
0.000000001
 43
0.0000000001
 40
0.0
 40
0.0
 40
0.0
 40
0.0
 40
1.0
 40
1.0
 40
1.0
 40
1.0
 10
178.3949026929014
 20
172.4827202146421
 30
0.0
 10
178.6813716560551
 20
172.4578859604977
 30
0.0
 10
178.9722553725703
 20
172.4451665393852
 30
0.0
 10
179.263143581236
 20
172.4447547791901
 30
0.0
  0
SPLINE
  5
198
330
1F
100
AcDbEntity
  8
1
100
AcDbSpline
210
0.0
220
0.0
230
1.0
 70
     8
 71
     2
 72
     6
 73
     3
 74
     0
 42
0.000000001
 43
0.0000000001
 40
0.0
 40
0.0
 40
0.0
 40
1.0
 40
1.0
 40
1.0
 10
198.1346270474475
 20
170.3626326797416
 30
0.0
 10
197.770500325893
 20
171.0502742039432
 30
0.0
 10
197.4569940569189
 20
171.6625448370659
 30
0.0
  0
SPLINE
  5
199
330
1F
100
AcDbEntity
  8
1
100
AcDbSpline
210
0.0
220
0.0
230
1.0
 70
     8
 71
     3
 72
    16
 73
    12
 74
     0
 42
0.000000001
 43
0.0000000001
 40
0.0
 40
0.0
 40
0.0
 40
0.0
 40
0.2499999999999981
 40
0.2499999999999981
 40
0.4999999999999963
 40
0.4999999999999963
 40
0.7499999999999944
 40
0.7499999999999944
 40
0.8749999999999971
 40
0.8749999999999971
 40
1.0
 40
1.0
 40
1.0
 40
1.0
 10
188.8162354753416
 20
174.4491765599936
 30
0.0
 10
188.682115429734
 20
174.6099415710182
 30
0.0
 10
188.6029207776492
 20
174.8060386918173
 30
0.0
 10
188.5800997471007
 20
175.2173022074668
 30
0.0
 10
188.6362345893636
 20
175.4229796257269
 30
0.0
 10
188.8669211337479
 20
175.7676928773403
 30
0.0
 10
189.0427584423085
 20
175.901783790074
 30
0.0
 10
189.3435858174921
 20
175.9882915891605
 30
0.0
 10
189.450033447317
 20
175.998415198927
 30
0.0
 10
189.6594138556406
 20
175.9810385463631
 30
0.0
 10
189.7628262193021
 20
175.9538024451902
 30
0.0
 10
189.8599898432009
 20
175.9115017173057
 30
0.0
  0
SPLINE
  5
19A
330
1F
100
AcDbEntity
  8
1
100
AcDbSpline
210
0.0
220
0.0
230
1.0
 70
     8
 71
     3
 72
    14
 73
    10
 74
     0
 42
0.000000001
 43
0.0000000001
 40
0.0
 40
0.0
 40
0.0
 40
0.0
 40
0.1320793760995823
 40
0.2677184727094021
 40
0.4069367056130316
 40
0.5497536439137959
 40
0.6961892667798956
 40
0.8462642095931489
 40
1.0
 40
1.0
 40
1.0
 40
1.0
 10
189.8599885014956
 20
175.9114847430151
 30
0.0
 10
189.9289625764401
 20
175.9002509470772
 30
0.0
 10
190.0687696723394
 20
175.8774805889786
 30
0.0
 10
190.2771050829858
 20
175.8367471052632
 30
0.0
 10
190.4871494541284
 20
175.790401583371
 30
0.0
 10
190.6979385806089
 20
175.7377819113823
 30
0.0
 10
190.9085847299617
 20
175.678658109787
 30
0.0
 10
191.1188573354789
 20
175.6132036355058
 30
0.0
 10
191.2548516427169
 20
175.5645965486617
 30
0.0
 10
191.3236681459802
 20
175.5400001532804
 30
0.0
  0
SPLINE
  5
19B
330
1F
100
AcDbEntity
  8
1
100
AcDbSpline
210
0.0
220
0.0
230
1.0
 70
     8
 71
     2
 72
     6
 73
     3
 74
     0
 42
0.000000001
 43
0.0000000001
 40
0.0
 40
0.0
 40
0.0
 40
1.0
 40
1.0
 40
1.0
 10
191.3754031988988
 20
175.4814323783478
 30
0.0
 10
190.7879942417933
 20
175.6952573378607
 30
0.0
 10
190.1168438062669
 20
175.8165026433614
 30
0.0
  0
SPLINE
  5
19C
330
1F
100
AcDbEntity
  8
1
100
AcDbSpline
210
0.0
220
0.0
230
1.0
 70
     8
 71
     3
 72
    23
 73
    19
 74
     0
 42
0.000000001
 43
0.0000000001
 40
0.0
 40
0.0
 40
0.0
 40
0.0
 40
0.0249991960038392
 40
0.0499263959238815
 40
0.0748220603365864
 40
0.0997268035863479
 40
0.1246811957486869
 40
0.1871340046502657
 40
0.2496150973747863
 40
0.3117057018491789
 40
0.3738839103078053
 40
0.4987763254997124
 40
0.6226559608194235
 40
0.7484116686004563
 40
0.8097773068067478
 40
0.8718644277407078
 40
0.9351284504316495
 40
1.0
 40
1.0
 40
1.0
 40
1.0
 10
186.4186548572636
 20
186.6541661871312
 30
0.0
 10
186.3610058179865
 20
186.6336819697136
 30
0.0
 10
186.2458737649741
 20
186.592772528113
 30
0.0
 10
186.0699886174373
 20
186.5391519313966
 30
0.0
 10
185.8922256957719
 20
186.4914273825884
 30
0.0
 10
185.7123211342511
 20
186.4501768483046
 30
0.0
 10
185.439506253158
 20
186.3978321973128
 30
0.0
 10
185.0701392274332
 20
186.3510056872449
 30
0.0
 10
184.6051149239379
 20
186.3354176175762
 30
0.0
 10
184.1413517212016
 20
186.3620100714969
 30
0.0
 10
183.529991893964
 20
186.4532778108053
 30
0.0
 10
182.7908982635649
 20
186.670328152402
 30
0.0
 10
181.9769157980616
 20
187.0772425287926
 30
0.0
 10
181.3890593058196
 20
187.5161668227272
 30
0.0
 10
180.9792002743229
 20
187.9082765433905
 30
0.0
 10
180.7040695010383
 20
188.2187968407912
 30
0.0
 10
180.4546769528254
 20
188.5474197426512
 30
0.0
 10
180.3149780400571
 20
188.7750838631359
 30
0.0
 10
180.2442522861973
 20
188.8903440053162
 30
0.0
  0
SPLINE
  5
19D
330
1F
100
AcDbEntity
  8
1
100
AcDbSpline
210
0.0
220
0.0
230
1.0
 70
    24
 71
     1
 72
     4
 73
     2
 74
     0
 42
0.000000001
 43
0.0000000001
 40
0.0
 40
0.0
 40
1.0
 40
1.0
 10
178.4174310272066
 20
194.4926856559103
 30
0.0
 10
178.2034658277046
 20
194.4549510567302
 30
0.0
  0
SPLINE
  5
19E
330
1F
100
AcDbEntity
  8
1
100
AcDbSpline
210
0.0
220
0.0
230
1.0
 70
     8
 71
     3
 72
     8
 73
     4
 74
     0
 42
0.000000001
 43
0.0000000001
 40
0.0
 40
0.0
 40
0.0
 40
0.0
 40
1.0
 40
1.0
 40
1.0
 40
1.0
 10
193.0873446907447
 20
189.1592774473735
 30
0.0
 10
193.1222120011681
 20
189.153310522556
 30
0.0
 10
193.1577710846049
 20
189.1472260143103
 30
0.0
 10
193.1940338143636
 20
189.141011569528
 30
0.0
  0
SPLINE
  5
19F
330
1F
100
AcDbEntity
  8
1
100
AcDbSpline
210
0.0
220
0.0
230
1.0
 70
    24
 71
     1
 72
     4
 73
     2
 74
     0
 42
0.000000001
 43
0.0000000001
 40
0.0
 40
0.0
 40
1.0
 40
1.0
 10
179.3749274768941
 20
190.5422860557986
 30
0.0
 10
179.263143581236
 20
190.5704675147586
 30
0.0
  0
SPLINE
  5
1A0
330
1F
100
AcDbEntity
  8
1
100
AcDbSpline
210
0.0
220
0.0
230
1.0
 70
     8
 71
     3
 72
    23
 73
    19
 74
     0
 42
0.000000001
 43
0.0000000001
 40
0.0
 40
0.0
 40
0.0
 40
0.0
 40
0.0520508927501359
 40
0.1037455266137593
 40
0.1550941133364409
 40
0.2061070201870017
 40
0.2567947687009004
 40
0.3071680330489454
 40
0.3572376380170698
 40
0.4070145565841116
 40
0.4565099070860633
 40
0.5057349499569594
 40
0.5891481052706604
 40
0.6720700631816543
 40
0.7545579925732376
 40
0.8366698160498147
 40
0.9184641104004807
 40
1.0
 40
1.0
 40
1.0
 40
1.0
 10
178.3948987751645
 20
192.0176332992897
 30
0.0
 10
178.3554364305967
 20
192.0852662098726
 30
0.0
 10
178.2767818388636
 20
192.2200691220633
 30
0.0
 10
178.1648241384861
 20
192.41197096981
 30
0.0
 10
178.0578175077534
 20
192.5953840147342
 30
0.0
 10
177.9561560985931
 20
192.76962602634
 30
0.0
 10
177.8597354086415
 20
192.9348703764772
 30
0.0
 10
177.7685832486201
 20
193.0910691992345
 30
0.0
 10
177.6826922415545
 20
193.2382390143731
 30
0.0
 10
177.6020646397622
 20
193.3763843628748
 30
0.0
 10
177.5266990707892
 20
193.5055193543801
 30
0.0
 10
177.4402486659021
 20
193.6536776770023
 30
0.0
 10
177.3476136123576
 20
193.812511237728
 30
0.0
 10
177.2550771231386
 20
193.9712051903986
 30
0.0
 10
177.1774633965165
 20
194.1042920895884
 30
0.0
 10
177.1151440848333
 20
194.2111083263996
 30
0.0
 10
177.0667464793251
 20
194.2940052563209
 30
0.0
 10
177.0471350183158
 20
194.3275648711671
 30
0.0
 10
177.0373448014614
 20
194.3443181312502
 30
0.0
  0
SPLINE
  5
1A1
330
1F
100
AcDbEntity
  8
1
100
AcDbSpline
210
0.0
220
0.0
230
1.0
 70
    24
 71
     2
 72
     6
 73
     3
 74
     0
 42
0.000000001
 43
0.0000000001
 40
0.0
 40
0.0
 40
0.0
 40
1.0
 40
1.0
 40
1.0
 10
186.3742827006913
 20
186.7159227022102
 30
0.0
 10
187.402048301013
 20
187.08999878853
 30
0.0
 10
188.3976384812647
 20
187.4523639796694
 30
0.0
  0
SPLINE
  5
1A2
330
1F
100
AcDbEntity
  8
1
100
AcDbSpline
210
0.0
220
0.0
230
1.0
 70
     8
 71
     3
 72
    19
 73
    15
 74
     0
 42
0.000000001
 43
0.0000000001
 40
0.0
 40
0.0
 40
0.0
 40
0.0
 40
0.0180054304413656
 40
0.1795590492812514
 40
0.3443605162792468
 40
0.5054635337804836
 40
0.6712055421618496
 40
0.7179894602203929
 40
0.7648023010893832
 40
0.8116630453237629
 40
0.8585919888567053
 40
0.905610243946567
 40
0.952739205131604
 40
1.0
 40
1.0
 40
1.0
 40
1.0
 10
198.8900039975628
 20
187.417385694117
 30
0.0
 10
198.8902791455504
 20
187.4355293039519
 30
0.0
 10
198.8855803725434
 20
187.6164823175775
 30
0.0
 10
198.7332570877555
 20
187.9629794631739
 30
0.0
 10
198.1462313635095
 20
188.4125044786059
 30
0.0
 10
197.2131629390043
 20
188.789660765564
 30
0.0
 10
196.2908461662822
 20
188.9930243674514
 30
0.0
 10
195.5955498118846
 20
189.0865950958641
 30
0.0
 10
195.2075464833628
 20
189.1258769770089
 30
0.0
 10
194.8108244177047
 20
189.15343817857
 30
0.0
 10
194.4080323687986
 20
189.1691506477453
 30
0.0
 10
194.0021951052747
 20
189.1725273459306
 30
0.0
 10
193.5955823469128
 20
189.1645370492856
 30
0.0
 10
193.3279057787114
 20
189.1488143445872
 30
0.0
 10
193.1938805633726
 20
189.1409420123279
 30
0.0
  0
SPLINE
  5
1A3
330
1F
100
AcDbEntity
  8
1
100
AcDbSpline
210
0.0
220
0.0
230
1.0
 70
     8
 71
     3
 72
    19
 73
    15
 74
     0
 42
0.000000001
 43
0.0000000001
 40
0.0
 40
0.0
 40
0.0
 40
0.0
 40
0.0643382428478996
 40
0.1217492502435887
 40
0.1722320316036124
 40
0.2157859131597199
 40
0.2524106582673643
 40
0.2821067280195857
 40
0.4314221350200244
 40
0.5619448064188627
 40
0.704763080008478
 40
0.840105469699694
 40
0.9318413105895187
 40
1.0
 40
1.0
 40
1.0
 40
1.0
 10
178.2034661649203
 20
194.4549489406594
 30
0.0
 10
178.1687478934028
 20
194.4502739009649
 30
0.0
 10
178.103049432582
 20
194.4414271785108
 30
0.0
 10
178.0108214393649
 20
194.4290663588406
 30
0.0
 10
177.9307452649003
 20
194.4185633430739
 30
0.0
 10
177.8627519803698
 20
194.4098574252709
 30
0.0
 10
177.8065544120726
 20
194.402818150309
 30
0.0
 10
177.6982381399451
 20
194.3891473915724
 30
0.0
 10
177.5507365477681
 20
194.3697776754548
 30
0.0
 10
177.37801391411
 20
194.346797173192
 30
0.0
 10
177.2475427257603
 20
194.3260048219861
 30
0.0
 10
177.1721035160489
 20
194.3098910754765
 30
0.0
 10
177.1447872118023
 20
194.2984738581498
 30
0.0
 10
177.1418754017974
 20
194.2928762486964
 30
0.0
 10
177.1433139265388
 20
194.2906657905779
 30
0.0
  0
SPLINE
  5
1A4
330
1F
100
AcDbEntity
  8
1
100
AcDbSpline
210
0.0
220
0.0
230
1.0
 70
    24
 71
     1
 72
     4
 73
     2
 74
     0
 42
0.000000001
 43
0.0000000001
 40
0.0
 40
0.0
 40
1.0
 40
1.0
 10
178.5292149229086
 20
191.9780210682507
 30
0.0
 10
178.3949026929465
 20
192.0176345380726
 30
0.0
  0
SPLINE
  5
1A5
330
1F
100
AcDbEntity
  8
1
100
AcDbSpline
210
0.0
220
0.0
230
1.0
 70
    24
 71
     1
 72
     4
 73
     2
 74
     0
 42
0.000000001
 43
0.0000000001
 40
0.0
 40
0.0
 40
1.0
 40
1.0
 10
193.1459805869202
 20
189.1806191682409
 30
0.0
 10
193.2016587561045
 20
189.1897115195887
 30
0.0
  0
SPLINE
  5
1A6
330
1F
100
AcDbEntity
  8
1
100
AcDbSpline
210
0.0
220
0.0
230
1.0
 70
    24
 71
     1
 72
     4
 73
     2
 74
     0
 42
0.000000001
 43
0.0000000001
 40
0.0
 40
0.0
 40
1.0
 40
1.0
 10
193.087344690745
 20
189.1592774473735
 30
0.0
 10
193.1459805869202
 20
189.1806191682409
 30
0.0
  0
SPLINE
  5
1A7
330
1F
100
AcDbEntity
  8
1
100
AcDbSpline
210
0.0
220
0.0
230
1.0
 70
     8
 71
     3
 72
     8
 73
     4
 74
     0
 42
0.000000001
 43
0.0000000001
 40
0.0
 40
0.0
 40
0.0
 40
0.0
 40
1.0
 40
1.0
 40
1.0
 40
1.0
 10
178.3949026929014
 20
194.6204273532316
 30
0.0
 10
178.6813716560551
 20
194.6709393813743
 30
0.0
 10
178.9722553725703
 20
194.6963927772897
 30
0.0
 10
179.263143581236
 20
194.696401626963
 30
0.0
  0
SPLINE
  5
1A8
330
1F
100
AcDbEntity
  8
1
100
AcDbSpline
210
0.0
220
0.0
230
1.0
 70
    24
 71
     2
 72
     8
 73
     5
 74
     0
 42
0.000000001
 43
0.0000000001
 40
0.0
 40
0.0
 40
0.0
 40
0.5
 40
0.5
 40
1.0
 40
1.0
 40
1.0
 10
188.3976384812647
 20
187.4523639796694
 30
0.0
 10
189.1821572035179
 20
187.737905442794
 30
0.0
 10
189.915767224432
 20
188.0049176539662
 30
0.0
 10
190.6929294260577
 20
188.2877815625548
 30
0.0
 10
191.354066648759
 20
188.5284158323835
 30
0.0
  0
SPLINE
  5
1A9
330
1F
100
AcDbEntity
  8
1
100
AcDbSpline
210
0.0
220
0.0
230
1.0
 70
     8
 71
     3
 72
    18
 73
    14
 74
     0
 42
0.000000001
 43
0.0000000001
 40
0.0
 40
0.0
 40
0.0
 40
0.0
 40
0.094836230698398
 40
0.1886611430998366
 40
0.28154665492632
 40
0.3735671304711618
 40
0.4647988589280331
 40
0.5553195078223624
 40
0.6452075593280454
 40
0.7345417380891863
 40
0.823400439726004
 40
0.9118611694381284
 40
1.0
 40
1.0
 40
1.0
 40
1.0
 10
193.193916417965
 20
189.1408454083171
 30
0.0
 10
193.1321706447136
 20
189.118660029924
 30
0.0
 10
193.0093375451966
 20
189.0745258544419
 30
0.0
 10
192.8263223893093
 20
189.0086340107327
 30
0.0
 10
192.6458694738027
 20
188.9435996480383
 30
0.0
 10
192.4682272825394
 20
188.8795187322663
 30
0.0
 10
192.2936462127292
 20
188.8164947889955
 30
0.0
 10
192.1223623744575
 20
188.7546146751867
 30
0.0
 10
191.9546127288766
 20
188.693958717473
 30
0.0
 10
191.7905894940625
 20
188.6345851759881
 30
0.0
 10
191.6306047129279
 20
188.5765831534008
 30
0.0
 10
191.4744806641772
 20
188.519879378318
 30
0.0
 10
191.3738778603551
 20
188.4832070358906
 30
0.0
 10
191.3236681459802
 20
188.464904287172
 30
0.0
  0
SPLINE
  5
1AA
330
1F
100
AcDbEntity
  8
1
100
AcDbSpline
210
0.0
220
0.0
230
1.0
 70
     8
 71
     3
 72
    15
 73
    11
 74
     0
 42
0.000000001
 43
0.0000000001
 40
0.0
 40
0.0
 40
0.0
 40
0.0
 40
0.1248642928826749
 40
0.2497741223485919
 40
0.3747247254126085
 40
0.4997124273891387
 40
0.6247346655323709
 40
0.7497900074195142
 40
0.8748781643465132
 40
1.0
 40
1.0
 40
1.0
 40
1.0
 10
179.263143581236
 20
190.5704675147587
 30
0.0
 10
179.2228823055495
 20
190.6376434744524
 30
0.0
 10
179.1423450713484
 20
190.7720198921459
 30
0.0
 10
179.0256386772529
 20
190.9666506322242
 30
0.0
 10
178.9119741188255
 20
191.1561610570382
 30
0.0
 10
178.8016953598183
 20
191.3399804152102
 30
0.0
 10
178.6947387029199
 20
191.5182239110658
 30
0.0
 10
178.591237770325
 20
191.6906678047427
 30
0.0
 10
178.4908935123806
 20
191.8578127609483
 30
0.0
 10
178.4269025038304
 20
191.9643558321168
 30
0.0
 10
178.3949026929014
 20
192.0176345381479
 30
0.0
  0
SPLINE
  5
1AB
330
1F
100
AcDbEntity
  8
1
100
AcDbSpline
210
0.0
220
0.0
230
1.0
 70
     8
 71
     3
 72
    29
 73
    25
 74
     0
 42
0.000000001
 43
0.0000000001
 40
0.0
 40
0.0
 40
0.0
 40
0.0
 40
0.0338922522789028
 40
0.0676119689805327
 40
0.1011830834976841
 40
0.1346298481563998
 40
0.1679767865189837
 40
0.2012486428095111
 40
0.2344703289449677
 40
0.2676668697145196
 40
0.3008633466965088
 40
0.3340848415354148
 40
0.3673563792177774
 40
0.4007028719860955
 40
0.4341490645130277
 40
0.4677194809256395
 40
0.501438374222364
 40
0.6251260446635936
 40
0.7504131561186013
 40
0.8007386651294096
 40
0.8507900410589254
 40
0.9006369459252338
 40
0.9503499013976803
 40
1.0
 40
1.0
 40
1.0
 40
1.0
 10
180.3560361818553
 20
188.8766939913361
 30
0.0
 10
180.391251749363
 20
188.8184730569988
 30
0.0
 10
180.4615036121889
 20
188.7023275741302
 30
0.0
 10
180.5780677461066
 20
188.5304218114775
 30
0.0
 10
180.702546178249
 20
188.3614285690038
 30
0.0
 10
180.8357789763071
 20
188.1959261815284
 30
0.0
 10
180.9775577674564
 20
188.0343872752909
 30
0.0
 10
181.1279189787836
 20
187.8773288014362
 30
0.0
 10
181.286797384443
 20
187.7252705003853
 30
0.0
 10
181.4541166058399
 20
187.5787442339456
 30
0.0
 10
181.6297630485087
 20
187.4382895786408
 30
0.0
 10
181.813591255541
 20
187.3044528802216
 30
0.0
 10
182.005420094906
 20
187.1777853030406
 30
0.0
 10
182.2050346558086
 20
187.0588405837188
 30
0.0
 10
182.4121748790521
 20
186.9481741116133
 30
0.0
 10
182.6265722749667
 20
186.8463361099817
 30
0.0
 10
183.044150104815
 20
186.6718384843771
 30
0.0
 10
183.6989538348021
 20
186.4806040523206
 30
0.0
 10
184.4242137572002
 20
186.4056973583546
 30
0.0
 10
184.97078038025
 20
186.4193821350907
 30
0.0
 10
185.3327689245395
 20
186.4547947222514
 30
0.0
 10
185.6886153829594
 20
186.5163514256921
 30
0.0
 10
186.0375942203886
 20
186.601122477832
 30
0.0
 10
186.262100548009
 20
186.6776721024642
 30
0.0
 10
186.3742827006913
 20
186.7159227022102
 30
0.0
  0
SPLINE
  5
1AC
330
1F
100
AcDbEntity
  8
1
100
AcDbSpline
210
0.0
220
0.0
230
1.0
 70
     8
 71
     3
 72
     9
 73
     5
 74
     0
 42
0.000000001
 43
0.0000000001
 40
0.0
 40
0.0
 40
0.0
 40
0.0
 40
0.4924003134625999
 40
1.0
 40
1.0
 40
1.0
 40
1.0
 10
188.4420106378371
 20
187.3970325407736
 30
0.0
 10
188.1105091770671
 20
187.2753237438755
 30
0.0
 10
187.4372734952317
 20
187.0281492527743
 30
0.0
 10
186.7616175853346
 20
186.7800840210137
 30
0.0
 10
186.4186548572636
 20
186.6541661871312
 30
0.0
  0
SPLINE
  5
1AD
330
1F
100
AcDbEntity
  8
1
100
AcDbSpline
210
0.0
220
0.0
230
1.0
 70
     8
 71
     3
 72
    13
 73
     9
 74
     0
 42
0.000000001
 43
0.0000000001
 40
0.0
 40
0.0
 40
0.0
 40
0.0
 40
0.1720546080350263
 40
0.3419391613989488
 40
0.509664494673981
 40
0.6752418663823652
 40
0.838682979002259
 40
1.0
 40
1.0
 40
1.0
 40
1.0
 10
180.2442522861973
 20
188.8903440053162
 30
0.0
 10
180.1851614914368
 20
188.9915367451733
 30
0.0
 10
180.0677251900349
 20
189.1926459220886
 30
0.0
 10
179.8964846720947
 20
189.4859123359318
 30
0.0
 10
179.7302617886531
 20
189.7705720437139
 30
0.0
 10
179.5694032232776
 20
190.0460300681629
 30
0.0
 10
179.4135281791383
 20
190.3129406414023
 30
0.0
 10
179.3130527261639
 20
190.4850003444204
 30
0.0
 10
179.263143581236
 20
190.5704675147586
 30
0.0
  0
SPLINE
  5
1AE
330
1F
100
AcDbEntity
  8
1
100
AcDbSpline
210
0.0
220
0.0
230
1.0
 70
    24
 71
     1
 72
     4
 73
     2
 74
     0
 42
0.000000001
 43
0.0000000001
 40
0.0
 40
0.0
 40
1.0
 40
1.0
 10
180.3560361818553
 20
188.8766939913361
 30
0.0
 10
180.2442522861973
 20
188.8903440053162
 30
0.0
  0
SPLINE
  5
1AF
330
1F
100
AcDbEntity
  8
1
100
AcDbSpline
210
0.0
220
0.0
230
1.0
 70
    24
 71
     2
 72
     7
 73
     4
 74
     0
 42
0.000000001
 43
0.0000000001
 40
0.0
 40
0.0
 40
0.0
 40
0.5
 40
1.0
 40
1.0
 40
1.0
 10
191.354066648759
 20
188.5284158323835
 30
0.0
 10
191.7503011822825
 20
188.6726334083744
 30
0.0
 10
192.6269826516645
 20
188.9917193681622
 30
0.0
 10
193.0873446907447
 20
189.1592774473735
 30
0.0
  0
SPLINE
  5
1B0
330
1F
100
AcDbEntity
  8
1
100
AcDbSpline
210
0.0
220
0.0
230
1.0
 70
    24
 71
     2
 72
     6
 73
     3
 74
     0
 42
0.000000001
 43
0.0000000001
 40
0.0
 40
0.0
 40
0.0
 40
1.0
 40
1.0
 40
1.0
 10
178.5292149228646
 20
191.9780210683255
 30
0.0
 10
178.9085490037405
 20
191.334039589319
 30
0.0
 10
179.3749274768941
 20
190.5422860557986
 30
0.0
  0
SPLINE
  5
1B1
330
1F
100
AcDbEntity
  8
1
100
AcDbSpline
210
0.0
220
0.0
230
1.0
 70
     8
 71
     3
 72
    12
 73
     8
 74
     0
 42
0.000000001
 43
0.0000000001
 40
0.0
 40
0.0
 40
0.0
 40
0.0
 40
0.25
 40
0.25
 40
0.5
 40
0.5
 40
1.0
 40
1.0
 40
1.0
 40
1.0
 10
172.4900593537976
 20
168.7490559727173
 30
0.0
 10
172.5755533936794
 20
168.7490559727173
 30
0.0
 10
172.6594605054399
 20
168.7254441909355
 30
0.0
 10
172.7919616285046
 20
168.6546388879906
 30
0.0
 10
172.842933830238
 20
168.6087476307946
 30
0.0
 10
172.9593604118289
 20
168.46201244005
 30
0.0
 10
172.9900593537976
 20
168.354418270678
 30
0.0
 10
172.9900593537976
 20
168.2490559727173
 30
0.0
  0
SPLINE
  5
1B2
330
1F
100
AcDbEntity
  8
1
100
AcDbSpline
210
0.0
220
0.0
230
1.0
 70
     8
 71
     3
 72
    14
 73
    10
 74
     0
 42
0.000000001
 43
0.0000000001
 40
0.0
 40
0.0
 40
0.0
 40
0.0
 40
0.25
 40
0.25
 40
0.5
 40
0.5
 40
0.75
 40
0.75
 40
1.0
 40
1.0
 40
1.0
 40
1.0
 10
160.9900593537975
 20
168.2490559727173
 30
0.0
 10
160.9900593537975
 20
168.3014072740363
 30
0.0
 10
160.9982418506861
 20
168.3545603604208
 30
0.0
 10
161.032864339094
 20
168.4587899726356
 30
0.0
 10
161.0597314420618
 20
168.5111351662555
 30
0.0
 10
161.1370450888729
 20
168.6085675080874
 30
0.0
 10
161.1881923641941
 20
168.6546636931919
 30
0.0
 10
161.3206845516754
 20
168.7254523189742
 30
0.0
 10
161.4044850229652
 20
168.7490559727173
 30
0.0
 10
161.490059353798
 20
168.7490559727173
 30
0.0
  0
SPLINE
  5
1B3
330
1F
100
AcDbEntity
  8
1
100
AcDbSpline
210
0.0
220
0.0
230
1.0
 70
     8
 71
     3
 72
    14
 73
    10
 74
     0
 42
0.000000001
 43
0.0000000001
 40
0.0
 40
0.0
 40
0.0
 40
0.0
 40
0.25
 40
0.25
 40
0.5
 40
0.5
 40
0.75
 40
0.75
 40
1.0
 40
1.0
 40
1.0
 40
1.0
 10
172.9900593537976
 20
191.1490559727172
 30
0.0
 10
172.9900593537976
 20
191.0963628923666
 30
0.0
 10
172.9819429595901
 20
191.04393421179
 30
0.0
 10
172.9475193069724
 20
190.93993768679
 30
0.0
 10
172.9207349921728
 20
190.8875238793905
 30
0.0
 10
172.8433978830517
 20
190.7898451361959
 30
0.0
 10
172.7922680738299
 20
190.7436845643728
 30
0.0
 10
172.6596469552449
 20
190.672719815574
 30
0.0
 10
172.5758066484159
 20
190.6490559727171
 30
0.0
 10
172.4900593537976
 20
190.6490559727171
 30
0.0
  0
SPLINE
  5
1B4
330
1F
100
AcDbEntity
  8
1
100
AcDbSpline
210
0.0
220
0.0
230
1.0
 70
     8
 71
     3
 72
    12
 73
     8
 74
     0
 42
0.000000001
 43
0.0000000001
 40
0.0
 40
0.0
 40
0.0
 40
0.0
 40
0.2499999999999986
 40
0.2499999999999986
 40
0.4999999999999972
 40
0.4999999999999972
 40
1.0
 40
1.0
 40
1.0
 40
1.0
 10
161.4900593537976
 20
190.6490559727171
 30
0.0
 10
161.404372035488
 20
190.6490559727171
 30
0.0
 10
161.3204256817699
 20
190.6727276881517
 30
0.0
 10
161.1877232762715
 20
190.7437695140378
 30
0.0
 10
161.136745068537
 20
190.7897924001884
 30
0.0
 10
161.0204618758257
 20
190.9367274453529
 30
0.0
 10
160.9900593537976
 20
191.0451037989064
 30
0.0
 10
160.9900593537976
 20
191.1490559727172
 30
0.0
  0
SPLINE
  5
1B5
330
1F
100
AcDbEntity
  8
1
100
AcDbSpline
210
0.0
220
0.0
230
1.0
 70
     8
 71
     3
 72
    19
 73
    15
 74
     0
 42
0.000000001
 43
0.0000000001
 40
0.0
 40
0.0
 40
0.0
 40
0.0
 40
0.0622776066611407
 40
0.1244546385657925
 40
0.186595695628529
 40
0.2487632172782812
 40
0.3110176659013445
 40
0.3734177273693206
 40
0.4360205245952072
 40
0.4988818401628164
 40
0.6166529986903951
 40
0.7392425066636639
 40
0.8669353877898981
 40
1.0
 40
1.0
 40
1.0
 40
1.0
 10
191.3236681459802
 20
163.8135423626058
 30
0.0
 10
191.2694595326193
 20
163.85084770159
 30
0.0
 10
191.1611298496934
 20
163.9253981335794
 30
0.0
 10
190.993286570215
 20
164.0284584165261
 30
0.0
 10
190.8221376556038
 20
164.1247720741761
 30
0.0
 10
190.647550279646
 20
164.2136425453581
 30
0.0
 10
190.4699259919414
 20
164.2951583613157
 30
0.0
 10
190.2895273123887
 20
164.3692194471734
 30
0.0
 10
190.1066508450709
 20
164.4358048771323
 30
0.0
 10
189.8680488103025
 20
164.511971161853
 30
0.0
 10
189.5682722161323
 20
164.5891700625643
 30
0.0
 10
189.2036669440956
 20
164.6544215892404
 30
0.0
 10
188.8250283940503
 20
164.6953781383064
 30
0.0
 10
188.5714246765168
 20
164.6989770414471
 30
0.0
 10
188.4420106378371
 20
164.7008135625943
 30
0.0
  0
SPLINE
  5
1B6
330
1F
100
AcDbEntity
  8
1
100
AcDbSpline
210
0.0
220
0.0
230
1.0
 70
     8
 71
     3
 72
    29
 73
    25
 74
     0
 42
0.000000001
 43
0.0000000001
 40
0.0
 40
0.0
 40
0.0
 40
0.0
 40
0.0338922522789048
 40
0.0676119689805359
 40
0.1011830834976884
 40
0.1346298481564049
 40
0.1679767865189891
 40
0.2012486428095161
 40
0.2344703289449719
 40
0.2676668697145237
 40
0.3008633466965118
 40
0.3340848415354159
 40
0.3673563792177768
 40
0.4007028719860913
 40
0.4341490645130212
 40
0.4677194809256302
 40
0.501438374222351
 40
0.6251260446516961
 40
0.7504131561184721
 40
0.8007386651217567
 40
0.8507900410474888
 40
0.9006369459137966
 40
0.9503499013900512
 40
1.0
 40
1.0
 40
1.0
 40
1.0
 10
180.3560361818553
 20
164.933056323787
 30
0.0
 10
180.391251749363
 20
164.9224326877745
 30
0.0
 10
180.4615036121889
 20
164.9012394975838
 30
0.0
 10
180.5780677461067
 20
164.8745182183326
 30
0.0
 10
180.7025461782491
 20
164.8513379476733
 30
0.0
 10
180.8357789763071
 20
164.8318244389934
 30
0.0
 10
180.9775577674565
 20
164.8156312403154
 30
0.0
 10
181.1279189787837
 20
164.8025295493885
 30
0.0
 10
181.2867973844431
 20
164.7922518604901
 30
0.0
 10
181.4541166058399
 20
164.7845345248896
 30
0.0
 10
181.6297630485088
 20
164.7791073527166
 30
0.0
 10
181.8135912555412
 20
164.7756974099203
 30
0.0
 10
182.0054200949062
 20
164.7740292531888
 30
0.0
 10
182.2050346558086
 20
164.7738256841193
 30
0.0
 10
182.4121748790521
 20
164.774810428556
 30
0.0
 10
182.6265722749667
 20
164.7767029990418
 30
0.0
 10
183.0441501047889
 20
164.7814981406578
 30
0.0
 10
183.6989538347745
 20
164.790590893233
 30
0.0
 10
184.4242137571534
 20
164.7957823616827
 30
0.0
 10
184.9707803802044
 20
164.7947261929699
 30
0.0
 10
185.3327689244674
 20
164.7925186952414
 30
0.0
 10
185.6886153828883
 20
164.7891366499201
 30
0.0
 10
186.0375942203453
 20
164.7849842256159
 30
0.0
 10
186.2621005479917
 20
164.7820709335079
 30
0.0
 10
186.3742827006913
 20
164.7806152089252
 30
0.0
  0
SPLINE
  5
1B7
330
1F
100
AcDbEntity
  8
1
100
AcDbSpline
210
0.0
220
0.0
230
1.0
 70
     8
 71
     2
 72
     7
 73
     4
 74
     0
 42
0.000000001
 43
0.0000000001
 40
0.0
 40
0.0
 40
0.0
 40
0.5
 40
1.0
 40
1.0
 40
1.0
 10
177.1714216646048
 20
171.4896087899447
 30
0.0
 10
177.2469525479613
 20
169.8775064446885
 30
0.0
 10
177.9350452561889
 20
167.2598182322893
 30
0.0
 10
178.5292083472175
 20
166.3258137931997
 30
0.0
  0
SPLINE
  5
1B8
330
1F
100
AcDbEntity
  8
1
100
AcDbSpline
210
0.0
220
0.0
230
1.0
 70
     8
 71
     2
 72
     6
 73
     3
 74
     0
 42
0.000000001
 43
0.0000000001
 40
0.0
 40
0.0
 40
0.0
 40
1.0
 40
1.0
 40
1.0
 10
179.3749274768941
 20
165.4044727284978
 30
0.0
 10
179.8318837358266
 20
165.0856133262095
 30
0.0
 10
180.3560361818553
 20
164.933056323787
 30
0.0
  0
SPLINE
  5
1B9
330
1F
100
AcDbEntity
  8
1
100
AcDbSpline
210
0.0
220
0.0
230
1.0
 70
     8
 71
     3
 72
     9
 73
     5
 74
     0
 42
0.000000001
 43
0.0000000001
 40
0.0
 40
0.0
 40
0.0
 40
0.0
 40
0.5228837090733705
 40
1.0
 40
1.0
 40
1.0
 40
1.0
 10
177.1704278818812
 20
171.5053397018413
 30
0.0
 10
177.342892133233
 20
171.6406844334754
 30
0.0
 10
177.6727250355764
 20
171.899527325854
 30
0.0
 10
178.0026389184776
 20
172.1624257628093
 30
0.0
 10
178.1600544195404
 20
172.2883251335177
 30
0.0
  0
SPLINE
  5
1BA
330
1F
100
AcDbEntity
  8
1
100
AcDbSpline
210
0.0
220
0.0
230
1.0
 70
     8
 71
     3
 72
    32
 73
    28
 74
     0
 42
0.000000001
 43
0.0000000001
 40
0.0
 40
0.0
 40
0.0
 40
0.0
 40
0.124999999999999
 40
0.124999999999999
 40
0.1874999999999988
 40
0.1874999999999988
 40
0.2499999999999987
 40
0.2499999999999987
 40
0.3124999999999985
 40
0.3124999999999985
 40
0.3749999999999983
 40
0.3749999999999983
 40
0.4374999999999983
 40
0.4374999999999983
 40
0.4999999999999981
 40
0.4999999999999981
 40
0.5624999999999978
 40
0.5624999999999978
 40
0.6249999999999977
 40
0.6249999999999977
 40
0.7499999999999987
 40
0.7499999999999987
 40
0.8124999999999989
 40
0.8124999999999989
 40
0.8749999999999994
 40
0.8749999999999994
 40
1.0
 40
1.0
 40
1.0
 40
1.0
 10
182.848639762383
 20
182.9825593433176
 30
0.0
 10
182.848639762383
 20
183.2872327464163
 30
0.0
 10
182.8812918174288
 20
183.5842370223901
 30
0.0
 10
182.9915378690936
 20
184.0167496900986
 30
0.0
 10
183.0392307201951
 20
184.1599646131182
 30
0.0
 10
183.1573119746137
 20
184.4342138826051
 30
0.0
 10
183.2273447350474
 20
184.5651122983383
 30
0.0
 10
183.3931567433387
 20
184.8128995330243
 30
0.0
 10
183.4899223147127
 20
184.9304067251157
 30
0.0
 10
183.7056975999276
 20
185.1388750625641
 30
0.0
 10
183.8264146815149
 20
185.231867748569
 30
0.0
 10
184.0911928121029
 20
185.3867575842204
 30
0.0
 10
184.2313608843173
 20
185.4467486407294
 30
0.0
 10
184.5284277362715
 20
185.5298034331767
 30
0.0
 10
184.6859163940288
 20
185.5519951243355
 30
0.0
 10
184.995979115574
 20
185.5533704701387
 30
0.0
 10
185.1537085980521
 20
185.5326139855894
 30
0.0
 10
185.4524615377487
 20
185.451804086918
 30
0.0
 10
185.596478506519
 20
185.3912922186091
 30
0.0
 10
185.9943968045939
 20
185.1616648330209
 30
0.0
 10
186.2140420749651
 20
184.9452175128891
 30
0.0
 10
186.4655876853954
 20
184.5727036162668
 30
0.0
 10
186.5371832104078
 20
184.4396862264597
 30
0.0
 10
186.6554291695239
 20
184.1669987120389
 30
0.0
 10
186.702897534366
 20
184.026124720105
 30
0.0
 10
186.8150794941022
 20
183.5912123878156
 30
0.0
 10
186.848639762383
 20
183.2880716141096
 30
0.0
 10
186.848639762383
 20
182.9825593433176
 30
0.0
  0
SPLINE
  5
1BB
330
1F
100
AcDbEntity
  8
1
100
AcDbSpline
210
0.0
220
0.0
230
1.0
 70
    24
 71
     1
 72
     4
 73
     2
 74
     0
 42
0.000000001
 43
0.0000000001
 40
0.0
 40
0.0
 40
1.0
 40
1.0
 10
188.3111844482816
 20
194.6183282899084
 30
0.0
 10
188.2498250778805
 20
194.6964016284985
 30
0.0
  0
SPLINE
  5
1BC
330
1F
100
AcDbEntity
  8
1
100
AcDbSpline
210
0.0
220
0.0
230
1.0
 70
     8
 71
     3
 72
     8
 73
     4
 74
     0
 42
0.000000001
 43
0.0000000001
 40
0.0
 40
0.0
 40
0.0
 40
0.0
 40
1.0
 40
1.0
 40
1.0
 40
1.0
 10
188.4420106378371
 20
194.6644592124431
 30
0.0
 10
188.5668718241393
 20
194.6310446369675
 30
0.0
 10
188.6917329449062
 20
194.578124847112
 30
0.0
 10
188.8162439025
 20
194.5057370275877
 30
0.0
  0
SPLINE
  5
1BD
330
1F
100
AcDbEntity
  8
1
100
AcDbSpline
210
0.0
220
0.0
230
1.0
 70
     8
 71
     3
 72
     8
 73
     4
 74
     0
 42
0.000000001
 43
0.0000000001
 40
0.0
 40
0.0
 40
0.0
 40
0.0
 40
1.0
 40
1.0
 40
1.0
 40
1.0
 10
188.2498250767915
 20
194.6964016269631
 30
0.0
 10
188.3138869306629
 20
194.6917816000014
 30
0.0
 10
188.3779487845342
 20
194.6811298469196
 30
0.0
 10
188.4420106384055
 20
194.664459212453
 30
0.0
  0
SPLINE
  5
1BE
330
1F
100
AcDbEntity
  8
1
100
AcDbSpline
210
0.0
220
0.0
230
1.0
 70
    24
 71
     1
 72
     4
 73
     2
 74
     0
 42
0.000000001
 43
0.0000000001
 40
0.0
 40
0.0
 40
1.0
 40
1.0
 10
188.8240166755004
 20
194.4978739961634
 30
0.0
 10
188.9241907576809
 20
194.3959252767924
 30
0.0
  0
SPLINE
  5
1BF
330
1F
100
AcDbEntity
  8
1
100
AcDbSpline
210
0.0
220
0.0
230
1.0
 70
     8
 71
     3
 72
     8
 73
     4
 74
     0
 42
0.000000001
 43
0.0000000001
 40
0.0
 40
0.0
 40
0.0
 40
0.0
 40
1.0
 40
1.0
 40
1.0
 40
1.0
 10
188.8162440213695
 20
194.5057361689205
 30
0.0
 10
188.8188158344159
 20
194.5031154446681
 30
0.0
 10
188.8214067831956
 20
194.5004947204158
 30
0.0
 10
188.8240166755004
 20
194.4978739961634
 30
0.0
  0
SPLINE
  5
1C0
330
1F
100
AcDbEntity
  8
1
100
AcDbSpline
210
0.0
220
0.0
230
1.0
 70
    24
 71
     1
 72
     4
 73
     2
 74
     0
 42
0.000000001
 43
0.0000000001
 40
0.0
 40
0.0
 40
1.0
 40
1.0
 10
188.5610419925941
 20
194.5416555516408
 30
0.0
 10
188.4420106384055
 20
194.6644592466181
 30
0.0
  0
SPLINE
  5
1C1
330
1F
100
AcDbEntity
  8
1
100
AcDbSpline
210
0.0
220
0.0
230
1.0
 70
    24
 71
     1
 72
     4
 73
     2
 74
     0
 42
0.000000001
 43
0.0000000001
 40
0.0
 40
0.0
 40
1.0
 40
1.0
 10
188.3683778885732
 20
194.5733699057032
 30
0.0
 10
188.3111844482815
 20
194.6183282899084
 30
0.0
  0
SPLINE
  5
1C2
330
1F
100
AcDbEntity
  8
1
100
AcDbSpline
210
0.0
220
0.0
230
1.0
 70
     8
 71
     2
 72
     6
 73
     3
 74
     0
 42
0.000000001
 43
0.0000000001
 40
0.0
 40
0.0
 40
0.0
 40
1.0
 40
1.0
 40
1.0
 10
188.5610419925941
 20
194.5416555516408
 30
0.0
 10
188.464811778364
 20
194.566523521122
 30
0.0
 10
188.3683778885732
 20
194.5733699057032
 30
0.0
  0
SPLINE
  5
1C3
330
1F
100
AcDbEntity
  8
1
100
AcDbSpline
210
0.0
220
0.0
230
1.0
 70
     8
 71
     2
 72
     6
 73
     3
 74
     0
 42
0.000000001
 43
0.0000000001
 40
0.0
 40
0.0
 40
0.0
 40
1.0
 40
1.0
 40
1.0
 10
188.924190678187
 20
194.3959253377129
 30
0.0
 10
188.7434629667403
 20
194.4945038146832
 30
0.0
 10
188.5610419920256
 20
194.5416555177463
 30
0.0
  0
SPLINE
  5
1C4
330
1F
100
AcDbEntity
  8
1
100
AcDbSpline
210
0.0
220
0.0
230
1.0
 70
    24
 71
     1
 72
     4
 73
     2
 74
     0
 42
0.000000001
 43
0.0000000001
 40
0.0
 40
0.0
 40
1.0
 40
1.0
 10
178.2034672487191
 20
194.4549490861258
 30
0.0
 10
178.1809389422071
 20
194.5826906635083
 30
0.0
  0
SPLINE
  5
1C5
330
1F
100
AcDbEntity
  8
1
100
AcDbSpline
210
0.0
220
0.0
230
1.0
 70
     8
 71
     3
 72
     8
 73
     4
 74
     0
 42
0.000000001
 43
0.0000000001
 40
0.0
 40
0.0
 40
0.0
 40
0.0
 40
1.0
 40
1.0
 40
1.0
 40
1.0
 10
178.1809374933994
 20
194.5826926371415
 30
0.0
 10
178.2522592265667
 20
194.5952708701269
 30
0.0
 10
178.3235809597341
 20
194.6078491088383
 30
0.0
 10
178.3949026929014
 20
194.6204273532316
 30
0.0
  0
SPLINE
  5
1C6
330
1F
100
AcDbEntity
  8
1
100
AcDbSpline
210
0.0
220
0.0
230
1.0
 70
    24
 71
     1
 72
     4
 73
     2
 74
     0
 42
0.000000001
 43
0.0000000001
 40
0.0
 40
0.0
 40
1.0
 40
1.0
 10
188.3976384812647
 20
187.4523639796694
 30
0.0
 10
188.4420106378371
 20
187.3970325407736
 30
0.0
  0
SPLINE
  5
1C7
330
1F
100
AcDbEntity
  8
1
100
AcDbSpline
210
0.0
220
0.0
230
1.0
 70
    24
 71
     2
 72
     6
 73
     3
 74
     0
 42
0.000000001
 43
0.0000000001
 40
0.0
 40
0.0
 40
0.0
 40
1.0
 40
1.0
 40
1.0
 10
179.3749274768941
 20
190.5422860557986
 30
0.0
 10
179.8318837358266
 20
189.7665282678635
 30
0.0
 10
180.3560361818553
 20
188.8766939913361
 30
0.0
  0
SPLINE
  5
1C8
330
1F
100
AcDbEntity
  8
1
100
AcDbSpline
210
0.0
220
0.0
230
1.0
 70
     8
 71
     3
 72
     8
 73
     4
 74
     0
 42
0.000000001
 43
0.0000000001
 40
0.0
 40
0.0
 40
0.0
 40
0.0
 40
1.0
 40
1.0
 40
1.0
 40
1.0
 10
177.172049871192
 20
194.2820301233884
 30
0.0
 10
177.1271582357346
 20
194.3027778942256
 30
0.0
 10
177.0822672582213
 20
194.3235267990435
 30
0.0
 10
177.0373769387232
 20
194.3442768052722
 30
0.0
  0
SPLINE
  5
1C9
330
1F
100
AcDbEntity
  8
1
100
AcDbSpline
210
0.0
220
0.0
230
1.0
 70
     8
 71
     3
 72
    19
 73
    15
 74
     0
 42
0.000000001
 43
0.0000000001
 40
0.0
 40
0.0
 40
0.0
 40
0.0
 40
0.0512044496493465
 40
0.1014658964407853
 40
0.1512869380434194
 40
0.2011833226708374
 40
0.2516683353732509
 40
0.3764114279371991
 40
0.5019381122213402
 40
0.6256662576325348
 40
0.7509472411702931
 40
0.8338276083138323
 40
0.916334067067644
 40
1.0
 40
1.0
 40
1.0
 40
1.0
 10
177.0382696370408
 20
194.3443781569969
 30
0.0
 10
177.0309552275236
 20
194.3455412484649
 30
0.0
 10
177.0164611137566
 20
194.3478460114152
 30
0.0
 10
177.0072535702423
 20
194.3526940038906
 30
0.0
 10
177.0077206130239
 20
194.3585325670896
 30
0.0
 10
177.018683330668
 20
194.3654671083829
 30
0.0
 10
177.0501696226473
 20
194.3773443062316
 30
0.0
 10
177.1248208911076
 20
194.396241499947
 30
0.0
 10
177.2730282928513
 20
194.4252796481271
 30
0.0
 10
177.4630030164439
 20
194.4588946806625
 30
0.0
 10
177.6608184643359
 20
194.4927107737506
 30
0.0
 10
177.8466029603302
 20
194.5244995470783
 30
0.0
 10
178.01203606903
 20
194.5530348420003
 30
0.0
 10
178.1243770251443
 20
194.5727625497351
 30
0.0
 10
178.1809394348469
 20
194.5826952290178
 30
0.0
  0
SPLINE
  5
1CA
330
1F
100
AcDbEntity
  8
1
100
AcDbSpline
210
0.0
220
0.0
230
1.0
 70
     8
 71
     3
 72
    19
 73
    15
 74
     0
 42
0.000000001
 43
0.0000000001
 40
0.0
 40
0.0
 40
0.0
 40
0.0
 40
0.0622776066589154
 40
0.124454638561979
 40
0.1865956956237676
 40
0.2487632172732082
 40
0.3110176658965884
 40
0.3734177273655052
 40
0.4360205245929531
 40
0.4988818401627304
 40
0.616652998685853
 40
0.7392425066576301
 40
0.8669353877853758
 40
1.0
 40
1.0
 40
1.0
 40
1.0
 10
191.3236681459802
 20
188.464904287172
 30
0.0
 10
191.2694595326213
 20
188.4451842937217
 30
0.0
 10
191.1611298496987
 20
188.4057761534771
 30
0.0
 10
190.9932865702248
 20
188.344426314506
 30
0.0
 10
190.8221376556165
 20
188.2817466251603
 30
0.0
 10
190.6475502796599
 20
188.2176983286214
 30
0.0
 10
190.4699259919547
 20
188.152445295765
 30
0.0
 10
190.2895273123994
 20
188.0860656179811
 30
0.0
 10
190.1066508450771
 20
188.0186253534782
 30
0.0
 10
189.8680488103089
 20
187.9303590321504
 30
0.0
 10
189.568272216142
 20
187.8187397539344
 30
0.0
 10
189.2036669441099
 20
187.6825412233576
 30
0.0
 10
188.8250283940604
 20
187.5409878877522
 30
0.0
 10
188.5714246765212
 20
187.4456721731143
 30
0.0
 10
188.4420106378371
 20
187.3970325407736
 30
0.0
  0
SPLINE
  5
1CB
330
1F
100
AcDbEntity
  8
1
100
AcDbSpline
210
0.0
220
0.0
230
1.0
 70
     8
 71
     2
 72
     6
 73
     3
 74
     0
 42
0.000000001
 43
0.0000000001
 40
0.0
 40
0.0
 40
0.0
 40
1.0
 40
1.0
 40
1.0
 10
179.263143581236
 20
194.566689077858
 30
0.0
 10
178.8370555712373
 20
194.5666285377417
 30
0.0
 10
178.4174310272066
 20
194.4926856559103
 30
0.0
  0
SPLINE
  5
1CC
330
1F
100
AcDbEntity
  8
1
100
AcDbSpline
210
0.0
220
0.0
230
1.0
 70
     8
 71
     2
 72
    13
 73
    10
 74
     0
 42
0.000000001
 43
0.0000000001
 40
0.0
 40
0.0
 40
0.0
 40
0.2215268561481096
 40
0.4430537122962192
 40
0.4430537122962192
 40
0.6645805684443288
 40
0.6645805684443288
 40
0.8861074245924383
 40
0.8861074245924383
 40
1.0
 40
1.0
 40
1.0
 10
193.201671211406
 20
189.1897131612881
 30
0.0
 10
193.8844217997578
 20
189.2364552873177
 30
0.0
 10
195.2683812272979
 20
189.1852487826286
 30
0.0
 10
195.9074168491806
 20
189.0897757854272
 30
0.0
 10
196.5421688639906
 20
188.9949427663304
 30
0.0
 10
197.071685488926
 20
188.8392377176927
 30
0.0
 10
197.5940806916935
 20
188.6856267324571
 30
0.0
 10
197.9714615475835
 20
188.4845991214291
 30
0.0
 10
198.163245884641
 20
188.3824372165271
 30
0.0
 10
198.309133581807
 20
188.2725840708425
 30
0.0
  0
SPLINE
  5
1CD
330
1F
100
AcDbEntity
  8
1
100
AcDbSpline
210
0.0
220
0.0
230
1.0
 70
    24
 71
     2
 72
     7
 73
     4
 74
     0
 42
0.000000001
 43
0.0000000001
 40
0.0
 40
0.0
 40
0.0
 40
0.5
 40
1.0
 40
1.0
 40
1.0
 10
177.172049871192
 20
194.2820301233884
 30
0.0
 10
177.248560878445
 20
194.1521402081525
 30
0.0
 10
177.9362952267818
 20
192.9845989690874
 30
0.0
 10
178.5292083472175
 20
191.978032231559
 30
0.0
  0
SPLINE
  5
1CE
330
1F
100
AcDbEntity
  8
1
100
AcDbSpline
210
0.0
220
0.0
230
1.0
 70
     8
 71
     2
 72
     6
 73
     3
 74
     0
 42
0.000000001
 43
0.0000000001
 40
0.0
 40
0.0
 40
0.0
 40
1.0
 40
1.0
 40
1.0
 10
187.3970133743176
 20
169.1740209687621
 30
0.0
 10
186.9003184872281
 20
169.6945449456215
 30
0.0
 10
186.3742827006913
 20
170.3685559377035
 30
0.0
  0
SPLINE
  5
1CF
330
1F
100
AcDbEntity
  8
1
100
AcDbSpline
210
0.0
220
0.0
230
1.0
 70
     8
 71
     3
 72
     8
 73
     4
 74
     0
 42
0.000000001
 43
0.0000000001
 40
0.0
 40
0.0
 40
0.0
 40
0.0
 40
1.0
 40
1.0
 40
1.0
 40
1.0
 10
186.3742827006913
 20
170.3685559377035
 30
0.0
 10
186.318743486292
 20
170.4395644661556
 30
0.0
 10
186.2632042718928
 20
170.5105729946077
 30
0.0
 10
186.2065960994226
 20
170.5805782948914
 30
0.0
  0
SPLINE
  5
1D0
330
1F
100
AcDbEntity
  8
1
100
AcDbSpline
210
0.0
220
0.0
230
1.0
 70
    24
 71
     1
 72
     4
 73
     2
 74
     0
 42
0.000000001
 43
0.0000000001
 40
0.0
 40
0.0
 40
1.0
 40
1.0
 10
191.3236681459802
 20
175.5400001532804
 30
0.0
 10
191.3754031988988
 20
175.4814323783478
 30
0.0
  0
SPLINE
  5
1D1
330
1F
100
AcDbEntity
  8
1
100
AcDbSpline
210
0.0
220
0.0
230
1.0
 70
     8
 71
     3
 72
     8
 73
     4
 74
     0
 42
0.000000001
 43
0.0000000001
 40
0.0
 40
0.0
 40
0.0
 40
0.0
 40
1.0
 40
1.0
 40
1.0
 40
1.0
 10
193.0873446907448
 20
163.122990205125
 30
0.0
 10
193.1222120011681
 20
163.0955190672707
 30
0.0
 10
193.1577710846051
 20
163.0684419356024
 30
0.0
 10
193.1940338143636
 20
163.0417837390912
 30
0.0
  0
SPLINE
  5
1D2
330
1F
100
AcDbEntity
  8
1
100
AcDbSpline
210
0.0
220
0.0
230
1.0
 70
     8
 71
     2
 72
     6
 73
     3
 74
     0
 42
0.000000001
 43
0.0000000001
 40
0.0
 40
0.0
 40
0.0
 40
1.0
 40
1.0
 40
1.0
 10
178.5292149228646
 20
166.32582714833
 30
0.0
 10
178.9085490037405
 20
165.7304162549755
 30
0.0
 10
179.3749274768941
 20
165.4044727284978
 30
0.0
  0
SPLINE
  5
1D3
330
1F
100
AcDbEntity
  8
1
100
AcDbSpline
210
0.0
220
0.0
230
1.0
 70
    24
 71
     1
 72
     4
 73
     2
 74
     0
 42
0.000000001
 43
0.0000000001
 40
0.0
 40
0.0
 40
1.0
 40
1.0
 10
193.1459805869202
 20
163.1490428455447
 30
0.0
 10
193.201658756105
 20
163.1494469656042
 30
0.0
  0
SPLINE
  5
1D4
330
1F
100
AcDbEntity
  8
1
100
AcDbSpline
210
0.0
220
0.0
230
1.0
 70
    24
 71
     1
 72
     4
 73
     2
 74
     0
 42
0.000000001
 43
0.0000000001
 40
0.0
 40
0.0
 40
1.0
 40
1.0
 10
193.087344690745
 20
163.1229902051251
 30
0.0
 10
193.1459805869202
 20
163.1490428455447
 30
0.0
  0
SPLINE
  5
1D5
330
1F
100
AcDbEntity
  8
1
100
AcDbSpline
210
0.0
220
0.0
230
1.0
 70
     8
 71
     2
 72
     8
 73
     5
 74
     0
 42
0.000000001
 43
0.0000000001
 40
0.0
 40
0.0
 40
0.0
 40
0.5
 40
0.5
 40
1.0
 40
1.0
 40
1.0
 10
188.3976384812647
 20
164.7695781186536
 30
0.0
 10
189.182157203516
 20
164.7747538335419
 30
0.0
 10
189.915767224432
 20
164.5563143479081
 30
0.0
 10
190.6929294260564
 20
164.32490677885
 30
0.0
 10
191.354066648759
 20
163.8584192967961
 30
0.0
  0
SPLINE
  5
1D6
330
1F
100
AcDbEntity
  8
1
100
AcDbSpline
210
0.0
220
0.0
230
1.0
 70
     8
 71
     2
 72
     6
 73
     3
 74
     0
 42
0.000000001
 43
0.0000000001
 40
0.0
 40
0.0
 40
0.0
 40
1.0
 40
1.0
 40
1.0
 10
186.3742827006913
 20
164.7806152089252
 30
0.0
 10
187.4020483010125
 20
164.7631143656961
 30
0.0
 10
188.3976384812647
 20
164.7695781186536
 30
0.0
  0
SPLINE
  5
1D7
330
1F
100
AcDbEntity
  8
1
100
AcDbSpline
210
0.0
220
0.0
230
1.0
 70
     8
 71
     3
 72
    26
 73
    22
 74
     0
 42
0.000000001
 43
0.0000000001
 40
0.0
 40
0.0
 40
0.0
 40
0.0
 40
0.0219938502147874
 40
0.0435101536051487
 40
0.0645437747329427
 40
0.0850893950243259
 40
0.105141594703902
 40
0.1246949368144449
 40
0.1875833454718696
 40
0.2496471675046311
 40
0.3730920614177273
 40
0.499018671837605
 40
0.6221192562978086
 40
0.7487645447380104
 40
0.7845126501762385
 40
0.8202828558576028
 40
0.8560896650325691
 40
0.8919485860465419
 40
0.9278757510079568
 40
0.9638875077184076
 40
1.0
 40
1.0
 40
1.0
 40
1.0
 10
198.2469745745194
 20
170.4477318835704
 30
0.0
 10
198.2845203610418
 20
170.3749417316627
 30
0.0
 10
198.358796712061
 20
170.2309419017321
 30
0.0
 10
198.4568963189818
 20
170.0115947900341
 30
0.0
 10
198.5441268494239
 20
169.7936774325311
 30
0.0
 10
198.6201019177622
 20
169.5774468096102
 30
0.0
 10
198.6855198784314
 20
169.3636390938208
 30
0.0
 10
198.7821656407311
 20
168.9953057885569
 30
0.0
 10
198.8744194774147
 20
168.4649868598178
 30
0.0
 10
198.9135440742368
 20
167.5421150575114
 30
0.0
 10
198.7332570877947
 20
166.3856276134943
 30
0.0
 10
198.1462313636841
 20
165.111043014257
 30
0.0
 10
197.2131629391786
 20
164.0402967951634
 30
0.0
 10
196.2908461665389
 20
163.4626307453795
 30
0.0
 10
195.5955498120614
 20
163.1961226069034
 30
0.0
 10
195.2075464836806
 20
163.0840271695775
 30
0.0
 10
194.8108244180975
 20
163.0053960062755
 30
0.0
 10
194.4080323691952
 20
162.9606954835373
 30
0.0
 10
194.0021951056017
 20
162.9513124901034
 30
0.0
 10
193.595582347098
 20
162.9744202297267
 30
0.0
 10
193.3279057787809
 20
163.0192513508913
 30
0.0
 10
193.1938805633727
 20
163.0416982191729
 30
0.0
  0
SPLINE
  5
1D8
330
1F
100
AcDbEntity
  8
1
100
AcDbSpline
210
0.0
220
0.0
230
1.0
 70
     8
 71
     2
 72
    19
 73
    16
 74
     0
 42
0.000000001
 43
0.0000000001
 40
0.0
 40
0.0
 40
0.0
 40
0.125
 40
0.25
 40
0.25
 40
0.375
 40
0.375
 40
0.5
 40
0.5
 40
0.625
 40
0.625
 40
0.75
 40
0.75
 40
0.875
 40
0.875
 40
1.0
 40
1.0
 40
1.0
 10
193.2016712114064
 20
163.1494462985373
 30
0.0
 10
193.8844217997779
 20
163.014857710684
 30
0.0
 10
195.26838122732
 20
163.1623009645706
 30
0.0
 10
195.9074168491809
 20
163.4372045036727
 30
0.0
 10
196.5421688639723
 20
163.7102652992669
 30
0.0
 10
197.0716854889262
 20
164.1586001183591
 30
0.0
 10
197.5940806916746
 20
164.6009053221651
 30
0.0
 10
197.9714615475836
 20
165.1797412585325
 30
0.0
 10
198.3444918447245
 20
165.7519042020367
 30
0.0
 10
198.5438849182846
 20
166.4078505730794
 30
0.0
 10
198.741915437606
 20
167.0593145290994
 30
0.0
 10
198.758757783073
 20
167.7467288711834
 30
0.0
 10
198.7753234467509
 20
168.4228505444173
 30
0.0
 10
198.6144834759303
 20
169.0946409337453
 30
0.0
 10
198.4565446645453
 20
169.7543138685826
 30
0.0
 10
198.1344876777925
 20
170.3625611109443
 30
0.0
  0
SPLINE
  5
1D9
330
1F
100
AcDbEntity
  8
1
100
AcDbSpline
210
0.0
220
0.0
230
1.0
 70
     8
 71
     3
 72
    30
 73
    26
 74
     0
 42
0.000000001
 43
0.0000000001
 40
0.0
 40
0.0
 40
0.0
 40
0.0
 40
0.062500000000001
 40
0.062500000000001
 40
0.1250000000000018
 40
0.1250000000000018
 40
0.2500000000000027
 40
0.2500000000000027
 40
0.3125000000000029
 40
0.3125000000000029
 40
0.3750000000000032
 40
0.3750000000000032
 40
0.4375000000000035
 40
0.4375000000000035
 40
0.5000000000000038
 40
0.5000000000000038
 40
0.5625000000000041
 40
0.5625000000000041
 40
0.6250000000000045
 40
0.6250000000000045
 40
0.7500000000000031
 40
0.7500000000000031
 40
0.8750000000000015
 40
0.8750000000000015
 40
1.0
 40
1.0
 40
1.0
 40
1.0
 10
195.848639762383
 20
184.3666925517432
 30
0.0
 10
195.848639762383
 20
184.5228583169092
 30
0.0
 10
195.8382746674393
 20
184.6787547318864
 30
0.0
 10
195.7975418760198
 20
184.9898919388594
 30
0.0
 10
195.7668620627166
 20
185.1461919205823
 30
0.0
 10
195.6451780123098
 20
185.6045344671759
 30
0.0
 10
195.5269737839685
 20
185.8962348515094
 30
0.0
 10
195.2764525078259
 20
186.3046270843346
 30
0.0
 10
195.1798644457991
 20
186.4358026158257
 30
0.0
 10
194.9626456270803
 20
186.6727043492481
 30
0.0
 10
194.83935582452
 20
186.781210470989
 30
0.0
 10
194.568465573798
 20
186.9587788352766
 30
0.0
 10
194.4186249099708
 20
187.0289783175578
 30
0.0
 10
194.1030663670428
 20
187.1126966520284
 30
0.0
 10
193.9361550113193
 20
187.125805233559
 30
0.0
 10
193.6111320158613
 20
187.0902588278339
 30
0.0
 10
193.4508456560191
 20
187.0416612016796
 30
0.0
 10
193.1560581792001
 20
186.8993902951588
 30
0.0
 10
193.0188508610989
 20
186.804975062836
 30
0.0
 10
192.6517503756812
 20
186.4847342686055
 30
0.0
 10
192.4564230217306
 20
186.2168238261501
 30
0.0
 10
192.1525663329846
 20
185.6516650706189
 30
0.0
 10
192.0396465463903
 20
185.3456216898301
 30
0.0
 10
191.8885907478687
 20
184.7290584484413
 30
0.0
 10
191.848639762383
 20
184.4164237985386
 30
0.0
 10
191.848639762383
 20
184.1002244808409
 30
0.0
  0
SPLINE
  5
1DA
330
1F
100
AcDbEntity
  8
1
100
AcDbSpline
210
0.0
220
0.0
230
1.0
 70
    24
 71
     1
 72
     4
 73
     2
 74
     0
 42
0.000000001
 43
0.0000000001
 40
0.0
 40
0.0
 40
1.0
 40
1.0
 10
178.5292149229086
 20
166.3258271482609
 30
0.0
 10
178.3949026929465
 20
166.2435576474726
 30
0.0
  0
SPLINE
  5
1DB
330
1F
100
AcDbEntity
  8
1
100
AcDbSpline
210
0.0
220
0.0
230
1.0
 70
     8
 71
     3
 72
    13
 73
     9
 74
     0
 42
0.000000001
 43
0.0000000001
 40
0.0
 40
0.0
 40
0.0
 40
0.0
 40
0.1720546080350352
 40
0.3419391613989701
 40
0.5096644946740041
 40
0.6752418663823847
 40
0.8386829790022714
 40
1.0
 40
1.0
 40
1.0
 40
1.0
 10
180.2442522861973
 20
164.8374405836566
 30
0.0
 10
180.1851614914368
 20
164.8558392894151
 30
0.0
 10
180.0677251900349
 20
164.8924046455526
 30
0.0
 10
179.8964846720947
 20
164.9594765842954
 30
0.0
 10
179.7302617886531
 20
165.0346690671864
 30
0.0
 10
179.5694032232776
 20
165.118794355143
 30
0.0
 10
179.4135281791383
 20
165.210455933153
 30
0.0
 10
179.3130527261639
 20
165.2789478737501
 30
0.0
 10
179.263143581236
 20
165.3129698571147
 30
0.0
  0
SPLINE
  5
1DC
330
1F
100
AcDbEntity
  8
1
100
AcDbSpline
210
0.0
220
0.0
230
1.0
 70
     8
 71
     3
 72
     9
 73
     5
 74
     0
 42
0.000000001
 43
0.0000000001
 40
0.0
 40
0.0
 40
0.0
 40
0.0
 40
0.4924003134626325
 40
1.0
 40
1.0
 40
1.0
 40
1.0
 10
188.4420106378371
 20
164.7008135625943
 30
0.0
 10
188.1105091770671
 20
164.6996689613732
 30
0.0
 10
187.4372734952317
 20
164.6973444274731
 30
0.0
 10
186.7616175853346
 20
164.7070303663408
 30
0.0
 10
186.4186548572636
 20
164.7119469458739
 30
0.0
  0
SPLINE
  5
1DD
330
1F
100
AcDbEntity
  8
1
100
AcDbSpline
210
0.0
220
0.0
230
1.0
 70
     8
 71
     3
 72
     8
 73
     4
 74
     0
 42
0.000000001
 43
0.0000000001
 40
0.0
 40
0.0
 40
0.0
 40
0.0
 40
1.0
 40
1.0
 40
1.0
 40
1.0
 10
178.1809374933994
 20
172.5015929202328
 30
0.0
 10
178.2522592265668
 20
172.4953025476824
 30
0.0
 10
178.3235809597341
 20
172.4890116458117
 30
0.0
 10
178.3949026929014
 20
172.4827202146421
 30
0.0
  0
SPLINE
  5
1DE
330
1F
100
AcDbEntity
  8
1
100
AcDbSpline
210
0.0
220
0.0
230
1.0
 70
    24
 71
     1
 72
     4
 73
     2
 74
     0
 42
0.000000001
 43
0.0000000001
 40
0.0
 40
0.0
 40
1.0
 40
1.0
 10
180.3560361818553
 20
164.933056323787
 30
0.0
 10
180.2442522861973
 20
164.8374405836566
 30
0.0
  0
SPLINE
  5
1DF
330
1F
100
AcDbEntity
  8
1
100
AcDbSpline
210
0.0
220
0.0
230
1.0
 70
     8
 71
     3
 72
    23
 73
    19
 74
     0
 42
0.000000001
 43
0.0000000001
 40
0.0
 40
0.0
 40
0.0
 40
0.0
 40
0.0520521247301917
 40
0.1037477013023593
 40
0.1550969589269537
 40
0.2061102827268212
 40
0.2567982124754032
 40
0.3071714409586798
 40
0.3572408119464826
 40
0.4070173177600715
 40
0.4565120964244314
 40
0.5057364283953514
 40
0.5891493009388228
 40
0.6720708532539095
 40
0.7545583563905508
 40
0.8366698364250938
 40
0.918463974537126
 40
1.0
 40
1.0
 40
1.0
 40
1.0
 10
178.3948987751645
 20
166.2435577580013
 30
0.0
 10
178.3554040466883
 20
166.3076464207391
 30
0.0
 10
178.2766851218759
 20
166.4353847498287
 30
0.0
 10
178.1646409541956
 20
166.6376820308861
 30
0.0
 10
178.0575560950813
 20
166.8467455119059
 30
0.0
 10
177.9558253472136
 20
167.0632003501763
 30
0.0
 10
177.859344036606
 20
167.2866428935681
 30
0.0
 10
177.768140019802
 20
167.5169422493003
 30
0.0
 10
177.682205907219
 20
167.753895295747
 30
0.0
 10
177.6015439576482
 20
167.9973177006288
 30
0.0
 10
177.5261527866224
 20
168.2470223754204
 30
0.0
 10
177.4396811527537
 20
168.562480339249
 30
0.0
 10
177.3470375275855
 20
168.95024520679
 30
0.0
 10
177.2545158098499
 20
169.4179827954839
 30
0.0
 10
177.1769418421869
 20
169.9023389857096
 30
0.0
 10
177.1146878919841
 20
170.4028826672298
 30
0.0
 10
177.0663789242134
 20
170.9174564544799
 30
0.0
 10
177.0468480107629
 20
171.2731599060882
 30
0.0
 10
177.037097986508
 20
171.4507305706414
 30
0.0
  0
SPLINE
  5
1E0
330
1F
100
AcDbEntity
  8
1
100
AcDbSpline
210
0.0
220
0.0
230
1.0
 70
     8
 71
     3
 72
    23
 73
    19
 74
     0
 42
0.000000001
 43
0.0000000001
 40
0.0
 40
0.0
 40
0.0
 40
0.0
 40
0.0249991959971487
 40
0.0499263959138513
 40
0.0748220603265599
 40
0.09972680357964
 40
0.1246811957485687
 40
0.1871340046386416
 40
0.2496150973747796
 40
0.3117057018376129
 40
0.3738839103077234
 40
0.4987763254996477
 40
0.6226559608113741
 40
0.7484116686001224
 40
0.8097773068001101
 40
0.8718644277319262
 40
0.9351284504250587
 40
1.0
 40
1.0
 40
1.0
 40
1.0
 10
186.4186548572636
 20
164.7119469458739
 30
0.0
 10
186.3610058180019
 20
164.7129370593195
 30
0.0
 10
186.2458737650124
 20
164.7149144347475
 30
0.0
 10
186.0699886174984
 20
164.7178436421266
 30
0.0
 10
185.892225695833
 20
164.7206245323239
 30
0.0
 10
185.7123211342891
 20
164.7231842161748
 30
0.0
 10
185.4395062532035
 20
164.726592431712
 30
0.0
 10
185.0701392274628
 20
164.729885458966
 30
0.0
 10
184.6051149239951
 20
164.7310282715696
 30
0.0
 10
184.1413517212316
 20
164.7290891998899
 30
0.0
 10
183.5299918939905
 20
164.7228051783126
 30
0.0
 10
182.7908982635819
 20
164.7096996599356
 30
0.0
 10
181.9769157980875
 20
164.6964951629164
 30
0.0
 10
181.3890593058496
 20
164.7005663026177
 30
0.0
 10
180.979200274335
 20
164.7206470988772
 30
0.0
 10
180.7040695010591
 20
164.7459791295461
 30
0.0
 10
180.4546769528404
 20
164.7826691751954
 30
0.0
 10
180.3149780400637
 20
164.8190313866003
 30
0.0
 10
180.2442522861973
 20
164.8374405836566
 30
0.0
  0
SPLINE
  5
1E1
330
1F
100
AcDbEntity
  8
1
100
AcDbSpline
210
0.0
220
0.0
230
1.0
 70
     8
 71
     3
 72
    19
 73
    15
 74
     0
 42
0.000000001
 43
0.0000000001
 40
0.0
 40
0.0
 40
0.0
 40
0.0
 40
0.0511815296493635
 40
0.1014343181336316
 40
0.151258477455387
 40
0.201166835794805
 40
0.2516694913509764
 40
0.3764074465526746
 40
0.5019313222552199
 40
0.6256710471077889
 40
0.750944786573753
 40
0.833831853173773
 40
0.9163425040223124
 40
1.0
 40
1.0
 40
1.0
 40
1.0
 10
177.0367882768096
 20
171.4494844780666
 30
0.0
 10
177.0296984369849
 20
171.4785767272371
 30
0.0
 10
177.015647409725
 20
171.5362333169832
 30
0.0
 10
177.0070443202321
 20
171.6231544655673
 30
0.0
 10
177.0080541303599
 20
171.7089928831476
 30
0.0
 10
177.0194955556689
 20
171.7938842498341
 30
0.0
 10
177.0515871120283
 20
171.9180459212225
 30
0.0
 10
177.1267962796674
 20
172.0755849170048
 30
0.0
 10
177.2751968714123
 20
172.2421176349857
 30
0.0
 10
177.464984104361
 20
172.373952423353
 30
0.0
 10
177.6623557784658
 20
172.4530400316871
 30
0.0
 10
177.8476338561852
 20
172.4940990892465
 30
0.0
 10
178.0125709100769
 20
172.5106078762899
 30
0.0
 10
178.1245589567437
 20
172.5045424732294
 30
0.0
 10
178.1809394348469
 20
172.5014888408587
 30
0.0
  0
SPLINE
  5
1E2
330
1F
100
AcDbEntity
  8
1
100
AcDbSpline
210
0.0
220
0.0
230
1.0
 70
     8
 71
     3
 72
    20
 73
    16
 74
     0
 42
0.000000001
 43
0.0000000001
 40
0.0
 40
0.0
 40
0.0
 40
0.0
 40
0.0575277117411244
 40
0.1088614709154467
 40
0.1540003917980529
 40
0.1929438719422574
 40
0.225691699752561
 40
0.2522442875106781
 40
0.3857538962397435
 40
0.502460075726663
 40
0.6301603086222661
 40
0.7511760109407735
 40
0.8332011542108581
 40
0.9159860386759476
 40
1.0
 40
1.0
 40
1.0
 40
1.0
 10
178.2034661649203
 20
172.4510132993136
 30
0.0
 10
178.1687479103195
 20
172.4525699101474
 30
0.0
 10
178.1030494817001
 20
172.4555155330461
 30
0.0
 10
178.0108215332772
 20
172.450752461815
 30
0.0
 10
177.9307453972996
 20
172.4414926402968
 30
0.0
 10
177.8627521450192
 20
172.4292782863084
 30
0.0
 10
177.80655460313
 20
172.4160830724811
 30
0.0
 10
177.6982383776758
 20
172.3855909372678
 30
0.0
 10
177.5507368392959
 20
172.3238629881604
 30
0.0
 10
177.3780142321111
 20
172.2032766425515
 30
0.0
 10
177.2475430139472
 20
172.0563533948875
 30
0.0
 10
177.1721037110462
 20
171.9013363268304
 30
0.0
 10
177.142527228974
 20
171.7588827623598
 30
0.0
 10
177.1406185842654
 20
171.631824280427
 30
0.0
 10
177.1608103108456
 20
171.5480037043236
 30
0.0
 10
177.1709805666885
 20
171.5057845953988
 30
0.0
  0
SPLINE
  5
1E3
330
1F
100
AcDbEntity
  8
1
100
AcDbSpline
210
0.0
220
0.0
230
1.0
 70
    24
 71
     1
 72
     4
 73
     2
 74
     0
 42
0.000000001
 43
0.0000000001
 40
0.0
 40
0.0
 40
1.0
 40
1.0
 10
178.4174310272066
 20
172.4321449416884
 30
0.0
 10
178.2034658277046
 20
172.4510122412785
 30
0.0
  0
SPLINE
  5
1E4
330
1F
100
AcDbEntity
  8
1
100
AcDbSpline
210
0.0
220
0.0
230
1.0
 70
     8
 71
     3
 72
    28
 73
    24
 74
     0
 42
0.000000001
 43
0.0000000001
 40
0.0
 40
0.0
 40
0.0
 40
0.0
 40
0.0206687823831114
 40
0.0413651325848589
 40
0.0620907711305283
 40
0.0828475937242331
 40
0.1036376611773442
 40
0.124463187473683
 40
0.1453265260512319
 40
0.1662301544070948
 40
0.1871766571589022
 40
0.208168707721207
 40
0.2292090487790577
 40
0.2503004717623581
 40
0.2714457955432218
 40
0.2926478445939097
 40
0.3139094268546818
 40
0.4200815624892849
 40
0.5243768215625006
 40
0.6270713095843248
 40
0.7856410628835026
 40
0.9391859464983454
 40
1.0
 40
1.0
 40
1.0
 40
1.0
 10
191.3236681459802
 20
175.5400001532804
 30
0.0
 10
191.383540982966
 20
175.5189192721155
 30
0.0
 10
191.5033665147388
 20
175.4767293923135
 30
0.0
 10
191.6904485484538
 20
175.4186512830956
 30
0.0
 10
191.8826171708591
 20
175.3645511617713
 30
0.0
 10
192.0800570019538
 20
175.3149570750343
 30
0.0
 10
192.2822451743677
 20
175.2699240783342
 30
0.0
 10
192.4888286094084
 20
175.2296210958221
 30
0.0
 10
192.6993891871598
 20
175.1941724057
 30
0.0
 10
192.9135076628803
 20
175.1636993450005
 30
0.0
 10
193.1307473398483
 20
175.1383082689486
 30
0.0
 10
193.3506596224452
 20
175.1180930522081
 30
0.0
 10
193.572782789707
 20
175.1031335386578
 30
0.0
 10
193.7966462727075
 20
175.0934958859236
 30
0.0
 10
194.0217599646517
 20
175.089229666799
 30
0.0
 10
194.2476583835349
 20
175.09037638924
 30
0.0
 10
194.7744668234978
 20
175.1056608155723
 30
0.0
 10
195.5891751391424
 20
175.1888471641282
 30
0.0
 10
196.6022680252147
 20
175.4285006038153
 30
0.0
 10
197.622917292336
 20
175.8355593641172
 30
0.0
 10
198.4801808343162
 20
176.4492274963346
 30
0.0
 10
198.8453361632701
 20
177.0918105561651
 30
0.0
 10
198.8903158656179
 20
177.4689378706285
 30
0.0
 10
198.890088520233
 20
177.5758484168924
 30
0.0
  0
SPLINE
  5
1E5
330
1F
100
AcDbEntity
  8
1
100
AcDbSpline
210
0.0
220
0.0
230
1.0
 70
     8
 71
     2
 72
     6
 73
     3
 74
     0
 42
0.000000001
 43
0.0000000001
 40
0.0
 40
0.0
 40
0.0
 40
1.0
 40
1.0
 40
1.0
 10
178.1906558632782
 20
172.2895607271294
 30
0.0
 10
177.6042987064253
 20
171.8241106792536
 30
0.0
 10
177.171853420317
 20
171.489935154639
 30
0.0
  0
SPLINE
  5
1E6
330
1F
100
AcDbEntity
  8
1
100
AcDbSpline
210
0.0
220
0.0
230
1.0
 70
     8
 71
     2
 72
    13
 73
    10
 74
     0
 42
0.000000001
 43
0.0000000001
 40
0.0
 40
0.0
 40
0.0
 40
0.1592884798210264
 40
0.1592884798210264
 40
0.3694663598657698
 40
0.3694663598657698
 40
0.5796442399105132
 40
0.7898221199552566
 40
0.7898221199552566
 40
1.0
 40
1.0
 40
1.0
 10
198.1255832823148
 20
176.2182581877404
 30
0.0
 10
197.8146632910817
 20
175.9486553831486
 30
0.0
 10
197.3750282289165
 20
175.7266748112066
 30
0.0
 10
196.7905227010646
 20
175.4315462317506
 30
0.0
 10
196.0425545562965
 20
175.2554819029934
 30
0.0
 10
195.292146523183
 20
175.0788432485689
 30
0.0
 10
193.6412525267073
 20
175.010474444122
 30
0.0
 10
192.8423710652107
 20
175.123640315838
 30
0.0
 10
192.0499106357099
 20
175.2358966137081
 30
0.0
 10
191.3754031988988
 20
175.4814323783478
 30
0.0
  0
SPLINE
  5
1E7
330
1F
100
AcDbEntity
  8
1
100
AcDbSpline
210
0.0
220
0.0
230
1.0
 70
     8
 71
     3
 72
    11
 73
     7
 74
     0
 42
0.000000001
 43
0.0000000001
 40
0.0
 40
0.0
 40
0.0
 40
0.0
 40
0.2462749821441907
 40
0.4945866107611441
 40
0.7456103350964751
 40
1.0
 40
1.0
 40
1.0
 40
1.0
 10
190.1168240737829
 20
175.8165117751896
 30
0.0
 10
190.0970188221835
 20
175.8254118607858
 30
0.0
 10
190.0572445333841
 20
175.8432856339647
 30
0.0
 10
189.9939719335345
 20
175.8680156232689
 30
0.0
 10
189.928218290355
 20
175.89120149825
 30
0.0
 10
189.8828209717655
 20
175.9046849311139
 30
0.0
 10
189.8599711444571
 20
175.9114715458753
 30
0.0
  0
SPLINE
  5
1E8
330
1F
100
AcDbEntity
  8
1
100
AcDbSpline
210
0.0
220
0.0
230
1.0
 70
    24
 71
     3
 72
     8
 73
     4
 74
     0
 42
0.000000001
 43
0.0000000001
 40
0.0
 40
0.0
 40
0.0
 40
0.0
 40
1.0
 40
1.0
 40
1.0
 40
1.0
 10
188.5900473283243
 20
188.6024675423448
 30
0.0
 10
188.5713677493021
 20
188.5837879633226
 30
0.0
 10
188.5527046528256
 20
188.565124866846
 30
0.0
 10
188.5340571991764
 20
188.5464774131968
 30
0.0
  0
SPLINE
  5
1E9
330
1F
100
AcDbEntity
  8
1
100
AcDbSpline
210
0.0
220
0.0
230
1.0
 70
     8
 71
     3
 72
    17
 73
    13
 74
     0
 42
0.000000001
 43
0.0000000001
 40
0.0
 40
0.0
 40
0.0
 40
0.0
 40
0.2499999999999948
 40
0.2499999999999948
 40
0.3749999999999948
 40
0.3749999999999948
 40
0.4999999999999949
 40
0.6249999999999949
 40
0.6249999999999949
 40
0.7499999999999949
 40
0.7499999999999949
 40
1.0
 40
1.0
 40
1.0
 40
1.0
 10
191.848639762383
 20
180.4623943462246
 30
0.0
 10
192.1464560166464
 20
180.3689556200598
 30
0.0
 10
192.4602716731382
 20
180.2945881637496
 30
0.0
 10
192.9557573626584
 20
180.2125535001425
 30
0.0
 10
193.1263181540808
 20
180.1900655961526
 30
0.0
 10
193.4696444221506
 20
180.1563358873362
 30
0.0
 10
193.8142334126428
 20
180.1337502496134
 30
0.0
 10
194.1613012993127
 20
180.1330419419745
 30
0.0
 10
194.5096343304908
 20
180.1434990813836
 30
0.0
 10
194.6851232878539
 20
180.1544494823686
 30
0.0
 10
195.1990921613015
 20
180.2032577378796
 30
0.0
 10
195.5297444813001
 20
180.2568317967344
 30
0.0
 10
195.848639762383
 20
180.3310261874253
 30
0.0
  0
SPLINE
  5
1EA
330
1F
100
AcDbEntity
  8
1
100
AcDbSpline
210
0.0
220
0.0
230
1.0
 70
    24
 71
     1
 72
     4
 73
     2
 74
     0
 42
0.000000001
 43
0.0000000001
 40
0.0
 40
0.0
 40
1.0
 40
1.0
 10
188.47513665291
 20
171.6283183848023
 30
0.0
 10
188.4955963881635
 20
171.652867954707
 30
0.0
  0
LINE
  5
1EB
330
1F
100
AcDbEntity
  8
4
100
AcDbLine
 10
201.052616
 20
179.699056
 30
0.0
 11
157.990059
 21
179.699056
 31
0.0
  0
LINE
  5
1EC
330
1F
100
AcDbEntity
  8
SK4
100
AcDbLine
 10
159.490059
 20
179.699056
 30
0.0
 11
133.990059
 21
179.699056
 31
0.0
  0
MTEXT
  5
1ED
330
1F
100
AcDbEntity
  8
SK6
100
AcDbMText
 10
143.511012
 20
224.314607
 30
0.0
 40
3.0
 41
0.0
 71
     7
 72
     5
  1
\W0.7335;35E3R042M16-SCRD12-CF
  7
cesky
 73
     2
 44
1.084337
  0
MTEXT
  5
349
330
1F
100
AcDbEntity
  8
2
100
AcDbMText
 10
177.434774
 20
206.016776
 30
0.0
 40
3.0
 41
0.0
 71
     7
 72
     5
  1
\W0.7045;42
  7
cesky
 73
     2
 44
0.8433729999999998
  0
LINE
  5
34A
330
1F
100
AcDbEntity
  8
2
100
AcDbLine
 10
157.990059
 20
195.199056
 30
0.0
 11
157.990059
 21
209.124633
 31
0.0
  0
LINE
  5
34B
330
1F
100
AcDbEntity
  8
2
100
AcDbLine
 10
199.990059
 20
198.699056
 30
0.0
 11
199.990059
 21
209.124633
 31
0.0
  0
LINE
  5
34C
330
1F
100
AcDbEntity
  8
2
100
AcDbLine
 10
157.990059
 20
206.124633
 30
0.0
 11
199.990059
 21
206.124633
 31
0.0
  0
SOLID
  5
34D
330
1F
100
AcDbEntity
  8
2
100
AcDbTrace
 10
157.990059
 20
206.124633
 30
0.0
 11
160.990057
 21
206.653614
 31
0.0
 12
160.990061
 22
205.595652
 32
0.0
 13
160.990061
 23
205.595652
 33
0.0
  0
SOLID
  5
34E
330
1F
100
AcDbEntity
  8
2
100
AcDbTrace
 10
199.990059
 20
206.124633
 30
0.0
 11
196.990061
 21
205.595652
 31
0.0
 12
196.990057
 22
206.653614
 32
0.0
 13
196.990057
 23
206.653614
 33
0.0
  0
MTEXT
  5
34F
330
1F
100
AcDbEntity
  8
2
100
AcDbMText
 10
210.649059
 20
201.255388
 30
0.0
 40
3.0
 41
0.0
 71
     7
 72
     5
  1
\W0.6094;3
  7
cesky
 73
     2
 44
0.8433729999999998
  0
LINE
  5
350
330
1F
100
AcDbEntity
  8
2
100
AcDbLine
 10
199.990059
 20
199.699056
 30
0.0
 11
199.990059
 21
204.363245
 31
0.0
  0
LINE
  5
351
330
1F
100
AcDbEntity
  8
2
100
AcDbLine
 10
196.99006
 20
198.699056
 30
0.0
 11
196.99006
 21
204.363245
 31
0.0
  0
LINE
  5
352
330
1F
100
AcDbEntity
  8
2
100
AcDbLine
 10
189.49006
 20
201.363245
 30
0.0
 11
211.754345
 21
201.363245
 31
0.0
  0
SOLID
  5
353
330
1F
100
AcDbEntity
  8
2
100
AcDbTrace
 10
199.990059
 20
201.363245
 30
0.0
 11
202.990057
 21
201.892226
 31
0.0
 12
202.990061
 22
200.834264
 32
0.0
 13
202.990061
 23
200.834264
 33
0.0
  0
SOLID
  5
354
330
1F
100
AcDbEntity
  8
2
100
AcDbTrace
 10
196.99006
 20
201.363245
 30
0.0
 11
193.990062
 21
200.834264
 31
0.0
 12
193.990058
 22
201.892226
 32
0.0
 13
193.990058
 23
201.892226
 33
0.0
  0
MTEXT
  5
355
330
1F
100
AcDbEntity
  8
2
100
AcDbMText
 10
210.914992
 20
180.318933
 30
0.0
 40
3.0
 41
0.0
 71
     7
 72
     5
  1
\W0.7045;35
  7
cesky
 11
0.0000000000000001
 21
1.0
 31
0.0
 73
     2
 44
0.8433729999999998
  0
MTEXT
  5
356
330
1F
100
AcDbEntity
  8
2
100
AcDbMText
 10
210.914992
 20
172.818933
 30
0.0
 40
3.0
 41
0.0
 71
     7
 72
     5
  1
\W3.2308;%%c
  7
cesky
 11
0.0000000000000001
 21
1.0
 31
0.0
 73
     2
 44
0.8433729999999998
  0
LINE
  5
357
330
1F
100
AcDbEntity
  8
2
100
AcDbLine
 10
202.490059
 20
197.199056
 30
0.0
 11
214.263135
 21
197.199056
 31
0.0
  0
LINE
  5
358
330
1F
100
AcDbEntity
  8
2
100
AcDbLine
 10
211.263135
 20
197.199056
 30
0.0
 11
211.263135
 21
172.683933
 31
0.0
  0
SOLID
  5
359
330
1F
100
AcDbEntity
  8
2
100
AcDbTrace
 10
211.263135
 20
197.199056
 30
0.0
 11
211.792116
 21
194.199058
 31
0.0
 12
210.734154
 22
194.199054
 32
0.0
 13
210.734154
 23
194.199054
 33
0.0
  0
MTEXT
  5
35A
330
1F
100
AcDbEntity
  8
SK2
100
AcDbMText
 10
127.341779
 20
179.501913
 30
0.0
 40
3.0
 41
0.0
 71
     7
 72
     5
  1
\W0.8260;16
  7
cesky
 11
0.0000000000000001
 21
1.0
 31
0.0
 73
     2
 44
0.8433729999999998
  0
MTEXT
  5
35B
330
1F
100
AcDbEntity
  8
SK2
100
AcDbMText
 10
127.341779
 20
176.737627
 30
0.0
 40
3.0
 41
0.0
 71
     7
 72
     5
  1
\W0.5332;M
  7
cesky
 11
0.0000000000000001
 21
1.0
 31
0.0
 73
     2
 44
0.8433729999999998
  0
LINE
  5
35C
330
1F
100
AcDbEntity
  8
SK2
100
AcDbLine
 10
134.990059
 20
187.699056
 30
0.0
 11
123.939922
 21
187.699056
 31
0.0
  0
LINE
  5
35D
330
1F
100
AcDbEntity
  8
SK2
100
AcDbLine
 10
134.990059
 20
171.699056
 30
0.0
 11
123.939922
 21
171.699056
 31
0.0
  0
LINE
  5
35E
330
1F
100
AcDbEntity
  8
SK2
100
AcDbLine
 10
126.939922
 20
187.699056
 30
0.0
 11
126.939922
 21
171.699056
 31
0.0
  0
SOLID
  5
35F
330
1F
100
AcDbEntity
  8
SK2
100
AcDbTrace
 10
126.939922
 20
187.699056
 30
0.0
 11
127.468903
 21
184.699058
 31
0.0
 12
126.410941
 22
184.699054
 32
0.0
 13
126.410941
 23
184.699054
 33
0.0
  0
SOLID
  5
360
330
1F
100
AcDbEntity
  8
SK2
100
AcDbTrace
 10
126.939922
 20
171.699056
 30
0.0
 11
126.410941
 21
174.699054
 31
0.0
 12
127.468903
 22
174.699058
 32
0.0
 13
127.468903
 23
174.699058
 33
0.0
  0
MTEXT
  5
361
330
1F
100
AcDbEntity
  8
SK2
100
AcDbMText
 10
112.791847
 20
181.86977
 30
0.0
 40
3.0
 41
0.0
 71
     7
 72
     5
  1
\W0.7259;29
  7
cesky
 11
0.0000000000000001
 21
1.0
 31
0.0
 73
     2
 44
0.8433729999999998
  0
MTEXT
  5
362
330
1F
100
AcDbEntity
  8
SK2
100
AcDbMText
 10
112.791847
 20
174.36977
 30
0.0
 40
3.0
 41
0.0
 71
     7
 72
     5
  1
\W3.2308;%%c
  7
cesky
 11
0.0000000000000001
 21
1.0
 31
0.0
 73
     2
 44
0.8433729999999998
  0
LINE
  5
363
330
1F
100
AcDbEntity
  8
SK2
100
AcDbLine
 10
156.990059
 20
194.199056
 30
0.0
 11
110.13999
 21
194.199056
 31
0.0
  0
LINE
  5
364
330
1F
100
AcDbEntity
  8
SK2
100
AcDbLine
 10
156.990059
 20
165.199056
 30
0.0
 11
110.13999
 21
165.199056
 31
0.0
  0
LINE
  5
365
330
1F
100
AcDbEntity
  8
SK2
100
AcDbLine
 10
113.13999
 20
194.199056
 30
0.0
 11
113.13999
 21
165.199056
 31
0.0
  0
SOLID
  5
366
330
1F
100
AcDbEntity
  8
SK2
100
AcDbTrace
 10
113.13999
 20
194.199056
 30
0.0
 11
113.668971
 21
191.199058
 31
0.0
 12
112.611009
 22
191.199054
 32
0.0
 13
112.611009
 23
191.199054
 33
0.0
  0
SOLID
  5
367
330
1F
100
AcDbEntity
  8
SK2
100
AcDbTrace
 10
113.13999
 20
165.199056
 30
0.0
 11
112.611009
 21
168.199054
 31
0.0
 12
113.668971
 22
168.199058
 32
0.0
 13
113.668971
 23
168.199058
 33
0.0
  0
CIRCLE
  5
368
330
1F
100
AcDbEntity
  8
CUT
100
AcDbCircle
 10
193.990061
 20
191.174054
 30
0.0
 40
6.0
  0
ENDSEC
  0
SECTION
  2
OBJECTS
  0
DICTIONARY
  5
C
330
0
100
AcDbDictionary
281
     1
  3
ACAD_CIP_PREVIOUS_PRODUCT_INFO
350
2CC
  3
ACAD_COLOR
350
2C7
  3
ACAD_DETAILVIEWSTYLE
350
2C3
  3
ACAD_FIELDLIST
350
336
  3
ACAD_GROUP
350
D
  3
ACAD_LAYOUT
350
1A
  3
ACAD_MATERIAL
350
43
  3
ACAD_MLEADERSTYLE
350
6B
  3
ACAD_MLINESTYLE
350
17
  3
ACAD_PLOTSETTINGS
350
19
  3
ACAD_PLOTSTYLENAME
350
E
  3
ACAD_SCALELIST
350
47
  3
ACAD_SECTIONVIEWSTYLE
350
2C4
  3
ACAD_TABLESTYLE
350
69
  3
ACAD_VISUALSTYLE
350
2A
  3
ACDB_RECOMPOSE_DATA
350
393
  3
AcDbVariableDictionary
350
280
  3
AcmDictionary
350
2F8
  3
AMG
350
2DE
  3
AMGSNAPSETTINGS
350
340
  0
DICTIONARY
  5
377
330
10
100
AcDbDictionary
280
     1
281
     1
  3
ADSK_XREC_LAYER_RECONCILED
360
378
  0
DICTIONARY
  5
379
330
369
100
AcDbDictionary
280
     1
281
     1
  3
ADSK_XREC_LAYER_RECONCILED
360
37A
  0
DICTIONARY
  5
37B
330
36A
100
AcDbDictionary
280
     1
281
     1
  3
ADSK_XREC_LAYER_RECONCILED
360
37C
  0
DICTIONARY
  5
37D
330
36B
100
AcDbDictionary
280
     1
281
     1
  3
ADSK_XREC_LAYER_RECONCILED
360
37E
  0
DICTIONARY
  5
37F
330
36D
100
AcDbDictionary
280
     1
281
     1
  3
ADSK_XREC_LAYER_RECONCILED
360
380
  0
DICTIONARY
  5
381
330
36E
100
AcDbDictionary
280
     1
281
     1
  3
ADSK_XREC_LAYER_RECONCILED
360
382
  0
DICTIONARY
  5
383
330
370
100
AcDbDictionary
280
     1
281
     1
  3
ADSK_XREC_LAYER_RECONCILED
360
384
  0
DICTIONARY
  5
385
330
371
100
AcDbDictionary
280
     1
281
     1
  3
ADSK_XREC_LAYER_RECONCILED
360
386
  0
DICTIONARY
  5
387
330
372
100
AcDbDictionary
280
     1
281
     1
  3
ADSK_XREC_LAYER_RECONCILED
360
388
  0
DICTIONARY
  5
389
330
373
100
AcDbDictionary
280
     1
281
     1
  3
ADSK_XREC_LAYER_RECONCILED
360
38A
  0
DICTIONARY
  5
38B
330
374
100
AcDbDictionary
280
     1
281
     1
  3
ADSK_XREC_LAYER_RECONCILED
360
38C
  0
DICTIONARY
  5
38D
330
375
100
AcDbDictionary
280
     1
281
     1
  3
ADSK_XREC_LAYER_RECONCILED
360
38E
  0
DICTIONARY
  5
347
330
1F
100
AcDbDictionary
280
     1
281
     1
  3
ACAD_SORTENTS
360
348
  0
XRECORD
  5
2CC
102
{ACAD_REACTORS
330
C
102
}
330
C
100
AcDbXrecord
280
     1
300
AMECH_PP
300
2019
300

  0
DICTIONARY
  5
2C7
102
{ACAD_REACTORS
330
C
102
}
330
C
100
AcDbDictionary
281
     1
  0
DICTIONARY
  5
2C3
102
{ACAD_REACTORS
330
C
102
}
330
C
100
AcDbDictionary
281
     1
  3
Metric50
350
2C9
  0
FIELDLIST
  5
336
102
{ACAD_REACTORS
330
C
102
}
330
C
100
AcDbIdSet
 90
        3
330
334
330
335
330
337
100
AcDbFieldList
  0
DICTIONARY
  5
D
102
{ACAD_REACTORS
330
C
102
}
330
C
100
AcDbDictionary
281
     1
  3
NULOVY_BOD
350
376
  0
DICTIONARY
  5
1A
102
{ACAD_REACTORS
330
C
102
}
330
C
100
AcDbDictionary
281
     1
  3
Layout1
350
1E
  3
Layout2
350
26
  3
Model
350
22
  0
DICTIONARY
  5
43
102
{ACAD_REACTORS
330
C
102
}
330
C
100
AcDbDictionary
281
     1
  3
ByBlock
350
45
  3
ByLayer
350
44
  3
Global
350
46
  0
DICTIONARY
  5
6B
102
{ACAD_REACTORS
330
C
102
}
330
C
100
AcDbDictionary
281
     1
  3
Standard
350
6C
  0
DICTIONARY
  5
17
102
{ACAD_REACTORS
330
C
102
}
330
C
100
AcDbDictionary
281
     1
  3
Standard
350
18
  0
DICTIONARY
  5
19
102
{ACAD_REACTORS
330
C
102
}
330
C
100
AcDbDictionary
281
     1
  0
ACDBDICTIONARYWDFLT
  5
E
102
{ACAD_REACTORS
330
C
102
}
330
C
100
AcDbDictionary
281
     1
  3
Normal
350
F
100
AcDbDictionaryWithDefault
340
F
  0
DICTIONARY
  5
47
102
{ACAD_REACTORS
330
C
102
}
330
C
100
AcDbDictionary
281
     1
  3
A0
350
48
  3
A1
350
49
  3
A2
350
4A
  3
A3
350
4B
  3
A4
350
4C
  3
A5
350
4D
  3
A6
350
4E
  3
A7
350
4F
  3
A8
350
50
  3
A9
350
51
  3
B0
350
52
  3
B1
350
53
  3
B2
350
54
  3
B3
350
55
  3
B4
350
56
  3
B5
350
57
  3
B6
350
58
  3
B7
350
59
  3
B8
350
5A
  3
B9
350
5B
  3
C0
350
5C
  3
C1
350
5D
  3
C2
350
5E
  3
C3
350
5F
  3
C4
350
60
  3
C5
350
61
  3
C6
350
62
  3
C7
350
63
  3
C8
350
64
  3
C9
350
65
  3
D0
350
66
  3
D1
350
67
  3
D2
350
68
  0
DICTIONARY
  5
2C4
102
{ACAD_REACTORS
330
C
102
}
330
C
100
AcDbDictionary
281
     1
  3
Metric50
350
2C8
  0
DICTIONARY
  5
69
102
{ACAD_REACTORS
330
C
102
}
330
C
100
AcDbDictionary
281
     1
  3
Standard
350
6A
  0
DICTIONARY
  5
2A
102
{ACAD_REACTORS
330
C
102
}
330
C
100
AcDbDictionary
281
     1
  3
2dWireframe
350
2F
  3
Basic
350
32
  3
Brighten
350
36
  3
ColorChange
350
3A
  3
Conceptual
350
34
  3
Dim
350
35
  3
EdgeColorOff
350
3D
  3
Facepattern
350
39
  3
Flat
350
2B
  3
FlatWithEdges
350
2C
  3
Gouraud
350
2D
  3
GouraudWithEdges
350
2E
  3
Hidden
350
31
  3
JitterOff
350
3B
  3
Linepattern
350
38
  3
OverhangOff
350
3C
  3
Realistic
350
33
  3
Shaded
350
42
  3
Shaded with edges
350
41
  3
Shades of Gray
350
3E
  3
Sketchy
350
3F
  3
Thicken
350
37
  3
Wireframe
350
30
  3
X-Ray
350
40
  0
XRECORD
  5
393
102
{ACAD_REACTORS
330
C
102
}
330
C
100
AcDbXrecord
280
     1
 90
        1
330
6A
  0
DICTIONARY
  5
280
102
{ACAD_REACTORS
330
C
102
}
330
C
100
AcDbDictionary
281
     1
  3
CANNOSCALE
350
281
  3
CMLEADERSTYLE
350
2C2
  3
CTABLESTYLE
350
2C1
  3
CVIEWDETAILSTYLE
350
38F
  3
CVIEWSECTIONSTYLE
350
390
  3
MSLTSCALE
350
282
  3
XCLIPFRAME
350
391
  0
DICTIONARY
  5
2F8
102
{ACAD_REACTORS
330
C
102
}
330
C
100
AcDbDictionary
281
     1
  3
AcmStdDictionary
350
2FF
  0
DICTIONARY
  5
2DE
102
{ACAD_REACTORS
330
C
102
}
330
C
100
AcDbDictionary
281
     1
  0
DICTIONARY
  5
340
102
{ACAD_REACTORS
330
C
102
}
330
C
100
AcDbDictionary
281
     1
  0
XRECORD
  5
378
102
{ACAD_REACTORS
330
377
102
}
330
377
100
AcDbXrecord
280
     1
290
     1
  0
XRECORD
  5
37A
102
{ACAD_REACTORS
330
379
102
}
330
379
100
AcDbXrecord
280
     1
290
     1
  0
XRECORD
  5
37C
102
{ACAD_REACTORS
330
37B
102
}
330
37B
100
AcDbXrecord
280
     1
290
     1
  0
XRECORD
  5
37E
102
{ACAD_REACTORS
330
37D
102
}
330
37D
100
AcDbXrecord
280
     1
290
     1
  0
XRECORD
  5
380
102
{ACAD_REACTORS
330
37F
102
}
330
37F
100
AcDbXrecord
280
     1
290
     1
  0
XRECORD
  5
382
102
{ACAD_REACTORS
330
381
102
}
330
381
100
AcDbXrecord
280
     1
290
     1
  0
XRECORD
  5
384
102
{ACAD_REACTORS
330
383
102
}
330
383
100
AcDbXrecord
280
     1
290
     1
  0
XRECORD
  5
386
102
{ACAD_REACTORS
330
385
102
}
330
385
100
AcDbXrecord
280
     1
290
     1
  0
XRECORD
  5
388
102
{ACAD_REACTORS
330
387
102
}
330
387
100
AcDbXrecord
280
     1
290
     1
  0
XRECORD
  5
38A
102
{ACAD_REACTORS
330
389
102
}
330
389
100
AcDbXrecord
280
     1
290
     1
  0
XRECORD
  5
38C
102
{ACAD_REACTORS
330
38B
102
}
330
38B
100
AcDbXrecord
280
     1
290
     1
  0
XRECORD
  5
38E
102
{ACAD_REACTORS
330
38D
102
}
330
38D
100
AcDbXrecord
280
     1
290
     1
  0
SORTENTSTABLE
  5
348
102
{ACAD_REACTORS
330
347
102
}
330
347
100
AcDbSortentsTable
330
1F
331
349
  5
224
331
34A
  5
23D
331
34B
  5
349
331
34C
  5
34A
331
34D
  5
34B
331
34E
  5
34C
331
34F
  5
34D
331
350
  5
34E
331
351
  5
34F
331
352
  5
350
331
353
  5
351
331
354
  5
352
331
355
  5
363
331
356
  5
364
331
357
  5
365
331
358
  5
366
331
359
  5
367
331
35A
  5
355
331
35B
  5
356
331
35C
  5
357
331
35D
  5
358
331
35E
  5
359
331
35F
  5
35A
331
360
  5
35B
331
361
  5
35C
331
362
  5
35D
331
363
  5
35E
331
364
  5
35F
331
365
  5
360
331
366
  5
361
331
367
  5
362
  0
ACDBDETAILVIEWSTYLE
  5
2C9
102
{ACAD_XDICTIONARY
360
3C7
102
}
102
{ACAD_REACTORS
330
2C3
330
32A
102
}
330
2C3
100
AcDbModelDocViewStyle
 70
     0
  3
Metric50
290
     0
100
AcDbDetailViewStyle
 70
     0
 71
     0
 90
        3
 71
     1
340
11
 62
   256
 40
5.0
340
0
 62
   256
 40
5.0
300

 40
0.0
280
     1
 71
     2
340
16
 90
       25
 62
   256
 71
     3
340
11
 62
   256
 40
5.0
 90
        0
 40
15.0
 90
        1
300
%<\AcVar ViewDetailId>% (%<\AcVar ViewScale \f "%sn">%)
 71
     4
340
16
 90
       25
 62
   256
340
16
 90
       25
 62
   256
280
     0
  0
GROUP
  5
376
102
{ACAD_REACTORS
330
D
102
}
330
D
100
AcDbGroup
300

 70
     0
 71
     1
340
73
  0
LAYOUT
  5
1E
102
{ACAD_REACTORS
330
1A
102
}
330
1A
100
AcDbPlotSettings
  1

  2
none_device
  4

  6

 40
0.0
 41
0.0
 42
0.0
 43
0.0
 44
0.0
 45
0.0
 46
0.0
 47
0.0
 48
0.0
 49
0.0
140
0.0
141
0.0
142
1.0
143
1.0
 70
   688
 72
     0
 73
     0
 74
     5
  7

 75
    16
147
1.0
 76
     0
 77
     2
 78
   300
148
0.0
149
0.0
100
AcDbLayout
  1
Layout1
 70
     1
 71
     1
 10
-0.5
 20
-0.5
 11
5.0
 21
5.0
 12
0.0
 22
0.0
 32
0.0
 14
-0.5
 24
-0.5
 34
-0.5
 15
5.0
 25
5.0
 35
5.0
146
0.0
 13
0.0
 23
0.0
 33
0.0
 16
1.0
 26
0.0
 36
0.0
 17
0.0
 27
1.0
 37
0.0
 76
     0
330
1B
  0
LAYOUT
  5
26
102
{ACAD_REACTORS
330
1A
102
}
330
1A
100
AcDbPlotSettings
  1

  2
none_device
  4

  6

 40
0.0
 41
0.0
 42
0.0
 43
0.0
 44
0.0
 45
0.0
 46
0.0
 47
0.0
 48
0.0
 49
0.0
140
0.0
141
0.0
142
1.0
143
1.0
 70
   688
 72
     0
 73
     0
 74
     5
  7

 75
    16
147
1.0
 76
     0
 77
     2
 78
   300
148
0.0
149
0.0
100
AcDbLayout
  1
Layout2
 70
     1
 71
     2
 10
0.0
 20
0.0
 11
0.0
 21
0.0
 12
0.0
 22
0.0
 32
0.0
 14
0.0
 24
0.0
 34
0.0
 15
0.0
 25
0.0
 35
0.0
146
0.0
 13
0.0
 23
0.0
 33
0.0
 16
1.0
 26
0.0
 36
0.0
 17
0.0
 27
1.0
 37
0.0
 76
     0
330
23
  0
LAYOUT
  5
22
102
{ACAD_REACTORS
330
1A
102
}
330
1A
100
AcDbPlotSettings
  1

  2
none_device
  4
Letter_(8.50_x_11.00_Inches)
  6

 40
6.349999999999999
 41
6.349999999999999
 42
6.350005
 43
6.350005
 44
215.9
 45
279.4
 46
0.0
 47
0.0
 48
0.0
 49
0.0
140
0.0
141
0.0
142
1.0
143
1.0
 70
  1712
 72
     0
 73
     0
 74
     0
  7

 75
     0
147
1.0
 76
     0
 77
     2
 78
   300
148
0.0
149
0.0
100
AcDbLayout
  1
Model
 70
     1
 71
     0
 10
-0.5
 20
-0.5
 11
5.0
 21
5.0
 12
0.0
 22
0.0
 32
0.0
 14
-0.5
 24
-0.5
 34
-0.5
 15
5.0
 25
5.0
 35
5.0
146
0.0
 13
0.0
 23
0.0
 33
0.0
 16
1.0
 26
0.0
 36
0.0
 17
0.0
 27
1.0
 37
0.0
 76
     0
330
1F
331
29
  0
MATERIAL
  5
45
102
{ACAD_XDICTIONARY
360
2B6
102
}
102
{ACAD_REACTORS
330
43
102
}
330
43
100
AcDbMaterial
  1
ByBlock
  0
MATERIAL
  5
44
102
{ACAD_XDICTIONARY
360
2B4
102
}
102
{ACAD_REACTORS
330
43
102
}
330
43
100
AcDbMaterial
  1
ByLayer
  0
MATERIAL
  5
46
102
{ACAD_XDICTIONARY
360
2B8
102
}
102
{ACAD_REACTORS
330
43
102
}
330
43
100
AcDbMaterial
  1
Global
  0
MLEADERSTYLE
  5
6C
102
{ACAD_REACTORS
330
6B
102
}
330
6B
100
AcDbMLeaderStyle
170
     2
171
     1
172
     0
 90
        2
 40
0.0
 41
0.0
173
     1
 91
-1056964608
340
14
 92
       -2
290
     1
 42
0.09
291
     1
 43
0.36
  3
Standard
 44
0.18
300

342
11
174
     1
178
     6
175
     1
176
     0
 93
-1056964608
 45
0.18
292
     0
297
     0
 46
0.18
 94
-1056964608
 47
1.0
 49
1.0
140
1.0
293
     1
141
0.0
294
     1
177
     0
142
1.0
295
     0
296
     0
143
0.125
1001
ACAD_MLEADERVER
1070
     2
  0
MLINESTYLE
  5
18
102
{ACAD_REACTORS
330
17
102
}
330
17
100
AcDbMlineStyle
  2
STANDARD
 70
     0
  3

 62
   256
 51
90.0
 52
90.0
 71
     2
 49
0.5
 62
   256
  6
BYLAYER
 49
-0.5
 62
   256
  6
BYLAYER
  0
ACDBPLACEHOLDER
  5
F
102
{ACAD_REACTORS
330
E
102
}
330
E
  0
SCALE
  5
48
102
{ACAD_REACTORS
330
47
102
}
330
47
100
AcDbScale
 70
     0
300
1:1
140
1.0
141
1.0
290
     1
  0
SCALE
  5
49
102
{ACAD_REACTORS
330
47
102
}
330
47
100
AcDbScale
 70
     0
300
1:2
140
1.0
141
2.0
290
     0
  0
SCALE
  5
4A
102
{ACAD_REACTORS
330
47
102
}
330
47
100
AcDbScale
 70
     0
300
1:4
140
1.0
141
4.0
290
     0
  0
SCALE
  5
4B
102
{ACAD_REACTORS
330
47
102
}
330
47
100
AcDbScale
 70
     0
300
1:5
140
1.0
141
5.0
290
     0
  0
SCALE
  5
4C
102
{ACAD_REACTORS
330
47
102
}
330
47
100
AcDbScale
 70
     0
300
1:8
140
1.0
141
8.0
290
     0
  0
SCALE
  5
4D
102
{ACAD_REACTORS
330
47
102
}
330
47
100
AcDbScale
 70
     0
300
1:10
140
1.0
141
10.0
290
     0
  0
SCALE
  5
4E
102
{ACAD_REACTORS
330
47
102
}
330
47
100
AcDbScale
 70
     0
300
1:16
140
1.0
141
16.0
290
     0
  0
SCALE
  5
4F
102
{ACAD_REACTORS
330
47
102
}
330
47
100
AcDbScale
 70
     0
300
1:20
140
1.0
141
20.0
290
     0
  0
SCALE
  5
50
102
{ACAD_REACTORS
330
47
102
}
330
47
100
AcDbScale
 70
     0
300
1:30
140
1.0
141
30.0
290
     0
  0
SCALE
  5
51
102
{ACAD_REACTORS
330
47
102
}
330
47
100
AcDbScale
 70
     0
300
1:40
140
1.0
141
40.0
290
     0
  0
SCALE
  5
52
102
{ACAD_REACTORS
330
47
102
}
330
47
100
AcDbScale
 70
     0
300
1:50
140
1.0
141
50.0
290
     0
  0
SCALE
  5
53
102
{ACAD_REACTORS
330
47
102
}
330
47
100
AcDbScale
 70
     0
300
1:100
140
1.0
141
100.0
290
     0
  0
SCALE
  5
54
102
{ACAD_REACTORS
330
47
102
}
330
47
100
AcDbScale
 70
     0
300
2:1
140
2.0
141
1.0
290
     0
  0
SCALE
  5
55
102
{ACAD_REACTORS
330
47
102
}
330
47
100
AcDbScale
 70
     0
300
4:1
140
4.0
141
1.0
290
     0
  0
SCALE
  5
56
102
{ACAD_REACTORS
330
47
102
}
330
47
100
AcDbScale
 70
     0
300
8:1
140
8.0
141
1.0
290
     0
  0
SCALE
  5
57
102
{ACAD_REACTORS
330
47
102
}
330
47
100
AcDbScale
 70
     0
300
10:1
140
10.0
141
1.0
290
     0
  0
SCALE
  5
58
102
{ACAD_REACTORS
330
47
102
}
330
47
100
AcDbScale
 70
     0
300
100:1
140
100.0
141
1.0
290
     0
  0
SCALE
  5
59
102
{ACAD_REACTORS
330
47
102
}
330
47
100
AcDbScale
 70
     0
300
1/128" = 1'-0"
140
0.007812
141
12.0
290
     0
  0
SCALE
  5
5A
102
{ACAD_REACTORS
330
47
102
}
330
47
100
AcDbScale
 70
     0
300
1/64" = 1'-0"
140
0.015625
141
12.0
290
     0
  0
SCALE
  5
5B
102
{ACAD_REACTORS
330
47
102
}
330
47
100
AcDbScale
 70
     0
300
1/32" = 1'-0"
140
0.03125
141
12.0
290
     0
  0
SCALE
  5
5C
102
{ACAD_REACTORS
330
47
102
}
330
47
100
AcDbScale
 70
     0
300
1/16" = 1'-0"
140
0.0625
141
12.0
290
     0
  0
SCALE
  5
5D
102
{ACAD_REACTORS
330
47
102
}
330
47
100
AcDbScale
 70
     0
300
3/32" = 1'-0"
140
0.09375
141
12.0
290
     0
  0
SCALE
  5
5E
102
{ACAD_REACTORS
330
47
102
}
330
47
100
AcDbScale
 70
     0
300
1/8" = 1'-0"
140
0.125
141
12.0
290
     0
  0
SCALE
  5
5F
102
{ACAD_REACTORS
330
47
102
}
330
47
100
AcDbScale
 70
     0
300
3/16" = 1'-0"
140
0.1875
141
12.0
290
     0
  0
SCALE
  5
60
102
{ACAD_REACTORS
330
47
102
}
330
47
100
AcDbScale
 70
     0
300
1/4" = 1'-0"
140
0.25
141
12.0
290
     0
  0
SCALE
  5
61
102
{ACAD_REACTORS
330
47
102
}
330
47
100
AcDbScale
 70
     0
300
3/8" = 1'-0"
140
0.375
141
12.0
290
     0
  0
SCALE
  5
62
102
{ACAD_REACTORS
330
47
102
}
330
47
100
AcDbScale
 70
     0
300
1/2" = 1'-0"
140
0.5
141
12.0
290
     0
  0
SCALE
  5
63
102
{ACAD_REACTORS
330
47
102
}
330
47
100
AcDbScale
 70
     0
300
3/4" = 1'-0"
140
0.75
141
12.0
290
     0
  0
SCALE
  5
64
102
{ACAD_REACTORS
330
47
102
}
330
47
100
AcDbScale
 70
     0
300
1" = 1'-0"
140
1.0
141
12.0
290
     0
  0
SCALE
  5
65
102
{ACAD_REACTORS
330
47
102
}
330
47
100
AcDbScale
 70
     0
300
1-1/2" = 1'-0"
140
1.5
141
12.0
290
     0
  0
SCALE
  5
66
102
{ACAD_REACTORS
330
47
102
}
330
47
100
AcDbScale
 70
     0
300
3" = 1'-0"
140
3.0
141
12.0
290
     0
  0
SCALE
  5
67
102
{ACAD_REACTORS
330
47
102
}
330
47
100
AcDbScale
 70
     0
300
6" = 1'-0"
140
6.0
141
12.0
290
     0
  0
SCALE
  5
68
102
{ACAD_REACTORS
330
47
102
}
330
47
100
AcDbScale
 70
     0
300
1'-0" = 1'-0"
140
12.0
141
12.0
290
     0
  0
ACDBSECTIONVIEWSTYLE
  5
2C8
102
{ACAD_XDICTIONARY
360
3C5
102
}
102
{ACAD_REACTORS
330
2C4
330
329
102
}
330
2C4
100
AcDbModelDocViewStyle
 70
     0
  3
Metric50
290
     0
100
AcDbSectionViewStyle
 70
     0
 71
     0
 90
      102
 71
     1
340
11
 62
   256
 40
5.0
340
0
340
0
 62
   256
 40
5.0
300
I, O, Q, S, X, Z
 40
10.0
 90
        0
 40
2.5
 90
        0
 71
     2
340
16
 90
       25
 62
   256
340
16
 90
       50
 62
   256
 40
5.0
 40
2.5
 40
5.0
 71
     3
340
11
 62
   256
 40
5.0
 90
        0
 40
15.0
 90
        1
300
%<\AcVar ViewSectionStartId>%-%<\AcVar ViewSectionEndId>% (%<\AcVar ViewScale \f "%sn">%)
 71
     4
 62
   256
 62
   257
300
ANSI31
 40
1.0
 90
        0
290
     0
290
     0
 90
        6
 40
0.0
 40
1.570796326794896
 40
0.2617993877991494
 40
1.308996938995747
 40
-0.2617993877991494
 40
1.832595714594046
  0
TABLESTYLE
  5
6A
102
{ACAD_XDICTIONARY
360
2BA
102
}
102
{ACAD_REACTORS
330
69
102
}
330
69
100
AcDbTableStyle
  3
Standard
 70
     0
 71
     0
 40
0.06
 41
0.06
280
     0
281
     0
  7
Standard
140
0.18
170
     2
 62
     0
 63
     7
283
     0
274
    -2
284
     1
 64
     0
275
    -2
285
     1
 65
     0
276
    -2
286
     1
 66
     0
277
    -2
287
     1
 67
     0
278
    -2
288
     1
 68
     0
279
    -2
289
     1
 69
     0
  7
Standard
140
0.25
170
     5
 62
     0
 63
     7
283
     0
274
    -2
284
     1
 64
     0
275
    -2
285
     1
 65
     0
276
    -2
286
     1
 66
     0
277
    -2
287
     1
 67
     0
278
    -2
288
     1
 68
     0
279
    -2
289
     1
 69
     0
  7
Standard
140
0.18
170
     5
 62
     0
 63
     7
283
     0
274
    -2
284
     1
 64
     0
275
    -2
285
     1
 65
     0
276
    -2
286
     1
 66
     0
277
    -2
287
     1
 67
     0
278
    -2
288
     1
 68
     0
279
    -2
289
     1
 69
     0
  0
VISUALSTYLE
  5
2F
102
{ACAD_XDICTIONARY
360
39C
102
}
102
{ACAD_REACTORS
330
2A
102
}
330
2A
100
AcDbVisualStyle
  2

 70
     4
 71
     0
 72
     2
 73
     0
 90
        0
 40
-0.6
 41
-30.0
 62
     5
 63
     7
421
 16777215
 74
     1
 91
        4
 64
     7
 65
   257
 75
     1
175
     1
 42
1.0
 92
        0
 66
   257
 43
1.0
 76
     1
 77
     6
 78
     2
 67
     7
 79
     5
170
     0
171
     0
290
     0
174
     0
 93
        1
 44
0.0
173
     0
291
     0
 45
0.0
1001
ACAD
1000
AcDbSavedByObjectVersion
1070
     0
  0
VISUALSTYLE
  5
32
102
{ACAD_XDICTIONARY
360
3A2
102
}
102
{ACAD_REACTORS
330
2A
102
}
330
2A
100
AcDbVisualStyle
  2

 70
     7
 71
     1
 72
     0
 73
     1
 90
        0
 40
-0.6
 41
-30.0
 62
     5
 63
     7
421
 16777215
 74
     0
 91
        4
 64
     7
 65
   257
 75
     1
175
     1
 42
1.0
 92
        8
 66
     7
 43
1.0
 76
     1
 77
     6
 78
     2
 67
     7
 79
     5
170
     0
171
     0
290
     0
174
     0
 93
        1
 44
0.0
173
     0
291
     1
 45
0.0
1001
ACAD
1000
AcDbSavedByObjectVersion
1070
     0
  0
VISUALSTYLE
  5
36
102
{ACAD_XDICTIONARY
360
3AA
102
}
102
{ACAD_REACTORS
330
2A
102
}
330
2A
100
AcDbVisualStyle
  2

 70
    12
 71
     2
 72
     2
 73
     0
 90
        0
 40
-0.6
 41
-30.0
 62
     5
 63
     7
421
 16777215
 74
     1
 91
        4
 64
     7
 65
   257
 75
     1
175
     1
 42
1.0
 92
        8
 66
     7
 43
1.0
 76
     1
 77
     6
 78
     2
 67
     7
 79
     5
170
     0
171
     0
290
     0
174
     0
 93
        1
 44
50.0
173
     0
291
     1
 45
0.0
1001
ACAD
1000
AcDbSavedByObjectVersion
1070
     0
  0
VISUALSTYLE
  5
3A
102
{ACAD_XDICTIONARY
360
3B2
102
}
102
{ACAD_REACTORS
330
2A
102
}
330
2A
100
AcDbVisualStyle
  2

 70
    16
 71
     2
 72
     2
 73
     3
 90
        0
 40
-0.6
 41
-30.0
 62
     5
 63
     8
421
  8421504
 74
     1
 91
        4
 64
     7
 65
   257
 75
     1
175
     1
 42
1.0
 92
        8
 66
     8
424
  8421504
 43
1.0
 76
     1
 77
     6
 78
     2
 67
     7
 79
     5
170
     0
171
     0
290
     0
174
     0
 93
        1
 44
0.0
173
     0
291
     1
 45
0.0
1001
ACAD
1000
AcDbSavedByObjectVersion
1070
     0
  0
VISUALSTYLE
  5
34
102
{ACAD_XDICTIONARY
360
3A6
102
}
102
{ACAD_REACTORS
330
2A
102
}
330
2A
100
AcDbVisualStyle
  2

 70
     9
 71
     3
 72
     2
 73
     0
 90
        0
 40
-0.6
 41
-30.0
 62
     5
 63
     7
421
 16777215
 74
     2
 91
        2
 64
     7
 65
   257
 75
     1
175
     1
 42
179.0
 92
        8
 66
     7
 43
1.0
 76
     1
 77
     6
 78
     2
 67
     7
 79
     3
170
     0
171
     0
290
     0
174
     0
 93
        1
 44
0.0
173
     0
291
     0
 45
0.0
1001
ACAD
1000
AcDbSavedByObjectVersion
1070
     0
  0
VISUALSTYLE
  5
35
102
{ACAD_XDICTIONARY
360
3A8
102
}
102
{ACAD_REACTORS
330
2A
102
}
330
2A
100
AcDbVisualStyle
  2

 70
    11
 71
     2
 72
     2
 73
     0
 90
        0
 40
-0.6
 41
-30.0
 62
     5
 63
     7
421
 16777215
 74
     1
 91
        4
 64
     7
 65
   257
 75
     1
175
     1
 42
1.0
 92
        8
 66
     7
 43
1.0
 76
     1
 77
     6
 78
     2
 67
     7
 79
     5
170
     0
171
     0
290
     0
174
     0
 93
        1
 44
-50.0
173
     0
291
     1
 45
0.0
1001
ACAD
1000
AcDbSavedByObjectVersion
1070
     0
  0
VISUALSTYLE
  5
3D
102
{ACAD_XDICTIONARY
360
3B8
102
}
102
{ACAD_REACTORS
330
2A
102
}
330
2A
100
AcDbVisualStyle
  2

 70
    22
 71
     2
 72
     2
 73
     0
 90
        0
 40
-0.6
 41
-30.0
 62
     5
 63
     7
421
 16777215
 74
     1
 91
        4
 64
     7
 65
   257
 75
     1
175
     1
 42
1.0
 92
        8
 66
     7
 43
1.0
 76
     1
 77
     6
 78
     2
 67
     7
 79
     5
170
     0
171
     0
290
     0
174
     0
 93
        1
 44
0.0
173
     0
291
     1
 45
0.0
1001
ACAD
1000
AcDbSavedByObjectVersion
1070
     0
  0
VISUALSTYLE
  5
39
102
{ACAD_XDICTIONARY
360
3B0
102
}
102
{ACAD_REACTORS
330
2A
102
}
330
2A
100
AcDbVisualStyle
  2

 70
    15
 71
     2
 72
     2
 73
     0
 90
        0
 40
-0.6
 41
-30.0
 62
     5
 63
     7
421
 16777215
 74
     1
 91
        4
 64
     7
 65
   257
 75
     1
175
     1
 42
1.0
 92
        8
 66
     7
 43
1.0
 76
     1
 77
     6
 78
     2
 67
     7
 79
     5
170
     0
171
     0
290
     0
174
     0
 93
        1
 44
0.0
173
     0
291
     1
 45
0.0
1001
ACAD
1000
AcDbSavedByObjectVersion
1070
     0
  0
VISUALSTYLE
  5
2B
102
{ACAD_XDICTIONARY
360
394
102
}
102
{ACAD_REACTORS
330
2A
102
}
330
2A
100
AcDbVisualStyle
  2

 70
     0
 71
     2
 72
     1
 73
     1
 90
        2
 40
-0.6
 41
30.0
 62
     5
 63
     7
421
 16777215
 74
     0
 91
        0
 64
     7
 65
   257
 75
     1
175
     1
 42
1.0
 92
        8
 66
     7
 43
1.0
 76
     1
 77
     6
 78
     2
 67
     7
 79
     5
170
     0
171
     0
290
     0
174
     0
 93
       13
 44
0.0
173
     0
291
     1
 45
0.0
1001
ACAD
1000
AcDbSavedByObjectVersion
1070
     0
  0
VISUALSTYLE
  5
2C
102
{ACAD_XDICTIONARY
360
396
102
}
102
{ACAD_REACTORS
330
2A
102
}
330
2A
100
AcDbVisualStyle
  2

 70
     1
 71
     2
 72
     1
 73
     1
 90
        2
 40
-0.6
 41
30.0
 62
     5
 63
     7
421
 16777215
 74
     1
 91
        0
 64
     7
 65
   257
 75
     1
175
     1
 42
1.0
 92
        0
 66
   257
 43
1.0
 76
     1
 77
     6
 78
     2
 67
     7
 79
     5
170
     0
171
     0
290
     0
174
     0
 93
       13
 44
0.0
173
     0
291
     1
 45
0.0
1001
ACAD
1000
AcDbSavedByObjectVersion
1070
     0
  0
VISUALSTYLE
  5
2D
102
{ACAD_XDICTIONARY
360
398
102
}
102
{ACAD_REACTORS
330
2A
102
}
330
2A
100
AcDbVisualStyle
  2

 70
     2
 71
     2
 72
     2
 73
     1
 90
        2
 40
-0.6
 41
30.0
 62
     5
 63
     7
421
 16777215
 74
     0
 91
        0
 64
     7
 65
   257
 75
     1
175
     1
 42
1.0
 92
        0
 66
     7
 43
1.0
 76
     1
 77
     6
 78
     2
 67
     7
 79
     5
170
     0
171
     0
290
     0
174
     0
 93
       13
 44
0.0
173
     0
291
     1
 45
0.0
1001
ACAD
1000
AcDbSavedByObjectVersion
1070
     0
  0
VISUALSTYLE
  5
2E
102
{ACAD_XDICTIONARY
360
39A
102
}
102
{ACAD_REACTORS
330
2A
102
}
330
2A
100
AcDbVisualStyle
  2

 70
     3
 71
     2
 72
     2
 73
     1
 90
        2
 40
-0.6
 41
30.0
 62
     5
 63
     7
421
 16777215
 74
     1
 91
        0
 64
     7
 65
   257
 75
     1
175
     1
 42
1.0
 92
        0
 66
   257
 43
1.0
 76
     1
 77
     6
 78
     2
 67
     7
 79
     5
170
     0
171
     0
290
     0
174
     0
 93
       13
 44
0.0
173
     0
291
     1
 45
0.0
1001
ACAD
1000
AcDbSavedByObjectVersion
1070
     0
  0
VISUALSTYLE
  5
31
102
{ACAD_XDICTIONARY
360
3A0
102
}
102
{ACAD_REACTORS
330
2A
102
}
330
2A
100
AcDbVisualStyle
  2

 70
     6
 71
     1
 72
     2
 73
     2
 90
        0
 40
-0.6
 41
-30.0
 62
     5
 63
     7
421
 16777215
 74
     2
 91
        2
 64
     7
 65
   257
 75
     2
175
     1
 42
40.0
 92
        0
 66
   257
 43
1.0
 76
     1
 77
     6
 78
     2
 67
     7
 79
     3
170
     0
171
     0
290
     0
174
     0
 93
        1
 44
0.0
173
     0
291
     0
 45
0.0
1001
ACAD
1000
AcDbSavedByObjectVersion
1070
     0
  0
VISUALSTYLE
  5
3B
102
{ACAD_XDICTIONARY
360
3B4
102
}
102
{ACAD_REACTORS
330
2A
102
}
330
2A
100
AcDbVisualStyle
  2

 70
    20
 71
     2
 72
     2
 73
     0
 90
        0
 40
-0.6
 41
-30.0
 62
     5
 63
     7
421
 16777215
 74
     1
 91
        4
 64
     7
 65
   257
 75
     1
175
     1
 42
1.0
 92
       10
 66
     7
 43
1.0
 76
     1
 77
     6
 78
     2
 67
     7
 79
     5
170
     0
171
     0
290
     0
174
     0
 93
        1
 44
0.0
173
     0
291
     1
 45
0.0
1001
ACAD
1000
AcDbSavedByObjectVersion
1070
     0
  0
VISUALSTYLE
  5
38
102
{ACAD_XDICTIONARY
360
3AE
102
}
102
{ACAD_REACTORS
330
2A
102
}
330
2A
100
AcDbVisualStyle
  2

 70
    14
 71
     2
 72
     2
 73
     0
 90
        0
 40
-0.6
 41
-30.0
 62
     5
 63
     7
421
 16777215
 74
     1
 91
        4
 64
     7
 65
   257
 75
     7
175
     7
 42
1.0
 92
        8
 66
     7
 43
1.0
 76
     1
 77
     6
 78
     2
 67
     7
 79
     5
170
     0
171
     0
290
     0
174
     0
 93
        1
 44
0.0
173
     0
291
     1
 45
0.0
1001
ACAD
1000
AcDbSavedByObjectVersion
1070
     0
  0
VISUALSTYLE
  5
3C
102
{ACAD_XDICTIONARY
360
3B6
102
}
102
{ACAD_REACTORS
330
2A
102
}
330
2A
100
AcDbVisualStyle
  2

 70
    21
 71
     2
 72
     2
 73
     0
 90
        0
 40
-0.6
 41
-30.0
 62
     5
 63
     7
421
 16777215
 74
     1
 91
        4
 64
     7
 65
   257
 75
     1
175
     1
 42
1.0
 92
        9
 66
     7
 43
1.0
 76
     1
 77
     6
 78
     2
 67
     7
 79
     5
170
     0
171
     0
290
     0
174
     0
 93
        1
 44
0.0
173
     0
291
     1
 45
0.0
1001
ACAD
1000
AcDbSavedByObjectVersion
1070
     0
  0
VISUALSTYLE
  5
33
102
{ACAD_XDICTIONARY
360
3A4
102
}
102
{ACAD_REACTORS
330
2A
102
}
330
2A
100
AcDbVisualStyle
  2

 70
     8
 71
     2
 72
     3
 73
     0
 90
        2
 40
-0.6
 41
30.0
 62
     5
 63
     7
421
 16777215
 74
     0
 91
        0
 64
     7
 65
   257
 75
     1
175
     1
 42
1.0
 92
        8
 66
   257
 43
1.0
 76
     1
 77
     6
 78
     2
 67
     7
 79
     3
170
     0
171
     0
290
     0
174
     0
 93
       13
 44
0.0
173
     0
291
     0
 45
0.0
1001
ACAD
1000
AcDbSavedByObjectVersion
1070
     0
  0
VISUALSTYLE
  5
42
102
{ACAD_XDICTIONARY
360
3C2
102
}
102
{ACAD_REACTORS
330
2A
102
}
330
2A
100
AcDbVisualStyle
  2

 70
    27
 71
     2
 72
     2
 73
     1
 90
        2
 40
-0.6
 41
30.0
 62
     5
 63
     7
421
 16777215
 74
     0
 91
        4
 64
     7
 65
   257
 75
     1
175
     1
 42
1.0
 92
        8
 66
   257
 43
1.0
 76
     1
 77
     6
 78
     2
 67
     8
425
  7895160
 79
     3
170
     0
171
     0
290
     0
174
     0
 93
        5
 44
0.0
173
     0
291
     0
 45
0.0
1001
ACAD
1000
AcDbSavedByObjectVersion
1070
     0
  0
VISUALSTYLE
  5
41
102
{ACAD_XDICTIONARY
360
3C0
102
}
102
{ACAD_REACTORS
330
2A
102
}
330
2A
100
AcDbVisualStyle
  2

 70
    26
 71
     2
 72
     2
 73
     1
 90
        2
 40
-0.6
 41
30.0
 62
     5
 63
     7
421
 16777215
 74
     1
 91
       10
 64
     7
 65
   257
 75
     2
175
     1
 42
1.0
 92
        8
 66
   257
 43
1.0
 76
     1
 77
     6
 78
     2
 67
     7
 79
     3
170
     0
171
     0
290
     0
174
     0
 93
        5
 44
0.0
173
     0
291
     0
 45
0.0
1001
ACAD
1000
AcDbSavedByObjectVersion
1070
     0
  0
VISUALSTYLE
  5
3E
102
{ACAD_XDICTIONARY
360
3BA
102
}
102
{ACAD_REACTORS
330
2A
102
}
330
2A
100
AcDbVisualStyle
  2

 70
    23
 71
     2
 72
     2
 73
     3
 90
        0
 40
-0.6
 41
-30.0
 62
     5
 63
     7
421
 16777215
 74
     2
 91
        2
 64
     7
 65
     7
 75
     1
175
     1
 42
40.0
 92
        8
 66
     7
 43
1.0
 76
     1
 77
     6
 78
     2
 67
     7
 79
     3
170
     0
171
     0
290
     0
174
     0
 93
        1
 44
0.0
173
     0
291
     0
 45
0.0
1001
ACAD
1000
AcDbSavedByObjectVersion
1070
     0
  0
VISUALSTYLE
  5
3F
102
{ACAD_XDICTIONARY
360
3BC
102
}
102
{ACAD_REACTORS
330
2A
102
}
330
2A
100
AcDbVisualStyle
  2

 70
    24
 71
     1
 72
     2
 73
     2
 90
        0
 40
-0.6
 41
-30.0
 62
     5
 63
     7
421
 16777215
 74
     2
 91
        2
 64
     7
 65
     7
 75
     1
175
     1
 42
40.0
 92
       11
 66
     7
 43
1.0
 76
     1
 77
     6
 78
     2
 67
     7
 79
     6
170
     0
171
     0
290
     0
174
     0
 93
        1
 44
0.0
173
     0
291
     0
 45
0.0
1001
ACAD
1000
AcDbSavedByObjectVersion
1070
     0
  0
VISUALSTYLE
  5
37
102
{ACAD_XDICTIONARY
360
3AC
102
}
102
{ACAD_REACTORS
330
2A
102
}
330
2A
100
AcDbVisualStyle
  2

 70
    13
 71
     2
 72
     2
 73
     0
 90
        0
 40
-0.6
 41
-30.0
 62
     5
 63
     7
421
 16777215
 74
     1
 91
        4
 64
     7
 65
   257
 75
     1
175
     1
 42
1.0
 92
       12
 66
     7
 43
1.0
 76
     1
 77
     6
 78
     2
 67
     7
 79
     5
170
     0
171
     0
290
     0
174
     0
 93
        1
 44
0.0
173
     0
291
     1
 45
0.0
1001
ACAD
1000
AcDbSavedByObjectVersion
1070
     0
  0
VISUALSTYLE
  5
30
102
{ACAD_XDICTIONARY
360
39E
102
}
102
{ACAD_REACTORS
330
2A
102
}
330
2A
100
AcDbVisualStyle
  2

 70
     5
 71
     0
 72
     2
 73
     0
 90
        0
 40
-0.6
 41
-30.0
 62
     5
 63
     7
421
 16777215
 74
     1
 91
        4
 64
     7
 65
   257
 75
     1
175
     1
 42
1.0
 92
        0
 66
   257
 43
1.0
 76
     1
 77
     6
 78
     2
 67
     7
 79
     3
170
     0
171
     0
290
     0
174
     0
 93
        1
 44
0.0
173
     0
291
     0
 45
0.0
1001
ACAD
1000
AcDbSavedByObjectVersion
1070
     0
  0
VISUALSTYLE
  5
40
102
{ACAD_XDICTIONARY
360
3BE
102
}
102
{ACAD_REACTORS
330
2A
102
}
330
2A
100
AcDbVisualStyle
  2

 70
    25
 71
     2
 72
     2
 73
     1
 90
        1
 40
0.5
 41
-30.0
 62
     5
 63
     7
421
 16777215
 74
     1
 91
        0
 64
     7
 65
   257
 75
     1
175
     1
 42
1.0
 92
        8
 66
     7
 43
1.0
 76
     1
 77
     6
 78
     2
 67
     7
 79
     3
170
     0
171
     0
290
     0
174
     0
 93
       13
 44
0.0
173
     0
291
     0
 45
0.0
1001
ACAD
1000
AcDbSavedByObjectVersion
1070
     0
  0
DICTIONARYVAR
  5
281
102
{ACAD_REACTORS
330
280
102
}
330
280
100
DictionaryVariables
280
     0
  1
1:1
  0
DICTIONARYVAR
  5
2C2
102
{ACAD_REACTORS
330
280
102
}
330
280
100
DictionaryVariables
280
     0
  1
STANDARD
  0
DICTIONARYVAR
  5
2C1
102
{ACAD_REACTORS
330
280
102
}
330
280
100
DictionaryVariables
280
     0
  1
STANDARD
  0
DICTIONARYVAR
  5
38F
102
{ACAD_REACTORS
330
280
102
}
330
280
100
DictionaryVariables
280
     0
  1
Metric50
  0
DICTIONARYVAR
  5
390
102
{ACAD_REACTORS
330
280
102
}
330
280
100
DictionaryVariables
280
     0
  1
Metric50
  0
DICTIONARYVAR
  5
282
102
{ACAD_REACTORS
330
280
102
}
330
280
100
DictionaryVariables
280
     0
  1
1
  0
DICTIONARYVAR
  5
391
102
{ACAD_REACTORS
330
280
102
}
330
280
100
DictionaryVariables
280
     0
  1
2
  0
DICTIONARY
  5
2FF
102
{ACAD_REACTORS
330
2F8
102
}
330
2F8
100
AcDbDictionary
281
     1
  0
DICTIONARY
  5
3C7
330
2C9
100
AcDbDictionary
280
     1
281
     1
  3
ACAD_XREC_ROUNDTRIP
360
3C8
  0
DICTIONARY
  5
2B6
330
45
100
AcDbDictionary
280
     1
281
     1
  3
ACAD_XREC_ROUNDTRIP
360
2B7
  0
DICTIONARY
  5
2B4
330
44
100
AcDbDictionary
280
     1
281
     1
  3
ACAD_XREC_ROUNDTRIP
360
2B5
  0
DICTIONARY
  5
2B8
330
46
100
AcDbDictionary
280
     1
281
     1
  3
ACAD_XREC_ROUNDTRIP
360
2B9
  0
DICTIONARY
  5
3C5
330
2C8
100
AcDbDictionary
280
     1
281
     1
  3
ACAD_XREC_ROUNDTRIP
360
3C6
  0
DICTIONARY
  5
2BA
330
6A
100
AcDbDictionary
280
     1
281
     1
  3
ACAD_ROUNDTRIP_2008_TABLESTYLE_CELLSTYLEMAP
360
392
  3
ACAD_XREC_ROUNDTRIP
360
3C4
  0
DICTIONARY
  5
39C
330
2F
100
AcDbDictionary
280
     1
281
     1
  3
ACAD_XREC_ROUNDTRIP
360
39D
  0
DICTIONARY
  5
3A2
330
32
100
AcDbDictionary
280
     1
281
     1
  3
ACAD_XREC_ROUNDTRIP
360
3A3
  0
DICTIONARY
  5
3AA
330
36
100
AcDbDictionary
280
     1
281
     1
  3
ACAD_XREC_ROUNDTRIP
360
3AB
  0
DICTIONARY
  5
3B2
330
3A
100
AcDbDictionary
280
     1
281
     1
  3
ACAD_XREC_ROUNDTRIP
360
3B3
  0
DICTIONARY
  5
3A6
330
34
100
AcDbDictionary
280
     1
281
     1
  3
ACAD_XREC_ROUNDTRIP
360
3A7
  0
DICTIONARY
  5
3A8
330
35
100
AcDbDictionary
280
     1
281
     1
  3
ACAD_XREC_ROUNDTRIP
360
3A9
  0
DICTIONARY
  5
3B8
330
3D
100
AcDbDictionary
280
     1
281
     1
  3
ACAD_XREC_ROUNDTRIP
360
3B9
  0
DICTIONARY
  5
3B0
330
39
100
AcDbDictionary
280
     1
281
     1
  3
ACAD_XREC_ROUNDTRIP
360
3B1
  0
DICTIONARY
  5
394
330
2B
100
AcDbDictionary
280
     1
281
     1
  3
ACAD_XREC_ROUNDTRIP
360
395
  0
DICTIONARY
  5
396
330
2C
100
AcDbDictionary
280
     1
281
     1
  3
ACAD_XREC_ROUNDTRIP
360
397
  0
DICTIONARY
  5
398
330
2D
100
AcDbDictionary
280
     1
281
     1
  3
ACAD_XREC_ROUNDTRIP
360
399
  0
DICTIONARY
  5
39A
330
2E
100
AcDbDictionary
280
     1
281
     1
  3
ACAD_XREC_ROUNDTRIP
360
39B
  0
DICTIONARY
  5
3A0
330
31
100
AcDbDictionary
280
     1
281
     1
  3
ACAD_XREC_ROUNDTRIP
360
3A1
  0
DICTIONARY
  5
3B4
330
3B
100
AcDbDictionary
280
     1
281
     1
  3
ACAD_XREC_ROUNDTRIP
360
3B5
  0
DICTIONARY
  5
3AE
330
38
100
AcDbDictionary
280
     1
281
     1
  3
ACAD_XREC_ROUNDTRIP
360
3AF
  0
DICTIONARY
  5
3B6
330
3C
100
AcDbDictionary
280
     1
281
     1
  3
ACAD_XREC_ROUNDTRIP
360
3B7
  0
DICTIONARY
  5
3A4
330
33
100
AcDbDictionary
280
     1
281
     1
  3
ACAD_XREC_ROUNDTRIP
360
3A5
  0
DICTIONARY
  5
3C2
330
42
100
AcDbDictionary
280
     1
281
     1
  3
ACAD_XREC_ROUNDTRIP
360
3C3
  0
DICTIONARY
  5
3C0
330
41
100
AcDbDictionary
280
     1
281
     1
  3
ACAD_XREC_ROUNDTRIP
360
3C1
  0
DICTIONARY
  5
3BA
330
3E
100
AcDbDictionary
280
     1
281
     1
  3
ACAD_XREC_ROUNDTRIP
360
3BB
  0
DICTIONARY
  5
3BC
330
3F
100
AcDbDictionary
280
     1
281
     1
  3
ACAD_XREC_ROUNDTRIP
360
3BD
  0
DICTIONARY
  5
3AC
330
37
100
AcDbDictionary
280
     1
281
     1
  3
ACAD_XREC_ROUNDTRIP
360
3AD
  0
DICTIONARY
  5
39E
330
30
100
AcDbDictionary
280
     1
281
     1
  3
ACAD_XREC_ROUNDTRIP
360
39F
  0
DICTIONARY
  5
3BE
330
40
100
AcDbDictionary
280
     1
281
     1
  3
ACAD_XREC_ROUNDTRIP
360
3BF
  0
XRECORD
  5
3C8
102
{ACAD_REACTORS
330
3C7
102
}
330
3C7
100
AcDbXrecord
280
     1
102
DISPLAYNAME
  1
Metric50
102
FLAGS
 90
        0
  0
XRECORD
  5
2B7
102
{ACAD_REACTORS
330
2B6
102
}
330
2B6
100
AcDbXrecord
280
     1
102
MATERIAL
148
0.0
149
0.0
149
0.0
 93
        0
 94
      127
282
     0
 72
     1
 77
     1
171
     1
175
     1
179
     1
273
     0
  0
XRECORD
  5
2B5
102
{ACAD_REACTORS
330
2B4
102
}
330
2B4
100
AcDbXrecord
280
     1
102
MATERIAL
148
0.0
149
0.0
149
0.0
 93
        0
 94
      127
282
     0
 72
     1
 77
     1
171
     1
175
     1
179
     1
273
     0
  0
XRECORD
  5
2B9
102
{ACAD_REACTORS
330
2B8
102
}
330
2B8
100
AcDbXrecord
280
     1
102
MATERIAL
148
0.0
149
0.0
149
0.0
 93
        0
 94
      127
282
     0
 72
     1
 77
     1
171
     1
175
     1
179
     1
273
     0
  0
XRECORD
  5
3C6
102
{ACAD_REACTORS
330
3C5
102
}
330
3C5
100
AcDbXrecord
280
     1
102
DISPLAYNAME
  1
Metric50
102
FLAGS
 90
        0
  0
CELLSTYLEMAP
  5
392
102
{ACAD_REACTORS
330
2BA
102
}
330
2BA
100
AcDbCellStyleMap
 90
        3
300
CELLSTYLE
  1
TABLEFORMAT_BEGIN
 90
        5
170
     1
 91
        0
 92
    32768
 62
   257
 93
        1
300
CONTENTFORMAT
  1
CONTENTFORMAT_BEGIN
 90
        0
 91
        0
 92
        4
 93
        0
300

 40
0.0
140
1.0
 94
        5
 62
     0
340
11
144
0.25
309
CONTENTFORMAT_END
171
     1
301
MARGIN
  1
CELLMARGIN_BEGIN
 40
0.06
 40
0.06
 40
0.06
 40
0.06
 40
0.18
 40
0.18
309
CELLMARGIN_END
 94
        6
 95
        1
302
GRIDFORMAT
  1
GRIDFORMAT_BEGIN
 90
        0
 91
        1
 62
     0
 92
       -2
340
14
 93
        0
 40
0.045
309
GRIDFORMAT_END
 95
        2
302
GRIDFORMAT
  1
GRIDFORMAT_BEGIN
 90
        0
 91
        1
 62
     0
 92
       -2
340
14
 93
        0
 40
0.045
309
GRIDFORMAT_END
 95
        4
302
GRIDFORMAT
  1
GRIDFORMAT_BEGIN
 90
        0
 91
        1
 62
     0
 92
       -2
340
14
 93
        0
 40
0.045
309
GRIDFORMAT_END
 95
        8
302
GRIDFORMAT
  1
GRIDFORMAT_BEGIN
 90
        0
 91
        1
 62
     0
 92
       -2
340
14
 93
        0
 40
0.045
309
GRIDFORMAT_END
 95
       16
302
GRIDFORMAT
  1
GRIDFORMAT_BEGIN
 90
        0
 91
        1
 62
     0
 92
       -2
340
14
 93
        0
 40
0.045
309
GRIDFORMAT_END
 95
       32
302
GRIDFORMAT
  1
GRIDFORMAT_BEGIN
 90
        0
 91
        1
 62
     0
 92
       -2
340
14
 93
        0
 40
0.045
309
GRIDFORMAT_END
309
TABLEFORMAT_END
  1
CELLSTYLE_BEGIN
 90
        1
 91
        1
300
_TITLE
309
CELLSTYLE_END
300
CELLSTYLE
  1
TABLEFORMAT_BEGIN
 90
        5
170
     1
 91
        0
 92
        0
 62
   257
 93
        1
300
CONTENTFORMAT
  1
CONTENTFORMAT_BEGIN
 90
        0
 91
        0
 92
        4
 93
        0
300

 40
0.0
140
1.0
 94
        5
 62
     0
340
11
144
0.18
309
CONTENTFORMAT_END
171
     1
301
MARGIN
  1
CELLMARGIN_BEGIN
 40
0.06
 40
0.06
 40
0.06
 40
0.06
 40
0.18
 40
0.18
309
CELLMARGIN_END
 94
        6
 95
        1
302
GRIDFORMAT
  1
GRIDFORMAT_BEGIN
 90
        0
 91
        1
 62
     0
 92
       -2
340
14
 93
        0
 40
0.045
309
GRIDFORMAT_END
 95
        2
302
GRIDFORMAT
  1
GRIDFORMAT_BEGIN
 90
        0
 91
        1
 62
     0
 92
       -2
340
14
 93
        0
 40
0.045
309
GRIDFORMAT_END
 95
        4
302
GRIDFORMAT
  1
GRIDFORMAT_BEGIN
 90
        0
 91
        1
 62
     0
 92
       -2
340
14
 93
        0
 40
0.045
309
GRIDFORMAT_END
 95
        8
302
GRIDFORMAT
  1
GRIDFORMAT_BEGIN
 90
        0
 91
        1
 62
     0
 92
       -2
340
14
 93
        0
 40
0.045
309
GRIDFORMAT_END
 95
       16
302
GRIDFORMAT
  1
GRIDFORMAT_BEGIN
 90
        0
 91
        1
 62
     0
 92
       -2
340
14
 93
        0
 40
0.045
309
GRIDFORMAT_END
 95
       32
302
GRIDFORMAT
  1
GRIDFORMAT_BEGIN
 90
        0
 91
        1
 62
     0
 92
       -2
340
14
 93
        0
 40
0.045
309
GRIDFORMAT_END
309
TABLEFORMAT_END
  1
CELLSTYLE_BEGIN
 90
        2
 91
        1
300
_HEADER
309
CELLSTYLE_END
300
CELLSTYLE
  1
TABLEFORMAT_BEGIN
 90
        5
170
     1
 91
        0
 92
        0
 62
   257
 93
        1
300
CONTENTFORMAT
  1
CONTENTFORMAT_BEGIN
 90
        0
 91
        0
 92
        4
 93
        0
300

 40
0.0
140
1.0
 94
        2
 62
     0
340
11
144
0.18
309
CONTENTFORMAT_END
171
     1
301
MARGIN
  1
CELLMARGIN_BEGIN
 40
0.06
 40
0.06
 40
0.06
 40
0.06
 40
0.18
 40
0.18
309
CELLMARGIN_END
 94
        6
 95
        1
302
GRIDFORMAT
  1
GRIDFORMAT_BEGIN
 90
        0
 91
        1
 62
     0
 92
       -2
340
14
 93
        0
 40
0.045
309
GRIDFORMAT_END
 95
        2
302
GRIDFORMAT
  1
GRIDFORMAT_BEGIN
 90
        0
 91
        1
 62
     0
 92
       -2
340
14
 93
        0
 40
0.045
309
GRIDFORMAT_END
 95
        4
302
GRIDFORMAT
  1
GRIDFORMAT_BEGIN
 90
        0
 91
        1
 62
     0
 92
       -2
340
14
 93
        0
 40
0.045
309
GRIDFORMAT_END
 95
        8
302
GRIDFORMAT
  1
GRIDFORMAT_BEGIN
 90
        0
 91
        1
 62
     0
 92
       -2
340
14
 93
        0
 40
0.045
309
GRIDFORMAT_END
 95
       16
302
GRIDFORMAT
  1
GRIDFORMAT_BEGIN
 90
        0
 91
        1
 62
     0
 92
       -2
340
14
 93
        0
 40
0.045
309
GRIDFORMAT_END
 95
       32
302
GRIDFORMAT
  1
GRIDFORMAT_BEGIN
 90
        0
 91
        1
 62
     0
 92
       -2
340
14
 93
        0
 40
0.045
309
GRIDFORMAT_END
309
TABLEFORMAT_END
  1
CELLSTYLE_BEGIN
 90
        3
 91
        2
300
_DATA
309
CELLSTYLE_END
  0
XRECORD
  5
3C4
102
{ACAD_REACTORS
330
2BA
102
}
330
2BA
100
AcDbXrecord
280
     1
102
ACAD_ROUNDTRIP_PRE2007_TABLESTYLE
 90
        4
 91
        0
  1

 92
        4
 93
        0
  2

 94
        4
 95
        0
  3

  0
XRECORD
  5
39D
102
{ACAD_REACTORS
330
39C
102
}
330
39C
100
AcDbXrecord
280
     1
102
RTVSPost2010Prop28
280
     1
102
RTVSPost2010PropOp28
 70
     1
102
RTVSPost2010Prop29
280
     1
102
RTVSPost2010PropOp29
 70
     1
102
RTVSPost2010Prop30
280
     0
102
RTVSPost2010PropOp30
 70
     1
102
RTVSPost2010Prop31
280
     0
102
RTVSPost2010PropOp31
 70
     1
102
RTVSPost2010Prop32
280
     0
102
RTVSPost2010PropOp32
 70
     1
102
RTVSPost2010Prop33
280
     0
102
RTVSPost2010PropOp33
 70
     1
102
RTVSPost2010Prop34
280
     0
102
RTVSPost2010PropOp34
 70
     1
102
RTVSPost2010Prop35
280
     0
102
RTVSPost2010PropOp35
 70
     1
102
RTVSPost2010Prop36
280
     0
102
RTVSPost2010PropOp36
 70
     1
102
RTVSPost2010Prop37
 90
       50
102
RTVSPost2010PropOp37
 70
     1
102
RTVSPost2010Prop38
140
0.0
102
RTVSPost2010PropOp38
 70
     1
102
RTVSPost2010Prop39
140
1.0
102
RTVSPost2010PropOp39
 70
     1
102
RTVSPost2010Prop40
 90
        0
102
RTVSPost2010PropOp40
 70
     1
102
RTVSPost2010Prop41ColorIndex
 90
       18
102
RTVSPost2010Prop41ColorRGB
 90
        0
102
RTVSPost2010PropOp41
 70
     1
102
RTVSPost2010Prop42
 90
       50
102
RTVSPost2010PropOp42
 70
     1
102
RTVSPost2010Prop43
 90
        3
102
RTVSPost2010PropOp43
 70
     1
102
RTVSPost2010Prop44ColorIndex
 90
        5
102
RTVSPost2010Prop44ColorRGB
 90
      255
102
RTVSPost2010PropOp44
 70
     1
102
RTVSPost2010Prop45
280
     0
102
RTVSPost2010PropOp45
 70
     1
102
RTVSPost2010Prop46
 90
       50
102
RTVSPost2010PropOp46
 70
     1
102
RTVSPost2010Prop47
 90
       50
102
RTVSPost2010PropOp47
 70
     1
102
RTVSPost2010Prop48
 90
       50
102
RTVSPost2010PropOp48
 70
     1
102
RTVSPost2010Prop49
280
     0
102
RTVSPost2010PropOp49
 70
     1
102
RTVSPost2010Prop50
 90
       50
102
RTVSPost2010PropOp50
 70
     1
102
RTVSPost2010Prop51ColorIndex
 90
      256
102
RTVSPost2010Prop51ColorRGB
 90
-16777216
102
RTVSPost2010PropOp51
 70
     0
102
RTVSPost2010Prop52
140
1.0
102
RTVSPost2010PropOp52
 70
     0
102
RTVSPost2010Prop53
 90
        2
102
RTVSPost2010PropOp53
 70
     1
102
RTVSPost2010Prop54
  1
strokes_ogs.tif
102
RTVSPost2010PropOp54
 70
     1
102
RTVSPost2010Prop55
280
     0
102
RTVSPost2010PropOp55
 70
     1
102
RTVSPost2010Prop56
140
1.0
102
RTVSPost2010PropOp56
 70
     1
102
RTVSPost2010Prop57
140
1.0
102
RTVSPost2010PropOp57
 70
     1
102
RTVSPropertyOp0
 70
     1
102
RTVSPropertyOp1
 70
     1
102
RTVSPropertyOp2
 70
     1
102
RTVSPropertyOp3
 70
     1
102
RTVSPropertyOp4
 70
     1
102
RTVSPropertyOp5
 70
     1
102
RTVSPropertyOp6
 70
     1
102
RTVSPropertyOp7
 70
     1
102
RTVSPropertyOp8
 70
     1
102
RTVSPropertyOp9
 70
     1
102
RTVSPropertyOp10
 70
     1
102
RTVSPropertyOp11
 70
     1
102
RTVSPropertyOp12
 70
     1
102
RTVSPropertyOp13
 70
     1
102
RTVSPropertyOp14
 70
     1
102
RTVSPropertyOp15
 70
     1
102
RTVSPropertyOp16
 70
     1
102
RTVSPropertyOp17
 70
     1
102
RTVSPropertyOp18
 70
     1
102
RTVSPropertyOp19
 70
     1
102
RTVSPropertyOp20
 70
     1
102
RTVSPropertyOp21
 70
     1
102
RTVSPropertyOp22
 70
     1
102
RTVSPropertyOp23
 70
     1
102
RTVSPropertyOp24
 70
     1
102
RTVSPropertyOp25
 70
     1
102
RTVSPropertyOp26
 70
     1
102
RTVSPropertyOp27
 70
     1
102
RTVSPropertyOp28
 70
     1
102
RTVSPropertyOp29
 70
     1
102
RTVSPropertyOp30
 70
     1
102
RTVSPropertyOp31
 70
     1
102
RTVSPropertyOp32
 70
     1
102
RTVSPropertyOp33
 70
     1
102
RTVSPropertyOp34
 70
     1
102
RTVSPropertyOp35
 70
     1
102
RTVSPropertyOp36
 70
     1
102
RTVSPropertyOp37
 70
     1
102
RTVSPropertyOp38
 70
     1
102
RTVSPropertyOp39
 70
     1
102
RTVSPropertyOp40
 70
     1
102
RTVSPropertyOp41
 70
     1
102
RTVSPropertyOp42
 70
     1
102
RTVSPropertyOp43
 70
     1
102
RTVSPropertyOp44
 70
     1
102
RTVSPropertyOp45
 70
     1
102
RTVSPropertyOp46
 70
     1
102
RTVSPropertyOp47
 70
     1
102
RTVSPropertyOp48
 70
     1
102
RTVSPropertyOp49
 70
     1
102
RTVSPropertyOp50
 70
     1
102
RTVSPropertyOp51
 70
     0
102
RTVSPropertyOp52
 70
     0
102
RTVSPropertyOp53
 70
     1
102
RTVSPropertyOp54
 70
     1
102
RTVSPropertyOp55
 70
     1
102
RTVSPropertyOp56
 70
     1
102
RTVSPropertyOp57
 70
     1
102
RTVSPropertyOp58
 70
     1
102
RTVSPropertyOp59
 70
     1
102
RTVSPropertyOp60
 70
     1
102
RTVSPropertyOp61
 70
     1
102
RTVSPropertyOp62
 70
     1
  0
XRECORD
  5
3A3
102
{ACAD_REACTORS
330
3A2
102
}
330
3A2
100
AcDbXrecord
280
     1
102
RTVSPost2010Prop28
280
     0
102
RTVSPost2010PropOp28
 70
     1
102
RTVSPost2010Prop29
280
     1
102
RTVSPost2010PropOp29
 70
     1
102
RTVSPost2010Prop30
280
     1
102
RTVSPost2010PropOp30
 70
     1
102
RTVSPost2010Prop31
280
     0
102
RTVSPost2010PropOp31
 70
     1
102
RTVSPost2010Prop32
280
     0
102
RTVSPost2010PropOp32
 70
     1
102
RTVSPost2010Prop33
280
     0
102
RTVSPost2010PropOp33
 70
     1
102
RTVSPost2010Prop34
280
     0
102
RTVSPost2010PropOp34
 70
     1
102
RTVSPost2010Prop35
280
     0
102
RTVSPost2010PropOp35
 70
     1
102
RTVSPost2010Prop36
280
     0
102
RTVSPost2010PropOp36
 70
     1
102
RTVSPost2010Prop37
 90
       50
102
RTVSPost2010PropOp37
 70
     1
102
RTVSPost2010Prop38
140
0.0
102
RTVSPost2010PropOp38
 70
     1
102
RTVSPost2010Prop39
140
1.0
102
RTVSPost2010PropOp39
 70
     1
102
RTVSPost2010Prop40
 90
        0
102
RTVSPost2010PropOp40
 70
     1
102
RTVSPost2010Prop41ColorIndex
 90
       18
102
RTVSPost2010Prop41ColorRGB
 90
        0
102
RTVSPost2010PropOp41
 70
     1
102
RTVSPost2010Prop42
 90
       50
102
RTVSPost2010PropOp42
 70
     1
102
RTVSPost2010Prop43
 90
        3
102
RTVSPost2010PropOp43
 70
     1
102
RTVSPost2010Prop44ColorIndex
 90
        5
102
RTVSPost2010Prop44ColorRGB
 90
      255
102
RTVSPost2010PropOp44
 70
     1
102
RTVSPost2010Prop45
280
     0
102
RTVSPost2010PropOp45
 70
     1
102
RTVSPost2010Prop46
 90
       50
102
RTVSPost2010PropOp46
 70
     1
102
RTVSPost2010Prop47
 90
       50
102
RTVSPost2010PropOp47
 70
     1
102
RTVSPost2010Prop48
 90
       50
102
RTVSPost2010PropOp48
 70
     1
102
RTVSPost2010Prop49
280
     0
102
RTVSPost2010PropOp49
 70
     1
102
RTVSPost2010Prop50
 90
       50
102
RTVSPost2010PropOp50
 70
     1
102
RTVSPost2010Prop51ColorIndex
 90
      256
102
RTVSPost2010Prop51ColorRGB
 90
-16777216
102
RTVSPost2010PropOp51
 70
     0
102
RTVSPost2010Prop52
140
1.0
102
RTVSPost2010PropOp52
 70
     0
102
RTVSPost2010Prop53
 90
        2
102
RTVSPost2010PropOp53
 70
     1
102
RTVSPost2010Prop54
  1
strokes_ogs.tif
102
RTVSPost2010PropOp54
 70
     1
102
RTVSPost2010Prop55
280
     0
102
RTVSPost2010PropOp55
 70
     1
102
RTVSPost2010Prop56
140
1.0
102
RTVSPost2010PropOp56
 70
     1
102
RTVSPost2010Prop57
140
1.0
102
RTVSPost2010PropOp57
 70
     1
102
RTVSPropertyOp0
 70
     1
102
RTVSPropertyOp1
 70
     1
102
RTVSPropertyOp2
 70
     1
102
RTVSPropertyOp3
 70
     1
102
RTVSPropertyOp4
 70
     1
102
RTVSPropertyOp5
 70
     1
102
RTVSPropertyOp6
 70
     1
102
RTVSPropertyOp7
 70
     1
102
RTVSPropertyOp8
 70
     1
102
RTVSPropertyOp9
 70
     1
102
RTVSPropertyOp10
 70
     1
102
RTVSPropertyOp11
 70
     1
102
RTVSPropertyOp12
 70
     1
102
RTVSPropertyOp13
 70
     1
102
RTVSPropertyOp14
 70
     1
102
RTVSPropertyOp15
 70
     1
102
RTVSPropertyOp16
 70
     1
102
RTVSPropertyOp17
 70
     1
102
RTVSPropertyOp18
 70
     1
102
RTVSPropertyOp19
 70
     1
102
RTVSPropertyOp20
 70
     1
102
RTVSPropertyOp21
 70
     1
102
RTVSPropertyOp22
 70
     1
102
RTVSPropertyOp23
 70
     1
102
RTVSPropertyOp24
 70
     1
102
RTVSPropertyOp25
 70
     1
102
RTVSPropertyOp26
 70
     1
102
RTVSPropertyOp27
 70
     1
102
RTVSPropertyOp28
 70
     1
102
RTVSPropertyOp29
 70
     1
102
RTVSPropertyOp30
 70
     1
102
RTVSPropertyOp31
 70
     1
102
RTVSPropertyOp32
 70
     1
102
RTVSPropertyOp33
 70
     1
102
RTVSPropertyOp34
 70
     1
102
RTVSPropertyOp35
 70
     1
102
RTVSPropertyOp36
 70
     1
102
RTVSPropertyOp37
 70
     1
102
RTVSPropertyOp38
 70
     1
102
RTVSPropertyOp39
 70
     1
102
RTVSPropertyOp40
 70
     1
102
RTVSPropertyOp41
 70
     1
102
RTVSPropertyOp42
 70
     1
102
RTVSPropertyOp43
 70
     1
102
RTVSPropertyOp44
 70
     1
102
RTVSPropertyOp45
 70
     1
102
RTVSPropertyOp46
 70
     1
102
RTVSPropertyOp47
 70
     1
102
RTVSPropertyOp48
 70
     1
102
RTVSPropertyOp49
 70
     1
102
RTVSPropertyOp50
 70
     1
102
RTVSPropertyOp51
 70
     0
102
RTVSPropertyOp52
 70
     0
102
RTVSPropertyOp53
 70
     1
102
RTVSPropertyOp54
 70
     1
102
RTVSPropertyOp55
 70
     1
102
RTVSPropertyOp56
 70
     1
102
RTVSPropertyOp57
 70
     1
102
RTVSPropertyOp58
 70
     1
102
RTVSPropertyOp59
 70
     1
102
RTVSPropertyOp60
 70
     1
102
RTVSPropertyOp61
 70
     1
102
RTVSPropertyOp62
 70
     1
  0
XRECORD
  5
3AB
102
{ACAD_REACTORS
330
3AA
102
}
330
3AA
100
AcDbXrecord
280
     1
102
RTVSPost2010Prop28
280
     0
102
RTVSPost2010PropOp28
 70
     1
102
RTVSPost2010Prop29
280
     1
102
RTVSPost2010PropOp29
 70
     1
102
RTVSPost2010Prop30
280
     1
102
RTVSPost2010PropOp30
 70
     1
102
RTVSPost2010Prop31
280
     0
102
RTVSPost2010PropOp31
 70
     1
102
RTVSPost2010Prop32
280
     0
102
RTVSPost2010PropOp32
 70
     1
102
RTVSPost2010Prop33
280
     0
102
RTVSPost2010PropOp33
 70
     1
102
RTVSPost2010Prop34
280
     0
102
RTVSPost2010PropOp34
 70
     1
102
RTVSPost2010Prop35
280
     0
102
RTVSPost2010PropOp35
 70
     1
102
RTVSPost2010Prop36
280
     0
102
RTVSPost2010PropOp36
 70
     1
102
RTVSPost2010Prop37
 90
       50
102
RTVSPost2010PropOp37
 70
     1
102
RTVSPost2010Prop38
140
0.0
102
RTVSPost2010PropOp38
 70
     1
102
RTVSPost2010Prop39
140
1.0
102
RTVSPost2010PropOp39
 70
     1
102
RTVSPost2010Prop40
 90
        0
102
RTVSPost2010PropOp40
 70
     1
102
RTVSPost2010Prop41ColorIndex
 90
       18
102
RTVSPost2010Prop41ColorRGB
 90
        0
102
RTVSPost2010PropOp41
 70
     1
102
RTVSPost2010Prop42
 90
       50
102
RTVSPost2010PropOp42
 70
     1
102
RTVSPost2010Prop43
 90
        3
102
RTVSPost2010PropOp43
 70
     1
102
RTVSPost2010Prop44ColorIndex
 90
        5
102
RTVSPost2010Prop44ColorRGB
 90
      255
102
RTVSPost2010PropOp44
 70
     1
102
RTVSPost2010Prop45
280
     0
102
RTVSPost2010PropOp45
 70
     1
102
RTVSPost2010Prop46
 90
       50
102
RTVSPost2010PropOp46
 70
     1
102
RTVSPost2010Prop47
 90
       50
102
RTVSPost2010PropOp47
 70
     1
102
RTVSPost2010Prop48
 90
       50
102
RTVSPost2010PropOp48
 70
     1
102
RTVSPost2010Prop49
280
     0
102
RTVSPost2010PropOp49
 70
     1
102
RTVSPost2010Prop50
 90
       50
102
RTVSPost2010PropOp50
 70
     1
102
RTVSPost2010Prop51ColorIndex
 90
      256
102
RTVSPost2010Prop51ColorRGB
 90
-16777216
102
RTVSPost2010PropOp51
 70
     0
102
RTVSPost2010Prop52
140
1.0
102
RTVSPost2010PropOp52
 70
     0
102
RTVSPost2010Prop53
 90
        2
102
RTVSPost2010PropOp53
 70
     1
102
RTVSPost2010Prop54
  1
strokes_ogs.tif
102
RTVSPost2010PropOp54
 70
     1
102
RTVSPost2010Prop55
280
     0
102
RTVSPost2010PropOp55
 70
     1
102
RTVSPost2010Prop56
140
1.0
102
RTVSPost2010PropOp56
 70
     1
102
RTVSPost2010Prop57
140
1.0
102
RTVSPost2010PropOp57
 70
     1
102
RTVSPropertyOp0
 70
     1
102
RTVSPropertyOp1
 70
     1
102
RTVSPropertyOp2
 70
     1
102
RTVSPropertyOp3
 70
     1
102
RTVSPropertyOp4
 70
     1
102
RTVSPropertyOp5
 70
     1
102
RTVSPropertyOp6
 70
     1
102
RTVSPropertyOp7
 70
     1
102
RTVSPropertyOp8
 70
     1
102
RTVSPropertyOp9
 70
     1
102
RTVSPropertyOp10
 70
     1
102
RTVSPropertyOp11
 70
     1
102
RTVSPropertyOp12
 70
     1
102
RTVSPropertyOp13
 70
     1
102
RTVSPropertyOp14
 70
     1
102
RTVSPropertyOp15
 70
     1
102
RTVSPropertyOp16
 70
     1
102
RTVSPropertyOp17
 70
     1
102
RTVSPropertyOp18
 70
     1
102
RTVSPropertyOp19
 70
     1
102
RTVSPropertyOp20
 70
     1
102
RTVSPropertyOp21
 70
     1
102
RTVSPropertyOp22
 70
     1
102
RTVSPropertyOp23
 70
     1
102
RTVSPropertyOp24
 70
     1
102
RTVSPropertyOp25
 70
     1
102
RTVSPropertyOp26
 70
     1
102
RTVSPropertyOp27
 70
     1
102
RTVSPropertyOp28
 70
     1
102
RTVSPropertyOp29
 70
     1
102
RTVSPropertyOp30
 70
     1
102
RTVSPropertyOp31
 70
     1
102
RTVSPropertyOp32
 70
     1
102
RTVSPropertyOp33
 70
     1
102
RTVSPropertyOp34
 70
     1
102
RTVSPropertyOp35
 70
     1
102
RTVSPropertyOp36
 70
     1
102
RTVSPropertyOp37
 70
     1
102
RTVSPropertyOp38
 70
     1
102
RTVSPropertyOp39
 70
     1
102
RTVSPropertyOp40
 70
     1
102
RTVSPropertyOp41
 70
     1
102
RTVSPropertyOp42
 70
     1
102
RTVSPropertyOp43
 70
     1
102
RTVSPropertyOp44
 70
     1
102
RTVSPropertyOp45
 70
     1
102
RTVSPropertyOp46
 70
     1
102
RTVSPropertyOp47
 70
     1
102
RTVSPropertyOp48
 70
     1
102
RTVSPropertyOp49
 70
     1
102
RTVSPropertyOp50
 70
     1
102
RTVSPropertyOp51
 70
     0
102
RTVSPropertyOp52
 70
     0
102
RTVSPropertyOp53
 70
     1
102
RTVSPropertyOp54
 70
     1
102
RTVSPropertyOp55
 70
     1
102
RTVSPropertyOp56
 70
     1
102
RTVSPropertyOp57
 70
     1
102
RTVSPropertyOp58
 70
     1
102
RTVSPropertyOp59
 70
     1
102
RTVSPropertyOp60
 70
     1
102
RTVSPropertyOp61
 70
     1
102
RTVSPropertyOp62
 70
     1
  0
XRECORD
  5
3B3
102
{ACAD_REACTORS
330
3B2
102
}
330
3B2
100
AcDbXrecord
280
     1
102
RTVSPost2010Prop28
280
     0
102
RTVSPost2010PropOp28
 70
     1
102
RTVSPost2010Prop29
280
     1
102
RTVSPost2010PropOp29
 70
     1
102
RTVSPost2010Prop30
280
     1
102
RTVSPost2010PropOp30
 70
     1
102
RTVSPost2010Prop31
280
     0
102
RTVSPost2010PropOp31
 70
     1
102
RTVSPost2010Prop32
280
     0
102
RTVSPost2010PropOp32
 70
     1
102
RTVSPost2010Prop33
280
     0
102
RTVSPost2010PropOp33
 70
     1
102
RTVSPost2010Prop34
280
     0
102
RTVSPost2010PropOp34
 70
     1
102
RTVSPost2010Prop35
280
     0
102
RTVSPost2010PropOp35
 70
     1
102
RTVSPost2010Prop36
280
     0
102
RTVSPost2010PropOp36
 70
     1
102
RTVSPost2010Prop37
 90
       50
102
RTVSPost2010PropOp37
 70
     1
102
RTVSPost2010Prop38
140
0.0
102
RTVSPost2010PropOp38
 70
     1
102
RTVSPost2010Prop39
140
1.0
102
RTVSPost2010PropOp39
 70
     1
102
RTVSPost2010Prop40
 90
        0
102
RTVSPost2010PropOp40
 70
     1
102
RTVSPost2010Prop41ColorIndex
 90
       18
102
RTVSPost2010Prop41ColorRGB
 90
        0
102
RTVSPost2010PropOp41
 70
     1
102
RTVSPost2010Prop42
 90
       50
102
RTVSPost2010PropOp42
 70
     1
102
RTVSPost2010Prop43
 90
        3
102
RTVSPost2010PropOp43
 70
     1
102
RTVSPost2010Prop44ColorIndex
 90
        5
102
RTVSPost2010Prop44ColorRGB
 90
      255
102
RTVSPost2010PropOp44
 70
     1
102
RTVSPost2010Prop45
280
     0
102
RTVSPost2010PropOp45
 70
     1
102
RTVSPost2010Prop46
 90
       50
102
RTVSPost2010PropOp46
 70
     1
102
RTVSPost2010Prop47
 90
       50
102
RTVSPost2010PropOp47
 70
     1
102
RTVSPost2010Prop48
 90
       50
102
RTVSPost2010PropOp48
 70
     1
102
RTVSPost2010Prop49
280
     0
102
RTVSPost2010PropOp49
 70
     1
102
RTVSPost2010Prop50
 90
       50
102
RTVSPost2010PropOp50
 70
     1
102
RTVSPost2010Prop51ColorIndex
 90
      256
102
RTVSPost2010Prop51ColorRGB
 90
-16777216
102
RTVSPost2010PropOp51
 70
     0
102
RTVSPost2010Prop52
140
1.0
102
RTVSPost2010PropOp52
 70
     0
102
RTVSPost2010Prop53
 90
        2
102
RTVSPost2010PropOp53
 70
     1
102
RTVSPost2010Prop54
  1
strokes_ogs.tif
102
RTVSPost2010PropOp54
 70
     1
102
RTVSPost2010Prop55
280
     0
102
RTVSPost2010PropOp55
 70
     1
102
RTVSPost2010Prop56
140
1.0
102
RTVSPost2010PropOp56
 70
     1
102
RTVSPost2010Prop57
140
1.0
102
RTVSPost2010PropOp57
 70
     1
102
RTVSPropertyOp0
 70
     1
102
RTVSPropertyOp1
 70
     1
102
RTVSPropertyOp2
 70
     1
102
RTVSPropertyOp3
 70
     1
102
RTVSPropertyOp4
 70
     1
102
RTVSPropertyOp5
 70
     1
102
RTVSPropertyOp6
 70
     1
102
RTVSPropertyOp7
 70
     1
102
RTVSPropertyOp8
 70
     1
102
RTVSPropertyOp9
 70
     1
102
RTVSPropertyOp10
 70
     1
102
RTVSPropertyOp11
 70
     1
102
RTVSPropertyOp12
 70
     1
102
RTVSPropertyOp13
 70
     1
102
RTVSPropertyOp14
 70
     1
102
RTVSPropertyOp15
 70
     1
102
RTVSPropertyOp16
 70
     1
102
RTVSPropertyOp17
 70
     1
102
RTVSPropertyOp18
 70
     1
102
RTVSPropertyOp19
 70
     1
102
RTVSPropertyOp20
 70
     1
102
RTVSPropertyOp21
 70
     1
102
RTVSPropertyOp22
 70
     1
102
RTVSPropertyOp23
 70
     1
102
RTVSPropertyOp24
 70
     1
102
RTVSPropertyOp25
 70
     1
102
RTVSPropertyOp26
 70
     1
102
RTVSPropertyOp27
 70
     1
102
RTVSPropertyOp28
 70
     1
102
RTVSPropertyOp29
 70
     1
102
RTVSPropertyOp30
 70
     1
102
RTVSPropertyOp31
 70
     1
102
RTVSPropertyOp32
 70
     1
102
RTVSPropertyOp33
 70
     1
102
RTVSPropertyOp34
 70
     1
102
RTVSPropertyOp35
 70
     1
102
RTVSPropertyOp36
 70
     1
102
RTVSPropertyOp37
 70
     1
102
RTVSPropertyOp38
 70
     1
102
RTVSPropertyOp39
 70
     1
102
RTVSPropertyOp40
 70
     1
102
RTVSPropertyOp41
 70
     1
102
RTVSPropertyOp42
 70
     1
102
RTVSPropertyOp43
 70
     1
102
RTVSPropertyOp44
 70
     1
102
RTVSPropertyOp45
 70
     1
102
RTVSPropertyOp46
 70
     1
102
RTVSPropertyOp47
 70
     1
102
RTVSPropertyOp48
 70
     1
102
RTVSPropertyOp49
 70
     1
102
RTVSPropertyOp50
 70
     1
102
RTVSPropertyOp51
 70
     0
102
RTVSPropertyOp52
 70
     0
102
RTVSPropertyOp53
 70
     1
102
RTVSPropertyOp54
 70
     1
102
RTVSPropertyOp55
 70
     1
102
RTVSPropertyOp56
 70
     1
102
RTVSPropertyOp57
 70
     1
102
RTVSPropertyOp58
 70
     1
102
RTVSPropertyOp59
 70
     1
102
RTVSPropertyOp60
 70
     1
102
RTVSPropertyOp61
 70
     1
102
RTVSPropertyOp62
 70
     1
  0
XRECORD
  5
3A7
102
{ACAD_REACTORS
330
3A6
102
}
330
3A6
100
AcDbXrecord
280
     1
102
RTVSPost2010Prop28
280
     0
102
RTVSPost2010PropOp28
 70
     1
102
RTVSPost2010Prop29
280
     1
102
RTVSPost2010PropOp29
 70
     1
102
RTVSPost2010Prop30
280
     1
102
RTVSPost2010PropOp30
 70
     1
102
RTVSPost2010Prop31
280
     0
102
RTVSPost2010PropOp31
 70
     1
102
RTVSPost2010Prop32
280
     0
102
RTVSPost2010PropOp32
 70
     1
102
RTVSPost2010Prop33
280
     0
102
RTVSPost2010PropOp33
 70
     1
102
RTVSPost2010Prop34
280
     0
102
RTVSPost2010PropOp34
 70
     1
102
RTVSPost2010Prop35
280
     0
102
RTVSPost2010PropOp35
 70
     1
102
RTVSPost2010Prop36
280
     0
102
RTVSPost2010PropOp36
 70
     1
102
RTVSPost2010Prop37
 90
       50
102
RTVSPost2010PropOp37
 70
     1
102
RTVSPost2010Prop38
140
0.0
102
RTVSPost2010PropOp38
 70
     1
102
RTVSPost2010Prop39
140
1.0
102
RTVSPost2010PropOp39
 70
     1
102
RTVSPost2010Prop40
 90
        0
102
RTVSPost2010PropOp40
 70
     1
102
RTVSPost2010Prop41ColorIndex
 90
       18
102
RTVSPost2010Prop41ColorRGB
 90
        0
102
RTVSPost2010PropOp41
 70
     1
102
RTVSPost2010Prop42
 90
       50
102
RTVSPost2010PropOp42
 70
     1
102
RTVSPost2010Prop43
 90
        3
102
RTVSPost2010PropOp43
 70
     1
102
RTVSPost2010Prop44ColorIndex
 90
        5
102
RTVSPost2010Prop44ColorRGB
 90
      255
102
RTVSPost2010PropOp44
 70
     1
102
RTVSPost2010Prop45
280
     0
102
RTVSPost2010PropOp45
 70
     1
102
RTVSPost2010Prop46
 90
       50
102
RTVSPost2010PropOp46
 70
     1
102
RTVSPost2010Prop47
 90
       50
102
RTVSPost2010PropOp47
 70
     1
102
RTVSPost2010Prop48
 90
       50
102
RTVSPost2010PropOp48
 70
     1
102
RTVSPost2010Prop49
280
     0
102
RTVSPost2010PropOp49
 70
     1
102
RTVSPost2010Prop50
 90
       50
102
RTVSPost2010PropOp50
 70
     1
102
RTVSPost2010Prop51ColorIndex
 90
      256
102
RTVSPost2010Prop51ColorRGB
 90
-16777216
102
RTVSPost2010PropOp51
 70
     0
102
RTVSPost2010Prop52
140
1.0
102
RTVSPost2010PropOp52
 70
     0
102
RTVSPost2010Prop53
 90
        2
102
RTVSPost2010PropOp53
 70
     1
102
RTVSPost2010Prop54
  1
strokes_ogs.tif
102
RTVSPost2010PropOp54
 70
     1
102
RTVSPost2010Prop55
280
     0
102
RTVSPost2010PropOp55
 70
     1
102
RTVSPost2010Prop56
140
1.0
102
RTVSPost2010PropOp56
 70
     1
102
RTVSPost2010Prop57
140
1.0
102
RTVSPost2010PropOp57
 70
     1
102
RTVSPropertyOp0
 70
     1
102
RTVSPropertyOp1
 70
     1
102
RTVSPropertyOp2
 70
     1
102
RTVSPropertyOp3
 70
     1
102
RTVSPropertyOp4
 70
     1
102
RTVSPropertyOp5
 70
     1
102
RTVSPropertyOp6
 70
     1
102
RTVSPropertyOp7
 70
     1
102
RTVSPropertyOp8
 70
     1
102
RTVSPropertyOp9
 70
     1
102
RTVSPropertyOp10
 70
     1
102
RTVSPropertyOp11
 70
     1
102
RTVSPropertyOp12
 70
     1
102
RTVSPropertyOp13
 70
     1
102
RTVSPropertyOp14
 70
     1
102
RTVSPropertyOp15
 70
     1
102
RTVSPropertyOp16
 70
     1
102
RTVSPropertyOp17
 70
     1
102
RTVSPropertyOp18
 70
     1
102
RTVSPropertyOp19
 70
     1
102
RTVSPropertyOp20
 70
     1
102
RTVSPropertyOp21
 70
     1
102
RTVSPropertyOp22
 70
     1
102
RTVSPropertyOp23
 70
     1
102
RTVSPropertyOp24
 70
     1
102
RTVSPropertyOp25
 70
     1
102
RTVSPropertyOp26
 70
     1
102
RTVSPropertyOp27
 70
     1
102
RTVSPropertyOp28
 70
     1
102
RTVSPropertyOp29
 70
     1
102
RTVSPropertyOp30
 70
     1
102
RTVSPropertyOp31
 70
     1
102
RTVSPropertyOp32
 70
     1
102
RTVSPropertyOp33
 70
     1
102
RTVSPropertyOp34
 70
     1
102
RTVSPropertyOp35
 70
     1
102
RTVSPropertyOp36
 70
     1
102
RTVSPropertyOp37
 70
     1
102
RTVSPropertyOp38
 70
     1
102
RTVSPropertyOp39
 70
     1
102
RTVSPropertyOp40
 70
     1
102
RTVSPropertyOp41
 70
     1
102
RTVSPropertyOp42
 70
     1
102
RTVSPropertyOp43
 70
     1
102
RTVSPropertyOp44
 70
     1
102
RTVSPropertyOp45
 70
     1
102
RTVSPropertyOp46
 70
     1
102
RTVSPropertyOp47
 70
     1
102
RTVSPropertyOp48
 70
     1
102
RTVSPropertyOp49
 70
     1
102
RTVSPropertyOp50
 70
     1
102
RTVSPropertyOp51
 70
     0
102
RTVSPropertyOp52
 70
     0
102
RTVSPropertyOp53
 70
     1
102
RTVSPropertyOp54
 70
     1
102
RTVSPropertyOp55
 70
     1
102
RTVSPropertyOp56
 70
     1
102
RTVSPropertyOp57
 70
     1
102
RTVSPropertyOp58
 70
     1
102
RTVSPropertyOp59
 70
     1
102
RTVSPropertyOp60
 70
     1
102
RTVSPropertyOp61
 70
     1
102
RTVSPropertyOp62
 70
     1
  0
XRECORD
  5
3A9
102
{ACAD_REACTORS
330
3A8
102
}
330
3A8
100
AcDbXrecord
280
     1
102
RTVSPost2010Prop28
280
     0
102
RTVSPost2010PropOp28
 70
     1
102
RTVSPost2010Prop29
280
     1
102
RTVSPost2010PropOp29
 70
     1
102
RTVSPost2010Prop30
280
     1
102
RTVSPost2010PropOp30
 70
     1
102
RTVSPost2010Prop31
280
     0
102
RTVSPost2010PropOp31
 70
     1
102
RTVSPost2010Prop32
280
     0
102
RTVSPost2010PropOp32
 70
     1
102
RTVSPost2010Prop33
280
     0
102
RTVSPost2010PropOp33
 70
     1
102
RTVSPost2010Prop34
280
     0
102
RTVSPost2010PropOp34
 70
     1
102
RTVSPost2010Prop35
280
     0
102
RTVSPost2010PropOp35
 70
     1
102
RTVSPost2010Prop36
280
     0
102
RTVSPost2010PropOp36
 70
     1
102
RTVSPost2010Prop37
 90
       50
102
RTVSPost2010PropOp37
 70
     1
102
RTVSPost2010Prop38
140
0.0
102
RTVSPost2010PropOp38
 70
     1
102
RTVSPost2010Prop39
140
1.0
102
RTVSPost2010PropOp39
 70
     1
102
RTVSPost2010Prop40
 90
        0
102
RTVSPost2010PropOp40
 70
     1
102
RTVSPost2010Prop41ColorIndex
 90
       18
102
RTVSPost2010Prop41ColorRGB
 90
        0
102
RTVSPost2010PropOp41
 70
     1
102
RTVSPost2010Prop42
 90
       50
102
RTVSPost2010PropOp42
 70
     1
102
RTVSPost2010Prop43
 90
        3
102
RTVSPost2010PropOp43
 70
     1
102
RTVSPost2010Prop44ColorIndex
 90
        5
102
RTVSPost2010Prop44ColorRGB
 90
      255
102
RTVSPost2010PropOp44
 70
     1
102
RTVSPost2010Prop45
280
     0
102
RTVSPost2010PropOp45
 70
     1
102
RTVSPost2010Prop46
 90
       50
102
RTVSPost2010PropOp46
 70
     1
102
RTVSPost2010Prop47
 90
       50
102
RTVSPost2010PropOp47
 70
     1
102
RTVSPost2010Prop48
 90
       50
102
RTVSPost2010PropOp48
 70
     1
102
RTVSPost2010Prop49
280
     0
102
RTVSPost2010PropOp49
 70
     1
102
RTVSPost2010Prop50
 90
       50
102
RTVSPost2010PropOp50
 70
     1
102
RTVSPost2010Prop51ColorIndex
 90
      256
102
RTVSPost2010Prop51ColorRGB
 90
-16777216
102
RTVSPost2010PropOp51
 70
     0
102
RTVSPost2010Prop52
140
1.0
102
RTVSPost2010PropOp52
 70
     0
102
RTVSPost2010Prop53
 90
        2
102
RTVSPost2010PropOp53
 70
     1
102
RTVSPost2010Prop54
  1
strokes_ogs.tif
102
RTVSPost2010PropOp54
 70
     1
102
RTVSPost2010Prop55
280
     0
102
RTVSPost2010PropOp55
 70
     1
102
RTVSPost2010Prop56
140
1.0
102
RTVSPost2010PropOp56
 70
     1
102
RTVSPost2010Prop57
140
1.0
102
RTVSPost2010PropOp57
 70
     1
102
RTVSPropertyOp0
 70
     1
102
RTVSPropertyOp1
 70
     1
102
RTVSPropertyOp2
 70
     1
102
RTVSPropertyOp3
 70
     1
102
RTVSPropertyOp4
 70
     1
102
RTVSPropertyOp5
 70
     1
102
RTVSPropertyOp6
 70
     1
102
RTVSPropertyOp7
 70
     1
102
RTVSPropertyOp8
 70
     1
102
RTVSPropertyOp9
 70
     1
102
RTVSPropertyOp10
 70
     1
102
RTVSPropertyOp11
 70
     1
102
RTVSPropertyOp12
 70
     1
102
RTVSPropertyOp13
 70
     1
102
RTVSPropertyOp14
 70
     1
102
RTVSPropertyOp15
 70
     1
102
RTVSPropertyOp16
 70
     1
102
RTVSPropertyOp17
 70
     1
102
RTVSPropertyOp18
 70
     1
102
RTVSPropertyOp19
 70
     1
102
RTVSPropertyOp20
 70
     1
102
RTVSPropertyOp21
 70
     1
102
RTVSPropertyOp22
 70
     1
102
RTVSPropertyOp23
 70
     1
102
RTVSPropertyOp24
 70
     1
102
RTVSPropertyOp25
 70
     1
102
RTVSPropertyOp26
 70
     1
102
RTVSPropertyOp27
 70
     1
102
RTVSPropertyOp28
 70
     1
102
RTVSPropertyOp29
 70
     1
102
RTVSPropertyOp30
 70
     1
102
RTVSPropertyOp31
 70
     1
102
RTVSPropertyOp32
 70
     1
102
RTVSPropertyOp33
 70
     1
102
RTVSPropertyOp34
 70
     1
102
RTVSPropertyOp35
 70
     1
102
RTVSPropertyOp36
 70
     1
102
RTVSPropertyOp37
 70
     1
102
RTVSPropertyOp38
 70
     1
102
RTVSPropertyOp39
 70
     1
102
RTVSPropertyOp40
 70
     1
102
RTVSPropertyOp41
 70
     1
102
RTVSPropertyOp42
 70
     1
102
RTVSPropertyOp43
 70
     1
102
RTVSPropertyOp44
 70
     1
102
RTVSPropertyOp45
 70
     1
102
RTVSPropertyOp46
 70
     1
102
RTVSPropertyOp47
 70
     1
102
RTVSPropertyOp48
 70
     1
102
RTVSPropertyOp49
 70
     1
102
RTVSPropertyOp50
 70
     1
102
RTVSPropertyOp51
 70
     0
102
RTVSPropertyOp52
 70
     0
102
RTVSPropertyOp53
 70
     1
102
RTVSPropertyOp54
 70
     1
102
RTVSPropertyOp55
 70
     1
102
RTVSPropertyOp56
 70
     1
102
RTVSPropertyOp57
 70
     1
102
RTVSPropertyOp58
 70
     1
102
RTVSPropertyOp59
 70
     1
102
RTVSPropertyOp60
 70
     1
102
RTVSPropertyOp61
 70
     1
102
RTVSPropertyOp62
 70
     1
  0
XRECORD
  5
3B9
102
{ACAD_REACTORS
330
3B8
102
}
330
3B8
100
AcDbXrecord
280
     1
102
RTVSPost2010Prop28
280
     0
102
RTVSPost2010PropOp28
 70
     0
102
RTVSPost2010Prop29
280
     1
102
RTVSPost2010PropOp29
 70
     0
102
RTVSPost2010Prop30
280
     1
102
RTVSPost2010PropOp30
 70
     0
102
RTVSPost2010Prop31
280
     0
102
RTVSPost2010PropOp31
 70
     0
102
RTVSPost2010Prop32
280
     0
102
RTVSPost2010PropOp32
 70
     0
102
RTVSPost2010Prop33
280
     0
102
RTVSPost2010PropOp33
 70
     0
102
RTVSPost2010Prop34
280
     0
102
RTVSPost2010PropOp34
 70
     0
102
RTVSPost2010Prop35
280
     0
102
RTVSPost2010PropOp35
 70
     0
102
RTVSPost2010Prop36
280
     0
102
RTVSPost2010PropOp36
 70
     0
102
RTVSPost2010Prop37
 90
       50
102
RTVSPost2010PropOp37
 70
     0
102
RTVSPost2010Prop38
140
0.0
102
RTVSPost2010PropOp38
 70
     0
102
RTVSPost2010Prop39
140
1.0
102
RTVSPost2010PropOp39
 70
     0
102
RTVSPost2010Prop40
 90
        0
102
RTVSPost2010PropOp40
 70
     0
102
RTVSPost2010Prop41ColorIndex
 90
       18
102
RTVSPost2010Prop41ColorRGB
 90
        0
102
RTVSPost2010PropOp41
 70
     0
102
RTVSPost2010Prop42
 90
       50
102
RTVSPost2010PropOp42
 70
     0
102
RTVSPost2010Prop43
 90
        3
102
RTVSPost2010PropOp43
 70
     0
102
RTVSPost2010Prop44ColorIndex
 90
        5
102
RTVSPost2010Prop44ColorRGB
 90
      255
102
RTVSPost2010PropOp44
 70
     0
102
RTVSPost2010Prop45
280
     0
102
RTVSPost2010PropOp45
 70
     0
102
RTVSPost2010Prop46
 90
       50
102
RTVSPost2010PropOp46
 70
     0
102
RTVSPost2010Prop47
 90
       50
102
RTVSPost2010PropOp47
 70
     0
102
RTVSPost2010Prop48
 90
       50
102
RTVSPost2010PropOp48
 70
     0
102
RTVSPost2010Prop49
280
     0
102
RTVSPost2010PropOp49
 70
     0
102
RTVSPost2010Prop50
 90
       50
102
RTVSPost2010PropOp50
 70
     0
102
RTVSPost2010Prop51ColorIndex
 90
      256
102
RTVSPost2010Prop51ColorRGB
 90
-16777216
102
RTVSPost2010PropOp51
 70
     0
102
RTVSPost2010Prop52
140
1.0
102
RTVSPost2010PropOp52
 70
     0
102
RTVSPost2010Prop53
 90
        2
102
RTVSPost2010PropOp53
 70
     0
102
RTVSPost2010Prop54
  1
strokes_ogs.tif
102
RTVSPost2010PropOp54
 70
     0
102
RTVSPost2010Prop55
280
     0
102
RTVSPost2010PropOp55
 70
     0
102
RTVSPost2010Prop56
140
1.0
102
RTVSPost2010PropOp56
 70
     0
102
RTVSPost2010Prop57
140
1.0
102
RTVSPost2010PropOp57
 70
     0
102
RTVSPropertyOp0
 70
     0
102
RTVSPropertyOp1
 70
     0
102
RTVSPropertyOp2
 70
     0
102
RTVSPropertyOp3
 70
     0
102
RTVSPropertyOp4
 70
     0
102
RTVSPropertyOp5
 70
     0
102
RTVSPropertyOp6
 70
     0
102
RTVSPropertyOp7
 70
     0
102
RTVSPropertyOp8
 70
     0
102
RTVSPropertyOp9
 70
     0
102
RTVSPropertyOp10
 70
     0
102
RTVSPropertyOp11
 70
     0
102
RTVSPropertyOp12
 70
     0
102
RTVSPropertyOp13
 70
     0
102
RTVSPropertyOp14
 70
     2
102
RTVSPropertyOp15
 70
     0
102
RTVSPropertyOp16
 70
     0
102
RTVSPropertyOp17
 70
     0
102
RTVSPropertyOp18
 70
     0
102
RTVSPropertyOp19
 70
     0
102
RTVSPropertyOp20
 70
     0
102
RTVSPropertyOp21
 70
     0
102
RTVSPropertyOp22
 70
     0
102
RTVSPropertyOp23
 70
     0
102
RTVSPropertyOp24
 70
     0
102
RTVSPropertyOp25
 70
     0
102
RTVSPropertyOp26
 70
     0
102
RTVSPropertyOp27
 70
     0
102
RTVSPropertyOp28
 70
     0
102
RTVSPropertyOp29
 70
     0
102
RTVSPropertyOp30
 70
     0
102
RTVSPropertyOp31
 70
     0
102
RTVSPropertyOp32
 70
     0
102
RTVSPropertyOp33
 70
     0
102
RTVSPropertyOp34
 70
     0
102
RTVSPropertyOp35
 70
     0
102
RTVSPropertyOp36
 70
     0
102
RTVSPropertyOp37
 70
     0
102
RTVSPropertyOp38
 70
     0
102
RTVSPropertyOp39
 70
     0
102
RTVSPropertyOp40
 70
     0
102
RTVSPropertyOp41
 70
     0
102
RTVSPropertyOp42
 70
     0
102
RTVSPropertyOp43
 70
     0
102
RTVSPropertyOp44
 70
     0
102
RTVSPropertyOp45
 70
     0
102
RTVSPropertyOp46
 70
     0
102
RTVSPropertyOp47
 70
     0
102
RTVSPropertyOp48
 70
     0
102
RTVSPropertyOp49
 70
     0
102
RTVSPropertyOp50
 70
     0
102
RTVSPropertyOp51
 70
     0
102
RTVSPropertyOp52
 70
     0
102
RTVSPropertyOp53
 70
     0
102
RTVSPropertyOp54
 70
     0
102
RTVSPropertyOp55
 70
     0
102
RTVSPropertyOp56
 70
     0
102
RTVSPropertyOp57
 70
     0
102
RTVSPropertyOp58
 70
     1
102
RTVSPropertyOp59
 70
     1
102
RTVSPropertyOp60
 70
     1
102
RTVSPropertyOp61
 70
     1
102
RTVSPropertyOp62
 70
     1
  0
XRECORD
  5
3B1
102
{ACAD_REACTORS
330
3B0
102
}
330
3B0
100
AcDbXrecord
280
     1
102
RTVSPost2010Prop28
280
     0
102
RTVSPost2010PropOp28
 70
     1
102
RTVSPost2010Prop29
280
     1
102
RTVSPost2010PropOp29
 70
     1
102
RTVSPost2010Prop30
280
     1
102
RTVSPost2010PropOp30
 70
     1
102
RTVSPost2010Prop31
280
     0
102
RTVSPost2010PropOp31
 70
     1
102
RTVSPost2010Prop32
280
     0
102
RTVSPost2010PropOp32
 70
     1
102
RTVSPost2010Prop33
280
     0
102
RTVSPost2010PropOp33
 70
     1
102
RTVSPost2010Prop34
280
     0
102
RTVSPost2010PropOp34
 70
     1
102
RTVSPost2010Prop35
280
     0
102
RTVSPost2010PropOp35
 70
     1
102
RTVSPost2010Prop36
280
     0
102
RTVSPost2010PropOp36
 70
     1
102
RTVSPost2010Prop37
 90
       50
102
RTVSPost2010PropOp37
 70
     1
102
RTVSPost2010Prop38
140
0.0
102
RTVSPost2010PropOp38
 70
     1
102
RTVSPost2010Prop39
140
1.0
102
RTVSPost2010PropOp39
 70
     1
102
RTVSPost2010Prop40
 90
        0
102
RTVSPost2010PropOp40
 70
     1
102
RTVSPost2010Prop41ColorIndex
 90
       18
102
RTVSPost2010Prop41ColorRGB
 90
        0
102
RTVSPost2010PropOp41
 70
     1
102
RTVSPost2010Prop42
 90
       50
102
RTVSPost2010PropOp42
 70
     1
102
RTVSPost2010Prop43
 90
        3
102
RTVSPost2010PropOp43
 70
     1
102
RTVSPost2010Prop44ColorIndex
 90
        5
102
RTVSPost2010Prop44ColorRGB
 90
      255
102
RTVSPost2010PropOp44
 70
     1
102
RTVSPost2010Prop45
280
     0
102
RTVSPost2010PropOp45
 70
     1
102
RTVSPost2010Prop46
 90
       50
102
RTVSPost2010PropOp46
 70
     1
102
RTVSPost2010Prop47
 90
       50
102
RTVSPost2010PropOp47
 70
     1
102
RTVSPost2010Prop48
 90
       50
102
RTVSPost2010PropOp48
 70
     1
102
RTVSPost2010Prop49
280
     0
102
RTVSPost2010PropOp49
 70
     1
102
RTVSPost2010Prop50
 90
       50
102
RTVSPost2010PropOp50
 70
     1
102
RTVSPost2010Prop51ColorIndex
 90
      256
102
RTVSPost2010Prop51ColorRGB
 90
-16777216
102
RTVSPost2010PropOp51
 70
     0
102
RTVSPost2010Prop52
140
1.0
102
RTVSPost2010PropOp52
 70
     0
102
RTVSPost2010Prop53
 90
        2
102
RTVSPost2010PropOp53
 70
     1
102
RTVSPost2010Prop54
  1
strokes_ogs.tif
102
RTVSPost2010PropOp54
 70
     1
102
RTVSPost2010Prop55
280
     0
102
RTVSPost2010PropOp55
 70
     1
102
RTVSPost2010Prop56
140
1.0
102
RTVSPost2010PropOp56
 70
     1
102
RTVSPost2010Prop57
140
1.0
102
RTVSPost2010PropOp57
 70
     1
102
RTVSPropertyOp0
 70
     1
102
RTVSPropertyOp1
 70
     1
102
RTVSPropertyOp2
 70
     1
102
RTVSPropertyOp3
 70
     1
102
RTVSPropertyOp4
 70
     1
102
RTVSPropertyOp5
 70
     1
102
RTVSPropertyOp6
 70
     1
102
RTVSPropertyOp7
 70
     1
102
RTVSPropertyOp8
 70
     1
102
RTVSPropertyOp9
 70
     1
102
RTVSPropertyOp10
 70
     1
102
RTVSPropertyOp11
 70
     1
102
RTVSPropertyOp12
 70
     1
102
RTVSPropertyOp13
 70
     1
102
RTVSPropertyOp14
 70
     1
102
RTVSPropertyOp15
 70
     1
102
RTVSPropertyOp16
 70
     1
102
RTVSPropertyOp17
 70
     1
102
RTVSPropertyOp18
 70
     1
102
RTVSPropertyOp19
 70
     1
102
RTVSPropertyOp20
 70
     1
102
RTVSPropertyOp21
 70
     1
102
RTVSPropertyOp22
 70
     1
102
RTVSPropertyOp23
 70
     1
102
RTVSPropertyOp24
 70
     1
102
RTVSPropertyOp25
 70
     1
102
RTVSPropertyOp26
 70
     1
102
RTVSPropertyOp27
 70
     1
102
RTVSPropertyOp28
 70
     1
102
RTVSPropertyOp29
 70
     1
102
RTVSPropertyOp30
 70
     1
102
RTVSPropertyOp31
 70
     1
102
RTVSPropertyOp32
 70
     1
102
RTVSPropertyOp33
 70
     1
102
RTVSPropertyOp34
 70
     1
102
RTVSPropertyOp35
 70
     1
102
RTVSPropertyOp36
 70
     1
102
RTVSPropertyOp37
 70
     1
102
RTVSPropertyOp38
 70
     1
102
RTVSPropertyOp39
 70
     1
102
RTVSPropertyOp40
 70
     1
102
RTVSPropertyOp41
 70
     1
102
RTVSPropertyOp42
 70
     1
102
RTVSPropertyOp43
 70
     1
102
RTVSPropertyOp44
 70
     1
102
RTVSPropertyOp45
 70
     1
102
RTVSPropertyOp46
 70
     1
102
RTVSPropertyOp47
 70
     1
102
RTVSPropertyOp48
 70
     1
102
RTVSPropertyOp49
 70
     1
102
RTVSPropertyOp50
 70
     1
102
RTVSPropertyOp51
 70
     0
102
RTVSPropertyOp52
 70
     0
102
RTVSPropertyOp53
 70
     1
102
RTVSPropertyOp54
 70
     1
102
RTVSPropertyOp55
 70
     1
102
RTVSPropertyOp56
 70
     1
102
RTVSPropertyOp57
 70
     1
102
RTVSPropertyOp58
 70
     1
102
RTVSPropertyOp59
 70
     1
102
RTVSPropertyOp60
 70
     1
102
RTVSPropertyOp61
 70
     1
102
RTVSPropertyOp62
 70
     1
  0
XRECORD
  5
395
102
{ACAD_REACTORS
330
394
102
}
330
394
100
AcDbXrecord
280
     1
102
RTVSPost2010Prop28
280
     0
102
RTVSPost2010PropOp28
 70
     1
102
RTVSPost2010Prop29
280
     1
102
RTVSPost2010PropOp29
 70
     1
102
RTVSPost2010Prop30
280
     1
102
RTVSPost2010PropOp30
 70
     1
102
RTVSPost2010Prop31
280
     0
102
RTVSPost2010PropOp31
 70
     1
102
RTVSPost2010Prop32
280
     0
102
RTVSPost2010PropOp32
 70
     1
102
RTVSPost2010Prop33
280
     0
102
RTVSPost2010PropOp33
 70
     1
102
RTVSPost2010Prop34
280
     0
102
RTVSPost2010PropOp34
 70
     1
102
RTVSPost2010Prop35
280
     0
102
RTVSPost2010PropOp35
 70
     1
102
RTVSPost2010Prop36
280
     0
102
RTVSPost2010PropOp36
 70
     1
102
RTVSPost2010Prop37
 90
       50
102
RTVSPost2010PropOp37
 70
     1
102
RTVSPost2010Prop38
140
0.0
102
RTVSPost2010PropOp38
 70
     1
102
RTVSPost2010Prop39
140
1.0
102
RTVSPost2010PropOp39
 70
     1
102
RTVSPost2010Prop40
 90
        0
102
RTVSPost2010PropOp40
 70
     1
102
RTVSPost2010Prop41ColorIndex
 90
       18
102
RTVSPost2010Prop41ColorRGB
 90
        0
102
RTVSPost2010PropOp41
 70
     1
102
RTVSPost2010Prop42
 90
       50
102
RTVSPost2010PropOp42
 70
     1
102
RTVSPost2010Prop43
 90
        3
102
RTVSPost2010PropOp43
 70
     1
102
RTVSPost2010Prop44ColorIndex
 90
        5
102
RTVSPost2010Prop44ColorRGB
 90
      255
102
RTVSPost2010PropOp44
 70
     1
102
RTVSPost2010Prop45
280
     0
102
RTVSPost2010PropOp45
 70
     1
102
RTVSPost2010Prop46
 90
       50
102
RTVSPost2010PropOp46
 70
     1
102
RTVSPost2010Prop47
 90
       50
102
RTVSPost2010PropOp47
 70
     1
102
RTVSPost2010Prop48
 90
       50
102
RTVSPost2010PropOp48
 70
     1
102
RTVSPost2010Prop49
280
     0
102
RTVSPost2010PropOp49
 70
     1
102
RTVSPost2010Prop50
 90
       50
102
RTVSPost2010PropOp50
 70
     1
102
RTVSPost2010Prop51ColorIndex
 90
      256
102
RTVSPost2010Prop51ColorRGB
 90
-16777216
102
RTVSPost2010PropOp51
 70
     0
102
RTVSPost2010Prop52
140
1.0
102
RTVSPost2010PropOp52
 70
     0
102
RTVSPost2010Prop53
 90
        2
102
RTVSPost2010PropOp53
 70
     1
102
RTVSPost2010Prop54
  1
strokes_ogs.tif
102
RTVSPost2010PropOp54
 70
     1
102
RTVSPost2010Prop55
280
     0
102
RTVSPost2010PropOp55
 70
     1
102
RTVSPost2010Prop56
140
1.0
102
RTVSPost2010PropOp56
 70
     1
102
RTVSPost2010Prop57
140
1.0
102
RTVSPost2010PropOp57
 70
     1
102
RTVSPropertyOp0
 70
     1
102
RTVSPropertyOp1
 70
     1
102
RTVSPropertyOp2
 70
     1
102
RTVSPropertyOp3
 70
     1
102
RTVSPropertyOp4
 70
     1
102
RTVSPropertyOp5
 70
     1
102
RTVSPropertyOp6
 70
     1
102
RTVSPropertyOp7
 70
     1
102
RTVSPropertyOp8
 70
     1
102
RTVSPropertyOp9
 70
     1
102
RTVSPropertyOp10
 70
     1
102
RTVSPropertyOp11
 70
     1
102
RTVSPropertyOp12
 70
     1
102
RTVSPropertyOp13
 70
     1
102
RTVSPropertyOp14
 70
     1
102
RTVSPropertyOp15
 70
     1
102
RTVSPropertyOp16
 70
     1
102
RTVSPropertyOp17
 70
     1
102
RTVSPropertyOp18
 70
     1
102
RTVSPropertyOp19
 70
     1
102
RTVSPropertyOp20
 70
     1
102
RTVSPropertyOp21
 70
     1
102
RTVSPropertyOp22
 70
     1
102
RTVSPropertyOp23
 70
     1
102
RTVSPropertyOp24
 70
     1
102
RTVSPropertyOp25
 70
     1
102
RTVSPropertyOp26
 70
     1
102
RTVSPropertyOp27
 70
     1
102
RTVSPropertyOp28
 70
     1
102
RTVSPropertyOp29
 70
     1
102
RTVSPropertyOp30
 70
     1
102
RTVSPropertyOp31
 70
     1
102
RTVSPropertyOp32
 70
     1
102
RTVSPropertyOp33
 70
     1
102
RTVSPropertyOp34
 70
     1
102
RTVSPropertyOp35
 70
     1
102
RTVSPropertyOp36
 70
     1
102
RTVSPropertyOp37
 70
     1
102
RTVSPropertyOp38
 70
     1
102
RTVSPropertyOp39
 70
     1
102
RTVSPropertyOp40
 70
     1
102
RTVSPropertyOp41
 70
     1
102
RTVSPropertyOp42
 70
     1
102
RTVSPropertyOp43
 70
     1
102
RTVSPropertyOp44
 70
     1
102
RTVSPropertyOp45
 70
     1
102
RTVSPropertyOp46
 70
     1
102
RTVSPropertyOp47
 70
     1
102
RTVSPropertyOp48
 70
     1
102
RTVSPropertyOp49
 70
     1
102
RTVSPropertyOp50
 70
     1
102
RTVSPropertyOp51
 70
     0
102
RTVSPropertyOp52
 70
     0
102
RTVSPropertyOp53
 70
     1
102
RTVSPropertyOp54
 70
     1
102
RTVSPropertyOp55
 70
     1
102
RTVSPropertyOp56
 70
     1
102
RTVSPropertyOp57
 70
     1
102
RTVSPropertyOp58
 70
     1
102
RTVSPropertyOp59
 70
     1
102
RTVSPropertyOp60
 70
     1
102
RTVSPropertyOp61
 70
     1
102
RTVSPropertyOp62
 70
     1
  0
XRECORD
  5
397
102
{ACAD_REACTORS
330
396
102
}
330
396
100
AcDbXrecord
280
     1
102
RTVSPost2010Prop28
280
     0
102
RTVSPost2010PropOp28
 70
     1
102
RTVSPost2010Prop29
280
     1
102
RTVSPost2010PropOp29
 70
     1
102
RTVSPost2010Prop30
280
     1
102
RTVSPost2010PropOp30
 70
     1
102
RTVSPost2010Prop31
280
     0
102
RTVSPost2010PropOp31
 70
     1
102
RTVSPost2010Prop32
280
     0
102
RTVSPost2010PropOp32
 70
     1
102
RTVSPost2010Prop33
280
     0
102
RTVSPost2010PropOp33
 70
     1
102
RTVSPost2010Prop34
280
     0
102
RTVSPost2010PropOp34
 70
     1
102
RTVSPost2010Prop35
280
     0
102
RTVSPost2010PropOp35
 70
     1
102
RTVSPost2010Prop36
280
     0
102
RTVSPost2010PropOp36
 70
     1
102
RTVSPost2010Prop37
 90
       50
102
RTVSPost2010PropOp37
 70
     1
102
RTVSPost2010Prop38
140
0.0
102
RTVSPost2010PropOp38
 70
     1
102
RTVSPost2010Prop39
140
1.0
102
RTVSPost2010PropOp39
 70
     1
102
RTVSPost2010Prop40
 90
        0
102
RTVSPost2010PropOp40
 70
     1
102
RTVSPost2010Prop41ColorIndex
 90
       18
102
RTVSPost2010Prop41ColorRGB
 90
        0
102
RTVSPost2010PropOp41
 70
     1
102
RTVSPost2010Prop42
 90
       50
102
RTVSPost2010PropOp42
 70
     1
102
RTVSPost2010Prop43
 90
        3
102
RTVSPost2010PropOp43
 70
     1
102
RTVSPost2010Prop44ColorIndex
 90
        5
102
RTVSPost2010Prop44ColorRGB
 90
      255
102
RTVSPost2010PropOp44
 70
     1
102
RTVSPost2010Prop45
280
     0
102
RTVSPost2010PropOp45
 70
     1
102
RTVSPost2010Prop46
 90
       50
102
RTVSPost2010PropOp46
 70
     1
102
RTVSPost2010Prop47
 90
       50
102
RTVSPost2010PropOp47
 70
     1
102
RTVSPost2010Prop48
 90
       50
102
RTVSPost2010PropOp48
 70
     1
102
RTVSPost2010Prop49
280
     0
102
RTVSPost2010PropOp49
 70
     1
102
RTVSPost2010Prop50
 90
       50
102
RTVSPost2010PropOp50
 70
     1
102
RTVSPost2010Prop51ColorIndex
 90
      256
102
RTVSPost2010Prop51ColorRGB
 90
-16777216
102
RTVSPost2010PropOp51
 70
     0
102
RTVSPost2010Prop52
140
1.0
102
RTVSPost2010PropOp52
 70
     0
102
RTVSPost2010Prop53
 90
        2
102
RTVSPost2010PropOp53
 70
     1
102
RTVSPost2010Prop54
  1
strokes_ogs.tif
102
RTVSPost2010PropOp54
 70
     1
102
RTVSPost2010Prop55
280
     0
102
RTVSPost2010PropOp55
 70
     1
102
RTVSPost2010Prop56
140
1.0
102
RTVSPost2010PropOp56
 70
     1
102
RTVSPost2010Prop57
140
1.0
102
RTVSPost2010PropOp57
 70
     1
102
RTVSPropertyOp0
 70
     1
102
RTVSPropertyOp1
 70
     1
102
RTVSPropertyOp2
 70
     1
102
RTVSPropertyOp3
 70
     1
102
RTVSPropertyOp4
 70
     1
102
RTVSPropertyOp5
 70
     1
102
RTVSPropertyOp6
 70
     1
102
RTVSPropertyOp7
 70
     1
102
RTVSPropertyOp8
 70
     1
102
RTVSPropertyOp9
 70
     1
102
RTVSPropertyOp10
 70
     1
102
RTVSPropertyOp11
 70
     1
102
RTVSPropertyOp12
 70
     1
102
RTVSPropertyOp13
 70
     1
102
RTVSPropertyOp14
 70
     1
102
RTVSPropertyOp15
 70
     1
102
RTVSPropertyOp16
 70
     1
102
RTVSPropertyOp17
 70
     1
102
RTVSPropertyOp18
 70
     1
102
RTVSPropertyOp19
 70
     1
102
RTVSPropertyOp20
 70
     1
102
RTVSPropertyOp21
 70
     1
102
RTVSPropertyOp22
 70
     1
102
RTVSPropertyOp23
 70
     1
102
RTVSPropertyOp24
 70
     1
102
RTVSPropertyOp25
 70
     1
102
RTVSPropertyOp26
 70
     1
102
RTVSPropertyOp27
 70
     1
102
RTVSPropertyOp28
 70
     1
102
RTVSPropertyOp29
 70
     1
102
RTVSPropertyOp30
 70
     1
102
RTVSPropertyOp31
 70
     1
102
RTVSPropertyOp32
 70
     1
102
RTVSPropertyOp33
 70
     1
102
RTVSPropertyOp34
 70
     1
102
RTVSPropertyOp35
 70
     1
102
RTVSPropertyOp36
 70
     1
102
RTVSPropertyOp37
 70
     1
102
RTVSPropertyOp38
 70
     1
102
RTVSPropertyOp39
 70
     1
102
RTVSPropertyOp40
 70
     1
102
RTVSPropertyOp41
 70
     1
102
RTVSPropertyOp42
 70
     1
102
RTVSPropertyOp43
 70
     1
102
RTVSPropertyOp44
 70
     1
102
RTVSPropertyOp45
 70
     1
102
RTVSPropertyOp46
 70
     1
102
RTVSPropertyOp47
 70
     1
102
RTVSPropertyOp48
 70
     1
102
RTVSPropertyOp49
 70
     1
102
RTVSPropertyOp50
 70
     1
102
RTVSPropertyOp51
 70
     0
102
RTVSPropertyOp52
 70
     0
102
RTVSPropertyOp53
 70
     1
102
RTVSPropertyOp54
 70
     1
102
RTVSPropertyOp55
 70
     1
102
RTVSPropertyOp56
 70
     1
102
RTVSPropertyOp57
 70
     1
102
RTVSPropertyOp58
 70
     1
102
RTVSPropertyOp59
 70
     1
102
RTVSPropertyOp60
 70
     1
102
RTVSPropertyOp61
 70
     1
102
RTVSPropertyOp62
 70
     1
  0
XRECORD
  5
399
102
{ACAD_REACTORS
330
398
102
}
330
398
100
AcDbXrecord
280
     1
102
RTVSPost2010Prop28
280
     0
102
RTVSPost2010PropOp28
 70
     1
102
RTVSPost2010Prop29
280
     1
102
RTVSPost2010PropOp29
 70
     1
102
RTVSPost2010Prop30
280
     1
102
RTVSPost2010PropOp30
 70
     1
102
RTVSPost2010Prop31
280
     0
102
RTVSPost2010PropOp31
 70
     1
102
RTVSPost2010Prop32
280
     0
102
RTVSPost2010PropOp32
 70
     1
102
RTVSPost2010Prop33
280
     0
102
RTVSPost2010PropOp33
 70
     1
102
RTVSPost2010Prop34
280
     0
102
RTVSPost2010PropOp34
 70
     1
102
RTVSPost2010Prop35
280
     0
102
RTVSPost2010PropOp35
 70
     1
102
RTVSPost2010Prop36
280
     0
102
RTVSPost2010PropOp36
 70
     1
102
RTVSPost2010Prop37
 90
       50
102
RTVSPost2010PropOp37
 70
     1
102
RTVSPost2010Prop38
140
0.0
102
RTVSPost2010PropOp38
 70
     1
102
RTVSPost2010Prop39
140
1.0
102
RTVSPost2010PropOp39
 70
     1
102
RTVSPost2010Prop40
 90
        0
102
RTVSPost2010PropOp40
 70
     1
102
RTVSPost2010Prop41ColorIndex
 90
       18
102
RTVSPost2010Prop41ColorRGB
 90
        0
102
RTVSPost2010PropOp41
 70
     1
102
RTVSPost2010Prop42
 90
       50
102
RTVSPost2010PropOp42
 70
     1
102
RTVSPost2010Prop43
 90
        3
102
RTVSPost2010PropOp43
 70
     1
102
RTVSPost2010Prop44ColorIndex
 90
        5
102
RTVSPost2010Prop44ColorRGB
 90
      255
102
RTVSPost2010PropOp44
 70
     1
102
RTVSPost2010Prop45
280
     0
102
RTVSPost2010PropOp45
 70
     1
102
RTVSPost2010Prop46
 90
       50
102
RTVSPost2010PropOp46
 70
     1
102
RTVSPost2010Prop47
 90
       50
102
RTVSPost2010PropOp47
 70
     1
102
RTVSPost2010Prop48
 90
       50
102
RTVSPost2010PropOp48
 70
     1
102
RTVSPost2010Prop49
280
     0
102
RTVSPost2010PropOp49
 70
     1
102
RTVSPost2010Prop50
 90
       50
102
RTVSPost2010PropOp50
 70
     1
102
RTVSPost2010Prop51ColorIndex
 90
      256
102
RTVSPost2010Prop51ColorRGB
 90
-16777216
102
RTVSPost2010PropOp51
 70
     0
102
RTVSPost2010Prop52
140
1.0
102
RTVSPost2010PropOp52
 70
     0
102
RTVSPost2010Prop53
 90
        2
102
RTVSPost2010PropOp53
 70
     1
102
RTVSPost2010Prop54
  1
strokes_ogs.tif
102
RTVSPost2010PropOp54
 70
     1
102
RTVSPost2010Prop55
280
     0
102
RTVSPost2010PropOp55
 70
     1
102
RTVSPost2010Prop56
140
1.0
102
RTVSPost2010PropOp56
 70
     1
102
RTVSPost2010Prop57
140
1.0
102
RTVSPost2010PropOp57
 70
     1
102
RTVSPropertyOp0
 70
     1
102
RTVSPropertyOp1
 70
     1
102
RTVSPropertyOp2
 70
     1
102
RTVSPropertyOp3
 70
     1
102
RTVSPropertyOp4
 70
     1
102
RTVSPropertyOp5
 70
     1
102
RTVSPropertyOp6
 70
     1
102
RTVSPropertyOp7
 70
     1
102
RTVSPropertyOp8
 70
     1
102
RTVSPropertyOp9
 70
     1
102
RTVSPropertyOp10
 70
     1
102
RTVSPropertyOp11
 70
     1
102
RTVSPropertyOp12
 70
     1
102
RTVSPropertyOp13
 70
     1
102
RTVSPropertyOp14
 70
     1
102
RTVSPropertyOp15
 70
     1
102
RTVSPropertyOp16
 70
     1
102
RTVSPropertyOp17
 70
     1
102
RTVSPropertyOp18
 70
     1
102
RTVSPropertyOp19
 70
     1
102
RTVSPropertyOp20
 70
     1
102
RTVSPropertyOp21
 70
     1
102
RTVSPropertyOp22
 70
     1
102
RTVSPropertyOp23
 70
     1
102
RTVSPropertyOp24
 70
     1
102
RTVSPropertyOp25
 70
     1
102
RTVSPropertyOp26
 70
     1
102
RTVSPropertyOp27
 70
     1
102
RTVSPropertyOp28
 70
     1
102
RTVSPropertyOp29
 70
     1
102
RTVSPropertyOp30
 70
     1
102
RTVSPropertyOp31
 70
     1
102
RTVSPropertyOp32
 70
     1
102
RTVSPropertyOp33
 70
     1
102
RTVSPropertyOp34
 70
     1
102
RTVSPropertyOp35
 70
     1
102
RTVSPropertyOp36
 70
     1
102
RTVSPropertyOp37
 70
     1
102
RTVSPropertyOp38
 70
     1
102
RTVSPropertyOp39
 70
     1
102
RTVSPropertyOp40
 70
     1
102
RTVSPropertyOp41
 70
     1
102
RTVSPropertyOp42
 70
     1
102
RTVSPropertyOp43
 70
     1
102
RTVSPropertyOp44
 70
     1
102
RTVSPropertyOp45
 70
     1
102
RTVSPropertyOp46
 70
     1
102
RTVSPropertyOp47
 70
     1
102
RTVSPropertyOp48
 70
     1
102
RTVSPropertyOp49
 70
     1
102
RTVSPropertyOp50
 70
     1
102
RTVSPropertyOp51
 70
     0
102
RTVSPropertyOp52
 70
     0
102
RTVSPropertyOp53
 70
     1
102
RTVSPropertyOp54
 70
     1
102
RTVSPropertyOp55
 70
     1
102
RTVSPropertyOp56
 70
     1
102
RTVSPropertyOp57
 70
     1
102
RTVSPropertyOp58
 70
     1
102
RTVSPropertyOp59
 70
     1
102
RTVSPropertyOp60
 70
     1
102
RTVSPropertyOp61
 70
     1
102
RTVSPropertyOp62
 70
     1
  0
XRECORD
  5
39B
102
{ACAD_REACTORS
330
39A
102
}
330
39A
100
AcDbXrecord
280
     1
102
RTVSPost2010Prop28
280
     0
102
RTVSPost2010PropOp28
 70
     1
102
RTVSPost2010Prop29
280
     1
102
RTVSPost2010PropOp29
 70
     1
102
RTVSPost2010Prop30
280
     1
102
RTVSPost2010PropOp30
 70
     1
102
RTVSPost2010Prop31
280
     0
102
RTVSPost2010PropOp31
 70
     1
102
RTVSPost2010Prop32
280
     0
102
RTVSPost2010PropOp32
 70
     1
102
RTVSPost2010Prop33
280
     0
102
RTVSPost2010PropOp33
 70
     1
102
RTVSPost2010Prop34
280
     0
102
RTVSPost2010PropOp34
 70
     1
102
RTVSPost2010Prop35
280
     0
102
RTVSPost2010PropOp35
 70
     1
102
RTVSPost2010Prop36
280
     0
102
RTVSPost2010PropOp36
 70
     1
102
RTVSPost2010Prop37
 90
       50
102
RTVSPost2010PropOp37
 70
     1
102
RTVSPost2010Prop38
140
0.0
102
RTVSPost2010PropOp38
 70
     1
102
RTVSPost2010Prop39
140
1.0
102
RTVSPost2010PropOp39
 70
     1
102
RTVSPost2010Prop40
 90
        0
102
RTVSPost2010PropOp40
 70
     1
102
RTVSPost2010Prop41ColorIndex
 90
       18
102
RTVSPost2010Prop41ColorRGB
 90
        0
102
RTVSPost2010PropOp41
 70
     1
102
RTVSPost2010Prop42
 90
       50
102
RTVSPost2010PropOp42
 70
     1
102
RTVSPost2010Prop43
 90
        3
102
RTVSPost2010PropOp43
 70
     1
102
RTVSPost2010Prop44ColorIndex
 90
        5
102
RTVSPost2010Prop44ColorRGB
 90
      255
102
RTVSPost2010PropOp44
 70
     1
102
RTVSPost2010Prop45
280
     0
102
RTVSPost2010PropOp45
 70
     1
102
RTVSPost2010Prop46
 90
       50
102
RTVSPost2010PropOp46
 70
     1
102
RTVSPost2010Prop47
 90
       50
102
RTVSPost2010PropOp47
 70
     1
102
RTVSPost2010Prop48
 90
       50
102
RTVSPost2010PropOp48
 70
     1
102
RTVSPost2010Prop49
280
     0
102
RTVSPost2010PropOp49
 70
     1
102
RTVSPost2010Prop50
 90
       50
102
RTVSPost2010PropOp50
 70
     1
102
RTVSPost2010Prop51ColorIndex
 90
      256
102
RTVSPost2010Prop51ColorRGB
 90
-16777216
102
RTVSPost2010PropOp51
 70
     0
102
RTVSPost2010Prop52
140
1.0
102
RTVSPost2010PropOp52
 70
     0
102
RTVSPost2010Prop53
 90
        2
102
RTVSPost2010PropOp53
 70
     1
102
RTVSPost2010Prop54
  1
strokes_ogs.tif
102
RTVSPost2010PropOp54
 70
     1
102
RTVSPost2010Prop55
280
     0
102
RTVSPost2010PropOp55
 70
     1
102
RTVSPost2010Prop56
140
1.0
102
RTVSPost2010PropOp56
 70
     1
102
RTVSPost2010Prop57
140
1.0
102
RTVSPost2010PropOp57
 70
     1
102
RTVSPropertyOp0
 70
     1
102
RTVSPropertyOp1
 70
     1
102
RTVSPropertyOp2
 70
     1
102
RTVSPropertyOp3
 70
     1
102
RTVSPropertyOp4
 70
     1
102
RTVSPropertyOp5
 70
     1
102
RTVSPropertyOp6
 70
     1
102
RTVSPropertyOp7
 70
     1
102
RTVSPropertyOp8
 70
     1
102
RTVSPropertyOp9
 70
     1
102
RTVSPropertyOp10
 70
     1
102
RTVSPropertyOp11
 70
     1
102
RTVSPropertyOp12
 70
     1
102
RTVSPropertyOp13
 70
     1
102
RTVSPropertyOp14
 70
     1
102
RTVSPropertyOp15
 70
     1
102
RTVSPropertyOp16
 70
     1
102
RTVSPropertyOp17
 70
     1
102
RTVSPropertyOp18
 70
     1
102
RTVSPropertyOp19
 70
     1
102
RTVSPropertyOp20
 70
     1
102
RTVSPropertyOp21
 70
     1
102
RTVSPropertyOp22
 70
     1
102
RTVSPropertyOp23
 70
     1
102
RTVSPropertyOp24
 70
     1
102
RTVSPropertyOp25
 70
     1
102
RTVSPropertyOp26
 70
     1
102
RTVSPropertyOp27
 70
     1
102
RTVSPropertyOp28
 70
     1
102
RTVSPropertyOp29
 70
     1
102
RTVSPropertyOp30
 70
     1
102
RTVSPropertyOp31
 70
     1
102
RTVSPropertyOp32
 70
     1
102
RTVSPropertyOp33
 70
     1
102
RTVSPropertyOp34
 70
     1
102
RTVSPropertyOp35
 70
     1
102
RTVSPropertyOp36
 70
     1
102
RTVSPropertyOp37
 70
     1
102
RTVSPropertyOp38
 70
     1
102
RTVSPropertyOp39
 70
     1
102
RTVSPropertyOp40
 70
     1
102
RTVSPropertyOp41
 70
     1
102
RTVSPropertyOp42
 70
     1
102
RTVSPropertyOp43
 70
     1
102
RTVSPropertyOp44
 70
     1
102
RTVSPropertyOp45
 70
     1
102
RTVSPropertyOp46
 70
     1
102
RTVSPropertyOp47
 70
     1
102
RTVSPropertyOp48
 70
     1
102
RTVSPropertyOp49
 70
     1
102
RTVSPropertyOp50
 70
     1
102
RTVSPropertyOp51
 70
     0
102
RTVSPropertyOp52
 70
     0
102
RTVSPropertyOp53
 70
     1
102
RTVSPropertyOp54
 70
     1
102
RTVSPropertyOp55
 70
     1
102
RTVSPropertyOp56
 70
     1
102
RTVSPropertyOp57
 70
     1
102
RTVSPropertyOp58
 70
     1
102
RTVSPropertyOp59
 70
     1
102
RTVSPropertyOp60
 70
     1
102
RTVSPropertyOp61
 70
     1
102
RTVSPropertyOp62
 70
     1
  0
XRECORD
  5
3A1
102
{ACAD_REACTORS
330
3A0
102
}
330
3A0
100
AcDbXrecord
280
     1
102
RTVSPost2010Prop28
280
     0
102
RTVSPost2010PropOp28
 70
     1
102
RTVSPost2010Prop29
280
     1
102
RTVSPost2010PropOp29
 70
     1
102
RTVSPost2010Prop30
280
     1
102
RTVSPost2010PropOp30
 70
     1
102
RTVSPost2010Prop31
280
     0
102
RTVSPost2010PropOp31
 70
     1
102
RTVSPost2010Prop32
280
     0
102
RTVSPost2010PropOp32
 70
     1
102
RTVSPost2010Prop33
280
     0
102
RTVSPost2010PropOp33
 70
     1
102
RTVSPost2010Prop34
280
     0
102
RTVSPost2010PropOp34
 70
     1
102
RTVSPost2010Prop35
280
     0
102
RTVSPost2010PropOp35
 70
     1
102
RTVSPost2010Prop36
280
     0
102
RTVSPost2010PropOp36
 70
     1
102
RTVSPost2010Prop37
 90
       50
102
RTVSPost2010PropOp37
 70
     1
102
RTVSPost2010Prop38
140
0.0
102
RTVSPost2010PropOp38
 70
     1
102
RTVSPost2010Prop39
140
1.0
102
RTVSPost2010PropOp39
 70
     1
102
RTVSPost2010Prop40
 90
        0
102
RTVSPost2010PropOp40
 70
     1
102
RTVSPost2010Prop41ColorIndex
 90
       18
102
RTVSPost2010Prop41ColorRGB
 90
        0
102
RTVSPost2010PropOp41
 70
     1
102
RTVSPost2010Prop42
 90
       50
102
RTVSPost2010PropOp42
 70
     1
102
RTVSPost2010Prop43
 90
        3
102
RTVSPost2010PropOp43
 70
     1
102
RTVSPost2010Prop44ColorIndex
 90
        5
102
RTVSPost2010Prop44ColorRGB
 90
      255
102
RTVSPost2010PropOp44
 70
     1
102
RTVSPost2010Prop45
280
     0
102
RTVSPost2010PropOp45
 70
     1
102
RTVSPost2010Prop46
 90
       50
102
RTVSPost2010PropOp46
 70
     1
102
RTVSPost2010Prop47
 90
       50
102
RTVSPost2010PropOp47
 70
     1
102
RTVSPost2010Prop48
 90
       50
102
RTVSPost2010PropOp48
 70
     1
102
RTVSPost2010Prop49
280
     0
102
RTVSPost2010PropOp49
 70
     1
102
RTVSPost2010Prop50
 90
       50
102
RTVSPost2010PropOp50
 70
     1
102
RTVSPost2010Prop51ColorIndex
 90
      256
102
RTVSPost2010Prop51ColorRGB
 90
-16777216
102
RTVSPost2010PropOp51
 70
     0
102
RTVSPost2010Prop52
140
1.0
102
RTVSPost2010PropOp52
 70
     0
102
RTVSPost2010Prop53
 90
        2
102
RTVSPost2010PropOp53
 70
     1
102
RTVSPost2010Prop54
  1
strokes_ogs.tif
102
RTVSPost2010PropOp54
 70
     1
102
RTVSPost2010Prop55
280
     0
102
RTVSPost2010PropOp55
 70
     1
102
RTVSPost2010Prop56
140
1.0
102
RTVSPost2010PropOp56
 70
     1
102
RTVSPost2010Prop57
140
1.0
102
RTVSPost2010PropOp57
 70
     1
102
RTVSPropertyOp0
 70
     1
102
RTVSPropertyOp1
 70
     1
102
RTVSPropertyOp2
 70
     1
102
RTVSPropertyOp3
 70
     1
102
RTVSPropertyOp4
 70
     1
102
RTVSPropertyOp5
 70
     1
102
RTVSPropertyOp6
 70
     1
102
RTVSPropertyOp7
 70
     1
102
RTVSPropertyOp8
 70
     1
102
RTVSPropertyOp9
 70
     1
102
RTVSPropertyOp10
 70
     1
102
RTVSPropertyOp11
 70
     1
102
RTVSPropertyOp12
 70
     1
102
RTVSPropertyOp13
 70
     1
102
RTVSPropertyOp14
 70
     1
102
RTVSPropertyOp15
 70
     1
102
RTVSPropertyOp16
 70
     1
102
RTVSPropertyOp17
 70
     1
102
RTVSPropertyOp18
 70
     1
102
RTVSPropertyOp19
 70
     1
102
RTVSPropertyOp20
 70
     1
102
RTVSPropertyOp21
 70
     1
102
RTVSPropertyOp22
 70
     1
102
RTVSPropertyOp23
 70
     1
102
RTVSPropertyOp24
 70
     1
102
RTVSPropertyOp25
 70
     1
102
RTVSPropertyOp26
 70
     1
102
RTVSPropertyOp27
 70
     1
102
RTVSPropertyOp28
 70
     1
102
RTVSPropertyOp29
 70
     1
102
RTVSPropertyOp30
 70
     1
102
RTVSPropertyOp31
 70
     1
102
RTVSPropertyOp32
 70
     1
102
RTVSPropertyOp33
 70
     1
102
RTVSPropertyOp34
 70
     1
102
RTVSPropertyOp35
 70
     1
102
RTVSPropertyOp36
 70
     1
102
RTVSPropertyOp37
 70
     1
102
RTVSPropertyOp38
 70
     1
102
RTVSPropertyOp39
 70
     1
102
RTVSPropertyOp40
 70
     1
102
RTVSPropertyOp41
 70
     1
102
RTVSPropertyOp42
 70
     1
102
RTVSPropertyOp43
 70
     1
102
RTVSPropertyOp44
 70
     1
102
RTVSPropertyOp45
 70
     1
102
RTVSPropertyOp46
 70
     1
102
RTVSPropertyOp47
 70
     1
102
RTVSPropertyOp48
 70
     1
102
RTVSPropertyOp49
 70
     1
102
RTVSPropertyOp50
 70
     1
102
RTVSPropertyOp51
 70
     0
102
RTVSPropertyOp52
 70
     0
102
RTVSPropertyOp53
 70
     1
102
RTVSPropertyOp54
 70
     1
102
RTVSPropertyOp55
 70
     1
102
RTVSPropertyOp56
 70
     1
102
RTVSPropertyOp57
 70
     1
102
RTVSPropertyOp58
 70
     1
102
RTVSPropertyOp59
 70
     1
102
RTVSPropertyOp60
 70
     1
102
RTVSPropertyOp61
 70
     1
102
RTVSPropertyOp62
 70
     1
  0
XRECORD
  5
3B5
102
{ACAD_REACTORS
330
3B4
102
}
330
3B4
100
AcDbXrecord
280
     1
102
RTVSPost2010Prop28
280
     0
102
RTVSPost2010PropOp28
 70
     0
102
RTVSPost2010Prop29
280
     1
102
RTVSPost2010PropOp29
 70
     0
102
RTVSPost2010Prop30
280
     1
102
RTVSPost2010PropOp30
 70
     0
102
RTVSPost2010Prop31
280
     0
102
RTVSPost2010PropOp31
 70
     0
102
RTVSPost2010Prop32
280
     0
102
RTVSPost2010PropOp32
 70
     0
102
RTVSPost2010Prop33
280
     0
102
RTVSPost2010PropOp33
 70
     0
102
RTVSPost2010Prop34
280
     0
102
RTVSPost2010PropOp34
 70
     0
102
RTVSPost2010Prop35
280
     0
102
RTVSPost2010PropOp35
 70
     0
102
RTVSPost2010Prop36
280
     0
102
RTVSPost2010PropOp36
 70
     0
102
RTVSPost2010Prop37
 90
       50
102
RTVSPost2010PropOp37
 70
     0
102
RTVSPost2010Prop38
140
0.0
102
RTVSPost2010PropOp38
 70
     0
102
RTVSPost2010Prop39
140
1.0
102
RTVSPost2010PropOp39
 70
     0
102
RTVSPost2010Prop40
 90
        0
102
RTVSPost2010PropOp40
 70
     0
102
RTVSPost2010Prop41ColorIndex
 90
       18
102
RTVSPost2010Prop41ColorRGB
 90
        0
102
RTVSPost2010PropOp41
 70
     0
102
RTVSPost2010Prop42
 90
       50
102
RTVSPost2010PropOp42
 70
     0
102
RTVSPost2010Prop43
 90
        3
102
RTVSPost2010PropOp43
 70
     0
102
RTVSPost2010Prop44ColorIndex
 90
        5
102
RTVSPost2010Prop44ColorRGB
 90
      255
102
RTVSPost2010PropOp44
 70
     0
102
RTVSPost2010Prop45
280
     0
102
RTVSPost2010PropOp45
 70
     0
102
RTVSPost2010Prop46
 90
       50
102
RTVSPost2010PropOp46
 70
     0
102
RTVSPost2010Prop47
 90
       50
102
RTVSPost2010PropOp47
 70
     0
102
RTVSPost2010Prop48
 90
       50
102
RTVSPost2010PropOp48
 70
     0
102
RTVSPost2010Prop49
280
     0
102
RTVSPost2010PropOp49
 70
     0
102
RTVSPost2010Prop50
 90
       50
102
RTVSPost2010PropOp50
 70
     0
102
RTVSPost2010Prop51ColorIndex
 90
      256
102
RTVSPost2010Prop51ColorRGB
 90
-16777216
102
RTVSPost2010PropOp51
 70
     0
102
RTVSPost2010Prop52
140
1.0
102
RTVSPost2010PropOp52
 70
     0
102
RTVSPost2010Prop53
 90
        2
102
RTVSPost2010PropOp53
 70
     0
102
RTVSPost2010Prop54
  1
strokes_ogs.tif
102
RTVSPost2010PropOp54
 70
     0
102
RTVSPost2010Prop55
280
     0
102
RTVSPost2010PropOp55
 70
     0
102
RTVSPost2010Prop56
140
1.0
102
RTVSPost2010PropOp56
 70
     0
102
RTVSPost2010Prop57
140
1.0
102
RTVSPost2010PropOp57
 70
     0
102
RTVSPropertyOp0
 70
     0
102
RTVSPropertyOp1
 70
     0
102
RTVSPropertyOp2
 70
     0
102
RTVSPropertyOp3
 70
     0
102
RTVSPropertyOp4
 70
     0
102
RTVSPropertyOp5
 70
     0
102
RTVSPropertyOp6
 70
     0
102
RTVSPropertyOp7
 70
     0
102
RTVSPropertyOp8
 70
     0
102
RTVSPropertyOp9
 70
     0
102
RTVSPropertyOp10
 70
     0
102
RTVSPropertyOp11
 70
     0
102
RTVSPropertyOp12
 70
     0
102
RTVSPropertyOp13
 70
     0
102
RTVSPropertyOp14
 70
     2
102
RTVSPropertyOp15
 70
     0
102
RTVSPropertyOp16
 70
     0
102
RTVSPropertyOp17
 70
     0
102
RTVSPropertyOp18
 70
     0
102
RTVSPropertyOp19
 70
     0
102
RTVSPropertyOp20
 70
     0
102
RTVSPropertyOp21
 70
     0
102
RTVSPropertyOp22
 70
     0
102
RTVSPropertyOp23
 70
     0
102
RTVSPropertyOp24
 70
     0
102
RTVSPropertyOp25
 70
     0
102
RTVSPropertyOp26
 70
     0
102
RTVSPropertyOp27
 70
     0
102
RTVSPropertyOp28
 70
     0
102
RTVSPropertyOp29
 70
     0
102
RTVSPropertyOp30
 70
     0
102
RTVSPropertyOp31
 70
     0
102
RTVSPropertyOp32
 70
     0
102
RTVSPropertyOp33
 70
     0
102
RTVSPropertyOp34
 70
     0
102
RTVSPropertyOp35
 70
     0
102
RTVSPropertyOp36
 70
     0
102
RTVSPropertyOp37
 70
     0
102
RTVSPropertyOp38
 70
     0
102
RTVSPropertyOp39
 70
     0
102
RTVSPropertyOp40
 70
     0
102
RTVSPropertyOp41
 70
     0
102
RTVSPropertyOp42
 70
     0
102
RTVSPropertyOp43
 70
     0
102
RTVSPropertyOp44
 70
     0
102
RTVSPropertyOp45
 70
     0
102
RTVSPropertyOp46
 70
     0
102
RTVSPropertyOp47
 70
     0
102
RTVSPropertyOp48
 70
     0
102
RTVSPropertyOp49
 70
     0
102
RTVSPropertyOp50
 70
     0
102
RTVSPropertyOp51
 70
     0
102
RTVSPropertyOp52
 70
     0
102
RTVSPropertyOp53
 70
     0
102
RTVSPropertyOp54
 70
     0
102
RTVSPropertyOp55
 70
     0
102
RTVSPropertyOp56
 70
     0
102
RTVSPropertyOp57
 70
     0
102
RTVSPropertyOp58
 70
     1
102
RTVSPropertyOp59
 70
     1
102
RTVSPropertyOp60
 70
     1
102
RTVSPropertyOp61
 70
     1
102
RTVSPropertyOp62
 70
     1
  0
XRECORD
  5
3AF
102
{ACAD_REACTORS
330
3AE
102
}
330
3AE
100
AcDbXrecord
280
     1
102
RTVSPost2010Prop28
280
     0
102
RTVSPost2010PropOp28
 70
     1
102
RTVSPost2010Prop29
280
     1
102
RTVSPost2010PropOp29
 70
     1
102
RTVSPost2010Prop30
280
     1
102
RTVSPost2010PropOp30
 70
     1
102
RTVSPost2010Prop31
280
     0
102
RTVSPost2010PropOp31
 70
     1
102
RTVSPost2010Prop32
280
     0
102
RTVSPost2010PropOp32
 70
     1
102
RTVSPost2010Prop33
280
     0
102
RTVSPost2010PropOp33
 70
     1
102
RTVSPost2010Prop34
280
     0
102
RTVSPost2010PropOp34
 70
     1
102
RTVSPost2010Prop35
280
     0
102
RTVSPost2010PropOp35
 70
     1
102
RTVSPost2010Prop36
280
     0
102
RTVSPost2010PropOp36
 70
     1
102
RTVSPost2010Prop37
 90
       50
102
RTVSPost2010PropOp37
 70
     1
102
RTVSPost2010Prop38
140
0.0
102
RTVSPost2010PropOp38
 70
     1
102
RTVSPost2010Prop39
140
1.0
102
RTVSPost2010PropOp39
 70
     1
102
RTVSPost2010Prop40
 90
        0
102
RTVSPost2010PropOp40
 70
     1
102
RTVSPost2010Prop41ColorIndex
 90
       18
102
RTVSPost2010Prop41ColorRGB
 90
        0
102
RTVSPost2010PropOp41
 70
     1
102
RTVSPost2010Prop42
 90
       50
102
RTVSPost2010PropOp42
 70
     1
102
RTVSPost2010Prop43
 90
        3
102
RTVSPost2010PropOp43
 70
     1
102
RTVSPost2010Prop44ColorIndex
 90
        5
102
RTVSPost2010Prop44ColorRGB
 90
      255
102
RTVSPost2010PropOp44
 70
     1
102
RTVSPost2010Prop45
280
     0
102
RTVSPost2010PropOp45
 70
     1
102
RTVSPost2010Prop46
 90
       50
102
RTVSPost2010PropOp46
 70
     1
102
RTVSPost2010Prop47
 90
       50
102
RTVSPost2010PropOp47
 70
     1
102
RTVSPost2010Prop48
 90
       50
102
RTVSPost2010PropOp48
 70
     1
102
RTVSPost2010Prop49
280
     0
102
RTVSPost2010PropOp49
 70
     1
102
RTVSPost2010Prop50
 90
       50
102
RTVSPost2010PropOp50
 70
     1
102
RTVSPost2010Prop51ColorIndex
 90
      256
102
RTVSPost2010Prop51ColorRGB
 90
-16777216
102
RTVSPost2010PropOp51
 70
     0
102
RTVSPost2010Prop52
140
1.0
102
RTVSPost2010PropOp52
 70
     0
102
RTVSPost2010Prop53
 90
        2
102
RTVSPost2010PropOp53
 70
     1
102
RTVSPost2010Prop54
  1
strokes_ogs.tif
102
RTVSPost2010PropOp54
 70
     1
102
RTVSPost2010Prop55
280
     0
102
RTVSPost2010PropOp55
 70
     1
102
RTVSPost2010Prop56
140
1.0
102
RTVSPost2010PropOp56
 70
     1
102
RTVSPost2010Prop57
140
1.0
102
RTVSPost2010PropOp57
 70
     1
102
RTVSPropertyOp0
 70
     1
102
RTVSPropertyOp1
 70
     1
102
RTVSPropertyOp2
 70
     1
102
RTVSPropertyOp3
 70
     1
102
RTVSPropertyOp4
 70
     1
102
RTVSPropertyOp5
 70
     1
102
RTVSPropertyOp6
 70
     1
102
RTVSPropertyOp7
 70
     1
102
RTVSPropertyOp8
 70
     1
102
RTVSPropertyOp9
 70
     1
102
RTVSPropertyOp10
 70
     1
102
RTVSPropertyOp11
 70
     1
102
RTVSPropertyOp12
 70
     1
102
RTVSPropertyOp13
 70
     1
102
RTVSPropertyOp14
 70
     1
102
RTVSPropertyOp15
 70
     1
102
RTVSPropertyOp16
 70
     1
102
RTVSPropertyOp17
 70
     1
102
RTVSPropertyOp18
 70
     1
102
RTVSPropertyOp19
 70
     1
102
RTVSPropertyOp20
 70
     1
102
RTVSPropertyOp21
 70
     1
102
RTVSPropertyOp22
 70
     1
102
RTVSPropertyOp23
 70
     1
102
RTVSPropertyOp24
 70
     1
102
RTVSPropertyOp25
 70
     1
102
RTVSPropertyOp26
 70
     1
102
RTVSPropertyOp27
 70
     1
102
RTVSPropertyOp28
 70
     1
102
RTVSPropertyOp29
 70
     1
102
RTVSPropertyOp30
 70
     1
102
RTVSPropertyOp31
 70
     1
102
RTVSPropertyOp32
 70
     1
102
RTVSPropertyOp33
 70
     1
102
RTVSPropertyOp34
 70
     1
102
RTVSPropertyOp35
 70
     1
102
RTVSPropertyOp36
 70
     1
102
RTVSPropertyOp37
 70
     1
102
RTVSPropertyOp38
 70
     1
102
RTVSPropertyOp39
 70
     1
102
RTVSPropertyOp40
 70
     1
102
RTVSPropertyOp41
 70
     1
102
RTVSPropertyOp42
 70
     1
102
RTVSPropertyOp43
 70
     1
102
RTVSPropertyOp44
 70
     1
102
RTVSPropertyOp45
 70
     1
102
RTVSPropertyOp46
 70
     1
102
RTVSPropertyOp47
 70
     1
102
RTVSPropertyOp48
 70
     1
102
RTVSPropertyOp49
 70
     1
102
RTVSPropertyOp50
 70
     1
102
RTVSPropertyOp51
 70
     0
102
RTVSPropertyOp52
 70
     0
102
RTVSPropertyOp53
 70
     1
102
RTVSPropertyOp54
 70
     1
102
RTVSPropertyOp55
 70
     1
102
RTVSPropertyOp56
 70
     1
102
RTVSPropertyOp57
 70
     1
102
RTVSPropertyOp58
 70
     1
102
RTVSPropertyOp59
 70
     1
102
RTVSPropertyOp60
 70
     1
102
RTVSPropertyOp61
 70
     1
102
RTVSPropertyOp62
 70
     1
  0
XRECORD
  5
3B7
102
{ACAD_REACTORS
330
3B6
102
}
330
3B6
100
AcDbXrecord
280
     1
102
RTVSPost2010Prop28
280
     0
102
RTVSPost2010PropOp28
 70
     0
102
RTVSPost2010Prop29
280
     1
102
RTVSPost2010PropOp29
 70
     0
102
RTVSPost2010Prop30
280
     1
102
RTVSPost2010PropOp30
 70
     0
102
RTVSPost2010Prop31
280
     0
102
RTVSPost2010PropOp31
 70
     0
102
RTVSPost2010Prop32
280
     0
102
RTVSPost2010PropOp32
 70
     0
102
RTVSPost2010Prop33
280
     0
102
RTVSPost2010PropOp33
 70
     0
102
RTVSPost2010Prop34
280
     0
102
RTVSPost2010PropOp34
 70
     0
102
RTVSPost2010Prop35
280
     0
102
RTVSPost2010PropOp35
 70
     0
102
RTVSPost2010Prop36
280
     0
102
RTVSPost2010PropOp36
 70
     0
102
RTVSPost2010Prop37
 90
       50
102
RTVSPost2010PropOp37
 70
     0
102
RTVSPost2010Prop38
140
0.0
102
RTVSPost2010PropOp38
 70
     0
102
RTVSPost2010Prop39
140
1.0
102
RTVSPost2010PropOp39
 70
     0
102
RTVSPost2010Prop40
 90
        0
102
RTVSPost2010PropOp40
 70
     0
102
RTVSPost2010Prop41ColorIndex
 90
       18
102
RTVSPost2010Prop41ColorRGB
 90
        0
102
RTVSPost2010PropOp41
 70
     0
102
RTVSPost2010Prop42
 90
       50
102
RTVSPost2010PropOp42
 70
     0
102
RTVSPost2010Prop43
 90
        3
102
RTVSPost2010PropOp43
 70
     0
102
RTVSPost2010Prop44ColorIndex
 90
        5
102
RTVSPost2010Prop44ColorRGB
 90
      255
102
RTVSPost2010PropOp44
 70
     0
102
RTVSPost2010Prop45
280
     0
102
RTVSPost2010PropOp45
 70
     0
102
RTVSPost2010Prop46
 90
       50
102
RTVSPost2010PropOp46
 70
     0
102
RTVSPost2010Prop47
 90
       50
102
RTVSPost2010PropOp47
 70
     0
102
RTVSPost2010Prop48
 90
       50
102
RTVSPost2010PropOp48
 70
     0
102
RTVSPost2010Prop49
280
     0
102
RTVSPost2010PropOp49
 70
     0
102
RTVSPost2010Prop50
 90
       50
102
RTVSPost2010PropOp50
 70
     0
102
RTVSPost2010Prop51ColorIndex
 90
      256
102
RTVSPost2010Prop51ColorRGB
 90
-16777216
102
RTVSPost2010PropOp51
 70
     0
102
RTVSPost2010Prop52
140
1.0
102
RTVSPost2010PropOp52
 70
     0
102
RTVSPost2010Prop53
 90
        2
102
RTVSPost2010PropOp53
 70
     0
102
RTVSPost2010Prop54
  1
strokes_ogs.tif
102
RTVSPost2010PropOp54
 70
     0
102
RTVSPost2010Prop55
280
     0
102
RTVSPost2010PropOp55
 70
     0
102
RTVSPost2010Prop56
140
1.0
102
RTVSPost2010PropOp56
 70
     0
102
RTVSPost2010Prop57
140
1.0
102
RTVSPost2010PropOp57
 70
     0
102
RTVSPropertyOp0
 70
     0
102
RTVSPropertyOp1
 70
     0
102
RTVSPropertyOp2
 70
     0
102
RTVSPropertyOp3
 70
     0
102
RTVSPropertyOp4
 70
     0
102
RTVSPropertyOp5
 70
     0
102
RTVSPropertyOp6
 70
     0
102
RTVSPropertyOp7
 70
     0
102
RTVSPropertyOp8
 70
     0
102
RTVSPropertyOp9
 70
     0
102
RTVSPropertyOp10
 70
     0
102
RTVSPropertyOp11
 70
     0
102
RTVSPropertyOp12
 70
     0
102
RTVSPropertyOp13
 70
     0
102
RTVSPropertyOp14
 70
     2
102
RTVSPropertyOp15
 70
     0
102
RTVSPropertyOp16
 70
     0
102
RTVSPropertyOp17
 70
     0
102
RTVSPropertyOp18
 70
     0
102
RTVSPropertyOp19
 70
     0
102
RTVSPropertyOp20
 70
     0
102
RTVSPropertyOp21
 70
     0
102
RTVSPropertyOp22
 70
     0
102
RTVSPropertyOp23
 70
     0
102
RTVSPropertyOp24
 70
     0
102
RTVSPropertyOp25
 70
     0
102
RTVSPropertyOp26
 70
     0
102
RTVSPropertyOp27
 70
     0
102
RTVSPropertyOp28
 70
     0
102
RTVSPropertyOp29
 70
     0
102
RTVSPropertyOp30
 70
     0
102
RTVSPropertyOp31
 70
     0
102
RTVSPropertyOp32
 70
     0
102
RTVSPropertyOp33
 70
     0
102
RTVSPropertyOp34
 70
     0
102
RTVSPropertyOp35
 70
     0
102
RTVSPropertyOp36
 70
     0
102
RTVSPropertyOp37
 70
     0
102
RTVSPropertyOp38
 70
     0
102
RTVSPropertyOp39
 70
     0
102
RTVSPropertyOp40
 70
     0
102
RTVSPropertyOp41
 70
     0
102
RTVSPropertyOp42
 70
     0
102
RTVSPropertyOp43
 70
     0
102
RTVSPropertyOp44
 70
     0
102
RTVSPropertyOp45
 70
     0
102
RTVSPropertyOp46
 70
     0
102
RTVSPropertyOp47
 70
     0
102
RTVSPropertyOp48
 70
     0
102
RTVSPropertyOp49
 70
     0
102
RTVSPropertyOp50
 70
     0
102
RTVSPropertyOp51
 70
     0
102
RTVSPropertyOp52
 70
     0
102
RTVSPropertyOp53
 70
     0
102
RTVSPropertyOp54
 70
     0
102
RTVSPropertyOp55
 70
     0
102
RTVSPropertyOp56
 70
     0
102
RTVSPropertyOp57
 70
     0
102
RTVSPropertyOp58
 70
     1
102
RTVSPropertyOp59
 70
     1
102
RTVSPropertyOp60
 70
     1
102
RTVSPropertyOp61
 70
     1
102
RTVSPropertyOp62
 70
     1
  0
XRECORD
  5
3A5
102
{ACAD_REACTORS
330
3A4
102
}
330
3A4
100
AcDbXrecord
280
     1
102
RTVSPost2010Prop28
280
     0
102
RTVSPost2010PropOp28
 70
     1
102
RTVSPost2010Prop29
280
     1
102
RTVSPost2010PropOp29
 70
     1
102
RTVSPost2010Prop30
280
     1
102
RTVSPost2010PropOp30
 70
     1
102
RTVSPost2010Prop31
280
     0
102
RTVSPost2010PropOp31
 70
     1
102
RTVSPost2010Prop32
280
     0
102
RTVSPost2010PropOp32
 70
     1
102
RTVSPost2010Prop33
280
     0
102
RTVSPost2010PropOp33
 70
     1
102
RTVSPost2010Prop34
280
     0
102
RTVSPost2010PropOp34
 70
     1
102
RTVSPost2010Prop35
280
     0
102
RTVSPost2010PropOp35
 70
     1
102
RTVSPost2010Prop36
280
     0
102
RTVSPost2010PropOp36
 70
     1
102
RTVSPost2010Prop37
 90
       50
102
RTVSPost2010PropOp37
 70
     1
102
RTVSPost2010Prop38
140
0.0
102
RTVSPost2010PropOp38
 70
     1
102
RTVSPost2010Prop39
140
1.0
102
RTVSPost2010PropOp39
 70
     1
102
RTVSPost2010Prop40
 90
        0
102
RTVSPost2010PropOp40
 70
     1
102
RTVSPost2010Prop41ColorIndex
 90
       18
102
RTVSPost2010Prop41ColorRGB
 90
        0
102
RTVSPost2010PropOp41
 70
     1
102
RTVSPost2010Prop42
 90
       50
102
RTVSPost2010PropOp42
 70
     1
102
RTVSPost2010Prop43
 90
        3
102
RTVSPost2010PropOp43
 70
     1
102
RTVSPost2010Prop44ColorIndex
 90
        5
102
RTVSPost2010Prop44ColorRGB
 90
      255
102
RTVSPost2010PropOp44
 70
     1
102
RTVSPost2010Prop45
280
     0
102
RTVSPost2010PropOp45
 70
     1
102
RTVSPost2010Prop46
 90
       50
102
RTVSPost2010PropOp46
 70
     1
102
RTVSPost2010Prop47
 90
       50
102
RTVSPost2010PropOp47
 70
     1
102
RTVSPost2010Prop48
 90
       50
102
RTVSPost2010PropOp48
 70
     1
102
RTVSPost2010Prop49
280
     0
102
RTVSPost2010PropOp49
 70
     1
102
RTVSPost2010Prop50
 90
       50
102
RTVSPost2010PropOp50
 70
     1
102
RTVSPost2010Prop51ColorIndex
 90
      256
102
RTVSPost2010Prop51ColorRGB
 90
-16777216
102
RTVSPost2010PropOp51
 70
     0
102
RTVSPost2010Prop52
140
1.0
102
RTVSPost2010PropOp52
 70
     0
102
RTVSPost2010Prop53
 90
        2
102
RTVSPost2010PropOp53
 70
     1
102
RTVSPost2010Prop54
  1
strokes_ogs.tif
102
RTVSPost2010PropOp54
 70
     1
102
RTVSPost2010Prop55
280
     0
102
RTVSPost2010PropOp55
 70
     1
102
RTVSPost2010Prop56
140
1.0
102
RTVSPost2010PropOp56
 70
     1
102
RTVSPost2010Prop57
140
1.0
102
RTVSPost2010PropOp57
 70
     1
102
RTVSPropertyOp0
 70
     1
102
RTVSPropertyOp1
 70
     1
102
RTVSPropertyOp2
 70
     1
102
RTVSPropertyOp3
 70
     1
102
RTVSPropertyOp4
 70
     1
102
RTVSPropertyOp5
 70
     1
102
RTVSPropertyOp6
 70
     1
102
RTVSPropertyOp7
 70
     1
102
RTVSPropertyOp8
 70
     1
102
RTVSPropertyOp9
 70
     1
102
RTVSPropertyOp10
 70
     1
102
RTVSPropertyOp11
 70
     1
102
RTVSPropertyOp12
 70
     1
102
RTVSPropertyOp13
 70
     1
102
RTVSPropertyOp14
 70
     1
102
RTVSPropertyOp15
 70
     1
102
RTVSPropertyOp16
 70
     1
102
RTVSPropertyOp17
 70
     1
102
RTVSPropertyOp18
 70
     1
102
RTVSPropertyOp19
 70
     1
102
RTVSPropertyOp20
 70
     1
102
RTVSPropertyOp21
 70
     1
102
RTVSPropertyOp22
 70
     1
102
RTVSPropertyOp23
 70
     1
102
RTVSPropertyOp24
 70
     1
102
RTVSPropertyOp25
 70
     1
102
RTVSPropertyOp26
 70
     1
102
RTVSPropertyOp27
 70
     1
102
RTVSPropertyOp28
 70
     1
102
RTVSPropertyOp29
 70
     1
102
RTVSPropertyOp30
 70
     1
102
RTVSPropertyOp31
 70
     1
102
RTVSPropertyOp32
 70
     1
102
RTVSPropertyOp33
 70
     1
102
RTVSPropertyOp34
 70
     1
102
RTVSPropertyOp35
 70
     1
102
RTVSPropertyOp36
 70
     1
102
RTVSPropertyOp37
 70
     1
102
RTVSPropertyOp38
 70
     1
102
RTVSPropertyOp39
 70
     1
102
RTVSPropertyOp40
 70
     1
102
RTVSPropertyOp41
 70
     1
102
RTVSPropertyOp42
 70
     1
102
RTVSPropertyOp43
 70
     1
102
RTVSPropertyOp44
 70
     1
102
RTVSPropertyOp45
 70
     1
102
RTVSPropertyOp46
 70
     1
102
RTVSPropertyOp47
 70
     1
102
RTVSPropertyOp48
 70
     1
102
RTVSPropertyOp49
 70
     1
102
RTVSPropertyOp50
 70
     1
102
RTVSPropertyOp51
 70
     0
102
RTVSPropertyOp52
 70
     0
102
RTVSPropertyOp53
 70
     1
102
RTVSPropertyOp54
 70
     1
102
RTVSPropertyOp55
 70
     1
102
RTVSPropertyOp56
 70
     1
102
RTVSPropertyOp57
 70
     1
102
RTVSPropertyOp58
 70
     1
102
RTVSPropertyOp59
 70
     1
102
RTVSPropertyOp60
 70
     1
102
RTVSPropertyOp61
 70
     1
102
RTVSPropertyOp62
 70
     1
  0
XRECORD
  5
3C3
102
{ACAD_REACTORS
330
3C2
102
}
330
3C2
100
AcDbXrecord
280
     1
102
RTVSPost2010Prop28
280
     0
102
RTVSPost2010PropOp28
 70
     1
102
RTVSPost2010Prop29
280
     1
102
RTVSPost2010PropOp29
 70
     1
102
RTVSPost2010Prop30
280
     1
102
RTVSPost2010PropOp30
 70
     1
102
RTVSPost2010Prop31
280
     0
102
RTVSPost2010PropOp31
 70
     1
102
RTVSPost2010Prop32
280
     0
102
RTVSPost2010PropOp32
 70
     1
102
RTVSPost2010Prop33
280
     0
102
RTVSPost2010PropOp33
 70
     1
102
RTVSPost2010Prop34
280
     0
102
RTVSPost2010PropOp34
 70
     1
102
RTVSPost2010Prop35
280
     0
102
RTVSPost2010PropOp35
 70
     1
102
RTVSPost2010Prop36
280
     0
102
RTVSPost2010PropOp36
 70
     1
102
RTVSPost2010Prop37
 90
       50
102
RTVSPost2010PropOp37
 70
     1
102
RTVSPost2010Prop38
140
0.0
102
RTVSPost2010PropOp38
 70
     1
102
RTVSPost2010Prop39
140
1.0
102
RTVSPost2010PropOp39
 70
     1
102
RTVSPost2010Prop40
 90
        0
102
RTVSPost2010PropOp40
 70
     1
102
RTVSPost2010Prop41ColorIndex
 90
       18
102
RTVSPost2010Prop41ColorRGB
 90
        0
102
RTVSPost2010PropOp41
 70
     1
102
RTVSPost2010Prop42
 90
       50
102
RTVSPost2010PropOp42
 70
     1
102
RTVSPost2010Prop43
 90
        3
102
RTVSPost2010PropOp43
 70
     1
102
RTVSPost2010Prop44ColorIndex
 90
        5
102
RTVSPost2010Prop44ColorRGB
 90
      255
102
RTVSPost2010PropOp44
 70
     1
102
RTVSPost2010Prop45
280
     0
102
RTVSPost2010PropOp45
 70
     1
102
RTVSPost2010Prop46
 90
       50
102
RTVSPost2010PropOp46
 70
     1
102
RTVSPost2010Prop47
 90
       50
102
RTVSPost2010PropOp47
 70
     1
102
RTVSPost2010Prop48
 90
       50
102
RTVSPost2010PropOp48
 70
     1
102
RTVSPost2010Prop49
280
     0
102
RTVSPost2010PropOp49
 70
     1
102
RTVSPost2010Prop50
 90
       50
102
RTVSPost2010PropOp50
 70
     1
102
RTVSPost2010Prop51ColorIndex
 90
      256
102
RTVSPost2010Prop51ColorRGB
 90
-16777216
102
RTVSPost2010PropOp51
 70
     0
102
RTVSPost2010Prop52
140
1.0
102
RTVSPost2010PropOp52
 70
     0
102
RTVSPost2010Prop53
 90
        2
102
RTVSPost2010PropOp53
 70
     1
102
RTVSPost2010Prop54
  1
strokes_ogs.tif
102
RTVSPost2010PropOp54
 70
     1
102
RTVSPost2010Prop55
280
     0
102
RTVSPost2010PropOp55
 70
     1
102
RTVSPost2010Prop56
140
1.0
102
RTVSPost2010PropOp56
 70
     1
102
RTVSPost2010Prop57
140
1.0
102
RTVSPost2010PropOp57
 70
     1
102
RTVSPropertyOp0
 70
     1
102
RTVSPropertyOp1
 70
     1
102
RTVSPropertyOp2
 70
     1
102
RTVSPropertyOp3
 70
     1
102
RTVSPropertyOp4
 70
     1
102
RTVSPropertyOp5
 70
     1
102
RTVSPropertyOp6
 70
     1
102
RTVSPropertyOp7
 70
     1
102
RTVSPropertyOp8
 70
     1
102
RTVSPropertyOp9
 70
     1
102
RTVSPropertyOp10
 70
     1
102
RTVSPropertyOp11
 70
     1
102
RTVSPropertyOp12
 70
     1
102
RTVSPropertyOp13
 70
     1
102
RTVSPropertyOp14
 70
     1
102
RTVSPropertyOp15
 70
     1
102
RTVSPropertyOp16
 70
     1
102
RTVSPropertyOp17
 70
     1
102
RTVSPropertyOp18
 70
     1
102
RTVSPropertyOp19
 70
     1
102
RTVSPropertyOp20
 70
     1
102
RTVSPropertyOp21
 70
     1
102
RTVSPropertyOp22
 70
     1
102
RTVSPropertyOp23
 70
     1
102
RTVSPropertyOp24
 70
     1
102
RTVSPropertyOp25
 70
     1
102
RTVSPropertyOp26
 70
     1
102
RTVSPropertyOp27
 70
     1
102
RTVSPropertyOp28
 70
     1
102
RTVSPropertyOp29
 70
     1
102
RTVSPropertyOp30
 70
     1
102
RTVSPropertyOp31
 70
     1
102
RTVSPropertyOp32
 70
     1
102
RTVSPropertyOp33
 70
     1
102
RTVSPropertyOp34
 70
     1
102
RTVSPropertyOp35
 70
     1
102
RTVSPropertyOp36
 70
     1
102
RTVSPropertyOp37
 70
     1
102
RTVSPropertyOp38
 70
     1
102
RTVSPropertyOp39
 70
     1
102
RTVSPropertyOp40
 70
     1
102
RTVSPropertyOp41
 70
     1
102
RTVSPropertyOp42
 70
     1
102
RTVSPropertyOp43
 70
     1
102
RTVSPropertyOp44
 70
     1
102
RTVSPropertyOp45
 70
     1
102
RTVSPropertyOp46
 70
     1
102
RTVSPropertyOp47
 70
     1
102
RTVSPropertyOp48
 70
     1
102
RTVSPropertyOp49
 70
     1
102
RTVSPropertyOp50
 70
     1
102
RTVSPropertyOp51
 70
     0
102
RTVSPropertyOp52
 70
     0
102
RTVSPropertyOp53
 70
     1
102
RTVSPropertyOp54
 70
     1
102
RTVSPropertyOp55
 70
     1
102
RTVSPropertyOp56
 70
     1
102
RTVSPropertyOp57
 70
     1
102
RTVSPropertyOp58
 70
     1
102
RTVSPropertyOp59
 70
     1
102
RTVSPropertyOp60
 70
     1
102
RTVSPropertyOp61
 70
     1
102
RTVSPropertyOp62
 70
     1
  0
XRECORD
  5
3C1
102
{ACAD_REACTORS
330
3C0
102
}
330
3C0
100
AcDbXrecord
280
     1
102
RTVSPost2010Prop28
280
     0
102
RTVSPost2010PropOp28
 70
     1
102
RTVSPost2010Prop29
280
     1
102
RTVSPost2010PropOp29
 70
     1
102
RTVSPost2010Prop30
280
     1
102
RTVSPost2010PropOp30
 70
     1
102
RTVSPost2010Prop31
280
     0
102
RTVSPost2010PropOp31
 70
     1
102
RTVSPost2010Prop32
280
     0
102
RTVSPost2010PropOp32
 70
     1
102
RTVSPost2010Prop33
280
     0
102
RTVSPost2010PropOp33
 70
     1
102
RTVSPost2010Prop34
280
     0
102
RTVSPost2010PropOp34
 70
     1
102
RTVSPost2010Prop35
280
     0
102
RTVSPost2010PropOp35
 70
     1
102
RTVSPost2010Prop36
280
     0
102
RTVSPost2010PropOp36
 70
     1
102
RTVSPost2010Prop37
 90
       50
102
RTVSPost2010PropOp37
 70
     1
102
RTVSPost2010Prop38
140
0.0
102
RTVSPost2010PropOp38
 70
     1
102
RTVSPost2010Prop39
140
1.0
102
RTVSPost2010PropOp39
 70
     1
102
RTVSPost2010Prop40
 90
        0
102
RTVSPost2010PropOp40
 70
     1
102
RTVSPost2010Prop41ColorIndex
 90
       18
102
RTVSPost2010Prop41ColorRGB
 90
        0
102
RTVSPost2010PropOp41
 70
     1
102
RTVSPost2010Prop42
 90
       50
102
RTVSPost2010PropOp42
 70
     1
102
RTVSPost2010Prop43
 90
        3
102
RTVSPost2010PropOp43
 70
     1
102
RTVSPost2010Prop44ColorIndex
 90
        5
102
RTVSPost2010Prop44ColorRGB
 90
      255
102
RTVSPost2010PropOp44
 70
     1
102
RTVSPost2010Prop45
280
     0
102
RTVSPost2010PropOp45
 70
     1
102
RTVSPost2010Prop46
 90
       50
102
RTVSPost2010PropOp46
 70
     1
102
RTVSPost2010Prop47
 90
       50
102
RTVSPost2010PropOp47
 70
     1
102
RTVSPost2010Prop48
 90
       50
102
RTVSPost2010PropOp48
 70
     1
102
RTVSPost2010Prop49
280
     0
102
RTVSPost2010PropOp49
 70
     1
102
RTVSPost2010Prop50
 90
       50
102
RTVSPost2010PropOp50
 70
     1
102
RTVSPost2010Prop51ColorIndex
 90
      256
102
RTVSPost2010Prop51ColorRGB
 90
-16777216
102
RTVSPost2010PropOp51
 70
     0
102
RTVSPost2010Prop52
140
1.0
102
RTVSPost2010PropOp52
 70
     0
102
RTVSPost2010Prop53
 90
        2
102
RTVSPost2010PropOp53
 70
     1
102
RTVSPost2010Prop54
  1
strokes_ogs.tif
102
RTVSPost2010PropOp54
 70
     1
102
RTVSPost2010Prop55
280
     0
102
RTVSPost2010PropOp55
 70
     1
102
RTVSPost2010Prop56
140
1.0
102
RTVSPost2010PropOp56
 70
     1
102
RTVSPost2010Prop57
140
1.0
102
RTVSPost2010PropOp57
 70
     1
102
RTVSPropertyOp0
 70
     1
102
RTVSPropertyOp1
 70
     1
102
RTVSPropertyOp2
 70
     1
102
RTVSPropertyOp3
 70
     1
102
RTVSPropertyOp4
 70
     1
102
RTVSPropertyOp5
 70
     1
102
RTVSPropertyOp6
 70
     1
102
RTVSPropertyOp7
 70
     1
102
RTVSPropertyOp8
 70
     1
102
RTVSPropertyOp9
 70
     1
102
RTVSPropertyOp10
 70
     1
102
RTVSPropertyOp11
 70
     1
102
RTVSPropertyOp12
 70
     1
102
RTVSPropertyOp13
 70
     1
102
RTVSPropertyOp14
 70
     1
102
RTVSPropertyOp15
 70
     1
102
RTVSPropertyOp16
 70
     1
102
RTVSPropertyOp17
 70
     1
102
RTVSPropertyOp18
 70
     1
102
RTVSPropertyOp19
 70
     1
102
RTVSPropertyOp20
 70
     1
102
RTVSPropertyOp21
 70
     1
102
RTVSPropertyOp22
 70
     1
102
RTVSPropertyOp23
 70
     1
102
RTVSPropertyOp24
 70
     1
102
RTVSPropertyOp25
 70
     1
102
RTVSPropertyOp26
 70
     1
102
RTVSPropertyOp27
 70
     1
102
RTVSPropertyOp28
 70
     1
102
RTVSPropertyOp29
 70
     1
102
RTVSPropertyOp30
 70
     1
102
RTVSPropertyOp31
 70
     1
102
RTVSPropertyOp32
 70
     1
102
RTVSPropertyOp33
 70
     1
102
RTVSPropertyOp34
 70
     1
102
RTVSPropertyOp35
 70
     1
102
RTVSPropertyOp36
 70
     1
102
RTVSPropertyOp37
 70
     1
102
RTVSPropertyOp38
 70
     1
102
RTVSPropertyOp39
 70
     1
102
RTVSPropertyOp40
 70
     1
102
RTVSPropertyOp41
 70
     1
102
RTVSPropertyOp42
 70
     1
102
RTVSPropertyOp43
 70
     1
102
RTVSPropertyOp44
 70
     1
102
RTVSPropertyOp45
 70
     1
102
RTVSPropertyOp46
 70
     1
102
RTVSPropertyOp47
 70
     1
102
RTVSPropertyOp48
 70
     1
102
RTVSPropertyOp49
 70
     1
102
RTVSPropertyOp50
 70
     1
102
RTVSPropertyOp51
 70
     0
102
RTVSPropertyOp52
 70
     0
102
RTVSPropertyOp53
 70
     1
102
RTVSPropertyOp54
 70
     1
102
RTVSPropertyOp55
 70
     1
102
RTVSPropertyOp56
 70
     1
102
RTVSPropertyOp57
 70
     1
102
RTVSPropertyOp58
 70
     1
102
RTVSPropertyOp59
 70
     1
102
RTVSPropertyOp60
 70
     1
102
RTVSPropertyOp61
 70
     1
102
RTVSPropertyOp62
 70
     1
  0
XRECORD
  5
3BB
102
{ACAD_REACTORS
330
3BA
102
}
330
3BA
100
AcDbXrecord
280
     1
102
RTVSPost2010Prop28
280
     0
102
RTVSPost2010PropOp28
 70
     1
102
RTVSPost2010Prop29
280
     1
102
RTVSPost2010PropOp29
 70
     1
102
RTVSPost2010Prop30
280
     1
102
RTVSPost2010PropOp30
 70
     1
102
RTVSPost2010Prop31
280
     0
102
RTVSPost2010PropOp31
 70
     1
102
RTVSPost2010Prop32
280
     0
102
RTVSPost2010PropOp32
 70
     1
102
RTVSPost2010Prop33
280
     0
102
RTVSPost2010PropOp33
 70
     1
102
RTVSPost2010Prop34
280
     0
102
RTVSPost2010PropOp34
 70
     1
102
RTVSPost2010Prop35
280
     0
102
RTVSPost2010PropOp35
 70
     1
102
RTVSPost2010Prop36
280
     0
102
RTVSPost2010PropOp36
 70
     1
102
RTVSPost2010Prop37
 90
       50
102
RTVSPost2010PropOp37
 70
     1
102
RTVSPost2010Prop38
140
0.0
102
RTVSPost2010PropOp38
 70
     1
102
RTVSPost2010Prop39
140
1.0
102
RTVSPost2010PropOp39
 70
     1
102
RTVSPost2010Prop40
 90
        0
102
RTVSPost2010PropOp40
 70
     1
102
RTVSPost2010Prop41ColorIndex
 90
       18
102
RTVSPost2010Prop41ColorRGB
 90
        0
102
RTVSPost2010PropOp41
 70
     1
102
RTVSPost2010Prop42
 90
       50
102
RTVSPost2010PropOp42
 70
     1
102
RTVSPost2010Prop43
 90
        3
102
RTVSPost2010PropOp43
 70
     1
102
RTVSPost2010Prop44ColorIndex
 90
        5
102
RTVSPost2010Prop44ColorRGB
 90
      255
102
RTVSPost2010PropOp44
 70
     1
102
RTVSPost2010Prop45
280
     0
102
RTVSPost2010PropOp45
 70
     1
102
RTVSPost2010Prop46
 90
       50
102
RTVSPost2010PropOp46
 70
     1
102
RTVSPost2010Prop47
 90
       50
102
RTVSPost2010PropOp47
 70
     1
102
RTVSPost2010Prop48
 90
       50
102
RTVSPost2010PropOp48
 70
     1
102
RTVSPost2010Prop49
280
     0
102
RTVSPost2010PropOp49
 70
     1
102
RTVSPost2010Prop50
 90
       50
102
RTVSPost2010PropOp50
 70
     1
102
RTVSPost2010Prop51ColorIndex
 90
      256
102
RTVSPost2010Prop51ColorRGB
 90
-16777216
102
RTVSPost2010PropOp51
 70
     0
102
RTVSPost2010Prop52
140
1.0
102
RTVSPost2010PropOp52
 70
     0
102
RTVSPost2010Prop53
 90
        2
102
RTVSPost2010PropOp53
 70
     1
102
RTVSPost2010Prop54
  1
strokes_ogs.tif
102
RTVSPost2010PropOp54
 70
     1
102
RTVSPost2010Prop55
280
     0
102
RTVSPost2010PropOp55
 70
     1
102
RTVSPost2010Prop56
140
1.0
102
RTVSPost2010PropOp56
 70
     1
102
RTVSPost2010Prop57
140
1.0
102
RTVSPost2010PropOp57
 70
     1
102
RTVSPropertyOp0
 70
     1
102
RTVSPropertyOp1
 70
     1
102
RTVSPropertyOp2
 70
     1
102
RTVSPropertyOp3
 70
     1
102
RTVSPropertyOp4
 70
     1
102
RTVSPropertyOp5
 70
     1
102
RTVSPropertyOp6
 70
     1
102
RTVSPropertyOp7
 70
     1
102
RTVSPropertyOp8
 70
     1
102
RTVSPropertyOp9
 70
     1
102
RTVSPropertyOp10
 70
     1
102
RTVSPropertyOp11
 70
     1
102
RTVSPropertyOp12
 70
     1
102
RTVSPropertyOp13
 70
     1
102
RTVSPropertyOp14
 70
     1
102
RTVSPropertyOp15
 70
     1
102
RTVSPropertyOp16
 70
     1
102
RTVSPropertyOp17
 70
     1
102
RTVSPropertyOp18
 70
     1
102
RTVSPropertyOp19
 70
     1
102
RTVSPropertyOp20
 70
     1
102
RTVSPropertyOp21
 70
     1
102
RTVSPropertyOp22
 70
     1
102
RTVSPropertyOp23
 70
     1
102
RTVSPropertyOp24
 70
     1
102
RTVSPropertyOp25
 70
     1
102
RTVSPropertyOp26
 70
     1
102
RTVSPropertyOp27
 70
     1
102
RTVSPropertyOp28
 70
     1
102
RTVSPropertyOp29
 70
     1
102
RTVSPropertyOp30
 70
     1
102
RTVSPropertyOp31
 70
     1
102
RTVSPropertyOp32
 70
     1
102
RTVSPropertyOp33
 70
     1
102
RTVSPropertyOp34
 70
     1
102
RTVSPropertyOp35
 70
     1
102
RTVSPropertyOp36
 70
     1
102
RTVSPropertyOp37
 70
     1
102
RTVSPropertyOp38
 70
     1
102
RTVSPropertyOp39
 70
     1
102
RTVSPropertyOp40
 70
     1
102
RTVSPropertyOp41
 70
     1
102
RTVSPropertyOp42
 70
     1
102
RTVSPropertyOp43
 70
     1
102
RTVSPropertyOp44
 70
     1
102
RTVSPropertyOp45
 70
     1
102
RTVSPropertyOp46
 70
     1
102
RTVSPropertyOp47
 70
     1
102
RTVSPropertyOp48
 70
     1
102
RTVSPropertyOp49
 70
     1
102
RTVSPropertyOp50
 70
     1
102
RTVSPropertyOp51
 70
     0
102
RTVSPropertyOp52
 70
     0
102
RTVSPropertyOp53
 70
     1
102
RTVSPropertyOp54
 70
     1
102
RTVSPropertyOp55
 70
     1
102
RTVSPropertyOp56
 70
     1
102
RTVSPropertyOp57
 70
     1
102
RTVSPropertyOp58
 70
     1
102
RTVSPropertyOp59
 70
     1
102
RTVSPropertyOp60
 70
     1
102
RTVSPropertyOp61
 70
     1
102
RTVSPropertyOp62
 70
     1
  0
XRECORD
  5
3BD
102
{ACAD_REACTORS
330
3BC
102
}
330
3BC
100
AcDbXrecord
280
     1
102
RTVSPost2010Prop28
280
     0
102
RTVSPost2010PropOp28
 70
     1
102
RTVSPost2010Prop29
280
     1
102
RTVSPost2010PropOp29
 70
     1
102
RTVSPost2010Prop30
280
     1
102
RTVSPost2010PropOp30
 70
     1
102
RTVSPost2010Prop31
280
     0
102
RTVSPost2010PropOp31
 70
     1
102
RTVSPost2010Prop32
280
     0
102
RTVSPost2010PropOp32
 70
     1
102
RTVSPost2010Prop33
280
     0
102
RTVSPost2010PropOp33
 70
     1
102
RTVSPost2010Prop34
280
     0
102
RTVSPost2010PropOp34
 70
     1
102
RTVSPost2010Prop35
280
     0
102
RTVSPost2010PropOp35
 70
     1
102
RTVSPost2010Prop36
280
     0
102
RTVSPost2010PropOp36
 70
     1
102
RTVSPost2010Prop37
 90
       50
102
RTVSPost2010PropOp37
 70
     1
102
RTVSPost2010Prop38
140
0.0
102
RTVSPost2010PropOp38
 70
     1
102
RTVSPost2010Prop39
140
1.0
102
RTVSPost2010PropOp39
 70
     1
102
RTVSPost2010Prop40
 90
        0
102
RTVSPost2010PropOp40
 70
     1
102
RTVSPost2010Prop41ColorIndex
 90
       18
102
RTVSPost2010Prop41ColorRGB
 90
        0
102
RTVSPost2010PropOp41
 70
     1
102
RTVSPost2010Prop42
 90
       50
102
RTVSPost2010PropOp42
 70
     1
102
RTVSPost2010Prop43
 90
        3
102
RTVSPost2010PropOp43
 70
     1
102
RTVSPost2010Prop44ColorIndex
 90
        5
102
RTVSPost2010Prop44ColorRGB
 90
      255
102
RTVSPost2010PropOp44
 70
     1
102
RTVSPost2010Prop45
280
     0
102
RTVSPost2010PropOp45
 70
     1
102
RTVSPost2010Prop46
 90
       50
102
RTVSPost2010PropOp46
 70
     1
102
RTVSPost2010Prop47
 90
       50
102
RTVSPost2010PropOp47
 70
     1
102
RTVSPost2010Prop48
 90
       50
102
RTVSPost2010PropOp48
 70
     1
102
RTVSPost2010Prop49
280
     0
102
RTVSPost2010PropOp49
 70
     1
102
RTVSPost2010Prop50
 90
       50
102
RTVSPost2010PropOp50
 70
     1
102
RTVSPost2010Prop51ColorIndex
 90
      256
102
RTVSPost2010Prop51ColorRGB
 90
-16777216
102
RTVSPost2010PropOp51
 70
     0
102
RTVSPost2010Prop52
140
1.0
102
RTVSPost2010PropOp52
 70
     0
102
RTVSPost2010Prop53
 90
        2
102
RTVSPost2010PropOp53
 70
     1
102
RTVSPost2010Prop54
  1
strokes_ogs.tif
102
RTVSPost2010PropOp54
 70
     1
102
RTVSPost2010Prop55
280
     0
102
RTVSPost2010PropOp55
 70
     1
102
RTVSPost2010Prop56
140
1.0
102
RTVSPost2010PropOp56
 70
     1
102
RTVSPost2010Prop57
140
1.0
102
RTVSPost2010PropOp57
 70
     1
102
RTVSPropertyOp0
 70
     1
102
RTVSPropertyOp1
 70
     1
102
RTVSPropertyOp2
 70
     1
102
RTVSPropertyOp3
 70
     1
102
RTVSPropertyOp4
 70
     1
102
RTVSPropertyOp5
 70
     1
102
RTVSPropertyOp6
 70
     1
102
RTVSPropertyOp7
 70
     1
102
RTVSPropertyOp8
 70
     1
102
RTVSPropertyOp9
 70
     1
102
RTVSPropertyOp10
 70
     1
102
RTVSPropertyOp11
 70
     1
102
RTVSPropertyOp12
 70
     1
102
RTVSPropertyOp13
 70
     1
102
RTVSPropertyOp14
 70
     1
102
RTVSPropertyOp15
 70
     1
102
RTVSPropertyOp16
 70
     1
102
RTVSPropertyOp17
 70
     1
102
RTVSPropertyOp18
 70
     1
102
RTVSPropertyOp19
 70
     1
102
RTVSPropertyOp20
 70
     1
102
RTVSPropertyOp21
 70
     1
102
RTVSPropertyOp22
 70
     1
102
RTVSPropertyOp23
 70
     1
102
RTVSPropertyOp24
 70
     1
102
RTVSPropertyOp25
 70
     1
102
RTVSPropertyOp26
 70
     1
102
RTVSPropertyOp27
 70
     1
102
RTVSPropertyOp28
 70
     1
102
RTVSPropertyOp29
 70
     1
102
RTVSPropertyOp30
 70
     1
102
RTVSPropertyOp31
 70
     1
102
RTVSPropertyOp32
 70
     1
102
RTVSPropertyOp33
 70
     1
102
RTVSPropertyOp34
 70
     1
102
RTVSPropertyOp35
 70
     1
102
RTVSPropertyOp36
 70
     1
102
RTVSPropertyOp37
 70
     1
102
RTVSPropertyOp38
 70
     1
102
RTVSPropertyOp39
 70
     1
102
RTVSPropertyOp40
 70
     1
102
RTVSPropertyOp41
 70
     1
102
RTVSPropertyOp42
 70
     1
102
RTVSPropertyOp43
 70
     1
102
RTVSPropertyOp44
 70
     1
102
RTVSPropertyOp45
 70
     1
102
RTVSPropertyOp46
 70
     1
102
RTVSPropertyOp47
 70
     1
102
RTVSPropertyOp48
 70
     1
102
RTVSPropertyOp49
 70
     1
102
RTVSPropertyOp50
 70
     1
102
RTVSPropertyOp51
 70
     0
102
RTVSPropertyOp52
 70
     0
102
RTVSPropertyOp53
 70
     1
102
RTVSPropertyOp54
 70
     1
102
RTVSPropertyOp55
 70
     1
102
RTVSPropertyOp56
 70
     1
102
RTVSPropertyOp57
 70
     1
102
RTVSPropertyOp58
 70
     1
102
RTVSPropertyOp59
 70
     1
102
RTVSPropertyOp60
 70
     1
102
RTVSPropertyOp61
 70
     1
102
RTVSPropertyOp62
 70
     1
  0
XRECORD
  5
3AD
102
{ACAD_REACTORS
330
3AC
102
}
330
3AC
100
AcDbXrecord
280
     1
102
RTVSPost2010Prop28
280
     0
102
RTVSPost2010PropOp28
 70
     1
102
RTVSPost2010Prop29
280
     1
102
RTVSPost2010PropOp29
 70
     1
102
RTVSPost2010Prop30
280
     1
102
RTVSPost2010PropOp30
 70
     1
102
RTVSPost2010Prop31
280
     0
102
RTVSPost2010PropOp31
 70
     1
102
RTVSPost2010Prop32
280
     0
102
RTVSPost2010PropOp32
 70
     1
102
RTVSPost2010Prop33
280
     0
102
RTVSPost2010PropOp33
 70
     1
102
RTVSPost2010Prop34
280
     0
102
RTVSPost2010PropOp34
 70
     1
102
RTVSPost2010Prop35
280
     0
102
RTVSPost2010PropOp35
 70
     1
102
RTVSPost2010Prop36
280
     0
102
RTVSPost2010PropOp36
 70
     1
102
RTVSPost2010Prop37
 90
       50
102
RTVSPost2010PropOp37
 70
     1
102
RTVSPost2010Prop38
140
0.0
102
RTVSPost2010PropOp38
 70
     1
102
RTVSPost2010Prop39
140
1.0
102
RTVSPost2010PropOp39
 70
     1
102
RTVSPost2010Prop40
 90
        0
102
RTVSPost2010PropOp40
 70
     1
102
RTVSPost2010Prop41ColorIndex
 90
       18
102
RTVSPost2010Prop41ColorRGB
 90
        0
102
RTVSPost2010PropOp41
 70
     1
102
RTVSPost2010Prop42
 90
       50
102
RTVSPost2010PropOp42
 70
     1
102
RTVSPost2010Prop43
 90
        3
102
RTVSPost2010PropOp43
 70
     1
102
RTVSPost2010Prop44ColorIndex
 90
        5
102
RTVSPost2010Prop44ColorRGB
 90
      255
102
RTVSPost2010PropOp44
 70
     1
102
RTVSPost2010Prop45
280
     0
102
RTVSPost2010PropOp45
 70
     1
102
RTVSPost2010Prop46
 90
       50
102
RTVSPost2010PropOp46
 70
     1
102
RTVSPost2010Prop47
 90
       50
102
RTVSPost2010PropOp47
 70
     1
102
RTVSPost2010Prop48
 90
       50
102
RTVSPost2010PropOp48
 70
     1
102
RTVSPost2010Prop49
280
     0
102
RTVSPost2010PropOp49
 70
     1
102
RTVSPost2010Prop50
 90
       50
102
RTVSPost2010PropOp50
 70
     1
102
RTVSPost2010Prop51ColorIndex
 90
      256
102
RTVSPost2010Prop51ColorRGB
 90
-16777216
102
RTVSPost2010PropOp51
 70
     0
102
RTVSPost2010Prop52
140
1.0
102
RTVSPost2010PropOp52
 70
     0
102
RTVSPost2010Prop53
 90
        2
102
RTVSPost2010PropOp53
 70
     1
102
RTVSPost2010Prop54
  1
strokes_ogs.tif
102
RTVSPost2010PropOp54
 70
     1
102
RTVSPost2010Prop55
280
     0
102
RTVSPost2010PropOp55
 70
     1
102
RTVSPost2010Prop56
140
1.0
102
RTVSPost2010PropOp56
 70
     1
102
RTVSPost2010Prop57
140
1.0
102
RTVSPost2010PropOp57
 70
     1
102
RTVSPropertyOp0
 70
     1
102
RTVSPropertyOp1
 70
     1
102
RTVSPropertyOp2
 70
     1
102
RTVSPropertyOp3
 70
     1
102
RTVSPropertyOp4
 70
     1
102
RTVSPropertyOp5
 70
     1
102
RTVSPropertyOp6
 70
     1
102
RTVSPropertyOp7
 70
     1
102
RTVSPropertyOp8
 70
     1
102
RTVSPropertyOp9
 70
     1
102
RTVSPropertyOp10
 70
     1
102
RTVSPropertyOp11
 70
     1
102
RTVSPropertyOp12
 70
     1
102
RTVSPropertyOp13
 70
     1
102
RTVSPropertyOp14
 70
     1
102
RTVSPropertyOp15
 70
     1
102
RTVSPropertyOp16
 70
     1
102
RTVSPropertyOp17
 70
     1
102
RTVSPropertyOp18
 70
     1
102
RTVSPropertyOp19
 70
     1
102
RTVSPropertyOp20
 70
     1
102
RTVSPropertyOp21
 70
     1
102
RTVSPropertyOp22
 70
     1
102
RTVSPropertyOp23
 70
     1
102
RTVSPropertyOp24
 70
     1
102
RTVSPropertyOp25
 70
     1
102
RTVSPropertyOp26
 70
     1
102
RTVSPropertyOp27
 70
     1
102
RTVSPropertyOp28
 70
     1
102
RTVSPropertyOp29
 70
     1
102
RTVSPropertyOp30
 70
     1
102
RTVSPropertyOp31
 70
     1
102
RTVSPropertyOp32
 70
     1
102
RTVSPropertyOp33
 70
     1
102
RTVSPropertyOp34
 70
     1
102
RTVSPropertyOp35
 70
     1
102
RTVSPropertyOp36
 70
     1
102
RTVSPropertyOp37
 70
     1
102
RTVSPropertyOp38
 70
     1
102
RTVSPropertyOp39
 70
     1
102
RTVSPropertyOp40
 70
     1
102
RTVSPropertyOp41
 70
     1
102
RTVSPropertyOp42
 70
     1
102
RTVSPropertyOp43
 70
     1
102
RTVSPropertyOp44
 70
     1
102
RTVSPropertyOp45
 70
     1
102
RTVSPropertyOp46
 70
     1
102
RTVSPropertyOp47
 70
     1
102
RTVSPropertyOp48
 70
     1
102
RTVSPropertyOp49
 70
     1
102
RTVSPropertyOp50
 70
     1
102
RTVSPropertyOp51
 70
     0
102
RTVSPropertyOp52
 70
     0
102
RTVSPropertyOp53
 70
     1
102
RTVSPropertyOp54
 70
     1
102
RTVSPropertyOp55
 70
     1
102
RTVSPropertyOp56
 70
     1
102
RTVSPropertyOp57
 70
     1
102
RTVSPropertyOp58
 70
     1
102
RTVSPropertyOp59
 70
     1
102
RTVSPropertyOp60
 70
     1
102
RTVSPropertyOp61
 70
     1
102
RTVSPropertyOp62
 70
     1
  0
XRECORD
  5
39F
102
{ACAD_REACTORS
330
39E
102
}
330
39E
100
AcDbXrecord
280
     1
102
RTVSPost2010Prop28
280
     0
102
RTVSPost2010PropOp28
 70
     1
102
RTVSPost2010Prop29
280
     1
102
RTVSPost2010PropOp29
 70
     1
102
RTVSPost2010Prop30
280
     1
102
RTVSPost2010PropOp30
 70
     1
102
RTVSPost2010Prop31
280
     0
102
RTVSPost2010PropOp31
 70
     1
102
RTVSPost2010Prop32
280
     0
102
RTVSPost2010PropOp32
 70
     1
102
RTVSPost2010Prop33
280
     0
102
RTVSPost2010PropOp33
 70
     1
102
RTVSPost2010Prop34
280
     0
102
RTVSPost2010PropOp34
 70
     1
102
RTVSPost2010Prop35
280
     0
102
RTVSPost2010PropOp35
 70
     1
102
RTVSPost2010Prop36
280
     0
102
RTVSPost2010PropOp36
 70
     1
102
RTVSPost2010Prop37
 90
       50
102
RTVSPost2010PropOp37
 70
     1
102
RTVSPost2010Prop38
140
0.0
102
RTVSPost2010PropOp38
 70
     1
102
RTVSPost2010Prop39
140
1.0
102
RTVSPost2010PropOp39
 70
     1
102
RTVSPost2010Prop40
 90
        0
102
RTVSPost2010PropOp40
 70
     1
102
RTVSPost2010Prop41ColorIndex
 90
       18
102
RTVSPost2010Prop41ColorRGB
 90
        0
102
RTVSPost2010PropOp41
 70
     1
102
RTVSPost2010Prop42
 90
       50
102
RTVSPost2010PropOp42
 70
     1
102
RTVSPost2010Prop43
 90
        3
102
RTVSPost2010PropOp43
 70
     1
102
RTVSPost2010Prop44ColorIndex
 90
        5
102
RTVSPost2010Prop44ColorRGB
 90
      255
102
RTVSPost2010PropOp44
 70
     1
102
RTVSPost2010Prop45
280
     0
102
RTVSPost2010PropOp45
 70
     1
102
RTVSPost2010Prop46
 90
       50
102
RTVSPost2010PropOp46
 70
     1
102
RTVSPost2010Prop47
 90
       50
102
RTVSPost2010PropOp47
 70
     1
102
RTVSPost2010Prop48
 90
       50
102
RTVSPost2010PropOp48
 70
     1
102
RTVSPost2010Prop49
280
     0
102
RTVSPost2010PropOp49
 70
     1
102
RTVSPost2010Prop50
 90
       50
102
RTVSPost2010PropOp50
 70
     1
102
RTVSPost2010Prop51ColorIndex
 90
      256
102
RTVSPost2010Prop51ColorRGB
 90
-16777216
102
RTVSPost2010PropOp51
 70
     0
102
RTVSPost2010Prop52
140
1.0
102
RTVSPost2010PropOp52
 70
     0
102
RTVSPost2010Prop53
 90
        2
102
RTVSPost2010PropOp53
 70
     1
102
RTVSPost2010Prop54
  1
strokes_ogs.tif
102
RTVSPost2010PropOp54
 70
     1
102
RTVSPost2010Prop55
280
     0
102
RTVSPost2010PropOp55
 70
     1
102
RTVSPost2010Prop56
140
1.0
102
RTVSPost2010PropOp56
 70
     1
102
RTVSPost2010Prop57
140
1.0
102
RTVSPost2010PropOp57
 70
     1
102
RTVSPropertyOp0
 70
     1
102
RTVSPropertyOp1
 70
     1
102
RTVSPropertyOp2
 70
     1
102
RTVSPropertyOp3
 70
     1
102
RTVSPropertyOp4
 70
     1
102
RTVSPropertyOp5
 70
     1
102
RTVSPropertyOp6
 70
     1
102
RTVSPropertyOp7
 70
     1
102
RTVSPropertyOp8
 70
     1
102
RTVSPropertyOp9
 70
     1
102
RTVSPropertyOp10
 70
     1
102
RTVSPropertyOp11
 70
     1
102
RTVSPropertyOp12
 70
     1
102
RTVSPropertyOp13
 70
     1
102
RTVSPropertyOp14
 70
     1
102
RTVSPropertyOp15
 70
     1
102
RTVSPropertyOp16
 70
     1
102
RTVSPropertyOp17
 70
     1
102
RTVSPropertyOp18
 70
     1
102
RTVSPropertyOp19
 70
     1
102
RTVSPropertyOp20
 70
     1
102
RTVSPropertyOp21
 70
     1
102
RTVSPropertyOp22
 70
     1
102
RTVSPropertyOp23
 70
     1
102
RTVSPropertyOp24
 70
     1
102
RTVSPropertyOp25
 70
     1
102
RTVSPropertyOp26
 70
     1
102
RTVSPropertyOp27
 70
     1
102
RTVSPropertyOp28
 70
     1
102
RTVSPropertyOp29
 70
     1
102
RTVSPropertyOp30
 70
     1
102
RTVSPropertyOp31
 70
     1
102
RTVSPropertyOp32
 70
     1
102
RTVSPropertyOp33
 70
     1
102
RTVSPropertyOp34
 70
     1
102
RTVSPropertyOp35
 70
     1
102
RTVSPropertyOp36
 70
     1
102
RTVSPropertyOp37
 70
     1
102
RTVSPropertyOp38
 70
     1
102
RTVSPropertyOp39
 70
     1
102
RTVSPropertyOp40
 70
     1
102
RTVSPropertyOp41
 70
     1
102
RTVSPropertyOp42
 70
     1
102
RTVSPropertyOp43
 70
     1
102
RTVSPropertyOp44
 70
     1
102
RTVSPropertyOp45
 70
     1
102
RTVSPropertyOp46
 70
     1
102
RTVSPropertyOp47
 70
     1
102
RTVSPropertyOp48
 70
     1
102
RTVSPropertyOp49
 70
     1
102
RTVSPropertyOp50
 70
     1
102
RTVSPropertyOp51
 70
     0
102
RTVSPropertyOp52
 70
     0
102
RTVSPropertyOp53
 70
     1
102
RTVSPropertyOp54
 70
     1
102
RTVSPropertyOp55
 70
     1
102
RTVSPropertyOp56
 70
     1
102
RTVSPropertyOp57
 70
     1
102
RTVSPropertyOp58
 70
     1
102
RTVSPropertyOp59
 70
     1
102
RTVSPropertyOp60
 70
     1
102
RTVSPropertyOp61
 70
     1
102
RTVSPropertyOp62
 70
     1
  0
XRECORD
  5
3BF
102
{ACAD_REACTORS
330
3BE
102
}
330
3BE
100
AcDbXrecord
280
     1
102
RTVSPost2010Prop28
280
     0
102
RTVSPost2010PropOp28
 70
     1
102
RTVSPost2010Prop29
280
     1
102
RTVSPost2010PropOp29
 70
     1
102
RTVSPost2010Prop30
280
     1
102
RTVSPost2010PropOp30
 70
     1
102
RTVSPost2010Prop31
280
     0
102
RTVSPost2010PropOp31
 70
     1
102
RTVSPost2010Prop32
280
     0
102
RTVSPost2010PropOp32
 70
     1
102
RTVSPost2010Prop33
280
     0
102
RTVSPost2010PropOp33
 70
     1
102
RTVSPost2010Prop34
280
     0
102
RTVSPost2010PropOp34
 70
     1
102
RTVSPost2010Prop35
280
     0
102
RTVSPost2010PropOp35
 70
     1
102
RTVSPost2010Prop36
280
     0
102
RTVSPost2010PropOp36
 70
     1
102
RTVSPost2010Prop37
 90
       50
102
RTVSPost2010PropOp37
 70
     1
102
RTVSPost2010Prop38
140
0.0
102
RTVSPost2010PropOp38
 70
     1
102
RTVSPost2010Prop39
140
1.0
102
RTVSPost2010PropOp39
 70
     1
102
RTVSPost2010Prop40
 90
        0
102
RTVSPost2010PropOp40
 70
     1
102
RTVSPost2010Prop41ColorIndex
 90
       18
102
RTVSPost2010Prop41ColorRGB
 90
        0
102
RTVSPost2010PropOp41
 70
     1
102
RTVSPost2010Prop42
 90
       50
102
RTVSPost2010PropOp42
 70
     1
102
RTVSPost2010Prop43
 90
        3
102
RTVSPost2010PropOp43
 70
     1
102
RTVSPost2010Prop44ColorIndex
 90
        5
102
RTVSPost2010Prop44ColorRGB
 90
      255
102
RTVSPost2010PropOp44
 70
     1
102
RTVSPost2010Prop45
280
     0
102
RTVSPost2010PropOp45
 70
     1
102
RTVSPost2010Prop46
 90
       50
102
RTVSPost2010PropOp46
 70
     1
102
RTVSPost2010Prop47
 90
       50
102
RTVSPost2010PropOp47
 70
     1
102
RTVSPost2010Prop48
 90
       50
102
RTVSPost2010PropOp48
 70
     1
102
RTVSPost2010Prop49
280
     0
102
RTVSPost2010PropOp49
 70
     1
102
RTVSPost2010Prop50
 90
       50
102
RTVSPost2010PropOp50
 70
     1
102
RTVSPost2010Prop51ColorIndex
 90
      256
102
RTVSPost2010Prop51ColorRGB
 90
-16777216
102
RTVSPost2010PropOp51
 70
     0
102
RTVSPost2010Prop52
140
1.0
102
RTVSPost2010PropOp52
 70
     0
102
RTVSPost2010Prop53
 90
        2
102
RTVSPost2010PropOp53
 70
     1
102
RTVSPost2010Prop54
  1
strokes_ogs.tif
102
RTVSPost2010PropOp54
 70
     1
102
RTVSPost2010Prop55
280
     0
102
RTVSPost2010PropOp55
 70
     1
102
RTVSPost2010Prop56
140
1.0
102
RTVSPost2010PropOp56
 70
     1
102
RTVSPost2010Prop57
140
1.0
102
RTVSPost2010PropOp57
 70
     1
102
RTVSPropertyOp0
 70
     1
102
RTVSPropertyOp1
 70
     1
102
RTVSPropertyOp2
 70
     1
102
RTVSPropertyOp3
 70
     1
102
RTVSPropertyOp4
 70
     1
102
RTVSPropertyOp5
 70
     1
102
RTVSPropertyOp6
 70
     1
102
RTVSPropertyOp7
 70
     1
102
RTVSPropertyOp8
 70
     1
102
RTVSPropertyOp9
 70
     1
102
RTVSPropertyOp10
 70
     1
102
RTVSPropertyOp11
 70
     1
102
RTVSPropertyOp12
 70
     1
102
RTVSPropertyOp13
 70
     1
102
RTVSPropertyOp14
 70
     1
102
RTVSPropertyOp15
 70
     1
102
RTVSPropertyOp16
 70
     1
102
RTVSPropertyOp17
 70
     1
102
RTVSPropertyOp18
 70
     1
102
RTVSPropertyOp19
 70
     1
102
RTVSPropertyOp20
 70
     1
102
RTVSPropertyOp21
 70
     1
102
RTVSPropertyOp22
 70
     1
102
RTVSPropertyOp23
 70
     1
102
RTVSPropertyOp24
 70
     1
102
RTVSPropertyOp25
 70
     1
102
RTVSPropertyOp26
 70
     1
102
RTVSPropertyOp27
 70
     1
102
RTVSPropertyOp28
 70
     1
102
RTVSPropertyOp29
 70
     1
102
RTVSPropertyOp30
 70
     1
102
RTVSPropertyOp31
 70
     1
102
RTVSPropertyOp32
 70
     1
102
RTVSPropertyOp33
 70
     1
102
RTVSPropertyOp34
 70
     1
102
RTVSPropertyOp35
 70
     1
102
RTVSPropertyOp36
 70
     1
102
RTVSPropertyOp37
 70
     1
102
RTVSPropertyOp38
 70
     1
102
RTVSPropertyOp39
 70
     1
102
RTVSPropertyOp40
 70
     1
102
RTVSPropertyOp41
 70
     1
102
RTVSPropertyOp42
 70
     1
102
RTVSPropertyOp43
 70
     1
102
RTVSPropertyOp44
 70
     1
102
RTVSPropertyOp45
 70
     1
102
RTVSPropertyOp46
 70
     1
102
RTVSPropertyOp47
 70
     1
102
RTVSPropertyOp48
 70
     1
102
RTVSPropertyOp49
 70
     1
102
RTVSPropertyOp50
 70
     1
102
RTVSPropertyOp51
 70
     0
102
RTVSPropertyOp52
 70
     0
102
RTVSPropertyOp53
 70
     1
102
RTVSPropertyOp54
 70
     1
102
RTVSPropertyOp55
 70
     1
102
RTVSPropertyOp56
 70
     1
102
RTVSPropertyOp57
 70
     1
102
RTVSPropertyOp58
 70
     1
102
RTVSPropertyOp59
 70
     1
102
RTVSPropertyOp60
 70
     1
102
RTVSPropertyOp61
 70
     1
102
RTVSPropertyOp62
 70
     1
  0
ENDSEC
  0
EOF
