  0
SECTION
  2
HEADER
  9
$ACADVER
  1
AC1018
  9
$ACADMAINTVER
 70
   104
  9
$DWGCODEPAGE
  3
ANSI_1250
  9
$LASTSAVEDBY
  1
wq7085
  9
$INSBASE
 10
0.0
 20
0.0
 30
0.0
  9
$EXTMIN
 10
191.4414713333333
 20
118.759924
 30
0.0
  9
$EXTMAX
 10
334.842434
 20
374.5602246666667
 30
0.0
  9
$LIMMIN
 10
-0.5
 20
-0.5
  9
$LIMMAX
 10
5.0
 20
5.0
  9
$ORTHOMODE
 70
     0
  9
$REGENMODE
 70
     1
  9
$FILLMODE
 70
     1
  9
$QTEXTMODE
 70
     0
  9
$MIRRTEXT
 70
     1
  9
$LTSCALE
 40
1.0
  9
$ATTMODE
 70
     1
  9
$TEXTSIZE
 40
0.2
  9
$TRACEWID
 40
0.05
  9
$TEXTSTYLE
  7
Standard
  9
$CLAYER
  8
0
  9
$CELTYPE
  6
ByLayer
  9
$CECOLOR
 62
   256
  9
$CELTSCALE
 40
1.0
  9
$DISPSILH
 70
     0
  9
$DIMSCALE
 40
1.0
  9
$DIMASZ
 40
0.18
  9
$DIMEXO
 40
0.0625
  9
$DIMDLI
 40
0.38
  9
$DIMRND
 40
0.0
  9
$DIMDLE
 40
0.0
  9
$DIMEXE
 40
0.18
  9
$DIMTP
 40
0.0
  9
$DIMTM
 40
0.0
  9
$DIMTXT
 40
0.18
  9
$DIMCEN
 40
0.09
  9
$DIMTSZ
 40
0.0
  9
$DIMTOL
 70
     0
  9
$DIMLIM
 70
     0
  9
$DIMTIH
 70
     1
  9
$DIMTOH
 70
     1
  9
$DIMSE1
 70
     0
  9
$DIMSE2
 70
     0
  9
$DIMTAD
 70
     0
  9
$DIMZIN
 70
     0
  9
$DIMBLK
  1

  9
$DIMASO
 70
     1
  9
$DIMSHO
 70
     1
  9
$DIMPOST
  1

  9
$DIMAPOST
  1

  9
$DIMALT
 70
     0
  9
$DIMALTD
 70
     2
  9
$DIMALTF
 40
25.4
  9
$DIMLFAC
 40
1.0
  9
$DIMTOFL
 70
     0
  9
$DIMTVP
 40
0.0
  9
$DIMTIX
 70
     0
  9
$DIMSOXD
 70
     0
  9
$DIMSAH
 70
     0
  9
$DIMBLK1
  1

  9
$DIMBLK2
  1

  9
$DIMSTYLE
  2
Standard
  9
$DIMCLRD
 70
     0
  9
$DIMCLRE
 70
     0
  9
$DIMCLRT
 70
     0
  9
$DIMTFAC
 40
1.0
  9
$DIMGAP
 40
0.09
  9
$DIMJUST
 70
     0
  9
$DIMSD1
 70
     0
  9
$DIMSD2
 70
     0
  9
$DIMTOLJ
 70
     1
  9
$DIMTZIN
 70
     0
  9
$DIMALTZ
 70
     0
  9
$DIMALTTZ
 70
     0
  9
$DIMUPT
 70
     0
  9
$DIMDEC
 70
     4
  9
$DIMTDEC
 70
     4
  9
$DIMALTU
 70
     2
  9
$DIMALTTD
 70
     2
  9
$DIMTXSTY
  7
Standard
  9
$DIMAUNIT
 70
     0
  9
$DIMADEC
 70
     0
  9
$DIMALTRND
 40
0.0
  9
$DIMAZIN
 70
     0
  9
$DIMDSEP
 70
    46
  9
$DIMATFIT
 70
     3
  9
$DIMFRAC
 70
     0
  9
$DIMLDRBLK
  1

  9
$DIMLUNIT
 70
     2
  9
$DIMLWD
 70
    -2
  9
$DIMLWE
 70
    -2
  9
$DIMTMOVE
 70
     0
  9
$LUNITS
 70
     2
  9
$LUPREC
 70
     4
  9
$SKETCHINC
 40
0.1
  9
$FILLETRAD
 40
0.5
  9
$AUNITS
 70
     0
  9
$AUPREC
 70
     0
  9
$MENU
  1
.
  9
$ELEVATION
 40
0.0
  9
$PELEVATION
 40
0.0
  9
$THICKNESS
 40
0.0
  9
$LIMCHECK
 70
     0
  9
$CHAMFERA
 40
0.0
  9
$CHAMFERB
 40
0.0
  9
$CHAMFERC
 40
0.0
  9
$CHAMFERD
 40
0.0
  9
$SKPOLY
 70
     0
  9
$TDCREATE
 40
2458856.587118056
  9
$TDUCREATE
 40
2458856.545456725
  9
$TDUPDATE
 40
2458856.588101852
  9
$TDUUPDATE
 40
2458856.546435185
  9
$TDINDWG
 40
0.0005208449
  9
$TDUSRTIMER
 40
0.0005208449
  9
$USRTIMER
 70
     1
  9
$ANGBASE
 50
0.0
  9
$ANGDIR
 70
     0
  9
$PDMODE
 70
     0
  9
$PDSIZE
 40
0.0
  9
$PLINEWID
 40
0.0
  9
$SPLFRAME
 70
     0
  9
$SPLINETYPE
 70
     6
  9
$SPLINESEGS
 70
     8
  9
$HANDSEED
  5
38D
  9
$SURFTAB1
 70
     6
  9
$SURFTAB2
 70
     6
  9
$SURFTYPE
 70
     6
  9
$SURFU
 70
     6
  9
$SURFV
 70
     6
  9
$UCSBASE
  2

  9
$UCSNAME
  2

  9
$UCSORG
 10
268.315042
 20
295.201634
 30
0.0
  9
$UCSXDIR
 10
1.0
 20
0.0
 30
0.0
  9
$UCSYDIR
 10
0.0
 20
1.0
 30
0.0
  9
$UCSORTHOREF
  2

  9
$UCSORTHOVIEW
 70
     0
  9
$UCSORGTOP
 10
0.0
 20
0.0
 30
0.0
  9
$UCSORGBOTTOM
 10
0.0
 20
0.0
 30
0.0
  9
$UCSORGLEFT
 10
0.0
 20
0.0
 30
0.0
  9
$UCSORGRIGHT
 10
0.0
 20
0.0
 30
0.0
  9
$UCSORGFRONT
 10
0.0
 20
0.0
 30
0.0
  9
$UCSORGBACK
 10
0.0
 20
0.0
 30
0.0
  9
$PUCSBASE
  2

  9
$PUCSNAME
  2

  9
$PUCSORG
 10
0.0
 20
0.0
 30
0.0
  9
$PUCSXDIR
 10
1.0
 20
0.0
 30
0.0
  9
$PUCSYDIR
 10
0.0
 20
1.0
 30
0.0
  9
$PUCSORTHOREF
  2

  9
$PUCSORTHOVIEW
 70
     0
  9
$PUCSORGTOP
 10
0.0
 20
0.0
 30
0.0
  9
$PUCSORGBOTTOM
 10
0.0
 20
0.0
 30
0.0
  9
$PUCSORGLEFT
 10
0.0
 20
0.0
 30
0.0
  9
$PUCSORGRIGHT
 10
0.0
 20
0.0
 30
0.0
  9
$PUCSORGFRONT
 10
0.0
 20
0.0
 30
0.0
  9
$PUCSORGBACK
 10
0.0
 20
0.0
 30
0.0
  9
$USERI1
 70
     0
  9
$USERI2
 70
     0
  9
$USERI3
 70
     0
  9
$USERI4
 70
     0
  9
$USERI5
 70
     0
  9
$USERR1
 40
0.0
  9
$USERR2
 40
0.0
  9
$USERR3
 40
0.0
  9
$USERR4
 40
0.0
  9
$USERR5
 40
0.0
  9
$WORLDVIEW
 70
     1
  9
$SHADEDGE
 70
     3
  9
$SHADEDIF
 70
    70
  9
$TILEMODE
 70
     1
  9
$MAXACTVP
 70
    64
  9
$PINSBASE
 10
0.0
 20
0.0
 30
0.0
  9
$PLIMCHECK
 70
     0
  9
$PEXTMIN
 10
-0.5
 20
-0.5
 30
-0.5
  9
$PEXTMAX
 10
5.0
 20
5.0
 30
5.0
  9
$PLIMMIN
 10
-0.5
 20
-0.5
  9
$PLIMMAX
 10
5.0
 20
5.0
  9
$UNITMODE
 70
     0
  9
$VISRETAIN
 70
     1
  9
$PLINEGEN
 70
     0
  9
$PSLTSCALE
 70
     1
  9
$TREEDEPTH
 70
  3020
  9
$CMLSTYLE
  2
Standard
  9
$CMLJUST
 70
     0
  9
$CMLSCALE
 40
1.0
  9
$PROXYGRAPHICS
 70
     1
  9
$MEASUREMENT
 70
     1
  9
$CELWEIGHT
370
    13
  9
$ENDCAPS
280
     0
  9
$JOINSTYLE
280
     0
  9
$LWDISPLAY
290
     0
  9
$INSUNITS
 70
     4
  9
$HYPERLINKBASE
  1

  9
$STYLESHEET
  1

  9
$XEDIT
290
     1
  9
$CEPSNTYPE
380
     0
  9
$PSTYLEMODE
290
     1
  9
$FINGERPRINTGUID
  2
{17432873-B01D-43C1-8A65-0E361993ACDE}
  9
$VERSIONGUID
  2
{C306C533-095D-CB40-8FB5-089E3ED8B592}
  9
$EXTNAMES
290
     1
  9
$PSVPSCALE
 40
0.0
  9
$OLESTARTUP
290
     0
  9
$SORTENTS
280
   127
  9
$INDEXCTL
280
     0
  9
$HIDETEXT
280
     1
  9
$XCLIPFRAME
290
     0
  9
$HALOGAP
280
     0
  9
$OBSCOLOR
 70
   257
  9
$OBSLTYPE
280
     0
  9
$INTERSECTIONDISPLAY
280
     0
  9
$INTERSECTIONCOLOR
 70
   257
  9
$DIMASSOC
280
     2
  9
$PROJECTNAME
  1

  0
ENDSEC
  0
SECTION
  2
CLASSES
  0
CLASS
  1
ACDBDICTIONARYWDFLT
  2
AcDbDictionaryWithDefault
  3
ObjectDBX Classes
 90
        0
 91
        1
280
     0
281
     0
  0
CLASS
  1
VISUALSTYLE
  2
AcDbVisualStyle
  3
ObjectDBX Classes
 90
     4095
 91
       24
280
     0
281
     0
  0
CLASS
  1
MATERIAL
  2
AcDbMaterial
  3
ObjectDBX Classes
 90
     1153
 91
        3
280
     0
281
     0
  0
CLASS
  1
SCALE
  2
AcDbScale
  3
ObjectDBX Classes
 90
     1153
 91
       33
280
     0
281
     0
  0
CLASS
  1
TABLESTYLE
  2
AcDbTableStyle
  3
ObjectDBX Classes
 90
     4095
 91
        1
280
     0
281
     0
  0
CLASS
  1
MLEADERSTYLE
  2
AcDbMLeaderStyle
  3
ACDB_MLEADERSTYLE_CLASS
 90
     4095
 91
        1
280
     0
281
     0
  0
CLASS
  1
SUN
  2
AcDbSun
  3
SCENEOE
 90
     1153
 91
        0
280
     0
281
     0
  0
CLASS
  1
DIMASSOC
  2
AcDbDimAssoc
  3
"AcDbDimAssoc|Product Desc:     AcDim ARX App For Dimension|Company:          Autodesk, Inc.|WEB Address:      www.autodesk.com"
 90
        0
 91
        6
280
     0
281
     0
  0
CLASS
  1
DICTIONARYVAR
  2
AcDbDictionaryVar
  3
ObjectDBX Classes
 90
        0
 91
        8
280
     0
281
     0
  0
CLASS
  1
CELLSTYLEMAP
  2
AcDbCellStyleMap
  3
ObjectDBX Classes
 90
     1152
 91
        2
280
     0
281
     0
  0
CLASS
  1
ACDBSECTIONVIEWSTYLE
  2
AcDbSectionViewStyle
  3
ObjectDBX Classes
 90
     1025
 91
        1
280
     0
281
     0
  0
CLASS
  1
ACDBDETAILVIEWSTYLE
  2
AcDbDetailViewStyle
  3
ObjectDBX Classes
 90
     1025
 91
        1
280
     0
281
     0
  0
CLASS
  1
SORTENTSTABLE
  2
AcDbSortentsTable
  3
ObjectDBX Classes
 90
        0
 91
        1
280
     0
281
     0
  0
ENDSEC
  0
SECTION
  2
TABLES
  0
TABLE
  2
VPORT
  5
8
330
0
100
AcDbSymbolTable
 70
    16
  0
VPORT
  5
29
330
8
100
AcDbSymbolTableRecord
100
AcDbViewportTableRecord
  2
*Active
 70
     0
 10
0.0
 20
0.0
 11
1.0
 21
1.0
 12
286.5501866394593
 22
310.3432576123261
 13
0.0
 23
0.0
 14
0.5
 24
0.5
 15
0.5
 25
0.5
 16
0.0
 26
0.0
 36
1.0
 17
0.0
 27
0.0
 37
0.0
 40
205.3648989819755
 41
2.292712066905615
 42
50.0
 43
361.205936
 44
-361.205936
 50
0.0
 51
0.0
 71
     0
 72
   100
 73
     1
 74
     3
 75
     0
 76
     0
 77
     0
 78
     0
281
     0
 65
     1
110
268.315042
120
295.201634
130
0.0
111
1.0
121
0.0
131
0.0
112
0.0
122
1.0
132
0.0
 79
     0
146
0.0
1001
ACAD_NAV_VCDISPLAY
1070
     3
  0
VPORT
  5
28B
330
8
100
AcDbSymbolTableRecord
100
AcDbViewportTableRecord
  2
L1
 70
     0
 10
0.0
 20
0.0
 11
1.0
 21
1.0
 12
262.637749
 22
246.66466
 13
0.0
 23
0.0
 14
0.5
 24
0.5
 15
0.5
 25
0.5
 16
0.0
 26
0.0
 36
1.0
 17
0.0
 27
0.0
 37
0.0
 40
207.433333
 41
0.085602
 42
50.0
 43
361.205936
 44
-361.205936
 50
0.0
 51
0.0
 71
     0
 72
   100
 73
     1
 74
     3
 75
     0
 76
     0
 77
     0
 78
     0
281
     0
 65
     1
110
0.0
120
0.0
130
0.0
111
1.0
121
0.0
131
0.0
112
0.0
122
1.0
132
0.0
 79
     0
146
0.0
  0
VPORT
  5
28C
330
8
100
AcDbSymbolTableRecord
100
AcDbViewportTableRecord
  2
L2
 70
     0
 10
0.0
 20
0.0
 11
0.5
 21
1.0
 12
0.0
 22
0.0
 13
0.0
 23
0.0
 14
0.5
 24
0.5
 15
0.5
 25
0.5
 16
0.0
 26
-1.0
 36
0.0
 17
0.0
 27
0.0
 37
0.0
 40
1311.475104
 41
0.01354
 42
50.0
 43
675.4659889999999
 44
-675.4659889999999
 50
0.0
 51
0.0
 71
     0
 72
   100
 73
     1
 74
     3
 75
     0
 76
     0
 77
     0
 78
     0
281
     0
 65
     1
110
0.0
120
0.0
130
0.0
111
1.0
121
0.0
131
0.0
112
0.0
122
1.0
132
0.0
 79
     0
146
0.0
  0
VPORT
  5
28D
330
8
100
AcDbSymbolTableRecord
100
AcDbViewportTableRecord
  2
L2
 70
     0
 10
0.5
 20
0.0
 11
1.0
 21
1.0
 12
0.0
 22
0.0
 13
0.0
 23
0.0
 14
0.5
 24
0.5
 15
0.5
 25
0.5
 16
1.0
 26
0.0
 36
0.0
 17
0.0
 27
0.0
 37
0.0
 40
1311.475104
 41
0.01354
 42
50.0
 43
663.889211
 44
-663.889211
 50
0.0
 51
0.0
 71
     0
 72
   100
 73
     1
 74
     3
 75
     0
 76
     0
 77
     0
 78
     0
281
     0
 65
     1
110
0.0
120
0.0
130
0.0
111
1.0
121
0.0
131
0.0
112
0.0
122
1.0
132
0.0
 79
     0
146
0.0
  0
VPORT
  5
28E
330
8
100
AcDbSymbolTableRecord
100
AcDbViewportTableRecord
  2
L3
 70
     0
 10
0.0
 20
0.5
 11
1.0
 21
1.0
 12
262.637749
 22
246.66466
 13
0.0
 23
0.0
 14
0.5
 24
0.5
 15
0.5
 25
0.5
 16
0.0
 26
0.0
 36
1.0
 17
0.0
 27
0.0
 37
0.0
 40
207.433333
 41
0.085602
 42
50.0
 43
361.205936
 44
-361.205936
 50
0.0
 51
0.0
 71
     0
 72
   100
 73
     1
 74
     3
 75
     0
 76
     0
 77
     0
 78
     0
281
     0
 65
     1
110
0.0
120
0.0
130
0.0
111
1.0
121
0.0
131
0.0
112
0.0
122
1.0
132
0.0
 79
     0
146
0.0
  0
VPORT
  5
28F
330
8
100
AcDbSymbolTableRecord
100
AcDbViewportTableRecord
  2
L3
 70
     0
 10
0.0
 20
0.0
 11
1.0
 21
0.5
 12
0.0
 22
0.0
 13
0.0
 23
0.0
 14
0.5
 24
0.5
 15
0.5
 25
0.5
 16
0.0
 26
-1.0
 36
0.0
 17
0.0
 27
0.0
 37
0.0
 40
1311.475104
 41
0.01354
 42
50.0
 43
675.4659889999999
 44
-675.4659889999999
 50
0.0
 51
0.0
 71
     0
 72
   100
 73
     1
 74
     3
 75
     0
 76
     0
 77
     0
 78
     0
281
     0
 65
     1
110
0.0
120
0.0
130
0.0
111
1.0
121
0.0
131
0.0
112
0.0
122
1.0
132
0.0
 79
     0
146
0.0
  0
VPORT
  5
290
330
8
100
AcDbSymbolTableRecord
100
AcDbViewportTableRecord
  2
L4
 70
     0
 10
0.0
 20
0.5
 11
0.5
 21
1.0
 12
262.637749
 22
246.66466
 13
0.0
 23
0.0
 14
0.5
 24
0.5
 15
0.5
 25
0.5
 16
0.0
 26
0.0
 36
1.0
 17
0.0
 27
0.0
 37
0.0
 40
207.433333
 41
0.085602
 42
50.0
 43
361.205936
 44
-361.205936
 50
0.0
 51
0.0
 71
     0
 72
   100
 73
     1
 74
     3
 75
     0
 76
     0
 77
     0
 78
     0
281
     0
 65
     1
110
0.0
120
0.0
130
0.0
111
1.0
121
0.0
131
0.0
112
0.0
122
1.0
132
0.0
 79
     0
146
0.0
  0
VPORT
  5
291
330
8
100
AcDbSymbolTableRecord
100
AcDbViewportTableRecord
  2
L4
 70
     0
 10
0.0
 20
0.0
 11
0.5
 21
0.5
 12
0.0
 22
0.0
 13
0.0
 23
0.0
 14
0.5
 24
0.5
 15
0.5
 25
0.5
 16
0.0
 26
-1.0
 36
0.0
 17
0.0
 27
0.0
 37
0.0
 40
1311.475104
 41
0.01354
 42
50.0
 43
675.4659889999999
 44
-675.4659889999999
 50
0.0
 51
0.0
 71
     0
 72
   100
 73
     1
 74
     3
 75
     0
 76
     0
 77
     0
 78
     0
281
     0
 65
     1
110
0.0
120
0.0
130
0.0
111
1.0
121
0.0
131
0.0
112
0.0
122
1.0
132
0.0
 79
     0
146
0.0
  0
VPORT
  5
292
330
8
100
AcDbSymbolTableRecord
100
AcDbViewportTableRecord
  2
L4
 70
     0
 10
0.5
 20
0.0
 11
1.0
 21
0.5
 12
0.0
 22
0.0
 13
0.0
 23
0.0
 14
0.5
 24
0.5
 15
0.5
 25
0.5
 16
1.0
 26
0.0
 36
0.0
 17
0.0
 27
0.0
 37
0.0
 40
1311.475104
 41
0.01354
 42
50.0
 43
663.889211
 44
-663.889211
 50
0.0
 51
0.0
 71
     0
 72
   100
 73
     1
 74
     3
 75
     0
 76
     0
 77
     0
 78
     0
281
     0
 65
     1
110
0.0
120
0.0
130
0.0
111
1.0
121
0.0
131
0.0
112
0.0
122
1.0
132
0.0
 79
     0
146
0.0
  0
VPORT
  5
293
330
8
100
AcDbSymbolTableRecord
100
AcDbViewportTableRecord
  2
L4
 70
     0
 10
0.5
 20
0.5
 11
1.0
 21
1.0
 12
0.0
 22
0.0
 13
0.0
 23
0.0
 14
0.5
 24
0.5
 15
0.5
 25
0.5
 16
0.5773502691896259
 26
-0.5773502691896259
 36
0.5773502691896259
 17
0.0
 27
0.0
 37
0.0
 40
1287.818467
 41
0.013788
 42
50.0
 43
670.773434
 44
-670.773434
 50
0.0
 51
0.0
 71
     0
 72
   100
 73
     1
 74
     3
 75
     0
 76
     0
 77
     0
 78
     0
281
     0
 65
     1
110
0.0
120
0.0
130
0.0
111
1.0
121
0.0
131
0.0
112
0.0
122
1.0
132
0.0
 79
     0
146
0.0
  0
VPORT
  5
294
330
8
100
AcDbSymbolTableRecord
100
AcDbViewportTableRecord
  2
L6
 70
     0
 10
0.0
 20
0.5
 11
0.333333
 21
1.0
 12
0.0
 22
0.0
 13
0.0
 23
0.0
 14
0.5
 24
0.5
 15
0.5
 25
0.5
 16
0.7188730927569434
 26
-0.5850486126764433
 36
0.3754192287502549
 17
0.0
 27
0.0
 37
0.0
 40
1359.077926
 41
0.013065
 42
50.0
 43
703.6802759999999
 44
-703.6802759999999
 50
0.0
 51
0.0
 71
     0
 72
   100
 73
     1
 74
     3
 75
     0
 76
     0
 77
     0
 78
     0
281
     0
 65
     1
110
0.0
120
0.0
130
0.0
111
1.0
121
0.0
131
0.0
112
0.0
122
1.0
132
0.0
 79
     0
146
0.0
  0
VPORT
  5
295
330
8
100
AcDbSymbolTableRecord
100
AcDbViewportTableRecord
  2
L6
 70
     0
 10
0.0
 20
0.0
 11
0.333333
 21
0.5
 12
0.0
 22
0.0
 13
0.0
 23
0.0
 14
0.5
 24
0.5
 15
0.5
 25
0.5
 16
-1.0
 26
0.0
 36
0.0
 17
0.0
 27
0.0
 37
0.0
 40
1311.475104
 41
0.01354
 42
50.0
 43
663.889211
 44
-663.889211
 50
0.0
 51
0.0
 71
     0
 72
   100
 73
     1
 74
     3
 75
     0
 76
     0
 77
     0
 78
     0
281
     0
 65
     1
110
0.0
120
0.0
130
0.0
111
1.0
121
0.0
131
0.0
112
0.0
122
1.0
132
0.0
 79
     0
146
0.0
  0
VPORT
  5
296
330
8
100
AcDbSymbolTableRecord
100
AcDbViewportTableRecord
  2
L6
 70
     0
 10
0.333333
 20
0.5
 11
0.666667
 21
1.0
 12
262.637749
 22
246.66466
 13
0.0
 23
0.0
 14
0.5
 24
0.5
 15
0.5
 25
0.5
 16
0.0
 26
0.0
 36
1.0
 17
0.0
 27
0.0
 37
0.0
 40
207.433333
 41
0.085602
 42
50.0
 43
361.205936
 44
-361.205936
 50
0.0
 51
0.0
 71
     0
 72
   100
 73
     1
 74
     3
 75
     0
 76
     0
 77
     0
 78
     0
281
     0
 65
     1
110
0.0
120
0.0
130
0.0
111
1.0
121
0.0
131
0.0
112
0.0
122
1.0
132
0.0
 79
     0
146
0.0
  0
VPORT
  5
297
330
8
100
AcDbSymbolTableRecord
100
AcDbViewportTableRecord
  2
L6
 70
     0
 10
0.333333
 20
0.0
 11
0.666667
 21
0.5
 12
0.0
 22
0.0
 13
0.0
 23
0.0
 14
0.5
 24
0.5
 15
0.5
 25
0.5
 16
0.0
 26
-1.0
 36
0.0
 17
0.0
 27
0.0
 37
0.0
 40
1311.475104
 41
0.01354
 42
50.0
 43
675.4659889999999
 44
-675.4659889999999
 50
0.0
 51
0.0
 71
     0
 72
   100
 73
     1
 74
     3
 75
     0
 76
     0
 77
     0
 78
     0
281
     0
 65
     1
110
0.0
120
0.0
130
0.0
111
1.0
121
0.0
131
0.0
112
0.0
122
1.0
132
0.0
 79
     0
146
0.0
  0
VPORT
  5
298
330
8
100
AcDbSymbolTableRecord
100
AcDbViewportTableRecord
  2
L6
 70
     0
 10
0.666667
 20
0.5
 11
1.0
 21
1.0
 12
0.0
 22
0.0
 13
0.0
 23
0.0
 14
0.5
 24
0.5
 15
0.5
 25
0.5
 16
0.5773502691896259
 26
-0.5773502691896259
 36
0.5773502691896259
 17
0.0
 27
0.0
 37
0.0
 40
1287.818467
 41
0.013788
 42
50.0
 43
670.773434
 44
-670.773434
 50
0.0
 51
0.0
 71
     0
 72
   100
 73
     1
 74
     3
 75
     0
 76
     0
 77
     0
 78
     0
281
     0
 65
     1
110
0.0
120
0.0
130
0.0
111
1.0
121
0.0
131
0.0
112
0.0
122
1.0
132
0.0
 79
     0
146
0.0
  0
VPORT
  5
299
330
8
100
AcDbSymbolTableRecord
100
AcDbViewportTableRecord
  2
L6
 70
     0
 10
0.666667
 20
0.0
 11
1.0
 21
0.5
 12
0.0
 22
0.0
 13
0.0
 23
0.0
 14
0.5
 24
0.5
 15
0.5
 25
0.5
 16
1.0
 26
0.0
 36
0.0
 17
0.0
 27
0.0
 37
0.0
 40
1311.475104
 41
0.01354
 42
50.0
 43
663.889211
 44
-663.889211
 50
0.0
 51
0.0
 71
     0
 72
   100
 73
     1
 74
     3
 75
     0
 76
     0
 77
     0
 78
     0
281
     0
 65
     1
110
0.0
120
0.0
130
0.0
111
1.0
121
0.0
131
0.0
112
0.0
122
1.0
132
0.0
 79
     0
146
0.0
  0
ENDTAB
  0
TABLE
  2
LTYPE
  5
5
330
0
100
AcDbSymbolTable
 70
     7
  0
LTYPE
  5
14
330
5
100
AcDbSymbolTableRecord
100
AcDbLinetypeTableRecord
  2
ByBlock
 70
     0
  3

 72
    65
 73
     0
 40
0.0
  0
LTYPE
  5
15
330
5
100
AcDbSymbolTableRecord
100
AcDbLinetypeTableRecord
  2
ByLayer
 70
     0
  3

 72
    65
 73
     0
 40
0.0
  0
LTYPE
  5
16
330
5
100
AcDbSymbolTableRecord
100
AcDbLinetypeTableRecord
  2
Continuous
 70
     0
  3
Solid line
 72
    65
 73
     0
 40
0.0
  0
LTYPE
  5
6E
330
5
100
AcDbSymbolTableRecord
100
AcDbLinetypeTableRecord
  2
CENTER
 70
     0
  3
____ _ ____ _ ____ _ ____
 72
    65
 73
     4
 40
47.4
 49
22.0
 74
     4
 75
     0
340
0
 46
0.0
 50
0.0
 44
0.0
 45
0.0
 49
-8.5
 74
     4
 75
     0
340
0
 46
0.0
 50
0.0
 44
0.0
 45
0.0
 49
8.5
 74
     4
 75
     0
340
0
 46
0.0
 50
0.0
 44
0.0
 45
0.0
 49
-8.5
 74
     4
 75
     0
340
0
 46
0.0
 50
0.0
 44
0.0
 45
0.0
  0
LTYPE
  5
6F
330
5
100
AcDbSymbolTableRecord
100
AcDbLinetypeTableRecord
  2
DASHDOT
 70
     0
  3
_._._._._._._._._._._._._._._._.
 72
    65
 73
     4
 40
70.0
 49
31.0
 74
     4
 75
     0
340
0
 46
0.0
 50
0.0
 44
0.0
 45
0.0
 49
-13.0
 74
     4
 75
     0
340
0
 46
0.0
 50
0.0
 44
0.0
 45
0.0
 49
13.0
 74
     4
 75
     0
340
0
 46
0.0
 50
0.0
 44
0.0
 45
0.0
 49
-13.0
 74
     4
 75
     0
340
0
 46
0.0
 50
0.0
 44
0.0
 45
0.0
  0
LTYPE
  5
70
330
5
100
AcDbSymbolTableRecord
100
AcDbLinetypeTableRecord
  2
DASHED
 70
     0
  3
__ __ __ __ __ __ __ __ __
 72
    65
 73
     2
 40
25.72
 49
12.86
 74
     4
 75
     0
340
0
 46
0.0
 50
0.0
 44
0.0
 45
0.0
 49
-12.86
 74
     4
 75
     0
340
0
 46
0.0
 50
0.0
 44
0.0
 45
0.0
  0
LTYPE
  5
71
330
5
100
AcDbSymbolTableRecord
100
AcDbLinetypeTableRecord
  2
DOT
 70
     0
  3
.........................
 72
    65
 73
     2
 40
10.0
 49
0.0
 74
     4
 75
     0
340
0
 46
0.0
 50
0.0
 44
0.0
 45
0.0
 49
-10.0
 74
     4
 75
     0
340
0
 46
0.0
 50
0.0
 44
0.0
 45
0.0
  0
LTYPE
  5
72
330
5
100
AcDbSymbolTableRecord
100
AcDbLinetypeTableRecord
  2
PHANTOM
 70
     0
  3
____ _ _ ____ _ _ _____ _ _ ____
 72
    65
 73
     6
 40
50.5
 49
18.0
 74
     4
 75
     0
340
0
 46
0.0
 50
0.0
 44
0.0
 45
0.0
 49
-6.5
 74
     4
 75
     0
340
0
 46
0.0
 50
0.0
 44
0.0
 45
0.0
 49
6.5
 74
     4
 75
     0
340
0
 46
0.0
 50
0.0
 44
0.0
 45
0.0
 49
-6.5
 74
     4
 75
     0
340
0
 46
0.0
 50
0.0
 44
0.0
 45
0.0
 49
6.5
 74
     4
 75
     0
340
0
 46
0.0
 50
0.0
 44
0.0
 45
0.0
 49
-6.5
 74
     4
 75
     0
340
0
 46
0.0
 50
0.0
 44
0.0
 45
0.0
  0
LTYPE
  5
32F
330
5
100
AcDbSymbolTableRecord
100
AcDbLinetypeTableRecord
  2
CENTER2
 70
     0
  3
Center (.5x) ___ _ ___ _ ___ _ ___ _ ___ _ ___
 72
    65
 73
     4
 40
1.125
 49
0.75
 74
     0
 49
-0.125
 74
     0
 49
0.125
 74
     0
 49
-0.125
 74
     0
  0
ENDTAB
  0
TABLE
  2
LAYER
  5
2
330
0
100
AcDbSymbolTable
 70
    22
  0
LAYER
  5
10
102
{ACAD_XDICTIONARY
360
33A
102
}
330
2
100
AcDbSymbolTableRecord
100
AcDbLayerTableRecord
  2
0
 70
     0
 62
     7
  6
Continuous
370
    -3
390
F
  0
LAYER
  5
1F2
330
2
100
AcDbSymbolTableRecord
100
AcDbLayerTableRecord
  2
Defpoints
 70
     0
 62
     7
  6
Continuous
290
     0
370
    -3
390
F
  0
LAYER
  5
32C
102
{ACAD_XDICTIONARY
360
33C
102
}
330
2
100
AcDbSymbolTableRecord
100
AcDbLayerTableRecord
  2
1
 70
     0
 62
     4
  6
Continuous
370
    -3
390
F
  0
LAYER
  5
32D
102
{ACAD_XDICTIONARY
360
33E
102
}
330
2
100
AcDbSymbolTableRecord
100
AcDbLayerTableRecord
  2
2
 70
     0
 62
     7
  6
Continuous
370
    -3
390
F
  0
LAYER
  5
32E
102
{ACAD_XDICTIONARY
360
340
102
}
330
2
100
AcDbSymbolTableRecord
100
AcDbLayerTableRecord
  2
4
 70
     0
 62
     2
  6
CENTER2
370
    -3
390
F
  0
LAYER
  5
330
102
{ACAD_XDICTIONARY
360
342
102
}
330
2
100
AcDbSymbolTableRecord
100
AcDbLayerTableRecord
  2
SK1
 70
     0
 62
     4
  6
Continuous
370
    -3
390
F
  0
LAYER
  5
331
102
{ACAD_XDICTIONARY
360
344
102
}
330
2
100
AcDbSymbolTableRecord
100
AcDbLayerTableRecord
  2
SK2
 70
     0
 62
     7
  6
Continuous
370
    -3
390
F
  0
LAYER
  5
333
102
{ACAD_XDICTIONARY
360
346
102
}
330
2
100
AcDbSymbolTableRecord
100
AcDbLayerTableRecord
  2
SK4
 70
     0
 62
     2
  6
CENTER2
370
    -3
390
F
  0
LAYER
  5
334
102
{ACAD_XDICTIONARY
360
348
102
}
330
2
100
AcDbSymbolTableRecord
100
AcDbLayerTableRecord
  2
SK6
 70
     0
 62
     5
  6
Continuous
370
    -3
390
F
  0
LAYER
  5
335
102
{ACAD_XDICTIONARY
360
34A
102
}
330
2
100
AcDbSymbolTableRecord
100
AcDbLayerTableRecord
  2
CUT
 70
     0
 62
     1
  6
Continuous
370
    -3
390
F
  0
LAYER
  5
336
102
{ACAD_XDICTIONARY
360
34C
102
}
330
2
100
AcDbSymbolTableRecord
100
AcDbLayerTableRecord
  2
NOCUT
 70
     0
 62
     7
  6
Continuous
370
    -3
390
F
  0
LAYER
  5
337
102
{ACAD_XDICTIONARY
360
34E
102
}
330
2
100
AcDbSymbolTableRecord
100
AcDbLayerTableRecord
  2
80
 70
     0
 62
     6
  6
Continuous
370
    -3
390
F
  0
LAYER
  5
338
102
{ACAD_XDICTIONARY
360
350
102
}
330
2
100
AcDbSymbolTableRecord
100
AcDbLayerTableRecord
  2
81
 70
     0
 62
     3
  6
Continuous
370
    -3
390
F
  0
ENDTAB
  0
TABLE
  2
STYLE
  5
3
330
0
100
AcDbSymbolTable
 70
     3
  0
STYLE
  5
11
330
3
100
AcDbSymbolTableRecord
100
AcDbTextStyleTableRecord
  2
Standard
 70
     0
 40
0.0
 41
1.0
 50
0.0
 71
     0
 42
0.2
  3
txt
  4

  0
STYLE
  5
1E6
330
3
100
AcDbSymbolTableRecord
100
AcDbTextStyleTableRecord
  2
cesky
 70
     0
 40
0.0
 41
1.0
 50
0.0
 71
     0
 42
0.2
  3
simplex.shx
  4

  0
STYLE
  5
1E7
330
3
100
AcDbSymbolTableRecord
100
AcDbTextStyleTableRecord
  2
DWGDirectTextStyle
 70
     0
 40
0.0
 41
1.0
 50
0.0
 71
     0
 42
0.2
  3
simplex
  4

  0
ENDTAB
  0
TABLE
  2
VIEW
  5
6
330
0
100
AcDbSymbolTable
 70
     0
  0
ENDTAB
  0
TABLE
  2
UCS
  5
7
330
0
100
AcDbSymbolTable
 70
     0
  0
ENDTAB
  0
TABLE
  2
APPID
  5
9
330
0
100
AcDbSymbolTable
 70
     7
  0
APPID
  5
12
330
9
100
AcDbSymbolTableRecord
100
AcDbRegAppTableRecord
  2
ACAD
 70
     0
  0
APPID
  5
1EE
330
9
100
AcDbSymbolTableRecord
100
AcDbRegAppTableRecord
  2
ACAD_DSTYLE_DIMBREAK
 70
     0
  0
APPID
  5
29A
330
9
100
AcDbSymbolTableRecord
100
AcDbRegAppTableRecord
  2
ACAD_DSTYLE_DIM_LINETYPE
 70
     0
  0
APPID
  5
29B
330
9
100
AcDbSymbolTableRecord
100
AcDbRegAppTableRecord
  2
ACAD_DSTYLE_DIM_EXT1_LINETYPE
 70
     0
  0
APPID
  5
29C
330
9
100
AcDbSymbolTableRecord
100
AcDbRegAppTableRecord
  2
ACAD_DSTYLE_DIM_EXT2_LINETYPE
 70
     0
  0
APPID
  5
2DC
330
9
100
AcDbSymbolTableRecord
100
AcDbRegAppTableRecord
  2
ACAD_MLEADERVER
 70
     0
  0
APPID
  5
355
330
9
100
AcDbSymbolTableRecord
100
AcDbRegAppTableRecord
  2
ACAD_NAV_VCDISPLAY
 70
     0
  0
ENDTAB
  0
TABLE
  2
DIMSTYLE
  5
A
330
0
100
AcDbSymbolTable
 70
     1
100
AcDbDimStyleTable
 71
     0
  0
DIMSTYLE
105
27
330
A
100
AcDbSymbolTableRecord
100
AcDbDimStyleTableRecord
  2
Standard
 70
     0
340
11
1001
ACAD_DSTYLE_DIMBREAK
1070
   391
1040
6.349999999999999
  0
ENDTAB
  0
TABLE
  2
BLOCK_RECORD
  5
1
330
0
100
AcDbSymbolTable
 70
    15
  0
BLOCK_RECORD
  5
1F
102
{ACAD_XDICTIONARY
360
2EC
102
}
330
1
100
AcDbSymbolTableRecord
100
AcDbBlockTableRecord
  2
*Model_Space
340
22
  0
BLOCK_RECORD
  5
1B
330
1
100
AcDbSymbolTableRecord
100
AcDbBlockTableRecord
  2
*Paper_Space
340
1E
  0
BLOCK_RECORD
  5
23
330
1
100
AcDbSymbolTableRecord
100
AcDbBlockTableRecord
  2
*Paper_Space0
340
26
  0
BLOCK_RECORD
  5
1E9
330
1
100
AcDbSymbolTableRecord
100
AcDbBlockTableRecord
  2
ASSORTED_DRAFT1
340
0
  0
BLOCK_RECORD
  5
1F3
330
1
100
AcDbSymbolTableRecord
100
AcDbBlockTableRecord
  2
*D2
340
0
  0
BLOCK_RECORD
  5
1FF
330
1
100
AcDbSymbolTableRecord
100
AcDbBlockTableRecord
  2
_U0
340
0
  0
BLOCK_RECORD
  5
20B
330
1
100
AcDbSymbolTableRecord
100
AcDbBlockTableRecord
  2
*D4
340
0
  0
BLOCK_RECORD
  5
219
330
1
100
AcDbSymbolTableRecord
100
AcDbBlockTableRecord
  2
_U1
340
0
  0
BLOCK_RECORD
  5
225
330
1
100
AcDbSymbolTableRecord
100
AcDbBlockTableRecord
  2
*D6
340
0
  0
BLOCK_RECORD
  5
231
330
1
100
AcDbSymbolTableRecord
100
AcDbBlockTableRecord
  2
_U2
340
0
  0
BLOCK_RECORD
  5
23D
330
1
100
AcDbSymbolTableRecord
100
AcDbBlockTableRecord
  2
*D8
340
0
  0
BLOCK_RECORD
  5
249
330
1
100
AcDbSymbolTableRecord
100
AcDbBlockTableRecord
  2
_U3
340
0
  0
BLOCK_RECORD
  5
252
330
1
100
AcDbSymbolTableRecord
100
AcDbBlockTableRecord
  2
_U4
340
0
  0
BLOCK_RECORD
  5
25F
330
1
100
AcDbSymbolTableRecord
100
AcDbBlockTableRecord
  2
*D11
340
0
  0
BLOCK_RECORD
  5
26A
330
1
100
AcDbSymbolTableRecord
100
AcDbBlockTableRecord
  2
_U5
340
0
  0
BLOCK_RECORD
  5
275
330
1
100
AcDbSymbolTableRecord
100
AcDbBlockTableRecord
  2
*D13
340
0
  0
BLOCK_RECORD
  5
281
330
1
100
AcDbSymbolTableRecord
100
AcDbBlockTableRecord
  2
_U6
340
0
  0
ENDTAB
  0
ENDSEC
  0
SECTION
  2
BLOCKS
  0
BLOCK
  5
20
330
1F
100
AcDbEntity
  8
0
100
AcDbBlockBegin
  2
*Model_Space
 70
     0
 10
0.0
 20
0.0
 30
0.0
  3
*Model_Space
  1

  0
ENDBLK
  5
21
330
1F
100
AcDbEntity
  8
0
100
AcDbBlockEnd
  0
BLOCK
  5
1C
330
1B
100
AcDbEntity
 67
     1
  8
0
100
AcDbBlockBegin
  2
*Paper_Space
 70
     0
 10
0.0
 20
0.0
 30
0.0
  3
*Paper_Space
  1

  0
ENDBLK
  5
1D
330
1B
100
AcDbEntity
 67
     1
  8
0
100
AcDbBlockEnd
  0
BLOCK
  5
24
330
23
100
AcDbEntity
 67
     1
  8
0
100
AcDbBlockBegin
  2
*Paper_Space0
 70
     0
 10
0.0
 20
0.0
 30
0.0
  3
*Paper_Space0
  1

  0
ENDBLK
  5
25
330
23
100
AcDbEntity
 67
     1
  8
0
100
AcDbBlockEnd
  0
BLOCK
  5
1EC
330
1E9
100
AcDbEntity
  8
0
100
AcDbBlockBegin
  2
ASSORTED_DRAFT1
 70
     0
 10
0.0
 20
0.0
 30
0.0
  3
ASSORTED_DRAFT1
  1

  0
SOLID
  5
1EA
330
1E9
100
AcDbEntity
  8
0
 62
   254
370
    13
100
AcDbTrace
 10
270.445042
 20
164.477869
 30
0.0
 11
275.445038
 21
165.586342
 31
0.0
 12
275.445046
 22
163.369395
 32
0.0
 13
270.445042
 23
164.477869
 33
0.0
  0
ENDBLK
  5
1ED
330
1E9
100
AcDbEntity
  8
0
100
AcDbBlockEnd
  0
BLOCK
  5
1F4
330
1F3
100
AcDbEntity
  8
0
100
AcDbBlockBegin
  2
*D2
 70
     1
 10
0.0
 20
0.0
 30
0.0
  3
*D2
  1

  0
LINE
  5
1F6
330
1F3
100
AcDbEntity
  8
0
 62
   254
370
    -2
100
AcDbLine
 10
310.315042
 20
311.201634
 30
0.0
 11
310.315042
 21
343.651256
 31
0.0
  0
LINE
  5
1F7
330
1F3
100
AcDbEntity
  8
0
 62
   254
370
    -2
100
AcDbLine
 10
268.315042
 20
311.201634
 30
0.0
 11
268.315042
 21
343.651256
 31
0.0
  0
LINE
  5
1F8
330
1F3
100
AcDbEntity
  8
0
 62
   254
370
    -2
100
AcDbLine
 10
306.815042
 20
342.651256
 30
0.0
 11
271.815042
 21
342.651256
 31
0.0
  0
SOLID
  5
1F9
330
1F3
100
AcDbEntity
  8
0
 62
   254
100
AcDbTrace
 10
306.815042
 20
342.067922
 30
0.0
 11
306.815042
 21
343.2345890000001
 31
0.0
 12
310.315042
 22
342.651256
 32
0.0
 13
310.315042
 23
342.651256
 33
0.0
  0
SOLID
  5
1FA
330
1F3
100
AcDbEntity
  8
0
 62
   254
100
AcDbTrace
 10
271.815042
 20
343.2345890000001
 30
0.0
 11
271.815042
 21
342.067922
 31
0.0
 12
268.315042
 22
342.651256
 32
0.0
 13
268.315042
 23
342.651256
 33
0.0
  0
MTEXT
  5
1FB
330
1F3
100
AcDbEntity
  8
0
 62
   254
370
    13
100
AcDbMText
 10
289.315042
 20
347.901256
 30
0.0
 40
3.5
 41
0.0
 71
     5
 72
     1
  1
\A1;42
  7
cesky
 73
     1
 44
1.0
  0
POINT
  5
1FC
330
1F3
100
AcDbEntity
  8
Defpoints
 62
     0
100
AcDbPoint
 10
310.315042
 20
311.201634
 30
0.0
  0
POINT
  5
1FD
330
1F3
100
AcDbEntity
  8
Defpoints
 62
     0
100
AcDbPoint
 10
268.315042
 20
311.201634
 30
0.0
  0
POINT
  5
1FE
330
1F3
100
AcDbEntity
  8
Defpoints
 62
     0
100
AcDbPoint
 10
268.315042
 20
342.651256
 30
0.0
  0
ENDBLK
  5
1F5
330
1F3
100
AcDbEntity
  8
0
100
AcDbBlockEnd
  0
BLOCK
  5
206
330
1FF
100
AcDbEntity
  8
0
100
AcDbBlockBegin
  2
_U0
 70
     0
 10
0.0
 20
0.0
 30
0.0
  3
_U0
  1

  0
ENDBLK
  5
207
330
1FF
100
AcDbEntity
  8
0
100
AcDbBlockEnd
  0
BLOCK
  5
20C
330
20B
100
AcDbEntity
  8
0
100
AcDbBlockBegin
  2
*D4
 70
     1
 10
0.0
 20
0.0
 30
0.0
  3
*D4
  1

  0
LINE
  5
20E
330
20B
100
AcDbEntity
  8
0
 62
   254
370
    -2
100
AcDbLine
 10
310.315042
 20
309.201634
 30
0.0
 11
310.315042
 21
328.525055
 31
0.0
  0
LINE
  5
20F
330
20B
100
AcDbEntity
  8
0
 62
   254
370
    -2
100
AcDbLine
 10
305.825568
 20
315.760645
 30
0.0
 11
305.825568
 21
328.525055
 31
0.0
  0
LINE
  5
210
330
20B
100
AcDbEntity
  8
0
 62
   254
370
    -2
100
AcDbLine
 10
310.315042
 20
327.525055
 30
0.0
 11
331.648375
 21
327.525055
 31
0.0
  0
LINE
  5
211
330
20B
100
AcDbEntity
  8
0
 62
   254
370
    -2
100
AcDbLine
 10
313.815042
 20
327.525055
 30
0.0
 11
317.315042
 21
327.525055
 31
0.0
  0
LINE
  5
212
330
20B
100
AcDbEntity
  8
0
 62
   254
370
    -2
100
AcDbLine
 10
302.325568
 20
327.525055
 30
0.0
 11
298.825568
 21
327.525055
 31
0.0
  0
SOLID
  5
213
330
20B
100
AcDbEntity
  8
0
 62
   254
100
AcDbTrace
 10
313.815042
 20
328.108388
 30
0.0
 11
313.815042
 21
326.941722
 31
0.0
 12
310.315042
 22
327.525055
 32
0.0
 13
310.315042
 23
327.525055
 33
0.0
  0
SOLID
  5
214
330
20B
100
AcDbEntity
  8
0
 62
   254
100
AcDbTrace
 10
302.325568
 20
326.941722
 30
0.0
 11
302.325568
 21
328.108388
 31
0.0
 12
305.825568
 22
327.525055
 32
0.0
 13
305.825568
 23
327.525055
 33
0.0
  0
MTEXT
  5
215
330
20B
100
AcDbEntity
  8
0
 62
   254
370
    13
100
AcDbMText
 10
324.481709
 20
332.775055
 30
0.0
 40
3.5
 41
0.0
 71
     5
 72
     1
  1
\A1;4.5
  7
cesky
 73
     1
 44
1.0
  0
POINT
  5
216
330
20B
100
AcDbEntity
  8
Defpoints
 62
     0
100
AcDbPoint
 10
310.315042
 20
309.201634
 30
0.0
  0
POINT
  5
217
330
20B
100
AcDbEntity
  8
Defpoints
 62
     0
100
AcDbPoint
 10
305.825568
 20
315.760645
 30
0.0
  0
POINT
  5
218
330
20B
100
AcDbEntity
  8
Defpoints
 62
     0
100
AcDbPoint
 10
305.825568
 20
327.525055
 30
0.0
  0
ENDBLK
  5
20D
330
20B
100
AcDbEntity
  8
0
100
AcDbBlockEnd
  0
BLOCK
  5
220
330
219
100
AcDbEntity
  8
0
100
AcDbBlockBegin
  2
_U1
 70
     0
 10
0.0
 20
0.0
 30
0.0
  3
_U1
  1

  0
ENDBLK
  5
221
330
219
100
AcDbEntity
  8
0
100
AcDbBlockEnd
  0
BLOCK
  5
226
330
225
100
AcDbEntity
  8
0
100
AcDbBlockBegin
  2
*D6
 70
     1
 10
0.0
 20
0.0
 30
0.0
  3
*D6
  1

  0
LINE
  5
228
330
225
100
AcDbEntity
  8
0
 62
    95
370
    -2
100
AcDbLine
 10
208.315042
 20
295.201634
 30
0.0
 11
208.315042
 21
371.019392
 31
0.0
  0
LINE
  5
229
330
225
100
AcDbEntity
  8
0
 62
    95
370
    -2
100
AcDbLine
 10
310.315042
 20
313.201634
 30
0.0
 11
310.315042
 21
371.019392
 31
0.0
  0
LINE
  5
22A
330
225
100
AcDbEntity
  8
0
 62
    95
370
    -2
100
AcDbLine
 10
211.815042
 20
370.019392
 30
0.0
 11
306.815042
 21
370.019392
 31
0.0
  0
SOLID
  5
22B
330
225
100
AcDbEntity
  8
0
 62
    95
100
AcDbTrace
 10
211.815042
 20
370.602725
 30
0.0
 11
211.815042
 21
369.436058
 31
0.0
 12
208.315042
 22
370.019392
 32
0.0
 13
208.315042
 23
370.019392
 33
0.0
  0
SOLID
  5
22C
330
225
100
AcDbEntity
  8
0
 62
    95
100
AcDbTrace
 10
306.815042
 20
369.436058
 30
0.0
 11
306.815042
 21
370.602725
 31
0.0
 12
310.315042
 22
370.019392
 32
0.0
 13
310.315042
 23
370.019392
 33
0.0
  0
MTEXT
  5
22D
330
225
100
AcDbEntity
  8
0
 62
    95
370
    13
100
AcDbMText
 10
259.315042
 20
375.269392
 30
0.0
 40
3.5
 41
0.0
 71
     5
 72
     1
  1
\A1;102
  7
cesky
 73
     1
 44
1.0
  0
POINT
  5
22E
330
225
100
AcDbEntity
  8
Defpoints
 62
     0
100
AcDbPoint
 10
208.315042
 20
295.201634
 30
0.0
  0
POINT
  5
22F
330
225
100
AcDbEntity
  8
Defpoints
 62
     0
100
AcDbPoint
 10
310.315042
 20
313.201634
 30
0.0
  0
POINT
  5
230
330
225
100
AcDbEntity
  8
Defpoints
 62
     0
100
AcDbPoint
 10
310.315042
 20
370.019392
 30
0.0
  0
ENDBLK
  5
227
330
225
100
AcDbEntity
  8
0
100
AcDbBlockEnd
  0
BLOCK
  5
238
330
231
100
AcDbEntity
  8
0
100
AcDbBlockBegin
  2
_U2
 70
     0
 10
0.0
 20
0.0
 30
0.0
  3
_U2
  1

  0
ENDBLK
  5
239
330
231
100
AcDbEntity
  8
0
100
AcDbBlockEnd
  0
BLOCK
  5
23E
330
23D
100
AcDbEntity
  8
0
100
AcDbBlockBegin
  2
*D8
 70
     1
 10
0.0
 20
0.0
 30
0.0
  3
*D8
  1

  0
LINE
  5
240
330
23D
100
AcDbEntity
  8
0
 62
    95
370
    -2
100
AcDbLine
 10
268.315042
 20
296.201207
 30
0.0
 11
268.315042
 21
356.263586
 31
0.0
  0
LINE
  5
241
330
23D
100
AcDbEntity
  8
0
 62
    95
370
    -2
100
AcDbLine
 10
310.315042
 20
313.201634
 30
0.0
 11
310.315042
 21
356.263586
 31
0.0
  0
LINE
  5
242
330
23D
100
AcDbEntity
  8
0
 62
    95
370
    -2
100
AcDbLine
 10
271.815042
 20
355.263586
 30
0.0
 11
306.815042
 21
355.263586
 31
0.0
  0
SOLID
  5
243
330
23D
100
AcDbEntity
  8
0
 62
    95
100
AcDbTrace
 10
271.815042
 20
355.846919
 30
0.0
 11
271.815042
 21
354.680252
 31
0.0
 12
268.315042
 22
355.263586
 32
0.0
 13
268.315042
 23
355.263586
 33
0.0
  0
SOLID
  5
244
330
23D
100
AcDbEntity
  8
0
 62
    95
100
AcDbTrace
 10
306.815042
 20
354.680252
 30
0.0
 11
306.815042
 21
355.846919
 31
0.0
 12
310.315042
 22
355.263586
 32
0.0
 13
310.315042
 23
355.263586
 33
0.0
  0
MTEXT
  5
245
330
23D
100
AcDbEntity
  8
0
 62
    95
370
    13
100
AcDbMText
 10
289.3347
 20
360.513586
 30
0.0
 40
3.5
 41
0.0
 71
     5
 72
     1
  1
\A1;42
  7
cesky
 73
     1
 44
1.0
  0
POINT
  5
246
330
23D
100
AcDbEntity
  8
Defpoints
 62
     0
100
AcDbPoint
 10
268.315042
 20
296.201207
 30
0.0
  0
POINT
  5
247
330
23D
100
AcDbEntity
  8
Defpoints
 62
     0
100
AcDbPoint
 10
310.315042
 20
313.201634
 30
0.0
  0
POINT
  5
248
330
23D
100
AcDbEntity
  8
Defpoints
 62
     0
100
AcDbPoint
 10
310.315042
 20
355.263586
 30
0.0
  0
ENDBLK
  5
23F
330
23D
100
AcDbEntity
  8
0
100
AcDbBlockEnd
  0
BLOCK
  5
250
330
249
100
AcDbEntity
  8
0
100
AcDbBlockBegin
  2
_U3
 70
     0
 10
0.0
 20
0.0
 30
0.0
  3
_U3
  1

  0
ENDBLK
  5
251
330
249
100
AcDbEntity
  8
0
100
AcDbBlockEnd
  0
BLOCK
  5
25A
330
252
100
AcDbEntity
  8
0
100
AcDbBlockBegin
  2
_U4
 70
     0
 10
0.0
 20
0.0
 30
0.0
  3
_U4
  1

  0
ENDBLK
  5
25B
330
252
100
AcDbEntity
  8
0
100
AcDbBlockEnd
  0
BLOCK
  5
260
330
25F
100
AcDbEntity
  8
0
100
AcDbBlockBegin
  2
*D11
 70
     1
 10
0.0
 20
0.0
 30
0.0
  3
*D11
  1

  0
LINE
  5
262
330
25F
100
AcDbEntity
  8
0
 62
   254
370
    -2
100
AcDbLine
 10
293.815042
 20
295.201634
 30
0.0
 11
334.842434
 21
295.201634
 31
0.0
  0
LINE
  5
263
330
25F
100
AcDbEntity
  8
0
 62
   254
370
    -2
100
AcDbLine
 10
312.315042
 20
311.201634
 30
0.0
 11
334.842434
 21
311.201634
 31
0.0
  0
LINE
  5
264
330
25F
100
AcDbEntity
  8
0
 62
   254
370
    -2
100
AcDbLine
 10
333.8424339999999
 20
295.201634
 30
0.0
 11
333.8424339999999
 21
311.201634
 31
0.0
  0
SOLID
  5
265
330
25F
100
AcDbEntity
  8
0
 62
   254
100
AcDbTrace
 10
334.425767
 20
307.701634
 30
0.0
 11
333.2591
 21
307.701634
 31
0.0
 12
333.8424339999999
 22
311.201634
 32
0.0
 13
333.8424339999999
 23
311.201634
 33
0.0
  0
MTEXT
  5
266
330
25F
100
AcDbEntity
  8
0
 62
   254
370
    13
100
AcDbMText
 10
328.592434
 20
285.368301
 30
0.0
 40
3.5
 41
0.0
 71
     5
 72
     1
  1
\A1;32
  7
cesky
 11
0.0
 21
1.0
 31
0.0
 73
     1
 44
1.0
  0
POINT
  5
267
330
25F
100
AcDbEntity
  8
Defpoints
 62
     0
100
AcDbPoint
 10
293.815042
 20
295.201634
 30
0.0
  0
POINT
  5
268
330
25F
100
AcDbEntity
  8
Defpoints
 62
     0
100
AcDbPoint
 10
312.315042
 20
311.201634
 30
0.0
  0
POINT
  5
269
330
25F
100
AcDbEntity
  8
Defpoints
 62
     0
100
AcDbPoint
 10
333.8424339999999
 20
311.201634
 30
0.0
  0
ENDBLK
  5
261
330
25F
100
AcDbEntity
  8
0
100
AcDbBlockEnd
  0
BLOCK
  5
270
330
26A
100
AcDbEntity
  8
0
100
AcDbBlockBegin
  2
_U5
 70
     0
 10
0.0
 20
0.0
 30
0.0
  3
_U5
  1

  0
ENDBLK
  5
271
330
26A
100
AcDbEntity
  8
0
100
AcDbBlockEnd
  0
BLOCK
  5
276
330
275
100
AcDbEntity
  8
0
100
AcDbBlockBegin
  2
*D13
 70
     1
 10
0.0
 20
0.0
 30
0.0
  3
*D13
  1

  0
LINE
  5
278
330
275
100
AcDbEntity
  8
0
 62
    95
370
    -2
100
AcDbLine
 10
231.174262
 20
279.201634
 30
0.0
 11
195.295555
 21
279.201634
 31
0.0
  0
LINE
  5
279
330
275
100
AcDbEntity
  8
0
 62
    95
370
    -2
100
AcDbLine
 10
234.974414
 20
311.201634
 30
0.0
 11
195.295555
 21
311.201634
 31
0.0
  0
LINE
  5
27A
330
275
100
AcDbEntity
  8
0
 62
    95
370
    -2
100
AcDbLine
 10
196.295555
 20
282.701634
 30
0.0
 11
196.295555
 21
307.701634
 31
0.0
  0
SOLID
  5
27B
330
275
100
AcDbEntity
  8
0
 62
    95
100
AcDbTrace
 10
195.712221
 20
282.701634
 30
0.0
 11
196.878888
 21
282.701634
 31
0.0
 12
196.295555
 22
279.201634
 32
0.0
 13
196.295555
 23
279.201634
 33
0.0
  0
SOLID
  5
27C
330
275
100
AcDbEntity
  8
0
 62
    95
100
AcDbTrace
 10
196.878888
 20
307.701634
 30
0.0
 11
195.712221
 21
307.701634
 31
0.0
 12
196.295555
 22
311.201634
 32
0.0
 13
196.295555
 23
311.201634
 33
0.0
  0
MTEXT
  5
27D
330
275
100
AcDbEntity
  8
0
 62
    95
370
    13
100
AcDbMText
 10
191.045555
 20
294.865604
 30
0.0
 40
3.5
 41
0.0
 71
     5
 72
     1
  1
\A1;32
  7
cesky
 11
0.0
 21
1.0
 31
0.0
 73
     1
 44
1.0
  0
POINT
  5
27E
330
275
100
AcDbEntity
  8
Defpoints
 62
     0
100
AcDbPoint
 10
231.174262
 20
279.201634
 30
0.0
  0
POINT
  5
27F
330
275
100
AcDbEntity
  8
Defpoints
 62
     0
100
AcDbPoint
 10
234.974414
 20
311.201634
 30
0.0
  0
POINT
  5
280
330
275
100
AcDbEntity
  8
Defpoints
 62
     0
100
AcDbPoint
 10
196.295555
 20
311.201634
 30
0.0
  0
ENDBLK
  5
277
330
275
100
AcDbEntity
  8
0
100
AcDbBlockEnd
  0
BLOCK
  5
289
330
281
100
AcDbEntity
  8
0
100
AcDbBlockBegin
  2
_U6
 70
     0
 10
0.0
 20
0.0
 30
0.0
  3
_U6
  1

  0
ENDBLK
  5
28A
330
281
100
AcDbEntity
  8
0
100
AcDbBlockEnd
  0
ENDSEC
  0
SECTION
  2
ENTITIES
  0
POINT
  5
73
102
{ACAD_REACTORS
330
339
102
}
330
1F
100
AcDbEntity
  8
80
100
AcDbPoint
 10
268.315042
 20
295.201634
 30
0.0
  0
POINT
  5
76
330
1F
100
AcDbEntity
  8
4
 60
     1
100
AcDbPoint
 10
292.023202
 20
295.201634
 30
0.0
  0
POINT
  5
78
330
1F
100
AcDbEntity
  8
4
 60
     1
100
AcDbPoint
 10
293.815042
 20
295.201634
 30
0.0
  0
POINT
  5
79
330
1F
100
AcDbEntity
  8
SK4
 60
     1
100
AcDbPoint
 10
268.315042
 20
295.201634
 30
0.0
  0
POINT
  5
7A
330
1F
100
AcDbEntity
  8
SK4
 60
     1
100
AcDbPoint
 10
209.315042
 20
295.201634
 30
0.0
  0
POINT
  5
7B
330
1F
100
AcDbEntity
  8
SK6
 60
     1
100
AcDbPoint
 10
305.825568
 20
315.760645
 30
0.0
  0
LINE
  5
7E
330
1F
100
AcDbEntity
  8
80
100
AcDbLine
 10
267.315468
 20
295.201634
 30
0.0
 11
269.314616
 21
295.201634
 31
0.0
  0
LINE
  5
80
330
1F
100
AcDbEntity
  8
1
100
AcDbLine
 10
300.546838
 20
299.398022
 30
0.0
 11
304.281386
 21
298.912895
 31
0.0
  0
LINE
  5
82
330
1F
100
AcDbEntity
  8
1
100
AcDbLine
 10
305.406145
 20
301.716907
 30
0.0
 11
305.137093
 21
301.7515
 31
0.0
  0
LINE
  5
84
330
1F
100
AcDbEntity
  8
1
100
AcDbLine
 10
299.479576
 20
299.54114
 30
0.0
 11
299.044908
 21
299.127762
 31
0.0
  0
LINE
  5
85
330
1F
100
AcDbEntity
  8
1
100
AcDbLine
 10
306.617281
 20
301.294989
 30
0.0
 11
305.406145
 21
301.716907
 31
0.0
  0
LINE
  5
86
330
1F
100
AcDbEntity
  8
1
100
AcDbLine
 10
303.973432
 20
298.49409
 30
0.0
 11
304.166266
 21
298.927861
 31
0.0
  0
LINE
  5
87
330
1F
100
AcDbEntity
  8
1
100
AcDbLine
 10
305.151122
 20
301.143246
 30
0.0
 11
305.406145
 21
301.716907
 31
0.0
  0
LINE
  5
88
330
1F
100
AcDbEntity
  8
1
100
AcDbLine
 10
305.386519
 20
295.524719
 30
0.0
 11
310.315042
 21
294.891047
 31
0.0
  0
LINE
  5
89
330
1F
100
AcDbEntity
  8
1
100
AcDbLine
 10
310.315042
 20
294.891047
 30
0.0
 11
310.315042
 21
295.201634
 31
0.0
  0
LINE
  5
8A
330
1F
100
AcDbEntity
  8
1
100
AcDbLine
 10
305.386519
 20
298.001819
 30
0.0
 11
303.973432
 21
298.49409
 31
0.0
  0
LINE
  5
8B
330
1F
100
AcDbEntity
  8
1
100
AcDbLine
 10
299.044908
 20
299.127762
 30
0.0
 11
303.973432
 21
298.49409
 31
0.0
  0
LINE
  5
8C
330
1F
100
AcDbEntity
  8
1
100
AcDbLine
 10
299.044908
 20
299.127762
 30
0.0
 11
299.044908
 21
298.817175
 31
0.0
  0
LINE
  5
8D
330
1F
100
AcDbEntity
  8
1
100
AcDbLine
 10
303.973432
 20
296.01699
 30
0.0
 11
299.044908
 21
298.817175
 31
0.0
  0
LINE
  5
8E
330
1F
100
AcDbEntity
  8
1
100
AcDbLine
 10
303.973432
 20
296.01699
 30
0.0
 11
305.386519
 21
295.524719
 31
0.0
  0
LINE
  5
8F
330
1F
100
AcDbEntity
  8
1
100
AcDbLine
 10
309.822675
 20
299.473816
 30
0.0
 11
306.617281
 21
301.294989
 31
0.0
  0
LINE
  5
90
330
1F
100
AcDbEntity
  8
1
100
AcDbLine
 10
306.617281
 20
301.294989
 30
0.0
 11
305.386519
 21
298.001819
 31
0.0
  0
LINE
  5
91
330
1F
100
AcDbEntity
  8
1
100
AcDbLine
 10
305.386519
 20
298.001819
 30
0.0
 11
310.315042
 21
295.201634
 31
0.0
  0
LINE
  5
92
330
1F
100
AcDbEntity
  8
1
100
AcDbLine
 10
310.315042
 20
295.201634
 30
0.0
 11
309.822675
 21
299.473816
 31
0.0
  0
LINE
  5
93
330
1F
100
AcDbEntity
  8
1
100
AcDbLine
 10
305.386519
 20
294.878549
 30
0.0
 11
307.899372
 21
295.201632
 31
0.0
  0
LINE
  5
94
330
1F
100
AcDbEntity
  8
1
100
AcDbLine
 10
310.279695
 20
295.507676
 30
0.0
 11
310.315042
 21
295.512221
 31
0.0
  0
LINE
  5
95
330
1F
100
AcDbEntity
  8
1
100
AcDbLine
 10
306.617281
 20
290.783526
 30
0.0
 11
309.822675
 21
291.195652
 31
0.0
  0
LINE
  5
96
330
1F
100
AcDbEntity
  8
1
100
AcDbLine
 10
304.096083
 20
294.429005
 30
0.0
 11
305.386519
 21
294.878549
 31
0.0
  0
LINE
  5
97
330
1F
100
AcDbEntity
  8
1
100
AcDbLine
 10
305.340576
 20
290.5458
 30
0.0
 11
305.014813
 21
291.4609089999999
 31
0.0
  0
LINE
  5
98
330
1F
100
AcDbEntity
  8
1
100
AcDbLine
 10
305.490811
 20
290.391103
 30
0.0
 11
306.289423
 21
290.669312
 31
0.0
  0
LINE
  5
99
330
1F
100
AcDbEntity
  8
1
100
AcDbLine
 10
306.557159
 20
290.762582
 30
0.0
 11
306.617281
 21
290.783526
 31
0.0
  0
LINE
  5
9A
330
1F
100
AcDbEntity
  8
1
100
AcDbLine
 10
305.386519
 20
294.878549
 30
0.0
 11
306.617281
 21
290.783526
 31
0.0
  0
LINE
  5
9B
330
1F
100
AcDbEntity
  8
1
100
AcDbLine
 10
306.424394
 20
290.745943
 30
0.0
 11
305.626725
 21
290.293045
 31
0.0
  0
LINE
  5
9C
330
1F
100
AcDbEntity
  8
1
100
AcDbLine
 10
309.815042
 20
286.771209
 30
0.0
 11
309.815042
 21
291.18303
 31
0.0
  0
LINE
  5
9D
330
1F
100
AcDbEntity
  8
1
100
AcDbLine
 10
309.815042
 20
305.73343
 30
0.0
 11
309.815042
 21
305.862502
 31
0.0
  0
LINE
  5
9E
330
1F
100
AcDbEntity
  8
1
100
AcDbLine
 10
309.815042
 20
306.752302
 30
0.0
 11
309.815042
 21
308.921627
 31
0.0
  0
LINE
  5
9F
330
1F
100
AcDbEntity
  8
1
100
AcDbLine
 10
305.203332
 20
275.403105
 30
0.0
 11
305.115313
 21
275.500844
 31
0.0
  0
LINE
  5
A0
330
1F
100
AcDbEntity
  8
1
100
AcDbLine
 10
303.715042
 20
294.327654
 30
0.0
 11
303.715042
 21
293.617895
 31
0.0
  0
LINE
  5
A1
330
1F
100
AcDbEntity
  8
1
100
AcDbLine
 10
309.815042
 20
282.284231
 30
0.0
 11
309.815042
 21
283.650966
 31
0.0
  0
LINE
  5
A2
330
1F
100
AcDbEntity
  8
1
100
AcDbLine
 10
268.315042
 20
279.201634
 30
0.0
 11
268.315042
 21
311.201634
 31
0.0
  0
LINE
  5
A3
330
1F
100
AcDbEntity
  8
SK1
100
AcDbLine
 10
268.315042
 20
311.201634
 30
0.0
 11
209.315042
 21
311.201634
 31
0.0
  0
LINE
  5
A4
330
1F
100
AcDbEntity
  8
SK1
100
AcDbLine
 10
209.315042
 20
279.201634
 30
0.0
 11
268.315042
 21
279.201634
 31
0.0
  0
LINE
  5
A5
330
1F
100
AcDbEntity
  8
SK1
100
AcDbLine
 10
209.315042
 20
311.201634
 30
0.0
 11
209.315042
 21
279.201634
 31
0.0
  0
LINE
  5
A6
330
1F
100
AcDbEntity
  8
SK1
100
AcDbLine
 10
208.315042
 20
310.201634
 30
0.0
 11
208.315042
 21
280.201634
 31
0.0
  0
LINE
  5
A7
330
1F
100
AcDbEntity
  8
SK1
100
AcDbLine
 10
208.315042
 20
280.201634
 30
0.0
 11
209.315042
 21
279.201634
 31
0.0
  0
LINE
  5
A8
330
1F
100
AcDbEntity
  8
SK1
100
AcDbLine
 10
209.315042
 20
311.201634
 30
0.0
 11
208.315042
 21
310.201634
 31
0.0
  0
LINE
  5
A9
330
1F
100
AcDbEntity
  8
1
100
AcDbLine
 10
309.815042
 20
299.487019
 30
0.0
 11
309.815042
 21
299.478149
 31
0.0
  0
LINE
  5
AA
330
1F
100
AcDbEntity
  8
1
100
AcDbLine
 10
305.059283
 20
282.438423
 30
0.0
 11
305.059283
 21
274.902481
 31
0.0
  0
LINE
  5
AB
330
1F
100
AcDbEntity
  8
1
100
AcDbLine
 10
298.639532
 20
286.254736
 30
0.0
 11
298.2586990000001
 21
285.40534
 31
0.0
  0
LINE
  5
AC
330
1F
100
AcDbEntity
  8
1
100
AcDbLine
 10
308.167538
 20
284.962259
 30
0.0
 11
309.815042
 21
284.752624
 31
0.0
  0
LINE
  5
AD
330
1F
100
AcDbEntity
  8
1
100
AcDbLine
 10
309.815042
 20
285.126236
 30
0.0
 11
309.815042
 21
284.752624
 31
0.0
  0
LINE
  5
AE
330
1F
100
AcDbEntity
  8
1
100
AcDbLine
 10
306.194761
 20
301.442178
 30
0.0
 11
306.427299
 21
301.412191
 31
0.0
  0
LINE
  5
AF
330
1F
100
AcDbEntity
  8
1
100
AcDbLine
 10
278.709102
 20
279.869536
 30
0.0
 11
285.751143
 21
277.16635
 31
0.0
  0
LINE
  5
B0
330
1F
100
AcDbEntity
  8
1
100
AcDbLine
 10
285.751143
 20
313.236918
 30
0.0
 11
278.709102
 21
310.533732
 31
0.0
  0
LINE
  5
B1
330
1F
100
AcDbEntity
  8
1
100
AcDbLine
 10
305.310993
 20
296.901478
 30
0.0
 11
305.178204
 21
296.536643
 31
0.0
  0
LINE
  5
B3
330
1F
100
AcDbEntity
  8
1
100
AcDbLine
 10
303.758099
 20
297.135467
 30
0.0
 11
303.826931
 21
297.324581
 31
0.0
  0
LINE
  5
B4
330
1F
100
AcDbEntity
  8
1
100
AcDbLine
 10
305.561522
 20
296.77254
 30
0.0
 11
305.534761
 21
296.699014
 31
0.0
  0
LINE
  5
B5
330
1F
100
AcDbEntity
  8
1
100
AcDbLine
 10
304.114656
 20
297.297837
 30
0.0
 11
304.127173
 21
297.332227
 31
0.0
  0
LINE
  5
B6
330
1F
100
AcDbEntity
  8
1
100
AcDbLine
 10
309.815042
 20
305.733432
 30
0.0
 11
308.167538
 21
306.723936
 31
0.0
  0
LINE
  5
B7
330
1F
100
AcDbEntity
  8
1
100
AcDbLine
 10
309.815042
 20
304.73242
 30
0.0
 11
309.815042
 21
305.733432
 31
0.0
  0
LINE
  5
B8
330
1F
100
AcDbEntity
  8
1
100
AcDbLine
 10
298.639532
 20
312.369976
 30
0.0
 11
298.2586990000001
 21
313.52193
 31
0.0
  0
LINE
  5
B9
330
1F
100
AcDbEntity
  8
1
100
AcDbLine
 10
299.928548
 20
296.507699
 30
0.0
 11
301.858365
 21
295.971249
 31
0.0
  0
LINE
  5
BA
330
1F
100
AcDbEntity
  8
1
100
AcDbLine
 10
307.311224
 20
284.464322
 30
0.0
 11
309.309125
 21
284.317017
 31
0.0
  0
LINE
  5
BB
330
1F
100
AcDbEntity
  8
1
100
AcDbLine
 10
309.815042
 20
284.540766
 30
0.0
 11
309.815042
 21
284.752624
 31
0.0
  0
LINE
  5
BC
330
1F
100
AcDbEntity
  8
1
100
AcDbLine
 10
303.715042
 20
294.327654
 30
0.0
 11
303.715042
 21
295.040332
 31
0.0
  0
LINE
  5
BD
330
1F
100
AcDbEntity
  8
1
100
AcDbLine
 10
269.410487
 20
280.201634
 30
0.0
 11
276.917262
 21
280.201634
 31
0.0
  0
LINE
  5
BE
330
1F
100
AcDbEntity
  8
1
100
AcDbLine
 10
276.917262
 20
310.201634
 30
0.0
 11
269.410487
 21
310.201634
 31
0.0
  0
LINE
  5
BF
330
1F
100
AcDbEntity
  8
1
100
AcDbLine
 10
292.888347
 20
313.145936
 30
0.0
 11
292.888347
 21
302.379699
 31
0.0
  0
LINE
  5
C0
330
1F
100
AcDbEntity
  8
1
100
AcDbLine
 10
277.843957
 20
308.788084
 30
0.0
 11
277.843957
 21
281.615184
 31
0.0
  0
LINE
  5
C1
330
1F
100
AcDbEntity
  8
1
100
AcDbLine
 10
292.888347
 20
276.807783
 30
0.0
 11
292.888347
 21
286.635872
 31
0.0
  0
LINE
  5
C2
330
1F
100
AcDbEntity
  8
1
100
AcDbLine
 10
303.529524
 20
297.404559
 30
0.0
 11
303.499264
 21
297.3214200000001
 31
0.0
  0
LINE
  5
C3
330
1F
100
AcDbEntity
  8
1
100
AcDbLine
 10
303.630462
 20
297.392702
 30
0.0
 11
303.59079
 21
297.283704
 31
0.0
  0
LINE
  5
C4
330
1F
100
AcDbEntity
  8
1
100
AcDbLine
 10
304.259816
 20
297.304189
 30
0.0
 11
304.112433
 21
296.899259
 31
0.0
  0
LINE
  5
C5
330
1F
100
AcDbEntity
  8
1
100
AcDbLine
 10
304.243999
 20
297.308138
 30
0.0
 11
304.095372
 21
296.899786
 31
0.0
  0
LINE
  5
C6
330
1F
100
AcDbEntity
  8
1
100
AcDbLine
 10
305.555282
 20
296.712959
 30
0.0
 11
305.573923
 21
296.764173
 31
0.0
  0
LINE
  5
C7
330
1F
100
AcDbEntity
  8
1
100
AcDbLine
 10
305.562156
 20
296.4809180000001
 30
0.0
 11
305.607803
 21
296.606332
 31
0.0
  0
LINE
  5
C8
330
1F
100
AcDbEntity
  8
1
100
AcDbLine
 10
305.6336990000001
 20
296.450945
 30
0.0
 11
305.67477
 21
296.563787
 31
0.0
  0
LINE
  5
C9
330
1F
100
AcDbEntity
  8
1
100
AcDbLine
 10
291.779119
 20
300.574188
 30
0.0
 11
296.553686
 21
299.63902
 31
0.0
  0
LINE
  5
CA
330
1F
100
AcDbEntity
  8
1
100
AcDbLine
 10
302.760513
 20
297.875715
 30
0.0
 11
302.7266879999999
 21
297.782782
 31
0.0
  0
LINE
  5
CB
330
1F
100
AcDbEntity
  8
1
100
AcDbLine
 10
306.673397
 20
296.346297
 30
0.0
 11
306.707222
 21
296.439231
 31
0.0
  0
LINE
  5
CC
330
1F
100
AcDbEntity
  8
1
100
AcDbLine
 10
309.822675
 20
290.929452
 30
0.0
 11
309.815012
 21
290.925099
 31
0.0
  0
LINE
  5
CD
330
1F
100
AcDbEntity
  8
1
100
AcDbLine
 10
309.822675
 20
291.195652
 30
0.0
 11
309.822675
 21
290.929452
 31
0.0
  0
LINE
  5
CE
330
1F
100
AcDbEntity
  8
1
100
AcDbLine
 10
306.03751
 20
311.692252
 30
0.0
 11
306.037487
 21
311.692266
 31
0.0
  0
LINE
  5
CF
330
1F
100
AcDbEntity
  8
1
100
AcDbLine
 10
310.315042
 20
309.734141
 30
0.0
 11
310.315042
 21
311.201634
 31
0.0
  0
LINE
  5
D0
330
1F
100
AcDbEntity
  8
1
100
AcDbLine
 10
305.386519
 20
315.956535
 30
0.0
 11
310.315042
 21
311.201634
 31
0.0
  0
LINE
  5
D1
330
1F
100
AcDbEntity
  8
1
100
AcDbLine
 10
305.386519
 20
315.956535
 30
0.0
 11
303.973432
 21
315.852348
 31
0.0
  0
LINE
  5
D2
330
1F
100
AcDbEntity
  8
1
100
AcDbLine
 10
299.968699
 20
311.398158
 30
0.0
 11
303.973432
 21
315.852348
 31
0.0
  0
LINE
  5
D3
330
1F
100
AcDbEntity
  8
1
100
AcDbLine
 10
307.960241
 20
306.858665
 30
0.0
 11
309.822675
 21
308.930123
 31
0.0
  0
LINE
  5
D4
330
1F
100
AcDbEntity
  8
1
100
AcDbLine
 10
309.822675
 20
308.930123
 30
0.0
 11
310.315042
 21
309.734141
 31
0.0
  0
LINE
  5
D5
330
1F
100
AcDbEntity
  8
1
100
AcDbLine
 10
307.821363
 20
306.960593
 30
0.0
 11
310.315042
 21
309.734141
 31
0.0
  0
LINE
  5
D6
330
1F
100
AcDbEntity
  8
1
100
AcDbLine
 10
309.822675
 20
291.195652
 30
0.0
 11
310.24521
 21
294.90001
 31
0.0
  0
LINE
  5
D7
330
1F
100
AcDbEntity
  8
1
100
AcDbLine
 10
310.297232
 20
295.356083
 30
0.0
 11
310.315042
 21
295.512221
 31
0.0
  0
LINE
  5
D8
330
1F
100
AcDbEntity
  8
1
100
AcDbLine
 10
310.315042
 20
295.512221
 30
0.0
 11
310.315042
 21
295.201634
 31
0.0
  0
LINE
  5
D9
330
1F
100
AcDbEntity
  8
1
100
AcDbLine
 10
310.279768
 20
294.895572
 30
0.0
 11
309.822675
 21
290.929452
 31
0.0
  0
LINE
  5
DA
330
1F
100
AcDbEntity
  8
1
100
AcDbLine
 10
309.815042
 20
285.124427
 30
0.0
 11
309.815042
 21
285.670847
 31
0.0
  0
LINE
  5
DB
330
1F
100
AcDbEntity
  8
1
100
AcDbLine
 10
309.815042
 20
286.481947
 30
0.0
 11
309.815042
 21
286.771209
 31
0.0
  0
LINE
  5
DC
330
1F
100
AcDbEntity
  8
1
100
AcDbLine
 10
309.815042
 20
303.921321
 30
0.0
 11
309.815042
 21
299.487019
 31
0.0
  0
LINE
  5
DD
330
1F
100
AcDbEntity
  8
1
100
AcDbLine
 10
309.815042
 20
282.284231
 30
0.0
 11
309.815042
 21
280.217386
 31
0.0
  0
LINE
  5
DE
330
1F
100
AcDbEntity
  8
1
100
AcDbLine
 10
305.059283
 20
311.593738
 30
0.0
 11
305.059283
 21
299.622611
 31
0.0
  0
LINE
  5
DF
330
1F
100
AcDbEntity
  8
1
100
AcDbLine
 10
306.03751
 20
311.692252
 30
0.0
 11
305.755673
 21
311.856138
 31
0.0
  0
LINE
  5
E0
330
1F
100
AcDbEntity
  8
1
100
AcDbLine
 10
309.822675
 20
281.473145
 30
0.0
 11
310.315042
 21
280.669127
 31
0.0
  0
LINE
  5
E1
330
1F
100
AcDbEntity
  8
1
100
AcDbLine
 10
310.315042
 20
280.669127
 30
0.0
 11
310.315042
 21
279.201634
 31
0.0
  0
LINE
  5
E2
330
1F
100
AcDbEntity
  8
1
100
AcDbLine
 10
305.386519
 20
274.446733
 30
0.0
 11
310.315042
 21
279.201634
 31
0.0
  0
LINE
  5
E3
330
1F
100
AcDbEntity
  8
1
100
AcDbLine
 10
310.315042
 20
279.201634
 30
0.0
 11
309.822675
 21
280.215379
 31
0.0
  0
LINE
  5
E4
330
1F
100
AcDbEntity
  8
1
100
AcDbLine
 10
306.617281
 20
277.122905
 30
0.0
 11
305.386519
 21
274.446733
 31
0.0
  0
LINE
  5
E5
330
1F
100
AcDbEntity
  8
1
100
AcDbLine
 10
305.386519
 20
274.446733
 30
0.0
 11
303.973432
 21
274.55092
 31
0.0
  0
LINE
  5
E6
330
1F
100
AcDbEntity
  8
1
100
AcDbLine
 10
303.7700529999999
 20
274.777124
 30
0.0
 11
303.973432
 21
274.55092
 31
0.0
  0
LINE
  5
E7
330
1F
100
AcDbEntity
  8
1
100
AcDbLine
 10
303.973432
 20
274.55092
 30
0.0
 11
304.089705
 21
274.766899
 31
0.0
  0
LINE
  5
E8
330
1F
100
AcDbEntity
  8
1
100
AcDbLine
 10
309.822675
 20
280.215379
 30
0.0
 11
306.617281
 21
277.122905
 31
0.0
  0
LINE
  5
E9
330
1F
100
AcDbEntity
  8
1
100
AcDbLine
 10
309.822675
 20
281.473145
 30
0.0
 11
309.822675
 21
280.215379
 31
0.0
  0
LINE
  5
EA
330
1F
100
AcDbEntity
  8
1
100
AcDbLine
 10
309.815012
 20
281.481668
 30
0.0
 11
309.822675
 21
281.473145
 31
0.0
  0
LINE
  5
EB
330
1F
100
AcDbEntity
  8
81
100
AcDbLine
 10
308.315042
 20
311.201634
 30
0.0
 11
312.315042
 21
311.201634
 31
0.0
  0
LINE
  5
EC
330
1F
100
AcDbEntity
  8
80
100
AcDbLine
 10
268.315042
 20
294.20206
 30
0.0
 11
268.315042
 21
296.201207
 31
0.0
  0
LINE
  5
ED
330
1F
100
AcDbEntity
  8
81
100
AcDbLine
 10
310.315042
 20
309.201634
 30
0.0
 11
310.315042
 21
313.201634
 31
0.0
  0
LINE
  5
107
330
1F
100
AcDbEntity
  8
NOCUT
100
AcDbLine
 10
291.94335
 20
295.201634
 30
0.0
 11
303.715042
 21
295.201634
 31
0.0
  0
LINE
  5
109
330
1F
100
AcDbEntity
  8
NOCUT
100
AcDbLine
 10
291.94335
 20
295.201634
 30
0.0
 11
290.815042
 21
298.301634
 31
0.0
  0
LINE
  5
10A
330
1F
100
AcDbEntity
  8
NOCUT
100
AcDbLine
 10
290.815042
 20
298.301634
 30
0.0
 11
209.315042
 21
298.301634
 31
0.0
  0
LINE
  5
10B
330
1F
100
AcDbEntity
  8
NOCUT
100
AcDbLine
 10
303.715042
 20
303.401634
 30
0.0
 11
303.715042
 21
295.201634
 31
0.0
  0
LINE
  5
10C
330
1F
100
AcDbEntity
  8
NOCUT
100
AcDbLine
 10
209.315042
 20
298.301634
 30
0.0
 11
208.315042
 21
299.301634
 31
0.0
  0
LINE
  5
10D
330
1F
100
AcDbEntity
  8
NOCUT
100
AcDbLine
 10
208.315042
 20
299.301634
 30
0.0
 11
208.315042
 21
310.201634
 31
0.0
  0
LINE
  5
10E
330
1F
100
AcDbEntity
  8
NOCUT
100
AcDbLine
 10
208.315042
 20
310.201634
 30
0.0
 11
209.315042
 21
311.201634
 31
0.0
  0
LINE
  5
10F
330
1F
100
AcDbEntity
  8
NOCUT
100
AcDbLine
 10
209.315042
 20
311.201634
 30
0.0
 11
268.315042
 21
311.201634
 31
0.0
  0
LINE
  5
110
330
1F
100
AcDbEntity
  8
NOCUT
100
AcDbLine
 10
269.410487
 20
310.201634
 30
0.0
 11
276.917262
 21
310.201634
 31
0.0
  0
LINE
  5
111
330
1F
100
AcDbEntity
  8
NOCUT
100
AcDbLine
 10
278.709102
 20
310.533732
 30
0.0
 11
292.023202
 21
315.644536
 31
0.0
  0
LINE
  5
112
330
1F
100
AcDbEntity
  8
NOCUT
100
AcDbLine
 10
293.815042
 20
315.976634
 30
0.0
 11
305.059283
 21
315.976634
 31
0.0
  0
LINE
  5
113
330
1F
100
AcDbEntity
  8
NOCUT
100
AcDbLine
 10
305.059283
 20
315.976634
 30
0.0
 11
309.815042
 21
310.786634
 31
0.0
  0
LINE
  5
114
330
1F
100
AcDbEntity
  8
NOCUT
100
AcDbLine
 10
309.815042
 20
310.786634
 30
0.0
 11
309.815042
 21
309.501634
 31
0.0
  0
LINE
  5
115
330
1F
100
AcDbEntity
  8
NOCUT
100
AcDbLine
 10
309.815042
 20
309.501634
 30
0.0
 11
303.715042
 21
303.401634
 31
0.0
  0
ARC
  5
11E
330
1F
100
AcDbEntity
  8
1
100
AcDbCircle
 10
269.410487
 20
311.301634
 30
0.0
 40
1.1
100
AcDbArc
 50
185.215909
 51
270.0
  0
ARC
  5
11F
330
1F
100
AcDbEntity
  8
1
100
AcDbCircle
 10
276.917262
 20
275.201634
 30
0.0
 40
5.0
100
AcDbArc
 50
69.0
 51
90.0
  0
ARC
  5
120
330
1F
100
AcDbEntity
  8
1
100
AcDbCircle
 10
276.917262
 20
315.201634
 30
0.0
 40
5.0
100
AcDbArc
 50
270.0
 51
291.0
  0
ARC
  5
121
330
1F
100
AcDbEntity
  8
1
100
AcDbCircle
 10
269.410487
 20
279.101634
 30
0.0
 40
1.1
100
AcDbArc
 50
90.0
 51
174.784091
  0
ARC
  5
122
330
1F
100
AcDbEntity
  8
1
100
AcDbCircle
 10
306.940037
 20
303.218874
 30
0.0
 40
6.999999999999999
100
AcDbArc
 50
236.562039
 51
244.810572
  0
ARC
  5
123
330
1F
100
AcDbEntity
  8
1
100
AcDbCircle
 10
306.940037
 20
303.218874
 30
0.0
 40
6.999999999999999
100
AcDbArc
 50
255.189428
 51
263.437961
  0
ARC
  5
136
330
1F
100
AcDbEntity
  8
NOCUT
100
AcDbCircle
 10
269.410487
 20
311.301634
 30
0.0
 40
1.1
100
AcDbArc
 50
185.215909
 51
270.0
  0
ARC
  5
137
330
1F
100
AcDbEntity
  8
NOCUT
100
AcDbCircle
 10
276.917262
 20
315.201634
 30
0.0
 40
5.0
100
AcDbArc
 50
270.0
 51
291.0
  0
ARC
  5
138
330
1F
100
AcDbEntity
  8
NOCUT
100
AcDbCircle
 10
293.815042
 20
310.976634
 30
0.0
 40
5.0
100
AcDbArc
 50
90.0
 51
111.0
  0
ELLIPSE
  5
139
330
1F
100
AcDbEntity
  8
1
100
AcDbEllipse
 10
277.925392
 20
295.201634
 30
0.0
 11
-34.42064003748072
 21
-18.00828533363609
 31
0.0
210
0.0
220
0.0
230
0.9999999999999998
 40
0.300944
 41
2.27239886630022
 42
2.307236557374666
  0
ELLIPSE
  5
13A
330
1F
100
AcDbEntity
  8
1
100
AcDbEllipse
 10
303.022142
 20
295.201634
 30
0.0
 11
-1.741088447544156
 21
20.76625257953648
 31
0.0
210
0.0
220
0.0
230
1.0
 40
0.346225
 41
0.462018900149413
 42
0.5238651991481698
  0
ELLIPSE
  5
13B
330
1F
100
AcDbEntity
  8
1
100
AcDbEllipse
 10
309.528512
 20
295.201634
 30
0.0
 11
-40.36717810743227
 21
16.27185324995898
 31
0.0
210
0.0
220
0.0
230
1.0
 40
0.319967
 41
5.121213390888295
 42
5.237021075768899
  0
ELLIPSE
  5
13C
330
1F
100
AcDbEntity
  8
1
100
AcDbEllipse
 10
320.839703
 20
295.201634
 30
0.0
 11
-119.1163040096244
 21
20.75923526115121
 31
0.0
210
0.0
220
0.0
230
1.0
 40
0.006793
 41
4.853034071726717
 42
4.942441812306216
  0
ELLIPSE
  5
13D
330
1F
100
AcDbEntity
  8
1
100
AcDbEllipse
 10
304.679975
 20
297.009405
 30
0.0
 11
-2.114308396768247
 21
0.7695453224827364
 31
0.0
210
0.0
220
0.0
230
0.9999999999999998
 40
0.195061
 41
0.0
 42
6.283185307179585
  0
ELLIPSE
  5
13E
330
1F
100
AcDbEntity
  8
1
100
AcDbEllipse
 10
307.311224
 20
282.0185
 30
0.0
 11
0.7540213138106257
 21
-1.296708085237112
 31
0.0
210
0.0
220
0.0
230
1.0
 40
0.9216419999999999
 41
5.060498062102996
 42
6.283185307179585
  0
ELLIPSE
  5
13F
330
1F
100
AcDbEntity
  8
1
100
AcDbEllipse
 10
307.311224
 20
282.0185
 30
0.0
 11
0.7540213138106257
 21
-1.296708085237112
 31
0.0
210
0.0
220
0.0
230
1.0
 40
0.9216419999999999
 41
0.0
 42
3.235330599401252
  0
ELLIPSE
  5
140
330
1F
100
AcDbEntity
  8
1
100
AcDbEllipse
 10
303.022142
 20
295.201634
 30
0.0
 11
-7.270611548640574
 21
-20.76950544055024
 31
0.0
210
0.0
220
0.0
230
0.9999999999999998
 40
0.065716
 41
5.226428562483847
 42
5.288274860455168
  0
ELLIPSE
  5
141
330
1F
100
AcDbEntity
  8
1
100
AcDbEllipse
 10
320.839703
 20
295.201634
 30
0.0
 11
-119.1162931163639
 21
0.8598715686583384
 31
0.0
210
0.0
220
0.0
230
1.0
 40
0.17426
 41
1.34318533612723
 42
1.432593076798134
  0
ELLIPSE
  5
142
330
1F
100
AcDbEntity
  8
1
100
AcDbEllipse
 10
277.925392
 20
295.201633
 30
0.0
 11
-34.28346913559547
 21
15.71544023814527
 31
0.0
210
0.0
220
0.0
230
0.9999999999999998
 40
0.396334
 41
2.608283505153178
 42
2.643121196612959
  0
ELLIPSE
  5
143
330
1F
100
AcDbEntity
  8
1
100
AcDbEllipse
 10
300.224561
 20
284.784701
 30
0.0
 11
-0.6409349848957024
 21
2.346981122952591
 31
0.0
210
0.0
220
0.0
230
1.0
 40
0.715083
 41
4.067967485653976
 42
6.999071838398111
  0
ELLIPSE
  5
144
330
1F
100
AcDbEntity
  8
1
100
AcDbEllipse
 10
309.528512
 20
295.201634
 30
0.0
 11
-40.37624859446597
 21
16.60031280181418
 31
0.0
210
0.0
220
0.0
230
0.9999999999999998
 40
0.30937
 41
1.510053823587879
 42
1.587284852374992
  0
ELLIPSE
  5
145
330
1F
100
AcDbEntity
  8
1
100
AcDbEllipse
 10
308.657241
 20
282.801195
 30
0.0
 11
-1.869106060177101
 21
1.74234927350294
 31
0.0
210
0.0
220
0.0
230
1.0
 40
0.699864
 41
5.511680524041847
 42
7.134059629191455
  0
ELLIPSE
  5
146
330
1F
100
AcDbEntity
  8
1
100
AcDbEllipse
 10
309.528512
 20
295.201634
 30
0.0
 11
-40.37624870373504
 21
16.6003128408932
 31
0.0
210
0.0
220
0.0
230
0.9999999999999998
 40
0.30937
 41
1.300948855439325
 42
1.416756540240159
  0
ELLIPSE
  5
147
330
1F
100
AcDbEntity
  8
1
100
AcDbEllipse
 10
401.6538399999999
 20
261.49564
 30
0.0
 11
-122.1177337470684
 21
46.94405203356547
 31
0.0
210
0.0
220
0.0
230
1.0
 40
0.205655
 41
0.4393253358563875
 42
0.5413635448594896
  0
ELLIPSE
  5
148
330
1F
100
AcDbEntity
  8
1
100
AcDbEllipse
 10
401.6538399999999
 20
262.413586
 30
0.0
 11
-122.1104691843114
 21
45.81013074006843
 31
0.0
210
0.0
220
0.0
230
1.0
 40
0.212742
 41
5.900356986270549
 42
6.002395195256518
  0
ELLIPSE
  5
149
330
1F
100
AcDbEntity
  8
1
100
AcDbEllipse
 10
401.6538399999999
 20
327.989682
 30
0.0
 11
-122.1104691503392
 21
-45.81013072448904
 31
0.0
210
0.0
220
0.0
230
0.9999999999999998
 40
0.212742
 41
0.2807901119663231
 42
0.3678047972200907
  0
ELLIPSE
  5
14A
330
1F
100
AcDbEntity
  8
1
100
AcDbEllipse
 10
292.767018
 20
295.813082
 30
0.0
 11
-8.039897945218511
 21
3.097847586341243
 31
0.0
210
0.0
220
0.0
230
1.0
 40
0.5623000000000001
 41
3.554963125010162
 42
3.869430163481919
  0
ELLIPSE
  5
14B
330
1F
100
AcDbEntity
  8
1
100
AcDbEllipse
 10
292.767018
 20
295.813082
 30
0.0
 11
-8.039897945595852
 21
3.09784758651393
 31
0.0
210
0.0
220
0.0
230
1.0
 40
0.5623000000000001
 41
3.037902451992026
 42
3.211403352693053
  0
ELLIPSE
  5
14C
330
1F
100
AcDbEntity
  8
1
100
AcDbEllipse
 10
305.10907
 20
296.973569
 30
0.0
 11
-0.093880655223939
 21
0.0341697640749216
 31
0.0
210
0.0
220
0.0
230
1.0
 40
0.195061
 41
1.839936066515266
 42
2.688871218926101
  0
ELLIPSE
  5
14D
330
1F
100
AcDbEntity
  8
1
100
AcDbEllipse
 10
305.272085
 20
296.896094
 30
0.0
 11
-0.0938806552239391
 21
0.0341697640749216
 31
0.0
210
0.0
220
0.0
230
1.0
 40
0.195061
 41
4.45792994450679
 42
5.830463872515894
  0
ELLIPSE
  5
14E
330
1F
100
AcDbEntity
  8
1
100
AcDbEllipse
 10
305.134761
 20
296.854454
 30
0.0
 11
-0.5224412546285854
 21
0.1901530658374946
 31
0.0
210
0.0
220
0.0
230
1.0
 40
0.195061
 41
3.537806371336893
 42
4.457929944506751
  0
ELLIPSE
  5
14F
330
1F
100
AcDbEntity
  8
1
100
AcDbEllipse
 10
305.5418620000001
 20
296.742817
 30
0.0
 11
-0.093880655223939
 21
0.0341697640749216
 31
0.0
210
0.0
220
0.0
230
1.0
 40
0.195061
 41
2.165272443327833
 42
3.53780637133683
  0
ELLIPSE
  5
150
330
1F
100
AcDbEntity
  8
1
100
AcDbEllipse
 10
305.635979
 20
296.6742
 30
0.0
 11
-0.093880655223939
 21
0.0341697640749216
 31
0.0
210
0.0
220
0.0
230
1.0
 40
0.195061
 41
5.306865096917516
 42
6.155800249328423
  0
ELLIPSE
  5
151
330
1F
100
AcDbEntity
  8
1
100
AcDbEllipse
 10
306.057202
 20
296.508861
 30
0.0
 11
-0.5224412546285853
 21
0.1901530658374945
 31
0.0
210
0.0
220
0.0
230
1.0
 40
0.195061
 41
6.155800249328396
 42
7.075923822498237
  0
ELLIPSE
  5
152
330
1F
100
AcDbEntity
  8
1
100
AcDbEllipse
 10
305.734725
 20
296.558802
 30
0.0
 11
-0.093880655223939
 21
0.0341697640749216
 31
0.0
210
0.0
220
0.0
230
1.0
 40
0.195061
 41
0.7927385153185658
 42
1.641673667729445
  0
ELLIPSE
  5
153
330
1F
100
AcDbEntity
  8
1
100
AcDbEllipse
 10
305.734725
 20
296.51743
 30
0.0
 11
-0.0938806552239391
 21
0.0341697640749216
 31
0.0
210
0.0
220
0.0
230
1.0
 40
0.195061
 41
3.41073239331018
 42
4.783266321319231
  0
ELLIPSE
  5
154
330
1F
100
AcDbEntity
  8
1
100
AcDbEllipse
 10
305.313502
 20
296.645569
 30
0.0
 11
-0.5224412546285854
 21
0.1901530658374946
 31
0.0
210
0.0
220
0.0
230
1.0
 40
0.195061
 41
2.490608820140276
 42
3.410732393310183
  0
ELLIPSE
  5
155
330
1F
100
AcDbEntity
  8
1
100
AcDbEllipse
 10
305.635979
 20
296.47083
 30
0.0
 11
-0.093880655223939
 21
0.0341697640749216
 31
0.0
210
0.0
220
0.0
230
1.0
 40
0.195061
 41
1.118074892131167
 42
2.490608820140288
  0
ELLIPSE
  5
156
330
1F
100
AcDbEntity
  8
1
100
AcDbEllipse
 10
305.5418620000001
 20
296.467788
 30
0.0
 11
-0.093880655223939
 21
0.0341697640749216
 31
0.0
210
0.0
220
0.0
230
1.0
 40
0.195061
 41
4.259667545721
 42
5.10860269813163
  0
ELLIPSE
  5
157
330
1F
100
AcDbEntity
  8
1
100
AcDbEllipse
 10
305.679187
 20
296.33047
 30
0.0
 11
-0.5224412546285853
 21
0.1901530658374945
 31
0.0
210
0.0
220
0.0
230
1.0
 40
0.195061
 41
5.108602698131825
 42
6.028726271301637
  0
ELLIPSE
  5
158
330
1F
100
AcDbEntity
  8
1
100
AcDbEllipse
 10
305.272085
 20
296.502474
 30
0.0
 11
-0.093880655223939
 21
0.0341697640749216
 31
0.0
210
0.0
220
0.0
230
1.0
 40
0.195061
 41
6.028726271301852
 42
6.877661423712539
  0
ELLIPSE
  5
159
330
1F
100
AcDbEntity
  8
1
100
AcDbEllipse
 10
301.638069
 20
294.001634
 30
0.0
 11
0.0
 21
1.5
 31
0.0
210
0.0
220
0.0
230
1.0
 40
0.6343170000000001
 41
2.268341300084855
 42
7.298885814236944
  0
ELLIPSE
  5
15A
330
1F
100
AcDbEntity
  8
1
100
AcDbEllipse
 10
301.638069
 20
294.001634
 30
0.0
 11
-0.0000000000000001
 21
-2.000000000000076
 31
0.0
210
0.0
220
0.0
230
1.0
 40
0.6343170000000001
 41
0.1848845335192379
 42
2.96705972839035
  0
ELLIPSE
  5
15B
330
1F
100
AcDbEntity
  8
1
100
AcDbEllipse
 10
300.557259
 20
296.924309
 30
0.0
 11
-8.466604839789356
 21
1.9759620787758
 31
0.0
210
0.0
220
0.0
230
1.0
 40
0.052071
 41
1.76072842945931
 42
1.841422861372421
  0
ELLIPSE
  5
15C
330
1F
100
AcDbEntity
  8
1
100
AcDbEllipse
 10
300.224561
 20
312.720891
 30
0.0
 11
-0.9916372845730199
 21
2.513334544308952
 31
0.0
210
0.0
220
0.0
230
1.0
 40
0.5960330000000001
 41
1.476163585202347
 42
1.89448730481464
  0
ELLIPSE
  5
15D
330
1F
100
AcDbEntity
  8
1
100
AcDbEllipse
 10
307.311224
 20
282.0185
 30
0.0
 11
1.256702189684377
 21
-2.161180142061855
 31
0.0
210
0.0
220
0.0
230
0.9999999999999998
 40
0.9216419999999999
 41
2.578742657666379
 42
2.84602842002234
  0
ELLIPSE
  5
15E
330
1F
100
AcDbEntity
  8
1
100
AcDbEllipse
 10
308.657241
 20
308.587029
 30
0.0
 11
-1.823954898533355
 21
1.922574501968603
 31
0.0
210
0.0
220
0.0
230
1.0
 40
0.668875
 41
0.3412879921210826
 42
1.963667097270659
  0
ELLIPSE
  5
15F
330
1F
100
AcDbEntity
  8
1
100
AcDbEllipse
 10
305.10907
 20
296.538576
 30
0.0
 11
-0.0938806552239391
 21
0.0341697640749216
 31
0.0
210
0.0
220
0.0
230
1.0
 40
0.195061
 41
2.363534842113665
 42
3.736068770122708
  0
ELLIPSE
  5
160
330
1F
100
AcDbEntity
  8
1
100
AcDbEllipse
 10
304.825171
 20
296.708355
 30
0.0
 11
-0.5224412546285854
 21
0.1901530658374946
 31
0.0
210
0.0
220
0.0
230
1.0
 40
0.195061
 41
1.443411268943721
 42
2.363534842113582
  0
ELLIPSE
  5
161
330
1F
100
AcDbEntity
  8
1
100
AcDbEllipse
 10
304.740547
 20
296.645253
 30
0.0
 11
-0.093880655223939
 21
0.0341697640749216
 31
0.0
210
0.0
220
0.0
230
1.0
 40
0.195061
 41
0.0708773409344574
 42
1.443411268943771
  0
ELLIPSE
  5
162
330
1F
100
AcDbEntity
  8
1
100
AcDbEllipse
 10
304.552313
 20
296.710828
 30
0.0
 11
-0.093880655223939
 21
0.0341697640749216
 31
0.0
210
0.0
220
0.0
230
1.0
 40
0.195061
 41
3.212469994524612
 42
4.06140514693522
  0
ELLIPSE
  5
163
330
1F
100
AcDbEntity
  8
1
100
AcDbEllipse
 10
304.268415
 20
296.73885
 30
0.0
 11
-0.5224412546285853
 21
0.1901530658374945
 31
0.0
210
0.0
220
0.0
230
1.0
 40
0.195061
 41
4.061405146935193
 42
4.981528720105058
  0
ELLIPSE
  5
164
330
1F
100
AcDbEntity
  8
1
100
AcDbEllipse
 10
304.183791
 20
296.860912
 30
0.0
 11
-0.093880655223939
 21
0.0341697640749216
 31
0.0
210
0.0
220
0.0
230
1.0
 40
0.195061
 41
4.981528720105094
 42
5.830463872515926
  0
ELLIPSE
  5
165
330
1F
100
AcDbEntity
  8
1
100
AcDbEllipse
 10
304.020775
 20
296.9383870000001
 30
0.0
 11
-0.0938806552239391
 21
0.0341697640749216
 31
0.0
210
0.0
220
0.0
230
1.0
 40
0.195061
 41
1.316337290916985
 42
2.688871218925922
  0
ELLIPSE
  5
166
330
1F
100
AcDbEntity
  8
1
100
AcDbEllipse
 10
304.1581
 20
296.9800259999999
 30
0.0
 11
-0.5224412546285854
 21
0.1901530658374946
 31
0.0
210
0.0
220
0.0
230
1.0
 40
0.195061
 41
0.3962137177470888
 42
1.316337290916952
  0
ELLIPSE
  5
167
330
1F
100
AcDbEntity
  8
1
100
AcDbEllipse
 10
303.750998
 20
297.091663
 30
0.0
 11
-0.093880655223939
 21
0.0341697640749216
 31
0.0
210
0.0
220
0.0
230
1.0
 40
0.195061
 41
5.306865096917618
 42
6.679399024926719
  0
ELLIPSE
  5
168
330
1F
100
AcDbEntity
  8
1
100
AcDbEllipse
 10
303.656881
 20
297.16028
 30
0.0
 11
-0.093880655223939
 21
0.0341697640749216
 31
0.0
210
0.0
220
0.0
230
1.0
 40
0.195061
 41
2.165272443327804
 42
3.014207595738631
  0
ELLIPSE
  5
169
330
1F
100
AcDbEntity
  8
1
100
AcDbEllipse
 10
303.235658
 20
297.32562
 30
0.0
 11
-0.5224412546285853
 21
0.1901530658374945
 31
0.0
210
0.0
220
0.0
230
1.0
 40
0.195061
 41
3.014207595738621
 42
3.934331168908448
  0
ELLIPSE
  5
16A
330
1F
100
AcDbEntity
  8
1
100
AcDbEllipse
 10
303.558136
 20
297.275679
 30
0.0
 11
-0.093880655223939
 21
0.0341697640749216
 31
0.0
210
0.0
220
0.0
230
1.0
 40
0.195061
 41
3.934331168908396
 42
4.783266321319315
  0
ELLIPSE
  5
16B
330
1F
100
AcDbEntity
  8
1
100
AcDbEllipse
 10
303.558136
 20
297.317051
 30
0.0
 11
-0.0938806552239391
 21
0.0341697640749216
 31
0.0
210
0.0
220
0.0
230
1.0
 40
0.195061
 41
0.2691397397203003
 42
1.64167366772948
  0
ELLIPSE
  5
16C
330
1F
100
AcDbEntity
  8
1
100
AcDbEllipse
 10
303.979358
 20
297.188911
 30
0.0
 11
-0.5224412546285854
 21
0.1901530658374946
 31
0.0
210
0.0
220
0.0
230
1.0
 40
0.195061
 41
5.632201473730077
 42
6.552325046899929
  0
ELLIPSE
  5
16D
330
1F
100
AcDbEntity
  8
1
100
AcDbEllipse
 10
303.656881
 20
297.36365
 30
0.0
 11
-0.093880655223939
 21
0.0341697640749216
 31
0.0
210
0.0
220
0.0
230
1.0
 40
0.195061
 41
4.259667545720991
 42
5.632201473730247
  0
ELLIPSE
  5
16E
330
1F
100
AcDbEntity
  8
1
100
AcDbEllipse
 10
303.750998
 20
297.366693
 30
0.0
 11
-0.093880655223939
 21
0.0341697640749216
 31
0.0
210
0.0
220
0.0
230
1.0
 40
0.195061
 41
1.118074892131167
 42
1.967010044541974
  0
ELLIPSE
  5
16F
330
1F
100
AcDbEntity
  8
1
100
AcDbEllipse
 10
303.613673
 20
297.50401
 30
0.0
 11
-0.5224412546285853
 21
0.1901530658374945
 31
0.0
210
0.0
220
0.0
230
1.0
 40
0.195061
 41
1.967010044542019
 42
2.887133617711873
  0
ELLIPSE
  5
170
330
1F
100
AcDbEntity
  8
1
100
AcDbEllipse
 10
304.020775
 20
297.332007
 30
0.0
 11
-0.093880655223939
 21
0.0341697640749216
 31
0.0
210
0.0
220
0.0
230
1.0
 40
0.195061
 41
2.887133617711706
 42
3.736068770122652
  0
ELLIPSE
  5
171
330
1F
100
AcDbEntity
  8
1
100
AcDbEllipse
 10
304.183791
 20
297.295904
 30
0.0
 11
-0.0938806552239391
 21
0.0341697640749216
 31
0.0
210
0.0
220
0.0
230
1.0
 40
0.195061
 41
5.505127495703343
 42
6.877661423712521
  0
ELLIPSE
  5
172
330
1F
100
AcDbEntity
  8
1
100
AcDbEllipse
 10
304.467689
 20
297.126126
 30
0.0
 11
-0.5224412546285854
 21
0.1901530658374946
 31
0.0
210
0.0
220
0.0
230
1.0
 40
0.195061
 41
4.585003922533511
 42
5.505127495703338
  0
ELLIPSE
  5
173
330
1F
100
AcDbEntity
  8
1
100
AcDbEllipse
 10
304.552313
 20
297.189227
 30
0.0
 11
-0.093880655223939
 21
0.0341697640749216
 31
0.0
210
0.0
220
0.0
230
1.0
 40
0.195061
 41
3.212469994524434
 42
4.585003922533598
  0
ELLIPSE
  5
174
330
1F
100
AcDbEntity
  8
1
100
AcDbEllipse
 10
304.740547
 20
297.123653
 30
0.0
 11
-0.093880655223939
 21
0.0341697640749216
 31
0.0
210
0.0
220
0.0
230
1.0
 40
0.195061
 41
0.0708773409345508
 42
0.9198124933454289
  0
ELLIPSE
  5
175
330
1F
100
AcDbEntity
  8
1
100
AcDbEllipse
 10
305.024445
 20
297.095631
 30
0.0
 11
-0.5224412546285853
 21
0.1901530658374945
 31
0.0
210
0.0
220
0.0
230
1.0
 40
0.195061
 41
0.9198124933454248
 42
1.839936066515266
  0
ELLIPSE
  5
176
330
1F
100
AcDbEntity
  8
1
100
AcDbEllipse
 10
304.64643
 20
296.91724
 30
0.0
 11
1.409538931178861
 21
-0.5130302149885035
 31
0.0
210
0.0
220
0.0
230
1.0
 40
0.195061
 41
0.0
 42
6.283185307179585
  0
ELLIPSE
  5
177
330
1F
100
AcDbEntity
  8
1
100
AcDbEllipse
 10
304.700043
 20
297.06454
 30
0.0
 11
1.973354503650407
 21
-0.7182423009839051
 31
0.0
210
0.0
220
0.0
230
1.0
 40
0.195061
 41
2.680657454203568
 42
3.826258735619004
  0
ELLIPSE
  5
178
330
1F
100
AcDbEntity
  8
1
100
AcDbEllipse
 10
304.700043
 20
297.06454
 30
0.0
 11
1.973354503650407
 21
-0.7182423009839051
 31
0.0
210
0.0
220
0.0
230
1.0
 40
0.195061
 41
5.598509727185313
 42
6.283185307179585
  0
ELLIPSE
  5
179
330
1F
100
AcDbEntity
  8
1
100
AcDbEllipse
 10
304.700043
 20
297.06454
 30
0.0
 11
1.973354503650407
 21
-0.7182423009839051
 31
0.0
210
0.0
220
0.0
230
1.0
 40
0.195061
 41
0.0
 42
0.4610239115638061
  0
ELLIPSE
  5
17A
330
1F
100
AcDbEntity
  8
1
100
AcDbEllipse
 10
304.64643
 20
310.071921
 30
0.0
 11
-0.7540213138106263
 21
-1.296708085237112
 31
0.0
210
0.0
220
0.0
230
0.9999999999999996
 40
0.9216419999999999
 41
2.919044500271084
 42
3.309682033339167
  0
ELLIPSE
  5
17B
330
1F
100
AcDbEntity
  8
1
100
AcDbEllipse
 10
304.64643
 20
310.071921
 30
0.0
 11
-0.7540213138106263
 21
-1.296708085237112
 31
0.0
210
0.0
220
0.0
230
0.9999999999999996
 40
0.9216419999999999
 41
2.397147591163863
 42
2.919044500271081
  0
ELLIPSE
  5
17C
330
1F
100
AcDbEntity
  8
1
100
AcDbEllipse
 10
304.700043
 20
310.040746
 30
0.0
 11
-1.055629839334877
 21
-1.815391319331956
 31
0.0
210
0.0
220
0.0
230
0.9999999999999998
 40
0.9216419999999999
 41
2.919044500271081
 42
4.057675456021781
  0
ELLIPSE
  5
17D
330
1F
100
AcDbEntity
  8
1
100
AcDbEllipse
 10
304.700043
 20
310.040746
 30
0.0
 11
-1.055629839334877
 21
-1.815391319331956
 31
0.0
210
0.0
220
0.0
230
0.9999999999999998
 40
0.9216419999999999
 41
1.639631083479991
 42
2.919044500271076
  0
ELLIPSE
  5
17E
330
1F
100
AcDbEntity
  8
1
100
AcDbEllipse
 10
304.98188
 20
309.876861
 30
0.0
 11
1.055629839334877
 21
1.815391319331958
 31
0.0
210
0.0
220
0.0
230
0.9999999999999998
 40
0.9216419999999999
 41
5.957652005315908
 42
6.060637560397382
  0
ELLIPSE
  5
17F
330
1F
100
AcDbEntity
  8
1
100
AcDbEllipse
 10
304.98188
 20
309.876861
 30
0.0
 11
1.055629839334877
 21
1.815391319331958
 31
0.0
210
0.0
220
0.0
230
0.9999999999999998
 40
0.9216419999999999
 41
6.0606370459379
 42
6.283185307179585
  0
ELLIPSE
  5
180
330
1F
100
AcDbEntity
  8
1
100
AcDbEllipse
 10
304.898018
 20
309.925626
 30
0.0
 11
-1.131031970715919
 21
-1.945062127855633
 31
0.0
210
0.0
220
0.0
230
0.9999999999999998
 40
0.9216419999999999
 41
3.20250657131711
 42
3.834457531804919
  0
ELLIPSE
  5
181
330
1F
100
AcDbEntity
  8
1
100
AcDbEllipse
 10
304.679975
 20
310.052415
 30
0.0
 11
1.131031970715913
 21
1.945062127855624
 31
0.0
210
0.0
220
0.0
230
0.9999999999999996
 40
0.9216419999999999
 41
4.712041808108843
 42
6.283185307179585
  0
ELLIPSE
  5
182
330
1F
100
AcDbEntity
  8
1
100
AcDbEllipse
 10
304.679975
 20
310.052415
 30
0.0
 11
1.131031970715913
 21
1.945062127855624
 31
0.0
210
0.0
220
0.0
230
0.9999999999999996
 40
0.9216419999999999
 41
0.0
 42
0.994752669896814
  0
ELLIPSE
  5
183
330
1F
100
AcDbEntity
  8
1
100
AcDbEllipse
 10
320.839703
 20
295.201634
 30
0.0
 11
-119.1162930867877
 21
-0.8598715701884637
 31
0.0
210
0.0
220
0.0
230
1.0
 40
0.17426
 41
4.854928506791802
 42
4.939999971022531
  0
ELLIPSE
  5
184
330
1F
100
AcDbEntity
  8
1
100
AcDbEllipse
 10
309.528512
 20
295.201634
 30
0.0
 11
-40.36717810325356
 21
16.27185324756208
 31
0.0
210
0.0
220
0.0
230
1.0
 40
0.319967
 41
4.95068507906263
 42
5.027916107708326
  0
ELLIPSE
  5
185
330
1F
100
AcDbEntity
  8
1
100
AcDbEllipse
 10
307.095218
 20
281.755289
 30
0.0
 11
0.5529489634611251
 21
-0.9509192625072149
 31
0.0
210
0.0
220
0.0
230
1.0
 40
0.9216419999999999
 41
5.036253786880683
 42
6.283185307179585
  0
ELLIPSE
  5
186
330
1F
100
AcDbEntity
  8
1
100
AcDbEllipse
 10
307.095218
 20
281.755289
 30
0.0
 11
0.5529489634611251
 21
-0.9509192625072149
 31
0.0
210
0.0
220
0.0
230
1.0
 40
0.9216419999999999
 41
0.0
 42
0.2225479338583812
  0
ELLIPSE
  5
187
330
1F
100
AcDbEntity
  8
1
100
AcDbEllipse
 10
307.095218
 20
281.755289
 30
0.0
 11
0.5529489634611251
 21
-0.9509192625072149
 31
0.0
210
0.0
220
0.0
230
1.0
 40
0.9216419999999999
 41
0.2225484770876496
 42
3.262235360165123
  0
SPLINE
  5
191
330
1F
100
AcDbEntity
  8
1
100
AcDbSpline
210
0.0
220
0.0
230
1.0
 70
     8
 71
     3
 72
     8
 73
     4
 74
     0
 42
0.000000001
 43
0.0000000001
 40
0.0
 40
0.0
 40
0.0
 40
0.0
 40
1.0
 40
1.0
 40
1.0
 40
1.0
 10
305.2137631557052
 20
299.9377779236848
 30
0.0
 10
305.1628379503346
 20
299.8328129575861
 30
0.0
 10
305.1113399499866
 20
299.7277564114028
 30
0.0
 10
305.0592831521456
 20
299.6226105230922
 30
0.0
  0
SPLINE
  5
192
330
1F
100
AcDbEntity
  8
1
100
AcDbSpline
210
0.0
220
0.0
230
1.0
 70
     8
 71
     3
 72
     8
 73
     4
 74
     0
 42
0.000000001
 43
0.0000000001
 40
0.0
 40
0.0
 40
0.0
 40
0.0
 40
1.0
 40
1.0
 40
1.0
 40
1.0
 10
305.2033319075255
 20
300.9559252363439
 30
0.0
 10
305.2109700210761
 20
300.6176970241098
 30
0.0
 10
305.2144504409438
 20
300.2783155122439
 30
0.0
 10
305.2137631557052
 20
299.9377779236848
 30
0.0
  0
SPLINE
  5
193
330
1F
100
AcDbEntity
  8
1
100
AcDbSpline
210
0.0
220
0.0
230
1.0
 70
     8
 71
     3
 72
    66
 73
    62
 74
     0
 42
0.000000001
 43
0.0000000001
 40
0.0
 40
0.0
 40
0.0
 40
0.0
 40
0.062500000000023
 40
0.062500000000023
 40
0.0937500000000355
 40
0.0937500000000355
 40
0.1093750000000411
 40
0.1093750000000411
 40
0.1250000000000467
 40
0.1250000000000467
 40
0.18750000000006
 40
0.18750000000006
 40
0.2031250000000622
 40
0.2031250000000622
 40
0.2187500000000644
 40
0.2500000000000647
 40
0.2812500000000651
 40
0.2812500000000651
 40
0.2968750000000659
 40
0.2968750000000659
 40
0.3125000000000668
 40
0.3125000000000668
 40
0.3750000000000683
 40
0.3750000000000683
 40
0.3906250000000656
 40
0.3906250000000656
 40
0.4062500000000629
 40
0.4062500000000629
 40
0.4375000000000615
 40
0.4687500000000602
 40
0.4687500000000602
 40
0.5000000000000587
 40
0.5000000000000587
 40
0.5625000000000583
 40
0.5625000000000583
 40
0.5937500000000586
 40
0.5937500000000586
 40
0.6250000000000587
 40
0.656250000000059
 40
0.656250000000059
 40
0.6718750000000578
 40
0.6718750000000578
 40
0.6875000000000564
 40
0.6875000000000564
 40
0.7500000000000463
 40
0.7500000000000463
 40
0.7812500000000417
 40
0.7812500000000417
 40
0.7968750000000393
 40
0.7968750000000393
 40
0.8125000000000369
 40
0.8125000000000369
 40
0.8750000000000257
 40
0.8750000000000257
 40
0.8906250000000225
 40
0.8906250000000225
 40
0.9062500000000191
 40
0.9062500000000191
 40
0.9375000000000127
 40
0.9375000000000127
 40
1.0
 40
1.0
 40
1.0
 40
1.0
 10
306.4272991758459
 20
301.4121909413729
 30
0.0
 10
306.4117071507522
 20
301.4823107188652
 30
0.0
 10
306.3915930873749
 20
301.5508743285466
 30
0.0
 10
306.3546730161304
 20
301.651393865835
 30
0.0
 10
306.3412329743634
 20
301.6845097866045
 30
0.0
 10
306.3192915780401
 20
301.7335692215139
 30
0.0
 10
306.3117106989328
 20
301.7497478000292
 30
0.0
 10
306.2961295523305
 20
301.7815272861946
 30
0.0
 10
306.2881133020109
 20
301.7971642330842
 30
0.0
 10
306.2469174533423
 20
301.8740961501621
 30
0.0
 10
306.2104327002288
 20
301.9316763547727
 30
0.0
 10
306.1602557058214
 20
301.9984440247189
 30
0.0
 10
306.1499620487842
 20
302.0115672370285
 30
0.0
 10
306.1290255764185
 20
302.0371141524856
 30
0.0
 10
306.0972270748277
 20
302.074233864096
 30
0.0
 10
306.0423117550129
 20
302.1302136896272
 30
0.0
 10
305.9963712986952
 20
302.1687635537089
 30
0.0
 10
305.9611484938289
 20
302.1952724794858
 30
0.0
 10
305.949279353528
 20
302.2037073486731
 30
0.0
 10
305.9252784235084
 20
302.2197519570803
 30
0.0
 10
305.9132145400953
 20
302.2273140882008
 30
0.0
 10
305.8529769807246
 20
302.2626174285363
 30
0.0
 10
305.8046595824979
 20
302.2831846537316
 30
0.0
 10
305.7441100182728
 20
302.2994017253513
 30
0.0
 10
305.7319922345164
 20
302.3021654036822
 30
0.0
 10
305.7077401469562
 20
302.3067147631969
 30
0.0
 10
305.6956826806488
 20
302.3084844435811
 30
0.0
 10
305.6598856663974
 20
302.3122892661995
 30
0.0
 10
305.6130035804442
 20
302.3133888868905
 30
0.0
 10
305.5677447621198
 20
302.3067983888015
 30
0.0
 10
305.5232877293497
 20
302.296356151506
 30
0.0
 10
305.5013759425698
 20
302.2891539777242
 30
0.0
 10
305.4382615437927
 20
302.2622737972587
 30
0.0
 10
305.3992122066855
 20
302.2373426950797
 30
0.0
 10
305.3449191034694
 20
302.1898059416992
 30
0.0
 10
305.327475773693
 20
302.1721603688837
 30
0.0
 10
305.2947052820456
 20
302.1341800458892
 30
0.0
 10
305.2638919280483
 20
302.0934110579615
 30
0.0
 10
305.2368350446426
 20
302.0472410584602
 30
0.0
 10
305.2179395438507
 20
302.0105874435501
 30
0.0
 10
305.2118743810932
 20
301.9980312133703
 30
0.0
 10
305.2002146183345
 20
301.9722336688074
 30
0.0
 10
305.1946148440499
 20
301.9589741671246
 30
0.0
 10
305.1680788240153
 20
301.8916556722007
 30
0.0
 10
305.1512402364573
 20
301.8340670216308
 30
0.0
 10
305.1323143622724
 20
301.7422388340026
 30
0.0
 10
305.1270698185176
 20
301.7107147725017
 30
0.0
 10
305.1208474826088
 20
301.6620103670066
 30
0.0
 10
305.1190561721668
 20
301.6455911413622
 30
0.0
 10
305.1160567783228
 20
301.61261713032
 30
0.0
 10
305.1148441905062
 20
301.5960281515268
 30
0.0
 10
305.110197963353
 20
301.5125796648881
 30
0.0
 10
305.1109682331537
 20
301.4442247445459
 30
0.0
 10
305.1177038893089
 20
301.3567317138209
 30
0.0
 10
305.1193425986692
 20
301.3391296624051
 30
0.0
 10
305.1232197431943
 20
301.3037131676269
 30
0.0
 10
305.1254500096107
 20
301.2859836675732
 30
0.0
 10
305.1329694938932
 20
301.2330361594961
 30
0.0
 10
305.1390987036573
 20
301.1979320591292
 30
0.0
 10
305.1608115636437
 20
301.0931994345526
 30
0.0
 10
305.179679740345
 20
301.0241433511208
 30
0.0
 10
305.2033319075255
 20
300.9559252363439
 30
0.0
  0
SPLINE
  5
194
330
1F
100
AcDbEntity
  8
1
100
AcDbSpline
210
0.0
220
0.0
230
1.0
 70
     8
 71
     3
 72
    10
 73
     6
 74
     0
 42
0.000000001
 43
0.0000000001
 40
0.0
 40
0.0
 40
0.0
 40
0.0
 40
0.5
 40
0.5
 40
1.0
 40
1.0
 40
1.0
 40
1.0
 10
306.4272991758459
 20
301.4121909413729
 30
0.0
 10
306.9934274714935
 20
301.0911360176607
 30
0.0
 10
307.5589474963117
 20
300.770159104444
 30
0.0
 10
308.6883619908713
 20
300.1284137548121
 30
0.0
 10
309.2522598880835
 20
299.8076448788252
 30
0.0
 10
309.8150419452959
 20
299.4870191088809
 30
0.0
  0
SPLINE
  5
195
330
1F
100
AcDbEntity
  8
1
100
AcDbSpline
210
0.0
220
0.0
230
1.0
 70
     8
 71
     3
 72
     8
 73
     4
 74
     0
 42
0.000000001
 43
0.0000000001
 40
0.0
 40
0.0
 40
0.0
 40
0.0
 40
1.0
 40
1.0
 40
1.0
 40
1.0
 10
306.9740784516012
 20
305.5186401143158
 30
0.0
 10
307.9211690600258
 20
304.9861877467916
 30
0.0
 10
308.8681777442949
 20
304.4537454141123
 30
0.0
 10
309.8150419452959
 20
303.9213207791094
 30
0.0
  0
SPLINE
  5
196
330
1F
100
AcDbEntity
  8
1
100
AcDbSpline
210
0.0
220
0.0
230
1.0
 70
     8
 71
     3
 72
    34
 73
    30
 74
     0
 42
0.000000001
 43
0.0000000001
 40
0.0
 40
0.0
 40
0.0
 40
0.0
 40
0.0624999999999992
 40
0.0624999999999992
 40
0.1249999999999985
 40
0.1249999999999985
 40
0.1874999999999977
 40
0.1874999999999977
 40
0.2187499999999974
 40
0.2187499999999974
 40
0.2499999999999971
 40
0.2499999999999971
 40
0.3124999999999977
 40
0.3124999999999977
 40
0.3749999999999984
 40
0.3749999999999984
 40
0.4999999999999992
 40
0.4999999999999992
 40
0.5624999999999995
 40
0.5624999999999995
 40
0.5937499999999992
 40
0.5937499999999992
 40
0.624999999999999
 40
0.624999999999999
 40
0.7499999999999992
 40
0.7499999999999992
 40
0.8749999999999996
 40
0.8749999999999996
 40
1.0
 40
1.0
 40
1.0
 40
1.0
 10
306.5080708126726
 20
309.9903831673445
 30
0.0
 10
306.4857987520476
 20
309.9343837560188
 30
0.0
 10
306.4673336909498
 20
309.8738936356363
 30
0.0
 10
306.4365592466955
 20
309.7452720873798
 30
0.0
 10
306.4242586222232
 20
309.6771324391838
 30
0.0
 10
306.4048587293877
 20
309.5340722415112
 30
0.0
 10
306.3977639025791
 20
309.4591475349292
 30
0.0
 10
306.3905218840678
 20
309.3421132406835
 30
0.0
 10
306.388676464076
 20
309.3023254487762
 30
0.0
 10
306.3860574443367
 20
309.2212525342389
 30
0.0
 10
306.3852859609567
 20
309.1799533820323
 30
0.0
 10
306.3844891757686
 20
309.054755557762
 30
0.0
 10
306.385963736224
 20
308.9692773122595
 30
0.0
 10
306.3923807697129
 20
308.7946786311688
 30
0.0
 10
306.3973251500561
 20
308.7055568630666
 30
0.0
 10
306.4167836841022
 20
308.4331339017146
 30
0.0
 10
306.4358843335023
 20
308.2448031704889
 30
0.0
 10
306.4723276824515
 20
307.9532052155405
 30
0.0
 10
306.4857850409931
 20
307.8544810966503
 30
0.0
 10
306.5078449343819
 20
307.7041681361659
 30
0.0
 10
306.5155110623526
 20
307.6536923095687
 30
0.0
 10
306.5314599694541
 20
307.5520033374727
 30
0.0
 10
306.5397485455625
 20
307.500758400497
 30
0.0
 10
306.5825296672268
 20
307.243813025129
 30
0.0
 10
306.6211187018459
 20
307.0351574271191
 30
0.0
 10
306.7066564616902
 20
306.6119864735288
 30
0.0
 10
306.7535990525307
 20
306.3974713832551
 30
0.0
 10
306.8565313558365
 20
305.9625672113868
 30
0.0
 10
306.9124917106165
 20
305.7421847697224
 30
0.0
 10
306.9740784516012
 20
305.5186401143158
 30
0.0
  0
SPLINE
  5
197
330
1F
100
AcDbEntity
  8
1
100
AcDbSpline
210
0.0
220
0.0
230
1.0
 70
     8
 71
     3
 72
    13
 73
     9
 74
     0
 42
0.000000001
 43
0.0000000001
 40
0.0
 40
0.0
 40
0.0
 40
0.0
 40
0.1249999999999989
 40
0.1249999999999989
 40
0.2499999999999978
 40
0.4999999999999949
 40
0.4999999999999949
 40
1.0
 40
1.0
 40
1.0
 40
1.0
 10
300.0296057418911
 20
299.4805397205634
 30
0.0
 10
300.0503718525125
 20
299.4773310539778
 30
0.0
 10
300.0713662058383
 20
299.4740698956059
 30
0.0
 10
300.1135932788118
 20
299.4674791647176
 30
0.0
 10
300.1772130564989
 20
299.4575027732222
 30
0.0
 10
300.2415858971558
 20
299.4472828083651
 30
0.0
 10
300.3711545805345
 20
299.4265766839398
 30
0.0
 10
300.4586219986911
 20
299.4124205986969
 30
0.0
 10
300.5468381601113
 20
299.3980223372734
 30
0.0
  0
SPLINE
  5
198
330
1F
100
AcDbEntity
  8
1
100
AcDbSpline
210
0.0
220
0.0
230
1.0
 70
     8
 71
     3
 72
    10
 73
     6
 74
     0
 42
0.000000001
 43
0.0000000001
 40
0.0
 40
0.0
 40
0.0
 40
0.0
 40
0.5
 40
0.5
 40
1.0
 40
1.0
 40
1.0
 40
1.0
 10
292.8778813555309
 20
300.8813084087693
 30
0.0
 10
293.0307214874734
 20
300.856137054458
 30
0.0
 10
293.1852104575986
 20
300.8303859249068
 30
0.0
 10
293.4975576987607
 20
300.7776989302351
 30
0.0
 10
293.6554153937452
 20
300.7507632676696
 30
0.0
 10
293.8150419452959
 20
300.7232056282173
 30
0.0
  0
SPLINE
  5
199
330
1F
100
AcDbEntity
  8
1
100
AcDbSpline
210
0.0
220
0.0
230
1.0
 70
     8
 71
     3
 72
    78
 73
    74
 74
     0
 42
0.000000001
 43
0.0000000001
 40
0.0
 40
0.0
 40
0.0
 40
0.0
 40
0.0624999999999943
 40
0.0624999999999943
 40
0.0937499999999914
 40
0.0937499999999914
 40
0.1249999999999885
 40
0.1249999999999885
 40
0.1874999999999843
 40
0.1874999999999843
 40
0.2499999999999802
 40
0.2499999999999802
 40
0.2656249999999797
 40
0.2656249999999797
 40
0.2812499999999793
 40
0.2812499999999793
 40
0.3124999999999776
 40
0.3124999999999776
 40
0.3749999999999742
 40
0.3749999999999742
 40
0.3906249999999734
 40
0.3906249999999734
 40
0.4062499999999726
 40
0.4062499999999726
 40
0.4374999999999714
 40
0.4374999999999714
 40
0.4687499999999701
 40
0.4687499999999701
 40
0.4843749999999697
 40
0.4843749999999697
 40
0.49218749999997
 40
0.49218749999997
 40
0.4999999999999706
 40
0.5312499999999709
 40
0.5312499999999709
 40
0.5624999999999715
 40
0.5624999999999715
 40
0.5703124999999712
 40
0.5703124999999712
 40
0.5781249999999708
 40
0.5937499999999707
 40
0.5937499999999707
 40
0.6249999999999706
 40
0.6249999999999706
 40
0.6406249999999702
 40
0.6406249999999702
 40
0.6484374999999699
 40
0.6484374999999699
 40
0.6562499999999697
 40
0.6874999999999684
 40
0.6874999999999684
 40
0.7031249999999682
 40
0.7109374999999689
 40
0.7109374999999689
 40
0.7187499999999697
 40
0.7187499999999697
 40
0.7499999999999732
 40
0.7499999999999732
 40
0.7812499999999769
 40
0.7812499999999769
 40
0.7968749999999789
 40
0.7968749999999789
 40
0.8124999999999808
 40
0.8124999999999808
 40
0.8437499999999841
 40
0.8437499999999841
 40
0.8749999999999872
 40
0.8749999999999872
 40
0.9062499999999902
 40
0.9062499999999902
 40
0.9374999999999932
 40
0.9374999999999932
 40
1.0
 40
1.0
 40
1.0
 40
1.0
 10
301.9512953506443
 20
312.5296121228354
 30
0.0
 10
301.8956522249315
 20
312.4563948369055
 30
0.0
 10
301.8330818654376
 20
312.383813515321
 30
0.0
 10
301.7283168720264
 20
312.276244533641
 30
0.0
 10
301.691570445247
 20
312.2406069893531
 30
0.0
 10
301.6142526181083
 20
312.1698509889644
 30
0.0
 10
301.5735722486349
 20
312.1346529590092
 30
0.0
 10
301.447060779327
 20
312.031270234046
 30
0.0
 10
301.3564259669532
 20
311.9649161159741
 30
0.0
 10
301.1618522888522
 20
311.8382023208227
 30
0.0
 10
301.0579280934882
 20
311.7778331324537
 30
0.0
 10
300.918637595777
 20
311.7069950905848
 30
0.0
 10
300.89030698895
 20
311.6930604990991
 30
0.0
 10
300.8326586441574
 20
311.6656881204008
 30
0.0
 10
300.8034011258443
 20
311.6522807932546
 30
0.0
 10
300.7147803467902
 20
311.6131461532733
 30
0.0
 10
300.6543876705706
 20
311.5884163887335
 30
0.0
 10
300.4691028229395
 20
311.5185983397129
 30
0.0
 10
300.3401536799522
 20
311.4778266156382
 30
0.0
 10
300.1710323848543
 20
311.4356792141418
 30
0.0
 10
300.1368074340512
 20
311.4276949244456
 30
0.0
 10
300.0675084578424
 20
311.4126775628492
 30
0.0
 10
300.0327021238843
 20
311.4057027632106
 30
0.0
 10
299.9278086003201
 20
311.3864225451218
 30
0.0
 10
299.8572460929604
 20
311.3757561835354
 30
0.0
 10
299.7147746878218
 20
311.3591167378987
 30
0.0
 10
299.6428664518062
 20
311.3531414295917
 30
0.0
 10
299.5338947011364
 20
311.3480660936009
 30
0.0
 10
299.4973854045415
 20
311.3470238030355
 30
0.0
 10
299.4423254055635
 20
311.3464985339024
 30
0.0
 10
299.4239459866381
 20
311.3464974746257
 30
0.0
 10
299.3873282934042
 20
311.346847600093
 30
0.0
 10
299.2959999802314
 20
311.348603757801
 30
0.0
 10
299.2057531153325
 20
311.3547735904323
 30
0.0
 10
299.0628174562689
 20
311.3705763919512
 30
0.0
 10
298.9920785441959
 20
311.381440648111
 30
0.0
 10
298.9046557670601
 20
311.3990530395392
 30
0.0
 10
298.8872184031944
 20
311.402779720055
 30
0.0
 10
298.8527421239053
 20
311.4105776700367
 30
0.0
 10
298.8015133027818
 20
311.4228132877403
 30
0.0
 10
298.7517321096543
 20
311.4366491232454
 30
0.0
 10
298.6540930775542
 20
311.4664294597231
 30
0.0
 10
298.5915586497263
 20
311.4890886806657
 30
0.0
 10
298.5016788164923
 20
311.5272939106189
 30
0.0
 10
298.4723740359787
 20
311.5407331820819
 30
0.0
 10
298.4294247780153
 20
311.5619630988646
 30
0.0
 10
298.4152505898834
 20
311.5692328446817
 30
0.0
 10
298.3874636322769
 20
311.5840133589738
 30
0.0
 10
298.3193018950199
 20
311.6216136251367
 30
0.0
 10
298.2574998248231
 20
311.662347193414
 30
0.0
 10
298.1890899298008
 20
311.7139571540241
 30
0.0
 10
298.1563268938013
 20
311.7404464656392
 30
0.0
 10
298.12569101461
 20
311.7679252229238
 30
0.0
 10
298.1057376675912
 20
311.7864610405612
 30
0.0
 10
298.0959811660258
 20
311.7958524419102
 30
0.0
 10
298.048566513294
 20
311.8431458655634
 30
0.0
 10
298.0151234540132
 20
311.8819026059863
 30
0.0
 10
297.9562540060865
 20
311.9609328740065
 30
0.0
 10
297.9308323526503
 20
312.0012077484229
 30
0.0
 10
297.8982550832072
 20
312.0625837317618
 30
0.0
 10
297.8883017830914
 20
312.0832599164083
 30
0.0
 10
297.8703479050452
 20
312.124544336098
 30
0.0
 10
297.862333755355
 20
312.1451657021133
 30
0.0
 10
297.8409822017064
 20
312.2069528393693
 30
0.0
 10
297.8303271285463
 20
312.2480411094898
 30
0.0
 10
297.8153805895956
 20
312.3299507384241
 30
0.0
 10
297.8110922772004
 20
312.3707723028073
 30
0.0
 10
297.8083318041157
 20
312.4521034677148
 30
0.0
 10
297.8098646995331
 20
312.4926433281849
 30
0.0
 10
297.8183516645202
 20
312.5732516637397
 30
0.0
 10
297.825265584979
 20
312.6129966900187
 30
0.0
 10
297.853230805671
 20
312.7306553369674
 30
0.0
 10
297.8814560632323
 20
312.8069976689989
 30
0.0
 10
297.9179858153486
 20
312.8814255691603
 30
0.0
  0
SPLINE
  5
19B
330
1F
100
AcDbEntity
  8
1
100
AcDbSpline
210
0.0
220
0.0
230
1.0
 70
     8
 71
     3
 72
    10
 73
     6
 74
     0
 42
0.000000001
 43
0.0000000001
 40
0.0
 40
0.0
 40
0.0
 40
0.0
 40
0.5
 40
0.5
 40
1.0
 40
1.0
 40
1.0
 40
1.0
 10
292.8778813555309
 20
315.0930375178525
 30
0.0
 10
293.0307214874734
 20
315.1305543805865
 30
0.0
 10
293.1852104575986
 20
315.1608019953731
 30
0.0
 10
293.4975576987607
 20
315.2064429572598
 30
0.0
 10
293.6554153937452
 20
315.2218388440084
 30
0.0
 10
293.8150419452959
 20
315.2294363566659
 30
0.0
  0
SPLINE
  5
19C
330
1F
100
AcDbEntity
  8
1
100
AcDbSpline
210
0.0
220
0.0
230
1.0
 70
     8
 71
     3
 72
     8
 73
     4
 74
     0
 42
0.000000001
 43
0.0000000001
 40
0.0
 40
0.0
 40
0.0
 40
0.0
 40
1.0
 40
1.0
 40
1.0
 40
1.0
 10
309.3091250645318
 20
286.7280365934428
 30
0.0
 10
309.4685600242201
 20
286.3715884156939
 30
0.0
 10
309.6377207336228
 20
286.0194217227384
 30
0.0
 10
309.8150419452959
 20
285.6708474588915
 30
0.0
  0
SPLINE
  5
19D
330
1F
100
AcDbEntity
  8
1
100
AcDbSpline
210
0.0
220
0.0
230
1.0
 70
     8
 71
     3
 72
     8
 73
     4
 74
     0
 42
0.000000001
 43
0.0000000001
 40
0.0
 40
0.0
 40
0.0
 40
0.0
 40
1.0
 40
1.0
 40
1.0
 40
1.0
 10
309.8150419452959
 20
286.7712090174896
 30
0.0
 10
309.6452717853992
 20
286.7562169446642
 30
0.0
 10
309.476590365047
 20
286.7418035678982
 30
0.0
 10
309.3091250645318
 20
286.7280365934428
 30
0.0
  0
SPLINE
  5
19E
330
1F
100
AcDbEntity
  8
1
100
AcDbSpline
210
0.0
220
0.0
230
1.0
 70
     8
 71
     3
 72
    12
 73
     8
 74
     0
 42
0.000000001
 43
0.0000000001
 40
0.0
 40
0.0
 40
0.0
 40
0.0
 40
0.5
 40
0.5
 40
0.75
 40
0.75
 40
1.0
 40
1.0
 40
1.0
 40
1.0
 10
309.8150419452959
 20
291.1830302095284
 30
0.0
 10
309.2418260656015
 20
291.1056071998217
 30
0.0
 10
308.6716933774157
 20
291.0299239636198
 30
0.0
 10
307.8231535378926
 20
290.9201567374393
 30
0.0
 10
307.5414260146451
 20
290.8841991385529
 30
0.0
 10
306.980702117924
 20
290.8138250652936
 30
0.0
 10
306.701703949445
 20
290.7794075780409
 30
0.0
 10
306.4243941369986
 20
290.745942790964
 30
0.0
  0
SPLINE
  5
19F
330
1F
100
AcDbEntity
  8
1
100
AcDbSpline
210
0.0
220
0.0
230
1.0
 70
     8
 71
     3
 72
    80
 73
    76
 74
     0
 42
0.000000001
 43
0.0000000001
 40
0.0
 40
0.0
 40
0.0
 40
0.0
 40
0.0312500000000038
 40
0.0312500000000038
 40
0.0468750000000075
 40
0.0468750000000075
 40
0.0625000000000112
 40
0.0625000000000112
 40
0.093750000000018
 40
0.1250000000000247
 40
0.1250000000000247
 40
0.140625000000029
 40
0.140625000000029
 40
0.1562500000000333
 40
0.1562500000000333
 40
0.1875000000000402
 40
0.2187500000000472
 40
0.2187500000000472
 40
0.2343750000000505
 40
0.2343750000000505
 40
0.2500000000000537
 40
0.2500000000000537
 40
0.2812500000000605
 40
0.2812500000000605
 40
0.3125000000000672
 40
0.3125000000000672
 40
0.3437500000000738
 40
0.3750000000000805
 40
0.3750000000000805
 40
0.3906250000000828
 40
0.3906250000000828
 40
0.4062500000000851
 40
0.4062500000000851
 40
0.4375000000000897
 40
0.4687500000000941
 40
0.4687500000000941
 40
0.4843750000000946
 40
0.4843750000000946
 40
0.5000000000000951
 40
0.5000000000000951
 40
0.5312500000000922
 40
0.5625000000000893
 40
0.5625000000000893
 40
0.5781250000000865
 40
0.5781250000000865
 40
0.5937500000000837
 40
0.5937500000000837
 40
0.625000000000078
 40
0.625000000000078
 40
0.6562500000000721
 40
0.6562500000000721
 40
0.6875000000000663
 40
0.6875000000000663
 40
0.7031250000000617
 40
0.7031250000000617
 40
0.7187500000000571
 40
0.7187500000000571
 40
0.7500000000000476
 40
0.7812500000000383
 40
0.7812500000000383
 40
0.7968750000000347
 40
0.7968750000000347
 40
0.8125000000000309
 40
0.8125000000000309
 40
0.8437500000000264
 40
0.8750000000000216
 40
0.8750000000000216
 40
0.8906250000000191
 40
0.8906250000000191
 40
0.9062500000000166
 40
0.9062500000000166
 40
0.9375000000000111
 40
0.9687500000000055
 40
0.9687500000000055
 40
1.0
 40
1.0
 40
1.0
 40
1.0
 10
305.2939268854899
 20
292.0439029783504
 30
0.0
 10
305.270453403295
 20
292.0290599013225
 30
0.0
 10
305.2481100796847
 20
292.0120137698485
 30
0.0
 10
305.2163310465084
 20
291.9831438517307
 30
0.0
 10
305.2060281768473
 20
291.9729689114832
 30
0.0
 10
305.1860198778585
 20
291.9514974773427
 30
0.0
 10
305.1763038433412
 20
291.940180700373
 30
0.0
 10
305.1484585104478
 20
291.9050082541046
 30
0.0
 10
305.1145215287363
 20
291.8545923955047
 30
0.0
 10
305.0868766623943
 20
291.797373776618
 30
0.0
 10
305.0685739060559
 20
291.7518782513118
 30
0.0
 10
305.0628686437856
 20
291.7362489836291
 30
0.0
 10
305.0523433197942
 20
291.7042514357111
 30
0.0
 10
305.0475523339371
 20
291.6879789254727
 30
0.0
 10
305.0345659177788
 20
291.638362544364
 30
0.0
 10
305.0209389334092
 20
291.5700831263533
 30
0.0
 10
305.0146253082855
 20
291.4976363039954
 30
0.0
 10
305.0127256158945
 20
291.4416934133209
 30
0.0
 10
305.0125701943298
 20
291.4227497844842
 30
0.0
 10
305.0132154681825
 20
291.384838426289
 30
0.0
 10
305.0140124310347
 20
291.365809093044
 30
0.0
 10
305.0177994926897
 20
291.3085036656603
 30
0.0
 10
305.0221810968176
 20
291.2700110980998
 30
0.0
 10
305.0346323870248
 20
291.1924431707515
 30
0.0
 10
305.0427117013558
 20
291.153328310735
 30
0.0
 10
305.0626469500786
 20
291.0746404873379
 30
0.0
 10
305.0859738108488
 20
290.9969813538799
 30
0.0
 10
305.1157630351123
 20
290.9212719087059
 30
0.0
 10
305.1405129674697
 20
290.8652115912353
 30
0.0
 10
305.1491653287279
 20
290.8466454219338
 30
0.0
 10
305.1672853337259
 20
290.8097565630935
 30
0.0
 10
305.1767793098369
 20
290.7913902399418
 30
0.0
 10
305.2061095882808
 20
290.7373797347104
 30
0.0
 10
305.2476598801352
 20
290.6678403026705
 30
0.0
 10
305.2938684152274
 20
290.6030722712556
 30
0.0
 10
305.3302668729565
 20
290.5563003833131
 30
0.0
 10
305.3426908526417
 20
290.5410112725304
 30
0.0
 10
305.3681307416425
 20
290.5110492055165
 30
0.0
 10
305.3810178361781
 20
290.4965281726001
 30
0.0
 10
305.4201389837223
 20
290.4543319712134
 30
0.0
 10
305.4735421796396
 20
290.4016826852979
 30
0.0
 10
305.5293214000684
 20
290.3561045398405
 30
0.0
 10
305.5720541247068
 20
290.3246388514588
 30
0.0
 10
305.5864834014681
 20
290.3145838418807
 30
0.0
 10
305.6153425110106
 20
290.2956037762912
 30
0.0
 10
305.629799145783
 20
290.2866562837072
 30
0.0
 10
305.673247716105
 20
290.2614261665505
 30
0.0
 10
305.7023176691481
 20
290.2467495491698
 30
0.0
 10
305.7606681433434
 20
290.2217538780732
 30
0.0
 10
305.7895011731845
 20
290.2116303166252
 30
0.0
 10
305.846361212355
 20
290.1960165159877
 30
0.0
 10
305.8744147994655
 20
290.1905153953198
 30
0.0
 10
305.9159420191809
 20
290.185747267729
 30
0.0
 10
305.9296920447264
 20
290.1847401168309
 30
0.0
 10
305.9570069371917
 20
290.1839149624552
 30
0.0
 10
305.9706132053166
 20
290.1841018952731
 30
0.0
 10
306.0106520461071
 20
290.1864614290472
 30
0.0
 10
306.0621849465639
 20
290.1943524677352
 30
0.0
 10
306.1101834739138
 20
290.2115015521832
 30
0.0
 10
306.1448631813103
 20
290.2279086990564
 30
0.0
 10
306.1562026386849
 20
290.233970278206
 30
0.0
 10
306.1784343443169
 20
290.2473119959871
 30
0.0
 10
306.1892339785728
 20
290.2545382769011
 30
0.0
 10
306.2206020469505
 20
290.2777762528763
 30
0.0
 10
306.2597847266739
 20
290.3129662588167
 30
0.0
 10
306.2938554004328
 20
290.3564604022529
 30
0.0
 10
306.3174666490548
 20
290.3922964802519
 30
0.0
 10
306.3250330777503
 20
290.4048214201059
 30
0.0
 10
306.3393236965317
 20
290.4306422917437
 30
0.0
 10
306.3460669648069
 20
290.4439606625517
 30
0.0
 10
306.3651215803358
 20
290.4851172182035
 30
0.0
 10
306.3874024944734
 20
290.5431883081695
 30
0.0
 10
306.4035381200829
 20
290.6076257525987
 30
0.0
 10
306.4165061974253
 20
290.6753774622936
 30
0.0
 10
306.4212718843997
 20
290.7102101334299
 30
0.0
 10
306.4243941369986
 20
290.745942790964
 30
0.0
  0
SPLINE
  5
1A0
330
1F
100
AcDbEntity
  8
1
100
AcDbSpline
210
0.0
220
0.0
230
1.0
 70
     8
 71
     3
 72
    10
 73
     6
 74
     0
 42
0.000000001
 43
0.0000000001
 40
0.0
 40
0.0
 40
0.0
 40
0.0
 40
0.5
 40
0.5
 40
1.0
 40
1.0
 40
1.0
 40
1.0
 10
304.4153641743893
 20
294.0279566593844
 30
0.0
 10
304.5443649959896
 20
293.6935907206991
 30
0.0
 10
304.6829389557235
 20
293.3612520625583
 30
0.0
 10
304.9765988648672
 20
292.7000714508011
 30
0.0
 10
305.1316873798157
 20
292.3712300404825
 30
0.0
 10
305.2939268854899
 20
292.0439029783504
 30
0.0
  0
SPLINE
  5
1A1
330
1F
100
AcDbEntity
  8
1
100
AcDbSpline
210
0.0
220
0.0
230
1.0
 70
     8
 71
     3
 72
    17
 73
    13
 74
     0
 42
0.000000001
 43
0.0000000001
 40
0.0
 40
0.0
 40
0.0
 40
0.0
 40
0.1631071811427877
 40
0.1631071811427877
 40
0.4420714540952032
 40
0.4420714540952032
 40
0.5118125223333048
 40
0.5118125223333048
 40
0.5815535905714065
 40
0.7210357270476014
 40
0.7210357270476014
 40
1.0
 40
1.0
 40
1.0
 40
1.0
 10
303.7534722522031
 20
295.1987780770652
 30
0.0
 10
303.7735331330909
 20
295.1228906738612
 30
0.0
 10
303.7964318909994
 20
295.0486213031467
 30
0.0
 10
303.8660146768157
 20
294.8517364928563
 30
0.0
 10
303.9180345888134
 20
294.7322477894386
 30
0.0
 10
303.9933418797565
 20
294.5892656842455
 30
0.0
 10
304.0089238515139
 20
294.5609908422649
 30
0.0
 10
304.040815605213
 20
294.5056249651177
 30
0.0
 10
304.0898520076009
 20
294.4241451800625
 30
0.0
 10
304.1423753246211
 20
294.3473154965782
 30
0.0
 10
304.2518666645321
 20
294.1998084780294
 30
0.0
 10
304.3307556827931
 20
294.109631897309
 30
0.0
 10
304.4153641743891
 20
294.0279566593842
 30
0.0
  0
SPLINE
  5
1A2
330
1F
100
AcDbEntity
  8
1
100
AcDbSpline
210
0.0
220
0.0
230
1.0
 70
     8
 71
     3
 72
     8
 73
     4
 74
     0
 42
0.000000001
 43
0.0000000001
 40
0.0
 40
0.0
 40
0.0
 40
0.0
 40
1.0
 40
1.0
 40
1.0
 40
1.0
 10
309.3091250645318
 20
306.0862504684723
 30
0.0
 10
309.4685600242201
 20
306.0108101226692
 30
0.0
 10
309.6377207336228
 20
305.9362759301682
 30
0.0
 10
309.8150419452959
 20
305.8625020560282
 30
0.0
  0
SPLINE
  5
1A3
330
1F
100
AcDbEntity
  8
1
100
AcDbSpline
210
0.0
220
0.0
230
1.0
 70
     8
 71
     3
 72
     8
 73
     4
 74
     0
 42
0.000000001
 43
0.0000000001
 40
0.0
 40
0.0
 40
0.0
 40
0.0
 40
1.0
 40
1.0
 40
1.0
 40
1.0
 10
309.8150419452959
 20
306.752302121916
 30
0.0
 10
309.6452717853992
 20
306.5311804704253
 30
0.0
 10
309.476590365047
 20
306.3091968681035
 30
0.0
 10
309.3091250645318
 20
306.0862504684723
 30
0.0
  0
SPLINE
  5
1A4
330
1F
100
AcDbEntity
  8
1
100
AcDbSpline
210
0.0
220
0.0
230
1.0
 70
     8
 71
     3
 72
    10
 73
     6
 74
     0
 42
0.000000001
 43
0.0000000001
 40
0.0
 40
0.0
 40
0.0
 40
0.0
 40
0.5
 40
0.5
 40
1.0
 40
1.0
 40
1.0
 40
1.0
 10
292.0232021975694
 20
314.8119442299292
 30
0.0
 10
292.1643402481064
 20
314.8704041490398
 30
0.0
 10
292.306046578771
 20
314.9229630443119
 30
0.0
 10
292.5908501804272
 20
315.016615322836
 30
0.0
 10
292.7339468157857
 20
315.0577066639617
 30
0.0
 10
292.8778813555309
 20
315.0930375178525
 30
0.0
  0
SPLINE
  5
1A5
330
1F
100
AcDbEntity
  8
1
100
AcDbSpline
210
0.0
220
0.0
230
1.0
 70
     8
 71
     3
 72
     8
 73
     4
 74
     0
 42
0.000000001
 43
0.0000000001
 40
0.0
 40
0.0
 40
0.0
 40
0.0
 40
1.0
 40
1.0
 40
1.0
 40
1.0
 10
303.7456180430366
 20
293.2622037308228
 30
0.0
 10
303.7442058114144
 20
293.3715292708289
 30
0.0
 10
303.7432814702338
 20
293.4861068628072
 30
0.0
 10
303.7416901765337
 20
293.6062320054221
 30
0.0
  0
SPLINE
  5
1A6
330
1F
100
AcDbEntity
  8
1
100
AcDbSpline
210
0.0
220
0.0
230
1.0
 70
     8
 71
     3
 72
     8
 73
     4
 74
     0
 42
0.000000001
 43
0.0000000001
 40
0.0
 40
0.0
 40
0.0
 40
0.0
 40
1.0
 40
1.0
 40
1.0
 40
1.0
 10
303.7150419452959
 20
293.6178946061049
 30
0.0
 10
303.7239211102601
 20
293.6139721000969
 30
0.0
 10
303.7328039243289
 20
293.6100851770155
 30
0.0
 10
303.7416901765348
 20
293.6062320054217
 30
0.0
  0
SPLINE
  5
1A7
330
1F
100
AcDbEntity
  8
1
100
AcDbSpline
210
0.0
220
0.0
230
1.0
 70
     8
 71
     3
 72
     9
 73
     5
 74
     0
 42
0.000000001
 43
0.0000000001
 40
0.0
 40
0.0
 40
0.0
 40
0.0
 40
0.5
 40
1.0
 40
1.0
 40
1.0
 40
1.0
 10
303.9150515249438
 20
293.0413890879044
 30
0.0
 10
303.8793959177541
 20
293.1327036814395
 30
0.0
 10
303.8146816602993
 20
293.3181170680708
 30
0.0
 10
303.7636000380177
 20
293.509198010142
 30
0.0
 10
303.7416901765347
 20
293.6062320054215
 30
0.0
  0
SPLINE
  5
1A8
330
1F
100
AcDbEntity
  8
1
100
AcDbSpline
210
0.0
220
0.0
230
1.0
 70
     8
 71
     3
 72
     8
 73
     4
 74
     0
 42
0.000000001
 43
0.0000000001
 40
0.0
 40
0.0
 40
0.0
 40
0.0
 40
1.0
 40
1.0
 40
1.0
 40
1.0
 10
309.8150419452959
 20
283.6509657012972
 30
0.0
 10
309.6452717853992
 20
283.872087352788
 30
0.0
 10
309.476590365047
 20
284.0940709551098
 30
0.0
 10
309.3091250645318
 20
284.3170173547409
 30
0.0
  0
SPLINE
  5
1A9
330
1F
100
AcDbEntity
  8
1
100
AcDbSpline
210
0.0
220
0.0
230
1.0
 70
     8
 71
     3
 72
     8
 73
     4
 74
     0
 42
0.000000001
 43
0.0000000001
 40
0.0
 40
0.0
 40
0.0
 40
0.0
 40
1.0
 40
1.0
 40
1.0
 40
1.0
 10
309.5027696642377
 20
304.096207291404
 30
0.0
 10
309.6036480812605
 20
304.309692458529
 30
0.0
 10
309.7078540851242
 20
304.5217127501557
 30
0.0
 10
309.8150419452959
 20
304.7324203643217
 30
0.0
  0
SPLINE
  5
1AA
330
1F
100
AcDbEntity
  8
1
100
AcDbSpline
210
0.0
220
0.0
230
1.0
 70
     8
 71
     3
 72
    34
 73
    30
 74
     0
 42
0.000000001
 43
0.0000000001
 40
0.0
 40
0.0
 40
0.0
 40
0.0
 40
0.0624999999999981
 40
0.0624999999999981
 40
0.1249999999999963
 40
0.1249999999999963
 40
0.1874999999999944
 40
0.1874999999999944
 40
0.2187499999999938
 40
0.2187499999999938
 40
0.2499999999999933
 40
0.2499999999999933
 40
0.3124999999999934
 40
0.3124999999999934
 40
0.3749999999999936
 40
0.3749999999999936
 40
0.4999999999999948
 40
0.4999999999999948
 40
0.5624999999999952
 40
0.5624999999999952
 40
0.5937499999999955
 40
0.5937499999999955
 40
0.6249999999999957
 40
0.6249999999999957
 40
0.7499999999999973
 40
0.7499999999999973
 40
0.8749999999999985
 40
0.8749999999999985
 40
1.0
 40
1.0
 40
1.0
 40
1.0
 10
306.5080708126726
 20
282.9664518694341
 30
0.0
 10
306.4857987520476
 20
282.8606354754531
 30
0.0
 10
306.4673336909498
 20
282.757593497495
 30
0.0
 10
306.4365592466955
 20
282.556267830971
 30
0.0
 10
306.4242586222232
 20
282.4579890133144
 30
0.0
 10
306.4048587293877
 20
282.2656841975287
 30
0.0
 10
306.3977639025791
 20
282.1716606612562
 30
0.0
 10
306.3905218840678
 20
282.0335590788964
 30
0.0
 10
306.388676464076
 20
281.9880152578123
 30
0.0
 10
306.3860574443367
 20
281.8978756088934
 30
0.0
 10
306.3852859609567
 20
281.8532702511988
 30
0.0
 10
306.3844891757686
 20
281.7217283436651
 30
0.0
 10
306.385963736224
 20
281.6367383816095
 30
0.0
 10
306.3923807697129
 20
281.4716344669814
 30
0.0
 10
306.3973251500561
 20
281.3915223677739
 30
0.0
 10
306.4167836841022
 20
281.1579363536598
 30
0.0
 10
306.4358843335023
 20
281.0111737590221
 30
0.0
 10
306.4723276824515
 20
280.8031199929023
 30
0.0
 10
306.4857850409931
 20
280.7357946026637
 30
0.0
 10
306.5078449343819
 20
280.6377608419652
 30
0.0
 10
306.5155110623526
 20
280.6055758303624
 30
0.0
 10
306.5314599694541
 20
280.5421836113621
 30
0.0
 10
306.5397485455625
 20
280.5109589221821
 30
0.0
 10
306.5825296672268
 20
280.3579196516998
 30
0.0
 10
306.6211187018459
 20
280.2447865406944
 30
0.0
 10
306.7066564616902
 20
280.0361556574153
 30
0.0
 10
306.7535990525307
 20
279.9406541547019
 30
0.0
 10
306.8565313558365
 20
279.7676691507673
 30
0.0
 10
306.9124917106165
 20
279.6901555370563
 30
0.0
 10
306.9740784516012
 20
279.6227268316806
 30
0.0
  0
SPLINE
  5
1AB
330
1F
100
AcDbEntity
  8
1
100
AcDbSpline
210
0.0
220
0.0
230
1.0
 70
     8
 71
     3
 72
     8
 73
     4
 74
     0
 42
0.000000001
 43
0.0000000001
 40
0.0
 40
0.0
 40
0.0
 40
0.0
 40
1.0
 40
1.0
 40
1.0
 40
1.0
 10
305.2137631557052
 20
275.1468772441685
 30
0.0
 10
305.1628379503346
 20
275.0649848046447
 30
0.0
 10
305.1113399499866
 20
274.9835230469773
 30
0.0
 10
305.0592831521456
 20
274.9024814465233
 30
0.0
  0
SPLINE
  5
1AC
330
1F
100
AcDbEntity
  8
1
100
AcDbSpline
210
0.0
220
0.0
230
1.0
 70
     8
 71
     3
 72
     8
 73
     4
 74
     0
 42
0.000000001
 43
0.0000000001
 40
0.0
 40
0.0
 40
0.0
 40
0.0
 40
1.0
 40
1.0
 40
1.0
 40
1.0
 10
305.2033319075255
 20
275.4031051551101
 30
0.0
 10
305.2109700210761
 20
275.3134821713858
 30
0.0
 10
305.2144504409438
 20
275.2280694883727
 30
0.0
 10
305.2137631557052
 20
275.1468772441685
 30
0.0
  0
SPLINE
  5
1AD
330
1F
100
AcDbEntity
  8
1
100
AcDbSpline
210
0.0
220
0.0
230
1.0
 70
     8
 71
     3
 72
    68
 73
    64
 74
     0
 42
0.000000001
 43
0.0000000001
 40
0.0
 40
0.0
 40
0.0
 40
0.0
 40
0.0625000000000294
 40
0.0625000000000294
 40
0.0937500000000431
 40
0.0937500000000431
 40
0.1093750000000487
 40
0.1093750000000487
 40
0.1250000000000544
 40
0.1250000000000544
 40
0.1875000000000727
 40
0.1875000000000727
 40
0.203125000000078
 40
0.203125000000078
 40
0.2187500000000833
 40
0.2187500000000833
 40
0.2500000000000904
 40
0.2812500000000974
 40
0.2812500000000974
 40
0.2968750000000991
 40
0.2968750000000991
 40
0.3125000000001008
 40
0.3125000000001008
 40
0.3750000000000974
 40
0.3750000000000974
 40
0.3906250000000964
 40
0.3906250000000964
 40
0.4062500000000956
 40
0.4062500000000956
 40
0.4375000000000938
 40
0.4687500000000921
 40
0.4687500000000921
 40
0.4843750000000919
 40
0.4843750000000919
 40
0.5000000000000916
 40
0.5000000000000916
 40
0.5625000000000855
 40
0.5625000000000855
 40
0.5781250000000836
 40
0.5781250000000836
 40
0.5937500000000817
 40
0.5937500000000817
 40
0.6250000000000773
 40
0.6250000000000773
 40
0.656250000000073
 40
0.656250000000073
 40
0.6875000000000689
 40
0.6875000000000689
 40
0.7500000000000603
 40
0.7500000000000603
 40
0.7656250000000565
 40
0.7656250000000565
 40
0.7812500000000529
 40
0.8125000000000454
 40
0.843750000000038
 40
0.843750000000038
 40
0.8750000000000305
 40
0.8750000000000305
 40
0.9375000000000158
 40
0.9375000000000158
 40
0.9687500000000079
 40
0.9687500000000079
 40
1.0
 40
1.0
 40
1.0
 40
1.0
 10
306.4272991758459
 20
276.9471193837397
 30
0.0
 10
306.4116372809124
 20
276.9530283843252
 30
0.0
 10
306.3914626003208
 20
276.9535109378891
 30
0.0
 10
306.3545920865089
 20
276.9461290657943
 30
0.0
 10
306.3411919098718
 20
276.9423066031433
 30
0.0
 10
306.3193643396331
 20
276.9344284408792
 30
0.0
 10
306.3117767601733
 20
276.9314340025329
 30
0.0
 10
306.2961252727324
 20
276.9247531201875
 30
0.0
 10
306.2880785267321
 20
276.9210756535108
 30
0.0
 10
306.2467590990359
 20
276.9010198743225
 30
0.0
 10
306.2102661748026
 20
276.879693086162
 30
0.0
 10
306.1602904603666
 20
276.8461307444239
 30
0.0
 10
306.1500749993156
 20
276.8390694498892
 30
0.0
 10
306.1291919110242
 20
276.8242260700848
 30
0.0
 10
306.1185087428605
 20
276.8164309527419
 30
0.0
 10
306.0862005921536
 20
276.792259068222
 30
0.0
 10
306.0421702316888
 20
276.7577538937122
 30
0.0
 10
305.9962904342893
 20
276.7187481871629
 30
0.0
 10
305.9611819769697
 20
276.6877692071066
 30
0.0
 10
305.9493624546933
 20
276.6771548477481
 30
0.0
 10
305.9254857547482
 20
276.6553364090587
 30
0.0
 10
305.9133870984223
 20
276.6440927243778
 30
0.0
 10
305.8529043539701
 20
276.586943427443
 30
0.0
 10
305.8045619547228
 20
276.5383094334844
 30
0.0
 10
305.7441916701861
 20
276.4739835690125
 30
0.0
 10
305.7321203818489
 20
276.4609399301056
 30
0.0
 10
305.7079829485935
 20
276.4344912497285
 30
0.0
 10
305.6958791279066
 20
276.4210432618354
 30
0.0
 10
305.6599505972571
 20
276.3805725943288
 30
0.0
 10
305.6129798717813
 20
276.3261924541961
 30
0.0
 10
305.5677826981334
 20
276.271022500186
 30
0.0
 10
305.5345360811125
 20
276.2293582475258
 30
0.0
 10
305.5235626320466
 20
276.2154222787147
 30
0.0
 10
305.501833483464
 20
276.1874551138717
 30
0.0
 10
305.4910541662244
 20
276.1733918761746
 30
0.0
 10
305.4382810054914
 20
276.1036045848264
 30
0.0
 10
305.3992386429109
 20
276.0489724345256
 30
0.0
 10
305.3541141362876
 20
275.982156577101
 30
0.0
 10
305.3452751838397
 20
275.9688679228607
 30
0.0
 10
305.3279697568262
 20
275.9424422584951
 30
0.0
 10
305.3194869985013
 20
275.9292790918314
 30
0.0
 10
305.294781465431
 20
275.8903073117232
 30
0.0
 10
305.2792647088417
 20
275.8649658404909
 30
0.0
 10
305.2500830161302
 20
275.8155473663863
 30
0.0
 10
305.2363720215446
 20
275.791380479205
 30
0.0
 10
305.2111745972574
 20
275.7450291401632
 30
0.0
 10
305.1996475665764
 20
275.7227835604745
 30
0.0
 10
305.1681592210746
 20
275.6587609955114
 30
0.0
 10
305.1512574934209
 20
275.6196702962666
 30
0.0
 10
305.1353531455212
 20
275.5754703123979
 30
0.0
 10
305.1324513794839
 20
275.5669063410791
 30
0.0
 10
305.1272282972768
 20
275.5504159146986
 30
0.0
 10
305.1202489671811
 20
275.5265921376762
 30
0.0
 10
305.1128174193887
 20
275.4913737113649
 30
0.0
 10
305.1113283086065
 20
275.4679704227499
 30
0.0
 10
305.1121290531437
 20
275.4470192175262
 30
0.0
 10
305.113695903947
 20
275.4377415478856
 30
0.0
 10
305.1218209490658
 20
275.4142466519406
 30
0.0
 10
305.1317291903264
 20
275.4041164185804
 30
0.0
 10
305.153434899773
 20
275.397268377047
 30
0.0
 10
305.1618194383245
 20
275.3963870342137
 30
0.0
 10
305.1810236750385
 20
275.3975714706286
 30
0.0
 10
305.1916667952388
 20
275.3996267362548
 30
0.0
 10
305.2033319075255
 20
275.4031051551101
 30
0.0
  0
SPLINE
  5
1AE
330
1F
100
AcDbEntity
  8
1
100
AcDbSpline
210
0.0
220
0.0
230
1.0
 70
     8
 71
     3
 72
    10
 73
     6
 74
     0
 42
0.000000001
 43
0.0000000001
 40
0.0
 40
0.0
 40
0.0
 40
0.0
 40
0.5
 40
0.5
 40
1.0
 40
1.0
 40
1.0
 40
1.0
 10
306.4272991758459
 20
276.9471193837397
 30
0.0
 10
306.9934274714935
 20
277.4904880984607
 30
0.0
 10
307.5589474963117
 20
278.0345342788699
 30
0.0
 10
308.6883619908713
 20
279.124437112483
 30
0.0
 10
309.2522598880835
 20
279.6702899483184
 30
0.0
 10
309.8150419452959
 20
280.2173855583864
 30
0.0
  0
SPLINE
  5
1AF
330
1F
100
AcDbEntity
  8
1
100
AcDbSpline
210
0.0
220
0.0
230
1.0
 70
     8
 71
     3
 72
     8
 73
     4
 74
     0
 42
0.000000001
 43
0.0000000001
 40
0.0
 40
0.0
 40
0.0
 40
0.0
 40
1.0
 40
1.0
 40
1.0
 40
1.0
 10
306.9740784516012
 20
279.6227268316806
 30
0.0
 10
307.9211690600258
 20
280.5097777772524
 30
0.0
 10
308.8681777442949
 20
281.3969221960598
 30
0.0
 10
309.8150419452959
 20
282.2842314663508
 30
0.0
  0
SPLINE
  5
1B0
330
1F
100
AcDbEntity
  8
1
100
AcDbSpline
210
0.0
220
0.0
230
1.0
 70
     8
 71
     3
 72
    78
 73
    74
 74
     0
 42
0.000000001
 43
0.0000000001
 40
0.0
 40
0.0
 40
0.0
 40
0.0
 40
0.0624999999999973
 40
0.0624999999999973
 40
0.0937499999999966
 40
0.0937499999999966
 40
0.1249999999999959
 40
0.1249999999999959
 40
0.1874999999999962
 40
0.1874999999999962
 40
0.2499999999999965
 40
0.2499999999999965
 40
0.2656249999999964
 40
0.2656249999999964
 40
0.2812499999999963
 40
0.2812499999999963
 40
0.3124999999999971
 40
0.3124999999999971
 40
0.3749999999999983
 40
0.3749999999999983
 40
0.3906249999999986
 40
0.3906249999999986
 40
0.406249999999999
 40
0.406249999999999
 40
0.4374999999999994
 40
0.4374999999999994
 40
0.46875
 40
0.46875
 40
0.4843750000000002
 40
0.4843750000000002
 40
0.4921874999999997
 40
0.4921874999999997
 40
0.499999999999999
 40
0.5312499999999967
 40
0.5312499999999967
 40
0.5624999999999943
 40
0.5624999999999943
 40
0.5703124999999951
 40
0.5703124999999951
 40
0.5781249999999958
 40
0.5937499999999975
 40
0.5937499999999975
 40
0.6250000000000008
 40
0.6250000000000008
 40
0.6406250000000026
 40
0.6406250000000026
 40
0.6484375000000035
 40
0.6484375000000035
 40
0.6562500000000044
 40
0.6875000000000075
 40
0.6875000000000075
 40
0.7031250000000096
 40
0.7109375000000098
 40
0.7109375000000098
 40
0.71875000000001
 40
0.71875000000001
 40
0.7500000000000088
 40
0.7500000000000088
 40
0.7812500000000076
 40
0.7812500000000076
 40
0.7968750000000072
 40
0.7968750000000072
 40
0.8125000000000067
 40
0.8125000000000067
 40
0.8437500000000056
 40
0.8437500000000056
 40
0.8750000000000047
 40
0.8750000000000047
 40
0.9062500000000037
 40
0.9062500000000037
 40
0.9375000000000028
 40
0.9375000000000028
 40
1.0
 40
1.0
 40
1.0
 40
1.0
 10
301.9512953506443
 20
283.7411890637319
 30
0.0
 10
301.8956522249315
 20
283.6304858971341
 30
0.0
 10
301.8330818654376
 20
283.5230502375229
 30
0.0
 10
301.7283168720264
 20
283.3668422363118
 30
0.0
 10
301.691570445247
 20
283.3155995495374
 30
0.0
 10
301.6142526181083
 20
283.2148067410778
 30
0.0
 10
301.5735722486349
 20
283.1651476882644
 30
0.0
 10
301.447060779327
 20
283.0205828521926
 30
0.0
 10
301.3564259669532
 20
282.9295379435196
 30
0.0
 10
301.1618522888522
 20
282.7582999018376
 30
0.0
 10
301.0579280934882
 20
282.6780969442438
 30
0.0
 10
300.918637595777
 20
282.5852071903491
 30
0.0
 10
300.89030698895
 20
282.5669998007083
 30
0.0
 10
300.8326586441574
 20
282.5313517909585
 30
0.0
 10
300.8034011258443
 20
282.5139510180139
 30
0.0
 10
300.7147803467903
 20
282.463317261681
 30
0.0
 10
300.6543876705706
 20
282.4315355621749
 30
0.0
 10
300.4691028229395
 20
282.3422791813239
 30
0.0
 10
300.3401536799522
 20
282.2908205911792
 30
0.0
 10
300.1710323848543
 20
282.2379700429856
 30
0.0
 10
300.1368074340512
 20
282.2279793235205
 30
0.0
 10
300.0675084578424
 20
282.2092194669837
 30
0.0
 10
300.0327021238843
 20
282.2005230749758
 30
0.0
 10
299.9278086003201
 20
282.1765172816504
 30
0.0
 10
299.8572460929604
 20
282.1632839704268
 30
0.0
 10
299.7147746878218
 20
282.1426695891942
 30
0.0
 10
299.6428664518062
 20
282.135285576305
 30
0.0
 10
299.5338947011364
 20
282.1290151983189
 30
0.0
 10
299.4973854045415
 20
282.1277281997176
 30
0.0
 10
299.4423254055635
 20
282.1270795633642
 30
0.0
 10
299.4239459866381
 20
282.1270782553374
 30
0.0
 10
299.3873282934042
 20
282.1275106128729
 30
0.0
 10
299.2959999802314
 20
282.1296798284113
 30
0.0
 10
299.2057531153325
 20
282.1372984279765
 30
0.0
 10
299.0628174562689
 20
282.1568616951285
 30
0.0
 10
298.9920785441959
 20
282.1703260378232
 30
0.0
 10
298.9046557670601
 20
282.1922422957458
 30
0.0
 10
298.8872184031944
 20
282.1968833058591
 30
0.0
 10
298.8527421239053
 20
282.2066038593002
 30
0.0
 10
298.8015133027818
 20
282.2218696679625
 30
0.0
 10
298.7517321096543
 20
282.2391819952559
 30
0.0
 10
298.6540930775542
 20
282.2765395134466
 30
0.0
 10
298.5915586497262
 20
282.3050787882383
 30
0.0
 10
298.5016788164923
 20
282.3535261298083
 30
0.0
 10
298.4723740359787
 20
282.3706173248366
 30
0.0
 10
298.4294247780153
 20
282.3977132019312
 30
0.0
 10
298.4152505898834
 20
282.4070071341742
 30
0.0
 10
298.3874636322769
 20
282.4259377329134
 30
0.0
 10
298.3193018950199
 20
282.4741801576344
 30
0.0
 10
298.2574998248231
 20
282.5269052604077
 30
0.0
 10
298.1890899298008
 20
282.5943103685318
 30
0.0
 10
298.1563268938014
 20
282.629049278234
 30
0.0
 10
298.12569101461
 20
282.6653324817855
 30
0.0
 10
298.1057376675912
 20
282.6898646341041
 30
0.0
 10
298.0959811660258
 20
282.702322569664
 30
0.0
 10
298.048566513294
 20
282.7652088885219
 30
0.0
 10
298.0151234540132
 20
282.8172205814575
 30
0.0
 10
297.9562540060865
 20
282.9243803287575
 30
0.0
 10
297.9308323526503
 20
282.9795299042284
 30
0.0
 10
297.8982550832072
 20
283.0644918765699
 30
0.0
 10
297.8883017830914
 20
283.0932653673839
 30
0.0
 10
297.8703479050452
 20
283.1510327592426
 30
0.0
 10
297.8623337553549
 20
283.1800438155425
 30
0.0
 10
297.8409822017065
 20
283.2674458344958
 30
0.0
 10
297.8303271285463
 20
283.3262050144388
 30
0.0
 10
297.8153805895956
 20
283.444654174961
 30
0.0
 10
297.8110922772004
 20
283.5043443839498
 30
0.0
 10
297.8083318041157
 20
283.6246224024212
 30
0.0
 10
297.8098646995331
 20
283.6852559626204
 30
0.0
 10
297.8183516645202
 20
283.8072113996112
 30
0.0
 10
297.825265584979
 20
283.8680424520704
 30
0.0
 10
297.853230805671
 20
284.0501797659882
 30
0.0
 10
297.8814560632323
 20
284.171136239916
 30
0.0
 10
297.9179858153486
 20
284.2917488551317
 30
0.0
  0
SPLINE
  5
1B1
330
1F
100
AcDbEntity
  8
1
100
AcDbSpline
210
0.0
220
0.0
230
1.0
 70
     8
 71
     3
 72
     8
 73
     4
 74
     0
 42
0.000000001
 43
0.0000000001
 40
0.0
 40
0.0
 40
0.0
 40
0.0
 40
1.0
 40
1.0
 40
1.0
 40
1.0
 10
306.5080708126726
 20
282.9664518694341
 30
0.0
 10
306.0265035028189
 20
282.7888200671946
 30
0.0
 10
305.5434810923715
 20
282.6129214920036
 30
0.0
 10
305.0592831521456
 20
282.4384231361634
 30
0.0
  0
SPLINE
  5
1B2
330
1F
100
AcDbEntity
  8
1
100
AcDbSpline
210
0.0
220
0.0
230
1.0
 70
     8
 71
     3
 72
    14
 73
    10
 74
     0
 42
0.000000001
 43
0.0000000001
 40
0.0
 40
0.0
 40
0.0
 40
0.0
 40
0.25
 40
0.25
 40
0.5
 40
0.5
 40
0.75
 40
0.75
 40
1.0
 40
1.0
 40
1.0
 40
1.0
 10
305.6895043254176
 20
289.6445941583065
 30
0.0
 10
306.0222253381928
 20
289.2631943571652
 30
0.0
 10
306.3586737418669
 20
288.8834337563382
 30
0.0
 10
307.0373345522871
 20
288.1264473990039
 30
0.0
 10
307.3795536601282
 20
287.7492245894473
 30
0.0
 10
308.0685564536597
 20
286.9967863416155
 30
0.0
 10
308.4153442374888
 20
286.6215727055852
 30
0.0
 10
309.1125986160514
 20
285.8727632697411
 30
0.0
 10
309.4630678200083
 20
285.4991686173897
 30
0.0
 10
309.8150419452959
 20
285.1262357865605
 30
0.0
  0
SPLINE
  5
1B3
330
1F
100
AcDbEntity
  8
1
100
AcDbSpline
210
0.0
220
0.0
230
1.0
 70
     8
 71
     3
 72
    14
 73
    10
 74
     0
 42
0.000000001
 43
0.0000000001
 40
0.0
 40
0.0
 40
0.0
 40
0.0
 40
0.25
 40
0.25
 40
0.5
 40
0.5
 40
0.75
 40
0.75
 40
1.0
 40
1.0
 40
1.0
 40
1.0
 10
293.8150419452959
 20
287.5878495576282
 30
0.0
 10
293.6551745082833
 20
287.6701529204321
 30
0.0
 10
293.498160016319
 20
287.757191462553
 30
0.0
 10
293.1894209514997
 20
287.9400484970322
 30
0.0
 10
293.0376981049365
 20
288.0358698546059
 30
0.0
 10
292.7392999506839
 20
288.2358902290741
 30
0.0
 10
292.5926255287942
 20
288.3400907161758
 30
0.0
 10
292.3042119694477
 20
288.5566830352442
 30
0.0
 10
292.1624731802493
 20
288.6690754452327
 30
0.0
 10
292.0232021975694
 20
288.7855638003541
 30
0.0
  0
SPLINE
  5
1B4
330
1F
100
AcDbEntity
  8
1
100
AcDbSpline
210
0.0
220
0.0
230
1.0
 70
     8
 71
     3
 72
    10
 73
     6
 74
     0
 42
0.000000001
 43
0.0000000001
 40
0.0
 40
0.0
 40
0.0
 40
0.0
 40
0.5
 40
0.5
 40
1.0
 40
1.0
 40
1.0
 40
1.0
 10
292.0232021975694
 20
275.591323593284
 30
0.0
 10
292.1643402481064
 20
275.5328636741735
 30
0.0
 10
292.306046578771
 20
275.4803047789014
 30
0.0
 10
292.5908501804272
 20
275.3866525003772
 30
0.0
 10
292.7339468157857
 20
275.3455611592515
 30
0.0
 10
292.8778813555309
 20
275.3102303053608
 30
0.0
  0
SPLINE
  5
1B5
330
1F
100
AcDbEntity
  8
1
100
AcDbSpline
210
0.0
220
0.0
230
1.0
 70
     8
 71
     3
 72
    10
 73
     6
 74
     0
 42
0.000000001
 43
0.0000000001
 40
0.0
 40
0.0
 40
0.0
 40
0.0
 40
0.5
 40
0.5
 40
1.0
 40
1.0
 40
1.0
 40
1.0
 10
292.8778813555309
 20
275.3102303053608
 30
0.0
 10
293.0307214874734
 20
275.2727134426268
 30
0.0
 10
293.1852104575986
 20
275.2424658278401
 30
0.0
 10
293.4975576987607
 20
275.1968248659535
 30
0.0
 10
293.6554153937452
 20
275.1814289792047
 30
0.0
 10
293.8150419452959
 20
275.1738314665473
 30
0.0
  0
SPLINE
  5
1B6
330
1F
100
AcDbEntity
  8
1
100
AcDbSpline
210
0.0
220
0.0
230
1.0
 70
     8
 71
     3
 72
    25
 73
    21
 74
     0
 42
0.000000001
 43
0.0000000001
 40
0.0
 40
0.0
 40
0.0
 40
0.0
 40
0.1691903434655297
 40
0.1691903434655297
 40
0.2537855151982946
 40
0.2537855151982946
 40
0.2960831010646771
 40
0.2960831010646771
 40
0.3383806869310595
 40
0.5075710303965876
 40
0.5075710303965876
 40
0.6767613738621155
 40
0.6767613738621155
 40
0.8459517173276436
 40
0.8459517173276436
 40
0.8882493031940255
 40
0.8882493031940255
 40
0.9305468890604075
 40
0.9305468890604075
 40
1.0
 40
1.0
 40
1.0
 40
1.0
 10
287.0263000064683
 20
313.6285471944438
 30
0.0
 10
286.9350842551806
 20
313.6026494763374
 30
0.0
 10
286.8459510482042
 20
313.577236240337
 30
0.0
 10
286.7157573661467
 20
313.5398182011526
 30
0.0
 10
286.6729449246621
 20
313.5274626011171
 30
0.0
 10
286.6096640104398
 20
313.509102865678
 30
0.0
 10
286.5887096730537
 20
313.5030069022507
 30
0.0
 10
286.5472609995853
 20
313.4909124639423
 30
0.0
 10
286.4447370769153
 20
313.4609049142456
 30
0.0
 10
286.3477874522736
 20
313.4320302140491
 30
0.0
 10
286.2004438987722
 20
313.3872705987531
 30
0.0
 10
286.1306579376218
 20
313.3656103968036
 30
0.0
 10
285.9997100209318
 20
313.3237597334661
 30
0.0
 10
285.9385446592318
 20
313.3035686663968
 30
0.0
 10
285.8681891789768
 20
313.2793008521015
 30
0.0
 10
285.854424013046
 20
313.2744960013479
 30
0.0
 10
285.8275272083895
 20
313.2649857544445
 30
0.0
 10
285.81439513165
 20
313.2602799924813
 30
0.0
 10
285.7807243815264
 20
313.2480397902463
 30
0.0
 10
285.76079944501
 20
313.2406135557661
 30
0.0
 10
285.741903163413
 20
313.2333708340026
 30
0.0
  0
SPLINE
  5
1B7
330
1F
100
AcDbEntity
  8
1
100
AcDbSpline
210
0.0
220
0.0
230
1.0
 70
     8
 71
     3
 72
    14
 73
    10
 74
     0
 42
0.000000001
 43
0.0000000001
 40
0.0
 40
0.0
 40
0.0
 40
0.0
 40
0.0759993216784653
 40
0.0759993216784653
 40
0.3069994912588453
 40
0.3069994912588453
 40
0.5379996608392253
 40
0.5379996608392253
 40
1.0
 40
1.0
 40
1.0
 40
1.0
 10
291.225174272454
 20
314.4938040116976
 30
0.0
 10
291.2453891063175
 20
314.5015482458948
 30
0.0
 10
291.2656099857299
 20
314.5093187310208
 30
0.0
 10
291.3473167572557
 20
314.5408137921324
 30
0.0
 10
291.4088529664846
 20
314.5647551770243
 30
0.0
 10
291.5320404607949
 20
314.6131269955684
 30
0.0
 10
291.5936813803369
 20
314.6375537968698
 30
0.0
 10
291.7782026613681
 20
314.7113383524422
 30
0.0
 10
291.9008722244594
 20
314.76127468826
 30
0.0
 10
292.0232021975694
 20
314.8119442299292
 30
0.0
  0
SPLINE
  5
1B8
330
1F
100
AcDbEntity
  8
1
100
AcDbSpline
210
0.0
220
0.0
230
1.0
 70
     8
 71
     3
 72
    86
 73
    82
 74
     0
 42
0.000000001
 43
0.0000000001
 40
0.0
 40
0.0
 40
0.0
 40
0.0
 40
0.0312500000000003
 40
0.0312500000000003
 40
0.0468750000000004
 40
0.0468750000000004
 40
0.0546875000000005
 40
0.0546875000000005
 40
0.0625000000000006
 40
0.0937500000000011
 40
0.0937500000000011
 40
0.1250000000000017
 40
0.1250000000000017
 40
0.1562500000000023
 40
0.1562500000000023
 40
0.1640625000000025
 40
0.1640625000000025
 40
0.1718750000000026
 40
0.1718750000000026
 40
0.1875000000000029
 40
0.1875000000000029
 40
0.2187500000000037
 40
0.2187500000000037
 40
0.2500000000000044
 40
0.2500000000000044
 40
0.2578125000000047
 40
0.2578125000000047
 40
0.2656250000000049
 40
0.2656250000000049
 40
0.2812500000000054
 40
0.2812500000000054
 40
0.3125000000000065
 40
0.3437500000000075
 40
0.3437500000000075
 40
0.359375000000008
 40
0.359375000000008
 40
0.3671875000000083
 40
0.3671875000000083
 40
0.3750000000000087
 40
0.3750000000000087
 40
0.4062500000000091
 40
0.4062500000000091
 40
0.4375000000000095
 40
0.4375000000000095
 40
0.4453125000000096
 40
0.4453125000000096
 40
0.4531250000000097
 40
0.4531250000000097
 40
0.4687500000000095
 40
0.4687500000000095
 40
0.5000000000000088
 40
0.5000000000000088
 40
0.5312500000000082
 40
0.5312500000000082
 40
0.5625000000000076
 40
0.5625000000000076
 40
0.5781250000000072
 40
0.5781250000000072
 40
0.5937500000000071
 40
0.5937500000000071
 40
0.6250000000000064
 40
0.6250000000000064
 40
0.6875000000000048
 40
0.6875000000000048
 40
0.7187500000000044
 40
0.7187500000000044
 40
0.7343750000000037
 40
0.7343750000000037
 40
0.7500000000000031
 40
0.7500000000000031
 40
0.8125000000000028
 40
0.8125000000000028
 40
0.8750000000000024
 40
0.8750000000000024
 40
0.9375000000000019
 40
0.9375000000000019
 40
0.9531250000000017
 40
0.9531250000000017
 40
0.9687500000000014
 40
0.9687500000000014
 40
1.0
 40
1.0
 40
1.0
 40
1.0
 10
287.0263000064683
 20
276.7747206287694
 30
0.0
 10
286.9350842551806
 20
276.8006183468759
 30
0.0
 10
286.8459510482042
 20
276.8260315828762
 30
0.0
 10
286.7157573661467
 20
276.8634496220607
 30
0.0
 10
286.6729449246621
 20
276.8758052220962
 30
0.0
 10
286.6096640104398
 20
276.8941649575352
 30
0.0
 10
286.5887096730537
 20
276.9002609209626
 30
0.0
 10
286.5472609995853
 20
276.9123553592709
 30
0.0
 10
286.4447370769153
 20
276.9423629089677
 30
0.0
 10
286.3477874522736
 20
276.9712376091641
 30
0.0
 10
286.2004438987721
 20
277.0159972244601
 30
0.0
 10
286.1306579376218
 20
277.0376574264096
 30
0.0
 10
285.9997100209318
 20
277.0795080897472
 30
0.0
 10
285.9385446592318
 20
277.0996991568165
 30
0.0
 10
285.8681891789768
 20
277.1239669711118
 30
0.0
 10
285.854424013046
 20
277.1287718218654
 30
0.0
 10
285.8275272083895
 20
277.1382820687688
 30
0.0
 10
285.81439513165
 20
277.142987830732
 30
0.0
 10
285.7761620426784
 20
277.1568865629955
 30
0.0
 10
285.7521590377739
 20
277.1658837739541
 30
0.0
 10
285.6847546619921
 20
277.1920562626334
 30
0.0
 10
285.6459488187747
 20
277.2084151530653
 30
0.0
 10
285.581580583622
 20
277.2388230308744
 30
0.0
 10
285.5560148294969
 20
277.2528729706407
 30
0.0
 10
285.5331527542891
 20
277.2688485406111
 30
0.0
 10
285.5290360606611
 20
277.2719640242649
 30
0.0
 10
285.5217388297957
 20
277.2780308854803
 30
0.0
 10
285.5185551670806
 20
277.2809856649361
 30
0.0
 10
285.510469618541
 20
277.2895726656243
 30
0.0
 10
285.5070581548233
 20
277.2948965039785
 30
0.0
 10
285.5027207325786
 20
277.3096608834196
 30
0.0
 10
285.5126492708924
 20
277.3261336980407
 30
0.0
 10
285.5539034953135
 20
277.3359872103836
 30
0.0
 10
285.596720320134
 20
277.3407484674184
 30
0.0
 10
285.6129737750277
 20
277.341896579595
 30
0.0
 10
285.6403588826367
 20
277.3429342364828
 30
0.0
 10
285.6500031080598
 20
277.3431658239241
 30
0.0
 10
285.6701595542032
 20
277.3433953761756
 30
0.0
 10
285.6806828242128
 20
277.3433941218991
 30
0.0
 10
285.7354714644574
 20
277.3428127445112
 30
0.0
 10
285.7862394528291
 20
277.340511260283
 30
0.0
 10
285.9005368576342
 20
277.3322979584958
 30
0.0
 10
285.9640688249834
 20
277.3263856025451
 30
0.0
 10
286.0509655759748
 20
277.3167202591659
 30
0.0
 10
286.0687196940036
 20
277.3146732431568
 30
0.0
 10
286.1049676439821
 20
277.3103500797095
 30
0.0
 10
286.1234803155418
 20
277.3080713986411
 30
0.0
 10
286.1798232293592
 20
277.3009271623458
 30
0.0
 10
286.218532472071
 20
277.2957452381281
 30
0.0
 10
286.3378748844883
 20
277.2789752963836
 30
0.0
 10
286.4217135230616
 20
277.2661655038368
 30
0.0
 10
286.5969995603095
 20
277.2373946571528
 30
0.0
 10
286.6884498635672
 20
277.2214329418919
 30
0.0
 10
286.8782833971613
 20
277.1863957135456
 30
0.0
 10
286.9766683900702
 20
277.1673198400629
 30
0.0
 10
287.1290831089036
 20
277.1363582888473
 30
0.0
 10
287.180759765595
 20
277.125631721452
 30
0.0
 10
287.2849000990713
 20
277.103557609207
 30
0.0
 10
287.3374479825191
 20
277.0921935294626
 30
0.0
 10
287.4964402734795
 20
277.0571359904139
 30
0.0
 10
287.6042299278824
 20
277.0324783675036
 30
0.0
 10
287.9324515955925
 20
276.9547263166299
 30
0.0
 10
288.1577024472058
 20
276.8978650889587
 30
0.0
 10
288.5039226954873
 20
276.8050664748968
 30
0.0
 10
288.6207296307851
 20
276.7728790911871
 30
0.0
 10
288.7979483219629
 20
276.7226933059756
 30
0.0
 10
288.8573563616956
 20
276.7056470882919
 30
0.0
 10
288.9768322134835
 20
276.6709135817295
 30
0.0
 10
289.0369146792682
 20
276.653221148459
 30
0.0
 10
289.3372583482097
 20
276.5636529819826
 30
0.0
 10
289.5786523798744
 20
276.4880783180142
 30
0.0
 10
290.0633193757333
 20
276.3292574766758
 30
0.0
 10
290.3065948234503
 20
276.2460096348661
 30
0.0
 10
290.7948935827275
 20
276.0718538767544
 30
0.0
 10
291.0399175820824
 20
275.9809455052505
 30
0.0
 10
291.3473167572557
 20
275.8624540310809
 30
0.0
 10
291.4088529664846
 20
275.8385126461889
 30
0.0
 10
291.5320404607948
 20
275.7901408276449
 30
0.0
 10
291.5936813803369
 20
275.7657140263434
 30
0.0
 10
291.778202661368
 20
275.691929470771
 30
0.0
 10
291.9008722244594
 20
275.6419931349533
 30
0.0
 10
292.0232021975694
 20
275.591323593284
 30
0.0
  0
SPLINE
  5
1B9
330
1F
100
AcDbEntity
  8
1
100
AcDbSpline
210
0.0
220
0.0
230
1.0
 70
    12
 71
     2
 72
     6
 73
     3
 74
     0
 42
0.000000001
 43
0.0000000001
 40
0.0
 40
0.0
 40
0.0
 40
1.0
 40
1.0
 40
1.0
 10
299.9285479910695
 20
296.5076988761637
 30
0.0
 41
0.5000010680646112
 10
300.9936254410457
 20
296.3126351708898
 30
0.0
 41
0.4999989319353889
 10
302.054648563397
 20
296.1183296289802
 30
0.0
 41
0.5000010680646112
  0
SPLINE
  5
1BA
330
1F
100
AcDbEntity
  8
1
100
AcDbSpline
210
0.0
220
0.0
230
1.0
 70
     8
 71
     3
 72
    26
 73
    22
 74
     0
 42
0.000000001
 43
0.0000000001
 40
0.0
 40
0.0
 40
0.0
 40
0.0
 40
0.1249999999999997
 40
0.1249999999999997
 40
0.2499999999999994
 40
0.2499999999999994
 40
0.3124999999999993
 40
0.3124999999999993
 40
0.3437499999999992
 40
0.3437499999999992
 40
0.3749999999999992
 40
0.3749999999999992
 40
0.4999999999999993
 40
0.4999999999999993
 40
0.6249999999999995
 40
0.6249999999999995
 40
0.7499999999999997
 40
0.7499999999999997
 40
0.8749999999999998
 40
0.8749999999999998
 40
1.0
 40
1.0
 40
1.0
 40
1.0
 10
302.0546485633969
 20
296.1183296289805
 30
0.0
 10
301.9721166876963
 20
296.2615099093748
 30
0.0
 10
301.8876506807672
 20
296.3995291565957
 30
0.0
 10
301.7089804622213
 20
296.6630157045799
 30
0.0
 10
301.6146944920313
 20
296.7884461569293
 30
0.0
 10
301.4621250651468
 20
296.9663633159862
 30
0.0
 10
301.4094277598756
 20
297.0239779640398
 30
0.0
 10
301.3273728280677
 20
297.1079097497686
 30
0.0
 10
301.2994900195018
 20
297.1355031014618
 30
0.0
 10
301.2428517511769
 20
297.1897446828993
 30
0.0
 10
301.2141626927988
 20
297.2163317605006
 30
0.0
 10
301.06890155421
 20
297.3467526399133
 30
0.0
 10
300.946820849122
 20
297.4430384596265
 30
0.0
 10
300.6930539867649
 20
297.6238082485734
 30
0.0
 10
300.5614216681109
 20
297.7083277291153
 30
0.0
 10
300.2913119177369
 20
297.8692787307011
 30
0.0
 10
300.1528495379399
 20
297.9457092997932
 30
0.0
 10
299.8712719120686
 20
298.093006807983
 30
0.0
 10
299.7281541460816
 20
298.1638630933844
 30
0.0
 10
299.4387850343815
 20
298.3016116394828
 30
0.0
 10
299.2925279062556
 20
298.368494737528
 30
0.0
 10
299.1452114174482
 20
298.4338974511076
 30
0.0
  0
SPLINE
  5
1BB
330
1F
100
AcDbEntity
  8
1
100
AcDbSpline
210
0.0
220
0.0
230
1.0
 70
     8
 71
     3
 72
    72
 73
    68
 74
     0
 42
0.000000001
 43
0.0000000001
 40
0.0
 40
0.0
 40
0.0
 40
0.0
 40
0.0625000000000044
 40
0.0625000000000044
 40
0.0781250000000051
 40
0.0781250000000051
 40
0.0937500000000058
 40
0.0937500000000058
 40
0.1250000000000051
 40
0.1250000000000051
 40
0.1562500000000044
 40
0.1562500000000044
 40
0.171875000000004
 40
0.171875000000004
 40
0.1796875000000039
 40
0.1796875000000039
 40
0.1875000000000037
 40
0.1875000000000037
 40
0.2500000000000053
 40
0.2500000000000053
 40
0.2656250000000063
 40
0.2656250000000063
 40
0.2812500000000072
 40
0.2812500000000072
 40
0.3125000000000079
 40
0.3437500000000086
 40
0.3437500000000086
 40
0.3593750000000082
 40
0.3593750000000082
 40
0.3750000000000077
 40
0.3750000000000077
 40
0.4062500000000056
 40
0.4062500000000056
 40
0.4218750000000047
 40
0.4218750000000047
 40
0.4375000000000037
 40
0.4375000000000037
 40
0.5000000000000019
 40
0.5000000000000019
 40
0.5156250000000019
 40
0.5156250000000019
 40
0.5312500000000019
 40
0.5312500000000019
 40
0.5625000000000018
 40
0.5625000000000018
 40
0.6250000000000014
 40
0.6250000000000014
 40
0.6406250000000009
 40
0.6406250000000009
 40
0.6562500000000005
 40
0.6875000000000006
 40
0.6875000000000006
 40
0.7500000000000008
 40
0.7500000000000008
 40
0.7656250000000019
 40
0.7656250000000019
 40
0.7812500000000031
 40
0.8125000000000053
 40
0.8125000000000053
 40
0.8750000000000074
 40
0.8750000000000074
 40
0.8906250000000072
 40
0.8906250000000072
 40
0.9062500000000072
 40
0.9375000000000047
 40
0.9375000000000047
 40
1.0
 40
1.0
 40
1.0
 40
1.0
 10
299.1452114174482
 20
298.4338974511076
 30
0.0
 10
299.0461633628629
 20
298.4244023429257
 30
0.0
 10
298.9478272906937
 20
298.4186005816428
 30
0.0
 10
298.8258850247409
 20
298.4176447544354
 30
0.0
 10
298.8015460707795
 20
298.4177720749317
 30
0.0
 10
298.7529721927466
 20
298.4187229550011
 30
0.0
 10
298.7287219055096
 20
298.4195494934485
 30
0.0
 10
298.6568767975141
 20
298.4231264694367
 30
0.0
 10
298.6099453850535
 20
298.426973840047
 30
0.0
 10
298.5181759376918
 20
298.4379202450695
 30
0.0
 10
298.4733371220892
 20
298.4450185600551
 30
0.0
 10
298.4078295360473
 20
298.4584059829374
 30
0.0
 10
298.3862861331388
 20
298.4633257750746
 30
0.0
 10
298.3544398364558
 20
298.4714362605246
 30
0.0
 10
298.3438943317514
 20
298.4742645228741
 30
0.0
 10
298.3231212206182
 20
298.4801266801143
 30
0.0
 10
298.312874465075
 20
298.4831651719198
 30
0.0
 10
298.221915471618
 20
298.5114767445842
 30
0.0
 10
298.1499729833193
 20
298.5435047795859
 30
0.0
 10
298.0719587472695
 20
298.5920133099108
 30
0.0
 10
298.0569555427656
 20
298.6021387872441
 30
0.0
 10
298.0281855135116
 20
298.6232354997039
 30
0.0
 10
298.0145304114035
 20
298.6341289394531
 30
0.0
 10
297.9759887011919
 20
298.667528391292
 30
0.0
 10
297.930776970291
 20
298.7141735601195
 30
0.0
 10
297.8972206213872
 20
298.7643007067741
 30
0.0
 10
297.8762986497727
 20
298.802956861835
 30
0.0
 10
297.8700649730496
 20
298.8159681611079
 30
0.0
 10
297.8590996430821
 20
298.8420045497706
 30
0.0
 10
297.8543516675011
 20
298.8550592875082
 30
0.0
 10
297.8422088783993
 20
298.8942775750299
 30
0.0
 10
297.8369083105709
 20
298.9204940150354
 30
0.0
 10
297.8328783004561
 20
298.9597299516589
 30
0.0
 10
297.8321902434326
 20
298.9727941389922
 30
0.0
 10
297.8320996012403
 20
298.998864258704
 30
0.0
 10
297.8327011597729
 20
299.0118741502602
 30
0.0
 10
297.8387951263219
 20
299.0760969207291
 30
0.0
 10
297.8534022499314
 20
299.1253369806184
 30
0.0
 10
297.8825231337299
 20
299.1836457224011
 30
0.0
 10
297.8888976044576
 20
299.1951454383896
 30
0.0
 10
297.9027414073725
 20
299.2178062241788
 30
0.0
 10
297.910225214338
 20
299.2289838917133
 30
0.0
 10
297.9341120567603
 20
299.2617140818254
 30
0.0
 10
297.9519885343032
 20
299.2825473971614
 30
0.0
 10
298.0112049137722
 20
299.3421015762309
 30
0.0
 10
298.0580785394449
 20
299.3778874776091
 30
0.0
 10
298.1259343111822
 20
299.4176012679032
 30
0.0
 10
298.1400072699945
 20
299.4253090283799
 30
0.0
 10
298.1689034649045
 20
299.4401134132609
 30
0.0
 10
298.2133644111613
 20
299.4614068965755
 30
0.0
 10
298.2611167814118
 20
299.4800302330374
 30
0.0
 10
298.3609669679347
 20
299.5138543859572
 30
0.0
 10
298.4332913446366
 20
299.5318519041699
 30
0.0
 10
298.5313085760349
 20
299.5489153856929
 30
0.0
 10
298.5513298828696
 20
299.5520589876205
 30
0.0
 10
298.5917750713642
 20
299.5577545725143
 30
0.0
 10
298.6531638672463
 20
299.5654336470018
 30
0.0
 10
298.7166983880846
 20
299.5706357291571
 30
0.0
 10
298.8466422032661
 20
299.5779970029141
 30
0.0
 10
298.9370827776835
 20
299.5788582676487
 30
0.0
 10
299.0552598866874
 20
299.5755381534735
 30
0.0
 10
299.0791681884488
 20
299.5746515454553
 30
0.0
 10
299.1270328068426
 20
299.5724767239643
 30
0.0
 10
299.1990763541277
 20
299.5686079375105
 30
0.0
 10
299.2718638160045
 20
299.5630551743968
 30
0.0
 10
299.4184585628534
 20
299.550010886946
 30
0.0
 10
299.5175410001513
 20
299.538743139611
 30
0.0
 10
299.6181289224123
 20
299.5255296351041
 30
0.0
  0
SPLINE
  5
1BC
330
1F
100
AcDbEntity
  8
1
100
AcDbSpline
210
0.0
220
0.0
230
1.0
 70
     8
 71
     3
 72
    12
 73
     8
 74
     0
 42
0.000000001
 43
0.0000000001
 40
0.0
 40
0.0
 40
0.0
 40
0.0
 40
0.2499999999999971
 40
0.2499999999999971
 40
0.4999999999999943
 40
0.4999999999999943
 40
1.0
 40
1.0
 40
1.0
 40
1.0
 10
299.6181289224124
 20
299.5255296351041
 30
0.0
 10
299.6508849572047
 20
299.5237400889988
 30
0.0
 10
299.6843650491911
 20
299.5213845137826
 30
0.0
 10
299.7519076135546
 20
299.5156697011643
 30
0.0
 10
299.785988069045
 20
299.512313197806
 30
0.0
 10
299.8890655792231
 20
299.5008866025639
 30
0.0
 10
299.9588973778616
 20
299.4914651927964
 30
0.0
 10
300.0296057418911
 20
299.4805397205634
 30
0.0
  0
SPLINE
  5
1BD
330
1F
100
AcDbEntity
  8
1
100
AcDbSpline
210
0.0
220
0.0
230
1.0
 70
     8
 71
     3
 72
    86
 73
    82
 74
     0
 42
0.000000001
 43
0.0000000001
 40
0.0
 40
0.0
 40
0.0
 40
0.0
 40
0.0312500000000005
 40
0.0312500000000005
 40
0.0468750000000008
 40
0.0468750000000008
 40
0.054687500000001
 40
0.054687500000001
 40
0.0625000000000011
 40
0.0937500000000021
 40
0.0937500000000021
 40
0.125000000000003
 40
0.125000000000003
 40
0.1562500000000039
 40
0.1562500000000039
 40
0.1640625000000041
 40
0.1640625000000041
 40
0.1718750000000044
 40
0.1718750000000044
 40
0.1875000000000049
 40
0.1875000000000049
 40
0.2187500000000059
 40
0.2187500000000059
 40
0.2500000000000069
 40
0.2500000000000069
 40
0.2578125000000072
 40
0.2578125000000072
 40
0.2656250000000075
 40
0.2656250000000075
 40
0.281250000000008
 40
0.281250000000008
 40
0.3125000000000089
 40
0.3437500000000099
 40
0.3437500000000099
 40
0.3593750000000105
 40
0.3593750000000105
 40
0.3671875000000107
 40
0.3671875000000107
 40
0.3750000000000109
 40
0.3750000000000109
 40
0.4062500000000126
 40
0.4062500000000126
 40
0.4375000000000141
 40
0.4375000000000141
 40
0.4453125000000143
 40
0.4453125000000143
 40
0.4531250000000145
 40
0.4531250000000145
 40
0.4687500000000145
 40
0.4687500000000145
 40
0.5000000000000142
 40
0.5000000000000142
 40
0.5312500000000137
 40
0.5312500000000137
 40
0.5625000000000133
 40
0.5625000000000133
 40
0.578125000000013
 40
0.578125000000013
 40
0.5937500000000128
 40
0.5937500000000128
 40
0.6250000000000117
 40
0.6250000000000117
 40
0.6875000000000091
 40
0.6875000000000091
 40
0.7187500000000081
 40
0.7187500000000081
 40
0.7343750000000075
 40
0.7343750000000075
 40
0.7500000000000068
 40
0.7500000000000068
 40
0.812500000000006
 40
0.812500000000006
 40
0.8750000000000051
 40
0.8750000000000051
 40
0.9375000000000044
 40
0.9375000000000044
 40
0.9531250000000033
 40
0.9531250000000033
 40
0.9687500000000024
 40
0.9687500000000024
 40
1.0
 40
1.0
 40
1.0
 40
1.0
 10
287.0263000064683
 20
293.3000527329454
 30
0.0
 10
286.9350842551806
 20
293.3901985546225
 30
0.0
 10
286.8459510482042
 20
293.4831992731201
 30
0.0
 10
286.7157573661467
 20
293.6274647925241
 30
0.0
 10
286.6729449246621
 20
293.6763488241073
 30
0.0
 10
286.6096640104398
 20
293.7509439867074
 30
0.0
 10
286.5887096730537
 20
293.7760419330657
 30
0.0
 10
286.5472609995853
 20
293.8265078369209
 30
0.0
 10
286.4447370769153
 20
293.9534089998463
 30
0.0
 10
286.3477874522736
 20
294.0840440808786
 30
0.0
 10
286.2004438987721
 20
294.2982411946406
 30
0.0
 10
286.1306579376218
 20
294.4079288480064
 30
0.0
 10
285.9997100209318
 20
294.6330252158535
 30
0.0
 10
285.9385446592318
 20
294.7484316657705
 30
0.0
 10
285.8681891789767
 20
294.8967236656823
 30
0.0
 10
285.854424013046
 20
294.9265843416065
 30
0.0
 10
285.8275272083895
 20
294.9867242917261
 30
0.0
 10
285.81439513165
 20
295.0170076194849
 30
0.0
 10
285.7761620426784
 20
295.1080671109093
 30
0.0
 10
285.7521590377739
 20
295.169194063707
 30
0.0
 10
285.6847546619921
 20
295.3538769283206
 30
0.0
 10
285.6459488187747
 20
295.478732132079
 30
0.0
 10
285.581580583622
 20
295.7321816611318
 30
0.0
 10
285.5560148294969
 20
295.8607749927073
 30
0.0
 10
285.533152754289
 20
296.0240846094153
 30
0.0
 10
285.5290360606611
 20
296.056875217454
 30
0.0
 10
285.5217388297957
 20
296.1227208454547
 30
0.0
 10
285.5185551670806
 20
296.1558154600225
 30
0.0
 10
285.510469618541
 20
296.2552391991657
 30
0.0
 10
285.5070581548233
 20
296.3213356157923
 30
0.0
 10
285.5027207325785
 20
296.5190709943284
 30
0.0
 10
285.5126497118935
 20
296.7812422496503
 30
0.0
 10
285.5539034953135
 20
297.0404814215875
 30
0.0
 10
285.596720320134
 20
297.2338049761223
 30
0.0
 10
285.6129737750277
 20
297.2980617123245
 30
0.0
 10
285.6403588826367
 20
297.3941679710475
 30
0.0
 10
285.6500031080598
 20
297.42619954574
 30
0.0
 10
285.6701595542033
 20
297.4897423555547
 30
0.0
 10
285.6806828242128
 20
297.5212972766769
 30
0.0
 10
285.7354714644574
 20
297.6780149156517
 30
0.0
 10
285.7862394528292
 20
297.8000136747023
 30
0.0
 10
285.9005368576342
 20
298.0377939129553
 30
0.0
 10
285.9640688249835
 20
298.1535741556785
 30
0.0
 10
286.0509655759748
 20
298.2946489351049
 30
0.0
 10
286.0687196940036
 20
298.3226810339949
 30
0.0
 10
286.1049676439821
 20
298.3783841646468
 30
0.0
 10
286.1234803155418
 20
298.406081167055
 30
0.0
 10
286.1798232293594
 20
298.4882210019299
 30
0.0
 10
286.2185324720711
 20
298.54183442376
 30
0.0
 10
286.3378748844884
 20
298.6994543129747
 30
0.0
 10
286.4217135230617
 20
298.8002494563897
 30
0.0
 10
286.5969995603095
 20
298.9941766764248
 30
0.0
 10
286.6884498635672
 20
299.0873059149076
 30
0.0
 10
286.8782833971614
 20
299.266542975676
 30
0.0
 10
286.9766683900703
 20
299.3526490822725
 30
0.0
 10
287.1290831089037
 20
299.4768810864408
 30
0.0
 10
287.1807597655951
 20
299.5175133169211
 30
0.0
 10
287.2849000990713
 20
299.5965998182571
 30
0.0
 10
287.3374479825192
 20
299.6351263047126
 30
0.0
 10
287.4964402734796
 20
299.7478160568575
 30
0.0
 10
287.6042299278825
 20
299.8190962945443
 30
0.0
 10
287.9324515955925
 20
300.022399065856
 30
0.0
 10
288.157702447206
 20
300.1439507885146
 30
0.0
 10
288.5039226954875
 20
300.3076967159785
 30
0.0
 10
288.6207296307852
 20
300.3591629153273
 30
0.0
 10
288.797948321963
 20
300.4318449711274
 30
0.0
 10
288.8573563616957
 20
300.4553185941989
 30
0.0
 10
288.9768322134837
 20
300.5007747907443
 30
0.0
 10
289.0369146792684
 20
300.5227595831902
 30
0.0
 10
289.3372583482098
 20
300.6284135225941
 30
0.0
 10
289.5786523798745
 20
300.6998716097409
 30
0.0
 10
290.0633193757334
 20
300.818865361167
 30
0.0
 10
290.3065948234504
 20
300.8663848561828
 30
0.0
 10
290.7948935827276
 20
300.9382154813746
 30
0.0
 10
291.0399175820826
 20
300.9625221440705
 30
0.0
 10
291.3473167572558
 20
300.97813390166
 30
0.0
 10
291.4088529664847
 20
300.9805149497909
 30
0.0
 10
291.532040460795
 20
300.9837769001521
 30
0.0
 10
291.593681380337
 20
300.9846560339854
 30
0.0
 10
291.7782026613682
 20
300.9850193944125
 30
0.0
 10
291.9008722244594
 20
300.9822379430552
 30
0.0
 10
292.0232021975696
 20
300.976404627184
 30
0.0
  0
SPLINE
  5
1BE
330
1F
100
AcDbEntity
  8
1
100
AcDbSpline
210
0.0
220
0.0
230
1.0
 70
     8
 71
     3
 72
    30
 73
    26
 74
     0
 42
0.000000001
 43
0.0000000001
 40
0.0
 40
0.0
 40
0.0
 40
0.0
 40
0.0312500000000003
 40
0.0312500000000003
 40
0.0625000000000005
 40
0.1250000000000014
 40
0.1250000000000014
 40
0.250000000000003
 40
0.250000000000003
 40
0.3750000000000047
 40
0.3750000000000047
 40
0.4062500000000033
 40
0.4062500000000033
 40
0.4375000000000022
 40
0.5000000000000019
 40
0.5000000000000019
 40
0.6250000000000023
 40
0.6250000000000023
 40
0.7500000000000026
 40
0.7500000000000026
 40
0.875000000000003
 40
0.875000000000003
 40
0.9375000000000014
 40
0.9375000000000014
 40
1.0
 40
1.0
 40
1.0
 40
1.0
 10
303.9150515249438
 20
293.0413890879044
 30
0.0
 10
303.922624887047
 20
293.0010037128788
 30
0.0
 10
303.9306936431336
 20
292.9606818329627
 30
0.0
 10
303.9477391013487
 20
292.8804295775988
 30
0.0
 10
303.9746928576355
 20
292.7605133264335
 30
0.0
 10
304.0056663694677
 20
292.6419377728568
 30
0.0
 10
304.0726504764088
 20
292.4064665979998
 30
0.0
 10
304.1240109921116
 20
292.2517218373812
 30
0.0
 10
304.2387376746967
 20
291.9462358488137
 30
0.0
 10
304.3021059909605
 20
291.7954953370312
 30
0.0
 10
304.3881646283779
 20
291.6093529619749
 30
0.0
 10
304.4057334455656
 20
291.5722114623591
 30
0.0
 10
304.4414017716032
 20
291.4984418433502
 30
0.0
 10
304.4957415758102
 20
291.38846543531
 30
0.0
 10
304.5524956848
 20
291.2804567979005
 30
0.0
 10
304.6689987904654
 20
291.0669149135783
 30
0.0
 10
304.7506511718724
 20
290.9278465941108
 30
0.0
 10
304.9209920259852
 20
290.6557138931468
 30
0.0
 10
305.0096826097507
 20
290.5226510377316
 30
0.0
 10
305.1934555059694
 20
290.2621769339009
 30
0.0
 10
305.2885388655811
 20
290.134766317958
 30
0.0
 10
305.435649760039
 20
289.9477695107318
 30
0.0
 10
305.4854361046202
 20
289.886125215654
 30
0.0
 10
305.5864764018611
 20
289.7642099373549
 30
0.0
 10
305.6378147016977
 20
289.703846238731
 30
0.0
 10
305.6895043254176
 20
289.6445941583067
 30
0.0
  0
SPLINE
  5
1BF
330
1F
100
AcDbEntity
  8
1
100
AcDbSpline
210
0.0
220
0.0
230
1.0
 70
     8
 71
     3
 72
     8
 73
     4
 74
     0
 42
0.000000001
 43
0.0000000001
 40
0.0
 40
0.0
 40
0.0
 40
0.0
 40
1.0
 40
1.0
 40
1.0
 40
1.0
 10
303.9150515249438
 20
293.0413890879044
 30
0.0
 10
303.8574550680238
 20
293.1144623509595
 30
0.0
 10
303.8009847491764
 20
293.1880858273872
 30
0.0
 10
303.7456180430366
 20
293.2622037308228
 30
0.0
  0
SPLINE
  5
1C0
330
1F
100
AcDbEntity
  8
1
100
AcDbSpline
210
0.0
220
0.0
230
1.0
 70
     8
 71
     3
 72
    38
 73
    34
 74
     0
 42
0.000000001
 43
0.0000000001
 40
0.0
 40
0.0
 40
0.0
 40
0.0
 40
0.0312500000000001
 40
0.0312500000000001
 40
0.0625000000000002
 40
0.0625000000000002
 40
0.1250000000000035
 40
0.1250000000000035
 40
0.250000000000007
 40
0.250000000000007
 40
0.2812500000000057
 40
0.2812500000000057
 40
0.3125000000000044
 40
0.3125000000000044
 40
0.3750000000000049
 40
0.3750000000000049
 40
0.5000000000000095
 40
0.5000000000000095
 40
0.5312500000000095
 40
0.5312500000000095
 40
0.5625000000000095
 40
0.5625000000000095
 40
0.6250000000000098
 40
0.6250000000000098
 40
0.7500000000000036
 40
0.7500000000000036
 40
0.7812500000000023
 40
0.7812500000000023
 40
0.8125000000000008
 40
0.8125000000000008
 40
0.874999999999998
 40
0.874999999999998
 40
1.0
 40
1.0
 40
1.0
 40
1.0
 10
303.7456180430366
 20
293.2622037308228
 30
0.0
 10
303.7350949706306
 20
293.2353018351938
 30
0.0
 10
303.7241938132798
 20
293.2085689563991
 30
0.0
 10
303.7016102555014
 20
293.1554496564014
 30
0.0
 10
303.689902881246
 20
293.1290126415784
 30
0.0
 10
303.6538967580794
 20
293.0509435393622
 30
0.0
 10
303.6286445848241
 20
293.0003654453859
 30
0.0
 10
303.5490574942644
 20
292.8529563513985
 30
0.0
 10
303.4909283061081
 20
292.7604202578802
 30
0.0
 10
303.4111084265085
 20
292.6521319132015
 30
0.0
 10
303.394783638586
 20
292.6308457614779
 30
0.0
 10
303.3613796780254
 20
292.589031800272
 30
0.0
 10
303.3442822721529
 20
292.5684873067447
 30
0.0
 10
303.2923177787306
 20
292.5085906874357
 30
0.0
 10
303.2566260026023
 20
292.4707721057117
 30
0.0
 10
303.1462413606647
 20
292.3635094657373
 30
0.0
 10
303.0682615917955
 20
292.3002209592663
 30
0.0
 10
302.9644367311803
 20
292.2315016980876
 30
0.0
 10
302.9433524743541
 20
292.2182804298007
 30
0.0
 10
302.900516233608
 20
292.1928983144032
 30
0.0
 10
302.8787797701252
 20
292.1807510296687
 30
0.0
 10
302.8131742382163
 20
292.1462424425735
 30
0.0
 10
302.7687050602327
 20
292.1256870921581
 30
0.0
 10
302.6329771320957
 20
292.0711209474289
 30
0.0
 10
302.539403838889
 20
292.0441704034632
 30
0.0
 10
302.4180875119788
 20
292.0220712375547
 30
0.0
 10
302.3936062983123
 20
292.0182340443557
 30
0.0
 10
302.3441936689313
 20
292.0117330102273
 30
0.0
 10
302.3193368031631
 20
292.0090809751598
 30
0.0
 10
302.2446751205858
 20
292.0029212765097
 30
0.0
 10
302.1946296015336
 20
292.0011867063122
 30
0.0
 10
302.0436317388595
 20
292.0028201288043
 30
0.0
 10
301.94181378633
 20
292.0129821421077
 30
0.0
 10
301.8387762205324
 20
292.0320184055827
 30
0.0
  0
SPLINE
  5
1C1
330
1F
100
AcDbEntity
  8
1
100
AcDbSpline
210
0.0
220
0.0
230
1.0
 70
    12
 71
     2
 72
     6
 73
     3
 74
     0
 42
0.000000001
 43
0.0000000001
 40
0.0
 40
0.0
 40
0.0
 40
1.0
 40
1.0
 40
1.0
 10
300.5834369516076
 20
292.263946757766
 30
0.0
 41
0.5000003567004172
 10
301.2108637819182
 20
292.1480256746614
 30
0.0
 41
0.4999996432995827
 10
301.8387762205322
 20
292.0320184055827
 30
0.0
 41
0.5000003567004172
  0
SPLINE
  5
1C2
330
1F
100
AcDbEntity
  8
1
100
AcDbSpline
210
0.0
220
0.0
230
1.0
 70
     8
 71
     3
 72
    36
 73
    32
 74
     0
 42
0.000000001
 43
0.0000000001
 40
0.0
 40
0.0
 40
0.0
 40
0.0
 40
0.0312500000000006
 40
0.0312500000000006
 40
0.0625000000000012
 40
0.0625000000000012
 40
0.1250000000000014
 40
0.1250000000000014
 40
0.2500000000000019
 40
0.2500000000000019
 40
0.2812500000000028
 40
0.2812500000000028
 40
0.3125000000000038
 40
0.3125000000000038
 40
0.3750000000000033
 40
0.3750000000000033
 40
0.5000000000000018
 40
0.5000000000000018
 40
0.5312500000000016
 40
0.5312500000000016
 40
0.5625000000000013
 40
0.5625000000000013
 40
0.6250000000000006
 40
0.6250000000000006
 40
0.7499999999999992
 40
0.7499999999999992
 40
0.8124999999999996
 40
0.8124999999999996
 40
0.8749999999999998
 40
0.8749999999999998
 40
1.0
 40
1.0
 40
1.0
 40
1.0
 10
300.9088383438337
 20
293.0381268520183
 30
0.0
 10
300.895765660229
 20
293.0526214827251
 30
0.0
 10
300.8829020629933
 20
293.067408253344
 30
0.0
 10
300.8576123216252
 20
293.0975867332193
 30
0.0
 10
300.8451654353169
 20
293.1130070048163
 30
0.0
 10
300.8088101994907
 20
293.1598216870493
 30
0.0
 10
300.7858042309721
 20
293.1918580693857
 30
0.0
 10
300.7205966540737
 20
293.2904925756758
 30
0.0
 10
300.6821729748489
 20
293.3595952508022
 30
0.0
 10
300.6412750082278
 20
293.4505888801986
 30
0.0
 10
300.6334545576188
 20
293.4690200171507
 30
0.0
 10
300.6185638464178
 20
293.5063651789292
 30
0.0
 10
300.6114819089238
 20
293.5253187318708
 30
0.0
 10
300.5916211668526
 20
293.58231616367
 30
0.0
 10
300.580153183705
 20
293.6206586382207
 30
0.0
 10
300.5511118495828
 20
293.7367175524591
 30
0.0
 10
300.5388679105536
 20
293.8154588304124
 30
0.0
 10
300.5330840524588
 20
293.9156894169247
 30
0.0
 10
300.5324059699266
 20
293.9358262625933
 30
0.0
 10
300.5320340846243
 20
293.9762859877082
 30
0.0
 10
300.532344059891
 20
293.9966790014215
 30
0.0
 10
300.5347686873226
 20
294.0575414547018
 30
0.0
 10
300.5383583448978
 20
294.0977008623061
 30
0.0
 10
300.5548145252423
 20
294.2169824324741
 30
0.0
 10
300.5733405778154
 20
294.2949139070188
 30
0.0
 10
300.6121006845737
 20
294.4095044273121
 30
0.0
 10
300.626936900821
 20
294.4474639783364
 30
0.0
 10
300.6596224279907
 20
294.5211975664791
 30
0.0
 10
300.6775062383722
 20
294.5571212945935
 30
0.0
 10
300.7354712612598
 20
294.6622491872961
 30
0.0
 10
300.7798429419091
 20
294.7288247728558
 30
0.0
 10
300.8294582259231
 20
294.7921710141388
 30
0.0
  0
SPLINE
  5
1C3
330
1F
100
AcDbEntity
  8
1
100
AcDbSpline
210
0.0
220
0.0
230
1.0
 70
     8
 71
     3
 72
    10
 73
     6
 74
     0
 42
0.000000001
 43
0.0000000001
 40
0.0
 40
0.0
 40
0.0
 40
0.0
 40
0.5
 40
0.5
 40
1.0
 40
1.0
 40
1.0
 40
1.0
 10
292.0232021975696
 20
300.976404627184
 30
0.0
 10
292.1643402481065
 20
300.9696744464335
 30
0.0
 10
292.3060465787711
 20
300.9577035291128
 30
0.0
 10
292.5908501804272
 20
300.9253763679022
 30
0.0
 10
292.7339468157857
 20
300.9050130945184
 30
0.0
 10
292.8778813555309
 20
300.8813084087693
 30
0.0
  0
SPLINE
  5
1C4
330
1F
100
AcDbEntity
  8
1
100
AcDbSpline
210
0.0
220
0.0
230
1.0
 70
     8
 71
     3
 72
    14
 73
    10
 74
     0
 42
0.000000001
 43
0.0000000001
 40
0.0
 40
0.0
 40
0.0
 40
0.0
 40
0.25
 40
0.25
 40
0.5
 40
0.5
 40
0.75
 40
0.75
 40
1.0
 40
1.0
 40
1.0
 40
1.0
 10
293.8150419452959
 20
314.5311686398693
 30
0.0
 10
293.6551745082833
 20
314.563587426188
 30
0.0
 10
293.498160016319
 20
314.5890500493269
 30
0.0
 10
293.1894209514997
 20
314.6270772061188
 30
0.0
 10
293.0376981049365
 20
314.6396375306588
 30
0.0
 10
292.7392999506839
 20
314.6524510713061
 30
0.0
 10
292.5926255287942
 20
314.6527021276219
 30
0.0
 10
292.3042119694477
 20
314.6411708350269
 30
0.0
 10
292.1624731802493
 20
314.6293876369792
 30
0.0
 10
292.0232021975694
 20
314.6115873357108
 30
0.0
  0
SPLINE
  5
1C5
330
1F
100
AcDbEntity
  8
1
100
AcDbSpline
210
0.0
220
0.0
230
1.0
 70
     8
 71
     3
 72
     8
 73
     4
 74
     0
 42
0.000000001
 43
0.0000000001
 40
0.0
 40
0.0
 40
0.0
 40
0.0
 40
1.0
 40
1.0
 40
1.0
 40
1.0
 10
309.3091250645318
 20
284.3170173547409
 30
0.0
 10
309.4685600242201
 20
284.3924577005441
 30
0.0
 10
309.6377207336228
 20
284.466991893045
 30
0.0
 10
309.8150419452959
 20
284.5407657671851
 30
0.0
  0
SPLINE
  5
1C6
330
1F
100
AcDbEntity
  8
1
100
AcDbSpline
210
0.0
220
0.0
230
1.0
 70
     8
 71
     3
 72
    15
 73
    11
 74
     0
 42
0.000000001
 43
0.0000000001
 40
0.0
 40
0.0
 40
0.0
 40
0.0
 40
0.3864734463402424
 40
0.3864734463402424
 40
0.7729468926804849
 40
0.7729468926804849
 40
0.8695652542655425
 40
0.8695652542655425
 40
0.9661836158506002
 40
1.0
 40
1.0
 40
1.0
 40
1.0
 10
303.715041945296
 20
295.0403323411537
 30
0.0
 10
303.742402479253
 20
295.1740475485603
 30
0.0
 10
303.7781957910885
 20
295.3030473920741
 30
0.0
 10
303.8660146768157
 20
295.5515313303568
 30
0.0
 10
303.9180345888134
 20
295.6710200337747
 30
0.0
 10
303.9933418797565
 20
295.8140021389677
 30
0.0
 10
304.0089238515139
 20
295.8422769809483
 30
0.0
 10
304.040815605213
 20
295.8976428580957
 30
0.0
 10
304.0628819791136
 20
295.9343087494501
 30
0.0
 10
304.0856544527681
 20
295.9700329958486
 30
0.0
 10
304.091605517245
 20
295.9792316213832
 30
0.0
  0
SPLINE
  5
1C7
330
1F
100
AcDbEntity
  8
1
100
AcDbSpline
210
0.0
220
0.0
230
1.0
 70
     8
 71
     3
 72
    32
 73
    28
 74
     0
 42
0.000000001
 43
0.0000000001
 40
0.0
 40
0.0
 40
0.0
 40
0.0
 40
0.1249999999999915
 40
0.1249999999999915
 40
0.1874999999999876
 40
0.1874999999999876
 40
0.2499999999999837
 40
0.2499999999999837
 40
0.3749999999999749
 40
0.3749999999999749
 40
0.4374999999999706
 40
0.4374999999999706
 40
0.4687499999999684
 40
0.4687499999999684
 40
0.4999999999999661
 40
0.4999999999999661
 40
0.6249999999999682
 40
0.6249999999999682
 40
0.6874999999999713
 40
0.6874999999999713
 40
0.7187499999999729
 40
0.7187499999999729
 40
0.7499999999999744
 40
0.7499999999999744
 40
0.8749999999999872
 40
0.8749999999999872
 40
1.0
 40
1.0
 40
1.0
 40
1.0
 10
303.715041945296
 20
294.3276536243707
 30
0.0
 10
303.7073612099817
 20
294.4298137241846
 30
0.0
 10
303.6974846387361
 20
294.5297178588249
 30
0.0
 10
303.6779720376263
 20
294.6763752629892
 30
0.0
 10
303.6706808723206
 20
294.7247253398128
 30
0.0
 10
303.6542219712061
 20
294.8203547006461
 30
0.0
 10
303.6451398452913
 20
294.8671227975265
 30
0.0
 10
303.6150485312731
 20
295.0041510372468
 30
0.0
 10
303.5911972009341
 20
295.0912856485299
 30
0.0
 10
303.5480142015007
 20
295.215889478498
 30
0.0
 10
303.532379899823
 20
295.2564024602531
 30
0.0
 10
303.5067886288321
 20
295.3156190738474
 30
0.0
 10
303.4979029700032
 20
295.3350878028842
 30
0.0
 10
303.4795400210179
 20
295.3731611159568
 30
0.0
 10
303.4700440718198
 20
295.3918101943476
 30
0.0
 10
303.4209285022728
 20
295.4831459466234
 30
0.0
 10
303.3764118191405
 20
295.5501398889352
 30
0.0
 10
303.3004572685998
 20
295.6416143585897
 30
0.0
 10
303.2736071135615
 20
295.6705960269169
 30
0.0
 10
303.2308468505663
 20
295.7117498508509
 30
0.0
 10
303.216179120967
 20
295.7250808746645
 30
0.0
 10
303.1859821160701
 20
295.7509540739859
 30
0.0
 10
303.1705181928668
 20
295.7634371404
 30
0.0
 10
303.0918386490462
 20
295.8232579041292
 30
0.0
 10
303.0240891828486
 20
295.8632408736622
 30
0.0
 10
302.8794759233974
 20
295.9283909857804
 30
0.0
 10
302.8026148161193
 20
295.9535578417675
 30
0.0
 10
302.7215356682747
 20
295.9712494176317
 30
0.0
  0
SPLINE
  5
1C8
330
1F
100
AcDbEntity
  8
1
100
AcDbSpline
210
0.0
220
0.0
230
1.0
 70
     8
 71
     3
 72
     8
 73
     4
 74
     0
 42
0.000000001
 43
0.0000000001
 40
0.0
 40
0.0
 40
0.0
 40
0.0
 40
1.0
 40
1.0
 40
1.0
 40
1.0
 10
299.1452114174482
 20
298.4338974511076
 30
0.0
 10
299.2440963147754
 20
298.4867933469971
 30
0.0
 10
299.3453275728425
 20
298.5361008868746
 30
0.0
 10
299.4485150289817
 20
298.5829571055431
 30
0.0
  0
SPLINE
  5
1C9
330
1F
100
AcDbEntity
  8
1
100
AcDbSpline
210
0.0
220
0.0
230
1.0
 70
     8
 71
     3
 72
     8
 73
     4
 74
     0
 42
0.000000001
 43
0.0000000001
 40
0.0
 40
0.0
 40
0.0
 40
0.0
 40
1.0
 40
1.0
 40
1.0
 40
1.0
 10
309.509184653758
 20
286.3099647297576
 30
0.0
 10
309.6111387072428
 20
286.36729236667
 30
0.0
 10
309.7130911637857
 20
286.4246198079738
 30
0.0
 10
309.8150419452959
 20
286.4819470441039
 30
0.0
  0
SPLINE
  5
1CA
330
1F
100
AcDbEntity
  8
1
100
AcDbSpline
210
0.0
220
0.0
230
1.0
 70
     8
 71
     3
 72
     8
 73
     4
 74
     0
 42
0.000000001
 43
0.0000000001
 40
0.0
 40
0.0
 40
0.0
 40
0.0
 40
1.0
 40
1.0
 40
1.0
 40
1.0
 10
306.5080708126727
 20
309.9903831673444
 30
0.0
 10
306.026503502819
 20
310.5255054643873
 30
0.0
 10
305.5434810923716
 20
311.0599111747323
 30
0.0
 10
305.0592831521456
 20
311.5937379773333
 30
0.0
  0
LINE
  5
1E3
330
1F
100
AcDbEntity
  8
4
100
AcDbLine
 10
264.023202
 20
295.201634
 30
0.0
 11
321.815042
 21
295.201634
 31
0.0
  0
LINE
  5
1E4
330
1F
100
AcDbEntity
  8
SK4
100
AcDbLine
 10
272.315042
 20
295.201634
 30
0.0
 11
205.315042
 21
295.201634
 31
0.0
  0
MTEXT
  5
1E5
330
1F
100
AcDbEntity
  8
SK6
100
AcDbMText
 10
239.767861
 20
253.402422
 30
0.0
 40
3.5
 41
0.0
 71
     7
 72
     5
  1
\W0.7219;32N4R042B32-SSE09-C
  7
cesky
 73
     2
 44
0.8433729999999998
  0
MTEXT
  5
2EE
330
1F
100
AcDbEntity
  8
2
100
AcDbMText
 10
287.500542
 20
342.5254220000001
 30
0.0
 40
3.5
 41
0.0
 71
     7
 72
     5
  1
\W0.7045;42
  7
cesky
 73
     2
 44
0.8433729999999998
  0
LINE
  5
2EF
330
1F
100
AcDbEntity
  8
2
100
AcDbLine
 10
310.315042
 20
311.201634
 30
0.0
 11
310.315042
 21
343.651256
 31
0.0
  0
LINE
  5
2F0
330
1F
100
AcDbEntity
  8
2
100
AcDbLine
 10
268.315042
 20
311.201634
 30
0.0
 11
268.315042
 21
343.651256
 31
0.0
  0
LINE
  5
2F1
330
1F
100
AcDbEntity
  8
2
100
AcDbLine
 10
310.315042
 20
342.651256
 30
0.0
 11
268.315042
 21
342.651256
 31
0.0
  0
SOLID
  5
2F2
330
1F
100
AcDbEntity
  8
2
100
AcDbTrace
 10
310.315042
 20
342.651256
 30
0.0
 11
306.815044
 21
342.034111
 31
0.0
 12
306.81504
 22
343.2684
 32
0.0
 13
306.81504
 23
343.2684
 33
0.0
  0
SOLID
  5
2F3
330
1F
100
AcDbEntity
  8
2
100
AcDbTrace
 10
268.315042
 20
342.651256
 30
0.0
 11
271.81504
 21
343.2684
 31
0.0
 12
271.815044
 22
342.034111
 32
0.0
 13
271.815044
 23
342.034111
 33
0.0
  0
MTEXT
  5
2F4
330
1F
100
AcDbEntity
  8
2
100
AcDbMText
 10
317.000542
 20
327.399222
 30
0.0
 40
3.5
 41
0.0
 71
     7
 72
     5
  1
\W0.8874;4,5
  7
cesky
 73
     2
 44
0.8433729999999998
  0
LINE
  5
2F5
330
1F
100
AcDbEntity
  8
2
100
AcDbLine
 10
310.315042
 20
313.201634
 30
0.0
 11
310.315042
 21
328.525055
 31
0.0
  0
LINE
  5
2F6
330
1F
100
AcDbEntity
  8
2
100
AcDbLine
 10
305.825568
 20
315.760645
 30
0.0
 11
305.825568
 21
328.525055
 31
0.0
  0
LINE
  5
2F7
330
1F
100
AcDbEntity
  8
2
100
AcDbLine
 10
297.075568
 20
327.525055
 30
0.0
 11
323.340042
 21
327.525055
 31
0.0
  0
SOLID
  5
2F8
330
1F
100
AcDbEntity
  8
2
100
AcDbTrace
 10
310.315042
 20
327.525055
 30
0.0
 11
313.81504
 21
328.1422
 31
0.0
 12
313.815044
 22
326.907911
 32
0.0
 13
313.815044
 23
326.907911
 33
0.0
  0
SOLID
  5
2F9
330
1F
100
AcDbEntity
  8
2
100
AcDbTrace
 10
305.825568
 20
327.525055
 30
0.0
 11
302.32557
 21
326.907911
 31
0.0
 12
302.325565
 22
328.1422
 32
0.0
 13
302.325565
 23
328.1422
 33
0.0
  0
MTEXT
  5
2FA
330
1F
100
AcDbEntity
  8
2
100
AcDbMText
 10
297.493386
 20
333.008316
 30
0.0
 40
3.5
 41
0.0
 71
     7
 72
     5
  1
\W1.0515;45%%d
  7
cesky
 11
0.9265042318873552
 21
0.3762843450036448
 31
0.0
 73
     2
 44
0.8433729999999998
  0
LINE
  5
2FB
330
1F
100
AcDbEntity
  8
2
100
AcDbLine
 10
305.386519
 20
316.144579
 30
0.0
 11
291.941922
 21
329.966374
 31
0.0
  0
LINE
  5
2FC
330
1F
100
AcDbEntity
  8
2
100
AcDbLine
 10
310.315042
 20
313.201634
 30
0.0
 11
310.315042
 21
337.428312
 31
0.0
  0
ARC
  5
2FD
330
1F
100
AcDbEntity
  8
2
100
AcDbCircle
 10
310.315042
 20
311.077782
 30
0.0
 40
25.35053011383888
100
AcDbArc
 50
90.0
 51
134.207374
  0
SOLID
  5
2FE
330
1F
100
AcDbEntity
  8
2
100
AcDbTrace
 10
292.63918
 20
329.249554
 30
0.0
 11
294.815831
 21
332.05901
 31
0.0
 12
295.645457
 22
331.145123
 32
0.0
 13
292.63918
 23
329.249554
 33
0.0
  0
SOLID
  5
2FF
330
1F
100
AcDbEntity
  8
2
100
AcDbTrace
 10
310.315042
 20
336.428312
 30
0.0
 11
306.838386
 21
335.690943
 31
0.0
 12
306.795854
 22
336.924499
 32
0.0
 13
310.315042
 23
336.428312
 33
0.0
  0
MTEXT
  5
300
330
1F
100
AcDbEntity
  8
2
100
AcDbMText
 10
333.655017
 20
291.653899
 30
0.0
 40
3.5
 41
0.0
 71
     7
 72
     5
  1
\W0.7045;32
  7
cesky
 11
0.0000000000000001
 21
1.0
 31
0.0
 73
     2
 44
0.8433729999999998
  0
MTEXT
  5
301
330
1F
100
AcDbEntity
  8
2
100
AcDbMText
 10
333.655017
 20
284.916399
 30
0.0
 40
3.5
 41
0.0
 71
     7
 72
     5
  1
\W3.0115;\H2.63;%%c\H3.50;
  7
cesky
 11
0.0000000000000001
 21
1.0
 31
0.0
 73
     2
 44
0.8433729999999998
  0
LINE
  5
302
330
1F
100
AcDbEntity
  8
2
100
AcDbLine
 10
312.315042
 20
311.201634
 30
0.0
 11
334.842434
 21
311.201634
 31
0.0
  0
LINE
  5
303
330
1F
100
AcDbEntity
  8
2
100
AcDbLine
 10
333.8424339999999
 20
311.201634
 30
0.0
 11
333.8424339999999
 21
284.7588990000001
 31
0.0
  0
SOLID
  5
304
330
1F
100
AcDbEntity
  8
2
100
AcDbTrace
 10
333.8424339999999
 20
311.201634
 30
0.0
 11
334.459578
 21
307.701636
 31
0.0
 12
333.225289
 22
307.701632
 32
0.0
 13
333.225289
 23
307.701632
 33
0.0
  0
MTEXT
  5
305
330
1F
100
AcDbEntity
  8
SK2
100
AcDbMText
 10
256.238042
 20
369.893558
 30
0.0
 40
3.5
 41
0.0
 71
     7
 72
     5
  1
\W0.7809;102
  7
cesky
 73
     2
 44
0.8433729999999998
  0
LINE
  5
306
330
1F
100
AcDbEntity
  8
SK2
100
AcDbLine
 10
208.315042
 20
310.201634
 30
0.0
 11
208.315042
 21
371.019392
 31
0.0
  0
LINE
  5
307
330
1F
100
AcDbEntity
  8
SK2
100
AcDbLine
 10
310.315042
 20
313.201634
 30
0.0
 11
310.315042
 21
371.019392
 31
0.0
  0
LINE
  5
308
330
1F
100
AcDbEntity
  8
SK2
100
AcDbLine
 10
208.315042
 20
370.019392
 30
0.0
 11
310.315042
 21
370.019392
 31
0.0
  0
SOLID
  5
309
330
1F
100
AcDbEntity
  8
SK2
100
AcDbTrace
 10
208.315042
 20
370.019392
 30
0.0
 11
211.81504
 21
370.636536
 31
0.0
 12
211.815044
 22
369.4022470000001
 32
0.0
 13
211.815044
 23
369.4022470000001
 33
0.0
  0
SOLID
  5
30A
330
1F
100
AcDbEntity
  8
SK2
100
AcDbTrace
 10
310.315042
 20
370.019392
 30
0.0
 11
306.815044
 21
369.4022470000001
 31
0.0
 12
306.81504
 22
370.636536
 32
0.0
 13
306.81504
 23
370.636536
 33
0.0
  0
MTEXT
  5
30B
330
1F
100
AcDbEntity
  8
SK2
100
AcDbMText
 10
287.5202
 20
355.137752
 30
0.0
 40
3.5
 41
0.0
 71
     7
 72
     5
  1
\W0.7045;42
  7
cesky
 73
     2
 44
0.8433729999999998
  0
LINE
  5
30C
330
1F
100
AcDbEntity
  8
SK2
100
AcDbLine
 10
268.315042
 20
296.201207
 30
0.0
 11
268.315042
 21
356.263586
 31
0.0
  0
LINE
  5
30D
330
1F
100
AcDbEntity
  8
SK2
100
AcDbLine
 10
310.315042
 20
313.201634
 30
0.0
 11
310.315042
 21
356.263586
 31
0.0
  0
LINE
  5
30E
330
1F
100
AcDbEntity
  8
SK2
100
AcDbLine
 10
268.315042
 20
355.263586
 30
0.0
 11
310.315042
 21
355.263586
 31
0.0
  0
SOLID
  5
30F
330
1F
100
AcDbEntity
  8
SK2
100
AcDbTrace
 10
268.315042
 20
355.263586
 30
0.0
 11
271.81504
 21
355.88073
 31
0.0
 12
271.815044
 22
354.646441
 32
0.0
 13
271.815044
 23
354.646441
 33
0.0
  0
SOLID
  5
310
330
1F
100
AcDbEntity
  8
SK2
100
AcDbTrace
 10
310.315042
 20
355.263586
 30
0.0
 11
306.815044
 21
354.646441
 31
0.0
 12
306.81504
 22
355.88073
 32
0.0
 13
306.81504
 23
355.88073
 33
0.0
  0
MTEXT
  5
311
330
1F
100
AcDbEntity
  8
SK2
100
AcDbMText
 10
196.108138
 20
296.391854
 30
0.0
 40
3.5
 41
0.0
 71
     7
 72
     5
  1
\W0.7045;32
  7
cesky
 11
0.0000000000000001
 21
1.0
 31
0.0
 73
     2
 44
0.8433729999999998
  0
MTEXT
  5
312
330
1F
100
AcDbEntity
  8
SK2
100
AcDbMText
 10
196.108138
 20
289.654354
 30
0.0
 40
3.5
 41
0.0
 71
     7
 72
     5
  1
\W3.0115;\H2.63;%%c\H3.50;
  7
cesky
 11
0.0000000000000001
 21
1.0
 31
0.0
 73
     2
 44
0.8433729999999998
  0
LINE
  5
313
330
1F
100
AcDbEntity
  8
SK2
100
AcDbLine
 10
209.315042
 20
279.201634
 30
0.0
 11
195.295555
 21
279.201634
 31
0.0
  0
LINE
  5
314
330
1F
100
AcDbEntity
  8
SK2
100
AcDbLine
 10
209.315042
 20
311.201634
 30
0.0
 11
195.295555
 21
311.201634
 31
0.0
  0
LINE
  5
315
330
1F
100
AcDbEntity
  8
SK2
100
AcDbLine
 10
196.295555
 20
279.201634
 30
0.0
 11
196.295555
 21
311.201634
 31
0.0
  0
SOLID
  5
316
330
1F
100
AcDbEntity
  8
SK2
100
AcDbTrace
 10
196.295555
 20
279.201634
 30
0.0
 11
195.67841
 21
282.701632
 31
0.0
 12
196.912699
 22
282.701636
 32
0.0
 13
196.912699
 23
282.701636
 33
0.0
  0
SOLID
  5
317
330
1F
100
AcDbEntity
  8
SK2
100
AcDbTrace
 10
196.295555
 20
311.201634
 30
0.0
 11
196.912699
 21
307.701636
 31
0.0
 12
195.67841
 22
307.701632
 32
0.0
 13
195.67841
 23
307.701632
 33
0.0
  0
LINE
  5
31E
330
1F
100
AcDbEntity
  8
CUT
100
AcDbLine
 10
310.315042
 20
311.201634
 30
0.0
 11
310.315042
 21
309.737459
 31
0.0
  0
LINE
  5
31F
330
1F
100
AcDbEntity
  8
CUT
100
AcDbLine
 10
299.044908
 20
309.372201
 30
0.0
 11
299.044908
 21
310.870544
 31
0.0
  0
LINE
  5
320
330
1F
100
AcDbEntity
  8
CUT
100
AcDbLine
 10
310.3150419452957
 20
309.7374594491876
 30
0.0
 11
310.3150419452957
 21
309.7374594491876
 31
0.0
  0
ARC
  5
321
330
1F
100
AcDbEntity
  8
CUT
100
AcDbCircle
 10
-1619.270193691725
 20
2040.433322693703
 30
0.0
 40
2592.027652753738
100
AcDbArc
 50
317.9473288787633
 51
318.1102327775655
  0
ARC
  5
322
330
1F
100
AcDbEntity
  8
CUT
100
AcDbCircle
 10
490.7847677871055
 20
495.5838291026155
 30
0.0
 40
258.0134789290057
100
AcDbArc
 50
224.0642542610478
 51
225.0330887136231
  0
ARC
  5
323
330
1F
100
AcDbEntity
  8
CUT
100
AcDbCircle
 10
429.2816721098733
 20
434.2539259899165
 30
0.0
 40
171.1576047928957
100
AcDbArc
 50
225.0908759170053
 51
225.9671514446033
  0
LINE
  5
324
330
1F
100
AcDbEntity
  8
CUT
100
AcDbLine
 10
303.9734317719693
 20
316.1131682592994
 30
0.0
 11
303.9734317719693
 21
316.1131682592994
 31
0.0
  0
ARC
  5
325
330
1F
100
AcDbEntity
  8
CUT
100
AcDbCircle
 10
300.9982722809621
 20
481.7595108775446
 30
0.0
 40
165.673058753673
100
AcDbArc
 50
271.0289738536583
 51
271.5177929633206
  0
LINE
  5
326
330
1F
100
AcDbEntity
  8
CUT
100
AcDbLine
 10
305.3865186072217
 20
304.258247292992
 30
0.0
 11
305.3865186072217
 21
304.258247292992
 31
0.0
  0
ARC
  5
327
330
1F
100
AcDbEntity
  8
CUT
100
AcDbCircle
 10
300.9149482743648
 20
377.2285733966421
 30
0.0
 40
73.10720506841118
100
AcDbArc
 50
272.3977028494279
 51
273.5066601658864
  0
ARC
  5
328
330
1F
100
AcDbEntity
  8
CUT
100
AcDbCircle
 10
28.59628610034707
 20
569.5651400533875
 30
0.0
 40
374.2530579064916
100
AcDbArc
 50
316.2725200645826
 51
316.8233189369431
  0
ARC
  5
329
330
1F
100
AcDbEntity
  8
CUT
100
AcDbCircle
 10
-129.4344687501861
 20
717.9578675989731
 30
0.0
 40
591.03432271097
100
AcDbArc
 50
316.8153333453274
 51
317.1641095636581
  0
ARC
  5
32A
330
1F
100
AcDbEntity
  8
CUT
100
AcDbCircle
 10
411.069125829311
 20
409.8257088983814
 30
0.0
 40
150.4306093724297
100
AcDbArc
 50
223.5860684906635
 51
224.6080373204654
  0
ARC
  5
32B
330
1F
100
AcDbEntity
  8
CUT
100
AcDbCircle
 10
522.3434438643841
 20
516.0058127135975
 30
0.0
 40
304.2362330146846
100
AcDbArc
 50
222.7802264368193
 51
223.6224337842865
  0
ENDSEC
  0
SECTION
  2
OBJECTS
  0
DICTIONARY
  5
C
330
0
100
AcDbDictionary
281
     1
  3
ACAD_CIP_PREVIOUS_PRODUCT_INFO
350
2EB
  3
ACAD_COLOR
350
2E6
  3
ACAD_DETAILVIEWSTYLE
350
2E2
  3
ACAD_GROUP
350
D
  3
ACAD_LAYOUT
350
1A
  3
ACAD_MATERIAL
350
43
  3
ACAD_MLEADERSTYLE
350
6B
  3
ACAD_MLINESTYLE
350
17
  3
ACAD_PLOTSETTINGS
350
19
  3
ACAD_PLOTSTYLENAME
350
E
  3
ACAD_SCALELIST
350
47
  3
ACAD_SECTIONVIEWSTYLE
350
2E3
  3
ACAD_TABLESTYLE
350
69
  3
ACAD_VISUALSTYLE
350
2A
  3
ACDB_RECOMPOSE_DATA
350
357
  3
AcDbVariableDictionary
350
29F
  0
DICTIONARY
  5
33A
330
10
100
AcDbDictionary
280
     1
281
     1
  3
ADSK_XREC_LAYER_RECONCILED
360
33B
  0
DICTIONARY
  5
33C
330
32C
100
AcDbDictionary
280
     1
281
     1
  3
ADSK_XREC_LAYER_RECONCILED
360
33D
  0
DICTIONARY
  5
33E
330
32D
100
AcDbDictionary
280
     1
281
     1
  3
ADSK_XREC_LAYER_RECONCILED
360
33F
  0
DICTIONARY
  5
340
330
32E
100
AcDbDictionary
280
     1
281
     1
  3
ADSK_XREC_LAYER_RECONCILED
360
341
  0
DICTIONARY
  5
342
330
330
100
AcDbDictionary
280
     1
281
     1
  3
ADSK_XREC_LAYER_RECONCILED
360
343
  0
DICTIONARY
  5
344
330
331
100
AcDbDictionary
280
     1
281
     1
  3
ADSK_XREC_LAYER_RECONCILED
360
345
  0
DICTIONARY
  5
346
330
333
100
AcDbDictionary
280
     1
281
     1
  3
ADSK_XREC_LAYER_RECONCILED
360
347
  0
DICTIONARY
  5
348
330
334
100
AcDbDictionary
280
     1
281
     1
  3
ADSK_XREC_LAYER_RECONCILED
360
349
  0
DICTIONARY
  5
34A
330
335
100
AcDbDictionary
280
     1
281
     1
  3
ADSK_XREC_LAYER_RECONCILED
360
34B
  0
DICTIONARY
  5
34C
330
336
100
AcDbDictionary
280
     1
281
     1
  3
ADSK_XREC_LAYER_RECONCILED
360
34D
  0
DICTIONARY
  5
34E
330
337
100
AcDbDictionary
280
     1
281
     1
  3
ADSK_XREC_LAYER_RECONCILED
360
34F
  0
DICTIONARY
  5
350
330
338
100
AcDbDictionary
280
     1
281
     1
  3
ADSK_XREC_LAYER_RECONCILED
360
351
  0
DICTIONARY
  5
2EC
330
1F
100
AcDbDictionary
280
     1
281
     1
  3
ACAD_SORTENTS
360
2ED
  0
XRECORD
  5
2EB
102
{ACAD_REACTORS
330
C
102
}
330
C
100
AcDbXrecord
280
     1
300
ACD
300
2019
300
87084ACD_2019_0F
  0
DICTIONARY
  5
2E6
102
{ACAD_REACTORS
330
C
102
}
330
C
100
AcDbDictionary
281
     1
  0
DICTIONARY
  5
2E2
102
{ACAD_REACTORS
330
C
102
}
330
C
100
AcDbDictionary
281
     1
  3
Metric50
350
2E8
  0
DICTIONARY
  5
D
102
{ACAD_REACTORS
330
C
102
}
330
C
100
AcDbDictionary
281
     1
  3
NULOVY_BOD
350
339
  0
DICTIONARY
  5
1A
102
{ACAD_REACTORS
330
C
102
}
330
C
100
AcDbDictionary
281
     1
  3
Layout1
350
1E
  3
Layout2
350
26
  3
Model
350
22
  0
DICTIONARY
  5
43
102
{ACAD_REACTORS
330
C
102
}
330
C
100
AcDbDictionary
281
     1
  3
ByBlock
350
45
  3
ByLayer
350
44
  3
Global
350
46
  0
DICTIONARY
  5
6B
102
{ACAD_REACTORS
330
C
102
}
330
C
100
AcDbDictionary
281
     1
  3
Standard
350
6C
  0
DICTIONARY
  5
17
102
{ACAD_REACTORS
330
C
102
}
330
C
100
AcDbDictionary
281
     1
  3
Standard
350
18
  0
DICTIONARY
  5
19
102
{ACAD_REACTORS
330
C
102
}
330
C
100
AcDbDictionary
281
     1
  0
ACDBDICTIONARYWDFLT
  5
E
102
{ACAD_REACTORS
330
C
102
}
330
C
100
AcDbDictionary
281
     1
  3
Normal
350
F
100
AcDbDictionaryWithDefault
340
F
  0
DICTIONARY
  5
47
102
{ACAD_REACTORS
330
C
102
}
330
C
100
AcDbDictionary
281
     1
  3
A0
350
48
  3
A1
350
49
  3
A2
350
4A
  3
A3
350
4B
  3
A4
350
4C
  3
A5
350
4D
  3
A6
350
4E
  3
A7
350
4F
  3
A8
350
50
  3
A9
350
51
  3
B0
350
52
  3
B1
350
53
  3
B2
350
54
  3
B3
350
55
  3
B4
350
56
  3
B5
350
57
  3
B6
350
58
  3
B7
350
59
  3
B8
350
5A
  3
B9
350
5B
  3
C0
350
5C
  3
C1
350
5D
  3
C2
350
5E
  3
C3
350
5F
  3
C4
350
60
  3
C5
350
61
  3
C6
350
62
  3
C7
350
63
  3
C8
350
64
  3
C9
350
65
  3
D0
350
66
  3
D1
350
67
  3
D2
350
68
  0
DICTIONARY
  5
2E3
102
{ACAD_REACTORS
330
C
102
}
330
C
100
AcDbDictionary
281
     1
  3
Metric50
350
2E7
  0
DICTIONARY
  5
69
102
{ACAD_REACTORS
330
C
102
}
330
C
100
AcDbDictionary
281
     1
  3
Standard
350
6A
  0
DICTIONARY
  5
2A
102
{ACAD_REACTORS
330
C
102
}
330
C
100
AcDbDictionary
281
     1
  3
2dWireframe
350
2F
  3
Basic
350
32
  3
Brighten
350
36
  3
ColorChange
350
3A
  3
Conceptual
350
34
  3
Dim
350
35
  3
EdgeColorOff
350
3D
  3
Facepattern
350
39
  3
Flat
350
2B
  3
FlatWithEdges
350
2C
  3
Gouraud
350
2D
  3
GouraudWithEdges
350
2E
  3
Hidden
350
31
  3
JitterOff
350
3B
  3
Linepattern
350
38
  3
OverhangOff
350
3C
  3
Realistic
350
33
  3
Shaded
350
42
  3
Shaded with edges
350
41
  3
Shades of Gray
350
3E
  3
Sketchy
350
3F
  3
Thicken
350
37
  3
Wireframe
350
30
  3
X-Ray
350
40
  0
XRECORD
  5
357
102
{ACAD_REACTORS
330
C
102
}
330
C
100
AcDbXrecord
280
     1
 90
        1
330
6A
  0
DICTIONARY
  5
29F
102
{ACAD_REACTORS
330
C
102
}
330
C
100
AcDbDictionary
281
     1
  3
CANNOSCALE
350
2A0
  3
CMLEADERSTYLE
350
2E1
  3
CTABLESTYLE
350
2E0
  3
CVIEWDETAILSTYLE
350
352
  3
CVIEWSECTIONSTYLE
350
353
  3
MSLTSCALE
350
2A1
  3
XCLIPFRAME
350
354
  0
XRECORD
  5
33B
102
{ACAD_REACTORS
330
33A
102
}
330
33A
100
AcDbXrecord
280
     1
290
     1
  0
XRECORD
  5
33D
102
{ACAD_REACTORS
330
33C
102
}
330
33C
100
AcDbXrecord
280
     1
290
     1
  0
XRECORD
  5
33F
102
{ACAD_REACTORS
330
33E
102
}
330
33E
100
AcDbXrecord
280
     1
290
     1
  0
XRECORD
  5
341
102
{ACAD_REACTORS
330
340
102
}
330
340
100
AcDbXrecord
280
     1
290
     1
  0
XRECORD
  5
343
102
{ACAD_REACTORS
330
342
102
}
330
342
100
AcDbXrecord
280
     1
290
     1
  0
XRECORD
  5
345
102
{ACAD_REACTORS
330
344
102
}
330
344
100
AcDbXrecord
280
     1
290
     1
  0
XRECORD
  5
347
102
{ACAD_REACTORS
330
346
102
}
330
346
100
AcDbXrecord
280
     1
290
     1
  0
XRECORD
  5
349
102
{ACAD_REACTORS
330
348
102
}
330
348
100
AcDbXrecord
280
     1
290
     1
  0
XRECORD
  5
34B
102
{ACAD_REACTORS
330
34A
102
}
330
34A
100
AcDbXrecord
280
     1
290
     1
  0
XRECORD
  5
34D
102
{ACAD_REACTORS
330
34C
102
}
330
34C
100
AcDbXrecord
280
     1
290
     1
  0
XRECORD
  5
34F
102
{ACAD_REACTORS
330
34E
102
}
330
34E
100
AcDbXrecord
280
     1
290
     1
  0
XRECORD
  5
351
102
{ACAD_REACTORS
330
350
102
}
330
350
100
AcDbXrecord
280
     1
290
     1
  0
SORTENTSTABLE
  5
2ED
102
{ACAD_REACTORS
330
2EC
102
}
330
2EC
100
AcDbSortentsTable
330
1F
331
2EE
  5
222
331
2EF
  5
23A
331
2F0
  5
272
331
2F1
  5
2EE
331
2F2
  5
2EF
331
2F3
  5
2F0
331
2F4
  5
2F1
331
2F5
  5
2F2
331
2F6
  5
2F3
331
2F7
  5
2F4
331
2F8
  5
2F5
331
2F9
  5
2F6
331
2FA
  5
306
331
2FB
  5
307
331
2FC
  5
308
331
2FD
  5
309
331
2FE
  5
30A
331
2FF
  5
30B
331
300
  5
30C
331
301
  5
30D
331
302
  5
30E
331
303
  5
30F
331
304
  5
310
331
305
  5
2F9
331
306
  5
2FA
331
307
  5
2FB
331
308
  5
2FC
331
309
  5
2FD
331
30A
  5
2FE
331
30B
  5
2FF
331
30C
  5
300
331
30D
  5
301
331
30E
  5
302
331
30F
  5
303
331
310
  5
305
331
31E
  5
32A
331
31F
  5
32B
331
320
  5
31E
331
321
  5
31F
331
322
  5
320
331
323
  5
321
331
324
  5
322
331
325
  5
323
331
326
  5
324
331
327
  5
325
331
328
  5
326
331
329
  5
327
331
32A
  5
328
331
32B
  5
329
  0
ACDBDETAILVIEWSTYLE
  5
2E8
102
{ACAD_XDICTIONARY
360
38B
102
}
102
{ACAD_REACTORS
330
2E2
102
}
330
2E2
100
AcDbModelDocViewStyle
 70
     0
  3
Metric50
290
     0
100
AcDbDetailViewStyle
 70
     0
 71
     0
 90
        3
 71
     1
340
11
 62
   256
 40
5.0
340
0
 62
   256
 40
5.0
300

 40
0.0
280
     1
 71
     2
340
16
 90
       25
 62
   256
 71
     3
340
11
 62
   256
 40
5.0
 90
        0
 40
15.0
 90
        1
300
%<\AcVar ViewDetailId>% (%<\AcVar ViewScale \f "%sn">%)
 71
     4
340
16
 90
       25
 62
   256
340
16
 90
       25
 62
   256
280
     0
  0
GROUP
  5
339
102
{ACAD_REACTORS
330
D
102
}
330
D
100
AcDbGroup
300

 70
     0
 71
     1
340
73
  0
LAYOUT
  5
1E
102
{ACAD_REACTORS
330
1A
102
}
330
1A
100
AcDbPlotSettings
  1

  2
none_device
  4

  6

 40
0.0
 41
0.0
 42
0.0
 43
0.0
 44
0.0
 45
0.0
 46
0.0
 47
0.0
 48
0.0
 49
0.0
140
0.0
141
0.0
142
1.0
143
1.0
 70
   688
 72
     0
 73
     0
 74
     5
  7

 75
    16
147
1.0
 76
     0
 77
     2
 78
   300
148
0.0
149
0.0
100
AcDbLayout
  1
Layout1
 70
     1
 71
     1
 10
-0.5
 20
-0.5
 11
5.0
 21
5.0
 12
0.0
 22
0.0
 32
0.0
 14
-0.5
 24
-0.5
 34
-0.5
 15
5.0
 25
5.0
 35
5.0
146
0.0
 13
0.0
 23
0.0
 33
0.0
 16
1.0
 26
0.0
 36
0.0
 17
0.0
 27
1.0
 37
0.0
 76
     0
330
1B
  0
LAYOUT
  5
26
102
{ACAD_REACTORS
330
1A
102
}
330
1A
100
AcDbPlotSettings
  1

  2
none_device
  4

  6

 40
0.0
 41
0.0
 42
0.0
 43
0.0
 44
0.0
 45
0.0
 46
0.0
 47
0.0
 48
0.0
 49
0.0
140
0.0
141
0.0
142
1.0
143
1.0
 70
   688
 72
     0
 73
     0
 74
     5
  7

 75
    16
147
1.0
 76
     0
 77
     2
 78
   300
148
0.0
149
0.0
100
AcDbLayout
  1
Layout2
 70
     1
 71
     2
 10
0.0
 20
0.0
 11
0.0
 21
0.0
 12
0.0
 22
0.0
 32
0.0
 14
0.0
 24
0.0
 34
0.0
 15
0.0
 25
0.0
 35
0.0
146
0.0
 13
0.0
 23
0.0
 33
0.0
 16
1.0
 26
0.0
 36
0.0
 17
0.0
 27
1.0
 37
0.0
 76
     0
330
23
  0
LAYOUT
  5
22
102
{ACAD_REACTORS
330
1A
102
}
330
1A
100
AcDbPlotSettings
  1

  2
none_device
  4
Letter_(8.50_x_11.00_Inches)
  6

 40
6.349999999999999
 41
6.349999999999999
 42
6.350005
 43
6.350005
 44
215.9
 45
279.4
 46
0.0
 47
0.0
 48
0.0
 49
0.0
140
0.0
141
0.0
142
1.0
143
1.0
 70
  1712
 72
     0
 73
     0
 74
     0
  7

 75
     0
147
1.0
 76
     0
 77
     2
 78
   300
148
0.0
149
0.0
100
AcDbLayout
  1
Model
 70
     1
 71
     0
 10
-0.5
 20
-0.5
 11
5.0
 21
5.0
 12
0.0
 22
0.0
 32
0.0
 14
-0.5
 24
-0.5
 34
-0.5
 15
5.0
 25
5.0
 35
5.0
146
0.0
 13
0.0
 23
0.0
 33
0.0
 16
1.0
 26
0.0
 36
0.0
 17
0.0
 27
1.0
 37
0.0
 76
     0
330
1F
331
29
  0
MATERIAL
  5
45
102
{ACAD_XDICTIONARY
360
2D5
102
}
102
{ACAD_REACTORS
330
43
102
}
330
43
100
AcDbMaterial
  1
ByBlock
  0
MATERIAL
  5
44
102
{ACAD_XDICTIONARY
360
2D3
102
}
102
{ACAD_REACTORS
330
43
102
}
330
43
100
AcDbMaterial
  1
ByLayer
  0
MATERIAL
  5
46
102
{ACAD_XDICTIONARY
360
2D7
102
}
102
{ACAD_REACTORS
330
43
102
}
330
43
100
AcDbMaterial
  1
Global
  0
MLEADERSTYLE
  5
6C
102
{ACAD_REACTORS
330
6B
102
}
330
6B
100
AcDbMLeaderStyle
170
     2
171
     1
172
     0
 90
        2
 40
0.0
 41
0.0
173
     1
 91
-1056964608
340
14
 92
       -2
290
     1
 42
0.09
291
     1
 43
0.36
  3
Standard
 44
0.18
300

342
11
174
     1
178
     6
175
     1
176
     0
 93
-1056964608
 45
0.18
292
     0
297
     0
 46
0.18
 94
-1056964608
 47
1.0
 49
1.0
140
1.0
293
     1
141
0.0
294
     1
177
     0
142
1.0
295
     0
296
     0
143
0.125
1001
ACAD_MLEADERVER
1070
     2
  0
MLINESTYLE
  5
18
102
{ACAD_REACTORS
330
17
102
}
330
17
100
AcDbMlineStyle
  2
STANDARD
 70
     0
  3

 62
   256
 51
90.0
 52
90.0
 71
     2
 49
0.5
 62
   256
  6
BYLAYER
 49
-0.5
 62
   256
  6
BYLAYER
  0
ACDBPLACEHOLDER
  5
F
102
{ACAD_REACTORS
330
E
102
}
330
E
  0
SCALE
  5
48
102
{ACAD_REACTORS
330
47
102
}
330
47
100
AcDbScale
 70
     0
300
1:1
140
1.0
141
1.0
290
     1
  0
SCALE
  5
49
102
{ACAD_REACTORS
330
47
102
}
330
47
100
AcDbScale
 70
     0
300
1:2
140
1.0
141
2.0
290
     0
  0
SCALE
  5
4A
102
{ACAD_REACTORS
330
47
102
}
330
47
100
AcDbScale
 70
     0
300
1:4
140
1.0
141
4.0
290
     0
  0
SCALE
  5
4B
102
{ACAD_REACTORS
330
47
102
}
330
47
100
AcDbScale
 70
     0
300
1:5
140
1.0
141
5.0
290
     0
  0
SCALE
  5
4C
102
{ACAD_REACTORS
330
47
102
}
330
47
100
AcDbScale
 70
     0
300
1:8
140
1.0
141
8.0
290
     0
  0
SCALE
  5
4D
102
{ACAD_REACTORS
330
47
102
}
330
47
100
AcDbScale
 70
     0
300
1:10
140
1.0
141
10.0
290
     0
  0
SCALE
  5
4E
102
{ACAD_REACTORS
330
47
102
}
330
47
100
AcDbScale
 70
     0
300
1:16
140
1.0
141
16.0
290
     0
  0
SCALE
  5
4F
102
{ACAD_REACTORS
330
47
102
}
330
47
100
AcDbScale
 70
     0
300
1:20
140
1.0
141
20.0
290
     0
  0
SCALE
  5
50
102
{ACAD_REACTORS
330
47
102
}
330
47
100
AcDbScale
 70
     0
300
1:30
140
1.0
141
30.0
290
     0
  0
SCALE
  5
51
102
{ACAD_REACTORS
330
47
102
}
330
47
100
AcDbScale
 70
     0
300
1:40
140
1.0
141
40.0
290
     0
  0
SCALE
  5
52
102
{ACAD_REACTORS
330
47
102
}
330
47
100
AcDbScale
 70
     0
300
1:50
140
1.0
141
50.0
290
     0
  0
SCALE
  5
53
102
{ACAD_REACTORS
330
47
102
}
330
47
100
AcDbScale
 70
     0
300
1:100
140
1.0
141
100.0
290
     0
  0
SCALE
  5
54
102
{ACAD_REACTORS
330
47
102
}
330
47
100
AcDbScale
 70
     0
300
2:1
140
2.0
141
1.0
290
     0
  0
SCALE
  5
55
102
{ACAD_REACTORS
330
47
102
}
330
47
100
AcDbScale
 70
     0
300
4:1
140
4.0
141
1.0
290
     0
  0
SCALE
  5
56
102
{ACAD_REACTORS
330
47
102
}
330
47
100
AcDbScale
 70
     0
300
8:1
140
8.0
141
1.0
290
     0
  0
SCALE
  5
57
102
{ACAD_REACTORS
330
47
102
}
330
47
100
AcDbScale
 70
     0
300
10:1
140
10.0
141
1.0
290
     0
  0
SCALE
  5
58
102
{ACAD_REACTORS
330
47
102
}
330
47
100
AcDbScale
 70
     0
300
100:1
140
100.0
141
1.0
290
     0
  0
SCALE
  5
59
102
{ACAD_REACTORS
330
47
102
}
330
47
100
AcDbScale
 70
     0
300
1/128" = 1'-0"
140
0.007812
141
12.0
290
     0
  0
SCALE
  5
5A
102
{ACAD_REACTORS
330
47
102
}
330
47
100
AcDbScale
 70
     0
300
1/64" = 1'-0"
140
0.015625
141
12.0
290
     0
  0
SCALE
  5
5B
102
{ACAD_REACTORS
330
47
102
}
330
47
100
AcDbScale
 70
     0
300
1/32" = 1'-0"
140
0.03125
141
12.0
290
     0
  0
SCALE
  5
5C
102
{ACAD_REACTORS
330
47
102
}
330
47
100
AcDbScale
 70
     0
300
1/16" = 1'-0"
140
0.0625
141
12.0
290
     0
  0
SCALE
  5
5D
102
{ACAD_REACTORS
330
47
102
}
330
47
100
AcDbScale
 70
     0
300
3/32" = 1'-0"
140
0.09375
141
12.0
290
     0
  0
SCALE
  5
5E
102
{ACAD_REACTORS
330
47
102
}
330
47
100
AcDbScale
 70
     0
300
1/8" = 1'-0"
140
0.125
141
12.0
290
     0
  0
SCALE
  5
5F
102
{ACAD_REACTORS
330
47
102
}
330
47
100
AcDbScale
 70
     0
300
3/16" = 1'-0"
140
0.1875
141
12.0
290
     0
  0
SCALE
  5
60
102
{ACAD_REACTORS
330
47
102
}
330
47
100
AcDbScale
 70
     0
300
1/4" = 1'-0"
140
0.25
141
12.0
290
     0
  0
SCALE
  5
61
102
{ACAD_REACTORS
330
47
102
}
330
47
100
AcDbScale
 70
     0
300
3/8" = 1'-0"
140
0.375
141
12.0
290
     0
  0
SCALE
  5
62
102
{ACAD_REACTORS
330
47
102
}
330
47
100
AcDbScale
 70
     0
300
1/2" = 1'-0"
140
0.5
141
12.0
290
     0
  0
SCALE
  5
63
102
{ACAD_REACTORS
330
47
102
}
330
47
100
AcDbScale
 70
     0
300
3/4" = 1'-0"
140
0.75
141
12.0
290
     0
  0
SCALE
  5
64
102
{ACAD_REACTORS
330
47
102
}
330
47
100
AcDbScale
 70
     0
300
1" = 1'-0"
140
1.0
141
12.0
290
     0
  0
SCALE
  5
65
102
{ACAD_REACTORS
330
47
102
}
330
47
100
AcDbScale
 70
     0
300
1-1/2" = 1'-0"
140
1.5
141
12.0
290
     0
  0
SCALE
  5
66
102
{ACAD_REACTORS
330
47
102
}
330
47
100
AcDbScale
 70
     0
300
3" = 1'-0"
140
3.0
141
12.0
290
     0
  0
SCALE
  5
67
102
{ACAD_REACTORS
330
47
102
}
330
47
100
AcDbScale
 70
     0
300
6" = 1'-0"
140
6.0
141
12.0
290
     0
  0
SCALE
  5
68
102
{ACAD_REACTORS
330
47
102
}
330
47
100
AcDbScale
 70
     0
300
1'-0" = 1'-0"
140
12.0
141
12.0
290
     0
  0
ACDBSECTIONVIEWSTYLE
  5
2E7
102
{ACAD_XDICTIONARY
360
389
102
}
102
{ACAD_REACTORS
330
2E3
102
}
330
2E3
100
AcDbModelDocViewStyle
 70
     0
  3
Metric50
290
     0
100
AcDbSectionViewStyle
 70
     0
 71
     0
 90
      102
 71
     1
340
11
 62
   256
 40
5.0
340
0
340
0
 62
   256
 40
5.0
300
I, O, Q, S, X, Z
 40
10.0
 90
        0
 40
2.5
 90
        0
 71
     2
340
16
 90
       25
 62
   256
340
16
 90
       50
 62
   256
 40
5.0
 40
2.5
 40
5.0
 71
     3
340
11
 62
   256
 40
5.0
 90
        0
 40
15.0
 90
        1
300
%<\AcVar ViewSectionStartId>%-%<\AcVar ViewSectionEndId>% (%<\AcVar ViewScale \f "%sn">%)
 71
     4
 62
   256
 62
   257
300
ANSI31
 40
1.0
 90
        0
290
     0
290
     0
 90
        6
 40
0.0
 40
1.570796326794896
 40
0.2617993877991494
 40
1.308996938995747
 40
-0.2617993877991494
 40
1.832595714594046
  0
TABLESTYLE
  5
6A
102
{ACAD_XDICTIONARY
360
2D9
102
}
102
{ACAD_REACTORS
330
69
102
}
330
69
100
AcDbTableStyle
  3
Standard
 70
     0
 71
     0
 40
0.06
 41
0.06
280
     0
281
     0
  7
Standard
140
0.18
170
     2
 62
     0
 63
     7
283
     0
274
    -2
284
     1
 64
     0
275
    -2
285
     1
 65
     0
276
    -2
286
     1
 66
     0
277
    -2
287
     1
 67
     0
278
    -2
288
     1
 68
     0
279
    -2
289
     1
 69
     0
  7
Standard
140
0.25
170
     5
 62
     0
 63
     7
283
     0
274
    -2
284
     1
 64
     0
275
    -2
285
     1
 65
     0
276
    -2
286
     1
 66
     0
277
    -2
287
     1
 67
     0
278
    -2
288
     1
 68
     0
279
    -2
289
     1
 69
     0
  7
Standard
140
0.18
170
     5
 62
     0
 63
     7
283
     0
274
    -2
284
     1
 64
     0
275
    -2
285
     1
 65
     0
276
    -2
286
     1
 66
     0
277
    -2
287
     1
 67
     0
278
    -2
288
     1
 68
     0
279
    -2
289
     1
 69
     0
  0
VISUALSTYLE
  5
2F
102
{ACAD_XDICTIONARY
360
360
102
}
102
{ACAD_REACTORS
330
2A
102
}
330
2A
100
AcDbVisualStyle
  2

 70
     4
 71
     0
 72
     2
 73
     0
 90
        0
 40
-0.6
 41
-30.0
 62
     5
 63
     7
421
 16777215
 74
     1
 91
        4
 64
     7
 65
   257
 75
     1
175
     1
 42
1.0
 92
        0
 66
   257
 43
1.0
 76
     1
 77
     6
 78
     2
 67
     7
 79
     5
170
     0
171
     0
290
     0
174
     0
 93
        1
 44
0.0
173
     0
291
     0
 45
0.0
1001
ACAD
1000
AcDbSavedByObjectVersion
1070
     0
  0
VISUALSTYLE
  5
32
102
{ACAD_XDICTIONARY
360
366
102
}
102
{ACAD_REACTORS
330
2A
102
}
330
2A
100
AcDbVisualStyle
  2

 70
     7
 71
     1
 72
     0
 73
     1
 90
        0
 40
-0.6
 41
-30.0
 62
     5
 63
     7
421
 16777215
 74
     0
 91
        4
 64
     7
 65
   257
 75
     1
175
     1
 42
1.0
 92
        8
 66
     7
 43
1.0
 76
     1
 77
     6
 78
     2
 67
     7
 79
     5
170
     0
171
     0
290
     0
174
     0
 93
        1
 44
0.0
173
     0
291
     1
 45
0.0
1001
ACAD
1000
AcDbSavedByObjectVersion
1070
     0
  0
VISUALSTYLE
  5
36
102
{ACAD_XDICTIONARY
360
36E
102
}
102
{ACAD_REACTORS
330
2A
102
}
330
2A
100
AcDbVisualStyle
  2

 70
    12
 71
     2
 72
     2
 73
     0
 90
        0
 40
-0.6
 41
-30.0
 62
     5
 63
     7
421
 16777215
 74
     1
 91
        4
 64
     7
 65
   257
 75
     1
175
     1
 42
1.0
 92
        8
 66
     7
 43
1.0
 76
     1
 77
     6
 78
     2
 67
     7
 79
     5
170
     0
171
     0
290
     0
174
     0
 93
        1
 44
50.0
173
     0
291
     1
 45
0.0
1001
ACAD
1000
AcDbSavedByObjectVersion
1070
     0
  0
VISUALSTYLE
  5
3A
102
{ACAD_XDICTIONARY
360
376
102
}
102
{ACAD_REACTORS
330
2A
102
}
330
2A
100
AcDbVisualStyle
  2

 70
    16
 71
     2
 72
     2
 73
     3
 90
        0
 40
-0.6
 41
-30.0
 62
     5
 63
     8
421
  8421504
 74
     1
 91
        4
 64
     7
 65
   257
 75
     1
175
     1
 42
1.0
 92
        8
 66
     8
424
  8421504
 43
1.0
 76
     1
 77
     6
 78
     2
 67
     7
 79
     5
170
     0
171
     0
290
     0
174
     0
 93
        1
 44
0.0
173
     0
291
     1
 45
0.0
1001
ACAD
1000
AcDbSavedByObjectVersion
1070
     0
  0
VISUALSTYLE
  5
34
102
{ACAD_XDICTIONARY
360
36A
102
}
102
{ACAD_REACTORS
330
2A
102
}
330
2A
100
AcDbVisualStyle
  2

 70
     9
 71
     3
 72
     2
 73
     0
 90
        0
 40
-0.6
 41
-30.0
 62
     5
 63
     7
421
 16777215
 74
     2
 91
        2
 64
     7
 65
   257
 75
     1
175
     1
 42
179.0
 92
        8
 66
     7
 43
1.0
 76
     1
 77
     6
 78
     2
 67
     7
 79
     3
170
     0
171
     0
290
     0
174
     0
 93
        1
 44
0.0
173
     0
291
     0
 45
0.0
1001
ACAD
1000
AcDbSavedByObjectVersion
1070
     0
  0
VISUALSTYLE
  5
35
102
{ACAD_XDICTIONARY
360
36C
102
}
102
{ACAD_REACTORS
330
2A
102
}
330
2A
100
AcDbVisualStyle
  2

 70
    11
 71
     2
 72
     2
 73
     0
 90
        0
 40
-0.6
 41
-30.0
 62
     5
 63
     7
421
 16777215
 74
     1
 91
        4
 64
     7
 65
   257
 75
     1
175
     1
 42
1.0
 92
        8
 66
     7
 43
1.0
 76
     1
 77
     6
 78
     2
 67
     7
 79
     5
170
     0
171
     0
290
     0
174
     0
 93
        1
 44
-50.0
173
     0
291
     1
 45
0.0
1001
ACAD
1000
AcDbSavedByObjectVersion
1070
     0
  0
VISUALSTYLE
  5
3D
102
{ACAD_XDICTIONARY
360
37C
102
}
102
{ACAD_REACTORS
330
2A
102
}
330
2A
100
AcDbVisualStyle
  2

 70
    22
 71
     2
 72
     2
 73
     0
 90
        0
 40
-0.6
 41
-30.0
 62
     5
 63
     7
421
 16777215
 74
     1
 91
        4
 64
     7
 65
   257
 75
     1
175
     1
 42
1.0
 92
        8
 66
     7
 43
1.0
 76
     1
 77
     6
 78
     2
 67
     7
 79
     5
170
     0
171
     0
290
     0
174
     0
 93
        1
 44
0.0
173
     0
291
     1
 45
0.0
1001
ACAD
1000
AcDbSavedByObjectVersion
1070
     0
  0
VISUALSTYLE
  5
39
102
{ACAD_XDICTIONARY
360
374
102
}
102
{ACAD_REACTORS
330
2A
102
}
330
2A
100
AcDbVisualStyle
  2

 70
    15
 71
     2
 72
     2
 73
     0
 90
        0
 40
-0.6
 41
-30.0
 62
     5
 63
     7
421
 16777215
 74
     1
 91
        4
 64
     7
 65
   257
 75
     1
175
     1
 42
1.0
 92
        8
 66
     7
 43
1.0
 76
     1
 77
     6
 78
     2
 67
     7
 79
     5
170
     0
171
     0
290
     0
174
     0
 93
        1
 44
0.0
173
     0
291
     1
 45
0.0
1001
ACAD
1000
AcDbSavedByObjectVersion
1070
     0
  0
VISUALSTYLE
  5
2B
102
{ACAD_XDICTIONARY
360
358
102
}
102
{ACAD_REACTORS
330
2A
102
}
330
2A
100
AcDbVisualStyle
  2

 70
     0
 71
     2
 72
     1
 73
     1
 90
        2
 40
-0.6
 41
30.0
 62
     5
 63
     7
421
 16777215
 74
     0
 91
        0
 64
     7
 65
   257
 75
     1
175
     1
 42
1.0
 92
        8
 66
     7
 43
1.0
 76
     1
 77
     6
 78
     2
 67
     7
 79
     5
170
     0
171
     0
290
     0
174
     0
 93
       13
 44
0.0
173
     0
291
     1
 45
0.0
1001
ACAD
1000
AcDbSavedByObjectVersion
1070
     0
  0
VISUALSTYLE
  5
2C
102
{ACAD_XDICTIONARY
360
35A
102
}
102
{ACAD_REACTORS
330
2A
102
}
330
2A
100
AcDbVisualStyle
  2

 70
     1
 71
     2
 72
     1
 73
     1
 90
        2
 40
-0.6
 41
30.0
 62
     5
 63
     7
421
 16777215
 74
     1
 91
        0
 64
     7
 65
   257
 75
     1
175
     1
 42
1.0
 92
        0
 66
   257
 43
1.0
 76
     1
 77
     6
 78
     2
 67
     7
 79
     5
170
     0
171
     0
290
     0
174
     0
 93
       13
 44
0.0
173
     0
291
     1
 45
0.0
1001
ACAD
1000
AcDbSavedByObjectVersion
1070
     0
  0
VISUALSTYLE
  5
2D
102
{ACAD_XDICTIONARY
360
35C
102
}
102
{ACAD_REACTORS
330
2A
102
}
330
2A
100
AcDbVisualStyle
  2

 70
     2
 71
     2
 72
     2
 73
     1
 90
        2
 40
-0.6
 41
30.0
 62
     5
 63
     7
421
 16777215
 74
     0
 91
        0
 64
     7
 65
   257
 75
     1
175
     1
 42
1.0
 92
        0
 66
     7
 43
1.0
 76
     1
 77
     6
 78
     2
 67
     7
 79
     5
170
     0
171
     0
290
     0
174
     0
 93
       13
 44
0.0
173
     0
291
     1
 45
0.0
1001
ACAD
1000
AcDbSavedByObjectVersion
1070
     0
  0
VISUALSTYLE
  5
2E
102
{ACAD_XDICTIONARY
360
35E
102
}
102
{ACAD_REACTORS
330
2A
102
}
330
2A
100
AcDbVisualStyle
  2

 70
     3
 71
     2
 72
     2
 73
     1
 90
        2
 40
-0.6
 41
30.0
 62
     5
 63
     7
421
 16777215
 74
     1
 91
        0
 64
     7
 65
   257
 75
     1
175
     1
 42
1.0
 92
        0
 66
   257
 43
1.0
 76
     1
 77
     6
 78
     2
 67
     7
 79
     5
170
     0
171
     0
290
     0
174
     0
 93
       13
 44
0.0
173
     0
291
     1
 45
0.0
1001
ACAD
1000
AcDbSavedByObjectVersion
1070
     0
  0
VISUALSTYLE
  5
31
102
{ACAD_XDICTIONARY
360
364
102
}
102
{ACAD_REACTORS
330
2A
102
}
330
2A
100
AcDbVisualStyle
  2

 70
     6
 71
     1
 72
     2
 73
     2
 90
        0
 40
-0.6
 41
-30.0
 62
     5
 63
     7
421
 16777215
 74
     2
 91
        2
 64
     7
 65
   257
 75
     2
175
     1
 42
40.0
 92
        0
 66
   257
 43
1.0
 76
     1
 77
     6
 78
     2
 67
     7
 79
     3
170
     0
171
     0
290
     0
174
     0
 93
        1
 44
0.0
173
     0
291
     0
 45
0.0
1001
ACAD
1000
AcDbSavedByObjectVersion
1070
     0
  0
VISUALSTYLE
  5
3B
102
{ACAD_XDICTIONARY
360
378
102
}
102
{ACAD_REACTORS
330
2A
102
}
330
2A
100
AcDbVisualStyle
  2

 70
    20
 71
     2
 72
     2
 73
     0
 90
        0
 40
-0.6
 41
-30.0
 62
     5
 63
     7
421
 16777215
 74
     1
 91
        4
 64
     7
 65
   257
 75
     1
175
     1
 42
1.0
 92
       10
 66
     7
 43
1.0
 76
     1
 77
     6
 78
     2
 67
     7
 79
     5
170
     0
171
     0
290
     0
174
     0
 93
        1
 44
0.0
173
     0
291
     1
 45
0.0
1001
ACAD
1000
AcDbSavedByObjectVersion
1070
     0
  0
VISUALSTYLE
  5
38
102
{ACAD_XDICTIONARY
360
372
102
}
102
{ACAD_REACTORS
330
2A
102
}
330
2A
100
AcDbVisualStyle
  2

 70
    14
 71
     2
 72
     2
 73
     0
 90
        0
 40
-0.6
 41
-30.0
 62
     5
 63
     7
421
 16777215
 74
     1
 91
        4
 64
     7
 65
   257
 75
     7
175
     7
 42
1.0
 92
        8
 66
     7
 43
1.0
 76
     1
 77
     6
 78
     2
 67
     7
 79
     5
170
     0
171
     0
290
     0
174
     0
 93
        1
 44
0.0
173
     0
291
     1
 45
0.0
1001
ACAD
1000
AcDbSavedByObjectVersion
1070
     0
  0
VISUALSTYLE
  5
3C
102
{ACAD_XDICTIONARY
360
37A
102
}
102
{ACAD_REACTORS
330
2A
102
}
330
2A
100
AcDbVisualStyle
  2

 70
    21
 71
     2
 72
     2
 73
     0
 90
        0
 40
-0.6
 41
-30.0
 62
     5
 63
     7
421
 16777215
 74
     1
 91
        4
 64
     7
 65
   257
 75
     1
175
     1
 42
1.0
 92
        9
 66
     7
 43
1.0
 76
     1
 77
     6
 78
     2
 67
     7
 79
     5
170
     0
171
     0
290
     0
174
     0
 93
        1
 44
0.0
173
     0
291
     1
 45
0.0
1001
ACAD
1000
AcDbSavedByObjectVersion
1070
     0
  0
VISUALSTYLE
  5
33
102
{ACAD_XDICTIONARY
360
368
102
}
102
{ACAD_REACTORS
330
2A
102
}
330
2A
100
AcDbVisualStyle
  2

 70
     8
 71
     2
 72
     3
 73
     0
 90
        2
 40
-0.6
 41
30.0
 62
     5
 63
     7
421
 16777215
 74
     0
 91
        0
 64
     7
 65
   257
 75
     1
175
     1
 42
1.0
 92
        8
 66
   257
 43
1.0
 76
     1
 77
     6
 78
     2
 67
     7
 79
     3
170
     0
171
     0
290
     0
174
     0
 93
       13
 44
0.0
173
     0
291
     0
 45
0.0
1001
ACAD
1000
AcDbSavedByObjectVersion
1070
     0
  0
VISUALSTYLE
  5
42
102
{ACAD_XDICTIONARY
360
386
102
}
102
{ACAD_REACTORS
330
2A
102
}
330
2A
100
AcDbVisualStyle
  2

 70
    27
 71
     2
 72
     2
 73
     1
 90
        2
 40
-0.6
 41
30.0
 62
     5
 63
     7
421
 16777215
 74
     0
 91
        4
 64
     7
 65
   257
 75
     1
175
     1
 42
1.0
 92
        8
 66
   257
 43
1.0
 76
     1
 77
     6
 78
     2
 67
     8
425
  7895160
 79
     3
170
     0
171
     0
290
     0
174
     0
 93
        5
 44
0.0
173
     0
291
     0
 45
0.0
1001
ACAD
1000
AcDbSavedByObjectVersion
1070
     0
  0
VISUALSTYLE
  5
41
102
{ACAD_XDICTIONARY
360
384
102
}
102
{ACAD_REACTORS
330
2A
102
}
330
2A
100
AcDbVisualStyle
  2

 70
    26
 71
     2
 72
     2
 73
     1
 90
        2
 40
-0.6
 41
30.0
 62
     5
 63
     7
421
 16777215
 74
     1
 91
       10
 64
     7
 65
   257
 75
     2
175
     1
 42
1.0
 92
        8
 66
   257
 43
1.0
 76
     1
 77
     6
 78
     2
 67
     7
 79
     3
170
     0
171
     0
290
     0
174
     0
 93
        5
 44
0.0
173
     0
291
     0
 45
0.0
1001
ACAD
1000
AcDbSavedByObjectVersion
1070
     0
  0
VISUALSTYLE
  5
3E
102
{ACAD_XDICTIONARY
360
37E
102
}
102
{ACAD_REACTORS
330
2A
102
}
330
2A
100
AcDbVisualStyle
  2

 70
    23
 71
     2
 72
     2
 73
     3
 90
        0
 40
-0.6
 41
-30.0
 62
     5
 63
     7
421
 16777215
 74
     2
 91
        2
 64
     7
 65
     7
 75
     1
175
     1
 42
40.0
 92
        8
 66
     7
 43
1.0
 76
     1
 77
     6
 78
     2
 67
     7
 79
     3
170
     0
171
     0
290
     0
174
     0
 93
        1
 44
0.0
173
     0
291
     0
 45
0.0
1001
ACAD
1000
AcDbSavedByObjectVersion
1070
     0
  0
VISUALSTYLE
  5
3F
102
{ACAD_XDICTIONARY
360
380
102
}
102
{ACAD_REACTORS
330
2A
102
}
330
2A
100
AcDbVisualStyle
  2

 70
    24
 71
     1
 72
     2
 73
     2
 90
        0
 40
-0.6
 41
-30.0
 62
     5
 63
     7
421
 16777215
 74
     2
 91
        2
 64
     7
 65
     7
 75
     1
175
     1
 42
40.0
 92
       11
 66
     7
 43
1.0
 76
     1
 77
     6
 78
     2
 67
     7
 79
     6
170
     0
171
     0
290
     0
174
     0
 93
        1
 44
0.0
173
     0
291
     0
 45
0.0
1001
ACAD
1000
AcDbSavedByObjectVersion
1070
     0
  0
VISUALSTYLE
  5
37
102
{ACAD_XDICTIONARY
360
370
102
}
102
{ACAD_REACTORS
330
2A
102
}
330
2A
100
AcDbVisualStyle
  2

 70
    13
 71
     2
 72
     2
 73
     0
 90
        0
 40
-0.6
 41
-30.0
 62
     5
 63
     7
421
 16777215
 74
     1
 91
        4
 64
     7
 65
   257
 75
     1
175
     1
 42
1.0
 92
       12
 66
     7
 43
1.0
 76
     1
 77
     6
 78
     2
 67
     7
 79
     5
170
     0
171
     0
290
     0
174
     0
 93
        1
 44
0.0
173
     0
291
     1
 45
0.0
1001
ACAD
1000
AcDbSavedByObjectVersion
1070
     0
  0
VISUALSTYLE
  5
30
102
{ACAD_XDICTIONARY
360
362
102
}
102
{ACAD_REACTORS
330
2A
102
}
330
2A
100
AcDbVisualStyle
  2

 70
     5
 71
     0
 72
     2
 73
     0
 90
        0
 40
-0.6
 41
-30.0
 62
     5
 63
     7
421
 16777215
 74
     1
 91
        4
 64
     7
 65
   257
 75
     1
175
     1
 42
1.0
 92
        0
 66
   257
 43
1.0
 76
     1
 77
     6
 78
     2
 67
     7
 79
     3
170
     0
171
     0
290
     0
174
     0
 93
        1
 44
0.0
173
     0
291
     0
 45
0.0
1001
ACAD
1000
AcDbSavedByObjectVersion
1070
     0
  0
VISUALSTYLE
  5
40
102
{ACAD_XDICTIONARY
360
382
102
}
102
{ACAD_REACTORS
330
2A
102
}
330
2A
100
AcDbVisualStyle
  2

 70
    25
 71
     2
 72
     2
 73
     1
 90
        1
 40
0.5
 41
-30.0
 62
     5
 63
     7
421
 16777215
 74
     1
 91
        0
 64
     7
 65
   257
 75
     1
175
     1
 42
1.0
 92
        8
 66
     7
 43
1.0
 76
     1
 77
     6
 78
     2
 67
     7
 79
     3
170
     0
171
     0
290
     0
174
     0
 93
       13
 44
0.0
173
     0
291
     0
 45
0.0
1001
ACAD
1000
AcDbSavedByObjectVersion
1070
     0
  0
DICTIONARYVAR
  5
2A0
102
{ACAD_REACTORS
330
29F
102
}
330
29F
100
DictionaryVariables
280
     0
  1
1:1
  0
DICTIONARYVAR
  5
2E1
102
{ACAD_REACTORS
330
29F
102
}
330
29F
100
DictionaryVariables
280
     0
  1
STANDARD
  0
DICTIONARYVAR
  5
2E0
102
{ACAD_REACTORS
330
29F
102
}
330
29F
100
DictionaryVariables
280
     0
  1
STANDARD
  0
DICTIONARYVAR
  5
352
102
{ACAD_REACTORS
330
29F
102
}
330
29F
100
DictionaryVariables
280
     0
  1
Metric50
  0
DICTIONARYVAR
  5
353
102
{ACAD_REACTORS
330
29F
102
}
330
29F
100
DictionaryVariables
280
     0
  1
Metric50
  0
DICTIONARYVAR
  5
2A1
102
{ACAD_REACTORS
330
29F
102
}
330
29F
100
DictionaryVariables
280
     0
  1
1
  0
DICTIONARYVAR
  5
354
102
{ACAD_REACTORS
330
29F
102
}
330
29F
100
DictionaryVariables
280
     0
  1
2
  0
DICTIONARY
  5
38B
330
2E8
100
AcDbDictionary
280
     1
281
     1
  3
ACAD_XREC_ROUNDTRIP
360
38C
  0
DICTIONARY
  5
2D5
330
45
100
AcDbDictionary
280
     1
281
     1
  3
ACAD_XREC_ROUNDTRIP
360
2D6
  0
DICTIONARY
  5
2D3
330
44
100
AcDbDictionary
280
     1
281
     1
  3
ACAD_XREC_ROUNDTRIP
360
2D4
  0
DICTIONARY
  5
2D7
330
46
100
AcDbDictionary
280
     1
281
     1
  3
ACAD_XREC_ROUNDTRIP
360
2D8
  0
DICTIONARY
  5
389
330
2E7
100
AcDbDictionary
280
     1
281
     1
  3
ACAD_XREC_ROUNDTRIP
360
38A
  0
DICTIONARY
  5
2D9
330
6A
100
AcDbDictionary
280
     1
281
     1
  3
ACAD_ROUNDTRIP_2008_TABLESTYLE_CELLSTYLEMAP
360
356
  3
ACAD_XREC_ROUNDTRIP
360
388
  0
DICTIONARY
  5
360
330
2F
100
AcDbDictionary
280
     1
281
     1
  3
ACAD_XREC_ROUNDTRIP
360
361
  0
DICTIONARY
  5
366
330
32
100
AcDbDictionary
280
     1
281
     1
  3
ACAD_XREC_ROUNDTRIP
360
367
  0
DICTIONARY
  5
36E
330
36
100
AcDbDictionary
280
     1
281
     1
  3
ACAD_XREC_ROUNDTRIP
360
36F
  0
DICTIONARY
  5
376
330
3A
100
AcDbDictionary
280
     1
281
     1
  3
ACAD_XREC_ROUNDTRIP
360
377
  0
DICTIONARY
  5
36A
330
34
100
AcDbDictionary
280
     1
281
     1
  3
ACAD_XREC_ROUNDTRIP
360
36B
  0
DICTIONARY
  5
36C
330
35
100
AcDbDictionary
280
     1
281
     1
  3
ACAD_XREC_ROUNDTRIP
360
36D
  0
DICTIONARY
  5
37C
330
3D
100
AcDbDictionary
280
     1
281
     1
  3
ACAD_XREC_ROUNDTRIP
360
37D
  0
DICTIONARY
  5
374
330
39
100
AcDbDictionary
280
     1
281
     1
  3
ACAD_XREC_ROUNDTRIP
360
375
  0
DICTIONARY
  5
358
330
2B
100
AcDbDictionary
280
     1
281
     1
  3
ACAD_XREC_ROUNDTRIP
360
359
  0
DICTIONARY
  5
35A
330
2C
100
AcDbDictionary
280
     1
281
     1
  3
ACAD_XREC_ROUNDTRIP
360
35B
  0
DICTIONARY
  5
35C
330
2D
100
AcDbDictionary
280
     1
281
     1
  3
ACAD_XREC_ROUNDTRIP
360
35D
  0
DICTIONARY
  5
35E
330
2E
100
AcDbDictionary
280
     1
281
     1
  3
ACAD_XREC_ROUNDTRIP
360
35F
  0
DICTIONARY
  5
364
330
31
100
AcDbDictionary
280
     1
281
     1
  3
ACAD_XREC_ROUNDTRIP
360
365
  0
DICTIONARY
  5
378
330
3B
100
AcDbDictionary
280
     1
281
     1
  3
ACAD_XREC_ROUNDTRIP
360
379
  0
DICTIONARY
  5
372
330
38
100
AcDbDictionary
280
     1
281
     1
  3
ACAD_XREC_ROUNDTRIP
360
373
  0
DICTIONARY
  5
37A
330
3C
100
AcDbDictionary
280
     1
281
     1
  3
ACAD_XREC_ROUNDTRIP
360
37B
  0
DICTIONARY
  5
368
330
33
100
AcDbDictionary
280
     1
281
     1
  3
ACAD_XREC_ROUNDTRIP
360
369
  0
DICTIONARY
  5
386
330
42
100
AcDbDictionary
280
     1
281
     1
  3
ACAD_XREC_ROUNDTRIP
360
387
  0
DICTIONARY
  5
384
330
41
100
AcDbDictionary
280
     1
281
     1
  3
ACAD_XREC_ROUNDTRIP
360
385
  0
DICTIONARY
  5
37E
330
3E
100
AcDbDictionary
280
     1
281
     1
  3
ACAD_XREC_ROUNDTRIP
360
37F
  0
DICTIONARY
  5
380
330
3F
100
AcDbDictionary
280
     1
281
     1
  3
ACAD_XREC_ROUNDTRIP
360
381
  0
DICTIONARY
  5
370
330
37
100
AcDbDictionary
280
     1
281
     1
  3
ACAD_XREC_ROUNDTRIP
360
371
  0
DICTIONARY
  5
362
330
30
100
AcDbDictionary
280
     1
281
     1
  3
ACAD_XREC_ROUNDTRIP
360
363
  0
DICTIONARY
  5
382
330
40
100
AcDbDictionary
280
     1
281
     1
  3
ACAD_XREC_ROUNDTRIP
360
383
  0
XRECORD
  5
38C
102
{ACAD_REACTORS
330
38B
102
}
330
38B
100
AcDbXrecord
280
     1
102
DISPLAYNAME
  1
Metric50
102
FLAGS
 90
        0
  0
XRECORD
  5
2D6
102
{ACAD_REACTORS
330
2D5
102
}
330
2D5
100
AcDbXrecord
280
     1
102
MATERIAL
148
0.0
149
0.0
149
0.0
 93
        0
 94
      127
282
     0
 72
     1
 77
     1
171
     1
175
     1
179
     1
273
     0
  0
XRECORD
  5
2D4
102
{ACAD_REACTORS
330
2D3
102
}
330
2D3
100
AcDbXrecord
280
     1
102
MATERIAL
148
0.0
149
0.0
149
0.0
 93
        0
 94
      127
282
     0
 72
     1
 77
     1
171
     1
175
     1
179
     1
273
     0
  0
XRECORD
  5
2D8
102
{ACAD_REACTORS
330
2D7
102
}
330
2D7
100
AcDbXrecord
280
     1
102
MATERIAL
148
0.0
149
0.0
149
0.0
 93
        0
 94
      127
282
     0
 72
     1
 77
     1
171
     1
175
     1
179
     1
273
     0
  0
XRECORD
  5
38A
102
{ACAD_REACTORS
330
389
102
}
330
389
100
AcDbXrecord
280
     1
102
DISPLAYNAME
  1
Metric50
102
FLAGS
 90
        0
  0
CELLSTYLEMAP
  5
356
102
{ACAD_REACTORS
330
2D9
102
}
330
2D9
100
AcDbCellStyleMap
 90
        3
300
CELLSTYLE
  1
TABLEFORMAT_BEGIN
 90
        5
170
     1
 91
        0
 92
    32768
 62
   257
 93
        1
300
CONTENTFORMAT
  1
CONTENTFORMAT_BEGIN
 90
        0
 91
        0
 92
        4
 93
        0
300

 40
0.0
140
1.0
 94
        5
 62
     0
340
11
144
0.25
309
CONTENTFORMAT_END
171
     1
301
MARGIN
  1
CELLMARGIN_BEGIN
 40
0.06
 40
0.06
 40
0.06
 40
0.06
 40
0.18
 40
0.18
309
CELLMARGIN_END
 94
        6
 95
        1
302
GRIDFORMAT
  1
GRIDFORMAT_BEGIN
 90
        0
 91
        1
 62
     0
 92
       -2
340
14
 93
        0
 40
0.045
309
GRIDFORMAT_END
 95
        2
302
GRIDFORMAT
  1
GRIDFORMAT_BEGIN
 90
        0
 91
        1
 62
     0
 92
       -2
340
14
 93
        0
 40
0.045
309
GRIDFORMAT_END
 95
        4
302
GRIDFORMAT
  1
GRIDFORMAT_BEGIN
 90
        0
 91
        1
 62
     0
 92
       -2
340
14
 93
        0
 40
0.045
309
GRIDFORMAT_END
 95
        8
302
GRIDFORMAT
  1
GRIDFORMAT_BEGIN
 90
        0
 91
        1
 62
     0
 92
       -2
340
14
 93
        0
 40
0.045
309
GRIDFORMAT_END
 95
       16
302
GRIDFORMAT
  1
GRIDFORMAT_BEGIN
 90
        0
 91
        1
 62
     0
 92
       -2
340
14
 93
        0
 40
0.045
309
GRIDFORMAT_END
 95
       32
302
GRIDFORMAT
  1
GRIDFORMAT_BEGIN
 90
        0
 91
        1
 62
     0
 92
       -2
340
14
 93
        0
 40
0.045
309
GRIDFORMAT_END
309
TABLEFORMAT_END
  1
CELLSTYLE_BEGIN
 90
        1
 91
        1
300
_TITLE
309
CELLSTYLE_END
300
CELLSTYLE
  1
TABLEFORMAT_BEGIN
 90
        5
170
     1
 91
        0
 92
        0
 62
   257
 93
        1
300
CONTENTFORMAT
  1
CONTENTFORMAT_BEGIN
 90
        0
 91
        0
 92
        4
 93
        0
300

 40
0.0
140
1.0
 94
        5
 62
     0
340
11
144
0.18
309
CONTENTFORMAT_END
171
     1
301
MARGIN
  1
CELLMARGIN_BEGIN
 40
0.06
 40
0.06
 40
0.06
 40
0.06
 40
0.18
 40
0.18
309
CELLMARGIN_END
 94
        6
 95
        1
302
GRIDFORMAT
  1
GRIDFORMAT_BEGIN
 90
        0
 91
        1
 62
     0
 92
       -2
340
14
 93
        0
 40
0.045
309
GRIDFORMAT_END
 95
        2
302
GRIDFORMAT
  1
GRIDFORMAT_BEGIN
 90
        0
 91
        1
 62
     0
 92
       -2
340
14
 93
        0
 40
0.045
309
GRIDFORMAT_END
 95
        4
302
GRIDFORMAT
  1
GRIDFORMAT_BEGIN
 90
        0
 91
        1
 62
     0
 92
       -2
340
14
 93
        0
 40
0.045
309
GRIDFORMAT_END
 95
        8
302
GRIDFORMAT
  1
GRIDFORMAT_BEGIN
 90
        0
 91
        1
 62
     0
 92
       -2
340
14
 93
        0
 40
0.045
309
GRIDFORMAT_END
 95
       16
302
GRIDFORMAT
  1
GRIDFORMAT_BEGIN
 90
        0
 91
        1
 62
     0
 92
       -2
340
14
 93
        0
 40
0.045
309
GRIDFORMAT_END
 95
       32
302
GRIDFORMAT
  1
GRIDFORMAT_BEGIN
 90
        0
 91
        1
 62
     0
 92
       -2
340
14
 93
        0
 40
0.045
309
GRIDFORMAT_END
309
TABLEFORMAT_END
  1
CELLSTYLE_BEGIN
 90
        2
 91
        1
300
_HEADER
309
CELLSTYLE_END
300
CELLSTYLE
  1
TABLEFORMAT_BEGIN
 90
        5
170
     1
 91
        0
 92
        0
 62
   257
 93
        1
300
CONTENTFORMAT
  1
CONTENTFORMAT_BEGIN
 90
        0
 91
        0
 92
        4
 93
        0
300

 40
0.0
140
1.0
 94
        2
 62
     0
340
11
144
0.18
309
CONTENTFORMAT_END
171
     1
301
MARGIN
  1
CELLMARGIN_BEGIN
 40
0.06
 40
0.06
 40
0.06
 40
0.06
 40
0.18
 40
0.18
309
CELLMARGIN_END
 94
        6
 95
        1
302
GRIDFORMAT
  1
GRIDFORMAT_BEGIN
 90
        0
 91
        1
 62
     0
 92
       -2
340
14
 93
        0
 40
0.045
309
GRIDFORMAT_END
 95
        2
302
GRIDFORMAT
  1
GRIDFORMAT_BEGIN
 90
        0
 91
        1
 62
     0
 92
       -2
340
14
 93
        0
 40
0.045
309
GRIDFORMAT_END
 95
        4
302
GRIDFORMAT
  1
GRIDFORMAT_BEGIN
 90
        0
 91
        1
 62
     0
 92
       -2
340
14
 93
        0
 40
0.045
309
GRIDFORMAT_END
 95
        8
302
GRIDFORMAT
  1
GRIDFORMAT_BEGIN
 90
        0
 91
        1
 62
     0
 92
       -2
340
14
 93
        0
 40
0.045
309
GRIDFORMAT_END
 95
       16
302
GRIDFORMAT
  1
GRIDFORMAT_BEGIN
 90
        0
 91
        1
 62
     0
 92
       -2
340
14
 93
        0
 40
0.045
309
GRIDFORMAT_END
 95
       32
302
GRIDFORMAT
  1
GRIDFORMAT_BEGIN
 90
        0
 91
        1
 62
     0
 92
       -2
340
14
 93
        0
 40
0.045
309
GRIDFORMAT_END
309
TABLEFORMAT_END
  1
CELLSTYLE_BEGIN
 90
        3
 91
        2
300
_DATA
309
CELLSTYLE_END
  0
XRECORD
  5
388
102
{ACAD_REACTORS
330
2D9
102
}
330
2D9
100
AcDbXrecord
280
     1
102
ACAD_ROUNDTRIP_PRE2007_TABLESTYLE
 90
        4
 91
        0
  1

 92
        4
 93
        0
  2

 94
        4
 95
        0
  3

  0
XRECORD
  5
361
102
{ACAD_REACTORS
330
360
102
}
330
360
100
AcDbXrecord
280
     1
102
RTVSPost2010Prop28
280
     1
102
RTVSPost2010PropOp28
 70
     1
102
RTVSPost2010Prop29
280
     1
102
RTVSPost2010PropOp29
 70
     1
102
RTVSPost2010Prop30
280
     0
102
RTVSPost2010PropOp30
 70
     1
102
RTVSPost2010Prop31
280
     0
102
RTVSPost2010PropOp31
 70
     1
102
RTVSPost2010Prop32
280
     0
102
RTVSPost2010PropOp32
 70
     1
102
RTVSPost2010Prop33
280
     0
102
RTVSPost2010PropOp33
 70
     1
102
RTVSPost2010Prop34
280
     0
102
RTVSPost2010PropOp34
 70
     1
102
RTVSPost2010Prop35
280
     0
102
RTVSPost2010PropOp35
 70
     1
102
RTVSPost2010Prop36
280
     0
102
RTVSPost2010PropOp36
 70
     1
102
RTVSPost2010Prop37
 90
       50
102
RTVSPost2010PropOp37
 70
     1
102
RTVSPost2010Prop38
140
0.0
102
RTVSPost2010PropOp38
 70
     1
102
RTVSPost2010Prop39
140
1.0
102
RTVSPost2010PropOp39
 70
     1
102
RTVSPost2010Prop40
 90
        0
102
RTVSPost2010PropOp40
 70
     1
102
RTVSPost2010Prop41ColorIndex
 90
       18
102
RTVSPost2010Prop41ColorRGB
 90
        0
102
RTVSPost2010PropOp41
 70
     1
102
RTVSPost2010Prop42
 90
       50
102
RTVSPost2010PropOp42
 70
     1
102
RTVSPost2010Prop43
 90
        3
102
RTVSPost2010PropOp43
 70
     1
102
RTVSPost2010Prop44ColorIndex
 90
        5
102
RTVSPost2010Prop44ColorRGB
 90
      255
102
RTVSPost2010PropOp44
 70
     1
102
RTVSPost2010Prop45
280
     0
102
RTVSPost2010PropOp45
 70
     1
102
RTVSPost2010Prop46
 90
       50
102
RTVSPost2010PropOp46
 70
     1
102
RTVSPost2010Prop47
 90
       50
102
RTVSPost2010PropOp47
 70
     1
102
RTVSPost2010Prop48
 90
       50
102
RTVSPost2010PropOp48
 70
     1
102
RTVSPost2010Prop49
280
     0
102
RTVSPost2010PropOp49
 70
     1
102
RTVSPost2010Prop50
 90
       50
102
RTVSPost2010PropOp50
 70
     1
102
RTVSPost2010Prop51ColorIndex
 90
      256
102
RTVSPost2010Prop51ColorRGB
 90
-16777216
102
RTVSPost2010PropOp51
 70
     0
102
RTVSPost2010Prop52
140
1.0
102
RTVSPost2010PropOp52
 70
     0
102
RTVSPost2010Prop53
 90
        2
102
RTVSPost2010PropOp53
 70
     1
102
RTVSPost2010Prop54
  1
strokes_ogs.tif
102
RTVSPost2010PropOp54
 70
     1
102
RTVSPost2010Prop55
280
     0
102
RTVSPost2010PropOp55
 70
     1
102
RTVSPost2010Prop56
140
1.0
102
RTVSPost2010PropOp56
 70
     1
102
RTVSPost2010Prop57
140
1.0
102
RTVSPost2010PropOp57
 70
     1
102
RTVSPropertyOp0
 70
     1
102
RTVSPropertyOp1
 70
     1
102
RTVSPropertyOp2
 70
     1
102
RTVSPropertyOp3
 70
     1
102
RTVSPropertyOp4
 70
     1
102
RTVSPropertyOp5
 70
     1
102
RTVSPropertyOp6
 70
     1
102
RTVSPropertyOp7
 70
     1
102
RTVSPropertyOp8
 70
     1
102
RTVSPropertyOp9
 70
     1
102
RTVSPropertyOp10
 70
     1
102
RTVSPropertyOp11
 70
     1
102
RTVSPropertyOp12
 70
     1
102
RTVSPropertyOp13
 70
     1
102
RTVSPropertyOp14
 70
     1
102
RTVSPropertyOp15
 70
     1
102
RTVSPropertyOp16
 70
     1
102
RTVSPropertyOp17
 70
     1
102
RTVSPropertyOp18
 70
     1
102
RTVSPropertyOp19
 70
     1
102
RTVSPropertyOp20
 70
     1
102
RTVSPropertyOp21
 70
     1
102
RTVSPropertyOp22
 70
     1
102
RTVSPropertyOp23
 70
     1
102
RTVSPropertyOp24
 70
     1
102
RTVSPropertyOp25
 70
     1
102
RTVSPropertyOp26
 70
     1
102
RTVSPropertyOp27
 70
     1
102
RTVSPropertyOp28
 70
     1
102
RTVSPropertyOp29
 70
     1
102
RTVSPropertyOp30
 70
     1
102
RTVSPropertyOp31
 70
     1
102
RTVSPropertyOp32
 70
     1
102
RTVSPropertyOp33
 70
     1
102
RTVSPropertyOp34
 70
     1
102
RTVSPropertyOp35
 70
     1
102
RTVSPropertyOp36
 70
     1
102
RTVSPropertyOp37
 70
     1
102
RTVSPropertyOp38
 70
     1
102
RTVSPropertyOp39
 70
     1
102
RTVSPropertyOp40
 70
     1
102
RTVSPropertyOp41
 70
     1
102
RTVSPropertyOp42
 70
     1
102
RTVSPropertyOp43
 70
     1
102
RTVSPropertyOp44
 70
     1
102
RTVSPropertyOp45
 70
     1
102
RTVSPropertyOp46
 70
     1
102
RTVSPropertyOp47
 70
     1
102
RTVSPropertyOp48
 70
     1
102
RTVSPropertyOp49
 70
     1
102
RTVSPropertyOp50
 70
     1
102
RTVSPropertyOp51
 70
     0
102
RTVSPropertyOp52
 70
     0
102
RTVSPropertyOp53
 70
     1
102
RTVSPropertyOp54
 70
     1
102
RTVSPropertyOp55
 70
     1
102
RTVSPropertyOp56
 70
     1
102
RTVSPropertyOp57
 70
     1
102
RTVSPropertyOp58
 70
     1
102
RTVSPropertyOp59
 70
     1
102
RTVSPropertyOp60
 70
     1
102
RTVSPropertyOp61
 70
     1
102
RTVSPropertyOp62
 70
     1
  0
XRECORD
  5
367
102
{ACAD_REACTORS
330
366
102
}
330
366
100
AcDbXrecord
280
     1
102
RTVSPost2010Prop28
280
     0
102
RTVSPost2010PropOp28
 70
     1
102
RTVSPost2010Prop29
280
     1
102
RTVSPost2010PropOp29
 70
     1
102
RTVSPost2010Prop30
280
     1
102
RTVSPost2010PropOp30
 70
     1
102
RTVSPost2010Prop31
280
     0
102
RTVSPost2010PropOp31
 70
     1
102
RTVSPost2010Prop32
280
     0
102
RTVSPost2010PropOp32
 70
     1
102
RTVSPost2010Prop33
280
     0
102
RTVSPost2010PropOp33
 70
     1
102
RTVSPost2010Prop34
280
     0
102
RTVSPost2010PropOp34
 70
     1
102
RTVSPost2010Prop35
280
     0
102
RTVSPost2010PropOp35
 70
     1
102
RTVSPost2010Prop36
280
     0
102
RTVSPost2010PropOp36
 70
     1
102
RTVSPost2010Prop37
 90
       50
102
RTVSPost2010PropOp37
 70
     1
102
RTVSPost2010Prop38
140
0.0
102
RTVSPost2010PropOp38
 70
     1
102
RTVSPost2010Prop39
140
1.0
102
RTVSPost2010PropOp39
 70
     1
102
RTVSPost2010Prop40
 90
        0
102
RTVSPost2010PropOp40
 70
     1
102
RTVSPost2010Prop41ColorIndex
 90
       18
102
RTVSPost2010Prop41ColorRGB
 90
        0
102
RTVSPost2010PropOp41
 70
     1
102
RTVSPost2010Prop42
 90
       50
102
RTVSPost2010PropOp42
 70
     1
102
RTVSPost2010Prop43
 90
        3
102
RTVSPost2010PropOp43
 70
     1
102
RTVSPost2010Prop44ColorIndex
 90
        5
102
RTVSPost2010Prop44ColorRGB
 90
      255
102
RTVSPost2010PropOp44
 70
     1
102
RTVSPost2010Prop45
280
     0
102
RTVSPost2010PropOp45
 70
     1
102
RTVSPost2010Prop46
 90
       50
102
RTVSPost2010PropOp46
 70
     1
102
RTVSPost2010Prop47
 90
       50
102
RTVSPost2010PropOp47
 70
     1
102
RTVSPost2010Prop48
 90
       50
102
RTVSPost2010PropOp48
 70
     1
102
RTVSPost2010Prop49
280
     0
102
RTVSPost2010PropOp49
 70
     1
102
RTVSPost2010Prop50
 90
       50
102
RTVSPost2010PropOp50
 70
     1
102
RTVSPost2010Prop51ColorIndex
 90
      256
102
RTVSPost2010Prop51ColorRGB
 90
-16777216
102
RTVSPost2010PropOp51
 70
     0
102
RTVSPost2010Prop52
140
1.0
102
RTVSPost2010PropOp52
 70
     0
102
RTVSPost2010Prop53
 90
        2
102
RTVSPost2010PropOp53
 70
     1
102
RTVSPost2010Prop54
  1
strokes_ogs.tif
102
RTVSPost2010PropOp54
 70
     1
102
RTVSPost2010Prop55
280
     0
102
RTVSPost2010PropOp55
 70
     1
102
RTVSPost2010Prop56
140
1.0
102
RTVSPost2010PropOp56
 70
     1
102
RTVSPost2010Prop57
140
1.0
102
RTVSPost2010PropOp57
 70
     1
102
RTVSPropertyOp0
 70
     1
102
RTVSPropertyOp1
 70
     1
102
RTVSPropertyOp2
 70
     1
102
RTVSPropertyOp3
 70
     1
102
RTVSPropertyOp4
 70
     1
102
RTVSPropertyOp5
 70
     1
102
RTVSPropertyOp6
 70
     1
102
RTVSPropertyOp7
 70
     1
102
RTVSPropertyOp8
 70
     1
102
RTVSPropertyOp9
 70
     1
102
RTVSPropertyOp10
 70
     1
102
RTVSPropertyOp11
 70
     1
102
RTVSPropertyOp12
 70
     1
102
RTVSPropertyOp13
 70
     1
102
RTVSPropertyOp14
 70
     1
102
RTVSPropertyOp15
 70
     1
102
RTVSPropertyOp16
 70
     1
102
RTVSPropertyOp17
 70
     1
102
RTVSPropertyOp18
 70
     1
102
RTVSPropertyOp19
 70
     1
102
RTVSPropertyOp20
 70
     1
102
RTVSPropertyOp21
 70
     1
102
RTVSPropertyOp22
 70
     1
102
RTVSPropertyOp23
 70
     1
102
RTVSPropertyOp24
 70
     1
102
RTVSPropertyOp25
 70
     1
102
RTVSPropertyOp26
 70
     1
102
RTVSPropertyOp27
 70
     1
102
RTVSPropertyOp28
 70
     1
102
RTVSPropertyOp29
 70
     1
102
RTVSPropertyOp30
 70
     1
102
RTVSPropertyOp31
 70
     1
102
RTVSPropertyOp32
 70
     1
102
RTVSPropertyOp33
 70
     1
102
RTVSPropertyOp34
 70
     1
102
RTVSPropertyOp35
 70
     1
102
RTVSPropertyOp36
 70
     1
102
RTVSPropertyOp37
 70
     1
102
RTVSPropertyOp38
 70
     1
102
RTVSPropertyOp39
 70
     1
102
RTVSPropertyOp40
 70
     1
102
RTVSPropertyOp41
 70
     1
102
RTVSPropertyOp42
 70
     1
102
RTVSPropertyOp43
 70
     1
102
RTVSPropertyOp44
 70
     1
102
RTVSPropertyOp45
 70
     1
102
RTVSPropertyOp46
 70
     1
102
RTVSPropertyOp47
 70
     1
102
RTVSPropertyOp48
 70
     1
102
RTVSPropertyOp49
 70
     1
102
RTVSPropertyOp50
 70
     1
102
RTVSPropertyOp51
 70
     0
102
RTVSPropertyOp52
 70
     0
102
RTVSPropertyOp53
 70
     1
102
RTVSPropertyOp54
 70
     1
102
RTVSPropertyOp55
 70
     1
102
RTVSPropertyOp56
 70
     1
102
RTVSPropertyOp57
 70
     1
102
RTVSPropertyOp58
 70
     1
102
RTVSPropertyOp59
 70
     1
102
RTVSPropertyOp60
 70
     1
102
RTVSPropertyOp61
 70
     1
102
RTVSPropertyOp62
 70
     1
  0
XRECORD
  5
36F
102
{ACAD_REACTORS
330
36E
102
}
330
36E
100
AcDbXrecord
280
     1
102
RTVSPost2010Prop28
280
     0
102
RTVSPost2010PropOp28
 70
     1
102
RTVSPost2010Prop29
280
     1
102
RTVSPost2010PropOp29
 70
     1
102
RTVSPost2010Prop30
280
     1
102
RTVSPost2010PropOp30
 70
     1
102
RTVSPost2010Prop31
280
     0
102
RTVSPost2010PropOp31
 70
     1
102
RTVSPost2010Prop32
280
     0
102
RTVSPost2010PropOp32
 70
     1
102
RTVSPost2010Prop33
280
     0
102
RTVSPost2010PropOp33
 70
     1
102
RTVSPost2010Prop34
280
     0
102
RTVSPost2010PropOp34
 70
     1
102
RTVSPost2010Prop35
280
     0
102
RTVSPost2010PropOp35
 70
     1
102
RTVSPost2010Prop36
280
     0
102
RTVSPost2010PropOp36
 70
     1
102
RTVSPost2010Prop37
 90
       50
102
RTVSPost2010PropOp37
 70
     1
102
RTVSPost2010Prop38
140
0.0
102
RTVSPost2010PropOp38
 70
     1
102
RTVSPost2010Prop39
140
1.0
102
RTVSPost2010PropOp39
 70
     1
102
RTVSPost2010Prop40
 90
        0
102
RTVSPost2010PropOp40
 70
     1
102
RTVSPost2010Prop41ColorIndex
 90
       18
102
RTVSPost2010Prop41ColorRGB
 90
        0
102
RTVSPost2010PropOp41
 70
     1
102
RTVSPost2010Prop42
 90
       50
102
RTVSPost2010PropOp42
 70
     1
102
RTVSPost2010Prop43
 90
        3
102
RTVSPost2010PropOp43
 70
     1
102
RTVSPost2010Prop44ColorIndex
 90
        5
102
RTVSPost2010Prop44ColorRGB
 90
      255
102
RTVSPost2010PropOp44
 70
     1
102
RTVSPost2010Prop45
280
     0
102
RTVSPost2010PropOp45
 70
     1
102
RTVSPost2010Prop46
 90
       50
102
RTVSPost2010PropOp46
 70
     1
102
RTVSPost2010Prop47
 90
       50
102
RTVSPost2010PropOp47
 70
     1
102
RTVSPost2010Prop48
 90
       50
102
RTVSPost2010PropOp48
 70
     1
102
RTVSPost2010Prop49
280
     0
102
RTVSPost2010PropOp49
 70
     1
102
RTVSPost2010Prop50
 90
       50
102
RTVSPost2010PropOp50
 70
     1
102
RTVSPost2010Prop51ColorIndex
 90
      256
102
RTVSPost2010Prop51ColorRGB
 90
-16777216
102
RTVSPost2010PropOp51
 70
     0
102
RTVSPost2010Prop52
140
1.0
102
RTVSPost2010PropOp52
 70
     0
102
RTVSPost2010Prop53
 90
        2
102
RTVSPost2010PropOp53
 70
     1
102
RTVSPost2010Prop54
  1
strokes_ogs.tif
102
RTVSPost2010PropOp54
 70
     1
102
RTVSPost2010Prop55
280
     0
102
RTVSPost2010PropOp55
 70
     1
102
RTVSPost2010Prop56
140
1.0
102
RTVSPost2010PropOp56
 70
     1
102
RTVSPost2010Prop57
140
1.0
102
RTVSPost2010PropOp57
 70
     1
102
RTVSPropertyOp0
 70
     1
102
RTVSPropertyOp1
 70
     1
102
RTVSPropertyOp2
 70
     1
102
RTVSPropertyOp3
 70
     1
102
RTVSPropertyOp4
 70
     1
102
RTVSPropertyOp5
 70
     1
102
RTVSPropertyOp6
 70
     1
102
RTVSPropertyOp7
 70
     1
102
RTVSPropertyOp8
 70
     1
102
RTVSPropertyOp9
 70
     1
102
RTVSPropertyOp10
 70
     1
102
RTVSPropertyOp11
 70
     1
102
RTVSPropertyOp12
 70
     1
102
RTVSPropertyOp13
 70
     1
102
RTVSPropertyOp14
 70
     1
102
RTVSPropertyOp15
 70
     1
102
RTVSPropertyOp16
 70
     1
102
RTVSPropertyOp17
 70
     1
102
RTVSPropertyOp18
 70
     1
102
RTVSPropertyOp19
 70
     1
102
RTVSPropertyOp20
 70
     1
102
RTVSPropertyOp21
 70
     1
102
RTVSPropertyOp22
 70
     1
102
RTVSPropertyOp23
 70
     1
102
RTVSPropertyOp24
 70
     1
102
RTVSPropertyOp25
 70
     1
102
RTVSPropertyOp26
 70
     1
102
RTVSPropertyOp27
 70
     1
102
RTVSPropertyOp28
 70
     1
102
RTVSPropertyOp29
 70
     1
102
RTVSPropertyOp30
 70
     1
102
RTVSPropertyOp31
 70
     1
102
RTVSPropertyOp32
 70
     1
102
RTVSPropertyOp33
 70
     1
102
RTVSPropertyOp34
 70
     1
102
RTVSPropertyOp35
 70
     1
102
RTVSPropertyOp36
 70
     1
102
RTVSPropertyOp37
 70
     1
102
RTVSPropertyOp38
 70
     1
102
RTVSPropertyOp39
 70
     1
102
RTVSPropertyOp40
 70
     1
102
RTVSPropertyOp41
 70
     1
102
RTVSPropertyOp42
 70
     1
102
RTVSPropertyOp43
 70
     1
102
RTVSPropertyOp44
 70
     1
102
RTVSPropertyOp45
 70
     1
102
RTVSPropertyOp46
 70
     1
102
RTVSPropertyOp47
 70
     1
102
RTVSPropertyOp48
 70
     1
102
RTVSPropertyOp49
 70
     1
102
RTVSPropertyOp50
 70
     1
102
RTVSPropertyOp51
 70
     0
102
RTVSPropertyOp52
 70
     0
102
RTVSPropertyOp53
 70
     1
102
RTVSPropertyOp54
 70
     1
102
RTVSPropertyOp55
 70
     1
102
RTVSPropertyOp56
 70
     1
102
RTVSPropertyOp57
 70
     1
102
RTVSPropertyOp58
 70
     1
102
RTVSPropertyOp59
 70
     1
102
RTVSPropertyOp60
 70
     1
102
RTVSPropertyOp61
 70
     1
102
RTVSPropertyOp62
 70
     1
  0
XRECORD
  5
377
102
{ACAD_REACTORS
330
376
102
}
330
376
100
AcDbXrecord
280
     1
102
RTVSPost2010Prop28
280
     0
102
RTVSPost2010PropOp28
 70
     1
102
RTVSPost2010Prop29
280
     1
102
RTVSPost2010PropOp29
 70
     1
102
RTVSPost2010Prop30
280
     1
102
RTVSPost2010PropOp30
 70
     1
102
RTVSPost2010Prop31
280
     0
102
RTVSPost2010PropOp31
 70
     1
102
RTVSPost2010Prop32
280
     0
102
RTVSPost2010PropOp32
 70
     1
102
RTVSPost2010Prop33
280
     0
102
RTVSPost2010PropOp33
 70
     1
102
RTVSPost2010Prop34
280
     0
102
RTVSPost2010PropOp34
 70
     1
102
RTVSPost2010Prop35
280
     0
102
RTVSPost2010PropOp35
 70
     1
102
RTVSPost2010Prop36
280
     0
102
RTVSPost2010PropOp36
 70
     1
102
RTVSPost2010Prop37
 90
       50
102
RTVSPost2010PropOp37
 70
     1
102
RTVSPost2010Prop38
140
0.0
102
RTVSPost2010PropOp38
 70
     1
102
RTVSPost2010Prop39
140
1.0
102
RTVSPost2010PropOp39
 70
     1
102
RTVSPost2010Prop40
 90
        0
102
RTVSPost2010PropOp40
 70
     1
102
RTVSPost2010Prop41ColorIndex
 90
       18
102
RTVSPost2010Prop41ColorRGB
 90
        0
102
RTVSPost2010PropOp41
 70
     1
102
RTVSPost2010Prop42
 90
       50
102
RTVSPost2010PropOp42
 70
     1
102
RTVSPost2010Prop43
 90
        3
102
RTVSPost2010PropOp43
 70
     1
102
RTVSPost2010Prop44ColorIndex
 90
        5
102
RTVSPost2010Prop44ColorRGB
 90
      255
102
RTVSPost2010PropOp44
 70
     1
102
RTVSPost2010Prop45
280
     0
102
RTVSPost2010PropOp45
 70
     1
102
RTVSPost2010Prop46
 90
       50
102
RTVSPost2010PropOp46
 70
     1
102
RTVSPost2010Prop47
 90
       50
102
RTVSPost2010PropOp47
 70
     1
102
RTVSPost2010Prop48
 90
       50
102
RTVSPost2010PropOp48
 70
     1
102
RTVSPost2010Prop49
280
     0
102
RTVSPost2010PropOp49
 70
     1
102
RTVSPost2010Prop50
 90
       50
102
RTVSPost2010PropOp50
 70
     1
102
RTVSPost2010Prop51ColorIndex
 90
      256
102
RTVSPost2010Prop51ColorRGB
 90
-16777216
102
RTVSPost2010PropOp51
 70
     0
102
RTVSPost2010Prop52
140
1.0
102
RTVSPost2010PropOp52
 70
     0
102
RTVSPost2010Prop53
 90
        2
102
RTVSPost2010PropOp53
 70
     1
102
RTVSPost2010Prop54
  1
strokes_ogs.tif
102
RTVSPost2010PropOp54
 70
     1
102
RTVSPost2010Prop55
280
     0
102
RTVSPost2010PropOp55
 70
     1
102
RTVSPost2010Prop56
140
1.0
102
RTVSPost2010PropOp56
 70
     1
102
RTVSPost2010Prop57
140
1.0
102
RTVSPost2010PropOp57
 70
     1
102
RTVSPropertyOp0
 70
     1
102
RTVSPropertyOp1
 70
     1
102
RTVSPropertyOp2
 70
     1
102
RTVSPropertyOp3
 70
     1
102
RTVSPropertyOp4
 70
     1
102
RTVSPropertyOp5
 70
     1
102
RTVSPropertyOp6
 70
     1
102
RTVSPropertyOp7
 70
     1
102
RTVSPropertyOp8
 70
     1
102
RTVSPropertyOp9
 70
     1
102
RTVSPropertyOp10
 70
     1
102
RTVSPropertyOp11
 70
     1
102
RTVSPropertyOp12
 70
     1
102
RTVSPropertyOp13
 70
     1
102
RTVSPropertyOp14
 70
     1
102
RTVSPropertyOp15
 70
     1
102
RTVSPropertyOp16
 70
     1
102
RTVSPropertyOp17
 70
     1
102
RTVSPropertyOp18
 70
     1
102
RTVSPropertyOp19
 70
     1
102
RTVSPropertyOp20
 70
     1
102
RTVSPropertyOp21
 70
     1
102
RTVSPropertyOp22
 70
     1
102
RTVSPropertyOp23
 70
     1
102
RTVSPropertyOp24
 70
     1
102
RTVSPropertyOp25
 70
     1
102
RTVSPropertyOp26
 70
     1
102
RTVSPropertyOp27
 70
     1
102
RTVSPropertyOp28
 70
     1
102
RTVSPropertyOp29
 70
     1
102
RTVSPropertyOp30
 70
     1
102
RTVSPropertyOp31
 70
     1
102
RTVSPropertyOp32
 70
     1
102
RTVSPropertyOp33
 70
     1
102
RTVSPropertyOp34
 70
     1
102
RTVSPropertyOp35
 70
     1
102
RTVSPropertyOp36
 70
     1
102
RTVSPropertyOp37
 70
     1
102
RTVSPropertyOp38
 70
     1
102
RTVSPropertyOp39
 70
     1
102
RTVSPropertyOp40
 70
     1
102
RTVSPropertyOp41
 70
     1
102
RTVSPropertyOp42
 70
     1
102
RTVSPropertyOp43
 70
     1
102
RTVSPropertyOp44
 70
     1
102
RTVSPropertyOp45
 70
     1
102
RTVSPropertyOp46
 70
     1
102
RTVSPropertyOp47
 70
     1
102
RTVSPropertyOp48
 70
     1
102
RTVSPropertyOp49
 70
     1
102
RTVSPropertyOp50
 70
     1
102
RTVSPropertyOp51
 70
     0
102
RTVSPropertyOp52
 70
     0
102
RTVSPropertyOp53
 70
     1
102
RTVSPropertyOp54
 70
     1
102
RTVSPropertyOp55
 70
     1
102
RTVSPropertyOp56
 70
     1
102
RTVSPropertyOp57
 70
     1
102
RTVSPropertyOp58
 70
     1
102
RTVSPropertyOp59
 70
     1
102
RTVSPropertyOp60
 70
     1
102
RTVSPropertyOp61
 70
     1
102
RTVSPropertyOp62
 70
     1
  0
XRECORD
  5
36B
102
{ACAD_REACTORS
330
36A
102
}
330
36A
100
AcDbXrecord
280
     1
102
RTVSPost2010Prop28
280
     0
102
RTVSPost2010PropOp28
 70
     1
102
RTVSPost2010Prop29
280
     1
102
RTVSPost2010PropOp29
 70
     1
102
RTVSPost2010Prop30
280
     1
102
RTVSPost2010PropOp30
 70
     1
102
RTVSPost2010Prop31
280
     0
102
RTVSPost2010PropOp31
 70
     1
102
RTVSPost2010Prop32
280
     0
102
RTVSPost2010PropOp32
 70
     1
102
RTVSPost2010Prop33
280
     0
102
RTVSPost2010PropOp33
 70
     1
102
RTVSPost2010Prop34
280
     0
102
RTVSPost2010PropOp34
 70
     1
102
RTVSPost2010Prop35
280
     0
102
RTVSPost2010PropOp35
 70
     1
102
RTVSPost2010Prop36
280
     0
102
RTVSPost2010PropOp36
 70
     1
102
RTVSPost2010Prop37
 90
       50
102
RTVSPost2010PropOp37
 70
     1
102
RTVSPost2010Prop38
140
0.0
102
RTVSPost2010PropOp38
 70
     1
102
RTVSPost2010Prop39
140
1.0
102
RTVSPost2010PropOp39
 70
     1
102
RTVSPost2010Prop40
 90
        0
102
RTVSPost2010PropOp40
 70
     1
102
RTVSPost2010Prop41ColorIndex
 90
       18
102
RTVSPost2010Prop41ColorRGB
 90
        0
102
RTVSPost2010PropOp41
 70
     1
102
RTVSPost2010Prop42
 90
       50
102
RTVSPost2010PropOp42
 70
     1
102
RTVSPost2010Prop43
 90
        3
102
RTVSPost2010PropOp43
 70
     1
102
RTVSPost2010Prop44ColorIndex
 90
        5
102
RTVSPost2010Prop44ColorRGB
 90
      255
102
RTVSPost2010PropOp44
 70
     1
102
RTVSPost2010Prop45
280
     0
102
RTVSPost2010PropOp45
 70
     1
102
RTVSPost2010Prop46
 90
       50
102
RTVSPost2010PropOp46
 70
     1
102
RTVSPost2010Prop47
 90
       50
102
RTVSPost2010PropOp47
 70
     1
102
RTVSPost2010Prop48
 90
       50
102
RTVSPost2010PropOp48
 70
     1
102
RTVSPost2010Prop49
280
     0
102
RTVSPost2010PropOp49
 70
     1
102
RTVSPost2010Prop50
 90
       50
102
RTVSPost2010PropOp50
 70
     1
102
RTVSPost2010Prop51ColorIndex
 90
      256
102
RTVSPost2010Prop51ColorRGB
 90
-16777216
102
RTVSPost2010PropOp51
 70
     0
102
RTVSPost2010Prop52
140
1.0
102
RTVSPost2010PropOp52
 70
     0
102
RTVSPost2010Prop53
 90
        2
102
RTVSPost2010PropOp53
 70
     1
102
RTVSPost2010Prop54
  1
strokes_ogs.tif
102
RTVSPost2010PropOp54
 70
     1
102
RTVSPost2010Prop55
280
     0
102
RTVSPost2010PropOp55
 70
     1
102
RTVSPost2010Prop56
140
1.0
102
RTVSPost2010PropOp56
 70
     1
102
RTVSPost2010Prop57
140
1.0
102
RTVSPost2010PropOp57
 70
     1
102
RTVSPropertyOp0
 70
     1
102
RTVSPropertyOp1
 70
     1
102
RTVSPropertyOp2
 70
     1
102
RTVSPropertyOp3
 70
     1
102
RTVSPropertyOp4
 70
     1
102
RTVSPropertyOp5
 70
     1
102
RTVSPropertyOp6
 70
     1
102
RTVSPropertyOp7
 70
     1
102
RTVSPropertyOp8
 70
     1
102
RTVSPropertyOp9
 70
     1
102
RTVSPropertyOp10
 70
     1
102
RTVSPropertyOp11
 70
     1
102
RTVSPropertyOp12
 70
     1
102
RTVSPropertyOp13
 70
     1
102
RTVSPropertyOp14
 70
     1
102
RTVSPropertyOp15
 70
     1
102
RTVSPropertyOp16
 70
     1
102
RTVSPropertyOp17
 70
     1
102
RTVSPropertyOp18
 70
     1
102
RTVSPropertyOp19
 70
     1
102
RTVSPropertyOp20
 70
     1
102
RTVSPropertyOp21
 70
     1
102
RTVSPropertyOp22
 70
     1
102
RTVSPropertyOp23
 70
     1
102
RTVSPropertyOp24
 70
     1
102
RTVSPropertyOp25
 70
     1
102
RTVSPropertyOp26
 70
     1
102
RTVSPropertyOp27
 70
     1
102
RTVSPropertyOp28
 70
     1
102
RTVSPropertyOp29
 70
     1
102
RTVSPropertyOp30
 70
     1
102
RTVSPropertyOp31
 70
     1
102
RTVSPropertyOp32
 70
     1
102
RTVSPropertyOp33
 70
     1
102
RTVSPropertyOp34
 70
     1
102
RTVSPropertyOp35
 70
     1
102
RTVSPropertyOp36
 70
     1
102
RTVSPropertyOp37
 70
     1
102
RTVSPropertyOp38
 70
     1
102
RTVSPropertyOp39
 70
     1
102
RTVSPropertyOp40
 70
     1
102
RTVSPropertyOp41
 70
     1
102
RTVSPropertyOp42
 70
     1
102
RTVSPropertyOp43
 70
     1
102
RTVSPropertyOp44
 70
     1
102
RTVSPropertyOp45
 70
     1
102
RTVSPropertyOp46
 70
     1
102
RTVSPropertyOp47
 70
     1
102
RTVSPropertyOp48
 70
     1
102
RTVSPropertyOp49
 70
     1
102
RTVSPropertyOp50
 70
     1
102
RTVSPropertyOp51
 70
     0
102
RTVSPropertyOp52
 70
     0
102
RTVSPropertyOp53
 70
     1
102
RTVSPropertyOp54
 70
     1
102
RTVSPropertyOp55
 70
     1
102
RTVSPropertyOp56
 70
     1
102
RTVSPropertyOp57
 70
     1
102
RTVSPropertyOp58
 70
     1
102
RTVSPropertyOp59
 70
     1
102
RTVSPropertyOp60
 70
     1
102
RTVSPropertyOp61
 70
     1
102
RTVSPropertyOp62
 70
     1
  0
XRECORD
  5
36D
102
{ACAD_REACTORS
330
36C
102
}
330
36C
100
AcDbXrecord
280
     1
102
RTVSPost2010Prop28
280
     0
102
RTVSPost2010PropOp28
 70
     1
102
RTVSPost2010Prop29
280
     1
102
RTVSPost2010PropOp29
 70
     1
102
RTVSPost2010Prop30
280
     1
102
RTVSPost2010PropOp30
 70
     1
102
RTVSPost2010Prop31
280
     0
102
RTVSPost2010PropOp31
 70
     1
102
RTVSPost2010Prop32
280
     0
102
RTVSPost2010PropOp32
 70
     1
102
RTVSPost2010Prop33
280
     0
102
RTVSPost2010PropOp33
 70
     1
102
RTVSPost2010Prop34
280
     0
102
RTVSPost2010PropOp34
 70
     1
102
RTVSPost2010Prop35
280
     0
102
RTVSPost2010PropOp35
 70
     1
102
RTVSPost2010Prop36
280
     0
102
RTVSPost2010PropOp36
 70
     1
102
RTVSPost2010Prop37
 90
       50
102
RTVSPost2010PropOp37
 70
     1
102
RTVSPost2010Prop38
140
0.0
102
RTVSPost2010PropOp38
 70
     1
102
RTVSPost2010Prop39
140
1.0
102
RTVSPost2010PropOp39
 70
     1
102
RTVSPost2010Prop40
 90
        0
102
RTVSPost2010PropOp40
 70
     1
102
RTVSPost2010Prop41ColorIndex
 90
       18
102
RTVSPost2010Prop41ColorRGB
 90
        0
102
RTVSPost2010PropOp41
 70
     1
102
RTVSPost2010Prop42
 90
       50
102
RTVSPost2010PropOp42
 70
     1
102
RTVSPost2010Prop43
 90
        3
102
RTVSPost2010PropOp43
 70
     1
102
RTVSPost2010Prop44ColorIndex
 90
        5
102
RTVSPost2010Prop44ColorRGB
 90
      255
102
RTVSPost2010PropOp44
 70
     1
102
RTVSPost2010Prop45
280
     0
102
RTVSPost2010PropOp45
 70
     1
102
RTVSPost2010Prop46
 90
       50
102
RTVSPost2010PropOp46
 70
     1
102
RTVSPost2010Prop47
 90
       50
102
RTVSPost2010PropOp47
 70
     1
102
RTVSPost2010Prop48
 90
       50
102
RTVSPost2010PropOp48
 70
     1
102
RTVSPost2010Prop49
280
     0
102
RTVSPost2010PropOp49
 70
     1
102
RTVSPost2010Prop50
 90
       50
102
RTVSPost2010PropOp50
 70
     1
102
RTVSPost2010Prop51ColorIndex
 90
      256
102
RTVSPost2010Prop51ColorRGB
 90
-16777216
102
RTVSPost2010PropOp51
 70
     0
102
RTVSPost2010Prop52
140
1.0
102
RTVSPost2010PropOp52
 70
     0
102
RTVSPost2010Prop53
 90
        2
102
RTVSPost2010PropOp53
 70
     1
102
RTVSPost2010Prop54
  1
strokes_ogs.tif
102
RTVSPost2010PropOp54
 70
     1
102
RTVSPost2010Prop55
280
     0
102
RTVSPost2010PropOp55
 70
     1
102
RTVSPost2010Prop56
140
1.0
102
RTVSPost2010PropOp56
 70
     1
102
RTVSPost2010Prop57
140
1.0
102
RTVSPost2010PropOp57
 70
     1
102
RTVSPropertyOp0
 70
     1
102
RTVSPropertyOp1
 70
     1
102
RTVSPropertyOp2
 70
     1
102
RTVSPropertyOp3
 70
     1
102
RTVSPropertyOp4
 70
     1
102
RTVSPropertyOp5
 70
     1
102
RTVSPropertyOp6
 70
     1
102
RTVSPropertyOp7
 70
     1
102
RTVSPropertyOp8
 70
     1
102
RTVSPropertyOp9
 70
     1
102
RTVSPropertyOp10
 70
     1
102
RTVSPropertyOp11
 70
     1
102
RTVSPropertyOp12
 70
     1
102
RTVSPropertyOp13
 70
     1
102
RTVSPropertyOp14
 70
     1
102
RTVSPropertyOp15
 70
     1
102
RTVSPropertyOp16
 70
     1
102
RTVSPropertyOp17
 70
     1
102
RTVSPropertyOp18
 70
     1
102
RTVSPropertyOp19
 70
     1
102
RTVSPropertyOp20
 70
     1
102
RTVSPropertyOp21
 70
     1
102
RTVSPropertyOp22
 70
     1
102
RTVSPropertyOp23
 70
     1
102
RTVSPropertyOp24
 70
     1
102
RTVSPropertyOp25
 70
     1
102
RTVSPropertyOp26
 70
     1
102
RTVSPropertyOp27
 70
     1
102
RTVSPropertyOp28
 70
     1
102
RTVSPropertyOp29
 70
     1
102
RTVSPropertyOp30
 70
     1
102
RTVSPropertyOp31
 70
     1
102
RTVSPropertyOp32
 70
     1
102
RTVSPropertyOp33
 70
     1
102
RTVSPropertyOp34
 70
     1
102
RTVSPropertyOp35
 70
     1
102
RTVSPropertyOp36
 70
     1
102
RTVSPropertyOp37
 70
     1
102
RTVSPropertyOp38
 70
     1
102
RTVSPropertyOp39
 70
     1
102
RTVSPropertyOp40
 70
     1
102
RTVSPropertyOp41
 70
     1
102
RTVSPropertyOp42
 70
     1
102
RTVSPropertyOp43
 70
     1
102
RTVSPropertyOp44
 70
     1
102
RTVSPropertyOp45
 70
     1
102
RTVSPropertyOp46
 70
     1
102
RTVSPropertyOp47
 70
     1
102
RTVSPropertyOp48
 70
     1
102
RTVSPropertyOp49
 70
     1
102
RTVSPropertyOp50
 70
     1
102
RTVSPropertyOp51
 70
     0
102
RTVSPropertyOp52
 70
     0
102
RTVSPropertyOp53
 70
     1
102
RTVSPropertyOp54
 70
     1
102
RTVSPropertyOp55
 70
     1
102
RTVSPropertyOp56
 70
     1
102
RTVSPropertyOp57
 70
     1
102
RTVSPropertyOp58
 70
     1
102
RTVSPropertyOp59
 70
     1
102
RTVSPropertyOp60
 70
     1
102
RTVSPropertyOp61
 70
     1
102
RTVSPropertyOp62
 70
     1
  0
XRECORD
  5
37D
102
{ACAD_REACTORS
330
37C
102
}
330
37C
100
AcDbXrecord
280
     1
102
RTVSPost2010Prop28
280
     0
102
RTVSPost2010PropOp28
 70
     0
102
RTVSPost2010Prop29
280
     1
102
RTVSPost2010PropOp29
 70
     0
102
RTVSPost2010Prop30
280
     1
102
RTVSPost2010PropOp30
 70
     0
102
RTVSPost2010Prop31
280
     0
102
RTVSPost2010PropOp31
 70
     0
102
RTVSPost2010Prop32
280
     0
102
RTVSPost2010PropOp32
 70
     0
102
RTVSPost2010Prop33
280
     0
102
RTVSPost2010PropOp33
 70
     0
102
RTVSPost2010Prop34
280
     0
102
RTVSPost2010PropOp34
 70
     0
102
RTVSPost2010Prop35
280
     0
102
RTVSPost2010PropOp35
 70
     0
102
RTVSPost2010Prop36
280
     0
102
RTVSPost2010PropOp36
 70
     0
102
RTVSPost2010Prop37
 90
       50
102
RTVSPost2010PropOp37
 70
     0
102
RTVSPost2010Prop38
140
0.0
102
RTVSPost2010PropOp38
 70
     0
102
RTVSPost2010Prop39
140
1.0
102
RTVSPost2010PropOp39
 70
     0
102
RTVSPost2010Prop40
 90
        0
102
RTVSPost2010PropOp40
 70
     0
102
RTVSPost2010Prop41ColorIndex
 90
       18
102
RTVSPost2010Prop41ColorRGB
 90
        0
102
RTVSPost2010PropOp41
 70
     0
102
RTVSPost2010Prop42
 90
       50
102
RTVSPost2010PropOp42
 70
     0
102
RTVSPost2010Prop43
 90
        3
102
RTVSPost2010PropOp43
 70
     0
102
RTVSPost2010Prop44ColorIndex
 90
        5
102
RTVSPost2010Prop44ColorRGB
 90
      255
102
RTVSPost2010PropOp44
 70
     0
102
RTVSPost2010Prop45
280
     0
102
RTVSPost2010PropOp45
 70
     0
102
RTVSPost2010Prop46
 90
       50
102
RTVSPost2010PropOp46
 70
     0
102
RTVSPost2010Prop47
 90
       50
102
RTVSPost2010PropOp47
 70
     0
102
RTVSPost2010Prop48
 90
       50
102
RTVSPost2010PropOp48
 70
     0
102
RTVSPost2010Prop49
280
     0
102
RTVSPost2010PropOp49
 70
     0
102
RTVSPost2010Prop50
 90
       50
102
RTVSPost2010PropOp50
 70
     0
102
RTVSPost2010Prop51ColorIndex
 90
      256
102
RTVSPost2010Prop51ColorRGB
 90
-16777216
102
RTVSPost2010PropOp51
 70
     0
102
RTVSPost2010Prop52
140
1.0
102
RTVSPost2010PropOp52
 70
     0
102
RTVSPost2010Prop53
 90
        2
102
RTVSPost2010PropOp53
 70
     0
102
RTVSPost2010Prop54
  1
strokes_ogs.tif
102
RTVSPost2010PropOp54
 70
     0
102
RTVSPost2010Prop55
280
     0
102
RTVSPost2010PropOp55
 70
     0
102
RTVSPost2010Prop56
140
1.0
102
RTVSPost2010PropOp56
 70
     0
102
RTVSPost2010Prop57
140
1.0
102
RTVSPost2010PropOp57
 70
     0
102
RTVSPropertyOp0
 70
     0
102
RTVSPropertyOp1
 70
     0
102
RTVSPropertyOp2
 70
     0
102
RTVSPropertyOp3
 70
     0
102
RTVSPropertyOp4
 70
     0
102
RTVSPropertyOp5
 70
     0
102
RTVSPropertyOp6
 70
     0
102
RTVSPropertyOp7
 70
     0
102
RTVSPropertyOp8
 70
     0
102
RTVSPropertyOp9
 70
     0
102
RTVSPropertyOp10
 70
     0
102
RTVSPropertyOp11
 70
     0
102
RTVSPropertyOp12
 70
     0
102
RTVSPropertyOp13
 70
     0
102
RTVSPropertyOp14
 70
     2
102
RTVSPropertyOp15
 70
     0
102
RTVSPropertyOp16
 70
     0
102
RTVSPropertyOp17
 70
     0
102
RTVSPropertyOp18
 70
     0
102
RTVSPropertyOp19
 70
     0
102
RTVSPropertyOp20
 70
     0
102
RTVSPropertyOp21
 70
     0
102
RTVSPropertyOp22
 70
     0
102
RTVSPropertyOp23
 70
     0
102
RTVSPropertyOp24
 70
     0
102
RTVSPropertyOp25
 70
     0
102
RTVSPropertyOp26
 70
     0
102
RTVSPropertyOp27
 70
     0
102
RTVSPropertyOp28
 70
     0
102
RTVSPropertyOp29
 70
     0
102
RTVSPropertyOp30
 70
     0
102
RTVSPropertyOp31
 70
     0
102
RTVSPropertyOp32
 70
     0
102
RTVSPropertyOp33
 70
     0
102
RTVSPropertyOp34
 70
     0
102
RTVSPropertyOp35
 70
     0
102
RTVSPropertyOp36
 70
     0
102
RTVSPropertyOp37
 70
     0
102
RTVSPropertyOp38
 70
     0
102
RTVSPropertyOp39
 70
     0
102
RTVSPropertyOp40
 70
     0
102
RTVSPropertyOp41
 70
     0
102
RTVSPropertyOp42
 70
     0
102
RTVSPropertyOp43
 70
     0
102
RTVSPropertyOp44
 70
     0
102
RTVSPropertyOp45
 70
     0
102
RTVSPropertyOp46
 70
     0
102
RTVSPropertyOp47
 70
     0
102
RTVSPropertyOp48
 70
     0
102
RTVSPropertyOp49
 70
     0
102
RTVSPropertyOp50
 70
     0
102
RTVSPropertyOp51
 70
     0
102
RTVSPropertyOp52
 70
     0
102
RTVSPropertyOp53
 70
     0
102
RTVSPropertyOp54
 70
     0
102
RTVSPropertyOp55
 70
     0
102
RTVSPropertyOp56
 70
     0
102
RTVSPropertyOp57
 70
     0
102
RTVSPropertyOp58
 70
     1
102
RTVSPropertyOp59
 70
     1
102
RTVSPropertyOp60
 70
     1
102
RTVSPropertyOp61
 70
     1
102
RTVSPropertyOp62
 70
     1
  0
XRECORD
  5
375
102
{ACAD_REACTORS
330
374
102
}
330
374
100
AcDbXrecord
280
     1
102
RTVSPost2010Prop28
280
     0
102
RTVSPost2010PropOp28
 70
     1
102
RTVSPost2010Prop29
280
     1
102
RTVSPost2010PropOp29
 70
     1
102
RTVSPost2010Prop30
280
     1
102
RTVSPost2010PropOp30
 70
     1
102
RTVSPost2010Prop31
280
     0
102
RTVSPost2010PropOp31
 70
     1
102
RTVSPost2010Prop32
280
     0
102
RTVSPost2010PropOp32
 70
     1
102
RTVSPost2010Prop33
280
     0
102
RTVSPost2010PropOp33
 70
     1
102
RTVSPost2010Prop34
280
     0
102
RTVSPost2010PropOp34
 70
     1
102
RTVSPost2010Prop35
280
     0
102
RTVSPost2010PropOp35
 70
     1
102
RTVSPost2010Prop36
280
     0
102
RTVSPost2010PropOp36
 70
     1
102
RTVSPost2010Prop37
 90
       50
102
RTVSPost2010PropOp37
 70
     1
102
RTVSPost2010Prop38
140
0.0
102
RTVSPost2010PropOp38
 70
     1
102
RTVSPost2010Prop39
140
1.0
102
RTVSPost2010PropOp39
 70
     1
102
RTVSPost2010Prop40
 90
        0
102
RTVSPost2010PropOp40
 70
     1
102
RTVSPost2010Prop41ColorIndex
 90
       18
102
RTVSPost2010Prop41ColorRGB
 90
        0
102
RTVSPost2010PropOp41
 70
     1
102
RTVSPost2010Prop42
 90
       50
102
RTVSPost2010PropOp42
 70
     1
102
RTVSPost2010Prop43
 90
        3
102
RTVSPost2010PropOp43
 70
     1
102
RTVSPost2010Prop44ColorIndex
 90
        5
102
RTVSPost2010Prop44ColorRGB
 90
      255
102
RTVSPost2010PropOp44
 70
     1
102
RTVSPost2010Prop45
280
     0
102
RTVSPost2010PropOp45
 70
     1
102
RTVSPost2010Prop46
 90
       50
102
RTVSPost2010PropOp46
 70
     1
102
RTVSPost2010Prop47
 90
       50
102
RTVSPost2010PropOp47
 70
     1
102
RTVSPost2010Prop48
 90
       50
102
RTVSPost2010PropOp48
 70
     1
102
RTVSPost2010Prop49
280
     0
102
RTVSPost2010PropOp49
 70
     1
102
RTVSPost2010Prop50
 90
       50
102
RTVSPost2010PropOp50
 70
     1
102
RTVSPost2010Prop51ColorIndex
 90
      256
102
RTVSPost2010Prop51ColorRGB
 90
-16777216
102
RTVSPost2010PropOp51
 70
     0
102
RTVSPost2010Prop52
140
1.0
102
RTVSPost2010PropOp52
 70
     0
102
RTVSPost2010Prop53
 90
        2
102
RTVSPost2010PropOp53
 70
     1
102
RTVSPost2010Prop54
  1
strokes_ogs.tif
102
RTVSPost2010PropOp54
 70
     1
102
RTVSPost2010Prop55
280
     0
102
RTVSPost2010PropOp55
 70
     1
102
RTVSPost2010Prop56
140
1.0
102
RTVSPost2010PropOp56
 70
     1
102
RTVSPost2010Prop57
140
1.0
102
RTVSPost2010PropOp57
 70
     1
102
RTVSPropertyOp0
 70
     1
102
RTVSPropertyOp1
 70
     1
102
RTVSPropertyOp2
 70
     1
102
RTVSPropertyOp3
 70
     1
102
RTVSPropertyOp4
 70
     1
102
RTVSPropertyOp5
 70
     1
102
RTVSPropertyOp6
 70
     1
102
RTVSPropertyOp7
 70
     1
102
RTVSPropertyOp8
 70
     1
102
RTVSPropertyOp9
 70
     1
102
RTVSPropertyOp10
 70
     1
102
RTVSPropertyOp11
 70
     1
102
RTVSPropertyOp12
 70
     1
102
RTVSPropertyOp13
 70
     1
102
RTVSPropertyOp14
 70
     1
102
RTVSPropertyOp15
 70
     1
102
RTVSPropertyOp16
 70
     1
102
RTVSPropertyOp17
 70
     1
102
RTVSPropertyOp18
 70
     1
102
RTVSPropertyOp19
 70
     1
102
RTVSPropertyOp20
 70
     1
102
RTVSPropertyOp21
 70
     1
102
RTVSPropertyOp22
 70
     1
102
RTVSPropertyOp23
 70
     1
102
RTVSPropertyOp24
 70
     1
102
RTVSPropertyOp25
 70
     1
102
RTVSPropertyOp26
 70
     1
102
RTVSPropertyOp27
 70
     1
102
RTVSPropertyOp28
 70
     1
102
RTVSPropertyOp29
 70
     1
102
RTVSPropertyOp30
 70
     1
102
RTVSPropertyOp31
 70
     1
102
RTVSPropertyOp32
 70
     1
102
RTVSPropertyOp33
 70
     1
102
RTVSPropertyOp34
 70
     1
102
RTVSPropertyOp35
 70
     1
102
RTVSPropertyOp36
 70
     1
102
RTVSPropertyOp37
 70
     1
102
RTVSPropertyOp38
 70
     1
102
RTVSPropertyOp39
 70
     1
102
RTVSPropertyOp40
 70
     1
102
RTVSPropertyOp41
 70
     1
102
RTVSPropertyOp42
 70
     1
102
RTVSPropertyOp43
 70
     1
102
RTVSPropertyOp44
 70
     1
102
RTVSPropertyOp45
 70
     1
102
RTVSPropertyOp46
 70
     1
102
RTVSPropertyOp47
 70
     1
102
RTVSPropertyOp48
 70
     1
102
RTVSPropertyOp49
 70
     1
102
RTVSPropertyOp50
 70
     1
102
RTVSPropertyOp51
 70
     0
102
RTVSPropertyOp52
 70
     0
102
RTVSPropertyOp53
 70
     1
102
RTVSPropertyOp54
 70
     1
102
RTVSPropertyOp55
 70
     1
102
RTVSPropertyOp56
 70
     1
102
RTVSPropertyOp57
 70
     1
102
RTVSPropertyOp58
 70
     1
102
RTVSPropertyOp59
 70
     1
102
RTVSPropertyOp60
 70
     1
102
RTVSPropertyOp61
 70
     1
102
RTVSPropertyOp62
 70
     1
  0
XRECORD
  5
359
102
{ACAD_REACTORS
330
358
102
}
330
358
100
AcDbXrecord
280
     1
102
RTVSPost2010Prop28
280
     0
102
RTVSPost2010PropOp28
 70
     1
102
RTVSPost2010Prop29
280
     1
102
RTVSPost2010PropOp29
 70
     1
102
RTVSPost2010Prop30
280
     1
102
RTVSPost2010PropOp30
 70
     1
102
RTVSPost2010Prop31
280
     0
102
RTVSPost2010PropOp31
 70
     1
102
RTVSPost2010Prop32
280
     0
102
RTVSPost2010PropOp32
 70
     1
102
RTVSPost2010Prop33
280
     0
102
RTVSPost2010PropOp33
 70
     1
102
RTVSPost2010Prop34
280
     0
102
RTVSPost2010PropOp34
 70
     1
102
RTVSPost2010Prop35
280
     0
102
RTVSPost2010PropOp35
 70
     1
102
RTVSPost2010Prop36
280
     0
102
RTVSPost2010PropOp36
 70
     1
102
RTVSPost2010Prop37
 90
       50
102
RTVSPost2010PropOp37
 70
     1
102
RTVSPost2010Prop38
140
0.0
102
RTVSPost2010PropOp38
 70
     1
102
RTVSPost2010Prop39
140
1.0
102
RTVSPost2010PropOp39
 70
     1
102
RTVSPost2010Prop40
 90
        0
102
RTVSPost2010PropOp40
 70
     1
102
RTVSPost2010Prop41ColorIndex
 90
       18
102
RTVSPost2010Prop41ColorRGB
 90
        0
102
RTVSPost2010PropOp41
 70
     1
102
RTVSPost2010Prop42
 90
       50
102
RTVSPost2010PropOp42
 70
     1
102
RTVSPost2010Prop43
 90
        3
102
RTVSPost2010PropOp43
 70
     1
102
RTVSPost2010Prop44ColorIndex
 90
        5
102
RTVSPost2010Prop44ColorRGB
 90
      255
102
RTVSPost2010PropOp44
 70
     1
102
RTVSPost2010Prop45
280
     0
102
RTVSPost2010PropOp45
 70
     1
102
RTVSPost2010Prop46
 90
       50
102
RTVSPost2010PropOp46
 70
     1
102
RTVSPost2010Prop47
 90
       50
102
RTVSPost2010PropOp47
 70
     1
102
RTVSPost2010Prop48
 90
       50
102
RTVSPost2010PropOp48
 70
     1
102
RTVSPost2010Prop49
280
     0
102
RTVSPost2010PropOp49
 70
     1
102
RTVSPost2010Prop50
 90
       50
102
RTVSPost2010PropOp50
 70
     1
102
RTVSPost2010Prop51ColorIndex
 90
      256
102
RTVSPost2010Prop51ColorRGB
 90
-16777216
102
RTVSPost2010PropOp51
 70
     0
102
RTVSPost2010Prop52
140
1.0
102
RTVSPost2010PropOp52
 70
     0
102
RTVSPost2010Prop53
 90
        2
102
RTVSPost2010PropOp53
 70
     1
102
RTVSPost2010Prop54
  1
strokes_ogs.tif
102
RTVSPost2010PropOp54
 70
     1
102
RTVSPost2010Prop55
280
     0
102
RTVSPost2010PropOp55
 70
     1
102
RTVSPost2010Prop56
140
1.0
102
RTVSPost2010PropOp56
 70
     1
102
RTVSPost2010Prop57
140
1.0
102
RTVSPost2010PropOp57
 70
     1
102
RTVSPropertyOp0
 70
     1
102
RTVSPropertyOp1
 70
     1
102
RTVSPropertyOp2
 70
     1
102
RTVSPropertyOp3
 70
     1
102
RTVSPropertyOp4
 70
     1
102
RTVSPropertyOp5
 70
     1
102
RTVSPropertyOp6
 70
     1
102
RTVSPropertyOp7
 70
     1
102
RTVSPropertyOp8
 70
     1
102
RTVSPropertyOp9
 70
     1
102
RTVSPropertyOp10
 70
     1
102
RTVSPropertyOp11
 70
     1
102
RTVSPropertyOp12
 70
     1
102
RTVSPropertyOp13
 70
     1
102
RTVSPropertyOp14
 70
     1
102
RTVSPropertyOp15
 70
     1
102
RTVSPropertyOp16
 70
     1
102
RTVSPropertyOp17
 70
     1
102
RTVSPropertyOp18
 70
     1
102
RTVSPropertyOp19
 70
     1
102
RTVSPropertyOp20
 70
     1
102
RTVSPropertyOp21
 70
     1
102
RTVSPropertyOp22
 70
     1
102
RTVSPropertyOp23
 70
     1
102
RTVSPropertyOp24
 70
     1
102
RTVSPropertyOp25
 70
     1
102
RTVSPropertyOp26
 70
     1
102
RTVSPropertyOp27
 70
     1
102
RTVSPropertyOp28
 70
     1
102
RTVSPropertyOp29
 70
     1
102
RTVSPropertyOp30
 70
     1
102
RTVSPropertyOp31
 70
     1
102
RTVSPropertyOp32
 70
     1
102
RTVSPropertyOp33
 70
     1
102
RTVSPropertyOp34
 70
     1
102
RTVSPropertyOp35
 70
     1
102
RTVSPropertyOp36
 70
     1
102
RTVSPropertyOp37
 70
     1
102
RTVSPropertyOp38
 70
     1
102
RTVSPropertyOp39
 70
     1
102
RTVSPropertyOp40
 70
     1
102
RTVSPropertyOp41
 70
     1
102
RTVSPropertyOp42
 70
     1
102
RTVSPropertyOp43
 70
     1
102
RTVSPropertyOp44
 70
     1
102
RTVSPropertyOp45
 70
     1
102
RTVSPropertyOp46
 70
     1
102
RTVSPropertyOp47
 70
     1
102
RTVSPropertyOp48
 70
     1
102
RTVSPropertyOp49
 70
     1
102
RTVSPropertyOp50
 70
     1
102
RTVSPropertyOp51
 70
     0
102
RTVSPropertyOp52
 70
     0
102
RTVSPropertyOp53
 70
     1
102
RTVSPropertyOp54
 70
     1
102
RTVSPropertyOp55
 70
     1
102
RTVSPropertyOp56
 70
     1
102
RTVSPropertyOp57
 70
     1
102
RTVSPropertyOp58
 70
     1
102
RTVSPropertyOp59
 70
     1
102
RTVSPropertyOp60
 70
     1
102
RTVSPropertyOp61
 70
     1
102
RTVSPropertyOp62
 70
     1
  0
XRECORD
  5
35B
102
{ACAD_REACTORS
330
35A
102
}
330
35A
100
AcDbXrecord
280
     1
102
RTVSPost2010Prop28
280
     0
102
RTVSPost2010PropOp28
 70
     1
102
RTVSPost2010Prop29
280
     1
102
RTVSPost2010PropOp29
 70
     1
102
RTVSPost2010Prop30
280
     1
102
RTVSPost2010PropOp30
 70
     1
102
RTVSPost2010Prop31
280
     0
102
RTVSPost2010PropOp31
 70
     1
102
RTVSPost2010Prop32
280
     0
102
RTVSPost2010PropOp32
 70
     1
102
RTVSPost2010Prop33
280
     0
102
RTVSPost2010PropOp33
 70
     1
102
RTVSPost2010Prop34
280
     0
102
RTVSPost2010PropOp34
 70
     1
102
RTVSPost2010Prop35
280
     0
102
RTVSPost2010PropOp35
 70
     1
102
RTVSPost2010Prop36
280
     0
102
RTVSPost2010PropOp36
 70
     1
102
RTVSPost2010Prop37
 90
       50
102
RTVSPost2010PropOp37
 70
     1
102
RTVSPost2010Prop38
140
0.0
102
RTVSPost2010PropOp38
 70
     1
102
RTVSPost2010Prop39
140
1.0
102
RTVSPost2010PropOp39
 70
     1
102
RTVSPost2010Prop40
 90
        0
102
RTVSPost2010PropOp40
 70
     1
102
RTVSPost2010Prop41ColorIndex
 90
       18
102
RTVSPost2010Prop41ColorRGB
 90
        0
102
RTVSPost2010PropOp41
 70
     1
102
RTVSPost2010Prop42
 90
       50
102
RTVSPost2010PropOp42
 70
     1
102
RTVSPost2010Prop43
 90
        3
102
RTVSPost2010PropOp43
 70
     1
102
RTVSPost2010Prop44ColorIndex
 90
        5
102
RTVSPost2010Prop44ColorRGB
 90
      255
102
RTVSPost2010PropOp44
 70
     1
102
RTVSPost2010Prop45
280
     0
102
RTVSPost2010PropOp45
 70
     1
102
RTVSPost2010Prop46
 90
       50
102
RTVSPost2010PropOp46
 70
     1
102
RTVSPost2010Prop47
 90
       50
102
RTVSPost2010PropOp47
 70
     1
102
RTVSPost2010Prop48
 90
       50
102
RTVSPost2010PropOp48
 70
     1
102
RTVSPost2010Prop49
280
     0
102
RTVSPost2010PropOp49
 70
     1
102
RTVSPost2010Prop50
 90
       50
102
RTVSPost2010PropOp50
 70
     1
102
RTVSPost2010Prop51ColorIndex
 90
      256
102
RTVSPost2010Prop51ColorRGB
 90
-16777216
102
RTVSPost2010PropOp51
 70
     0
102
RTVSPost2010Prop52
140
1.0
102
RTVSPost2010PropOp52
 70
     0
102
RTVSPost2010Prop53
 90
        2
102
RTVSPost2010PropOp53
 70
     1
102
RTVSPost2010Prop54
  1
strokes_ogs.tif
102
RTVSPost2010PropOp54
 70
     1
102
RTVSPost2010Prop55
280
     0
102
RTVSPost2010PropOp55
 70
     1
102
RTVSPost2010Prop56
140
1.0
102
RTVSPost2010PropOp56
 70
     1
102
RTVSPost2010Prop57
140
1.0
102
RTVSPost2010PropOp57
 70
     1
102
RTVSPropertyOp0
 70
     1
102
RTVSPropertyOp1
 70
     1
102
RTVSPropertyOp2
 70
     1
102
RTVSPropertyOp3
 70
     1
102
RTVSPropertyOp4
 70
     1
102
RTVSPropertyOp5
 70
     1
102
RTVSPropertyOp6
 70
     1
102
RTVSPropertyOp7
 70
     1
102
RTVSPropertyOp8
 70
     1
102
RTVSPropertyOp9
 70
     1
102
RTVSPropertyOp10
 70
     1
102
RTVSPropertyOp11
 70
     1
102
RTVSPropertyOp12
 70
     1
102
RTVSPropertyOp13
 70
     1
102
RTVSPropertyOp14
 70
     1
102
RTVSPropertyOp15
 70
     1
102
RTVSPropertyOp16
 70
     1
102
RTVSPropertyOp17
 70
     1
102
RTVSPropertyOp18
 70
     1
102
RTVSPropertyOp19
 70
     1
102
RTVSPropertyOp20
 70
     1
102
RTVSPropertyOp21
 70
     1
102
RTVSPropertyOp22
 70
     1
102
RTVSPropertyOp23
 70
     1
102
RTVSPropertyOp24
 70
     1
102
RTVSPropertyOp25
 70
     1
102
RTVSPropertyOp26
 70
     1
102
RTVSPropertyOp27
 70
     1
102
RTVSPropertyOp28
 70
     1
102
RTVSPropertyOp29
 70
     1
102
RTVSPropertyOp30
 70
     1
102
RTVSPropertyOp31
 70
     1
102
RTVSPropertyOp32
 70
     1
102
RTVSPropertyOp33
 70
     1
102
RTVSPropertyOp34
 70
     1
102
RTVSPropertyOp35
 70
     1
102
RTVSPropertyOp36
 70
     1
102
RTVSPropertyOp37
 70
     1
102
RTVSPropertyOp38
 70
     1
102
RTVSPropertyOp39
 70
     1
102
RTVSPropertyOp40
 70
     1
102
RTVSPropertyOp41
 70
     1
102
RTVSPropertyOp42
 70
     1
102
RTVSPropertyOp43
 70
     1
102
RTVSPropertyOp44
 70
     1
102
RTVSPropertyOp45
 70
     1
102
RTVSPropertyOp46
 70
     1
102
RTVSPropertyOp47
 70
     1
102
RTVSPropertyOp48
 70
     1
102
RTVSPropertyOp49
 70
     1
102
RTVSPropertyOp50
 70
     1
102
RTVSPropertyOp51
 70
     0
102
RTVSPropertyOp52
 70
     0
102
RTVSPropertyOp53
 70
     1
102
RTVSPropertyOp54
 70
     1
102
RTVSPropertyOp55
 70
     1
102
RTVSPropertyOp56
 70
     1
102
RTVSPropertyOp57
 70
     1
102
RTVSPropertyOp58
 70
     1
102
RTVSPropertyOp59
 70
     1
102
RTVSPropertyOp60
 70
     1
102
RTVSPropertyOp61
 70
     1
102
RTVSPropertyOp62
 70
     1
  0
XRECORD
  5
35D
102
{ACAD_REACTORS
330
35C
102
}
330
35C
100
AcDbXrecord
280
     1
102
RTVSPost2010Prop28
280
     0
102
RTVSPost2010PropOp28
 70
     1
102
RTVSPost2010Prop29
280
     1
102
RTVSPost2010PropOp29
 70
     1
102
RTVSPost2010Prop30
280
     1
102
RTVSPost2010PropOp30
 70
     1
102
RTVSPost2010Prop31
280
     0
102
RTVSPost2010PropOp31
 70
     1
102
RTVSPost2010Prop32
280
     0
102
RTVSPost2010PropOp32
 70
     1
102
RTVSPost2010Prop33
280
     0
102
RTVSPost2010PropOp33
 70
     1
102
RTVSPost2010Prop34
280
     0
102
RTVSPost2010PropOp34
 70
     1
102
RTVSPost2010Prop35
280
     0
102
RTVSPost2010PropOp35
 70
     1
102
RTVSPost2010Prop36
280
     0
102
RTVSPost2010PropOp36
 70
     1
102
RTVSPost2010Prop37
 90
       50
102
RTVSPost2010PropOp37
 70
     1
102
RTVSPost2010Prop38
140
0.0
102
RTVSPost2010PropOp38
 70
     1
102
RTVSPost2010Prop39
140
1.0
102
RTVSPost2010PropOp39
 70
     1
102
RTVSPost2010Prop40
 90
        0
102
RTVSPost2010PropOp40
 70
     1
102
RTVSPost2010Prop41ColorIndex
 90
       18
102
RTVSPost2010Prop41ColorRGB
 90
        0
102
RTVSPost2010PropOp41
 70
     1
102
RTVSPost2010Prop42
 90
       50
102
RTVSPost2010PropOp42
 70
     1
102
RTVSPost2010Prop43
 90
        3
102
RTVSPost2010PropOp43
 70
     1
102
RTVSPost2010Prop44ColorIndex
 90
        5
102
RTVSPost2010Prop44ColorRGB
 90
      255
102
RTVSPost2010PropOp44
 70
     1
102
RTVSPost2010Prop45
280
     0
102
RTVSPost2010PropOp45
 70
     1
102
RTVSPost2010Prop46
 90
       50
102
RTVSPost2010PropOp46
 70
     1
102
RTVSPost2010Prop47
 90
       50
102
RTVSPost2010PropOp47
 70
     1
102
RTVSPost2010Prop48
 90
       50
102
RTVSPost2010PropOp48
 70
     1
102
RTVSPost2010Prop49
280
     0
102
RTVSPost2010PropOp49
 70
     1
102
RTVSPost2010Prop50
 90
       50
102
RTVSPost2010PropOp50
 70
     1
102
RTVSPost2010Prop51ColorIndex
 90
      256
102
RTVSPost2010Prop51ColorRGB
 90
-16777216
102
RTVSPost2010PropOp51
 70
     0
102
RTVSPost2010Prop52
140
1.0
102
RTVSPost2010PropOp52
 70
     0
102
RTVSPost2010Prop53
 90
        2
102
RTVSPost2010PropOp53
 70
     1
102
RTVSPost2010Prop54
  1
strokes_ogs.tif
102
RTVSPost2010PropOp54
 70
     1
102
RTVSPost2010Prop55
280
     0
102
RTVSPost2010PropOp55
 70
     1
102
RTVSPost2010Prop56
140
1.0
102
RTVSPost2010PropOp56
 70
     1
102
RTVSPost2010Prop57
140
1.0
102
RTVSPost2010PropOp57
 70
     1
102
RTVSPropertyOp0
 70
     1
102
RTVSPropertyOp1
 70
     1
102
RTVSPropertyOp2
 70
     1
102
RTVSPropertyOp3
 70
     1
102
RTVSPropertyOp4
 70
     1
102
RTVSPropertyOp5
 70
     1
102
RTVSPropertyOp6
 70
     1
102
RTVSPropertyOp7
 70
     1
102
RTVSPropertyOp8
 70
     1
102
RTVSPropertyOp9
 70
     1
102
RTVSPropertyOp10
 70
     1
102
RTVSPropertyOp11
 70
     1
102
RTVSPropertyOp12
 70
     1
102
RTVSPropertyOp13
 70
     1
102
RTVSPropertyOp14
 70
     1
102
RTVSPropertyOp15
 70
     1
102
RTVSPropertyOp16
 70
     1
102
RTVSPropertyOp17
 70
     1
102
RTVSPropertyOp18
 70
     1
102
RTVSPropertyOp19
 70
     1
102
RTVSPropertyOp20
 70
     1
102
RTVSPropertyOp21
 70
     1
102
RTVSPropertyOp22
 70
     1
102
RTVSPropertyOp23
 70
     1
102
RTVSPropertyOp24
 70
     1
102
RTVSPropertyOp25
 70
     1
102
RTVSPropertyOp26
 70
     1
102
RTVSPropertyOp27
 70
     1
102
RTVSPropertyOp28
 70
     1
102
RTVSPropertyOp29
 70
     1
102
RTVSPropertyOp30
 70
     1
102
RTVSPropertyOp31
 70
     1
102
RTVSPropertyOp32
 70
     1
102
RTVSPropertyOp33
 70
     1
102
RTVSPropertyOp34
 70
     1
102
RTVSPropertyOp35
 70
     1
102
RTVSPropertyOp36
 70
     1
102
RTVSPropertyOp37
 70
     1
102
RTVSPropertyOp38
 70
     1
102
RTVSPropertyOp39
 70
     1
102
RTVSPropertyOp40
 70
     1
102
RTVSPropertyOp41
 70
     1
102
RTVSPropertyOp42
 70
     1
102
RTVSPropertyOp43
 70
     1
102
RTVSPropertyOp44
 70
     1
102
RTVSPropertyOp45
 70
     1
102
RTVSPropertyOp46
 70
     1
102
RTVSPropertyOp47
 70
     1
102
RTVSPropertyOp48
 70
     1
102
RTVSPropertyOp49
 70
     1
102
RTVSPropertyOp50
 70
     1
102
RTVSPropertyOp51
 70
     0
102
RTVSPropertyOp52
 70
     0
102
RTVSPropertyOp53
 70
     1
102
RTVSPropertyOp54
 70
     1
102
RTVSPropertyOp55
 70
     1
102
RTVSPropertyOp56
 70
     1
102
RTVSPropertyOp57
 70
     1
102
RTVSPropertyOp58
 70
     1
102
RTVSPropertyOp59
 70
     1
102
RTVSPropertyOp60
 70
     1
102
RTVSPropertyOp61
 70
     1
102
RTVSPropertyOp62
 70
     1
  0
XRECORD
  5
35F
102
{ACAD_REACTORS
330
35E
102
}
330
35E
100
AcDbXrecord
280
     1
102
RTVSPost2010Prop28
280
     0
102
RTVSPost2010PropOp28
 70
     1
102
RTVSPost2010Prop29
280
     1
102
RTVSPost2010PropOp29
 70
     1
102
RTVSPost2010Prop30
280
     1
102
RTVSPost2010PropOp30
 70
     1
102
RTVSPost2010Prop31
280
     0
102
RTVSPost2010PropOp31
 70
     1
102
RTVSPost2010Prop32
280
     0
102
RTVSPost2010PropOp32
 70
     1
102
RTVSPost2010Prop33
280
     0
102
RTVSPost2010PropOp33
 70
     1
102
RTVSPost2010Prop34
280
     0
102
RTVSPost2010PropOp34
 70
     1
102
RTVSPost2010Prop35
280
     0
102
RTVSPost2010PropOp35
 70
     1
102
RTVSPost2010Prop36
280
     0
102
RTVSPost2010PropOp36
 70
     1
102
RTVSPost2010Prop37
 90
       50
102
RTVSPost2010PropOp37
 70
     1
102
RTVSPost2010Prop38
140
0.0
102
RTVSPost2010PropOp38
 70
     1
102
RTVSPost2010Prop39
140
1.0
102
RTVSPost2010PropOp39
 70
     1
102
RTVSPost2010Prop40
 90
        0
102
RTVSPost2010PropOp40
 70
     1
102
RTVSPost2010Prop41ColorIndex
 90
       18
102
RTVSPost2010Prop41ColorRGB
 90
        0
102
RTVSPost2010PropOp41
 70
     1
102
RTVSPost2010Prop42
 90
       50
102
RTVSPost2010PropOp42
 70
     1
102
RTVSPost2010Prop43
 90
        3
102
RTVSPost2010PropOp43
 70
     1
102
RTVSPost2010Prop44ColorIndex
 90
        5
102
RTVSPost2010Prop44ColorRGB
 90
      255
102
RTVSPost2010PropOp44
 70
     1
102
RTVSPost2010Prop45
280
     0
102
RTVSPost2010PropOp45
 70
     1
102
RTVSPost2010Prop46
 90
       50
102
RTVSPost2010PropOp46
 70
     1
102
RTVSPost2010Prop47
 90
       50
102
RTVSPost2010PropOp47
 70
     1
102
RTVSPost2010Prop48
 90
       50
102
RTVSPost2010PropOp48
 70
     1
102
RTVSPost2010Prop49
280
     0
102
RTVSPost2010PropOp49
 70
     1
102
RTVSPost2010Prop50
 90
       50
102
RTVSPost2010PropOp50
 70
     1
102
RTVSPost2010Prop51ColorIndex
 90
      256
102
RTVSPost2010Prop51ColorRGB
 90
-16777216
102
RTVSPost2010PropOp51
 70
     0
102
RTVSPost2010Prop52
140
1.0
102
RTVSPost2010PropOp52
 70
     0
102
RTVSPost2010Prop53
 90
        2
102
RTVSPost2010PropOp53
 70
     1
102
RTVSPost2010Prop54
  1
strokes_ogs.tif
102
RTVSPost2010PropOp54
 70
     1
102
RTVSPost2010Prop55
280
     0
102
RTVSPost2010PropOp55
 70
     1
102
RTVSPost2010Prop56
140
1.0
102
RTVSPost2010PropOp56
 70
     1
102
RTVSPost2010Prop57
140
1.0
102
RTVSPost2010PropOp57
 70
     1
102
RTVSPropertyOp0
 70
     1
102
RTVSPropertyOp1
 70
     1
102
RTVSPropertyOp2
 70
     1
102
RTVSPropertyOp3
 70
     1
102
RTVSPropertyOp4
 70
     1
102
RTVSPropertyOp5
 70
     1
102
RTVSPropertyOp6
 70
     1
102
RTVSPropertyOp7
 70
     1
102
RTVSPropertyOp8
 70
     1
102
RTVSPropertyOp9
 70
     1
102
RTVSPropertyOp10
 70
     1
102
RTVSPropertyOp11
 70
     1
102
RTVSPropertyOp12
 70
     1
102
RTVSPropertyOp13
 70
     1
102
RTVSPropertyOp14
 70
     1
102
RTVSPropertyOp15
 70
     1
102
RTVSPropertyOp16
 70
     1
102
RTVSPropertyOp17
 70
     1
102
RTVSPropertyOp18
 70
     1
102
RTVSPropertyOp19
 70
     1
102
RTVSPropertyOp20
 70
     1
102
RTVSPropertyOp21
 70
     1
102
RTVSPropertyOp22
 70
     1
102
RTVSPropertyOp23
 70
     1
102
RTVSPropertyOp24
 70
     1
102
RTVSPropertyOp25
 70
     1
102
RTVSPropertyOp26
 70
     1
102
RTVSPropertyOp27
 70
     1
102
RTVSPropertyOp28
 70
     1
102
RTVSPropertyOp29
 70
     1
102
RTVSPropertyOp30
 70
     1
102
RTVSPropertyOp31
 70
     1
102
RTVSPropertyOp32
 70
     1
102
RTVSPropertyOp33
 70
     1
102
RTVSPropertyOp34
 70
     1
102
RTVSPropertyOp35
 70
     1
102
RTVSPropertyOp36
 70
     1
102
RTVSPropertyOp37
 70
     1
102
RTVSPropertyOp38
 70
     1
102
RTVSPropertyOp39
 70
     1
102
RTVSPropertyOp40
 70
     1
102
RTVSPropertyOp41
 70
     1
102
RTVSPropertyOp42
 70
     1
102
RTVSPropertyOp43
 70
     1
102
RTVSPropertyOp44
 70
     1
102
RTVSPropertyOp45
 70
     1
102
RTVSPropertyOp46
 70
     1
102
RTVSPropertyOp47
 70
     1
102
RTVSPropertyOp48
 70
     1
102
RTVSPropertyOp49
 70
     1
102
RTVSPropertyOp50
 70
     1
102
RTVSPropertyOp51
 70
     0
102
RTVSPropertyOp52
 70
     0
102
RTVSPropertyOp53
 70
     1
102
RTVSPropertyOp54
 70
     1
102
RTVSPropertyOp55
 70
     1
102
RTVSPropertyOp56
 70
     1
102
RTVSPropertyOp57
 70
     1
102
RTVSPropertyOp58
 70
     1
102
RTVSPropertyOp59
 70
     1
102
RTVSPropertyOp60
 70
     1
102
RTVSPropertyOp61
 70
     1
102
RTVSPropertyOp62
 70
     1
  0
XRECORD
  5
365
102
{ACAD_REACTORS
330
364
102
}
330
364
100
AcDbXrecord
280
     1
102
RTVSPost2010Prop28
280
     0
102
RTVSPost2010PropOp28
 70
     1
102
RTVSPost2010Prop29
280
     1
102
RTVSPost2010PropOp29
 70
     1
102
RTVSPost2010Prop30
280
     1
102
RTVSPost2010PropOp30
 70
     1
102
RTVSPost2010Prop31
280
     0
102
RTVSPost2010PropOp31
 70
     1
102
RTVSPost2010Prop32
280
     0
102
RTVSPost2010PropOp32
 70
     1
102
RTVSPost2010Prop33
280
     0
102
RTVSPost2010PropOp33
 70
     1
102
RTVSPost2010Prop34
280
     0
102
RTVSPost2010PropOp34
 70
     1
102
RTVSPost2010Prop35
280
     0
102
RTVSPost2010PropOp35
 70
     1
102
RTVSPost2010Prop36
280
     0
102
RTVSPost2010PropOp36
 70
     1
102
RTVSPost2010Prop37
 90
       50
102
RTVSPost2010PropOp37
 70
     1
102
RTVSPost2010Prop38
140
0.0
102
RTVSPost2010PropOp38
 70
     1
102
RTVSPost2010Prop39
140
1.0
102
RTVSPost2010PropOp39
 70
     1
102
RTVSPost2010Prop40
 90
        0
102
RTVSPost2010PropOp40
 70
     1
102
RTVSPost2010Prop41ColorIndex
 90
       18
102
RTVSPost2010Prop41ColorRGB
 90
        0
102
RTVSPost2010PropOp41
 70
     1
102
RTVSPost2010Prop42
 90
       50
102
RTVSPost2010PropOp42
 70
     1
102
RTVSPost2010Prop43
 90
        3
102
RTVSPost2010PropOp43
 70
     1
102
RTVSPost2010Prop44ColorIndex
 90
        5
102
RTVSPost2010Prop44ColorRGB
 90
      255
102
RTVSPost2010PropOp44
 70
     1
102
RTVSPost2010Prop45
280
     0
102
RTVSPost2010PropOp45
 70
     1
102
RTVSPost2010Prop46
 90
       50
102
RTVSPost2010PropOp46
 70
     1
102
RTVSPost2010Prop47
 90
       50
102
RTVSPost2010PropOp47
 70
     1
102
RTVSPost2010Prop48
 90
       50
102
RTVSPost2010PropOp48
 70
     1
102
RTVSPost2010Prop49
280
     0
102
RTVSPost2010PropOp49
 70
     1
102
RTVSPost2010Prop50
 90
       50
102
RTVSPost2010PropOp50
 70
     1
102
RTVSPost2010Prop51ColorIndex
 90
      256
102
RTVSPost2010Prop51ColorRGB
 90
-16777216
102
RTVSPost2010PropOp51
 70
     0
102
RTVSPost2010Prop52
140
1.0
102
RTVSPost2010PropOp52
 70
     0
102
RTVSPost2010Prop53
 90
        2
102
RTVSPost2010PropOp53
 70
     1
102
RTVSPost2010Prop54
  1
strokes_ogs.tif
102
RTVSPost2010PropOp54
 70
     1
102
RTVSPost2010Prop55
280
     0
102
RTVSPost2010PropOp55
 70
     1
102
RTVSPost2010Prop56
140
1.0
102
RTVSPost2010PropOp56
 70
     1
102
RTVSPost2010Prop57
140
1.0
102
RTVSPost2010PropOp57
 70
     1
102
RTVSPropertyOp0
 70
     1
102
RTVSPropertyOp1
 70
     1
102
RTVSPropertyOp2
 70
     1
102
RTVSPropertyOp3
 70
     1
102
RTVSPropertyOp4
 70
     1
102
RTVSPropertyOp5
 70
     1
102
RTVSPropertyOp6
 70
     1
102
RTVSPropertyOp7
 70
     1
102
RTVSPropertyOp8
 70
     1
102
RTVSPropertyOp9
 70
     1
102
RTVSPropertyOp10
 70
     1
102
RTVSPropertyOp11
 70
     1
102
RTVSPropertyOp12
 70
     1
102
RTVSPropertyOp13
 70
     1
102
RTVSPropertyOp14
 70
     1
102
RTVSPropertyOp15
 70
     1
102
RTVSPropertyOp16
 70
     1
102
RTVSPropertyOp17
 70
     1
102
RTVSPropertyOp18
 70
     1
102
RTVSPropertyOp19
 70
     1
102
RTVSPropertyOp20
 70
     1
102
RTVSPropertyOp21
 70
     1
102
RTVSPropertyOp22
 70
     1
102
RTVSPropertyOp23
 70
     1
102
RTVSPropertyOp24
 70
     1
102
RTVSPropertyOp25
 70
     1
102
RTVSPropertyOp26
 70
     1
102
RTVSPropertyOp27
 70
     1
102
RTVSPropertyOp28
 70
     1
102
RTVSPropertyOp29
 70
     1
102
RTVSPropertyOp30
 70
     1
102
RTVSPropertyOp31
 70
     1
102
RTVSPropertyOp32
 70
     1
102
RTVSPropertyOp33
 70
     1
102
RTVSPropertyOp34
 70
     1
102
RTVSPropertyOp35
 70
     1
102
RTVSPropertyOp36
 70
     1
102
RTVSPropertyOp37
 70
     1
102
RTVSPropertyOp38
 70
     1
102
RTVSPropertyOp39
 70
     1
102
RTVSPropertyOp40
 70
     1
102
RTVSPropertyOp41
 70
     1
102
RTVSPropertyOp42
 70
     1
102
RTVSPropertyOp43
 70
     1
102
RTVSPropertyOp44
 70
     1
102
RTVSPropertyOp45
 70
     1
102
RTVSPropertyOp46
 70
     1
102
RTVSPropertyOp47
 70
     1
102
RTVSPropertyOp48
 70
     1
102
RTVSPropertyOp49
 70
     1
102
RTVSPropertyOp50
 70
     1
102
RTVSPropertyOp51
 70
     0
102
RTVSPropertyOp52
 70
     0
102
RTVSPropertyOp53
 70
     1
102
RTVSPropertyOp54
 70
     1
102
RTVSPropertyOp55
 70
     1
102
RTVSPropertyOp56
 70
     1
102
RTVSPropertyOp57
 70
     1
102
RTVSPropertyOp58
 70
     1
102
RTVSPropertyOp59
 70
     1
102
RTVSPropertyOp60
 70
     1
102
RTVSPropertyOp61
 70
     1
102
RTVSPropertyOp62
 70
     1
  0
XRECORD
  5
379
102
{ACAD_REACTORS
330
378
102
}
330
378
100
AcDbXrecord
280
     1
102
RTVSPost2010Prop28
280
     0
102
RTVSPost2010PropOp28
 70
     0
102
RTVSPost2010Prop29
280
     1
102
RTVSPost2010PropOp29
 70
     0
102
RTVSPost2010Prop30
280
     1
102
RTVSPost2010PropOp30
 70
     0
102
RTVSPost2010Prop31
280
     0
102
RTVSPost2010PropOp31
 70
     0
102
RTVSPost2010Prop32
280
     0
102
RTVSPost2010PropOp32
 70
     0
102
RTVSPost2010Prop33
280
     0
102
RTVSPost2010PropOp33
 70
     0
102
RTVSPost2010Prop34
280
     0
102
RTVSPost2010PropOp34
 70
     0
102
RTVSPost2010Prop35
280
     0
102
RTVSPost2010PropOp35
 70
     0
102
RTVSPost2010Prop36
280
     0
102
RTVSPost2010PropOp36
 70
     0
102
RTVSPost2010Prop37
 90
       50
102
RTVSPost2010PropOp37
 70
     0
102
RTVSPost2010Prop38
140
0.0
102
RTVSPost2010PropOp38
 70
     0
102
RTVSPost2010Prop39
140
1.0
102
RTVSPost2010PropOp39
 70
     0
102
RTVSPost2010Prop40
 90
        0
102
RTVSPost2010PropOp40
 70
     0
102
RTVSPost2010Prop41ColorIndex
 90
       18
102
RTVSPost2010Prop41ColorRGB
 90
        0
102
RTVSPost2010PropOp41
 70
     0
102
RTVSPost2010Prop42
 90
       50
102
RTVSPost2010PropOp42
 70
     0
102
RTVSPost2010Prop43
 90
        3
102
RTVSPost2010PropOp43
 70
     0
102
RTVSPost2010Prop44ColorIndex
 90
        5
102
RTVSPost2010Prop44ColorRGB
 90
      255
102
RTVSPost2010PropOp44
 70
     0
102
RTVSPost2010Prop45
280
     0
102
RTVSPost2010PropOp45
 70
     0
102
RTVSPost2010Prop46
 90
       50
102
RTVSPost2010PropOp46
 70
     0
102
RTVSPost2010Prop47
 90
       50
102
RTVSPost2010PropOp47
 70
     0
102
RTVSPost2010Prop48
 90
       50
102
RTVSPost2010PropOp48
 70
     0
102
RTVSPost2010Prop49
280
     0
102
RTVSPost2010PropOp49
 70
     0
102
RTVSPost2010Prop50
 90
       50
102
RTVSPost2010PropOp50
 70
     0
102
RTVSPost2010Prop51ColorIndex
 90
      256
102
RTVSPost2010Prop51ColorRGB
 90
-16777216
102
RTVSPost2010PropOp51
 70
     0
102
RTVSPost2010Prop52
140
1.0
102
RTVSPost2010PropOp52
 70
     0
102
RTVSPost2010Prop53
 90
        2
102
RTVSPost2010PropOp53
 70
     0
102
RTVSPost2010Prop54
  1
strokes_ogs.tif
102
RTVSPost2010PropOp54
 70
     0
102
RTVSPost2010Prop55
280
     0
102
RTVSPost2010PropOp55
 70
     0
102
RTVSPost2010Prop56
140
1.0
102
RTVSPost2010PropOp56
 70
     0
102
RTVSPost2010Prop57
140
1.0
102
RTVSPost2010PropOp57
 70
     0
102
RTVSPropertyOp0
 70
     0
102
RTVSPropertyOp1
 70
     0
102
RTVSPropertyOp2
 70
     0
102
RTVSPropertyOp3
 70
     0
102
RTVSPropertyOp4
 70
     0
102
RTVSPropertyOp5
 70
     0
102
RTVSPropertyOp6
 70
     0
102
RTVSPropertyOp7
 70
     0
102
RTVSPropertyOp8
 70
     0
102
RTVSPropertyOp9
 70
     0
102
RTVSPropertyOp10
 70
     0
102
RTVSPropertyOp11
 70
     0
102
RTVSPropertyOp12
 70
     0
102
RTVSPropertyOp13
 70
     0
102
RTVSPropertyOp14
 70
     2
102
RTVSPropertyOp15
 70
     0
102
RTVSPropertyOp16
 70
     0
102
RTVSPropertyOp17
 70
     0
102
RTVSPropertyOp18
 70
     0
102
RTVSPropertyOp19
 70
     0
102
RTVSPropertyOp20
 70
     0
102
RTVSPropertyOp21
 70
     0
102
RTVSPropertyOp22
 70
     0
102
RTVSPropertyOp23
 70
     0
102
RTVSPropertyOp24
 70
     0
102
RTVSPropertyOp25
 70
     0
102
RTVSPropertyOp26
 70
     0
102
RTVSPropertyOp27
 70
     0
102
RTVSPropertyOp28
 70
     0
102
RTVSPropertyOp29
 70
     0
102
RTVSPropertyOp30
 70
     0
102
RTVSPropertyOp31
 70
     0
102
RTVSPropertyOp32
 70
     0
102
RTVSPropertyOp33
 70
     0
102
RTVSPropertyOp34
 70
     0
102
RTVSPropertyOp35
 70
     0
102
RTVSPropertyOp36
 70
     0
102
RTVSPropertyOp37
 70
     0
102
RTVSPropertyOp38
 70
     0
102
RTVSPropertyOp39
 70
     0
102
RTVSPropertyOp40
 70
     0
102
RTVSPropertyOp41
 70
     0
102
RTVSPropertyOp42
 70
     0
102
RTVSPropertyOp43
 70
     0
102
RTVSPropertyOp44
 70
     0
102
RTVSPropertyOp45
 70
     0
102
RTVSPropertyOp46
 70
     0
102
RTVSPropertyOp47
 70
     0
102
RTVSPropertyOp48
 70
     0
102
RTVSPropertyOp49
 70
     0
102
RTVSPropertyOp50
 70
     0
102
RTVSPropertyOp51
 70
     0
102
RTVSPropertyOp52
 70
     0
102
RTVSPropertyOp53
 70
     0
102
RTVSPropertyOp54
 70
     0
102
RTVSPropertyOp55
 70
     0
102
RTVSPropertyOp56
 70
     0
102
RTVSPropertyOp57
 70
     0
102
RTVSPropertyOp58
 70
     1
102
RTVSPropertyOp59
 70
     1
102
RTVSPropertyOp60
 70
     1
102
RTVSPropertyOp61
 70
     1
102
RTVSPropertyOp62
 70
     1
  0
XRECORD
  5
373
102
{ACAD_REACTORS
330
372
102
}
330
372
100
AcDbXrecord
280
     1
102
RTVSPost2010Prop28
280
     0
102
RTVSPost2010PropOp28
 70
     1
102
RTVSPost2010Prop29
280
     1
102
RTVSPost2010PropOp29
 70
     1
102
RTVSPost2010Prop30
280
     1
102
RTVSPost2010PropOp30
 70
     1
102
RTVSPost2010Prop31
280
     0
102
RTVSPost2010PropOp31
 70
     1
102
RTVSPost2010Prop32
280
     0
102
RTVSPost2010PropOp32
 70
     1
102
RTVSPost2010Prop33
280
     0
102
RTVSPost2010PropOp33
 70
     1
102
RTVSPost2010Prop34
280
     0
102
RTVSPost2010PropOp34
 70
     1
102
RTVSPost2010Prop35
280
     0
102
RTVSPost2010PropOp35
 70
     1
102
RTVSPost2010Prop36
280
     0
102
RTVSPost2010PropOp36
 70
     1
102
RTVSPost2010Prop37
 90
       50
102
RTVSPost2010PropOp37
 70
     1
102
RTVSPost2010Prop38
140
0.0
102
RTVSPost2010PropOp38
 70
     1
102
RTVSPost2010Prop39
140
1.0
102
RTVSPost2010PropOp39
 70
     1
102
RTVSPost2010Prop40
 90
        0
102
RTVSPost2010PropOp40
 70
     1
102
RTVSPost2010Prop41ColorIndex
 90
       18
102
RTVSPost2010Prop41ColorRGB
 90
        0
102
RTVSPost2010PropOp41
 70
     1
102
RTVSPost2010Prop42
 90
       50
102
RTVSPost2010PropOp42
 70
     1
102
RTVSPost2010Prop43
 90
        3
102
RTVSPost2010PropOp43
 70
     1
102
RTVSPost2010Prop44ColorIndex
 90
        5
102
RTVSPost2010Prop44ColorRGB
 90
      255
102
RTVSPost2010PropOp44
 70
     1
102
RTVSPost2010Prop45
280
     0
102
RTVSPost2010PropOp45
 70
     1
102
RTVSPost2010Prop46
 90
       50
102
RTVSPost2010PropOp46
 70
     1
102
RTVSPost2010Prop47
 90
       50
102
RTVSPost2010PropOp47
 70
     1
102
RTVSPost2010Prop48
 90
       50
102
RTVSPost2010PropOp48
 70
     1
102
RTVSPost2010Prop49
280
     0
102
RTVSPost2010PropOp49
 70
     1
102
RTVSPost2010Prop50
 90
       50
102
RTVSPost2010PropOp50
 70
     1
102
RTVSPost2010Prop51ColorIndex
 90
      256
102
RTVSPost2010Prop51ColorRGB
 90
-16777216
102
RTVSPost2010PropOp51
 70
     0
102
RTVSPost2010Prop52
140
1.0
102
RTVSPost2010PropOp52
 70
     0
102
RTVSPost2010Prop53
 90
        2
102
RTVSPost2010PropOp53
 70
     1
102
RTVSPost2010Prop54
  1
strokes_ogs.tif
102
RTVSPost2010PropOp54
 70
     1
102
RTVSPost2010Prop55
280
     0
102
RTVSPost2010PropOp55
 70
     1
102
RTVSPost2010Prop56
140
1.0
102
RTVSPost2010PropOp56
 70
     1
102
RTVSPost2010Prop57
140
1.0
102
RTVSPost2010PropOp57
 70
     1
102
RTVSPropertyOp0
 70
     1
102
RTVSPropertyOp1
 70
     1
102
RTVSPropertyOp2
 70
     1
102
RTVSPropertyOp3
 70
     1
102
RTVSPropertyOp4
 70
     1
102
RTVSPropertyOp5
 70
     1
102
RTVSPropertyOp6
 70
     1
102
RTVSPropertyOp7
 70
     1
102
RTVSPropertyOp8
 70
     1
102
RTVSPropertyOp9
 70
     1
102
RTVSPropertyOp10
 70
     1
102
RTVSPropertyOp11
 70
     1
102
RTVSPropertyOp12
 70
     1
102
RTVSPropertyOp13
 70
     1
102
RTVSPropertyOp14
 70
     1
102
RTVSPropertyOp15
 70
     1
102
RTVSPropertyOp16
 70
     1
102
RTVSPropertyOp17
 70
     1
102
RTVSPropertyOp18
 70
     1
102
RTVSPropertyOp19
 70
     1
102
RTVSPropertyOp20
 70
     1
102
RTVSPropertyOp21
 70
     1
102
RTVSPropertyOp22
 70
     1
102
RTVSPropertyOp23
 70
     1
102
RTVSPropertyOp24
 70
     1
102
RTVSPropertyOp25
 70
     1
102
RTVSPropertyOp26
 70
     1
102
RTVSPropertyOp27
 70
     1
102
RTVSPropertyOp28
 70
     1
102
RTVSPropertyOp29
 70
     1
102
RTVSPropertyOp30
 70
     1
102
RTVSPropertyOp31
 70
     1
102
RTVSPropertyOp32
 70
     1
102
RTVSPropertyOp33
 70
     1
102
RTVSPropertyOp34
 70
     1
102
RTVSPropertyOp35
 70
     1
102
RTVSPropertyOp36
 70
     1
102
RTVSPropertyOp37
 70
     1
102
RTVSPropertyOp38
 70
     1
102
RTVSPropertyOp39
 70
     1
102
RTVSPropertyOp40
 70
     1
102
RTVSPropertyOp41
 70
     1
102
RTVSPropertyOp42
 70
     1
102
RTVSPropertyOp43
 70
     1
102
RTVSPropertyOp44
 70
     1
102
RTVSPropertyOp45
 70
     1
102
RTVSPropertyOp46
 70
     1
102
RTVSPropertyOp47
 70
     1
102
RTVSPropertyOp48
 70
     1
102
RTVSPropertyOp49
 70
     1
102
RTVSPropertyOp50
 70
     1
102
RTVSPropertyOp51
 70
     0
102
RTVSPropertyOp52
 70
     0
102
RTVSPropertyOp53
 70
     1
102
RTVSPropertyOp54
 70
     1
102
RTVSPropertyOp55
 70
     1
102
RTVSPropertyOp56
 70
     1
102
RTVSPropertyOp57
 70
     1
102
RTVSPropertyOp58
 70
     1
102
RTVSPropertyOp59
 70
     1
102
RTVSPropertyOp60
 70
     1
102
RTVSPropertyOp61
 70
     1
102
RTVSPropertyOp62
 70
     1
  0
XRECORD
  5
37B
102
{ACAD_REACTORS
330
37A
102
}
330
37A
100
AcDbXrecord
280
     1
102
RTVSPost2010Prop28
280
     0
102
RTVSPost2010PropOp28
 70
     0
102
RTVSPost2010Prop29
280
     1
102
RTVSPost2010PropOp29
 70
     0
102
RTVSPost2010Prop30
280
     1
102
RTVSPost2010PropOp30
 70
     0
102
RTVSPost2010Prop31
280
     0
102
RTVSPost2010PropOp31
 70
     0
102
RTVSPost2010Prop32
280
     0
102
RTVSPost2010PropOp32
 70
     0
102
RTVSPost2010Prop33
280
     0
102
RTVSPost2010PropOp33
 70
     0
102
RTVSPost2010Prop34
280
     0
102
RTVSPost2010PropOp34
 70
     0
102
RTVSPost2010Prop35
280
     0
102
RTVSPost2010PropOp35
 70
     0
102
RTVSPost2010Prop36
280
     0
102
RTVSPost2010PropOp36
 70
     0
102
RTVSPost2010Prop37
 90
       50
102
RTVSPost2010PropOp37
 70
     0
102
RTVSPost2010Prop38
140
0.0
102
RTVSPost2010PropOp38
 70
     0
102
RTVSPost2010Prop39
140
1.0
102
RTVSPost2010PropOp39
 70
     0
102
RTVSPost2010Prop40
 90
        0
102
RTVSPost2010PropOp40
 70
     0
102
RTVSPost2010Prop41ColorIndex
 90
       18
102
RTVSPost2010Prop41ColorRGB
 90
        0
102
RTVSPost2010PropOp41
 70
     0
102
RTVSPost2010Prop42
 90
       50
102
RTVSPost2010PropOp42
 70
     0
102
RTVSPost2010Prop43
 90
        3
102
RTVSPost2010PropOp43
 70
     0
102
RTVSPost2010Prop44ColorIndex
 90
        5
102
RTVSPost2010Prop44ColorRGB
 90
      255
102
RTVSPost2010PropOp44
 70
     0
102
RTVSPost2010Prop45
280
     0
102
RTVSPost2010PropOp45
 70
     0
102
RTVSPost2010Prop46
 90
       50
102
RTVSPost2010PropOp46
 70
     0
102
RTVSPost2010Prop47
 90
       50
102
RTVSPost2010PropOp47
 70
     0
102
RTVSPost2010Prop48
 90
       50
102
RTVSPost2010PropOp48
 70
     0
102
RTVSPost2010Prop49
280
     0
102
RTVSPost2010PropOp49
 70
     0
102
RTVSPost2010Prop50
 90
       50
102
RTVSPost2010PropOp50
 70
     0
102
RTVSPost2010Prop51ColorIndex
 90
      256
102
RTVSPost2010Prop51ColorRGB
 90
-16777216
102
RTVSPost2010PropOp51
 70
     0
102
RTVSPost2010Prop52
140
1.0
102
RTVSPost2010PropOp52
 70
     0
102
RTVSPost2010Prop53
 90
        2
102
RTVSPost2010PropOp53
 70
     0
102
RTVSPost2010Prop54
  1
strokes_ogs.tif
102
RTVSPost2010PropOp54
 70
     0
102
RTVSPost2010Prop55
280
     0
102
RTVSPost2010PropOp55
 70
     0
102
RTVSPost2010Prop56
140
1.0
102
RTVSPost2010PropOp56
 70
     0
102
RTVSPost2010Prop57
140
1.0
102
RTVSPost2010PropOp57
 70
     0
102
RTVSPropertyOp0
 70
     0
102
RTVSPropertyOp1
 70
     0
102
RTVSPropertyOp2
 70
     0
102
RTVSPropertyOp3
 70
     0
102
RTVSPropertyOp4
 70
     0
102
RTVSPropertyOp5
 70
     0
102
RTVSPropertyOp6
 70
     0
102
RTVSPropertyOp7
 70
     0
102
RTVSPropertyOp8
 70
     0
102
RTVSPropertyOp9
 70
     0
102
RTVSPropertyOp10
 70
     0
102
RTVSPropertyOp11
 70
     0
102
RTVSPropertyOp12
 70
     0
102
RTVSPropertyOp13
 70
     0
102
RTVSPropertyOp14
 70
     2
102
RTVSPropertyOp15
 70
     0
102
RTVSPropertyOp16
 70
     0
102
RTVSPropertyOp17
 70
     0
102
RTVSPropertyOp18
 70
     0
102
RTVSPropertyOp19
 70
     0
102
RTVSPropertyOp20
 70
     0
102
RTVSPropertyOp21
 70
     0
102
RTVSPropertyOp22
 70
     0
102
RTVSPropertyOp23
 70
     0
102
RTVSPropertyOp24
 70
     0
102
RTVSPropertyOp25
 70
     0
102
RTVSPropertyOp26
 70
     0
102
RTVSPropertyOp27
 70
     0
102
RTVSPropertyOp28
 70
     0
102
RTVSPropertyOp29
 70
     0
102
RTVSPropertyOp30
 70
     0
102
RTVSPropertyOp31
 70
     0
102
RTVSPropertyOp32
 70
     0
102
RTVSPropertyOp33
 70
     0
102
RTVSPropertyOp34
 70
     0
102
RTVSPropertyOp35
 70
     0
102
RTVSPropertyOp36
 70
     0
102
RTVSPropertyOp37
 70
     0
102
RTVSPropertyOp38
 70
     0
102
RTVSPropertyOp39
 70
     0
102
RTVSPropertyOp40
 70
     0
102
RTVSPropertyOp41
 70
     0
102
RTVSPropertyOp42
 70
     0
102
RTVSPropertyOp43
 70
     0
102
RTVSPropertyOp44
 70
     0
102
RTVSPropertyOp45
 70
     0
102
RTVSPropertyOp46
 70
     0
102
RTVSPropertyOp47
 70
     0
102
RTVSPropertyOp48
 70
     0
102
RTVSPropertyOp49
 70
     0
102
RTVSPropertyOp50
 70
     0
102
RTVSPropertyOp51
 70
     0
102
RTVSPropertyOp52
 70
     0
102
RTVSPropertyOp53
 70
     0
102
RTVSPropertyOp54
 70
     0
102
RTVSPropertyOp55
 70
     0
102
RTVSPropertyOp56
 70
     0
102
RTVSPropertyOp57
 70
     0
102
RTVSPropertyOp58
 70
     1
102
RTVSPropertyOp59
 70
     1
102
RTVSPropertyOp60
 70
     1
102
RTVSPropertyOp61
 70
     1
102
RTVSPropertyOp62
 70
     1
  0
XRECORD
  5
369
102
{ACAD_REACTORS
330
368
102
}
330
368
100
AcDbXrecord
280
     1
102
RTVSPost2010Prop28
280
     0
102
RTVSPost2010PropOp28
 70
     1
102
RTVSPost2010Prop29
280
     1
102
RTVSPost2010PropOp29
 70
     1
102
RTVSPost2010Prop30
280
     1
102
RTVSPost2010PropOp30
 70
     1
102
RTVSPost2010Prop31
280
     0
102
RTVSPost2010PropOp31
 70
     1
102
RTVSPost2010Prop32
280
     0
102
RTVSPost2010PropOp32
 70
     1
102
RTVSPost2010Prop33
280
     0
102
RTVSPost2010PropOp33
 70
     1
102
RTVSPost2010Prop34
280
     0
102
RTVSPost2010PropOp34
 70
     1
102
RTVSPost2010Prop35
280
     0
102
RTVSPost2010PropOp35
 70
     1
102
RTVSPost2010Prop36
280
     0
102
RTVSPost2010PropOp36
 70
     1
102
RTVSPost2010Prop37
 90
       50
102
RTVSPost2010PropOp37
 70
     1
102
RTVSPost2010Prop38
140
0.0
102
RTVSPost2010PropOp38
 70
     1
102
RTVSPost2010Prop39
140
1.0
102
RTVSPost2010PropOp39
 70
     1
102
RTVSPost2010Prop40
 90
        0
102
RTVSPost2010PropOp40
 70
     1
102
RTVSPost2010Prop41ColorIndex
 90
       18
102
RTVSPost2010Prop41ColorRGB
 90
        0
102
RTVSPost2010PropOp41
 70
     1
102
RTVSPost2010Prop42
 90
       50
102
RTVSPost2010PropOp42
 70
     1
102
RTVSPost2010Prop43
 90
        3
102
RTVSPost2010PropOp43
 70
     1
102
RTVSPost2010Prop44ColorIndex
 90
        5
102
RTVSPost2010Prop44ColorRGB
 90
      255
102
RTVSPost2010PropOp44
 70
     1
102
RTVSPost2010Prop45
280
     0
102
RTVSPost2010PropOp45
 70
     1
102
RTVSPost2010Prop46
 90
       50
102
RTVSPost2010PropOp46
 70
     1
102
RTVSPost2010Prop47
 90
       50
102
RTVSPost2010PropOp47
 70
     1
102
RTVSPost2010Prop48
 90
       50
102
RTVSPost2010PropOp48
 70
     1
102
RTVSPost2010Prop49
280
     0
102
RTVSPost2010PropOp49
 70
     1
102
RTVSPost2010Prop50
 90
       50
102
RTVSPost2010PropOp50
 70
     1
102
RTVSPost2010Prop51ColorIndex
 90
      256
102
RTVSPost2010Prop51ColorRGB
 90
-16777216
102
RTVSPost2010PropOp51
 70
     0
102
RTVSPost2010Prop52
140
1.0
102
RTVSPost2010PropOp52
 70
     0
102
RTVSPost2010Prop53
 90
        2
102
RTVSPost2010PropOp53
 70
     1
102
RTVSPost2010Prop54
  1
strokes_ogs.tif
102
RTVSPost2010PropOp54
 70
     1
102
RTVSPost2010Prop55
280
     0
102
RTVSPost2010PropOp55
 70
     1
102
RTVSPost2010Prop56
140
1.0
102
RTVSPost2010PropOp56
 70
     1
102
RTVSPost2010Prop57
140
1.0
102
RTVSPost2010PropOp57
 70
     1
102
RTVSPropertyOp0
 70
     1
102
RTVSPropertyOp1
 70
     1
102
RTVSPropertyOp2
 70
     1
102
RTVSPropertyOp3
 70
     1
102
RTVSPropertyOp4
 70
     1
102
RTVSPropertyOp5
 70
     1
102
RTVSPropertyOp6
 70
     1
102
RTVSPropertyOp7
 70
     1
102
RTVSPropertyOp8
 70
     1
102
RTVSPropertyOp9
 70
     1
102
RTVSPropertyOp10
 70
     1
102
RTVSPropertyOp11
 70
     1
102
RTVSPropertyOp12
 70
     1
102
RTVSPropertyOp13
 70
     1
102
RTVSPropertyOp14
 70
     1
102
RTVSPropertyOp15
 70
     1
102
RTVSPropertyOp16
 70
     1
102
RTVSPropertyOp17
 70
     1
102
RTVSPropertyOp18
 70
     1
102
RTVSPropertyOp19
 70
     1
102
RTVSPropertyOp20
 70
     1
102
RTVSPropertyOp21
 70
     1
102
RTVSPropertyOp22
 70
     1
102
RTVSPropertyOp23
 70
     1
102
RTVSPropertyOp24
 70
     1
102
RTVSPropertyOp25
 70
     1
102
RTVSPropertyOp26
 70
     1
102
RTVSPropertyOp27
 70
     1
102
RTVSPropertyOp28
 70
     1
102
RTVSPropertyOp29
 70
     1
102
RTVSPropertyOp30
 70
     1
102
RTVSPropertyOp31
 70
     1
102
RTVSPropertyOp32
 70
     1
102
RTVSPropertyOp33
 70
     1
102
RTVSPropertyOp34
 70
     1
102
RTVSPropertyOp35
 70
     1
102
RTVSPropertyOp36
 70
     1
102
RTVSPropertyOp37
 70
     1
102
RTVSPropertyOp38
 70
     1
102
RTVSPropertyOp39
 70
     1
102
RTVSPropertyOp40
 70
     1
102
RTVSPropertyOp41
 70
     1
102
RTVSPropertyOp42
 70
     1
102
RTVSPropertyOp43
 70
     1
102
RTVSPropertyOp44
 70
     1
102
RTVSPropertyOp45
 70
     1
102
RTVSPropertyOp46
 70
     1
102
RTVSPropertyOp47
 70
     1
102
RTVSPropertyOp48
 70
     1
102
RTVSPropertyOp49
 70
     1
102
RTVSPropertyOp50
 70
     1
102
RTVSPropertyOp51
 70
     0
102
RTVSPropertyOp52
 70
     0
102
RTVSPropertyOp53
 70
     1
102
RTVSPropertyOp54
 70
     1
102
RTVSPropertyOp55
 70
     1
102
RTVSPropertyOp56
 70
     1
102
RTVSPropertyOp57
 70
     1
102
RTVSPropertyOp58
 70
     1
102
RTVSPropertyOp59
 70
     1
102
RTVSPropertyOp60
 70
     1
102
RTVSPropertyOp61
 70
     1
102
RTVSPropertyOp62
 70
     1
  0
XRECORD
  5
387
102
{ACAD_REACTORS
330
386
102
}
330
386
100
AcDbXrecord
280
     1
102
RTVSPost2010Prop28
280
     0
102
RTVSPost2010PropOp28
 70
     1
102
RTVSPost2010Prop29
280
     1
102
RTVSPost2010PropOp29
 70
     1
102
RTVSPost2010Prop30
280
     1
102
RTVSPost2010PropOp30
 70
     1
102
RTVSPost2010Prop31
280
     0
102
RTVSPost2010PropOp31
 70
     1
102
RTVSPost2010Prop32
280
     0
102
RTVSPost2010PropOp32
 70
     1
102
RTVSPost2010Prop33
280
     0
102
RTVSPost2010PropOp33
 70
     1
102
RTVSPost2010Prop34
280
     0
102
RTVSPost2010PropOp34
 70
     1
102
RTVSPost2010Prop35
280
     0
102
RTVSPost2010PropOp35
 70
     1
102
RTVSPost2010Prop36
280
     0
102
RTVSPost2010PropOp36
 70
     1
102
RTVSPost2010Prop37
 90
       50
102
RTVSPost2010PropOp37
 70
     1
102
RTVSPost2010Prop38
140
0.0
102
RTVSPost2010PropOp38
 70
     1
102
RTVSPost2010Prop39
140
1.0
102
RTVSPost2010PropOp39
 70
     1
102
RTVSPost2010Prop40
 90
        0
102
RTVSPost2010PropOp40
 70
     1
102
RTVSPost2010Prop41ColorIndex
 90
       18
102
RTVSPost2010Prop41ColorRGB
 90
        0
102
RTVSPost2010PropOp41
 70
     1
102
RTVSPost2010Prop42
 90
       50
102
RTVSPost2010PropOp42
 70
     1
102
RTVSPost2010Prop43
 90
        3
102
RTVSPost2010PropOp43
 70
     1
102
RTVSPost2010Prop44ColorIndex
 90
        5
102
RTVSPost2010Prop44ColorRGB
 90
      255
102
RTVSPost2010PropOp44
 70
     1
102
RTVSPost2010Prop45
280
     0
102
RTVSPost2010PropOp45
 70
     1
102
RTVSPost2010Prop46
 90
       50
102
RTVSPost2010PropOp46
 70
     1
102
RTVSPost2010Prop47
 90
       50
102
RTVSPost2010PropOp47
 70
     1
102
RTVSPost2010Prop48
 90
       50
102
RTVSPost2010PropOp48
 70
     1
102
RTVSPost2010Prop49
280
     0
102
RTVSPost2010PropOp49
 70
     1
102
RTVSPost2010Prop50
 90
       50
102
RTVSPost2010PropOp50
 70
     1
102
RTVSPost2010Prop51ColorIndex
 90
      256
102
RTVSPost2010Prop51ColorRGB
 90
-16777216
102
RTVSPost2010PropOp51
 70
     0
102
RTVSPost2010Prop52
140
1.0
102
RTVSPost2010PropOp52
 70
     0
102
RTVSPost2010Prop53
 90
        2
102
RTVSPost2010PropOp53
 70
     1
102
RTVSPost2010Prop54
  1
strokes_ogs.tif
102
RTVSPost2010PropOp54
 70
     1
102
RTVSPost2010Prop55
280
     0
102
RTVSPost2010PropOp55
 70
     1
102
RTVSPost2010Prop56
140
1.0
102
RTVSPost2010PropOp56
 70
     1
102
RTVSPost2010Prop57
140
1.0
102
RTVSPost2010PropOp57
 70
     1
102
RTVSPropertyOp0
 70
     1
102
RTVSPropertyOp1
 70
     1
102
RTVSPropertyOp2
 70
     1
102
RTVSPropertyOp3
 70
     1
102
RTVSPropertyOp4
 70
     1
102
RTVSPropertyOp5
 70
     1
102
RTVSPropertyOp6
 70
     1
102
RTVSPropertyOp7
 70
     1
102
RTVSPropertyOp8
 70
     1
102
RTVSPropertyOp9
 70
     1
102
RTVSPropertyOp10
 70
     1
102
RTVSPropertyOp11
 70
     1
102
RTVSPropertyOp12
 70
     1
102
RTVSPropertyOp13
 70
     1
102
RTVSPropertyOp14
 70
     1
102
RTVSPropertyOp15
 70
     1
102
RTVSPropertyOp16
 70
     1
102
RTVSPropertyOp17
 70
     1
102
RTVSPropertyOp18
 70
     1
102
RTVSPropertyOp19
 70
     1
102
RTVSPropertyOp20
 70
     1
102
RTVSPropertyOp21
 70
     1
102
RTVSPropertyOp22
 70
     1
102
RTVSPropertyOp23
 70
     1
102
RTVSPropertyOp24
 70
     1
102
RTVSPropertyOp25
 70
     1
102
RTVSPropertyOp26
 70
     1
102
RTVSPropertyOp27
 70
     1
102
RTVSPropertyOp28
 70
     1
102
RTVSPropertyOp29
 70
     1
102
RTVSPropertyOp30
 70
     1
102
RTVSPropertyOp31
 70
     1
102
RTVSPropertyOp32
 70
     1
102
RTVSPropertyOp33
 70
     1
102
RTVSPropertyOp34
 70
     1
102
RTVSPropertyOp35
 70
     1
102
RTVSPropertyOp36
 70
     1
102
RTVSPropertyOp37
 70
     1
102
RTVSPropertyOp38
 70
     1
102
RTVSPropertyOp39
 70
     1
102
RTVSPropertyOp40
 70
     1
102
RTVSPropertyOp41
 70
     1
102
RTVSPropertyOp42
 70
     1
102
RTVSPropertyOp43
 70
     1
102
RTVSPropertyOp44
 70
     1
102
RTVSPropertyOp45
 70
     1
102
RTVSPropertyOp46
 70
     1
102
RTVSPropertyOp47
 70
     1
102
RTVSPropertyOp48
 70
     1
102
RTVSPropertyOp49
 70
     1
102
RTVSPropertyOp50
 70
     1
102
RTVSPropertyOp51
 70
     0
102
RTVSPropertyOp52
 70
     0
102
RTVSPropertyOp53
 70
     1
102
RTVSPropertyOp54
 70
     1
102
RTVSPropertyOp55
 70
     1
102
RTVSPropertyOp56
 70
     1
102
RTVSPropertyOp57
 70
     1
102
RTVSPropertyOp58
 70
     1
102
RTVSPropertyOp59
 70
     1
102
RTVSPropertyOp60
 70
     1
102
RTVSPropertyOp61
 70
     1
102
RTVSPropertyOp62
 70
     1
  0
XRECORD
  5
385
102
{ACAD_REACTORS
330
384
102
}
330
384
100
AcDbXrecord
280
     1
102
RTVSPost2010Prop28
280
     0
102
RTVSPost2010PropOp28
 70
     1
102
RTVSPost2010Prop29
280
     1
102
RTVSPost2010PropOp29
 70
     1
102
RTVSPost2010Prop30
280
     1
102
RTVSPost2010PropOp30
 70
     1
102
RTVSPost2010Prop31
280
     0
102
RTVSPost2010PropOp31
 70
     1
102
RTVSPost2010Prop32
280
     0
102
RTVSPost2010PropOp32
 70
     1
102
RTVSPost2010Prop33
280
     0
102
RTVSPost2010PropOp33
 70
     1
102
RTVSPost2010Prop34
280
     0
102
RTVSPost2010PropOp34
 70
     1
102
RTVSPost2010Prop35
280
     0
102
RTVSPost2010PropOp35
 70
     1
102
RTVSPost2010Prop36
280
     0
102
RTVSPost2010PropOp36
 70
     1
102
RTVSPost2010Prop37
 90
       50
102
RTVSPost2010PropOp37
 70
     1
102
RTVSPost2010Prop38
140
0.0
102
RTVSPost2010PropOp38
 70
     1
102
RTVSPost2010Prop39
140
1.0
102
RTVSPost2010PropOp39
 70
     1
102
RTVSPost2010Prop40
 90
        0
102
RTVSPost2010PropOp40
 70
     1
102
RTVSPost2010Prop41ColorIndex
 90
       18
102
RTVSPost2010Prop41ColorRGB
 90
        0
102
RTVSPost2010PropOp41
 70
     1
102
RTVSPost2010Prop42
 90
       50
102
RTVSPost2010PropOp42
 70
     1
102
RTVSPost2010Prop43
 90
        3
102
RTVSPost2010PropOp43
 70
     1
102
RTVSPost2010Prop44ColorIndex
 90
        5
102
RTVSPost2010Prop44ColorRGB
 90
      255
102
RTVSPost2010PropOp44
 70
     1
102
RTVSPost2010Prop45
280
     0
102
RTVSPost2010PropOp45
 70
     1
102
RTVSPost2010Prop46
 90
       50
102
RTVSPost2010PropOp46
 70
     1
102
RTVSPost2010Prop47
 90
       50
102
RTVSPost2010PropOp47
 70
     1
102
RTVSPost2010Prop48
 90
       50
102
RTVSPost2010PropOp48
 70
     1
102
RTVSPost2010Prop49
280
     0
102
RTVSPost2010PropOp49
 70
     1
102
RTVSPost2010Prop50
 90
       50
102
RTVSPost2010PropOp50
 70
     1
102
RTVSPost2010Prop51ColorIndex
 90
      256
102
RTVSPost2010Prop51ColorRGB
 90
-16777216
102
RTVSPost2010PropOp51
 70
     0
102
RTVSPost2010Prop52
140
1.0
102
RTVSPost2010PropOp52
 70
     0
102
RTVSPost2010Prop53
 90
        2
102
RTVSPost2010PropOp53
 70
     1
102
RTVSPost2010Prop54
  1
strokes_ogs.tif
102
RTVSPost2010PropOp54
 70
     1
102
RTVSPost2010Prop55
280
     0
102
RTVSPost2010PropOp55
 70
     1
102
RTVSPost2010Prop56
140
1.0
102
RTVSPost2010PropOp56
 70
     1
102
RTVSPost2010Prop57
140
1.0
102
RTVSPost2010PropOp57
 70
     1
102
RTVSPropertyOp0
 70
     1
102
RTVSPropertyOp1
 70
     1
102
RTVSPropertyOp2
 70
     1
102
RTVSPropertyOp3
 70
     1
102
RTVSPropertyOp4
 70
     1
102
RTVSPropertyOp5
 70
     1
102
RTVSPropertyOp6
 70
     1
102
RTVSPropertyOp7
 70
     1
102
RTVSPropertyOp8
 70
     1
102
RTVSPropertyOp9
 70
     1
102
RTVSPropertyOp10
 70
     1
102
RTVSPropertyOp11
 70
     1
102
RTVSPropertyOp12
 70
     1
102
RTVSPropertyOp13
 70
     1
102
RTVSPropertyOp14
 70
     1
102
RTVSPropertyOp15
 70
     1
102
RTVSPropertyOp16
 70
     1
102
RTVSPropertyOp17
 70
     1
102
RTVSPropertyOp18
 70
     1
102
RTVSPropertyOp19
 70
     1
102
RTVSPropertyOp20
 70
     1
102
RTVSPropertyOp21
 70
     1
102
RTVSPropertyOp22
 70
     1
102
RTVSPropertyOp23
 70
     1
102
RTVSPropertyOp24
 70
     1
102
RTVSPropertyOp25
 70
     1
102
RTVSPropertyOp26
 70
     1
102
RTVSPropertyOp27
 70
     1
102
RTVSPropertyOp28
 70
     1
102
RTVSPropertyOp29
 70
     1
102
RTVSPropertyOp30
 70
     1
102
RTVSPropertyOp31
 70
     1
102
RTVSPropertyOp32
 70
     1
102
RTVSPropertyOp33
 70
     1
102
RTVSPropertyOp34
 70
     1
102
RTVSPropertyOp35
 70
     1
102
RTVSPropertyOp36
 70
     1
102
RTVSPropertyOp37
 70
     1
102
RTVSPropertyOp38
 70
     1
102
RTVSPropertyOp39
 70
     1
102
RTVSPropertyOp40
 70
     1
102
RTVSPropertyOp41
 70
     1
102
RTVSPropertyOp42
 70
     1
102
RTVSPropertyOp43
 70
     1
102
RTVSPropertyOp44
 70
     1
102
RTVSPropertyOp45
 70
     1
102
RTVSPropertyOp46
 70
     1
102
RTVSPropertyOp47
 70
     1
102
RTVSPropertyOp48
 70
     1
102
RTVSPropertyOp49
 70
     1
102
RTVSPropertyOp50
 70
     1
102
RTVSPropertyOp51
 70
     0
102
RTVSPropertyOp52
 70
     0
102
RTVSPropertyOp53
 70
     1
102
RTVSPropertyOp54
 70
     1
102
RTVSPropertyOp55
 70
     1
102
RTVSPropertyOp56
 70
     1
102
RTVSPropertyOp57
 70
     1
102
RTVSPropertyOp58
 70
     1
102
RTVSPropertyOp59
 70
     1
102
RTVSPropertyOp60
 70
     1
102
RTVSPropertyOp61
 70
     1
102
RTVSPropertyOp62
 70
     1
  0
XRECORD
  5
37F
102
{ACAD_REACTORS
330
37E
102
}
330
37E
100
AcDbXrecord
280
     1
102
RTVSPost2010Prop28
280
     0
102
RTVSPost2010PropOp28
 70
     1
102
RTVSPost2010Prop29
280
     1
102
RTVSPost2010PropOp29
 70
     1
102
RTVSPost2010Prop30
280
     1
102
RTVSPost2010PropOp30
 70
     1
102
RTVSPost2010Prop31
280
     0
102
RTVSPost2010PropOp31
 70
     1
102
RTVSPost2010Prop32
280
     0
102
RTVSPost2010PropOp32
 70
     1
102
RTVSPost2010Prop33
280
     0
102
RTVSPost2010PropOp33
 70
     1
102
RTVSPost2010Prop34
280
     0
102
RTVSPost2010PropOp34
 70
     1
102
RTVSPost2010Prop35
280
     0
102
RTVSPost2010PropOp35
 70
     1
102
RTVSPost2010Prop36
280
     0
102
RTVSPost2010PropOp36
 70
     1
102
RTVSPost2010Prop37
 90
       50
102
RTVSPost2010PropOp37
 70
     1
102
RTVSPost2010Prop38
140
0.0
102
RTVSPost2010PropOp38
 70
     1
102
RTVSPost2010Prop39
140
1.0
102
RTVSPost2010PropOp39
 70
     1
102
RTVSPost2010Prop40
 90
        0
102
RTVSPost2010PropOp40
 70
     1
102
RTVSPost2010Prop41ColorIndex
 90
       18
102
RTVSPost2010Prop41ColorRGB
 90
        0
102
RTVSPost2010PropOp41
 70
     1
102
RTVSPost2010Prop42
 90
       50
102
RTVSPost2010PropOp42
 70
     1
102
RTVSPost2010Prop43
 90
        3
102
RTVSPost2010PropOp43
 70
     1
102
RTVSPost2010Prop44ColorIndex
 90
        5
102
RTVSPost2010Prop44ColorRGB
 90
      255
102
RTVSPost2010PropOp44
 70
     1
102
RTVSPost2010Prop45
280
     0
102
RTVSPost2010PropOp45
 70
     1
102
RTVSPost2010Prop46
 90
       50
102
RTVSPost2010PropOp46
 70
     1
102
RTVSPost2010Prop47
 90
       50
102
RTVSPost2010PropOp47
 70
     1
102
RTVSPost2010Prop48
 90
       50
102
RTVSPost2010PropOp48
 70
     1
102
RTVSPost2010Prop49
280
     0
102
RTVSPost2010PropOp49
 70
     1
102
RTVSPost2010Prop50
 90
       50
102
RTVSPost2010PropOp50
 70
     1
102
RTVSPost2010Prop51ColorIndex
 90
      256
102
RTVSPost2010Prop51ColorRGB
 90
-16777216
102
RTVSPost2010PropOp51
 70
     0
102
RTVSPost2010Prop52
140
1.0
102
RTVSPost2010PropOp52
 70
     0
102
RTVSPost2010Prop53
 90
        2
102
RTVSPost2010PropOp53
 70
     1
102
RTVSPost2010Prop54
  1
strokes_ogs.tif
102
RTVSPost2010PropOp54
 70
     1
102
RTVSPost2010Prop55
280
     0
102
RTVSPost2010PropOp55
 70
     1
102
RTVSPost2010Prop56
140
1.0
102
RTVSPost2010PropOp56
 70
     1
102
RTVSPost2010Prop57
140
1.0
102
RTVSPost2010PropOp57
 70
     1
102
RTVSPropertyOp0
 70
     1
102
RTVSPropertyOp1
 70
     1
102
RTVSPropertyOp2
 70
     1
102
RTVSPropertyOp3
 70
     1
102
RTVSPropertyOp4
 70
     1
102
RTVSPropertyOp5
 70
     1
102
RTVSPropertyOp6
 70
     1
102
RTVSPropertyOp7
 70
     1
102
RTVSPropertyOp8
 70
     1
102
RTVSPropertyOp9
 70
     1
102
RTVSPropertyOp10
 70
     1
102
RTVSPropertyOp11
 70
     1
102
RTVSPropertyOp12
 70
     1
102
RTVSPropertyOp13
 70
     1
102
RTVSPropertyOp14
 70
     1
102
RTVSPropertyOp15
 70
     1
102
RTVSPropertyOp16
 70
     1
102
RTVSPropertyOp17
 70
     1
102
RTVSPropertyOp18
 70
     1
102
RTVSPropertyOp19
 70
     1
102
RTVSPropertyOp20
 70
     1
102
RTVSPropertyOp21
 70
     1
102
RTVSPropertyOp22
 70
     1
102
RTVSPropertyOp23
 70
     1
102
RTVSPropertyOp24
 70
     1
102
RTVSPropertyOp25
 70
     1
102
RTVSPropertyOp26
 70
     1
102
RTVSPropertyOp27
 70
     1
102
RTVSPropertyOp28
 70
     1
102
RTVSPropertyOp29
 70
     1
102
RTVSPropertyOp30
 70
     1
102
RTVSPropertyOp31
 70
     1
102
RTVSPropertyOp32
 70
     1
102
RTVSPropertyOp33
 70
     1
102
RTVSPropertyOp34
 70
     1
102
RTVSPropertyOp35
 70
     1
102
RTVSPropertyOp36
 70
     1
102
RTVSPropertyOp37
 70
     1
102
RTVSPropertyOp38
 70
     1
102
RTVSPropertyOp39
 70
     1
102
RTVSPropertyOp40
 70
     1
102
RTVSPropertyOp41
 70
     1
102
RTVSPropertyOp42
 70
     1
102
RTVSPropertyOp43
 70
     1
102
RTVSPropertyOp44
 70
     1
102
RTVSPropertyOp45
 70
     1
102
RTVSPropertyOp46
 70
     1
102
RTVSPropertyOp47
 70
     1
102
RTVSPropertyOp48
 70
     1
102
RTVSPropertyOp49
 70
     1
102
RTVSPropertyOp50
 70
     1
102
RTVSPropertyOp51
 70
     0
102
RTVSPropertyOp52
 70
     0
102
RTVSPropertyOp53
 70
     1
102
RTVSPropertyOp54
 70
     1
102
RTVSPropertyOp55
 70
     1
102
RTVSPropertyOp56
 70
     1
102
RTVSPropertyOp57
 70
     1
102
RTVSPropertyOp58
 70
     1
102
RTVSPropertyOp59
 70
     1
102
RTVSPropertyOp60
 70
     1
102
RTVSPropertyOp61
 70
     1
102
RTVSPropertyOp62
 70
     1
  0
XRECORD
  5
381
102
{ACAD_REACTORS
330
380
102
}
330
380
100
AcDbXrecord
280
     1
102
RTVSPost2010Prop28
280
     0
102
RTVSPost2010PropOp28
 70
     1
102
RTVSPost2010Prop29
280
     1
102
RTVSPost2010PropOp29
 70
     1
102
RTVSPost2010Prop30
280
     1
102
RTVSPost2010PropOp30
 70
     1
102
RTVSPost2010Prop31
280
     0
102
RTVSPost2010PropOp31
 70
     1
102
RTVSPost2010Prop32
280
     0
102
RTVSPost2010PropOp32
 70
     1
102
RTVSPost2010Prop33
280
     0
102
RTVSPost2010PropOp33
 70
     1
102
RTVSPost2010Prop34
280
     0
102
RTVSPost2010PropOp34
 70
     1
102
RTVSPost2010Prop35
280
     0
102
RTVSPost2010PropOp35
 70
     1
102
RTVSPost2010Prop36
280
     0
102
RTVSPost2010PropOp36
 70
     1
102
RTVSPost2010Prop37
 90
       50
102
RTVSPost2010PropOp37
 70
     1
102
RTVSPost2010Prop38
140
0.0
102
RTVSPost2010PropOp38
 70
     1
102
RTVSPost2010Prop39
140
1.0
102
RTVSPost2010PropOp39
 70
     1
102
RTVSPost2010Prop40
 90
        0
102
RTVSPost2010PropOp40
 70
     1
102
RTVSPost2010Prop41ColorIndex
 90
       18
102
RTVSPost2010Prop41ColorRGB
 90
        0
102
RTVSPost2010PropOp41
 70
     1
102
RTVSPost2010Prop42
 90
       50
102
RTVSPost2010PropOp42
 70
     1
102
RTVSPost2010Prop43
 90
        3
102
RTVSPost2010PropOp43
 70
     1
102
RTVSPost2010Prop44ColorIndex
 90
        5
102
RTVSPost2010Prop44ColorRGB
 90
      255
102
RTVSPost2010PropOp44
 70
     1
102
RTVSPost2010Prop45
280
     0
102
RTVSPost2010PropOp45
 70
     1
102
RTVSPost2010Prop46
 90
       50
102
RTVSPost2010PropOp46
 70
     1
102
RTVSPost2010Prop47
 90
       50
102
RTVSPost2010PropOp47
 70
     1
102
RTVSPost2010Prop48
 90
       50
102
RTVSPost2010PropOp48
 70
     1
102
RTVSPost2010Prop49
280
     0
102
RTVSPost2010PropOp49
 70
     1
102
RTVSPost2010Prop50
 90
       50
102
RTVSPost2010PropOp50
 70
     1
102
RTVSPost2010Prop51ColorIndex
 90
      256
102
RTVSPost2010Prop51ColorRGB
 90
-16777216
102
RTVSPost2010PropOp51
 70
     0
102
RTVSPost2010Prop52
140
1.0
102
RTVSPost2010PropOp52
 70
     0
102
RTVSPost2010Prop53
 90
        2
102
RTVSPost2010PropOp53
 70
     1
102
RTVSPost2010Prop54
  1
strokes_ogs.tif
102
RTVSPost2010PropOp54
 70
     1
102
RTVSPost2010Prop55
280
     0
102
RTVSPost2010PropOp55
 70
     1
102
RTVSPost2010Prop56
140
1.0
102
RTVSPost2010PropOp56
 70
     1
102
RTVSPost2010Prop57
140
1.0
102
RTVSPost2010PropOp57
 70
     1
102
RTVSPropertyOp0
 70
     1
102
RTVSPropertyOp1
 70
     1
102
RTVSPropertyOp2
 70
     1
102
RTVSPropertyOp3
 70
     1
102
RTVSPropertyOp4
 70
     1
102
RTVSPropertyOp5
 70
     1
102
RTVSPropertyOp6
 70
     1
102
RTVSPropertyOp7
 70
     1
102
RTVSPropertyOp8
 70
     1
102
RTVSPropertyOp9
 70
     1
102
RTVSPropertyOp10
 70
     1
102
RTVSPropertyOp11
 70
     1
102
RTVSPropertyOp12
 70
     1
102
RTVSPropertyOp13
 70
     1
102
RTVSPropertyOp14
 70
     1
102
RTVSPropertyOp15
 70
     1
102
RTVSPropertyOp16
 70
     1
102
RTVSPropertyOp17
 70
     1
102
RTVSPropertyOp18
 70
     1
102
RTVSPropertyOp19
 70
     1
102
RTVSPropertyOp20
 70
     1
102
RTVSPropertyOp21
 70
     1
102
RTVSPropertyOp22
 70
     1
102
RTVSPropertyOp23
 70
     1
102
RTVSPropertyOp24
 70
     1
102
RTVSPropertyOp25
 70
     1
102
RTVSPropertyOp26
 70
     1
102
RTVSPropertyOp27
 70
     1
102
RTVSPropertyOp28
 70
     1
102
RTVSPropertyOp29
 70
     1
102
RTVSPropertyOp30
 70
     1
102
RTVSPropertyOp31
 70
     1
102
RTVSPropertyOp32
 70
     1
102
RTVSPropertyOp33
 70
     1
102
RTVSPropertyOp34
 70
     1
102
RTVSPropertyOp35
 70
     1
102
RTVSPropertyOp36
 70
     1
102
RTVSPropertyOp37
 70
     1
102
RTVSPropertyOp38
 70
     1
102
RTVSPropertyOp39
 70
     1
102
RTVSPropertyOp40
 70
     1
102
RTVSPropertyOp41
 70
     1
102
RTVSPropertyOp42
 70
     1
102
RTVSPropertyOp43
 70
     1
102
RTVSPropertyOp44
 70
     1
102
RTVSPropertyOp45
 70
     1
102
RTVSPropertyOp46
 70
     1
102
RTVSPropertyOp47
 70
     1
102
RTVSPropertyOp48
 70
     1
102
RTVSPropertyOp49
 70
     1
102
RTVSPropertyOp50
 70
     1
102
RTVSPropertyOp51
 70
     0
102
RTVSPropertyOp52
 70
     0
102
RTVSPropertyOp53
 70
     1
102
RTVSPropertyOp54
 70
     1
102
RTVSPropertyOp55
 70
     1
102
RTVSPropertyOp56
 70
     1
102
RTVSPropertyOp57
 70
     1
102
RTVSPropertyOp58
 70
     1
102
RTVSPropertyOp59
 70
     1
102
RTVSPropertyOp60
 70
     1
102
RTVSPropertyOp61
 70
     1
102
RTVSPropertyOp62
 70
     1
  0
XRECORD
  5
371
102
{ACAD_REACTORS
330
370
102
}
330
370
100
AcDbXrecord
280
     1
102
RTVSPost2010Prop28
280
     0
102
RTVSPost2010PropOp28
 70
     1
102
RTVSPost2010Prop29
280
     1
102
RTVSPost2010PropOp29
 70
     1
102
RTVSPost2010Prop30
280
     1
102
RTVSPost2010PropOp30
 70
     1
102
RTVSPost2010Prop31
280
     0
102
RTVSPost2010PropOp31
 70
     1
102
RTVSPost2010Prop32
280
     0
102
RTVSPost2010PropOp32
 70
     1
102
RTVSPost2010Prop33
280
     0
102
RTVSPost2010PropOp33
 70
     1
102
RTVSPost2010Prop34
280
     0
102
RTVSPost2010PropOp34
 70
     1
102
RTVSPost2010Prop35
280
     0
102
RTVSPost2010PropOp35
 70
     1
102
RTVSPost2010Prop36
280
     0
102
RTVSPost2010PropOp36
 70
     1
102
RTVSPost2010Prop37
 90
       50
102
RTVSPost2010PropOp37
 70
     1
102
RTVSPost2010Prop38
140
0.0
102
RTVSPost2010PropOp38
 70
     1
102
RTVSPost2010Prop39
140
1.0
102
RTVSPost2010PropOp39
 70
     1
102
RTVSPost2010Prop40
 90
        0
102
RTVSPost2010PropOp40
 70
     1
102
RTVSPost2010Prop41ColorIndex
 90
       18
102
RTVSPost2010Prop41ColorRGB
 90
        0
102
RTVSPost2010PropOp41
 70
     1
102
RTVSPost2010Prop42
 90
       50
102
RTVSPost2010PropOp42
 70
     1
102
RTVSPost2010Prop43
 90
        3
102
RTVSPost2010PropOp43
 70
     1
102
RTVSPost2010Prop44ColorIndex
 90
        5
102
RTVSPost2010Prop44ColorRGB
 90
      255
102
RTVSPost2010PropOp44
 70
     1
102
RTVSPost2010Prop45
280
     0
102
RTVSPost2010PropOp45
 70
     1
102
RTVSPost2010Prop46
 90
       50
102
RTVSPost2010PropOp46
 70
     1
102
RTVSPost2010Prop47
 90
       50
102
RTVSPost2010PropOp47
 70
     1
102
RTVSPost2010Prop48
 90
       50
102
RTVSPost2010PropOp48
 70
     1
102
RTVSPost2010Prop49
280
     0
102
RTVSPost2010PropOp49
 70
     1
102
RTVSPost2010Prop50
 90
       50
102
RTVSPost2010PropOp50
 70
     1
102
RTVSPost2010Prop51ColorIndex
 90
      256
102
RTVSPost2010Prop51ColorRGB
 90
-16777216
102
RTVSPost2010PropOp51
 70
     0
102
RTVSPost2010Prop52
140
1.0
102
RTVSPost2010PropOp52
 70
     0
102
RTVSPost2010Prop53
 90
        2
102
RTVSPost2010PropOp53
 70
     1
102
RTVSPost2010Prop54
  1
strokes_ogs.tif
102
RTVSPost2010PropOp54
 70
     1
102
RTVSPost2010Prop55
280
     0
102
RTVSPost2010PropOp55
 70
     1
102
RTVSPost2010Prop56
140
1.0
102
RTVSPost2010PropOp56
 70
     1
102
RTVSPost2010Prop57
140
1.0
102
RTVSPost2010PropOp57
 70
     1
102
RTVSPropertyOp0
 70
     1
102
RTVSPropertyOp1
 70
     1
102
RTVSPropertyOp2
 70
     1
102
RTVSPropertyOp3
 70
     1
102
RTVSPropertyOp4
 70
     1
102
RTVSPropertyOp5
 70
     1
102
RTVSPropertyOp6
 70
     1
102
RTVSPropertyOp7
 70
     1
102
RTVSPropertyOp8
 70
     1
102
RTVSPropertyOp9
 70
     1
102
RTVSPropertyOp10
 70
     1
102
RTVSPropertyOp11
 70
     1
102
RTVSPropertyOp12
 70
     1
102
RTVSPropertyOp13
 70
     1
102
RTVSPropertyOp14
 70
     1
102
RTVSPropertyOp15
 70
     1
102
RTVSPropertyOp16
 70
     1
102
RTVSPropertyOp17
 70
     1
102
RTVSPropertyOp18
 70
     1
102
RTVSPropertyOp19
 70
     1
102
RTVSPropertyOp20
 70
     1
102
RTVSPropertyOp21
 70
     1
102
RTVSPropertyOp22
 70
     1
102
RTVSPropertyOp23
 70
     1
102
RTVSPropertyOp24
 70
     1
102
RTVSPropertyOp25
 70
     1
102
RTVSPropertyOp26
 70
     1
102
RTVSPropertyOp27
 70
     1
102
RTVSPropertyOp28
 70
     1
102
RTVSPropertyOp29
 70
     1
102
RTVSPropertyOp30
 70
     1
102
RTVSPropertyOp31
 70
     1
102
RTVSPropertyOp32
 70
     1
102
RTVSPropertyOp33
 70
     1
102
RTVSPropertyOp34
 70
     1
102
RTVSPropertyOp35
 70
     1
102
RTVSPropertyOp36
 70
     1
102
RTVSPropertyOp37
 70
     1
102
RTVSPropertyOp38
 70
     1
102
RTVSPropertyOp39
 70
     1
102
RTVSPropertyOp40
 70
     1
102
RTVSPropertyOp41
 70
     1
102
RTVSPropertyOp42
 70
     1
102
RTVSPropertyOp43
 70
     1
102
RTVSPropertyOp44
 70
     1
102
RTVSPropertyOp45
 70
     1
102
RTVSPropertyOp46
 70
     1
102
RTVSPropertyOp47
 70
     1
102
RTVSPropertyOp48
 70
     1
102
RTVSPropertyOp49
 70
     1
102
RTVSPropertyOp50
 70
     1
102
RTVSPropertyOp51
 70
     0
102
RTVSPropertyOp52
 70
     0
102
RTVSPropertyOp53
 70
     1
102
RTVSPropertyOp54
 70
     1
102
RTVSPropertyOp55
 70
     1
102
RTVSPropertyOp56
 70
     1
102
RTVSPropertyOp57
 70
     1
102
RTVSPropertyOp58
 70
     1
102
RTVSPropertyOp59
 70
     1
102
RTVSPropertyOp60
 70
     1
102
RTVSPropertyOp61
 70
     1
102
RTVSPropertyOp62
 70
     1
  0
XRECORD
  5
363
102
{ACAD_REACTORS
330
362
102
}
330
362
100
AcDbXrecord
280
     1
102
RTVSPost2010Prop28
280
     0
102
RTVSPost2010PropOp28
 70
     1
102
RTVSPost2010Prop29
280
     1
102
RTVSPost2010PropOp29
 70
     1
102
RTVSPost2010Prop30
280
     1
102
RTVSPost2010PropOp30
 70
     1
102
RTVSPost2010Prop31
280
     0
102
RTVSPost2010PropOp31
 70
     1
102
RTVSPost2010Prop32
280
     0
102
RTVSPost2010PropOp32
 70
     1
102
RTVSPost2010Prop33
280
     0
102
RTVSPost2010PropOp33
 70
     1
102
RTVSPost2010Prop34
280
     0
102
RTVSPost2010PropOp34
 70
     1
102
RTVSPost2010Prop35
280
     0
102
RTVSPost2010PropOp35
 70
     1
102
RTVSPost2010Prop36
280
     0
102
RTVSPost2010PropOp36
 70
     1
102
RTVSPost2010Prop37
 90
       50
102
RTVSPost2010PropOp37
 70
     1
102
RTVSPost2010Prop38
140
0.0
102
RTVSPost2010PropOp38
 70
     1
102
RTVSPost2010Prop39
140
1.0
102
RTVSPost2010PropOp39
 70
     1
102
RTVSPost2010Prop40
 90
        0
102
RTVSPost2010PropOp40
 70
     1
102
RTVSPost2010Prop41ColorIndex
 90
       18
102
RTVSPost2010Prop41ColorRGB
 90
        0
102
RTVSPost2010PropOp41
 70
     1
102
RTVSPost2010Prop42
 90
       50
102
RTVSPost2010PropOp42
 70
     1
102
RTVSPost2010Prop43
 90
        3
102
RTVSPost2010PropOp43
 70
     1
102
RTVSPost2010Prop44ColorIndex
 90
        5
102
RTVSPost2010Prop44ColorRGB
 90
      255
102
RTVSPost2010PropOp44
 70
     1
102
RTVSPost2010Prop45
280
     0
102
RTVSPost2010PropOp45
 70
     1
102
RTVSPost2010Prop46
 90
       50
102
RTVSPost2010PropOp46
 70
     1
102
RTVSPost2010Prop47
 90
       50
102
RTVSPost2010PropOp47
 70
     1
102
RTVSPost2010Prop48
 90
       50
102
RTVSPost2010PropOp48
 70
     1
102
RTVSPost2010Prop49
280
     0
102
RTVSPost2010PropOp49
 70
     1
102
RTVSPost2010Prop50
 90
       50
102
RTVSPost2010PropOp50
 70
     1
102
RTVSPost2010Prop51ColorIndex
 90
      256
102
RTVSPost2010Prop51ColorRGB
 90
-16777216
102
RTVSPost2010PropOp51
 70
     0
102
RTVSPost2010Prop52
140
1.0
102
RTVSPost2010PropOp52
 70
     0
102
RTVSPost2010Prop53
 90
        2
102
RTVSPost2010PropOp53
 70
     1
102
RTVSPost2010Prop54
  1
strokes_ogs.tif
102
RTVSPost2010PropOp54
 70
     1
102
RTVSPost2010Prop55
280
     0
102
RTVSPost2010PropOp55
 70
     1
102
RTVSPost2010Prop56
140
1.0
102
RTVSPost2010PropOp56
 70
     1
102
RTVSPost2010Prop57
140
1.0
102
RTVSPost2010PropOp57
 70
     1
102
RTVSPropertyOp0
 70
     1
102
RTVSPropertyOp1
 70
     1
102
RTVSPropertyOp2
 70
     1
102
RTVSPropertyOp3
 70
     1
102
RTVSPropertyOp4
 70
     1
102
RTVSPropertyOp5
 70
     1
102
RTVSPropertyOp6
 70
     1
102
RTVSPropertyOp7
 70
     1
102
RTVSPropertyOp8
 70
     1
102
RTVSPropertyOp9
 70
     1
102
RTVSPropertyOp10
 70
     1
102
RTVSPropertyOp11
 70
     1
102
RTVSPropertyOp12
 70
     1
102
RTVSPropertyOp13
 70
     1
102
RTVSPropertyOp14
 70
     1
102
RTVSPropertyOp15
 70
     1
102
RTVSPropertyOp16
 70
     1
102
RTVSPropertyOp17
 70
     1
102
RTVSPropertyOp18
 70
     1
102
RTVSPropertyOp19
 70
     1
102
RTVSPropertyOp20
 70
     1
102
RTVSPropertyOp21
 70
     1
102
RTVSPropertyOp22
 70
     1
102
RTVSPropertyOp23
 70
     1
102
RTVSPropertyOp24
 70
     1
102
RTVSPropertyOp25
 70
     1
102
RTVSPropertyOp26
 70
     1
102
RTVSPropertyOp27
 70
     1
102
RTVSPropertyOp28
 70
     1
102
RTVSPropertyOp29
 70
     1
102
RTVSPropertyOp30
 70
     1
102
RTVSPropertyOp31
 70
     1
102
RTVSPropertyOp32
 70
     1
102
RTVSPropertyOp33
 70
     1
102
RTVSPropertyOp34
 70
     1
102
RTVSPropertyOp35
 70
     1
102
RTVSPropertyOp36
 70
     1
102
RTVSPropertyOp37
 70
     1
102
RTVSPropertyOp38
 70
     1
102
RTVSPropertyOp39
 70
     1
102
RTVSPropertyOp40
 70
     1
102
RTVSPropertyOp41
 70
     1
102
RTVSPropertyOp42
 70
     1
102
RTVSPropertyOp43
 70
     1
102
RTVSPropertyOp44
 70
     1
102
RTVSPropertyOp45
 70
     1
102
RTVSPropertyOp46
 70
     1
102
RTVSPropertyOp47
 70
     1
102
RTVSPropertyOp48
 70
     1
102
RTVSPropertyOp49
 70
     1
102
RTVSPropertyOp50
 70
     1
102
RTVSPropertyOp51
 70
     0
102
RTVSPropertyOp52
 70
     0
102
RTVSPropertyOp53
 70
     1
102
RTVSPropertyOp54
 70
     1
102
RTVSPropertyOp55
 70
     1
102
RTVSPropertyOp56
 70
     1
102
RTVSPropertyOp57
 70
     1
102
RTVSPropertyOp58
 70
     1
102
RTVSPropertyOp59
 70
     1
102
RTVSPropertyOp60
 70
     1
102
RTVSPropertyOp61
 70
     1
102
RTVSPropertyOp62
 70
     1
  0
XRECORD
  5
383
102
{ACAD_REACTORS
330
382
102
}
330
382
100
AcDbXrecord
280
     1
102
RTVSPost2010Prop28
280
     0
102
RTVSPost2010PropOp28
 70
     1
102
RTVSPost2010Prop29
280
     1
102
RTVSPost2010PropOp29
 70
     1
102
RTVSPost2010Prop30
280
     1
102
RTVSPost2010PropOp30
 70
     1
102
RTVSPost2010Prop31
280
     0
102
RTVSPost2010PropOp31
 70
     1
102
RTVSPost2010Prop32
280
     0
102
RTVSPost2010PropOp32
 70
     1
102
RTVSPost2010Prop33
280
     0
102
RTVSPost2010PropOp33
 70
     1
102
RTVSPost2010Prop34
280
     0
102
RTVSPost2010PropOp34
 70
     1
102
RTVSPost2010Prop35
280
     0
102
RTVSPost2010PropOp35
 70
     1
102
RTVSPost2010Prop36
280
     0
102
RTVSPost2010PropOp36
 70
     1
102
RTVSPost2010Prop37
 90
       50
102
RTVSPost2010PropOp37
 70
     1
102
RTVSPost2010Prop38
140
0.0
102
RTVSPost2010PropOp38
 70
     1
102
RTVSPost2010Prop39
140
1.0
102
RTVSPost2010PropOp39
 70
     1
102
RTVSPost2010Prop40
 90
        0
102
RTVSPost2010PropOp40
 70
     1
102
RTVSPost2010Prop41ColorIndex
 90
       18
102
RTVSPost2010Prop41ColorRGB
 90
        0
102
RTVSPost2010PropOp41
 70
     1
102
RTVSPost2010Prop42
 90
       50
102
RTVSPost2010PropOp42
 70
     1
102
RTVSPost2010Prop43
 90
        3
102
RTVSPost2010PropOp43
 70
     1
102
RTVSPost2010Prop44ColorIndex
 90
        5
102
RTVSPost2010Prop44ColorRGB
 90
      255
102
RTVSPost2010PropOp44
 70
     1
102
RTVSPost2010Prop45
280
     0
102
RTVSPost2010PropOp45
 70
     1
102
RTVSPost2010Prop46
 90
       50
102
RTVSPost2010PropOp46
 70
     1
102
RTVSPost2010Prop47
 90
       50
102
RTVSPost2010PropOp47
 70
     1
102
RTVSPost2010Prop48
 90
       50
102
RTVSPost2010PropOp48
 70
     1
102
RTVSPost2010Prop49
280
     0
102
RTVSPost2010PropOp49
 70
     1
102
RTVSPost2010Prop50
 90
       50
102
RTVSPost2010PropOp50
 70
     1
102
RTVSPost2010Prop51ColorIndex
 90
      256
102
RTVSPost2010Prop51ColorRGB
 90
-16777216
102
RTVSPost2010PropOp51
 70
     0
102
RTVSPost2010Prop52
140
1.0
102
RTVSPost2010PropOp52
 70
     0
102
RTVSPost2010Prop53
 90
        2
102
RTVSPost2010PropOp53
 70
     1
102
RTVSPost2010Prop54
  1
strokes_ogs.tif
102
RTVSPost2010PropOp54
 70
     1
102
RTVSPost2010Prop55
280
     0
102
RTVSPost2010PropOp55
 70
     1
102
RTVSPost2010Prop56
140
1.0
102
RTVSPost2010PropOp56
 70
     1
102
RTVSPost2010Prop57
140
1.0
102
RTVSPost2010PropOp57
 70
     1
102
RTVSPropertyOp0
 70
     1
102
RTVSPropertyOp1
 70
     1
102
RTVSPropertyOp2
 70
     1
102
RTVSPropertyOp3
 70
     1
102
RTVSPropertyOp4
 70
     1
102
RTVSPropertyOp5
 70
     1
102
RTVSPropertyOp6
 70
     1
102
RTVSPropertyOp7
 70
     1
102
RTVSPropertyOp8
 70
     1
102
RTVSPropertyOp9
 70
     1
102
RTVSPropertyOp10
 70
     1
102
RTVSPropertyOp11
 70
     1
102
RTVSPropertyOp12
 70
     1
102
RTVSPropertyOp13
 70
     1
102
RTVSPropertyOp14
 70
     1
102
RTVSPropertyOp15
 70
     1
102
RTVSPropertyOp16
 70
     1
102
RTVSPropertyOp17
 70
     1
102
RTVSPropertyOp18
 70
     1
102
RTVSPropertyOp19
 70
     1
102
RTVSPropertyOp20
 70
     1
102
RTVSPropertyOp21
 70
     1
102
RTVSPropertyOp22
 70
     1
102
RTVSPropertyOp23
 70
     1
102
RTVSPropertyOp24
 70
     1
102
RTVSPropertyOp25
 70
     1
102
RTVSPropertyOp26
 70
     1
102
RTVSPropertyOp27
 70
     1
102
RTVSPropertyOp28
 70
     1
102
RTVSPropertyOp29
 70
     1
102
RTVSPropertyOp30
 70
     1
102
RTVSPropertyOp31
 70
     1
102
RTVSPropertyOp32
 70
     1
102
RTVSPropertyOp33
 70
     1
102
RTVSPropertyOp34
 70
     1
102
RTVSPropertyOp35
 70
     1
102
RTVSPropertyOp36
 70
     1
102
RTVSPropertyOp37
 70
     1
102
RTVSPropertyOp38
 70
     1
102
RTVSPropertyOp39
 70
     1
102
RTVSPropertyOp40
 70
     1
102
RTVSPropertyOp41
 70
     1
102
RTVSPropertyOp42
 70
     1
102
RTVSPropertyOp43
 70
     1
102
RTVSPropertyOp44
 70
     1
102
RTVSPropertyOp45
 70
     1
102
RTVSPropertyOp46
 70
     1
102
RTVSPropertyOp47
 70
     1
102
RTVSPropertyOp48
 70
     1
102
RTVSPropertyOp49
 70
     1
102
RTVSPropertyOp50
 70
     1
102
RTVSPropertyOp51
 70
     0
102
RTVSPropertyOp52
 70
     0
102
RTVSPropertyOp53
 70
     1
102
RTVSPropertyOp54
 70
     1
102
RTVSPropertyOp55
 70
     1
102
RTVSPropertyOp56
 70
     1
102
RTVSPropertyOp57
 70
     1
102
RTVSPropertyOp58
 70
     1
102
RTVSPropertyOp59
 70
     1
102
RTVSPropertyOp60
 70
     1
102
RTVSPropertyOp61
 70
     1
102
RTVSPropertyOp62
 70
     1
  0
ENDSEC
  0
EOF
