  0
SECTION
  2
HEADER
  9
$ACADVER
  1
AC1018
  9
$ACADMAINTVER
 70
   104
  9
$DWGCODEPAGE
  3
ANSI_1250
  9
$LASTSAVEDBY
  1
hm1535
  9
$INSBASE
 10
0.0
 20
0.0
 30
0.0
  9
$EXTMIN
 10
217.745788
 20
21.404126
 30
0.0
  9
$EXTMAX
 10
587.478648
 20
413.6759736666668
 30
0.0
  9
$LIMMIN
 10
-0.5
 20
-0.5
  9
$LIMMAX
 10
5.0
 20
5.0
  9
$ORTHOMODE
 70
     0
  9
$REGENMODE
 70
     1
  9
$FILLMODE
 70
     1
  9
$QTEXTMODE
 70
     0
  9
$MIRRTEXT
 70
     1
  9
$LTSCALE
 40
1.0
  9
$ATTMODE
 70
     1
  9
$TEXTSIZE
 40
0.2
  9
$TRACEWID
 40
0.05
  9
$TEXTSTYLE
  7
Standard
  9
$CLAYER
  8
0
  9
$CELTYPE
  6
ByLayer
  9
$CECOLOR
 62
   256
  9
$CELTSCALE
 40
1.0
  9
$DISPSILH
 70
     0
  9
$DIMSCALE
 40
1.0
  9
$DIMASZ
 40
0.18
  9
$DIMEXO
 40
0.0625
  9
$DIMDLI
 40
0.38
  9
$DIMRND
 40
0.0
  9
$DIMDLE
 40
0.0
  9
$DIMEXE
 40
0.18
  9
$DIMTP
 40
0.0
  9
$DIMTM
 40
0.0
  9
$DIMTXT
 40
0.18
  9
$DIMCEN
 40
0.09
  9
$DIMTSZ
 40
0.0
  9
$DIMTOL
 70
     0
  9
$DIMLIM
 70
     0
  9
$DIMTIH
 70
     1
  9
$DIMTOH
 70
     1
  9
$DIMSE1
 70
     0
  9
$DIMSE2
 70
     0
  9
$DIMTAD
 70
     0
  9
$DIMZIN
 70
     0
  9
$DIMBLK
  1

  9
$DIMASO
 70
     1
  9
$DIMSHO
 70
     1
  9
$DIMPOST
  1

  9
$DIMAPOST
  1

  9
$DIMALT
 70
     0
  9
$DIMALTD
 70
     2
  9
$DIMALTF
 40
25.4
  9
$DIMLFAC
 40
1.0
  9
$DIMTOFL
 70
     0
  9
$DIMTVP
 40
0.0
  9
$DIMTIX
 70
     0
  9
$DIMSOXD
 70
     0
  9
$DIMSAH
 70
     0
  9
$DIMBLK1
  1

  9
$DIMBLK2
  1

  9
$DIMSTYLE
  2
Standard
  9
$DIMCLRD
 70
     0
  9
$DIMCLRE
 70
     0
  9
$DIMCLRT
 70
     0
  9
$DIMTFAC
 40
1.0
  9
$DIMGAP
 40
0.09
  9
$DIMJUST
 70
     0
  9
$DIMSD1
 70
     0
  9
$DIMSD2
 70
     0
  9
$DIMTOLJ
 70
     1
  9
$DIMTZIN
 70
     0
  9
$DIMALTZ
 70
     0
  9
$DIMALTTZ
 70
     0
  9
$DIMUPT
 70
     0
  9
$DIMDEC
 70
     4
  9
$DIMTDEC
 70
     4
  9
$DIMALTU
 70
     2
  9
$DIMALTTD
 70
     2
  9
$DIMTXSTY
  7
Standard
  9
$DIMAUNIT
 70
     0
  9
$DIMADEC
 70
     0
  9
$DIMALTRND
 40
0.0
  9
$DIMAZIN
 70
     0
  9
$DIMDSEP
 70
    46
  9
$DIMATFIT
 70
     3
  9
$DIMFRAC
 70
     0
  9
$DIMLDRBLK
  1

  9
$DIMLUNIT
 70
     2
  9
$DIMLWD
 70
    -2
  9
$DIMLWE
 70
    -2
  9
$DIMTMOVE
 70
     0
  9
$LUNITS
 70
     2
  9
$LUPREC
 70
     2
  9
$SKETCHINC
 40
0.1
  9
$FILLETRAD
 40
0.5
  9
$AUNITS
 70
     0
  9
$AUPREC
 70
     0
  9
$MENU
  1
.
  9
$ELEVATION
 40
0.0
  9
$PELEVATION
 40
0.0
  9
$THICKNESS
 40
0.0
  9
$LIMCHECK
 70
     0
  9
$CHAMFERA
 40
0.0
  9
$CHAMFERB
 40
0.0
  9
$CHAMFERC
 40
0.0
  9
$CHAMFERD
 40
0.0
  9
$SKPOLY
 70
     0
  9
$TDCREATE
 40
2458878.528078704
  9
$TDUCREATE
 40
2458878.486415984
  9
$TDUPDATE
 40
2458878.528761574
  9
$TDUUPDATE
 40
2458878.487094907
  9
$TDINDWG
 40
0.0001157523
  9
$TDUSRTIMER
 40
0.0001157523
  9
$USRTIMER
 70
     1
  9
$ANGBASE
 50
0.0
  9
$ANGDIR
 70
     0
  9
$PDMODE
 70
     0
  9
$PDSIZE
 40
0.0
  9
$PLINEWID
 40
0.0
  9
$SPLFRAME
 70
     0
  9
$SPLINETYPE
 70
     6
  9
$SPLINESEGS
 70
     8
  9
$HANDSEED
  5
34E
  9
$SURFTAB1
 70
     6
  9
$SURFTAB2
 70
     6
  9
$SURFTYPE
 70
     6
  9
$SURFU
 70
     6
  9
$SURFV
 70
     6
  9
$UCSBASE
  2

  9
$UCSNAME
  2

  9
$UCSORG
 10
322.174849
 20
366.008075
 30
0.0
  9
$UCSXDIR
 10
1.0
 20
0.0
 30
0.0
  9
$UCSYDIR
 10
0.0
 20
1.0
 30
0.0
  9
$UCSORTHOREF
  2

  9
$UCSORTHOVIEW
 70
     0
  9
$UCSORGTOP
 10
0.0
 20
0.0
 30
0.0
  9
$UCSORGBOTTOM
 10
0.0
 20
0.0
 30
0.0
  9
$UCSORGLEFT
 10
0.0
 20
0.0
 30
0.0
  9
$UCSORGRIGHT
 10
0.0
 20
0.0
 30
0.0
  9
$UCSORGFRONT
 10
0.0
 20
0.0
 30
0.0
  9
$UCSORGBACK
 10
0.0
 20
0.0
 30
0.0
  9
$PUCSBASE
  2

  9
$PUCSNAME
  2

  9
$PUCSORG
 10
0.0
 20
0.0
 30
0.0
  9
$PUCSXDIR
 10
1.0
 20
0.0
 30
0.0
  9
$PUCSYDIR
 10
0.0
 20
1.0
 30
0.0
  9
$PUCSORTHOREF
  2

  9
$PUCSORTHOVIEW
 70
     0
  9
$PUCSORGTOP
 10
0.0
 20
0.0
 30
0.0
  9
$PUCSORGBOTTOM
 10
0.0
 20
0.0
 30
0.0
  9
$PUCSORGLEFT
 10
0.0
 20
0.0
 30
0.0
  9
$PUCSORGRIGHT
 10
0.0
 20
0.0
 30
0.0
  9
$PUCSORGFRONT
 10
0.0
 20
0.0
 30
0.0
  9
$PUCSORGBACK
 10
0.0
 20
0.0
 30
0.0
  9
$USERI1
 70
     0
  9
$USERI2
 70
     0
  9
$USERI3
 70
     0
  9
$USERI4
 70
     0
  9
$USERI5
 70
     0
  9
$USERR1
 40
0.0
  9
$USERR2
 40
0.0
  9
$USERR3
 40
0.0
  9
$USERR4
 40
0.0
  9
$USERR5
 40
0.0
  9
$WORLDVIEW
 70
     1
  9
$SHADEDGE
 70
     3
  9
$SHADEDIF
 70
    70
  9
$TILEMODE
 70
     1
  9
$MAXACTVP
 70
    64
  9
$PINSBASE
 10
0.0
 20
0.0
 30
0.0
  9
$PLIMCHECK
 70
     0
  9
$PEXTMIN
 10
-0.5
 20
-0.5
 30
-0.5
  9
$PEXTMAX
 10
5.0
 20
5.0
 30
5.0
  9
$PLIMMIN
 10
-0.5
 20
-0.5
  9
$PLIMMAX
 10
5.0
 20
5.0
  9
$UNITMODE
 70
     0
  9
$VISRETAIN
 70
     1
  9
$PLINEGEN
 70
     0
  9
$PSLTSCALE
 70
     1
  9
$TREEDEPTH
 70
  3020
  9
$CMLSTYLE
  2
Standard
  9
$CMLJUST
 70
     0
  9
$CMLSCALE
 40
1.0
  9
$PROXYGRAPHICS
 70
     1
  9
$MEASUREMENT
 70
     1
  9
$CELWEIGHT
370
    13
  9
$ENDCAPS
280
     0
  9
$JOINSTYLE
280
     0
  9
$LWDISPLAY
290
     0
  9
$INSUNITS
 70
     4
  9
$HYPERLINKBASE
  1

  9
$STYLESHEET
  1

  9
$XEDIT
290
     1
  9
$CEPSNTYPE
380
     0
  9
$PSTYLEMODE
290
     1
  9
$FINGERPRINTGUID
  2
{846331C5-4524-4D4E-8B5E-82FFDDE2227C}
  9
$VERSIONGUID
  2
{BAFA16B4-F266-B44F-A220-CE9CE9651857}
  9
$EXTNAMES
290
     1
  9
$PSVPSCALE
 40
0.0
  9
$OLESTARTUP
290
     0
  9
$SORTENTS
280
   127
  9
$INDEXCTL
280
     0
  9
$HIDETEXT
280
     1
  9
$XCLIPFRAME
290
     0
  9
$HALOGAP
280
     0
  9
$OBSCOLOR
 70
   257
  9
$OBSLTYPE
280
     0
  9
$INTERSECTIONDISPLAY
280
     0
  9
$INTERSECTIONCOLOR
 70
   257
  9
$DIMASSOC
280
     2
  9
$PROJECTNAME
  1

  0
ENDSEC
  0
SECTION
  2
CLASSES
  0
CLASS
  1
ACDBDICTIONARYWDFLT
  2
AcDbDictionaryWithDefault
  3
ObjectDBX Classes
 90
        0
 91
        1
280
     0
281
     0
  0
CLASS
  1
VISUALSTYLE
  2
AcDbVisualStyle
  3
ObjectDBX Classes
 90
     4095
 91
       24
280
     0
281
     0
  0
CLASS
  1
MATERIAL
  2
AcDbMaterial
  3
ObjectDBX Classes
 90
     1153
 91
        3
280
     0
281
     0
  0
CLASS
  1
SCALE
  2
AcDbScale
  3
ObjectDBX Classes
 90
     1153
 91
       33
280
     0
281
     0
  0
CLASS
  1
TABLESTYLE
  2
AcDbTableStyle
  3
ObjectDBX Classes
 90
     4095
 91
        1
280
     0
281
     0
  0
CLASS
  1
MLEADERSTYLE
  2
AcDbMLeaderStyle
  3
ACDB_MLEADERSTYLE_CLASS
 90
     4095
 91
        1
280
     0
281
     0
  0
CLASS
  1
SUN
  2
AcDbSun
  3
SCENEOE
 90
     1153
 91
        0
280
     0
281
     0
  0
CLASS
  1
IMAGEDEF
  2
AcDbRasterImageDef
  3
ISM
 90
        0
 91
        1
280
     0
281
     0
  0
CLASS
  1
IMAGE
  2
AcDbRasterImage
  3
ISM
 90
     2175
 91
        1
280
     0
281
     1
  0
CLASS
  1
IMAGEDEF_REACTOR
  2
AcDbRasterImageDefReactor
  3
ISM
 90
        1
 91
        1
280
     0
281
     0
  0
CLASS
  1
DIMASSOC
  2
AcDbDimAssoc
  3
"AcDbDimAssoc|Product Desc:     AcDim ARX App For Dimension|Company:          Autodesk, Inc.|WEB Address:      www.autodesk.com"
 90
        0
 91
        4
280
     0
281
     0
  0
CLASS
  1
DICTIONARYVAR
  2
AcDbDictionaryVar
  3
ObjectDBX Classes
 90
        0
 91
        8
280
     0
281
     0
  0
CLASS
  1
CELLSTYLEMAP
  2
AcDbCellStyleMap
  3
ObjectDBX Classes
 90
     1152
 91
        2
280
     0
281
     0
  0
CLASS
  1
ACDBSECTIONVIEWSTYLE
  2
AcDbSectionViewStyle
  3
ObjectDBX Classes
 90
     1025
 91
        2
280
     0
281
     0
  0
CLASS
  1
ACDBDETAILVIEWSTYLE
  2
AcDbDetailViewStyle
  3
ObjectDBX Classes
 90
     1025
 91
        2
280
     0
281
     0
  0
CLASS
  1
RASTERVARIABLES
  2
AcDbRasterVariables
  3
ISM
 90
        0
 91
        1
280
     0
281
     0
  0
CLASS
  1
AMGSETTINGSOBJ
  2
AmgSettingsObj
  3
"AcadM|Product Description: AutoCAD Mechanical|Company: Autodesk, Inc."
 90
     1024
 91
        2
280
     0
281
     0
  0
CLASS
  1
ACME_DOCUMENT
  2
AcMeDbDoc
  3
AcMeServices
 90
     1024
 91
        1
280
     0
281
     0
  0
CLASS
  1
ACMESCOPE
  2
AcMeScope
  3
AcMeServices
 90
     1024
 91
        1
280
     0
281
     0
  0
CLASS
  1
ACMECOMMANDHISTORY
  2
AcMeCommandHistory
  3
AcMeServices
 90
     1024
 91
        1
280
     0
281
     0
  0
CLASS
  1
ACIMSYSVARMAN
  2
AcImSysVarManager
  3
AcMeServices
 90
     1024
 91
        3
280
     0
281
     0
  0
CLASS
  1
ACIMINTSYSVAR
  2
AcImIntSysVar
  3
AcMeServices
 90
     1024
 91
        2
280
     0
281
     0
  0
CLASS
  1
ACMESTATEMGR
  2
AcMeStateMgr
  3
AcMeServices
 90
     1024
 91
        1
280
     0
281
     0
  0
CLASS
  1
ACDBENTITYCACHE
  2
AcMeEntityCache
  3
AcMeServices
 90
     1024
 91
        1
280
     0
281
     0
  0
CLASS
  1
ACGREFMASTER
  2
AcGrefMaster
  3
AcAttribServices
 90
     1024
 91
        1
280
     0
281
     0
  0
CLASS
  1
ACME_DATABASE
  2
AcMeDbDatabase
  3
AcMeServices
 90
     1024
 91
        1
280
     0
281
     0
  0
CLASS
  1
ACRFINSADJUSTERMGR
  2
AcRfInsAdjusterMgr
  3
AcMeServices
 90
     1024
 91
        1
280
     0
281
     0
  0
CLASS
  1
ACGREFACADMASTER
  2
AcGrefacadMaster
  3
AcGrefServices
 90
     1024
 91
        1
280
     0
281
     0
  0
CLASS
  1
AMIMASTER
  2
AmiMaster
  3
AmiServices
 90
     1024
 91
        1
280
     0
281
     0
  0
CLASS
  1
AMDTMENUSTATEMGR
  2
AmdtMenuStateMgr
  3
McadcomServices
 90
     1024
 91
        1
280
     0
281
     0
  0
CLASS
  1
AMDTMCOMMENUSTATE
  2
AmdtMcomMenuState
  3
McadcomServices
 90
     1024
 91
        1
280
     0
281
     0
  0
CLASS
  1
MAPIAMMOUDLE
  2
MApiAmModule
  3
MApiAmServices
 90
     1024
 91
        1
280
     0
281
     0
  0
CLASS
  1
ACIMSTRSYSVAR
  2
AcImStrSysVar
  3
AcMeServices
 90
     1024
 91
        5
280
     0
281
     0
  0
CLASS
  1
AMDTAMMENUSTATE
  2
AmdtAmMenuState
  3
DesignerAssemblies_arx
 90
     1024
 91
        1
280
     0
281
     0
  0
CLASS
  1
ACAMPROJECT
  2
AcAmProject
  3
DesignerAssemblies
 90
     1024
 91
        1
280
     0
281
     0
  0
CLASS
  1
ACAMGRCOMPDEF
  2
AcAmGrCompDef
  3
DesignerAssemblies
 90
     1024
 91
        1
280
     0
281
     0
  0
CLASS
  1
ACAMCOMPDEF
  2
AcAmCompDef
  3
DesignerAssemblies
 90
     1024
 91
        1
280
     0
281
     0
  0
CLASS
  1
ACAMCOMPDEFMGR
  2
AcAmCompDefMgr
  3
DesignerAssemblies
 90
     1024
 91
        1
280
     0
281
     0
  0
CLASS
  1
AMCONTEXTMGR
  2
AcAmContextMgr
  3
DesignerAssemblies
 90
     1024
 91
        1
280
     0
281
     0
  0
CLASS
  1
ACAMCONTEXTMODELER
  2
AcAmContextModeler
  3
DesignerAssemblies
 90
     1024
 91
        1
280
     0
281
     0
  0
CLASS
  1
ACMDATADICTIONARY
  2
AcmDataDictionary
  3
"AcmSymBB|Product Description: AutoCAD Mechanical|Company: Autodesk, Inc."
 90
     1024
 91
        1
280
     0
281
     0
  0
CLASS
  1
ACAMGRCOMPDEFSET
  2
AcAmGrCompDefSet
  3
DesignerAssemblies
 90
     1024
 91
        1
280
     0
281
     0
  0
CLASS
  1
AMDTBROWSERDBTAB
  2
AmdtBrowserDbTab
  3
McadcomServices
 90
     1024
 91
        1
280
     0
281
     0
  0
CLASS
  1
CBROWSERAPPOBJECT
  2
CBrowserAppObject
  3
McadcomServices
 90
     1024
 91
        2
280
     0
281
     0
  0
CLASS
  1
DM_PLACEHOLDER
  2
AcDmSelsetPlaceholder
  3
McadcomServices
 90
     1024
 91
        1
280
     0
281
     0
  0
CLASS
  1
ACMSTANDARDISO
  2
AcmStandardISO
  3
"Amdt_StdImp|Product Description: AutoCAD Mechanical|Company: Autodesk, Inc."
 90
     1024
 91
        1
280
     0
281
     0
  0
CLASS
  1
AMDTEDGESTANDARDISO13715
  2
AmdtEdgeStdISO13715
  3
"Amdt_StdImp|Product Description: AutoCAD Mechanical|Company: Autodesk, Inc."
 90
     1024
 91
        1
280
     0
281
     0
  0
CLASS
  1
ACMSURFSTANDARDISO2002
  2
AcmSurfTextStdISO2002
  3
"Amdt_StdImp|Product Description: AutoCAD Mechanical|Company: Autodesk, Inc."
 90
     1024
 91
        1
280
     0
281
     0
  0
CLASS
  1
ACMFCFSTANDARDISO2012
  2
AcmFCFStdISO2012
  3
"Amdt_StdImp|Product Description: AutoCAD Mechanical|Company: Autodesk, Inc."
 90
     1024
 91
        1
280
     0
281
     0
  0
CLASS
  1
ACMWELDSTANDARDISO
  2
AcmWeldingStdISO
  3
"Amdt_StdImp|Product Description: AutoCAD Mechanical|Company: Autodesk, Inc."
 90
     1024
 91
        1
280
     0
281
     0
  0
CLASS
  1
ACMIDSTANDARDISO2012
  2
AcmIdStdISO2012
  3
"Amdt_StdImp|Product Description: AutoCAD Mechanical|Company: Autodesk, Inc."
 90
     1024
 91
        1
280
     0
281
     0
  0
CLASS
  1
ACMDATUMSTANDARDISO2012
  2
AcmDatumStdISO2012
  3
"Amdt_StdImp|Product Description: AutoCAD Mechanical|Company: Autodesk, Inc."
 90
     1024
 91
        1
280
     0
281
     0
  0
CLASS
  1
ACMBOMSTANDARDISO
  2
AcmBOMStdISO
  3
"Amdt_StdImp|Product Description: AutoCAD Mechanical|Company: Autodesk, Inc."
 90
     1024
 91
        1
280
     0
281
     0
  0
CLASS
  1
ACMDETAILSTANDARDISO
  2
AmdtDetailSymStdISO
  3
"Amdt_StdImp|Product Description: AutoCAD Mechanical|Company: Autodesk, Inc."
 90
     1024
 91
        1
280
     0
281
     0
  0
CLASS
  1
ACMSECTIONSTANDARDISO2001
  2
AmdtSectionSymStdISO2001
  3
"Amdt_StdImp|Product Description: AutoCAD Mechanical|Company: Autodesk, Inc."
 90
     1024
 91
        1
280
     0
281
     0
  0
CLASS
  1
ACMCENTERLINESTANDARDISO
  2
AmdtCenterLineStdISO
  3
"Amdt_StdImp|Product Description: AutoCAD Mechanical|Company: Autodesk, Inc."
 90
     1024
 91
        1
280
     0
281
     0
  0
CLASS
  1
ACMTHREADLINESTANDARDISO
  2
AmdtThreadLineStdISO
  3
"Amdt_StdImp|Product Description: AutoCAD Mechanical|Company: Autodesk, Inc."
 90
     1024
 91
        1
280
     0
281
     0
  0
CLASS
  1
ACMNOTESTANDARDISO
  2
AmdtNoteStdISO
  3
"Amdt_StdImp|Product Description: AutoCAD Mechanical|Company: Autodesk, Inc."
 90
     1024
 91
        1
280
     0
281
     0
  0
CLASS
  1
ACMTAPERSTANDARDISO
  2
AcmTaperStdISO
  3
"Amdt_StdImp|Product Description: AutoCAD Mechanical|Company: Autodesk, Inc."
 90
     1024
 91
        1
280
     0
281
     0
  0
CLASS
  1
ACMANOOTATIONVIEWSTANDARDISO
  2
AmdtAnViewStdISO
  3
"Amdt_StdImp|Product Description: AutoCAD Mechanical|Company: Autodesk, Inc."
 90
     1024
 91
        1
280
     0
281
     0
  0
CLASS
  1
ACAMGLAYSTD
  2
AcAmgLayStd
  3
"AmgLay|Product Description: AutoCAD Mechanical|Company: Autodesk, Inc."
 90
     1024
 91
        1
280
     0
281
     0
  0
CLASS
  1
ACAMGTITLESTD
  2
AcAmgTitleStd
  3
"AmgTitle|Product Description: AutoCAD Mechanical|Company: Autodesk, Inc."
 90
     1024
 91
        1
280
     0
281
     0
  0
CLASS
  1
ACAMGDIMSTD
  2
AcAmgDimStd
  3
"AmgDim|Product Description: AutoCAD Mechanical|Company: Autodesk, Inc."
 90
     1024
 91
        1
280
     0
281
     0
  0
CLASS
  1
AMGOBJPROPCFG
  2
AmgObjPropCfg
  3
"AmgLay|Product Description: AutoCAD Mechanical|Company: Autodesk, Inc."
 90
     1024
 91
        1
280
     0
281
     0
  0
CLASS
  1
ACAMGHOLECHARTSTDISO
  2
AcAmgHoleChartStdISO
  3
"AmgDim" "Product Description: AutoCAD Mechanical|Company: Autodesk, Inc."
 90
     1024
 91
        1
280
     0
281
     0
  0
CLASS
  1
ACMSECTIONSTANDARDCUSTOM
  2
AmdtSectionSymStdCustom
  3
"Amdt_StdImp|Product Description: AutoCAD Mechanical|Company: Autodesk, Inc."
 90
     1024
 91
        1
280
     0
281
     0
  0
CLASS
  1
ACMDETAILTANDARDCUSTOM
  2
AmdtDetailSymStdCustom
  3
"Amdt_StdImp|Product Description: AutoCAD Mechanical|Company: Autodesk, Inc."
 90
     1024
 91
        1
280
     0
281
     0
  0
CLASS
  1
FIELD
  2
AcDbField
  3
ObjectDBX Classes
 90
     1152
 91
        3
280
     0
281
     0
  0
CLASS
  1
FIELDLIST
  2
AcDbFieldList
  3
ObjectDBX Classes
 90
     1152
 91
        1
280
     0
281
     0
  0
CLASS
  1
AMDTNOTETEMPLATEDB
  2
AmdtNoteTemplateDB
  3
"AcmSymBB" "Product Description: AutoCAD Mechanical|Company: Autodesk, Inc."
 90
     1024
 91
        7
280
     0
281
     0
  0
CLASS
  1
ACAMGFILTERDAT
  2
AcAmgFilterDat
  3
"AcadM|Product Description: AutoCAD Mechanical|Company: Autodesk, Inc."
 90
     1024
 91
        6
280
     0
281
     0
  0
CLASS
  1
SORTENTSTABLE
  2
AcDbSortentsTable
  3
ObjectDBX Classes
 90
        0
 91
        1
280
     0
281
     0
  0
ENDSEC
  0
SECTION
  2
TABLES
  0
TABLE
  2
VPORT
  5
8
330
0
100
AcDbSymbolTable
 70
    16
  0
VPORT
  5
29
330
8
100
AcDbSymbolTableRecord
100
AcDbViewportTableRecord
  2
*Active
 70
     0
 10
0.0
 20
0.0
 11
1.0
 21
1.0
 12
750.5537979180687
 22
116.8526949507261
 13
0.0
 23
0.0
 14
0.5
 24
0.5
 15
0.5
 25
0.5
 16
0.0
 26
0.0
 36
1.0
 17
0.0
 27
0.0
 37
0.0
 40
820.1045215549532
 41
2.292712066905615
 42
50.0
 43
815.5711159999999
 44
-815.5711159999999
 50
0.0
 51
0.0
 71
     0
 72
   100
 73
     1
 74
     3
 75
     0
 76
     0
 77
     0
 78
     0
281
     0
 65
     0
110
0.0
120
0.0
130
0.0
111
1.0
121
0.0
131
0.0
112
0.0
122
1.0
132
0.0
 79
     0
146
0.0
1001
ACAD_NAV_VCDISPLAY
1070
     3
  0
VPORT
  5
1E6
330
8
100
AcDbSymbolTableRecord
100
AcDbViewportTableRecord
  2
L1
 70
     0
 10
0.0
 20
0.0
 11
1.0
 21
1.0
 12
402.612218
 22
217.544638
 13
0.0
 23
0.0
 14
0.5
 24
0.5
 15
0.5
 25
0.5
 16
0.0
 26
0.0
 36
1.0
 17
0.0
 27
0.0
 37
0.0
 40
207.433333
 41
0.085602
 42
50.0
 43
815.5711159999999
 44
-815.5711159999999
 50
0.0
 51
0.0
 71
     0
 72
   100
 73
     1
 74
     3
 75
     0
 76
     0
 77
     0
 78
     0
281
     0
 65
     1
110
0.0
120
0.0
130
0.0
111
1.0
121
0.0
131
0.0
112
0.0
122
1.0
132
0.0
 79
     0
146
0.0
  0
VPORT
  5
1E7
330
8
100
AcDbSymbolTableRecord
100
AcDbViewportTableRecord
  2
L2
 70
     0
 10
0.0
 20
0.0
 11
0.5
 21
1.0
 12
0.0
 22
0.0
 13
0.0
 23
0.0
 14
0.5
 24
0.5
 15
0.5
 25
0.5
 16
0.0
 26
-1.0
 36
0.0
 17
0.0
 27
0.0
 37
0.0
 40
1478.660809
 41
0.012009
 42
50.0
 43
765.39502
 44
-765.39502
 50
0.0
 51
0.0
 71
     0
 72
   100
 73
     1
 74
     3
 75
     0
 76
     0
 77
     0
 78
     0
281
     0
 65
     1
110
0.0
120
0.0
130
0.0
111
1.0
121
0.0
131
0.0
112
0.0
122
1.0
132
0.0
 79
     0
146
0.0
  0
VPORT
  5
1E8
330
8
100
AcDbSymbolTableRecord
100
AcDbViewportTableRecord
  2
L2
 70
     0
 10
0.5
 20
0.0
 11
1.0
 21
1.0
 12
0.0
 22
0.0
 13
0.0
 23
0.0
 14
0.5
 24
0.5
 15
0.5
 25
0.5
 16
1.0
 26
0.0
 36
0.0
 17
0.0
 27
0.0
 37
0.0
 40
1478.660809
 41
0.012009
 42
50.0
 43
746.5698859999999
 44
-746.5698859999999
 50
0.0
 51
0.0
 71
     0
 72
   100
 73
     1
 74
     3
 75
     0
 76
     0
 77
     0
 78
     0
281
     0
 65
     1
110
0.0
120
0.0
130
0.0
111
1.0
121
0.0
131
0.0
112
0.0
122
1.0
132
0.0
 79
     0
146
0.0
  0
VPORT
  5
1E9
330
8
100
AcDbSymbolTableRecord
100
AcDbViewportTableRecord
  2
L3
 70
     0
 10
0.0
 20
0.5
 11
1.0
 21
1.0
 12
402.612218
 22
217.544638
 13
0.0
 23
0.0
 14
0.5
 24
0.5
 15
0.5
 25
0.5
 16
0.0
 26
0.0
 36
1.0
 17
0.0
 27
0.0
 37
0.0
 40
207.433333
 41
0.085602
 42
50.0
 43
815.5711159999999
 44
-815.5711159999999
 50
0.0
 51
0.0
 71
     0
 72
   100
 73
     1
 74
     3
 75
     0
 76
     0
 77
     0
 78
     0
281
     0
 65
     1
110
0.0
120
0.0
130
0.0
111
1.0
121
0.0
131
0.0
112
0.0
122
1.0
132
0.0
 79
     0
146
0.0
  0
VPORT
  5
1EA
330
8
100
AcDbSymbolTableRecord
100
AcDbViewportTableRecord
  2
L3
 70
     0
 10
0.0
 20
0.0
 11
1.0
 21
0.5
 12
0.0
 22
0.0
 13
0.0
 23
0.0
 14
0.5
 24
0.5
 15
0.5
 25
0.5
 16
0.0
 26
-1.0
 36
0.0
 17
0.0
 27
0.0
 37
0.0
 40
1478.660809
 41
0.012009
 42
50.0
 43
765.39502
 44
-765.39502
 50
0.0
 51
0.0
 71
     0
 72
   100
 73
     1
 74
     3
 75
     0
 76
     0
 77
     0
 78
     0
281
     0
 65
     1
110
0.0
120
0.0
130
0.0
111
1.0
121
0.0
131
0.0
112
0.0
122
1.0
132
0.0
 79
     0
146
0.0
  0
VPORT
  5
1EB
330
8
100
AcDbSymbolTableRecord
100
AcDbViewportTableRecord
  2
L4
 70
     0
 10
0.0
 20
0.5
 11
0.5
 21
1.0
 12
402.612218
 22
217.544638
 13
0.0
 23
0.0
 14
0.5
 24
0.5
 15
0.5
 25
0.5
 16
0.0
 26
0.0
 36
1.0
 17
0.0
 27
0.0
 37
0.0
 40
207.433333
 41
0.085602
 42
50.0
 43
815.5711159999999
 44
-815.5711159999999
 50
0.0
 51
0.0
 71
     0
 72
   100
 73
     1
 74
     3
 75
     0
 76
     0
 77
     0
 78
     0
281
     0
 65
     1
110
0.0
120
0.0
130
0.0
111
1.0
121
0.0
131
0.0
112
0.0
122
1.0
132
0.0
 79
     0
146
0.0
  0
VPORT
  5
1EC
330
8
100
AcDbSymbolTableRecord
100
AcDbViewportTableRecord
  2
L4
 70
     0
 10
0.0
 20
0.0
 11
0.5
 21
0.5
 12
0.0
 22
0.0
 13
0.0
 23
0.0
 14
0.5
 24
0.5
 15
0.5
 25
0.5
 16
0.0
 26
-1.0
 36
0.0
 17
0.0
 27
0.0
 37
0.0
 40
1478.660809
 41
0.012009
 42
50.0
 43
765.39502
 44
-765.39502
 50
0.0
 51
0.0
 71
     0
 72
   100
 73
     1
 74
     3
 75
     0
 76
     0
 77
     0
 78
     0
281
     0
 65
     1
110
0.0
120
0.0
130
0.0
111
1.0
121
0.0
131
0.0
112
0.0
122
1.0
132
0.0
 79
     0
146
0.0
  0
VPORT
  5
1ED
330
8
100
AcDbSymbolTableRecord
100
AcDbViewportTableRecord
  2
L4
 70
     0
 10
0.5
 20
0.0
 11
1.0
 21
0.5
 12
0.0
 22
0.0
 13
0.0
 23
0.0
 14
0.5
 24
0.5
 15
0.5
 25
0.5
 16
1.0
 26
0.0
 36
0.0
 17
0.0
 27
0.0
 37
0.0
 40
1478.660809
 41
0.012009
 42
50.0
 43
746.5698859999999
 44
-746.5698859999999
 50
0.0
 51
0.0
 71
     0
 72
   100
 73
     1
 74
     3
 75
     0
 76
     0
 77
     0
 78
     0
281
     0
 65
     1
110
0.0
120
0.0
130
0.0
111
1.0
121
0.0
131
0.0
112
0.0
122
1.0
132
0.0
 79
     0
146
0.0
  0
VPORT
  5
1EE
330
8
100
AcDbSymbolTableRecord
100
AcDbViewportTableRecord
  2
L4
 70
     0
 10
0.5
 20
0.5
 11
1.0
 21
1.0
 12
0.0
 22
0.0
 13
0.0
 23
0.0
 14
0.5
 24
0.5
 15
0.5
 25
0.5
 16
0.5773502691896259
 26
-0.5773502691896259
 36
0.5773502691896259
 17
0.0
 27
0.0
 37
0.0
 40
1453.705292
 41
0.012215
 42
50.0
 43
757.5245879999999
 44
-757.5245879999999
 50
0.0
 51
0.0
 71
     0
 72
   100
 73
     1
 74
     3
 75
     0
 76
     0
 77
     0
 78
     0
281
     0
 65
     1
110
0.0
120
0.0
130
0.0
111
1.0
121
0.0
131
0.0
112
0.0
122
1.0
132
0.0
 79
     0
146
0.0
  0
VPORT
  5
1EF
330
8
100
AcDbSymbolTableRecord
100
AcDbViewportTableRecord
  2
L6
 70
     0
 10
0.0
 20
0.5
 11
0.333333
 21
1.0
 12
0.0
 22
0.0
 13
0.0
 23
0.0
 14
0.5
 24
0.5
 15
0.5
 25
0.5
 16
0.7188730927569434
 26
-0.5850486126764433
 36
0.3754192287502549
 17
0.0
 27
0.0
 37
0.0
 40
1534.989881
 41
0.011568
 42
50.0
 43
794.5176169999999
 44
-794.5176169999999
 50
0.0
 51
0.0
 71
     0
 72
   100
 73
     1
 74
     3
 75
     0
 76
     0
 77
     0
 78
     0
281
     0
 65
     1
110
0.0
120
0.0
130
0.0
111
1.0
121
0.0
131
0.0
112
0.0
122
1.0
132
0.0
 79
     0
146
0.0
  0
VPORT
  5
1F0
330
8
100
AcDbSymbolTableRecord
100
AcDbViewportTableRecord
  2
L6
 70
     0
 10
0.0
 20
0.0
 11
0.333333
 21
0.5
 12
0.0
 22
0.0
 13
0.0
 23
0.0
 14
0.5
 24
0.5
 15
0.5
 25
0.5
 16
-1.0
 26
0.0
 36
0.0
 17
0.0
 27
0.0
 37
0.0
 40
1478.660809
 41
0.012009
 42
50.0
 43
746.5698859999999
 44
-746.5698859999999
 50
0.0
 51
0.0
 71
     0
 72
   100
 73
     1
 74
     3
 75
     0
 76
     0
 77
     0
 78
     0
281
     0
 65
     1
110
0.0
120
0.0
130
0.0
111
1.0
121
0.0
131
0.0
112
0.0
122
1.0
132
0.0
 79
     0
146
0.0
  0
VPORT
  5
1F1
330
8
100
AcDbSymbolTableRecord
100
AcDbViewportTableRecord
  2
L6
 70
     0
 10
0.333333
 20
0.5
 11
0.666667
 21
1.0
 12
402.612218
 22
217.544638
 13
0.0
 23
0.0
 14
0.5
 24
0.5
 15
0.5
 25
0.5
 16
0.0
 26
0.0
 36
1.0
 17
0.0
 27
0.0
 37
0.0
 40
207.433333
 41
0.085602
 42
50.0
 43
815.5711159999999
 44
-815.5711159999999
 50
0.0
 51
0.0
 71
     0
 72
   100
 73
     1
 74
     3
 75
     0
 76
     0
 77
     0
 78
     0
281
     0
 65
     1
110
0.0
120
0.0
130
0.0
111
1.0
121
0.0
131
0.0
112
0.0
122
1.0
132
0.0
 79
     0
146
0.0
  0
VPORT
  5
1F2
330
8
100
AcDbSymbolTableRecord
100
AcDbViewportTableRecord
  2
L6
 70
     0
 10
0.333333
 20
0.0
 11
0.666667
 21
0.5
 12
0.0
 22
0.0
 13
0.0
 23
0.0
 14
0.5
 24
0.5
 15
0.5
 25
0.5
 16
0.0
 26
-1.0
 36
0.0
 17
0.0
 27
0.0
 37
0.0
 40
1478.660809
 41
0.012009
 42
50.0
 43
765.39502
 44
-765.39502
 50
0.0
 51
0.0
 71
     0
 72
   100
 73
     1
 74
     3
 75
     0
 76
     0
 77
     0
 78
     0
281
     0
 65
     1
110
0.0
120
0.0
130
0.0
111
1.0
121
0.0
131
0.0
112
0.0
122
1.0
132
0.0
 79
     0
146
0.0
  0
VPORT
  5
1F3
330
8
100
AcDbSymbolTableRecord
100
AcDbViewportTableRecord
  2
L6
 70
     0
 10
0.666667
 20
0.5
 11
1.0
 21
1.0
 12
0.0
 22
0.0
 13
0.0
 23
0.0
 14
0.5
 24
0.5
 15
0.5
 25
0.5
 16
0.5773502691896259
 26
-0.5773502691896259
 36
0.5773502691896259
 17
0.0
 27
0.0
 37
0.0
 40
1453.705292
 41
0.012215
 42
50.0
 43
757.5245879999999
 44
-757.5245879999999
 50
0.0
 51
0.0
 71
     0
 72
   100
 73
     1
 74
     3
 75
     0
 76
     0
 77
     0
 78
     0
281
     0
 65
     1
110
0.0
120
0.0
130
0.0
111
1.0
121
0.0
131
0.0
112
0.0
122
1.0
132
0.0
 79
     0
146
0.0
  0
VPORT
  5
1F4
330
8
100
AcDbSymbolTableRecord
100
AcDbViewportTableRecord
  2
L6
 70
     0
 10
0.666667
 20
0.0
 11
1.0
 21
0.5
 12
0.0
 22
0.0
 13
0.0
 23
0.0
 14
0.5
 24
0.5
 15
0.5
 25
0.5
 16
1.0
 26
0.0
 36
0.0
 17
0.0
 27
0.0
 37
0.0
 40
1478.660809
 41
0.012009
 42
50.0
 43
746.5698859999999
 44
-746.5698859999999
 50
0.0
 51
0.0
 71
     0
 72
   100
 73
     1
 74
     3
 75
     0
 76
     0
 77
     0
 78
     0
281
     0
 65
     1
110
0.0
120
0.0
130
0.0
111
1.0
121
0.0
131
0.0
112
0.0
122
1.0
132
0.0
 79
     0
146
0.0
  0
ENDTAB
  0
TABLE
  2
LTYPE
  5
5
330
0
100
AcDbSymbolTable
 70
    19
  0
LTYPE
  5
14
330
5
100
AcDbSymbolTableRecord
100
AcDbLinetypeTableRecord
  2
ByBlock
 70
     0
  3

 72
    65
 73
     0
 40
0.0
  0
LTYPE
  5
15
330
5
100
AcDbSymbolTableRecord
100
AcDbLinetypeTableRecord
  2
ByLayer
 70
     0
  3

 72
    65
 73
     0
 40
0.0
  0
LTYPE
  5
16
330
5
100
AcDbSymbolTableRecord
100
AcDbLinetypeTableRecord
  2
Continuous
 70
     0
  3
Solid line
 72
    65
 73
     0
 40
0.0
  0
LTYPE
  5
6E
330
5
100
AcDbSymbolTableRecord
100
AcDbLinetypeTableRecord
  2
CENTER
 70
     0
  3
____ _ ____ _ ____ _ ____
 72
    65
 73
     4
 40
47.4
 49
22.0
 74
     4
 75
     0
340
0
 46
0.0
 50
0.0
 44
0.0
 45
0.0
 49
-8.5
 74
     4
 75
     0
340
0
 46
0.0
 50
0.0
 44
0.0
 45
0.0
 49
8.5
 74
     4
 75
     0
340
0
 46
0.0
 50
0.0
 44
0.0
 45
0.0
 49
-8.5
 74
     4
 75
     0
340
0
 46
0.0
 50
0.0
 44
0.0
 45
0.0
  0
LTYPE
  5
6F
330
5
100
AcDbSymbolTableRecord
100
AcDbLinetypeTableRecord
  2
DASHDOT
 70
     0
  3
_._._._._._._._._._._._._._._._.
 72
    65
 73
     4
 40
70.0
 49
31.0
 74
     4
 75
     0
340
0
 46
0.0
 50
0.0
 44
0.0
 45
0.0
 49
-13.0
 74
     4
 75
     0
340
0
 46
0.0
 50
0.0
 44
0.0
 45
0.0
 49
13.0
 74
     4
 75
     0
340
0
 46
0.0
 50
0.0
 44
0.0
 45
0.0
 49
-13.0
 74
     4
 75
     0
340
0
 46
0.0
 50
0.0
 44
0.0
 45
0.0
  0
LTYPE
  5
70
330
5
100
AcDbSymbolTableRecord
100
AcDbLinetypeTableRecord
  2
DASHED
 70
     0
  3
__ __ __ __ __ __ __ __ __
 72
    65
 73
     2
 40
25.72
 49
12.86
 74
     4
 75
     0
340
0
 46
0.0
 50
0.0
 44
0.0
 45
0.0
 49
-12.86
 74
     4
 75
     0
340
0
 46
0.0
 50
0.0
 44
0.0
 45
0.0
  0
LTYPE
  5
71
330
5
100
AcDbSymbolTableRecord
100
AcDbLinetypeTableRecord
  2
DOT
 70
     0
  3
.........................
 72
    65
 73
     2
 40
10.0
 49
0.0
 74
     4
 75
     0
340
0
 46
0.0
 50
0.0
 44
0.0
 45
0.0
 49
-10.0
 74
     4
 75
     0
340
0
 46
0.0
 50
0.0
 44
0.0
 45
0.0
  0
LTYPE
  5
72
330
5
100
AcDbSymbolTableRecord
100
AcDbLinetypeTableRecord
  2
PHANTOM
 70
     0
  3
____ _ _ ____ _ _ _____ _ _ ____
 72
    65
 73
     6
 40
50.5
 49
18.0
 74
     4
 75
     0
340
0
 46
0.0
 50
0.0
 44
0.0
 45
0.0
 49
-6.5
 74
     4
 75
     0
340
0
 46
0.0
 50
0.0
 44
0.0
 45
0.0
 49
6.5
 74
     4
 75
     0
340
0
 46
0.0
 50
0.0
 44
0.0
 45
0.0
 49
-6.5
 74
     4
 75
     0
340
0
 46
0.0
 50
0.0
 44
0.0
 45
0.0
 49
6.5
 74
     4
 75
     0
340
0
 46
0.0
 50
0.0
 44
0.0
 45
0.0
 49
-6.5
 74
     4
 75
     0
340
0
 46
0.0
 50
0.0
 44
0.0
 45
0.0
  0
LTYPE
  5
254
330
5
100
AcDbSymbolTableRecord
100
AcDbLinetypeTableRecord
  2
HIDDEN
 70
     0
  3
Hidden __ __ __ __ __ __ __ __ __ __ __ __ __ _
 72
    65
 73
     2
 40
9.524999999999998
 49
6.349999999999999
 74
     0
 49
-3.174999999999999
 74
     0
  0
LTYPE
  5
255
330
5
100
AcDbSymbolTableRecord
100
AcDbLinetypeTableRecord
  2
PHANTOM2
 70
     0
  3
Phantom (.5x) ___ _ _ ___ _ _ ___ _ _ ___ _ _
 72
    65
 73
     6
 40
31.75
 49
15.875
 74
     0
 49
-3.174999999999999
 74
     0
 49
3.174999999999999
 74
     0
 49
-3.174999999999999
 74
     0
 49
3.174999999999999
 74
     0
 49
-3.174999999999999
 74
     0
  0
LTYPE
  5
290
330
5
100
AcDbSymbolTableRecord
100
AcDbLinetypeTableRecord
  2
AM_ISO02W050
 70
     0
  3
__ __ __ __ __ __ __ __ __ __ __ __ __ __ __
 72
    65
 73
     2
 40
7.5
 49
6.0
 74
     0
 49
-1.5
 74
     0
  0
LTYPE
  5
291
330
5
100
AcDbSymbolTableRecord
100
AcDbLinetypeTableRecord
  2
AM_ISO08W050
 70
     0
  3
____ . ____ . ____ . ____ . ____ . ____ . ____
 72
    65
 73
     4
 40
18.0
 49
12.0
 74
     0
 49
-1.5
 74
     0
 49
3.0
 74
     0
 49
-1.5
 74
     0
  0
LTYPE
  5
292
330
5
100
AcDbSymbolTableRecord
100
AcDbLinetypeTableRecord
  2
AM_ISO09W050
 70
     0
  3
_____ . . _____ . . _____ . . ____ .. ____
 72
    65
 73
     6
 40
22.5
 49
12.0
 74
     0
 49
-1.5
 74
     0
 49
3.0
 74
     0
 49
-1.5
 74
     0
 49
3.0
 74
     0
 49
-1.5
 74
     0
  0
LTYPE
  5
293
330
5
100
AcDbSymbolTableRecord
100
AcDbLinetypeTableRecord
  2
Amconstr
 70
     0
  3
_______________________
 72
    65
 73
     2
 40
9999.0
 49
9999.0
 74
     0
 49
0.0
 74
     0
  0
LTYPE
  5
294
330
5
100
AcDbSymbolTableRecord
100
AcDbLinetypeTableRecord
  2
AM_ISO08W050x2
 70
     0
  3
__ . __ . __ . __ . __ . __
 72
    65
 73
     4
 40
9.0
 49
6.0
 74
     0
 49
-0.75
 74
     0
 49
1.5
 74
     0
 49
-0.75
 74
     0
  0
LTYPE
  5
295
330
5
100
AcDbSymbolTableRecord
100
AcDbLinetypeTableRecord
  2
AM_ISO02W050x2
 70
     0
  3
 _ _ _ _ _ _ _ _ _ _ _ _
 72
    65
 73
     2
 40
3.75
 49
3.0
 74
     0
 49
-0.75
 74
     0
  0
LTYPE
  5
298
330
5
100
AcDbSymbolTableRecord
100
AcDbLinetypeTableRecord
  2
Amzigzag
 70
     0
  3
/\/-/\/-/\/-/\/-/\/-/\/
 72
    65
 73
     2
 40
11.0001
 49
0.0001
 74
     4
 75
   136
340
297
 46
0.04
 50
0.0
 44
0.0
 45
0.0
 49
-11.0
 74
     0
  0
LTYPE
  5
2A8
330
5
100
AcDbSymbolTableRecord
100
AcDbLinetypeTableRecord
  2
ACISOWELD
 70
     0
  3
_ _ _ _ _
 72
    65
 73
     2
 40
2.0
 49
2.0
 74
     0
 49
-1.0
 74
     0
  0
LTYPE
  5
2A9
330
5
100
AcDbSymbolTableRecord
100
AcDbLinetypeTableRecord
  2
ACISOTGL
 70
     0
  3
_ _ _ _ _
 72
    65
 73
     2
 40
3.0
 49
2.0
 74
     0
 49
-1.0
 74
     0
  0
LTYPE
  5
2AA
330
5
100
AcDbSymbolTableRecord
100
AcDbLinetypeTableRecord
  2
ACISOTGB
 70
     0
  3
__ . . __ . .
 72
    65
 73
     6
 40
9.0
 49
4.0
 74
     0
 49
-1.0
 74
     0
 49
1.0
 74
     0
 49
-1.0
 74
     0
 49
1.0
 74
     0
 49
-1.0
 74
     0
  0
LTYPE
  5
2EE
330
5
100
AcDbSymbolTableRecord
100
AcDbLinetypeTableRecord
  2
CENTER2
 70
     0
  3
Center (.5x) ___ _ ___ _ ___ _ ___ _ ___ _ ___
 72
    65
 73
     4
 40
1.125
 49
0.75
 74
     0
 49
-0.125
 74
     0
 49
0.125
 74
     0
 49
-0.125
 74
     0
  0
ENDTAB
  0
TABLE
  2
LAYER
  5
2
330
0
100
AcDbSymbolTable
 70
    23
  0
LAYER
  5
10
102
{ACAD_XDICTIONARY
360
2F9
102
}
330
2
100
AcDbSymbolTableRecord
100
AcDbLayerTableRecord
  2
0
 70
     0
 62
     7
  6
Continuous
370
    -3
390
F
  0
LAYER
  5
76
102
{ACAD_XDICTIONARY
360
2FB
102
}
330
2
100
AcDbSymbolTableRecord
100
AcDbLayerTableRecord
  2
96
 70
     0
 62
     7
420
 16777215
  6
Continuous
370
    -3
390
F
  0
LAYER
  5
18A
330
2
100
AcDbSymbolTableRecord
100
AcDbLayerTableRecord
  2
Defpoints
 70
     0
 62
     7
  6
Continuous
290
     0
370
    -3
390
F
  0
LAYER
  5
2EB
102
{ACAD_XDICTIONARY
360
2FD
102
}
330
2
100
AcDbSymbolTableRecord
100
AcDbLayerTableRecord
  2
1
 70
     0
 62
     4
  6
Continuous
370
    -3
390
F
  0
LAYER
  5
2EC
102
{ACAD_XDICTIONARY
360
2FF
102
}
330
2
100
AcDbSymbolTableRecord
100
AcDbLayerTableRecord
  2
2
 70
     0
 62
     7
  6
Continuous
370
    -3
390
F
  0
LAYER
  5
2ED
102
{ACAD_XDICTIONARY
360
301
102
}
330
2
100
AcDbSymbolTableRecord
100
AcDbLayerTableRecord
  2
4
 70
     0
 62
     2
  6
CENTER2
370
    -3
390
F
  0
LAYER
  5
2EF
102
{ACAD_XDICTIONARY
360
303
102
}
330
2
100
AcDbSymbolTableRecord
100
AcDbLayerTableRecord
  2
SK1
 70
     0
 62
     4
  6
Continuous
370
    -3
390
F
  0
LAYER
  5
2F0
102
{ACAD_XDICTIONARY
360
305
102
}
330
2
100
AcDbSymbolTableRecord
100
AcDbLayerTableRecord
  2
SK2
 70
     0
 62
     7
  6
Continuous
370
    -3
390
F
  0
LAYER
  5
2F2
102
{ACAD_XDICTIONARY
360
307
102
}
330
2
100
AcDbSymbolTableRecord
100
AcDbLayerTableRecord
  2
SK4
 70
     0
 62
     2
  6
CENTER2
370
    -3
390
F
  0
LAYER
  5
2F3
102
{ACAD_XDICTIONARY
360
309
102
}
330
2
100
AcDbSymbolTableRecord
100
AcDbLayerTableRecord
  2
SK6
 70
     0
 62
     5
  6
Continuous
370
    -3
390
F
  0
LAYER
  5
2F4
102
{ACAD_XDICTIONARY
360
30B
102
}
330
2
100
AcDbSymbolTableRecord
100
AcDbLayerTableRecord
  2
CUT
 70
     0
 62
     1
  6
Continuous
370
    -3
390
F
  0
LAYER
  5
2F5
102
{ACAD_XDICTIONARY
360
30D
102
}
330
2
100
AcDbSymbolTableRecord
100
AcDbLayerTableRecord
  2
NOCUT
 70
     0
 62
     7
  6
Continuous
370
    -3
390
F
  0
LAYER
  5
2F6
102
{ACAD_XDICTIONARY
360
30F
102
}
330
2
100
AcDbSymbolTableRecord
100
AcDbLayerTableRecord
  2
80
 70
     0
 62
     6
  6
Continuous
370
    -3
390
F
  0
LAYER
  5
2F7
102
{ACAD_XDICTIONARY
360
311
102
}
330
2
100
AcDbSymbolTableRecord
100
AcDbLayerTableRecord
  2
81
 70
     0
 62
     3
  6
Continuous
370
    -3
390
F
  0
ENDTAB
  0
TABLE
  2
STYLE
  5
3
330
0
100
AcDbSymbolTable
 70
     6
  0
STYLE
  5
11
330
3
100
AcDbSymbolTableRecord
100
AcDbTextStyleTableRecord
  2
Standard
 70
     0
 40
0.0
 41
1.0
 50
0.0
 71
     0
 42
0.2
  3
txt
  4

  0
STYLE
  5
183
330
3
100
AcDbSymbolTableRecord
100
AcDbTextStyleTableRecord
  2
cesky
 70
     0
 40
0.0
 41
1.0
 50
0.0
 71
     0
 42
0.2
  3
simplex.shx
  4

  0
STYLE
  5
184
330
3
100
AcDbSymbolTableRecord
100
AcDbTextStyleTableRecord
  2
DWGDirectTextStyle
 70
     0
 40
0.0
 41
1.0
 50
0.0
 71
     0
 42
0.2
  3
simplex
  4

  0
STYLE
  5
297
330
3
100
AcDbSymbolTableRecord
100
AcDbTextStyleTableRecord
  2

 70
     1
 40
0.0
 41
1.0
 50
0.0
 71
     0
 42
0.2
  3
genltshp.shx
  4

  0
STYLE
  5
2A6
330
3
100
AcDbSymbolTableRecord
100
AcDbTextStyleTableRecord
  2
ACISOTS
 70
     0
 40
0.0
 41
1.0
 50
0.0
 71
     0
 42
0.2
  3
isocp.shx
  4

  0
STYLE
  5
2A7
330
3
100
AcDbSymbolTableRecord
100
AcDbTextStyleTableRecord
  2
ACISOGDT
 70
     0
 40
0.0
 41
1.0
 50
0.0
 71
     0
 42
0.2
  3
amgdt.shx
  4

  0
ENDTAB
  0
TABLE
  2
VIEW
  5
6
330
0
100
AcDbSymbolTable
 70
     0
  0
ENDTAB
  0
TABLE
  2
UCS
  5
7
330
0
100
AcDbSymbolTable
 70
     0
  0
ENDTAB
  0
TABLE
  2
APPID
  5
9
330
0
100
AcDbSymbolTable
 70
    13
  0
APPID
  5
12
330
9
100
AcDbSymbolTableRecord
100
AcDbRegAppTableRecord
  2
ACAD
 70
     0
  0
APPID
  5
186
330
9
100
AcDbSymbolTableRecord
100
AcDbRegAppTableRecord
  2
ACAD_DSTYLE_DIMBREAK
 70
     0
  0
APPID
  5
1F5
330
9
100
AcDbSymbolTableRecord
100
AcDbRegAppTableRecord
  2
ACAD_DSTYLE_DIM_LINETYPE
 70
     0
  0
APPID
  5
1F6
330
9
100
AcDbSymbolTableRecord
100
AcDbRegAppTableRecord
  2
ACAD_DSTYLE_DIM_EXT1_LINETYPE
 70
     0
  0
APPID
  5
1F7
330
9
100
AcDbSymbolTableRecord
100
AcDbRegAppTableRecord
  2
ACAD_DSTYLE_DIM_EXT2_LINETYPE
 70
     0
  0
APPID
  5
237
330
9
100
AcDbSymbolTableRecord
100
AcDbRegAppTableRecord
  2
ACAD_MLEADERVER
 70
     0
  0
APPID
  5
24D
330
9
100
AcDbSymbolTableRecord
100
AcDbRegAppTableRecord
  2
MCAD_NO_VIS
 70
     0
  0
APPID
  5
24E
330
9
100
AcDbSymbolTableRecord
100
AcDbRegAppTableRecord
  2
ACAD_TEMP_GRAPHIC
 70
     0
  0
APPID
  5
25A
330
9
100
AcDbSymbolTableRecord
100
AcDbRegAppTableRecord
  2
ACATTRIBSERVICES
 70
     0
  0
APPID
  5
272
330
9
100
AcDbSymbolTableRecord
100
AcDbRegAppTableRecord
  2
DESIGNERASSEMBLIES
 70
     0
  0
APPID
  5
28E
330
9
100
AcDbSymbolTableRecord
100
AcDbRegAppTableRecord
  2
ACAD_DSTYLE_DIMJAG
 70
     0
  0
APPID
  5
2BA
330
9
100
AcDbSymbolTableRecord
100
AcDbRegAppTableRecord
  2
ACAD_NAV_VCDISPLAY
 70
     0
  0
APPID
  5
34D
330
9
100
AcDbSymbolTableRecord
100
AcDbRegAppTableRecord
  2
ACAD_DSTYLE_DIMARC_LENGTH_SYMBOL
 70
     0
  0
ENDTAB
  0
TABLE
  2
DIMSTYLE
  5
A
330
0
100
AcDbSymbolTable
 70
     8
100
AcDbDimStyleTable
 71
     0
  0
DIMSTYLE
105
27
330
A
100
AcDbSymbolTableRecord
100
AcDbDimStyleTableRecord
  2
Standard
 70
     0
340
11
1001
ACAD_DSTYLE_DIMBREAK
1070
   391
1040
6.349999999999999
  0
DIMSTYLE
105
28D
102
{ACAD_REACTORS
330
27B
102
}
330
A
100
AcDbSymbolTableRecord
100
AcDbDimStyleTableRecord
  2
AM_ISO
 70
     0
  4
"
 41
3.5
 42
1.0
 43
10.0
 44
1.0
 47
0.1
 48
0.1
 73
     0
 74
     0
 77
     1
 78
     8
 79
     2
140
3.5
141
0.0
143
0.0393701
146
0.71
147
1.5
172
     1
176
   256
177
   256
178
     2
271
     2
272
     3
274
     4
283
     0
284
     8
340
11
371
    -1
372
    -1
1001
ACAD_DSTYLE_DIMJAG
1070
   388
1040
1.5
1001
ACAD_DSTYLE_DIMBREAK
1070
   391
1040
3.75
1001
ACAD_DSTYLE_DIMARC_LENGTH_SYMBOL
1070
   379
1070
     1
1001
ACAD_DSTYLE_DIM_LINETYPE
1070
   380
1005
14
1001
ACAD_DSTYLE_DIM_EXT1_LINETYPE
1070
   381
1005
14
1001
ACAD_DSTYLE_DIM_EXT2_LINETYPE
1070
   382
1005
14
  0
DIMSTYLE
105
299
330
A
100
AcDbSymbolTableRecord
100
AcDbDimStyleTableRecord
  2
AM_ISO$3
 70
     0
  4
"
 41
3.5
 42
1.0
 43
10.0
 44
1.0
 47
0.1
 48
0.1
 73
     0
 77
     1
 78
     8
 79
     2
140
3.5
141
0.0
143
0.0393701
146
0.71
147
1.5
176
   256
177
   256
178
     2
271
     2
272
     3
274
     4
283
     0
284
     8
288
     1
289
     0
340
11
371
    -1
372
    -1
1001
ACAD_DSTYLE_DIMBREAK
1070
   391
1040
3.75
1001
ACAD_DSTYLE_DIMJAG
1070
   388
1040
1.5
1001
ACAD_DSTYLE_DIMARC_LENGTH_SYMBOL
1070
   379
1070
     1
1001
ACAD_DSTYLE_DIM_LINETYPE
1070
   380
1005
14
1001
ACAD_DSTYLE_DIM_EXT1_LINETYPE
1070
   381
1005
14
1001
ACAD_DSTYLE_DIM_EXT2_LINETYPE
1070
   382
1005
14
  0
DIMSTYLE
105
29A
330
A
100
AcDbSymbolTableRecord
100
AcDbDimStyleTableRecord
  2
AM_ISO$4
 70
     0
  4
"
 41
3.5
 42
1.0
 43
10.0
 44
1.0
 47
0.1
 48
0.1
 73
     0
 77
     1
 78
     8
 79
     2
140
3.5
141
0.0
143
0.0393701
146
0.71
147
1.5
176
   256
177
   256
178
     2
271
     2
272
     3
274
     4
283
     0
284
     8
288
     1
289
     0
340
11
371
    -1
372
    -1
1001
ACAD_DSTYLE_DIMBREAK
1070
   391
1040
3.75
1001
ACAD_DSTYLE_DIMJAG
1070
   388
1040
1.5
1001
ACAD_DSTYLE_DIMARC_LENGTH_SYMBOL
1070
   379
1070
     1
1001
ACAD_DSTYLE_DIM_LINETYPE
1070
   380
1005
14
1001
ACAD_DSTYLE_DIM_EXT1_LINETYPE
1070
   381
1005
14
1001
ACAD_DSTYLE_DIM_EXT2_LINETYPE
1070
   382
1005
14
  0
DIMSTYLE
105
29B
330
A
100
AcDbSymbolTableRecord
100
AcDbDimStyleTableRecord
  2
AM_ISO$6
 70
     0
  4
"
 41
3.5
 42
1.0
 43
10.0
 44
1.0
 47
0.1
 48
0.1
 73
     0
 74
     0
 78
     8
 79
     2
140
3.5
141
0.0
143
0.0393701
146
0.71
147
1.5
172
     1
176
   256
177
   256
178
     2
271
     2
272
     3
274
     4
283
     0
284
     8
340
11
371
    -1
372
    -1
1001
ACAD_DSTYLE_DIMBREAK
1070
   391
1040
3.75
1001
ACAD_DSTYLE_DIMJAG
1070
   388
1040
1.5
1001
ACAD_DSTYLE_DIMARC_LENGTH_SYMBOL
1070
   379
1070
     1
1001
ACAD_DSTYLE_DIM_LINETYPE
1070
   380
1005
14
1001
ACAD_DSTYLE_DIM_EXT1_LINETYPE
1070
   381
1005
14
1001
ACAD_DSTYLE_DIM_EXT2_LINETYPE
1070
   382
1005
14
  0
DIMSTYLE
105
29C
330
A
100
AcDbSymbolTableRecord
100
AcDbDimStyleTableRecord
  2
AM_ISO$7
 70
     0
  4
"
 41
3.5
 42
1.0
 43
10.0
 44
1.0
 47
0.1
 48
0.1
 73
     0
 74
     0
 77
     1
 78
     8
 79
     2
140
3.5
141
0.0
143
0.0393701
146
0.71
147
1.5
172
     1
176
   256
177
   256
178
     2
271
     2
272
     3
274
     4
283
     0
284
     8
340
11
371
    -1
372
    -1
1001
ACAD_DSTYLE_DIMBREAK
1070
   391
1040
3.75
1001
ACAD_DSTYLE_DIMJAG
1070
   388
1040
1.5
1001
ACAD_DSTYLE_DIMARC_LENGTH_SYMBOL
1070
   379
1070
     1
1001
ACAD_DSTYLE_DIM_LINETYPE
1070
   380
1005
14
1001
ACAD_DSTYLE_DIM_EXT1_LINETYPE
1070
   381
1005
14
1001
ACAD_DSTYLE_DIM_EXT2_LINETYPE
1070
   382
1005
14
  0
DIMSTYLE
105
29D
330
A
100
AcDbSymbolTableRecord
100
AcDbDimStyleTableRecord
  2
AM_ISO$SF
 70
     0
  4
"
 41
3.5
 42
1.0
 43
10.0
 44
1.0
 47
0.1
 48
0.1
 73
     0
 74
     0
 75
     1
 76
     1
 77
     1
 78
     8
 79
     2
140
3.5
141
0.0
143
0.0393701
146
0.71
147
1.5
172
     1
176
   256
177
   256
178
     2
271
     2
272
     3
274
     4
283
     0
284
     8
340
11
371
    -1
372
    -1
1001
ACAD_DSTYLE_DIMBREAK
1070
   391
1040
3.75
1001
ACAD_DSTYLE_DIMJAG
1070
   388
1040
1.5
1001
ACAD_DSTYLE_DIMARC_LENGTH_SYMBOL
1070
   379
1070
     1
1001
ACAD_DSTYLE_DIM_LINETYPE
1070
   380
1005
14
1001
ACAD_DSTYLE_DIM_EXT1_LINETYPE
1070
   381
1005
14
1001
ACAD_DSTYLE_DIM_EXT2_LINETYPE
1070
   382
1005
14
  0
DIMSTYLE
105
2A2
330
A
100
AcDbSymbolTableRecord
100
AcDbDimStyleTableRecord
  2
AM_ISO$SH
 70
     0
  4
"
 41
3.5
 42
1.0
 43
10.0
 44
1.0
 47
0.1
 48
0.1
 73
     0
 74
     0
 75
     1
 76
     1
 77
     1
 78
     8
 79
     2
140
3.5
141
0.0
143
0.0393701
144
2.0
146
0.71
147
1.5
172
     1
173
     1
176
   256
177
   256
178
     2
271
     2
272
     3
274
     4
283
     0
284
     8
340
11
343
29E
371
    -1
372
    -1
1001
ACAD_DSTYLE_DIMBREAK
1070
   391
1040
3.75
1001
ACAD_DSTYLE_DIMJAG
1070
   388
1040
1.5
1001
ACAD_DSTYLE_DIMARC_LENGTH_SYMBOL
1070
   379
1070
     1
1001
ACAD_DSTYLE_DIM_LINETYPE
1070
   380
1005
14
1001
ACAD_DSTYLE_DIM_EXT1_LINETYPE
1070
   381
1005
14
1001
ACAD_DSTYLE_DIM_EXT2_LINETYPE
1070
   382
1005
14
  0
ENDTAB
  0
TABLE
  2
BLOCK_RECORD
  5
1
330
0
100
AcDbSymbolTable
 70
    12
  0
BLOCK_RECORD
  5
1F
102
{ACAD_XDICTIONARY
360
2C2
102
}
330
1
100
AcDbSymbolTableRecord
100
AcDbBlockTableRecord
  2
*Model_Space
340
22
  0
BLOCK_RECORD
  5
1B
330
1
100
AcDbSymbolTableRecord
100
AcDbBlockTableRecord
  2
*Paper_Space
340
1E
  0
BLOCK_RECORD
  5
23
330
1
100
AcDbSymbolTableRecord
100
AcDbBlockTableRecord
  2
*Paper_Space0
340
26
  0
BLOCK_RECORD
  5
17D
330
1
100
AcDbSymbolTableRecord
100
AcDbBlockTableRecord
  2
ASSORTED_DRAFT1
340
0
  0
BLOCK_RECORD
  5
18B
330
1
100
AcDbSymbolTableRecord
100
AcDbBlockTableRecord
  2
*D2
340
0
  0
BLOCK_RECORD
  5
197
330
1
100
AcDbSymbolTableRecord
100
AcDbBlockTableRecord
  2
_U0
340
0
  0
BLOCK_RECORD
  5
1A3
330
1
100
AcDbSymbolTableRecord
100
AcDbBlockTableRecord
  2
*D4
340
0
  0
BLOCK_RECORD
  5
1AF
330
1
100
AcDbSymbolTableRecord
100
AcDbBlockTableRecord
  2
_U1
340
0
  0
BLOCK_RECORD
  5
1BB
330
1
100
AcDbSymbolTableRecord
100
AcDbBlockTableRecord
  2
*D6
340
0
  0
BLOCK_RECORD
  5
1C7
330
1
100
AcDbSymbolTableRecord
100
AcDbBlockTableRecord
  2
_U2
340
0
  0
BLOCK_RECORD
  5
1D3
330
1
100
AcDbSymbolTableRecord
100
AcDbBlockTableRecord
  2
*D8
340
0
  0
BLOCK_RECORD
  5
1DE
330
1
100
AcDbSymbolTableRecord
100
AcDbBlockTableRecord
  2
_U3
340
0
  0
BLOCK_RECORD
  5
29E
330
1
100
AcDbSymbolTableRecord
100
AcDbBlockTableRecord
  2
GENAXEH
340
0
  0
ENDTAB
  0
ENDSEC
  0
SECTION
  2
BLOCKS
  0
BLOCK
  5
20
330
1F
100
AcDbEntity
  8
0
100
AcDbBlockBegin
  2
*Model_Space
 70
     0
 10
0.0
 20
0.0
 30
0.0
  3
*Model_Space
  1

  0
ENDBLK
  5
21
330
1F
100
AcDbEntity
  8
0
100
AcDbBlockEnd
  0
BLOCK
  5
1C
330
1B
100
AcDbEntity
 67
     1
  8
0
100
AcDbBlockBegin
  2
*Paper_Space
 70
     0
 10
0.0
 20
0.0
 30
0.0
  3
*Paper_Space
  1

  0
ENDBLK
  5
1D
330
1B
100
AcDbEntity
 67
     1
  8
0
100
AcDbBlockEnd
  0
BLOCK
  5
24
330
23
100
AcDbEntity
 67
     1
  8
0
100
AcDbBlockBegin
  2
*Paper_Space0
 70
     0
 10
0.0
 20
0.0
 30
0.0
  3
*Paper_Space0
  1

  0
ENDBLK
  5
25
330
23
100
AcDbEntity
 67
     1
  8
0
100
AcDbBlockEnd
  0
BLOCK
  5
180
330
17D
100
AcDbEntity
  8
0
100
AcDbBlockBegin
  2
ASSORTED_DRAFT1
 70
     0
 10
0.0
 20
0.0
 30
0.0
  3
ASSORTED_DRAFT1
  1

  0
SOLID
  5
17E
330
17D
100
AcDbEntity
  8
0
 62
   254
370
    13
100
AcDbTrace
 10
476.517572
 20
269.186216
 30
0.0
 11
481.517568
 21
270.29469
 31
0.0
 12
481.5175759999999
 22
268.077743
 32
0.0
 13
476.517572
 23
269.186216
 33
0.0
  0
ENDBLK
  5
181
330
17D
100
AcDbEntity
  8
0
100
AcDbBlockEnd
  0
BLOCK
  5
18C
330
18B
100
AcDbEntity
  8
0
100
AcDbBlockBegin
  2
*D2
 70
     1
 10
0.0
 20
0.0
 30
0.0
  3
*D2
  1

  0
LINE
  5
18E
330
18B
100
AcDbEntity
  8
0
 62
   254
370
    -2
100
AcDbLine
 10
422.174849
 20
383.508075
 30
0.0
 11
422.174849
 21
385.610012
 31
0.0
  0
LINE
  5
18F
330
18B
100
AcDbEntity
  8
0
 62
   254
370
    -2
100
AcDbLine
 10
393.587125
 20
381.1481490000001
 30
0.0
 11
393.587125
 21
385.610012
 31
0.0
  0
LINE
  5
190
330
18B
100
AcDbEntity
  8
0
 62
   254
370
    -2
100
AcDbLine
 10
418.674849
 20
384.610012
 30
0.0
 11
397.087125
 21
384.610012
 31
0.0
  0
SOLID
  5
191
330
18B
100
AcDbEntity
  8
0
 62
   254
100
AcDbTrace
 10
418.674849
 20
384.026678
 30
0.0
 11
418.674849
 21
385.193345
 31
0.0
 12
422.174849
 22
384.610012
 32
0.0
 13
422.174849
 23
384.610012
 33
0.0
  0
SOLID
  5
192
330
18B
100
AcDbEntity
  8
0
 62
   254
100
AcDbTrace
 10
397.087125
 20
385.193345
 30
0.0
 11
397.087125
 21
384.026678
 31
0.0
 12
393.587125
 22
384.610012
 32
0.0
 13
393.587125
 23
384.610012
 33
0.0
  0
MTEXT
  5
193
330
18B
100
AcDbEntity
  8
0
 62
   254
370
    13
100
AcDbMText
 10
407.8809869999999
 20
389.860012
 30
0.0
 40
3.5
 41
0.0
 71
     5
 72
     1
  1
\A1;28.59
  7
cesky
 73
     1
 44
1.0
  0
POINT
  5
194
330
18B
100
AcDbEntity
  8
Defpoints
 62
     0
100
AcDbPoint
 10
422.174849
 20
383.508075
 30
0.0
  0
POINT
  5
195
330
18B
100
AcDbEntity
  8
Defpoints
 62
     0
100
AcDbPoint
 10
393.587125
 20
381.1481490000001
 30
0.0
  0
POINT
  5
196
330
18B
100
AcDbEntity
  8
Defpoints
 62
     0
100
AcDbPoint
 10
393.587125
 20
384.610012
 30
0.0
  0
ENDBLK
  5
18D
330
18B
100
AcDbEntity
  8
0
100
AcDbBlockEnd
  0
BLOCK
  5
19E
330
197
100
AcDbEntity
  8
0
100
AcDbBlockBegin
  2
_U0
 70
     0
 10
0.0
 20
0.0
 30
0.0
  3
_U0
  1

  0
ENDBLK
  5
19F
330
197
100
AcDbEntity
  8
0
100
AcDbBlockEnd
  0
BLOCK
  5
1A4
330
1A3
100
AcDbEntity
  8
0
100
AcDbBlockBegin
  2
*D4
 70
     1
 10
0.0
 20
0.0
 30
0.0
  3
*D4
  1

  0
LINE
  5
1A6
330
1A3
100
AcDbEntity
  8
0
 62
    95
370
    -2
100
AcDbLine
 10
422.174849
 20
383.508075
 30
0.0
 11
422.174849
 21
410.1351399999999
 31
0.0
  0
LINE
  5
1A7
330
1A3
100
AcDbEntity
  8
0
 62
    95
370
    -2
100
AcDbLine
 10
219.745788
 20
377.258075
 30
0.0
 11
219.745788
 21
410.1351399999999
 31
0.0
  0
LINE
  5
1A8
330
1A3
100
AcDbEntity
  8
0
 62
    95
370
    -2
100
AcDbLine
 10
418.674849
 20
409.1351399999999
 30
0.0
 11
223.245788
 21
409.1351399999999
 31
0.0
  0
SOLID
  5
1A9
330
1A3
100
AcDbEntity
  8
0
 62
    95
100
AcDbTrace
 10
418.674849
 20
408.551807
 30
0.0
 11
418.674849
 21
409.718473
 31
0.0
 12
422.174849
 22
409.1351399999999
 32
0.0
 13
422.174849
 23
409.1351399999999
 33
0.0
  0
SOLID
  5
1AA
330
1A3
100
AcDbEntity
  8
0
 62
    95
100
AcDbTrace
 10
223.245788
 20
409.718473
 30
0.0
 11
223.245788
 21
408.551807
 31
0.0
 12
219.745788
 22
409.1351399999999
 32
0.0
 13
219.745788
 23
409.1351399999999
 33
0.0
  0
MTEXT
  5
1AB
330
1A3
100
AcDbEntity
  8
0
 62
    95
370
    13
100
AcDbMText
 10
320.960318
 20
414.3851399999999
 30
0.0
 40
3.5
 41
0.0
 71
     5
 72
     1
  1
\A1;202.4
  7
cesky
 73
     1
 44
1.0
  0
POINT
  5
1AC
330
1A3
100
AcDbEntity
  8
Defpoints
 62
     0
100
AcDbPoint
 10
422.174849
 20
383.508075
 30
0.0
  0
POINT
  5
1AD
330
1A3
100
AcDbEntity
  8
Defpoints
 62
     0
100
AcDbPoint
 10
219.745788
 20
377.258075
 30
0.0
  0
POINT
  5
1AE
330
1A3
100
AcDbEntity
  8
Defpoints
 62
     0
100
AcDbPoint
 10
219.745788
 20
409.1351399999999
 30
0.0
  0
ENDBLK
  5
1A5
330
1A3
100
AcDbEntity
  8
0
100
AcDbBlockEnd
  0
BLOCK
  5
1B6
330
1AF
100
AcDbEntity
  8
0
100
AcDbBlockBegin
  2
_U1
 70
     0
 10
0.0
 20
0.0
 30
0.0
  3
_U1
  1

  0
MTEXT
  5
1B0
330
1AF
100
AcDbEntity
  8
96
  6
Continuous
 62
    95
440
 16777216
370
    13
100
AcDbMText
 10
315.358318
 20
409.0093069999999
 30
0.0
 40
3.5
 41
0.0
 71
     7
 72
     5
  1
\W0.8145;202,4
  7
cesky
 73
     2
 44
0.8433729999999998
  0
LINE
  5
1B1
330
1AF
100
AcDbEntity
  8
96
 62
    95
440
 16777216
370
    13
100
AcDbLine
 10
422.174849
 20
383.508075
 30
0.0
 11
422.174849
 21
410.1351399999999
 31
0.0
  0
LINE
  5
1B2
330
1AF
100
AcDbEntity
  8
96
 62
    95
440
 16777216
370
    13
100
AcDbLine
 10
219.745788
 20
377.258075
 30
0.0
 11
219.745788
 21
410.1351399999999
 31
0.0
  0
LINE
  5
1B3
330
1AF
100
AcDbEntity
  8
96
 62
    95
440
 16777216
370
    13
100
AcDbLine
 10
422.174849
 20
409.1351399999999
 30
0.0
 11
219.745788
 21
409.1351399999999
 31
0.0
  0
SOLID
  5
1B4
330
1AF
100
AcDbEntity
  8
96
 62
    95
440
 16777216
370
    13
100
AcDbTrace
 10
422.174849
 20
409.1351399999999
 30
0.0
 11
418.674851
 21
408.5179959999999
 31
0.0
 12
418.674846
 22
409.752285
 32
0.0
 13
418.674846
 23
409.752285
 33
0.0
  0
SOLID
  5
1B5
330
1AF
100
AcDbEntity
  8
96
 62
    95
440
 16777216
370
    13
100
AcDbTrace
 10
219.745788
 20
409.1351399999999
 30
0.0
 11
223.245785
 21
409.752285
 31
0.0
 12
223.24579
 22
408.5179959999999
 32
0.0
 13
223.24579
 23
408.5179959999999
 33
0.0
  0
ENDBLK
  5
1B7
330
1AF
100
AcDbEntity
  8
0
100
AcDbBlockEnd
  0
BLOCK
  5
1BC
330
1BB
100
AcDbEntity
  8
0
100
AcDbBlockBegin
  2
*D6
 70
     1
 10
0.0
 20
0.0
 30
0.0
  3
*D6
  1

  0
LINE
  5
1BE
330
1BB
100
AcDbEntity
  8
0
 62
   254
370
    -2
100
AcDbLine
 10
422.174849
 20
383.508075
 30
0.0
 11
422.174849
 21
392.801684
 31
0.0
  0
LINE
  5
1BF
330
1BB
100
AcDbEntity
  8
0
 62
   254
370
    -2
100
AcDbLine
 10
322.174849
 20
366.008075
 30
0.0
 11
322.174849
 21
392.801684
 31
0.0
  0
LINE
  5
1C0
330
1BB
100
AcDbEntity
  8
0
 62
   254
370
    -2
100
AcDbLine
 10
418.674849
 20
391.801684
 30
0.0
 11
325.674849
 21
391.801684
 31
0.0
  0
SOLID
  5
1C1
330
1BB
100
AcDbEntity
  8
0
 62
   254
100
AcDbTrace
 10
418.674849
 20
391.21835
 30
0.0
 11
418.674849
 21
392.385017
 31
0.0
 12
422.174849
 22
391.801684
 32
0.0
 13
422.174849
 23
391.801684
 33
0.0
  0
SOLID
  5
1C2
330
1BB
100
AcDbEntity
  8
0
 62
   254
100
AcDbTrace
 10
325.674849
 20
392.385017
 30
0.0
 11
325.674849
 21
391.21835
 31
0.0
 12
322.174849
 22
391.801684
 32
0.0
 13
322.174849
 23
391.801684
 33
0.0
  0
MTEXT
  5
1C3
330
1BB
100
AcDbEntity
  8
0
 62
   254
370
    13
100
AcDbMText
 10
372.174849
 20
397.051684
 30
0.0
 40
3.5
 41
0.0
 71
     5
 72
     1
  1
\A1;100
  7
cesky
 73
     1
 44
1.0
  0
POINT
  5
1C4
330
1BB
100
AcDbEntity
  8
Defpoints
 62
     0
100
AcDbPoint
 10
422.174849
 20
383.508075
 30
0.0
  0
POINT
  5
1C5
330
1BB
100
AcDbEntity
  8
Defpoints
 62
     0
100
AcDbPoint
 10
322.174849
 20
366.008075
 30
0.0
  0
POINT
  5
1C6
330
1BB
100
AcDbEntity
  8
Defpoints
 62
     0
100
AcDbPoint
 10
322.174849
 20
391.801684
 30
0.0
  0
ENDBLK
  5
1BD
330
1BB
100
AcDbEntity
  8
0
100
AcDbBlockEnd
  0
BLOCK
  5
1CE
330
1C7
100
AcDbEntity
  8
0
100
AcDbBlockBegin
  2
_U2
 70
     0
 10
0.0
 20
0.0
 30
0.0
  3
_U2
  1

  0
MTEXT
  5
1C8
330
1C7
100
AcDbEntity
  8
96
  6
Continuous
 62
   254
440
 16777216
370
    13
100
AcDbMText
 10
369.097849
 20
391.67585
 30
0.0
 40
3.5
 41
0.0
 71
     7
 72
     5
  1
\W0.7809;100
  7
cesky
 73
     2
 44
0.8433729999999998
  0
LINE
  5
1C9
330
1C7
100
AcDbEntity
  8
96
 62
   254
440
 16777216
370
    13
100
AcDbLine
 10
422.174849
 20
383.508075
 30
0.0
 11
422.174849
 21
392.801684
 31
0.0
  0
LINE
  5
1CA
330
1C7
100
AcDbEntity
  8
96
 62
   254
440
 16777216
370
    13
100
AcDbLine
 10
322.174849
 20
366.008075
 30
0.0
 11
322.174849
 21
392.801684
 31
0.0
  0
LINE
  5
1CB
330
1C7
100
AcDbEntity
  8
96
 62
   254
440
 16777216
370
    13
100
AcDbLine
 10
422.174849
 20
391.801684
 30
0.0
 11
322.174849
 21
391.801684
 31
0.0
  0
SOLID
  5
1CC
330
1C7
100
AcDbEntity
  8
96
 62
   254
440
 16777216
370
    13
100
AcDbTrace
 10
422.174849
 20
391.801684
 30
0.0
 11
418.674851
 21
391.184539
 31
0.0
 12
418.674846
 22
392.418828
 32
0.0
 13
418.674846
 23
392.418828
 33
0.0
  0
SOLID
  5
1CD
330
1C7
100
AcDbEntity
  8
96
 62
   254
440
 16777216
370
    13
100
AcDbTrace
 10
322.174849
 20
391.801684
 30
0.0
 11
325.674846
 21
392.418828
 31
0.0
 12
325.674851
 22
391.184539
 32
0.0
 13
325.674851
 23
391.184539
 33
0.0
  0
ENDBLK
  5
1CF
330
1C7
100
AcDbEntity
  8
0
100
AcDbBlockEnd
  0
BLOCK
  5
1D4
330
1D3
100
AcDbEntity
  8
0
100
AcDbBlockBegin
  2
*D8
 70
     1
 10
0.0
 20
0.0
 30
0.0
  3
*D8
  1

  0
LINE
  5
1D6
330
1D3
100
AcDbEntity
  8
0
 62
   254
370
    -2
100
AcDbLine
 10
393.845829
 20
366.008075
 30
0.0
 11
436.753164
 21
366.008075
 31
0.0
  0
LINE
  5
1D7
330
1D3
100
AcDbEntity
  8
0
 62
   254
370
    -2
100
AcDbLine
 10
423.674849
 20
382.008075
 30
0.0
 11
436.753164
 21
382.008075
 31
0.0
  0
LINE
  5
1D8
330
1D3
100
AcDbEntity
  8
0
 62
   254
370
    -2
100
AcDbLine
 10
435.7531639999999
 20
366.008075
 30
0.0
 11
435.7531639999999
 21
382.008075
 31
0.0
  0
SOLID
  5
1D9
330
1D3
100
AcDbEntity
  8
0
 62
   254
100
AcDbTrace
 10
436.336498
 20
378.508075
 30
0.0
 11
435.1698309999999
 21
378.508075
 31
0.0
 12
435.7531639999999
 22
382.008075
 32
0.0
 13
435.7531639999999
 23
382.008075
 33
0.0
  0
MTEXT
  5
1DA
330
1D3
100
AcDbEntity
  8
0
 62
   254
370
    13
100
AcDbMText
 10
430.503164
 20
356.174742
 30
0.0
 40
3.5
 41
0.0
 71
     5
 72
     1
  1
\A1;32
  7
cesky
 11
0.0
 21
1.0
 31
0.0
 73
     1
 44
1.0
  0
POINT
  5
1DB
330
1D3
100
AcDbEntity
  8
Defpoints
 62
     0
100
AcDbPoint
 10
393.845829
 20
366.008075
 30
0.0
  0
POINT
  5
1DC
330
1D3
100
AcDbEntity
  8
Defpoints
 62
     0
100
AcDbPoint
 10
423.674849
 20
382.008075
 30
0.0
  0
POINT
  5
1DD
330
1D3
100
AcDbEntity
  8
Defpoints
 62
     0
100
AcDbPoint
 10
435.7531639999999
 20
382.008075
 30
0.0
  0
ENDBLK
  5
1D5
330
1D3
100
AcDbEntity
  8
0
100
AcDbBlockEnd
  0
BLOCK
  5
1E4
330
1DE
100
AcDbEntity
  8
0
100
AcDbBlockBegin
  2
_U3
 70
     0
 10
0.0
 20
0.0
 30
0.0
  3
_U3
  1

  0
ENDBLK
  5
1E5
330
1DE
100
AcDbEntity
  8
0
100
AcDbBlockEnd
  0
BLOCK
  5
2A0
330
29E
100
AcDbEntity
  8
0
370
    13
100
AcDbBlockBegin
  2
GENAXEH
 70
     0
 10
0.0
 20
0.0
 30
0.0
  3
GENAXEH
  1

  0
LINE
  5
29F
330
29E
100
AcDbEntity
  8
0
100
AcDbLine
 10
-1.0
 20
0.0
 30
0.0
 11
1.0
 21
0.0
 31
0.0
  0
ENDBLK
  5
2A1
330
29E
100
AcDbEntity
  8
0
370
    13
100
AcDbBlockEnd
  0
ENDSEC
  0
SECTION
  2
ENTITIES
  0
POINT
  5
73
102
{ACAD_REACTORS
330
2F8
102
}
330
1F
100
AcDbEntity
  8
80
100
AcDbPoint
 10
322.174849
 20
366.008075
 30
0.0
  0
POINT
  5
75
330
1F
100
AcDbEntity
  8
SK6
 60
     1
100
AcDbPoint
 10
219.745788
 20
366.008075
 30
0.0
  0
POINT
  5
77
330
1F
100
AcDbEntity
  8
SK6
 60
     1
100
AcDbPoint
 10
323.245788
 20
366.008075
 30
0.0
  0
POINT
  5
78
330
1F
100
AcDbEntity
  8
SK6
 60
     1
100
AcDbPoint
 10
323.245788
 20
366.008075
 30
0.0
  0
POINT
  5
79
330
1F
100
AcDbEntity
  8
SK6
 60
     1
100
AcDbPoint
 10
393.845829
 20
366.008075
 30
0.0
  0
LINE
  5
7A
330
1F
100
AcDbEntity
  8
1
100
AcDbLine
 10
392.91162
 20
371.358503
 30
0.0
 11
392.91162
 21
351.564289
 31
0.0
  0
LINE
  5
7C
330
1F
100
AcDbEntity
  8
1
100
AcDbLine
 10
340.245788
 20
351.508075
 30
0.0
 11
388.384702
 21
351.508075
 31
0.0
  0
LINE
  5
7D
330
1F
100
AcDbEntity
  8
1
100
AcDbLine
 10
391.884589
 20
380.508075
 30
0.0
 11
387.986323
 21
380.508075
 31
0.0
  0
LINE
  5
7E
330
1F
100
AcDbEntity
  8
1
100
AcDbLine
 10
386.504508
 20
380.508075
 30
0.0
 11
340.245788
 21
380.508075
 31
0.0
  0
LINE
  5
7F
330
1F
100
AcDbEntity
  8
1
100
AcDbLine
 10
393.845829
 20
370.939694
 30
0.0
 11
393.845829
 21
352.518958
 31
0.0
  0
LINE
  5
80
330
1F
100
AcDbEntity
  8
1
100
AcDbLine
 10
340.245788
 20
380.508075
 30
0.0
 11
340.245788
 21
351.508075
 31
0.0
  0
LINE
  5
81
330
1F
100
AcDbEntity
  8
1
100
AcDbLine
 10
340.245788
 20
380.508075
 30
0.0
 11
328.745788
 21
381.008075
 31
0.0
  0
LINE
  5
82
330
1F
100
AcDbEntity
  8
1
100
AcDbLine
 10
328.745788
 20
351.008075
 30
0.0
 11
340.245788
 21
351.508075
 31
0.0
  0
LINE
  5
83
330
1F
100
AcDbEntity
  8
1
100
AcDbLine
 10
328.745788
 20
381.008075
 30
0.0
 11
328.745788
 21
351.008075
 31
0.0
  0
LINE
  5
84
330
1F
100
AcDbEntity
  8
1
100
AcDbLine
 10
323.245788
 20
351.008075
 30
0.0
 11
328.745788
 21
351.008075
 31
0.0
  0
LINE
  5
85
330
1F
100
AcDbEntity
  8
1
100
AcDbLine
 10
328.745788
 20
381.008075
 30
0.0
 11
323.245788
 21
381.008075
 31
0.0
  0
LINE
  5
86
330
1F
100
AcDbEntity
  8
SK1
100
AcDbLine
 10
323.245788
 20
381.667543
 30
0.0
 11
323.245788
 21
350.348607
 31
0.0
  0
LINE
  5
87
330
1F
100
AcDbEntity
  8
SK1
100
AcDbLine
 10
291.745788
 20
380.849563
 30
0.0
 11
291.745788
 21
351.166587
 31
0.0
  0
LINE
  5
88
330
1F
100
AcDbEntity
  8
SK1
100
AcDbLine
 10
291.745788
 20
351.166587
 30
0.0
 11
323.245788
 21
350.348607
 31
0.0
  0
LINE
  5
89
330
1F
100
AcDbEntity
  8
SK1
100
AcDbLine
 10
323.245788
 20
381.667543
 30
0.0
 11
291.745788
 21
380.849563
 31
0.0
  0
LINE
  5
8A
330
1F
100
AcDbEntity
  8
1
100
AcDbLine
 10
407.9031099999999
 20
374.387746
 30
0.0
 11
407.570216
 21
374.387746
 31
0.0
  0
LINE
  5
8C
330
1F
100
AcDbEntity
  8
1
100
AcDbLine
 10
407.288884
 20
375.2684240000001
 30
0.0
 11
407.624925
 21
375.2684240000001
 31
0.0
  0
LINE
  5
8D
330
1F
100
AcDbEntity
  8
1
100
AcDbLine
 10
420.224558
 20
365.48477
 30
0.0
 11
419.677841
 21
365.513056
 31
0.0
  0
LINE
  5
8F
330
1F
100
AcDbEntity
  8
81
100
AcDbLine
 10
422.174849
 20
380.508075
 30
0.0
 11
422.174849
 21
383.508075
 31
0.0
  0
LINE
  5
90
330
1F
100
AcDbEntity
  8
81
100
AcDbLine
 10
420.6748489999999
 20
382.008075
 30
0.0
 11
423.674849
 21
382.008075
 31
0.0
  0
LINE
  5
91
330
1F
100
AcDbEntity
  8
1
100
AcDbLine
 10
393.16285
 20
376.121259
 30
0.0
 11
393.291557
 21
375.85415
 31
0.0
  0
LINE
  5
92
330
1F
100
AcDbEntity
  8
1
100
AcDbLine
 10
392.241511
 20
380.252916
 30
0.0
 11
392.185521
 21
380.136718
 31
0.0
  0
LINE
  5
93
330
1F
100
AcDbEntity
  8
1
100
AcDbLine
 10
417.714957
 20
361.500193
 30
0.0
 11
418.061894
 21
361.428283
 31
0.0
  0
LINE
  5
94
330
1F
100
AcDbEntity
  8
1
100
AcDbLine
 10
418.209485
 20
361.180363
 30
0.0
 11
416.833116
 21
356.757634
 31
0.0
  0
LINE
  5
95
330
1F
100
AcDbEntity
  8
1
100
AcDbLine
 10
393.478892
 20
352.143832
 30
0.0
 11
405.0456549999999
 21
351.623496
 31
0.0
  0
LINE
  5
96
330
1F
100
AcDbEntity
  8
1
100
AcDbLine
 10
416.5064899999999
 20
356.852304
 30
0.0
 11
417.7873629999999
 21
360.968192
 31
0.0
  0
LINE
  5
97
330
1F
100
AcDbEntity
  8
1
100
AcDbLine
 10
417.6824169999999
 20
361.1493680000001
 30
0.0
 11
417.610421
 21
361.164291
 31
0.0
  0
LINE
  5
98
330
1F
100
AcDbEntity
  8
1
100
AcDbLine
 10
405.43749
 20
360.1140299999999
 30
0.0
 11
404.018837
 21
360.1140299999999
 31
0.0
  0
LINE
  5
99
330
1F
100
AcDbEntity
  8
1
100
AcDbLine
 10
420.485788
 20
363.073795
 30
0.0
 11
420.485788
 21
364.967606
 31
0.0
  0
LINE
  5
9A
330
1F
100
AcDbEntity
  8
1
100
AcDbLine
 10
393.256772
 20
375.579903
 30
0.0
 11
393.182887
 21
376.079717
 31
0.0
  0
LINE
  5
9B
330
1F
100
AcDbEntity
  8
1
100
AcDbLine
 10
406.081927
 20
381.710254
 30
0.0
 11
393.587125
 21
381.1481490000001
 31
0.0
  0
LINE
  5
9C
330
1F
100
AcDbEntity
  8
1
100
AcDbLine
 10
405.4528519999999
 20
367.144363
 30
0.0
 11
419.502169
 21
365.528221
 31
0.0
  0
LINE
  5
9D
330
1F
100
AcDbEntity
  8
1
100
AcDbLine
 10
391.138268
 20
351.0210830000001
 30
0.0
 11
391.768279
 21
350.95533
 31
0.0
  0
LINE
  5
9E
330
1F
100
AcDbEntity
  8
1
100
AcDbLine
 10
406.081934
 20
350.305949
 30
0.0
 11
391.956609
 21
350.9414060000001
 31
0.0
  0
LINE
  5
9F
330
1F
100
AcDbEntity
  8
1
100
AcDbLine
 10
405.0548509999999
 20
351.280581
 30
0.0
 11
393.157867
 21
351.815793
 31
0.0
  0
LINE
  5
A0
330
1F
100
AcDbEntity
  8
1
100
AcDbLine
 10
406.704719
 20
372.942929
 30
0.0
 11
406.358187
 21
372.942929
 31
0.0
  0
LINE
  5
A1
330
1F
100
AcDbEntity
  8
1
100
AcDbLine
 10
406.0071009999999
 20
370.902172
 30
0.0
 11
406.0595769999999
 21
370.902172
 31
0.0
  0
LINE
  5
A2
330
1F
100
AcDbEntity
  8
1
100
AcDbLine
 10
406.0595769999999
 20
377.902172
 30
0.0
 11
406.0071009999999
 21
377.902172
 31
0.0
  0
LINE
  5
A3
330
1F
100
AcDbEntity
  8
1
100
AcDbLine
 10
405.240788
 20
375.861415
 30
0.0
 11
405.5873209999999
 21
375.861415
 31
0.0
  0
LINE
  5
A4
330
1F
100
AcDbEntity
  8
1
100
AcDbLine
 10
404.6671139999999
 20
373.53592
 30
0.0
 11
404.499199
 21
373.53592
 31
0.0
  0
LINE
  5
A9
330
1F
100
AcDbEntity
  8
80
100
AcDbLine
 10
322.174849
 20
366.008075
 30
0.0
 11
323.174849
 21
366.008075
 31
0.0
  0
LINE
  5
AA
330
1F
100
AcDbEntity
  8
1
100
AcDbLine
 10
412.1008449999999
 20
366.326177
 30
0.0
 11
411.117599
 21
366.439283
 31
0.0
  0
LINE
  5
AB
330
1F
100
AcDbEntity
  8
1
100
AcDbLine
 10
392.095832
 20
379.255826
 30
0.0
 11
392.66604
 21
375.398548
 31
0.0
  0
LINE
  5
AC
330
1F
100
AcDbEntity
  8
1
100
AcDbLine
 10
420.485788
 20
364.967615
 30
0.0
 11
420.485788
 21
365.490293
 31
0.0
  0
LINE
  5
AD
330
1F
100
AcDbEntity
  8
1
100
AcDbLine
 10
417.8171899999999
 20
361.828512
 30
0.0
 11
418.976109
 21
361.667486
 31
0.0
  0
LINE
  5
AE
330
1F
100
AcDbEntity
  8
1
100
AcDbLine
 10
418.976109
 20
361.667486
 30
0.0
 11
420.0204669999999
 21
361.795608
 31
0.0
  0
LINE
  5
AF
330
1F
100
AcDbEntity
  8
1
100
AcDbLine
 10
416.332854
 20
357.058849
 30
0.0
 11
417.8171899999999
 21
361.828512
 31
0.0
  0
LINE
  5
B0
330
1F
100
AcDbEntity
  8
SK1
100
AcDbLine
 10
219.745788
 20
377.258075
 30
0.0
 11
219.745788
 21
354.758075
 31
0.0
  0
LINE
  5
B1
330
1F
100
AcDbEntity
  8
SK1
100
AcDbLine
 10
220.945788
 20
353.558075
 30
0.0
 11
227.892856
 21
353.558075
 31
0.0
  0
LINE
  5
B2
330
1F
100
AcDbEntity
  8
SK1
100
AcDbLine
 10
227.892856
 20
378.458075
 30
0.0
 11
220.945788
 21
378.458075
 31
0.0
  0
LINE
  5
B3
330
1F
100
AcDbEntity
  8
SK1
100
AcDbLine
 10
227.892856
 20
378.458075
 30
0.0
 11
227.892856
 21
353.558075
 31
0.0
  0
LINE
  5
B4
330
1F
100
AcDbEntity
  8
SK1
100
AcDbLine
 10
227.892856
 20
353.558075
 30
0.0
 11
228.645788
 21
352.805143
 31
0.0
  0
LINE
  5
B5
330
1F
100
AcDbEntity
  8
SK1
100
AcDbLine
 10
228.645788
 20
379.211007
 30
0.0
 11
227.892856
 21
378.458075
 31
0.0
  0
LINE
  5
B6
330
1F
100
AcDbEntity
  8
SK1
100
AcDbLine
 10
260.745788
 20
380.044567
 30
0.0
 11
260.745788
 21
351.971583
 31
0.0
  0
LINE
  5
B7
330
1F
100
AcDbEntity
  8
SK1
100
AcDbLine
 10
228.645788
 20
379.211007
 30
0.0
 11
228.645788
 21
352.805143
 31
0.0
  0
LINE
  5
B8
330
1F
100
AcDbEntity
  8
SK1
100
AcDbLine
 10
228.645788
 20
352.805143
 30
0.0
 11
260.745788
 21
351.971583
 31
0.0
  0
LINE
  5
B9
330
1F
100
AcDbEntity
  8
SK1
100
AcDbLine
 10
260.745788
 20
380.044567
 30
0.0
 11
228.645788
 21
379.211007
 31
0.0
  0
LINE
  5
BA
330
1F
100
AcDbEntity
  8
SK1
100
AcDbLine
 10
260.745788
 20
352.471751
 30
0.0
 11
291.745788
 21
351.666756
 31
0.0
  0
LINE
  5
BB
330
1F
100
AcDbEntity
  8
SK1
100
AcDbLine
 10
291.745788
 20
380.349395
 30
0.0
 11
260.745788
 21
379.544399
 31
0.0
  0
LINE
  5
BC
330
1F
100
AcDbEntity
  8
80
100
AcDbLine
 10
322.174849
 20
366.008075
 30
0.0
 11
322.174849
 21
365.008075
 31
0.0
  0
LINE
  5
BD
330
1F
100
AcDbEntity
  8
NOCUT
100
AcDbLine
 10
414.6916979999999
 20
378.067539
 30
0.0
 11
414.591329
 21
377.893696
 31
0.0
  0
LINE
  5
BF
330
1F
100
AcDbEntity
  8
NOCUT
100
AcDbLine
 10
420.485788
 20
368.942355
 30
0.0
 11
420.485788
 21
366.008075
 31
0.0
  0
LINE
  5
C0
330
1F
100
AcDbEntity
  8
NOCUT
100
AcDbLine
 10
274.745788
 20
366.008075
 30
0.0
 11
270.704336
 21
373.008075
 31
0.0
  0
LINE
  5
C1
330
1F
100
AcDbEntity
  8
NOCUT
100
AcDbLine
 10
270.704336
 20
373.008075
 30
0.0
 11
251.745788
 21
373.008075
 31
0.0
  0
LINE
  5
C2
330
1F
100
AcDbEntity
  8
NOCUT
100
AcDbLine
 10
251.745788
 20
373.008075
 30
0.0
 11
251.745788
 21
374.008075
 31
0.0
  0
LINE
  5
C3
330
1F
100
AcDbEntity
  8
NOCUT
100
AcDbLine
 10
251.745788
 20
374.008075
 30
0.0
 11
227.745788
 21
374.008075
 31
0.0
  0
LINE
  5
C4
330
1F
100
AcDbEntity
  8
NOCUT
100
AcDbLine
 10
227.745788
 20
374.008075
 30
0.0
 11
227.745788
 21
374.508075
 31
0.0
  0
LINE
  5
C5
330
1F
100
AcDbEntity
  8
NOCUT
100
AcDbLine
 10
227.745788
 20
374.508075
 30
0.0
 11
222.488201
 21
374.508075
 31
0.0
  0
LINE
  5
C6
330
1F
100
AcDbEntity
  8
NOCUT
100
AcDbLine
 10
222.488201
 20
374.508075
 30
0.0
 11
220.149933
 21
375.858075
 31
0.0
  0
LINE
  5
C7
330
1F
100
AcDbEntity
  8
NOCUT
100
AcDbLine
 10
220.149933
 20
375.858075
 30
0.0
 11
219.745788
 21
376.558075
 31
0.0
  0
LINE
  5
C8
330
1F
100
AcDbEntity
  8
NOCUT
100
AcDbLine
 10
219.745788
 20
376.558075
 30
0.0
 11
219.745788
 21
377.258075
 31
0.0
  0
LINE
  5
C9
330
1F
100
AcDbEntity
  8
NOCUT
100
AcDbLine
 10
220.945788
 20
378.458075
 30
0.0
 11
227.892856
 21
378.458075
 31
0.0
  0
LINE
  5
CA
330
1F
100
AcDbEntity
  8
NOCUT
100
AcDbLine
 10
227.892856
 20
378.458075
 30
0.0
 11
228.645788
 21
379.211007
 31
0.0
  0
LINE
  5
CB
330
1F
100
AcDbEntity
  8
NOCUT
100
AcDbLine
 10
228.645788
 20
379.211007
 30
0.0
 11
260.745788
 21
380.044567
 31
0.0
  0
LINE
  5
CC
330
1F
100
AcDbEntity
  8
NOCUT
100
AcDbLine
 10
260.745788
 20
380.044567
 30
0.0
 11
260.745788
 21
379.544399
 31
0.0
  0
LINE
  5
CD
330
1F
100
AcDbEntity
  8
NOCUT
100
AcDbLine
 10
260.745788
 20
379.544399
 30
0.0
 11
291.745788
 21
380.349395
 31
0.0
  0
LINE
  5
CE
330
1F
100
AcDbEntity
  8
NOCUT
100
AcDbLine
 10
291.745788
 20
380.349395
 30
0.0
 11
291.745788
 21
380.849563
 31
0.0
  0
LINE
  5
CF
330
1F
100
AcDbEntity
  8
NOCUT
100
AcDbLine
 10
291.745788
 20
380.849563
 30
0.0
 11
323.245788
 21
381.667543
 31
0.0
  0
LINE
  5
D0
330
1F
100
AcDbEntity
  8
NOCUT
100
AcDbLine
 10
323.245788
 20
381.667543
 30
0.0
 11
323.245788
 21
381.008075
 31
0.0
  0
LINE
  5
D1
330
1F
100
AcDbEntity
  8
NOCUT
100
AcDbLine
 10
323.245788
 20
381.008075
 30
0.0
 11
328.745788
 21
381.008075
 31
0.0
  0
LINE
  5
D2
330
1F
100
AcDbEntity
  8
NOCUT
100
AcDbLine
 10
328.745788
 20
381.008075
 30
0.0
 11
340.245788
 21
380.508075
 31
0.0
  0
LINE
  5
D3
330
1F
100
AcDbEntity
  8
NOCUT
100
AcDbLine
 10
340.245788
 20
380.508075
 30
0.0
 11
392.91162
 21
380.508075
 31
0.0
  0
LINE
  5
D4
330
1F
100
AcDbEntity
  8
NOCUT
100
AcDbLine
 10
392.91162
 20
380.508075
 30
0.0
 11
393.845829
 21
379.573866
 31
0.0
  0
LINE
  5
D5
330
1F
100
AcDbEntity
  8
NOCUT
100
AcDbLine
 10
393.845829
 20
379.573866
 30
0.0
 11
405.1481309999999
 21
380.463376
 31
0.0
  0
LINE
  5
D6
330
1F
100
AcDbEntity
  8
NOCUT
100
AcDbLine
 10
412.426266
 20
379.143696
 30
0.0
 11
412.526634
 21
379.317539
 31
0.0
  0
LINE
  5
D7
330
1F
100
AcDbEntity
  8
NOCUT
100
AcDbLine
 10
274.745788
 20
366.008075
 30
0.0
 11
420.485788
 21
366.008075
 31
0.0
  0
ARC
  5
E5
330
1F
100
AcDbEntity
  8
1
100
AcDbCircle
 10
406.285788
 20
366.008075
 30
0.0
 40
14.5
100
AcDbArc
 50
346.6240620000001
 51
348.324758
  0
ARC
  5
E6
330
1F
100
AcDbEntity
  8
SK1
100
AcDbCircle
 10
220.945788
 20
354.758075
 30
0.0
 40
1.199999999999999
100
AcDbArc
 50
180.0
 51
270.0
  0
ARC
  5
E7
330
1F
100
AcDbEntity
  8
SK1
100
AcDbCircle
 10
220.945788
 20
377.258075
 30
0.0
 40
1.199999999999999
100
AcDbArc
 50
90.0
 51
180.0
  0
ARC
  5
F4
330
1F
100
AcDbEntity
  8
NOCUT
100
AcDbCircle
 10
406.285788
 20
366.008075
 30
0.0
 40
14.5
100
AcDbArc
 50
11.675242
 51
55.05456999999999
  0
ARC
  5
F5
330
1F
100
AcDbEntity
  8
NOCUT
100
AcDbCircle
 10
220.945788
 20
377.258075
 30
0.0
 40
1.199999999999999
100
AcDbArc
 50
90.0
 51
180.0
  0
ARC
  5
F6
330
1F
100
AcDbEntity
  8
NOCUT
100
AcDbCircle
 10
406.285788
 20
366.008075
 30
0.0
 40
14.5
100
AcDbArc
 50
64.94543
 51
94.50000000000001
  0
ARC
  5
F7
330
1F
100
AcDbEntity
  8
NOCUT
100
AcDbCircle
 10
406.285788
 20
366.008075
 30
0.0
 40
14.7
100
AcDbArc
 50
55.12201899999999
 51
64.877981
  0
ELLIPSE
  5
F8
330
1F
100
AcDbEntity
  8
1
100
AcDbEllipse
 10
385.677595
 20
366.008075
 30
0.0
 11
-82.2335864382161
 21
0.0000000000000963
 31
0.0
210
0.0
220
0.0
230
1.0
 40
0.176327
 41
1.629067366130468
 42
1.658879413272584
  0
ELLIPSE
  5
F9
330
1F
100
AcDbEntity
  8
1
100
AcDbEllipse
 10
404.360387
 20
366.008075
 30
0.0
 11
-37.55252574791962
 21
14.47450244551926
 31
0.0
210
0.0
220
0.0
230
0.9999999999999998
 40
0.022889
 41
5.0310041557477
 42
5.136359911637907
  0
ELLIPSE
  5
FA
330
1F
100
AcDbEntity
  8
1
100
AcDbEllipse
 10
418.2146529999999
 20
366.008072
 30
0.0
 11
-82.23359521510536
 21
0.0000008959131876
 31
0.0
210
0.0
220
0.0
230
1.0
 40
0.176327
 41
5.036547214400625
 42
5.054077020906214
  0
ELLIPSE
  5
FB
330
1F
100
AcDbEntity
  8
1
100
AcDbEllipse
 10
412.2881409999999
 20
362.954186
 30
0.0
 11
-38.89213175651012
 21
14.99047441423627
 31
0.0
210
0.0
220
0.0
230
1.0
 40
0.022408
 41
4.980400355770389
 42
5.215050904707358
  0
ELLIPSE
  5
FC
330
1F
100
AcDbEntity
  8
1
100
AcDbEllipse
 10
426.527784
 20
366.008075
 30
0.0
 11
-91.52267294667764
 21
0.0000000000001072
 31
0.0
210
0.0
220
0.0
230
1.0
 40
0.157789
 41
1.20564424528001
 42
1.33501832323322
  0
ELLIPSE
  5
FD
330
1F
100
AcDbEntity
  8
1
100
AcDbEllipse
 10
379.783408
 20
366.008075
 30
0.0
 11
-70.65880868665826
 21
0.0000000000000828
 31
0.0
210
0.0
220
0.0
230
1.0
 40
0.157789
 41
1.899141262248796
 42
1.902010609632053
  0
ELLIPSE
  5
FE
330
1F
100
AcDbEntity
  8
1
100
AcDbEllipse
 10
406.163102
 20
374.402172
 30
0.0
 11
-0.0000000000000003
 21
-4.219085678285776
 31
0.0
210
0.0
220
0.0
230
1.0
 40
0.9848080000000001
 41
5.779742847861547
 42
6.015067806242556
  0
ELLIPSE
  5
FF
330
1F
100
AcDbEntity
  8
1
100
AcDbEllipse
 10
406.163102
 20
374.402172
 30
0.0
 11
-0.0000000000000003
 21
-4.219085678285776
 31
0.0
210
0.0
220
0.0
230
1.0
 40
0.9848080000000001
 41
3.42629733040641
 42
3.645030626209263
  0
ELLIPSE
  5
100
330
1F
100
AcDbEntity
  8
1
100
AcDbEllipse
 10
406.314497
 20
374.402172
 30
0.0
 11
-0.0000000000000003
 21
-4.295362643243258
 31
0.0
210
0.0
220
0.0
230
1.0
 40
0.9848079999999999
 41
0.0
 42
6.283185307179585
  0
ELLIPSE
  5
101
330
1F
100
AcDbEntity
  8
1
100
AcDbEllipse
 10
406.314497
 20
374.402172
 30
0.0
 11
-0.0000000000000003
 21
-4.699999999999998
 31
0.0
210
0.0
220
0.0
230
1.0
 40
0.9848079999999999
 41
0.0
 42
6.283185307179585
  0
ELLIPSE
  5
102
330
1F
100
AcDbEntity
  8
1
100
AcDbEllipse
 10
406.059045
 20
376.187199
 30
0.0
 11
0.0
 21
-0.1027459371154633
 31
0.0
210
0.0
220
0.0
230
1.0
 40
0.9848079999999999
 41
0.871552268338315
 42
1.562711152844007
  0
ELLIPSE
  5
103
330
1F
100
AcDbEntity
  8
1
100
AcDbEllipse
 10
406.261408
 20
376.185537
 30
0.0
 11
0.0
 21
-0.1027459371154634
 31
0.0
210
0.0
220
0.0
230
1.0
 40
0.9848079999999999
 41
3.489546146329841
 42
4.7043038064338
  0
ELLIPSE
  5
104
330
1F
100
AcDbEntity
  8
1
100
AcDbEllipse
 10
406.471574
 20
375.597168
 30
0.0
 11
0.0
 21
-0.7286223111655376
 31
0.0
210
0.0
220
0.0
230
1.0
 40
0.9848079999999999
 41
2.253870037349659
 42
3.489546146329861
  0
ELLIPSE
  5
105
330
1F
100
AcDbEntity
  8
1
100
AcDbEllipse
 10
406.9496509999999
 20
375.992209
 30
0.0
 11
0.0
 21
-0.1027459371154613
 31
0.0
210
0.0
220
0.0
230
0.9999999999999998
 40
0.9848079999999999
 41
1.039112377245809
 42
2.253870037349528
  0
ELLIPSE
  5
106
330
1F
100
AcDbEntity
  8
1
100
AcDbEllipse
 10
407.124085
 20
375.888027
 30
0.0
 11
0.0
 21
-0.1027459371154612
 31
0.0
210
0.0
220
0.0
230
1.0
 40
0.9848079999999999
 41
4.180705030835513
 42
4.871863915341128
  0
ELLIPSE
  5
107
330
1F
100
AcDbEntity
  8
1
100
AcDbEllipse
 10
407.732632
 20
375.987417
 30
0.0
 11
0.0
 21
-0.7286223111655374
 31
0.0
210
0.0
220
0.0
230
0.9999999999999998
 40
0.9848079999999999
 41
4.871863915341155
 42
6.107540024321325
  0
ELLIPSE
  5
108
330
1F
100
AcDbEntity
  8
1
100
AcDbEllipse
 10
407.624925
 20
375.37117
 30
0.0
 11
0.0
 21
-0.1027459371154633
 31
0.0
210
0.0
220
0.0
230
1.0
 40
0.9848079999999999
 41
6.107540024321389
 42
6.798698908827102
  0
ELLIPSE
  5
109
330
1F
100
AcDbEntity
  8
1
100
AcDbEllipse
 10
407.72469
 20
375.192384
 30
0.0
 11
0.0
 21
-0.1027459371154634
 31
0.0
210
0.0
220
0.0
230
1.0
 40
0.9848079999999999
 41
2.442348595133238
 42
3.657106255237276
  0
ELLIPSE
  5
10A
330
1F
100
AcDbEntity
  8
1
100
AcDbEllipse
 10
407.327972
 20
374.713383
 30
0.0
 11
0.0
 21
-0.7286223111655376
 31
0.0
210
0.0
220
0.0
230
1.0
 40
0.9848079999999999
 41
1.206672486153054
 42
2.44234859513329
  0
ELLIPSE
  5
10B
330
1F
100
AcDbEntity
  8
1
100
AcDbEllipse
 10
407.9039279999999
 20
374.490489
 30
0.0
 11
0.0
 21
-0.1027459371154613
 31
0.0
210
0.0
220
0.0
230
0.9999999999999998
 40
0.9848079999999999
 41
6.275100133228749
 42
7.48985779333269
  0
ELLIPSE
  5
10C
330
1F
100
AcDbEntity
  8
1
100
AcDbEllipse
 10
407.9022919999999
 20
374.285004
 30
0.0
 11
0.0
 21
-0.1027459371154612
 31
0.0
210
0.0
220
0.0
230
1.0
 40
0.9848079999999999
 41
3.133507479638956
 42
3.824666364144431
  0
ELLIPSE
  5
10D
330
1F
100
AcDbEntity
  8
1
100
AcDbEllipse
 10
408.291331
 20
373.799551
 30
0.0
 11
0.0
 21
-0.7286223111655374
 31
0.0
210
0.0
220
0.0
230
0.9999999999999998
 40
0.9848079999999999
 41
3.824666364144553
 42
5.060342473124749
  0
ELLIPSE
  5
10E
330
1F
100
AcDbEntity
  8
1
100
AcDbEllipse
 10
407.7119
 20
373.586143
 30
0.0
 11
0.0
 21
-0.1027459371154633
 31
0.0
210
0.0
220
0.0
230
1.0
 40
0.9848079999999999
 41
5.060342473124766
 42
5.751501357630423
  0
ELLIPSE
  5
10F
330
1F
100
AcDbEntity
  8
1
100
AcDbEllipse
 10
407.609302
 20
373.409018
 30
0.0
 11
0.0
 21
-0.1027459371154634
 31
0.0
210
0.0
220
0.0
230
1.0
 40
0.9848079999999999
 41
1.395151043936637
 42
2.609908704040404
  0
ELLIPSE
  5
110
330
1F
100
AcDbEntity
  8
1
100
AcDbEllipse
 10
407.0024169999999
 20
373.518386
 30
0.0
 11
0.0
 21
-0.7286223111655376
 31
0.0
210
0.0
220
0.0
230
1.0
 40
0.9848079999999999
 41
0.1594749349564564
 42
1.395151043936654
  0
ELLIPSE
  5
111
330
1F
100
AcDbEntity
  8
1
100
AcDbEllipse
 10
407.100296
 20
372.900452
 30
0.0
 11
0.0
 21
-0.1027459371154613
 31
0.0
210
0.0
220
0.0
230
0.9999999999999998
 40
0.9848079999999999
 41
5.227902582032096
 42
6.442660242136092
  0
ELLIPSE
  5
112
330
1F
100
AcDbEntity
  8
1
100
AcDbEllipse
 10
406.924227
 20
372.799148
 30
0.0
 11
0.0
 21
-0.1027459371154612
 31
0.0
210
0.0
220
0.0
230
1.0
 40
0.9848079999999999
 41
2.086309928442403
 42
2.777468812947991
  0
ELLIPSE
  5
113
330
1F
100
AcDbEntity
  8
1
100
AcDbEllipse
 10
406.704719
 20
372.2143069999999
 30
0.0
 11
0.0
 21
-0.7286223111655374
 31
0.0
210
0.0
220
0.0
230
0.9999999999999998
 40
0.9848079999999999
 41
2.777468812947943
 42
4.013144921928138
  0
ELLIPSE
  5
114
330
1F
100
AcDbEntity
  8
1
100
AcDbEllipse
 10
406.232995
 20
372.617145
 30
0.0
 11
0.0
 21
-0.1027459371154633
 31
0.0
210
0.0
220
0.0
230
1.0
 40
0.9848079999999999
 41
4.013144921928107
 42
4.704303806433801
  0
ELLIPSE
  5
115
330
1F
100
AcDbEntity
  8
1
100
AcDbEllipse
 10
406.030631
 20
372.618807
 30
0.0
 11
0.0
 21
-0.1027459371154634
 31
0.0
210
0.0
220
0.0
230
1.0
 40
0.9848079999999999
 41
0.347953492739917
 42
1.562711152844007
  0
ELLIPSE
  5
116
330
1F
100
AcDbEntity
  8
1
100
AcDbEllipse
 10
405.820466
 20
373.207176
 30
0.0
 11
0.0
 21
-0.7286223111655376
 31
0.0
210
0.0
220
0.0
230
1.0
 40
0.9848079999999999
 41
5.395462690939448
 42
6.631138799919636
  0
ELLIPSE
  5
117
330
1F
100
AcDbEntity
  8
1
100
AcDbEllipse
 10
405.3423879999999
 20
372.812135
 30
0.0
 11
0.0
 21
-0.1027459371154613
 31
0.0
210
0.0
220
0.0
230
0.9999999999999998
 40
0.9848079999999999
 41
4.180705030835561
 42
5.395462690939498
  0
ELLIPSE
  5
118
330
1F
100
AcDbEntity
  8
1
100
AcDbEllipse
 10
405.167955
 20
372.916316
 30
0.0
 11
0.0
 21
-0.1027459371154612
 31
0.0
210
0.0
220
0.0
230
1.0
 40
0.9848079999999999
 41
1.039112377245607
 42
1.730271261751356
  0
ELLIPSE
  5
119
330
1F
100
AcDbEntity
  8
1
100
AcDbEllipse
 10
404.5594079999999
 20
372.816927
 30
0.0
 11
0.0
 21
-0.7286223111655374
 31
0.0
210
0.0
220
0.0
230
0.9999999999999998
 40
0.9848079999999999
 41
1.730271261751354
 42
2.965947370731551
  0
ELLIPSE
  5
11A
330
1F
100
AcDbEntity
  8
1
100
AcDbEllipse
 10
404.6671139999999
 20
373.433174
 30
0.0
 11
0.0
 21
-0.1027459371154633
 31
0.0
210
0.0
220
0.0
230
1.0
 40
0.9848079999999999
 41
2.965947370731588
 42
3.657106255237276
  0
ELLIPSE
  5
11B
330
1F
100
AcDbEntity
  8
1
100
AcDbEllipse
 10
404.567349
 20
373.61196
 30
0.0
 11
0.0
 21
-0.1027459371154634
 31
0.0
210
0.0
220
0.0
230
1.0
 40
0.9848079999999999
 41
5.583941248723075
 42
6.798698908826983
  0
ELLIPSE
  5
11C
330
1F
100
AcDbEntity
  8
1
100
AcDbEllipse
 10
404.964068
 20
374.090961
 30
0.0
 11
0.0
 21
-0.7286223111655376
 31
0.0
210
0.0
220
0.0
230
1.0
 40
0.9848079999999999
 41
4.348265139742856
 42
5.583941248723051
  0
ELLIPSE
  5
11D
330
1F
100
AcDbEntity
  8
1
100
AcDbEllipse
 10
404.3881119999999
 20
374.313855
 30
0.0
 11
0.0
 21
-0.1027459371154613
 31
0.0
210
0.0
220
0.0
230
0.9999999999999998
 40
0.9848079999999999
 41
3.133507479638956
 42
4.348265139742897
  0
ELLIPSE
  5
11E
330
1F
100
AcDbEntity
  8
1
100
AcDbEllipse
 10
404.389748
 20
374.51934
 30
0.0
 11
0.0
 21
-0.1027459371154612
 31
0.0
210
0.0
220
0.0
230
1.0
 40
0.9848079999999999
 41
6.275100133228888
 42
6.966259017734443
  0
ELLIPSE
  5
11F
330
1F
100
AcDbEntity
  8
1
100
AcDbEllipse
 10
404.0007089999999
 20
375.004793
 30
0.0
 11
0.0
 21
-0.7286223111655374
 31
0.0
210
0.0
220
0.0
230
0.9999999999999998
 40
0.9848079999999999
 41
0.6830737105547612
 42
1.918749819534955
  0
ELLIPSE
  5
120
330
1F
100
AcDbEntity
  8
1
100
AcDbEllipse
 10
404.580139
 20
375.218201
 30
0.0
 11
0.0
 21
-0.1027459371154633
 31
0.0
210
0.0
220
0.0
230
1.0
 40
0.9848079999999999
 41
1.918749819534926
 42
2.609908704040509
  0
ELLIPSE
  5
121
330
1F
100
AcDbEntity
  8
1
100
AcDbEllipse
 10
404.6827379999999
 20
375.395325
 30
0.0
 11
0.0
 21
-0.1027459371154634
 31
0.0
210
0.0
220
0.0
230
1.0
 40
0.9848079999999999
 41
4.536743697526396
 42
5.751501357630318
  0
ELLIPSE
  5
122
330
1F
100
AcDbEntity
  8
1
100
AcDbEllipse
 10
405.289622
 20
375.285958
 30
0.0
 11
0.0
 21
-0.7286223111655376
 31
0.0
210
0.0
220
0.0
230
1.0
 40
0.9848079999999999
 41
3.30106758854627
 42
4.536743697526454
  0
ELLIPSE
  5
123
330
1F
100
AcDbEntity
  8
1
100
AcDbEllipse
 10
405.191743
 20
375.903892
 30
0.0
 11
0.0
 21
-0.1027459371154613
 31
0.0
210
0.0
220
0.0
230
0.9999999999999998
 40
0.9848079999999999
 41
2.086309928442403
 42
3.301067588546432
  0
ELLIPSE
  5
124
330
1F
100
AcDbEntity
  8
1
100
AcDbEllipse
 10
405.3678129999999
 20
376.005196
 30
0.0
 11
0.0
 21
-0.1027459371154612
 31
0.0
210
0.0
220
0.0
230
1.0
 40
0.9848079999999999
 41
5.227902582032196
 42
5.919061466537772
  0
ELLIPSE
  5
125
330
1F
100
AcDbEntity
  8
1
100
AcDbEllipse
 10
405.5873209999999
 20
376.590037
 30
0.0
 11
0.0
 21
-0.7286223111655374
 31
0.0
210
0.0
220
0.0
230
0.9999999999999998
 40
0.9848079999999999
 41
5.919061466537737
 42
7.154737575517945
  0
ELLIPSE
  5
126
330
1F
100
AcDbEntity
  8
1
100
AcDbEllipse
 10
406.1460199999999
 20
374.402172
 30
0.0
 11
0.0
 21
2.200000000000001
 31
0.0
210
0.0
220
0.0
230
1.0
 40
0.9848079999999999
 41
0.0
 42
6.283185307179585
  0
ELLIPSE
  5
127
330
1F
100
AcDbEntity
  8
1
100
AcDbEllipse
 10
406.857647
 20
365.975662
 30
0.0
 11
-0.2287447855901384
 21
16.63348562457516
 31
0.0
210
0.0
220
0.0
230
1.0
 40
0.9231469999999999
 41
4.770555483704093
 42
4.902430917176688
  0
ELLIPSE
  5
128
330
1F
100
AcDbEntity
  8
1
100
AcDbEllipse
 10
406.906374
 20
367.558111
 30
0.0
 11
-7.441242057602979
 21
-15.41799629937744
 31
0.0
210
0.0
220
0.0
230
0.9999999999999998
 40
0.87482
 41
1.908241971890349
 42
1.940289218666948
  0
ELLIPSE
  5
129
330
1F
100
AcDbEntity
  8
1
100
AcDbEllipse
 10
420.522749
 20
367.625817
 30
0.0
 11
-0.9530240912814223
 21
-1.974631179534105
 31
0.0
210
0.0
220
0.0
230
1.0
 40
0.87482
 41
0.3524186280539077
 42
1.428263479848175
  0
ELLIPSE
  5
12A
330
1F
100
AcDbEntity
  8
1
100
AcDbEllipse
 10
419.5078919999999
 20
365.555448
 30
0.0
 11
-0.3045078164674379
 21
0.0347924548241468
 31
0.0
210
0.0
220
0.0
230
1.0
 40
0.090381
 41
1.562327812619886
 42
2.173193050807954
  0
ELLIPSE
  5
12B
330
1F
100
AcDbEntity
  8
1
100
AcDbEllipse
 10
417.9664999999999
 20
361.226251
 30
0.0
 11
-0.2503240092664346
 21
-0.0060763970480348
 31
0.0
210
0.0
220
0.0
230
0.9999999999999998
 40
0.795862
 41
2.878788681530965
 42
3.366642457979972
  0
ELLIPSE
  5
12C
330
1F
100
AcDbEntity
  8
1
100
AcDbEllipse
 10
417.975544
 20
361.227491
 30
0.0
 11
-0.1984057718800817
 21
-0.1268823943403148
 31
0.0
210
0.0
220
0.0
230
1.0
 40
0.813437
 41
3.123487885178418
 42
3.836307411041658
  0
ELLIPSE
  5
12D
330
1F
100
AcDbEntity
  8
1
100
AcDbEllipse
 10
405.229203
 20
357.61403
 30
0.0
 11
0.0
 21
2.949999999999998
 31
0.0
210
0.0
220
0.0
230
1.0
 40
0.9848080000000001
 41
0.2195208556941311
 42
0.5782515728810378
  0
ELLIPSE
  5
12E
330
1F
100
AcDbEntity
  8
1
100
AcDbEllipse
 10
405.668898
 20
365.908586
 30
0.0
 11
-0.0000000000000009
 21
-14.29910078293372
 31
0.0
210
0.0
220
0.0
230
1.0
 40
0.9848079999999999
 41
6.238912274160165
 42
7.148395176250519
  0
ELLIPSE
  5
12F
330
1F
100
AcDbEntity
  8
1
100
AcDbEllipse
 10
417.475156
 20
360.903652
 30
0.0
 11
-0.3041716530318504
 21
-0.1842032208411207
 31
0.0
210
0.0
220
0.0
230
1.0
 40
0.5601729999999999
 41
2.577386316440285
 42
3.683951440319439
  0
ELLIPSE
  5
130
330
1F
100
AcDbEntity
  8
1
100
AcDbEllipse
 10
406.7670269999999
 20
366.0080779999999
 30
0.0
 11
0.0
 21
15.71753173807484
 31
0.0
210
0.0
220
0.0
230
1.0
 40
0.9848079999999999
 41
3.097317949980845
 42
4.325760237863696
  0
ELLIPSE
  5
131
330
1F
100
AcDbEntity
  8
1
100
AcDbEllipse
 10
404.018837
 20
357.61403
 30
0.0
 11
0.0
 21
2.5
 31
0.0
210
0.0
220
0.0
230
1.0
 40
0.9848079999999999
 41
0.0
 42
6.283185307179585
  0
ELLIPSE
  5
132
330
1F
100
AcDbEntity
  8
1
100
AcDbEllipse
 10
403.914648
 20
357.61403
 30
0.0
 11
0.0
 21
1.899999999999999
 31
0.0
210
0.0
220
0.0
230
0.9999999999999998
 40
0.9848079999999999
 41
0.0
 42
6.283185307179585
  0
ELLIPSE
  5
133
330
1F
100
AcDbEntity
  8
1
100
AcDbEllipse
 10
411.5631559999999
 20
370.300754
 30
0.0
 11
0.0
 21
4.0
 31
0.0
210
0.0
220
0.0
230
1.0
 40
0.9848079999999999
 41
3.266140370665991
 42
3.317237499833691
  0
ELLIPSE
  5
134
330
1F
100
AcDbEntity
  8
1
100
AcDbEllipse
 10
406.0480839999999
 20
364.646128
 30
0.0
 11
-14.216815364104
 21
2.481294082964208
 31
0.0
210
0.0
220
0.0
230
1.0
 40
0.1799109999999999
 41
2.984675863244813
 42
3.098702383119063
  0
ELLIPSE
  5
135
330
1F
100
AcDbEntity
  8
1
100
AcDbEllipse
 10
406.645487
 20
366.008075
 30
0.0
 11
0.0
 21
14.35127864753449
 31
0.0
210
0.0
220
0.0
230
0.9999999999999998
 40
0.9848079999999999
 41
4.433507398675762
 42
4.475613042892363
  0
ELLIPSE
  5
136
330
1F
100
AcDbEntity
  8
1
100
AcDbEllipse
 10
405.163994
 20
358.059128
 30
0.0
 11
-0.0000000000000002
 21
-2.6
 31
0.0
210
0.0
220
0.0
230
1.0
 40
0.9848079999999999
 41
3.77285642734472
 42
3.831074127602001
  0
ELLIPSE
  5
137
330
1F
100
AcDbEntity
  8
1
100
AcDbEllipse
 10
406.76702
 20
366.008125
 30
0.0
 11
0.0
 21
15.71753173807485
 31
0.0
210
0.0
220
0.0
230
1.0
 40
0.9848079999999999
 41
4.948647410035441
 42
6.327460010788527
  0
ELLIPSE
  5
138
330
1F
100
AcDbEntity
  8
1
100
AcDbEllipse
 10
393.656866
 20
379.549717
 30
0.0
 11
0.0
 21
1.60000000000001
 31
0.0
210
0.0
220
0.0
230
1.0
 40
0.9848079999999999
 41
0.0442747036089505
 42
1.800345436636396
  0
ELLIPSE
  5
139
330
1F
100
AcDbEntity
  8
1
100
AcDbEllipse
 10
407.1952309999999
 20
382.761998
 30
0.0
 11
0.0
 21
15.71753173807484
 31
0.0
210
0.0
220
0.0
230
1.0
 40
0.9848079999999999
 41
1.800345436636396
 42
3.028787724519246
  0
ELLIPSE
  5
13A
330
1F
100
AcDbEntity
  8
1
100
AcDbEllipse
 10
391.593093
 20
353.149613
 30
0.0
 11
-2.096911366047025
 21
-1.038693080597939
 31
0.0
210
0.0
220
0.0
230
1.0
 40
0.893045
 41
0.353328352545633
 42
0.9546249643064291
  0
ELLIPSE
  5
13B
330
1F
100
AcDbEntity
  8
1
100
AcDbEllipse
 10
391.886119
 20
350.974723
 30
0.0
 11
-0.3141224461799266
 21
0.0210794880117469
 31
0.0
210
0.0
220
0.0
230
0.9999999999999998
 40
0.093103
 41
1.192504561218482
 42
1.803369799411185
  0
ELLIPSE
  5
13C
330
1F
100
AcDbEntity
  8
1
100
AcDbEllipse
 10
419.6438349999999
 20
360.684806
 30
0.0
 11
0.0
 21
1.60000000000001
 31
0.0
210
0.0
220
0.0
230
1.0
 40
0.9848079999999999
 41
4.325760237863692
 42
5.881117781578207
  0
ELLIPSE
  5
13D
330
1F
100
AcDbEntity
  8
1
100
AcDbEllipse
 10
406.0071009999999
 20
374.402172
 30
0.0
 11
-0.0000000000000002
 21
-3.5
 31
0.0
210
0.0
220
0.0
230
1.0
 40
0.9848079999999999
 41
3.141688793082168
 42
6.283185307179585
  0
ELLIPSE
  5
13E
330
1F
100
AcDbEntity
  8
1
100
AcDbEllipse
 10
406.0595769999999
 20
374.402172
 30
0.0
 11
0.0
 21
3.5
 31
0.0
210
0.0
220
0.0
230
1.0
 40
0.9848079999999999
 41
0.0
 42
6.283185307179585
  0
ELLIPSE
  5
145
330
1F
100
AcDbEntity
  8
1
100
AcDbEllipse
 10
412.544268
 20
370.300754
 30
0.0
 11
-0.0000000000000002
 21
-4.0
 31
0.0
210
0.0
220
0.0
230
1.0
 40
0.9848079999999999
 41
6.170380378109035
 42
6.333507438546985
  0
ELLIPSE
  5
146
330
1F
100
AcDbEntity
  8
1
100
AcDbEllipse
 10
411.561022
 20
370.41386
 30
0.0
 11
-0.0000000000000002
 21
-4.0
 31
0.0
210
0.0
220
0.0
230
1.0
 40
0.9848079999999999
 41
6.007253360567355
 42
6.170380378109027
  0
ELLIPSE
  5
147
330
1F
100
AcDbEntity
  8
1
100
AcDbEllipse
 10
406.877987
 20
382.784462
 30
0.0
 11
-0.000000000000001
 21
-15.60666262984765
 31
0.0
210
0.0
220
0.0
230
1.0
 40
0.9848079999999999
 41
5.587115850542538
 42
5.872806075930667
  0
ELLIPSE
  5
148
330
1F
100
AcDbEntity
  8
1
100
AcDbEllipse
 10
397.970638
 20
374.690916
 30
0.0
 11
0.0
 21
4.0
 31
0.0
210
0.0
220
0.0
230
1.0
 40
0.9848079999999999
 41
1.998953356117185
 42
2.898625927743966
  0
ELLIPSE
  5
149
330
1F
100
AcDbEntity
  8
1
100
AcDbEllipse
 10
395.730554
 20
375.865649
 30
0.0
 11
-0.0000000000000002
 21
-3.146651362267734
 31
0.0
210
0.0
220
0.0
230
1.0
 40
0.9848079999999999
 41
4.861383439113287
 42
5.834736059147417
  0
ELLIPSE
  5
14A
330
1F
100
AcDbEntity
  8
1
100
AcDbEllipse
 10
404.990346
 20
358.059128
 30
0.0
 11
-0.0000000000000002
 21
-2.5
 31
0.0
210
0.0
220
0.0
230
1.0
 40
0.9848079999999999
 41
3.336766124748147
 42
3.783559371982191
  0
ELLIPSE
  5
14B
330
1F
100
AcDbEntity
  8
1
100
AcDbEllipse
 10
417.3672899999999
 20
362.195655
 30
0.0
 11
-1.750603357653895
 21
-5.088451386620201
 31
0.0
210
0.0
220
0.0
230
1.0
 40
0.4924160000000001
 41
1.661019332579836
 42
2.309764139049314
  0
ELLIPSE
  5
14C
330
1F
100
AcDbEntity
  8
1
100
AcDbEllipse
 10
404.0352809999999
 20
358.059128
 30
0.0
 11
-0.0000000000000002
 21
-3.0
 31
0.0
210
0.0
220
0.0
230
1.0
 40
0.9848079999999999
 41
3.232554259967508
 42
5.763945758829692
  0
SPLINE
  5
14E
330
1F
100
AcDbEntity
  8
1
100
AcDbSpline
210
0.0
220
0.0
230
1.0
 70
     9
 71
     3
 72
   123
 73
   119
 74
     0
 42
0.000000001
 43
0.0000000001
 40
0.0
 40
0.0
 40
0.0
 40
0.0
 40
0.0312499999999873
 40
0.0312499999999873
 40
0.0390624999999832
 40
0.0390624999999832
 40
0.0468749999999792
 40
0.0468749999999792
 40
0.062499999999974
 40
0.062499999999974
 40
0.0937499999999615
 40
0.0937499999999615
 40
0.1015624999999582
 40
0.1015624999999582
 40
0.1093749999999549
 40
0.1249999999999482
 40
0.1406249999999415
 40
0.1406249999999415
 40
0.1484374999999368
 40
0.1484374999999368
 40
0.1562499999999321
 40
0.1562499999999321
 40
0.1874999999999132
 40
0.1874999999999132
 40
0.2031249999999038
 40
0.2031249999999038
 40
0.2187499999998944
 40
0.234374999999885
 40
0.234374999999885
 40
0.2421874999998803
 40
0.2421874999998803
 40
0.2499999999998757
 40
0.2499999999998757
 40
0.2812499999998684
 40
0.2812499999998684
 40
0.2968749999998627
 40
0.2968749999998627
 40
0.3046874999998599
 40
0.3046874999998599
 40
0.3124999999998571
 40
0.3124999999998571
 40
0.3437499999998545
 40
0.3437499999998545
 40
0.351562499999855
 40
0.351562499999855
 40
0.3593749999998554
 40
0.3593749999998554
 40
0.3749999999998564
 40
0.3749999999998564
 40
0.4062499999998586
 40
0.4062499999998586
 40
0.4218749999998596
 40
0.4218749999998596
 40
0.4374999999998607
 40
0.4374999999998607
 40
0.4687499999998627
 40
0.4687499999998627
 40
0.4765624999998642
 40
0.4765624999998642
 40
0.4843749999998657
 40
0.4999999999998682
 40
0.5156249999998709
 40
0.5156249999998709
 40
0.5234374999998721
 40
0.5234374999998721
 40
0.5312499999998735
 40
0.5312499999998735
 40
0.5624999999998755
 40
0.5624999999998755
 40
0.5781249999998771
 40
0.5781249999998771
 40
0.5859374999998774
 40
0.5859374999998774
 40
0.5937499999998778
 40
0.5937499999998778
 40
0.6249999999998791
 40
0.6249999999998791
 40
0.6328124999998796
 40
0.6328124999998796
 40
0.64062499999988
 40
0.6562499999998827
 40
0.6718749999998854
 40
0.6718749999998854
 40
0.687499999999888
 40
0.687499999999888
 40
0.7187499999998908
 40
0.7187499999998908
 40
0.7265624999998931
 40
0.7265624999998931
 40
0.7343749999998953
 40
0.7343749999998953
 40
0.7499999999998998
 40
0.7499999999998998
 40
0.7812499999999125
 40
0.7812499999999125
 40
0.7890624999999156
 40
0.7890624999999156
 40
0.7968749999999187
 40
0.8124999999999205
 40
0.8281249999999225
 40
0.8281249999999225
 40
0.8359374999999257
 40
0.8359374999999257
 40
0.8437499999999291
 40
0.8437499999999291
 40
0.8749999999999509
 40
0.8749999999999509
 40
0.8906249999999594
 40
0.8906249999999594
 40
0.9062499999999683
 40
0.9062499999999683
 40
0.9374999999999815
 40
0.9374999999999815
 40
0.9531249999999861
 40
0.9531249999999861
 40
0.9687499999999907
 40
0.9687499999999907
 40
1.0
 40
1.0
 40
1.0
 40
1.0
 10
384.8560684180851
 20
351.5498257895944
 30
0.0
 10
384.8850596681596
 20
351.5527777813604
 30
0.0
 10
384.9097530788536
 20
351.5560632833735
 30
0.0
 10
384.9352522428728
 20
351.5606616382513
 30
0.0
 10
384.9400811982724
 20
351.5616060288863
 30
0.0
 10
384.9491871832675
 20
351.5635467645607
 30
0.0
 10
384.9534729527915
 20
351.5645456722049
 30
0.0
 10
384.9653686106582
 20
351.5675940347423
 30
0.0
 10
384.9720537326572
 20
351.5697007242487
 30
0.0
 10
384.9884583807998
 20
351.576252511111
 30
0.0
 10
384.9945644691188
 20
351.5809284385476
 30
0.0
 10
384.9958879653907
 20
351.5871973325161
 30
0.0
 10
384.9958315271084
 20
351.5884688546858
 30
0.0
 10
384.9950865153673
 20
351.5910246759706
 30
0.0
 10
384.9930201942141
 20
351.5948872361927
 30
0.0
 10
384.9849315635286
 20
351.6014649776125
 30
0.0
 10
384.9735602160846
 20
351.6068662099373
 30
0.0
 10
384.9631586884111
 20
351.6109643743192
 30
0.0
 10
384.9593662328955
 20
351.6123423271086
 30
0.0
 10
384.951215731656
 20
351.6150890716158
 30
0.0
 10
384.9468604124078
 20
351.6164577116902
 30
0.0
 10
384.9237162584657
 20
351.6232742535131
 30
0.0
 10
384.9008649037103
 20
351.6286442220983
 30
0.0
 10
384.8602066792929
 20
351.6364932700728
 30
0.0
 10
384.8454987954328
 20
351.6390870481414
 30
0.0
 10
384.8144948013423
 20
351.6440895193766
 30
0.0
 10
384.7818419068699
 20
351.6489236588778
 30
0.0
 10
384.7459978130266
 20
351.6533994600653
 30
0.0
 10
384.7179225189777
 20
351.6566101770075
 30
0.0
 10
384.7083650272588
 20
351.6576560219054
 30
0.0
 10
384.6888483469837
 20
351.6596964628329
 30
0.0
 10
384.6788638767246
 20
351.6606934214653
 30
0.0
 10
384.6282499444113
 20
351.665512123816
 30
0.0
 10
384.5858125963097
 20
351.6688199265566
 30
0.0
 10
384.5193809961541
 20
351.6729217538908
 30
0.0
 10
384.4967710875634
 20
351.6741450046376
 30
0.0
 10
384.4621450637816
 20
351.6757521979856
 30
0.0
 10
384.4504539608699
 20
351.6762510265236
 30
0.0
 10
384.4270219671007
 20
351.6771629717643
 30
0.0
 10
384.4152769045946
 20
351.6775765606761
 30
0.0
 10
384.3564091336882
 20
351.6794345211142
 30
0.0
 10
384.3088629206916
 20
351.6802528656335
 30
0.0
 10
384.2488707792248
 20
351.6804312072463
 30
0.0
 10
384.2368441419127
 20
351.6804244010753
 30
0.0
 10
384.2127336113055
 20
351.6803245937381
 30
0.0
 10
384.2006221529934
 20
351.6802312514458
 30
0.0
 10
384.1644041515264
 20
351.6798218844584
 30
0.0
 10
384.1405214701419
 20
351.6793788758513
 30
0.0
 10
384.0696387988544
 20
351.6775599592135
 30
0.0
 10
384.0233971964378
 20
351.6756971367258
 30
0.0
 10
383.9555936185168
 20
351.6719516999868
 30
0.0
 10
383.9331546071273
 20
351.6705356264569
 30
0.0
 10
383.8896882037027
 20
351.6674452556176
 30
0.0
 10
383.8685788935888
 20
351.6657680568288
 30
0.0
 10
383.8070967786612
 20
351.6603663055811
 30
0.0
 10
383.7685510423108
 20
351.6562742089549
 30
0.0
 10
383.7236042902976
 20
351.6505898862183
 30
0.0
 10
383.7147789871849
 20
351.6494240648512
 30
0.0
 10
383.6976600073231
 20
351.6470637150609
 30
0.0
 10
383.6727019286782
 20
351.6434701521633
 30
0.0
 10
383.6346509280929
 20
351.6372355346116
 30
0.0
 10
383.607989462048
 20
351.6320186639537
 30
0.0
 10
383.5894519360921
 20
351.6280292324753
 30
0.0
 10
383.5835163049462
 20
351.6266865955643
 30
0.0
 10
383.5721448965954
 20
351.6239768385503
 30
0.0
 10
383.5667049095346
 20
351.6226080831601
 30
0.0
 10
383.5410913161645
 20
351.6157887885255
 30
0.0
 10
383.5253534286607
 20
351.6103501156783
 30
0.0
 10
383.5088169455469
 20
351.6022793361458
 30
0.0
 10
383.5044916672499
 20
351.5996033235473
 30
0.0
 10
383.4998587265953
 20
351.5956161664215
 30
0.0
 10
383.4986315342148
 20
351.5942964863633
 30
0.0
 10
383.4968223045708
 20
351.5916968437488
 30
0.0
 10
383.4962364190937
 20
351.5904137037796
 30
0.0
 10
383.4948764989197
 20
351.5840806626574
 30
0.0
 10
383.4987642930697
 20
351.5792784843372
 30
0.0
 10
383.5099321489005
 20
351.5735969423302
 30
0.0
 10
383.5124931045961
 20
351.5724734794738
 30
0.0
 10
383.5182149826979
 20
351.5702770311352
 30
0.0
 10
383.5276900329514
 20
351.5670592975288
 30
0.0
 10
383.5478204408228
 20
351.5620630170356
 30
0.0
 10
383.5684479775757
 20
351.5584272888497
 30
0.0
 10
383.5913524322143
 20
351.5549603031807
 30
0.0
 10
383.60401902303
 20
351.5533038681791
 30
0.0
 10
383.6447105459469
 20
351.5486626329431
 30
0.0
 10
383.6754943652959
 20
351.5459782199244
 30
0.0
 10
383.7183799938899
 20
351.5430354545338
 30
0.0
 10
383.7271794790427
 20
351.5424677424416
 30
0.0
 10
383.7452272657999
 20
351.5413722690323
 30
0.0
 10
383.7545010269938
 20
351.5408431926798
 30
0.0
 10
383.7827843075158
 20
351.5393253219132
 30
0.0
 10
383.8022415021437
 20
351.5384054513564
 30
0.0
 10
383.8623475485178
 20
351.5358876415474
 30
0.0
 10
383.9047151406431
 20
351.5345288132834
 30
0.0
 10
383.9605648514507
 20
351.5331637394768
 30
0.0
 10
383.9719016199211
 20
351.5329072599182
 30
0.0
 10
383.9946457332938
 20
351.5324316705758
 30
0.0
 10
384.0289371074671
 20
351.5317727455403
 30
0.0
 10
384.0869446945068
 20
351.5309303188984
 30
0.0
 10
384.1342466931926
 20
351.5305086497111
 30
0.0
 10
384.1700623493137
 20
351.5302840376132
 30
0.0
 10
384.1820575232747
 20
351.5302244882042
 30
0.0
 10
384.2061628425068
 20
351.5301361257102
 30
0.0
 10
384.2183012505486
 20
351.5301073286086
 30
0.0
 10
384.2787266443551
 20
351.5300415859748
 30
0.0
 10
384.3264939565314
 20
351.5302331534828
 30
0.0
 10
384.3973088635232
 20
351.5308908308119
 30
0.0
 10
384.4207735300529
 20
351.531172547574
 30
0.0
 10
384.4674143988138
 20
351.5318713305978
 30
0.0
 10
384.4906369250576
 20
351.5322902225151
 30
0.0
 10
384.5584071212248
 20
351.5337406243901
 30
0.0
 10
384.6015583797505
 20
351.5349686837383
 30
0.0
 10
384.6632280658975
 20
351.5372812231385
 30
0.0
 10
384.6832716817356
 20
351.5381311737637
 30
0.0
 10
384.7222853676851
 20
351.540012514619
 30
0.0
 10
384.741011995024
 20
351.5410326503986
 30
0.0
 10
384.7946204439791
 20
351.5443389552923
 30
0.0
 10
384.8270771680105
 20
351.546873797828
 30
0.0
 10
384.8560684180851
 20
351.5498257895944
 30
0.0
  0
SPLINE
  5
14F
330
1F
100
AcDbEntity
  8
1
100
AcDbSpline
210
0.0
220
0.0
230
1.0
 70
     8
 71
     3
 72
    24
 73
    20
 74
     0
 42
0.000000001
 43
0.0000000001
 40
0.0
 40
0.0
 40
0.0
 40
0.0
 40
0.022068435799468
 40
0.022068435799468
 40
0.1382192095659669
 40
0.1382192095659669
 40
0.3705207570989374
 40
0.3705207570989374
 40
0.486671530865441
 40
0.486671530865441
 40
0.5447469177486726
 40
0.5447469177486726
 40
0.6028223046319047
 40
0.6028223046319047
 40
0.8351238521647911
 40
0.8351238521647911
 40
0.9512746259312587
 40
0.9512746259312587
 40
1.0
 40
1.0
 40
1.0
 40
1.0
 10
391.8811768944792
 20
380.5080750130621
 30
0.0
 10
391.8833351921341
 20
380.5080745090012
 30
0.0
 10
391.8855354331009
 20
380.5080714001436
 30
0.0
 10
391.8995806983605
 20
380.5080358555886
 30
0.0
 10
391.9126204972446
 20
380.5079337377165
 30
0.0
 10
391.9546265425154
 20
380.5074439387773
 30
0.0
 10
391.9865898765132
 20
380.5068750192056
 30
0.0
 10
392.0405804500468
 20
380.5057918440171
 30
0.0
 10
392.0595906467354
 20
380.5053923723527
 30
0.0
 10
392.0896976442033
 20
380.5047521218585
 30
0.0
 10
392.0999990364119
 20
380.5045318681818
 30
0.0
 10
392.1211512148622
 20
380.5040805357269
 30
0.0
 10
392.131995176812
 20
380.5038496177018
 30
0.0
 10
392.1869734874179
 20
380.5026893228788
 30
0.0
 10
392.233842332108
 20
380.5017335005505
 30
0.0
 10
392.3085420731148
 20
380.5004042794223
 30
0.0
 10
392.3341792497012
 20
380.4999784235445
 30
0.0
 10
392.3716690114032
 20
380.4994148168878
 30
0.0
 10
392.3829041905252
 20
380.4992531832072
 30
0.0
 10
392.3942407717836
 20
380.4990979213627
 30
0.0
  0
SPLINE
  5
150
330
1F
100
AcDbEntity
  8
1
100
AcDbSpline
210
0.0
220
0.0
230
1.0
 70
    24
 71
     3
 72
     8
 73
     4
 74
     0
 42
0.000000001
 43
0.0000000001
 40
0.0
 40
0.0
 40
0.0
 40
0.0
 40
1.0
 40
1.0
 40
1.0
 40
1.0
 10
389.4172271815098
 20
351.533002343855
 30
0.0
 10
389.7325601525259
 20
351.5330024394391
 30
0.0
 10
390.0478931235419
 20
351.5330025350235
 30
0.0
 10
390.3632260945579
 20
351.5330026306082
 30
0.0
  0
SPLINE
  5
151
330
1F
100
AcDbEntity
  8
1
100
AcDbSpline
210
0.0
220
0.0
230
1.0
 70
     8
 71
     3
 72
     8
 73
     4
 74
     0
 42
0.000000001
 43
0.0000000001
 40
0.0
 40
0.0
 40
0.0
 40
0.0
 40
1.0
 40
1.0
 40
1.0
 40
1.0
 10
390.4667201828137
 20
351.532685598984
 30
0.0
 10
390.4323335511873
 20
351.5328961689407
 30
0.0
 10
390.3978356478945
 20
351.5330026410991
 30
0.0
 10
390.3632260945579
 20
351.5330026306082
 30
0.0
  0
SPLINE
  5
152
330
1F
100
AcDbEntity
  8
1
100
AcDbSpline
210
0.0
220
0.0
230
1.0
 70
     8
 71
     2
 72
    10
 73
     7
 74
     0
 42
0.000000001
 43
0.0000000001
 40
0.0
 40
0.0
 40
0.0
 40
0.1477826486524861
 40
0.3923747703845376
 40
0.6369668921165893
 40
0.8815590138486408
 40
1.0
 40
1.0
 40
1.0
 10
390.6599842728322
 20
379.6698286184704
 30
0.0
 10
390.819620626128
 20
378.8160450500251
 30
0.0
 10
391.4860239131978
 20
376.6007332343423
 30
0.0
 10
392.7902165448444
 20
374.0347265139277
 30
0.0
 10
394.5257210382657
 20
371.7472452114433
 30
0.0
 10
396.0919389742497
 20
370.3113957385939
 30
0.0
 10
396.6389831610288
 20
369.8915078684553
 30
0.0
  0
SPLINE
  5
153
330
1F
100
AcDbEntity
  8
1
100
AcDbSpline
210
0.0
220
0.0
230
1.0
 70
     8
 71
     3
 72
    80
 73
    76
 74
     0
 42
0.000000001
 43
0.0000000001
 40
0.0
 40
0.0
 40
0.0
 40
0.0
 40
0.0624999999999754
 40
0.0624999999999754
 40
0.1249999999999509
 40
0.1249999999999509
 40
0.1562499999999397
 40
0.1562499999999397
 40
0.1874999999999288
 40
0.1874999999999288
 40
0.1953124999999275
 40
0.1953124999999275
 40
0.2031249999999263
 40
0.2031249999999263
 40
0.2187499999999256
 40
0.2187499999999256
 40
0.2499999999999246
 40
0.2499999999999246
 40
0.2812499999999235
 40
0.2812499999999235
 40
0.3124999999999223
 40
0.3124999999999223
 40
0.3203124999999218
 40
0.3203124999999218
 40
0.3281249999999212
 40
0.3437499999999213
 40
0.3437499999999213
 40
0.3749999999999218
 40
0.3749999999999218
 40
0.4062499999999223
 40
0.4062499999999223
 40
0.4140624999999221
 40
0.4140624999999221
 40
0.4218749999999217
 40
0.4374999999999213
 40
0.4374999999999213
 40
0.4687499999999205
 40
0.4687499999999205
 40
0.4843749999999202
 40
0.4843749999999202
 40
0.4999999999999197
 40
0.4999999999999197
 40
0.5312499999999184
 40
0.5312499999999184
 40
0.546874999999918
 40
0.5546874999999176
 40
0.5546874999999176
 40
0.5624999999999174
 40
0.5624999999999174
 40
0.5937499999999199
 40
0.5937499999999199
 40
0.6249999999999223
 40
0.6249999999999223
 40
0.6406249999999245
 40
0.6484374999999246
 40
0.6484374999999246
 40
0.6562499999999247
 40
0.6562499999999247
 40
0.6874999999999303
 40
0.6874999999999303
 40
0.718749999999936
 40
0.718749999999936
 40
0.7499999999999415
 40
0.7499999999999415
 40
0.7812499999999469
 40
0.7812499999999469
 40
0.7968749999999499
 40
0.7968749999999499
 40
0.8124999999999527
 40
0.8124999999999527
 40
0.8749999999999683
 40
0.8749999999999683
 40
0.9374999999999841
 40
0.9374999999999841
 40
1.0
 40
1.0
 40
1.0
 40
1.0
 10
389.2138835854698
 20
372.746064563246
 30
0.0
 10
388.9081313138913
 20
372.8603023124842
 30
0.0
 10
388.6107552014602
 20
372.9853912555263
 30
0.0
 10
388.0338056001877
 20
373.2574925827949
 30
0.0
 10
387.7542192156458
 20
373.4044940635505
 30
0.0
 10
387.3496607314983
 20
373.642238751436
 30
0.0
 10
387.2172863512468
 20
373.7243683085613
 30
0.0
 10
386.9578730884022
 20
373.8946442500155
 30
0.0
 10
386.8308328505919
 20
373.9827894505733
 30
0.0
 10
386.6756813532464
 20
374.0969596445945
 30
0.0
 10
386.6448338642663
 20
374.1199934481179
 30
0.0
 10
386.5835140009182
 20
374.1664677482547
 30
0.0
 10
386.5530120657755
 20
374.1899315189482
 30
0.0
 10
386.462334764764
 20
374.2607478619741
 30
0.0
 10
386.403010753261
 20
374.3085038059994
 30
0.0
 10
386.2284988204954
 20
374.4533987867563
 30
0.0
 10
386.1167652344883
 20
374.5521628327434
 30
0.0
 10
385.9030520804397
 20
374.7540308553952
 30
0.0
 10
385.8010706155722
 20
374.8571342922937
 30
0.0
 10
385.6076043280993
 20
375.0677602769989
 30
0.0
 10
385.5161165218332
 20
375.1752819388341
 30
0.0
 10
385.4089549141299
 20
375.31255512176
 30
0.0
 10
385.3878582549472
 20
375.3401876905288
 30
0.0
 10
385.3465556554877
 20
375.3955417552692
 30
0.0
 10
385.2859345735195
 20
375.4787013977491
 30
0.0
 10
385.2293609035163
 20
375.5622381059345
 30
0.0
 10
385.1218104500679
 20
375.7298078407897
 30
0.0
 10
385.0575482348673
 20
375.8421781554976
 30
0.0
 10
384.9454816222943
 20
376.0682996962083
 30
0.0
 10
384.8976655577108
 20
376.182049294104
 30
0.0
 10
384.8497334755222
 20
376.3252434771628
 30
0.0
 10
384.8407303534747
 20
376.3539772833218
 30
0.0
 10
384.8240679197062
 20
376.4111789694784
 30
0.0
 10
384.8010533963396
 20
376.4966766848621
 30
0.0
 10
384.7840432889398
 20
376.5812572257057
 30
0.0
 10
384.7582640020084
 20
376.749188496049
 30
0.0
 10
384.7520447744633
 20
376.8595029410294
 30
0.0
 10
384.7604760750684
 20
377.0224883125796
 30
0.0
 10
384.7662516880368
 20
377.0764023908717
 30
0.0
 10
384.7840161860533
 20
377.1833972069492
 30
0.0
 10
384.7959029322199
 20
377.2358364248205
 30
0.0
 10
384.8402850974291
 20
377.389850015456
 30
0.0
 10
384.8815148543404
 20
377.488246633365
 30
0.0
 10
384.9600303966458
 20
377.6299486044302
 30
0.0
 10
385.0034592324251
 20
377.6993249628795
 30
0.0
 10
385.0530197701157
 20
377.7665773438441
 30
0.0
 10
385.0874099962605
 20
377.810949450133
 30
0.0
 10
385.1053141900234
 20
377.8329421700029
 30
0.0
 10
385.1975549197797
 20
377.9410612741711
 30
0.0
 10
385.2802271754644
 20
378.0220131590204
 30
0.0
 10
385.4606607178723
 20
378.174763068906
 30
0.0
 10
385.5584304232472
 20
378.2465548456233
 30
0.0
 10
385.7148717135559
 20
378.348467649443
 30
0.0
 10
385.7955450256452
 20
378.3979757647899
 30
0.0
 10
385.8796545635802
 20
378.4454821245653
 30
0.0
 10
385.9364668801078
 20
378.4767251222177
 30
0.0
 10
385.9652547583134
 20
378.4921381757448
 30
0.0
 10
386.1103314755691
 20
378.5678448446907
 30
0.0
 10
386.2305108108913
 20
378.6243644704495
 30
0.0
 10
386.4776460388472
 20
378.7308921253618
 30
0.0
 10
386.6046072240523
 20
378.7808940748323
 30
0.0
 10
386.8642331381585
 20
378.8755298904905
 30
0.0
 10
386.9969010068873
 20
378.9201601605355
 30
0.0
 10
387.2671149182082
 20
379.0049190083246
 30
0.0
 10
387.4046629349097
 20
379.045045334421
 30
0.0
 10
387.6141552089524
 20
379.1023634710759
 30
0.0
 10
387.6845155321719
 20
379.1209896430423
 30
0.0
 10
387.8262259508778
 20
379.1573531674127
 30
0.0
 10
387.8976118639627
 20
379.1750990581219
 30
0.0
 10
388.2564436012747
 20
379.2616650312111
 30
0.0
 10
388.548572252652
 20
379.3238421443625
 30
0.0
 10
389.1404861170842
 20
379.4378445273388
 30
0.0
 10
389.4402869787215
 20
379.4896436845579
 30
0.0
 10
390.0459345856689
 20
379.5852985498641
 30
0.0
 10
390.3517892375644
 20
379.629141238245
 30
0.0
 10
390.660097275453
 20
379.6698429597768
 30
0.0
  0
SPLINE
  5
154
330
1F
100
AcDbEntity
  8
1
100
AcDbSpline
210
0.0
220
0.0
230
1.0
 70
     8
 71
     3
 72
    93
 73
    89
 74
     0
 42
0.000000001
 43
0.0000000001
 40
0.0
 40
0.0
 40
0.0
 40
0.0
 40
0.0312500000000116
 40
0.0312500000000116
 40
0.0625000000000231
 40
0.0625000000000231
 40
0.0781250000000307
 40
0.0781250000000307
 40
0.0937500000000382
 40
0.0937500000000382
 40
0.1250000000000495
 40
0.1562500000000608
 40
0.1562500000000608
 40
0.1718750000000665
 40
0.1718750000000665
 40
0.1796875000000693
 40
0.1796875000000693
 40
0.1875000000000721
 40
0.1875000000000721
 40
0.2187500000000873
 40
0.2187500000000873
 40
0.2500000000001024
 40
0.2500000000001024
 40
0.2656250000001099
 40
0.2656250000001099
 40
0.2734375000001137
 40
0.2734375000001137
 40
0.2812500000001175
 40
0.2812500000001175
 40
0.3125000000001257
 40
0.3125000000001257
 40
0.3437500000001339
 40
0.3437500000001339
 40
0.3593750000001381
 40
0.3593750000001381
 40
0.3671875000001389
 40
0.3671875000001389
 40
0.3750000000001397
 40
0.3750000000001397
 40
0.4062500000001354
 40
0.4062500000001354
 40
0.4375000000001312
 40
0.4375000000001312
 40
0.4453125000001295
 40
0.4453125000001295
 40
0.4531250000001277
 40
0.4531250000001277
 40
0.4687500000001255
 40
0.4687500000001255
 40
0.5000000000001199
 40
0.5000000000001199
 40
0.5312500000001141
 40
0.5312500000001141
 40
0.5468750000001111
 40
0.5468750000001111
 40
0.5625000000001083
 40
0.5625000000001083
 40
0.5937500000001024
 40
0.5937500000001024
 40
0.6250000000000965
 40
0.6250000000000965
 40
0.6406250000000937
 40
0.6406250000000937
 40
0.6562500000000906
 40
0.6562500000000906
 40
0.6875000000000849
 40
0.6875000000000849
 40
0.7187500000000793
 40
0.7500000000000737
 40
0.7500000000000737
 40
0.7656250000000698
 40
0.7656250000000698
 40
0.7812500000000666
 40
0.7812500000000666
 40
0.8125000000000575
 40
0.8437500000000484
 40
0.8437500000000484
 40
0.8750000000000394
 40
0.8750000000000394
 40
0.8906250000000339
 40
0.8906250000000339
 40
0.906250000000028
 40
0.906250000000028
 40
0.9375000000000188
 40
0.9375000000000188
 40
0.9687500000000094
 40
0.9687500000000094
 40
1.0
 40
1.0
 40
1.0
 40
1.0
 10
405.1481306437637
 20
360.5239223794619
 30
0.0
 10
405.0545266593412
 20
360.5857859014313
 30
0.0
 10
404.9583310681823
 20
360.6426027239347
 30
0.0
 10
404.7607993564955
 20
360.7461426678579
 30
0.0
 10
404.6594636442978
 20
360.7928667412281
 30
0.0
 10
404.5035105903835
 20
360.8551441011069
 30
0.0
 10
404.4508666466371
 20
360.8745992028041
 30
0.0
 10
404.3442260077386
 20
360.9108273027426
 30
0.0
 10
404.2901748069393
 20
360.9276156975603
 30
0.0
 10
404.1262629860918
 20
360.9737109824509
 30
0.0
 10
403.9064905435755
 20
361.0228633506193
 30
0.0
 10
403.6843020655183
 20
361.0478687743518
 30
0.0
 10
403.5167364945058
 20
361.0574128567862
 30
0.0
 10
403.4607269599629
 20
361.0590557938369
 30
0.0
 10
403.3764758551126
 20
361.0591599469725
 30
0.0
 10
403.3483526641273
 20
361.0588010448854
 30
0.0
 10
403.2920261389237
 20
361.0572841167187
 30
0.0
 10
403.2637825327217
 20
361.0561237175064
 30
0.0
 10
403.1228411326725
 20
361.0483166305995
 30
0.0
 10
403.0118341351576
 20
361.0357429987738
 30
0.0
 10
402.7932237028198
 20
360.9983487997613
 30
0.0
 10
402.6856204967128
 20
360.9735271711605
 30
0.0
 10
402.5268145785791
 20
360.9270596080527
 30
0.0
 10
402.4743135605558
 20
360.9100276638995
 30
0.0
 10
402.3962299995209
 20
360.8821260917134
 30
0.0
 10
402.3703135516093
 20
360.872433051327
 30
0.0
 10
402.3187072079456
 20
360.8522523344819
 30
0.0
 10
402.2930163052853
 20
360.8417621263702
 30
0.0
 10
402.1660461885601
 20
360.7877023530088
 30
0.0
 10
402.0684618146278
 20
360.7390401562363
 30
0.0
 10
401.8810436972429
 20
360.6314042034297
 30
0.0
 10
401.7912110972203
 20
360.5724284794285
 30
0.0
 10
401.6623265988151
 20
360.4763339163003
 30
0.0
 10
401.6203447141141
 20
360.4430278276078
 30
0.0
 10
401.5588677668281
 20
360.3911455256693
 30
0.0
 10
401.5386019011678
 20
360.3735085966359
 30
0.0
 10
401.498830111611
 20
360.3378239977459
 30
0.0
 10
401.4792955393547
 20
360.3197534268167
 30
0.0
 10
401.3833511024576
 20
360.2282870223957
 30
0.0
 10
401.312111604489
 20
360.1515607926887
 30
0.0
 10
401.1801974122708
 20
359.9915375792827
 30
0.0
 10
401.1195248989014
 20
359.908238741936
 30
0.0
 10
401.050208936784
 20
359.8001994645562
 30
0.0
 10
401.0366727278003
 20
359.7783953364935
 30
0.0
 10
401.010255200039
 20
359.7343974792253
 30
0.0
 10
400.9973593161292
 20
359.7121762051964
 30
0.0
 10
400.9598584405043
 20
359.6452997751667
 30
0.0
 10
400.9363824884739
 20
359.6003449647025
 30
0.0
 10
400.8703436060687
 20
359.4644542558699
 30
0.0
 10
400.8321590978308
 20
359.3724956989831
 30
0.0
 10
400.7667836146841
 20
359.1862004727782
 30
0.0
 10
400.7395950713683
 20
359.0918628191517
 30
0.0
 10
400.7067785856411
 20
358.9487557042154
 30
0.0
 10
400.6971596144365
 20
358.900698766744
 30
0.0
 10
400.6806894894483
 20
358.8049427466007
 30
0.0
 10
400.6738131485984
 20
358.7571556281758
 30
0.0
 10
400.6570818795011
 20
358.6140802468422
 30
0.0
 10
400.6511155699248
 20
358.519078539549
 30
0.0
 10
400.6488608487688
 20
358.3298933620921
 30
0.0
 10
400.6525744111001
 20
358.2357097448551
 30
0.0
 10
400.6650865458071
 20
358.0950758356237
 30
0.0
 10
400.6704240130183
 20
358.048249526369
 30
0.0
 10
400.6833504140338
 20
357.9550600641905
 30
0.0
 10
400.6909158789372
 20
357.9088430801169
 30
0.0
 10
400.7167834202159
 20
357.7712855031314
 30
0.0
 10
400.7382490915546
 20
357.6810367724086
 30
0.0
 10
400.7891026392798
 20
357.503281220719
 30
0.0
 10
400.8478805888698
 20
357.3282680970241
 30
0.0
 10
400.9219283207257
 20
357.1584886200998
 30
0.0
 10
400.9831273608244
 20
357.0330498823803
 30
0.0
 10
401.0044872206523
 20
356.9915338488915
 30
0.0
 10
401.0487933871271
 20
356.9096739315772
 30
0.0
 10
401.0717723834326
 20
356.869259624042
 30
0.0
 10
401.1431424993744
 20
356.7495150120314
 30
0.0
 10
401.244779208822
 20
356.5938455305488
 30
0.0
 10
401.3591906877131
 20
356.4457757444125
 30
0.0
 10
401.4801011146361
 20
356.301400155823
 30
0.0
 10
401.5438043814112
 20
356.2310591901761
 30
0.0
 10
401.6444848685038
 20
356.1283037396005
 30
0.0
 10
401.6789011752463
 20
356.094511951564
 30
0.0
 10
401.7495142609134
 20
356.0278553016855
 30
0.0
 10
401.7857472792508
 20
355.9949634901544
 30
0.0
 10
401.8964050181793
 20
355.8984086934778
 30
0.0
 10
401.9730183983106
 20
355.8366260345746
 30
0.0
 10
402.1322743270963
 20
355.718260795586
 30
0.0
 10
402.2149141258589
 20
355.6616766500618
 30
0.0
 10
402.386841808354
 20
355.5539263135186
 30
0.0
 10
402.4761242053814
 20
355.5027566750693
 30
0.0
 10
402.5692365784128
 20
355.4545371787602
 30
0.0
  0
SPLINE
  5
155
330
1F
100
AcDbEntity
  8
1
100
AcDbSpline
210
0.0
220
0.0
230
1.0
 70
     8
 71
     3
 72
    18
 73
    14
 74
     0
 42
0.000000001
 43
0.0000000001
 40
0.0
 40
0.0
 40
0.0
 40
0.0
 40
0.2499999999997953
 40
0.2499999999997953
 40
0.3749999999997805
 40
0.3749999999997805
 40
0.4999999999997659
 40
0.4999999999997659
 40
0.6249999999997513
 40
0.6249999999997513
 40
0.7499999999997364
 40
0.7499999999997364
 40
1.0
 40
1.0
 40
1.0
 40
1.0
 10
407.6717467950922
 20
374.4538977267476
 30
0.0
 10
407.6676841639496
 20
374.4437701192533
 30
0.0
 10
407.661971605472
 20
374.4343797550259
 30
0.0
 10
407.6516450553453
 20
374.422107846133
 30
0.0
 10
407.6478959914316
 20
374.4182888361029
 30
0.0
 10
407.6397823982011
 20
374.4111961054211
 30
0.0
 10
407.6354375072027
 20
374.4079497840672
 30
0.0
 10
407.6264419723087
 20
374.4022102202809
 30
0.0
 10
407.6217579835611
 20
374.3996867836476
 30
0.0
 10
407.6120244717517
 20
374.3953206396873
 30
0.0
 10
407.606931935473
 20
374.3934683879711
 30
0.0
 10
407.5914979613056
 20
374.3890869741538
 30
0.0
 10
407.5809744780291
 20
374.3876631307936
 30
0.0
 10
407.5702159631154
 20
374.3877461320486
 30
0.0
  0
SPLINE
  5
156
330
1F
100
AcDbEntity
  8
1
100
AcDbSpline
210
0.0
220
0.0
230
1.0
 70
     8
 71
     3
 72
    10
 73
     6
 74
     0
 42
0.000000001
 43
0.0000000001
 40
0.0
 40
0.0
 40
0.0
 40
0.0
 40
0.5
 40
0.5
 40
1.0
 40
1.0
 40
1.0
 40
1.0
 10
407.5014027778074
 20
374.3646970338201
 30
0.0
 10
407.5112643990047
 20
374.3723626834015
 30
0.0
 10
407.5221624568698
 20
374.3781214350985
 30
0.0
 10
407.5457198281206
 20
374.3859500712811
 30
0.0
 10
407.5578128498013
 20
374.3878418212752
 30
0.0
 10
407.5702159631154
 20
374.3877461320486
 30
0.0
  0
SPLINE
  5
157
330
1F
100
AcDbEntity
  8
1
100
AcDbSpline
210
0.0
220
0.0
230
1.0
 70
     8
 71
     3
 72
    27
 73
    23
 74
     0
 42
0.000000001
 43
0.0000000001
 40
0.0
 40
0.0
 40
0.0
 40
0.0
 40
0.1250000000000143
 40
0.1250000000000143
 40
0.1875000000000193
 40
0.1875000000000193
 40
0.2500000000000244
 40
0.2500000000000244
 40
0.3750000000000145
 40
0.3750000000000145
 40
0.4375000000000095
 40
0.4375000000000095
 40
0.5000000000000046
 40
0.5000000000000046
 40
0.6249999999999947
 40
0.6249999999999947
 40
0.6874999999999928
 40
0.6874999999999928
 40
0.7499999999999907
 40
0.7499999999999907
 40
0.8749999999999953
 40
1.0
 40
1.0
 40
1.0
 40
1.0
 10
407.4630846934233
 20
375.2710182676932
 30
0.0
 10
407.4923308790526
 20
375.2468174653888
 30
0.0
 10
407.5194160138051
 20
375.2205832344928
 30
0.0
 10
407.5568379988925
 20
375.1782149180944
 30
0.0
 10
407.5687753629381
 20
375.1635871128793
 30
0.0
 10
407.5915537438946
 20
375.1332996331569
 30
0.0
 10
407.6023382529335
 20
375.117706702778
 30
0.0
 10
407.6325871428696
 20
375.0700721036322
 30
0.0
 10
407.6500988216135
 20
375.036997281169
 30
0.0
 10
407.6724117243788
 20
374.9854198908654
 30
0.0
 10
407.6791873506492
 20
374.9678984635593
 30
0.0
 10
407.6913827205325
 20
374.9321817761853
 30
0.0
 10
407.6968066151815
 20
374.9139431566535
 30
0.0
 10
407.7107432400516
 20
374.8591746372742
 30
0.0
 10
407.7170516856511
 20
374.8222961386431
 30
0.0
 10
407.7221428712638
 20
374.7664421530698
 30
0.0
 10
407.7231080260252
 20
374.7477343847867
 30
0.0
 10
407.7235516400646
 20
374.7101366682945
 30
0.0
 10
407.7230228676889
 20
374.69116288738
 30
0.0
 10
407.7191861952609
 20
374.6346474069236
 30
0.0
 10
407.7081779098549
 20
374.5605893558257
 30
0.0
 10
407.6858399082357
 20
374.489030012519
 30
0.0
 10
407.6717467950922
 20
374.4538977267476
 30
0.0
  0
SPLINE
  5
158
330
1F
100
AcDbEntity
  8
1
100
AcDbSpline
210
0.0
220
0.0
230
1.0
 70
     8
 71
     3
 72
    14
 73
    10
 74
     0
 42
0.000000001
 43
0.0000000001
 40
0.0
 40
0.0
 40
0.0
 40
0.0
 40
0.500000000000135
 40
0.500000000000135
 40
0.6250000000000964
 40
0.6250000000000964
 40
0.7500000000000579
 40
0.7500000000000579
 40
1.0
 40
1.0
 40
1.0
 40
1.0
 10
407.3277071789157
 20
373.4975807941784
 30
0.0
 10
407.3464169991218
 20
373.4871806181429
 30
0.0
 10
407.3618188975611
 20
373.4715771097025
 30
0.0
 10
407.3740778044187
 20
373.4480749591768
 30
0.0
 10
407.3761561080976
 20
373.443228865404
 30
0.0
 10
407.3795606919777
 20
373.4332440981317
 30
0.0
 10
407.3808923386994
 20
373.4280741806904
 30
0.0
 10
407.3836352019318
 20
373.4123060668537
 30
0.0
 10
407.3837994715106
 20
373.4017221278859
 30
0.0
 10
407.3821978355061
 20
373.3910642780929
 30
0.0
  0
SPLINE
  5
159
330
1F
100
AcDbEntity
  8
1
100
AcDbSpline
210
0.0
220
0.0
230
1.0
 70
     8
 71
     3
 72
    10
 73
     6
 74
     0
 42
0.000000001
 43
0.0000000001
 40
0.0
 40
0.0
 40
0.0
 40
0.0
 40
0.5
 40
0.5
 40
1.0
 40
1.0
 40
1.0
 40
1.0
 10
407.3277071789158
 20
373.4975807941784
 30
0.0
 10
407.3169125244014
 20
373.5035811889421
 30
0.0
 10
407.3073807910067
 20
373.5111428234548
 30
0.0
 10
407.2909168058409
 20
373.5294428418178
 30
0.0
 10
407.2844190730269
 20
373.539692084126
 30
0.0
 10
407.2797561367254
 20
373.5511093619438
 30
0.0
  0
SPLINE
  5
15A
330
1F
100
AcDbEntity
  8
1
100
AcDbSpline
210
0.0
220
0.0
230
1.0
 70
     8
 71
     3
 72
     8
 73
     4
 74
     0
 42
0.000000001
 43
0.0000000001
 40
0.0
 40
0.0
 40
0.0
 40
0.0
 40
1.0
 40
1.0
 40
1.0
 40
1.0
 10
407.2889253020504
 20
375.2684118502934
 30
0.0
 10
407.2827020931182
 20
375.2684064284011
 30
0.0
 10
407.2764675266228
 20
375.2689323527169
 30
0.0
 10
407.2702209446436
 20
375.270004816406
 30
0.0
  0
SPLINE
  5
15B
330
1F
100
AcDbEntity
  8
1
100
AcDbSpline
210
0.0
220
0.0
230
1.0
 70
     8
 71
     3
 72
    12
 73
     8
 74
     0
 42
0.000000001
 43
0.0000000001
 40
0.0
 40
0.0
 40
0.0
 40
0.0
 40
0.5000000000000011
 40
0.5000000000000011
 40
0.7500000000000006
 40
0.7500000000000006
 40
1.0
 40
1.0
 40
1.0
 40
1.0
 10
422.1735327922616
 20
367.15343593785
 30
0.0
 10
422.1746915301173
 20
367.1362844129575
 30
0.0
 10
422.1750763740308
 20
367.1195139052739
 30
0.0
 10
422.1745409926886
 20
367.0949081186813
 30
0.0
 10
422.1741709116773
 20
367.0867557039529
 30
0.0
 10
422.1730600553538
 20
367.0709342353303
 30
0.0
 10
422.1723214520168
 20
367.0632516664241
 30
0.0
 10
422.1714000441433
 20
367.0557980880434
 30
0.0
  0
SPLINE
  5
15C
330
1F
100
AcDbEntity
  8
1
100
AcDbSpline
210
0.0
220
0.0
230
1.0
 70
     8
 71
     3
 72
    10
 73
     6
 74
     0
 42
0.000000001
 43
0.0000000001
 40
0.0
 40
0.0
 40
0.0
 40
0.0
 40
0.5
 40
0.5
 40
1.0
 40
1.0
 40
1.0
 40
1.0
 10
421.8157762974962
 20
369.6870745754201
 30
0.0
 10
421.8300415004796
 20
369.6269084878559
 30
0.0
 10
421.843572131997
 20
369.5666596226382
 30
0.0
 10
421.8693205478689
 20
369.445998218708
 30
0.0
 10
421.881537143173
 20
369.3855856667925
 30
0.0
 10
421.8931398710781
 20
369.3250918048268
 30
0.0
  0
SPLINE
  5
15D
330
1F
100
AcDbEntity
  8
1
100
AcDbSpline
210
0.0
220
0.0
230
1.0
 70
     8
 71
     3
 72
    32
 73
    28
 74
     0
 42
0.000000001
 43
0.0000000001
 40
0.0
 40
0.0
 40
0.0
 40
0.0
 40
0.0493327759562512
 40
0.0493327759562512
 40
0.0739991639343766
 40
0.0739991639343766
 40
0.0986655519125021
 40
0.0986655519125021
 40
0.1973311038249994
 40
0.1973311038249994
 40
0.2959966557374967
 40
0.2959966557374967
 40
0.3946622076499939
 40
0.3946622076499939
 40
0.4439949836062424
 40
0.4439949836062424
 40
0.4933277595624908
 40
0.4933277595624908
 40
0.5919933114749886
 40
0.5919933114749886
 40
0.6906588633874864
 40
0.6906588633874864
 40
0.7893244152999842
 40
0.7893244152999842
 40
0.9866555191249789
 40
0.9866555191249789
 40
1.0
 40
1.0
 40
1.0
 40
1.0
 10
392.107239911488
 20
379.2109354703139
 30
0.0
 10
392.1231805989269
 20
379.1399962112078
 30
0.0
 10
392.139353047313
 20
379.0702309524906
 30
0.0
 10
392.1639338373408
 20
378.9672145340385
 30
0.0
 10
392.1721811599646
 20
378.9331478405915
 30
0.0
 10
392.1887794399466
 20
378.8655393030975
 30
0.0
 10
392.197132017081
 20
378.831992074024
 30
0.0
 10
392.2389855625963
 20
378.6661447444886
 30
0.0
 10
392.2728843326475
 20
378.5389581654699
 30
0.0
 10
392.3413701756317
 20
378.2936650733465
 30
0.0
 10
392.3759578438812
 20
378.1755664293318
 30
0.0
 10
392.4457186813073
 20
377.947085767386
 30
0.0
 10
392.480892193818
 20
377.8367082887247
 30
0.0
 10
392.5340334718606
 20
377.676158088989
 30
0.0
 10
392.5518359203536
 20
377.6234083428172
 30
0.0
 10
392.5873740734265
 20
377.5200137791761
 30
0.0
 10
392.6051229794111
 20
377.4693259982158
 30
0.0
 10
392.6583143563494
 20
377.3200376453991
 30
0.0
 10
392.693701671078
 20
377.224202960163
 30
0.0
 10
392.7643512215957
 20
377.0388317875111
 30
0.0
 10
392.7996133916849
 20
376.9492985390106
 30
0.0
 10
392.8700294439527
 20
376.7757095486873
 30
0.0
 10
392.9051832848784
 20
376.6916558398277
 30
0.0
 10
393.0105021943461
 20
376.4467442809277
 30
0.0
 10
393.0805255307139
 20
376.2930926250334
 30
0.0
 10
393.1551234498597
 20
376.1373143529123
 30
0.0
 10
393.1598478914265
 20
376.1274827679455
 30
0.0
 10
393.1645716488898
 20
376.1176863729866
 30
0.0
  0
SPLINE
  5
15E
330
1F
100
AcDbEntity
  8
1
100
AcDbSpline
210
0.0
220
0.0
230
1.0
 70
     8
 71
     3
 72
    41
 73
    37
 74
     0
 42
0.000000001
 43
0.0000000001
 40
0.0
 40
0.0
 40
0.0
 40
0.0
 40
0.0482979602948585
 40
0.0482979602948585
 40
0.2386383682358813
 40
0.2386383682358813
 40
0.3338085722063924
 40
0.3338085722063924
 40
0.3813936741916476
 40
0.3813936741916476
 40
0.4289787761769032
 40
0.4289787761769032
 40
0.5241489801474171
 40
0.5241489801474171
 40
0.5717340821326732
 40
0.5717340821326732
 40
0.6193191841179297
 40
0.6193191841179297
 40
0.7144893880884459
 40
0.7144893880884459
 40
0.762074490073702
 40
0.762074490073702
 40
0.7858670410663304
 40
0.7858670410663304
 40
0.8096595920589585
 40
0.8334521430515868
 40
0.8334521430515868
 40
0.8572446940442148
 40
0.8572446940442148
 40
0.9048297960294732
 40
0.9048297960294732
 40
0.9286223470221043
 40
0.9286223470221043
 40
0.952414898014735
 40
0.952414898014735
 40
1.0
 40
1.0
 40
1.0
 40
1.0
 10
392.1868590435618
 20
380.1394924706548
 30
0.0
 10
392.1831268891687
 20
380.1317969979376
 30
0.0
 10
392.1794378532134
 20
380.1239238275568
 30
0.0
 10
392.1614319662078
 20
380.0840965171666
 30
0.0
 10
392.1477605851777
 20
380.0494480690393
 30
0.0
 10
392.1286101788644
 20
379.9914502609687
 30
0.0
 10
392.1224548093292
 20
379.9711036758223
 30
0.0
 10
392.1136374818258
 20
379.9386842538631
 30
0.0
 10
392.1107679724085
 20
379.9275596390075
 30
0.0
 10
392.1051856602507
 20
379.9045849390544
 30
0.0
 10
392.1024718145778
 20
379.8927275069664
 30
0.0
 10
392.0946490872386
 20
379.8561442314435
 30
0.0
 10
392.0898373620321
 20
379.8303578818551
 30
0.0
 10
392.0834140383919
 20
379.7888735838483
 30
0.0
 10
392.0814027488597
 20
379.7745452848427
 30
0.0
 10
392.0777137233934
 20
379.744906858813
 30
0.0
 10
392.0760389056411
 20
379.7296279403444
 30
0.0
 10
392.0716095473853
 20
379.6821676902449
 30
0.0
 10
392.0694302584917
 20
379.6484183592732
 30
0.0
 10
392.0679124878418
 20
379.5929630404382
 30
0.0
 10
392.0677018962962
 20
379.5736629991682
 30
0.0
 10
392.0679698517304
 20
379.5430947924174
 30
0.0
 10
392.0681585211838
 20
379.5326240584432
 30
0.0
 10
392.0687516002491
 20
379.5114240717324
 30
0.0
 10
392.0695605219349
 20
379.4898852346145
 30
0.0
 10
392.0708449816414
 20
379.4675986578634
 30
0.0
 10
392.0723942682312
 20
379.4448951221976
 30
0.0
 10
392.0733057353923
 20
379.4332861923637
 30
0.0
 10
392.0764569495052
 20
379.3980924265621
 30
0.0
 10
392.0790771322759
 20
379.3744972759494
 30
0.0
 10
392.083832350597
 20
379.3388935162377
 30
0.0
 10
392.0855550875834
 20
379.3269903835525
 30
0.0
 10
392.0892858958814
 20
379.3031111282689
 30
0.0
 10
392.0912987264117
 20
379.2911195087004
 30
0.0
 10
392.097616937043
 20
379.2558898499176
 30
0.0
 10
392.1022440125678
 20
379.2331025413289
 30
0.0
 10
392.1072399114879
 20
379.2109354703137
 30
0.0
  0
SPLINE
  5
15F
330
1F
100
AcDbEntity
  8
1
100
AcDbSpline
210
0.0
220
0.0
230
1.0
 70
     8
 71
     3
 72
     8
 73
     4
 74
     0
 42
0.000000001
 43
0.0000000001
 40
0.0
 40
0.0
 40
0.0
 40
0.0
 40
1.0
 40
1.0
 40
1.0
 40
1.0
 10
416.8331161510058
 20
356.7576340039208
 30
0.0
 10
416.8045599761543
 20
356.6658750048318
 30
0.0
 10
416.7785220636049
 20
356.5736041939558
 30
0.0
 10
416.7547027288448
 20
356.4813149172455
 30
0.0
  0
SPLINE
  5
160
330
1F
100
AcDbEntity
  8
1
100
AcDbSpline
210
0.0
220
0.0
230
1.0
 70
     8
 71
     3
 72
    10
 73
     6
 74
     0
 42
0.000000001
 43
0.0000000001
 40
0.0
 40
0.0
 40
0.0
 40
0.0
 40
0.5
 40
0.5
 40
1.0
 40
1.0
 40
1.0
 40
1.0
 10
418.2094323600799
 20
361.2766321123246
 30
0.0
 10
418.2052761880793
 20
361.2898634793026
 30
0.0
 10
418.2003834926163
 20
361.3027407777344
 30
0.0
 10
418.1891360236195
 20
361.3277899752119
 30
0.0
 10
418.1827306390135
 20
361.3400190871014
 30
0.0
 10
418.1757858431196
 20
361.3514304374142
 30
0.0
  0
SPLINE
  5
161
330
1F
100
AcDbEntity
  8
1
100
AcDbSpline
210
0.0
220
0.0
230
1.0
 70
     8
 71
     3
 72
    10
 73
     6
 74
     0
 42
0.000000001
 43
0.0000000001
 40
0.0
 40
0.0
 40
0.0
 40
0.0
 40
0.5
 40
0.5
 40
1.0
 40
1.0
 40
1.0
 40
1.0
 10
416.3884557186007
 20
356.6358994640207
 30
0.0
 10
416.4149638878396
 20
356.6674989736218
 30
0.0
 10
416.4383482751396
 20
356.701789409607
 30
0.0
 10
416.4779537254727
 20
356.7744021598692
 30
0.0
 10
416.4941736484839
 20
356.8127225598597
 30
0.0
 10
416.5064897064737
 20
356.8523035899448
 30
0.0
  0
SPLINE
  5
162
330
1F
100
AcDbEntity
  8
1
100
AcDbSpline
210
0.0
220
0.0
230
1.0
 70
     8
 71
     3
 72
    10
 73
     6
 74
     0
 42
0.000000001
 43
0.0000000001
 40
0.0
 40
0.0
 40
0.0
 40
0.0
 40
0.5
 40
0.5
 40
1.0
 40
1.0
 40
1.0
 40
1.0
 10
416.7107117595439
 20
356.3986263455484
 30
0.0
 10
416.7209739737621
 20
356.4107234801187
 30
0.0
 10
416.7298929573886
 20
356.4236230949421
 30
0.0
 10
416.7447677851383
 20
356.4511875585797
 30
0.0
 10
416.7507448127349
 20
356.4659797612169
 30
0.0
 10
416.7547027288442
 20
356.4813149172429
 30
0.0
  0
SPLINE
  5
163
330
1F
100
AcDbEntity
  8
1
100
AcDbSpline
210
0.0
220
0.0
230
1.0
 70
     8
 71
     3
 72
     8
 73
     4
 74
     0
 42
0.000000001
 43
0.0000000001
 40
0.0
 40
0.0
 40
0.0
 40
0.0
 40
1.0
 40
1.0
 40
1.0
 40
1.0
 10
416.7107117595513
 20
356.398626345551
 30
0.0
 10
416.7088373243995
 20
356.3964167547363
 30
0.0
 10
416.7069632658918
 20
356.3942073353116
 30
0.0
 10
416.7050895843185
 20
356.3919980871863
 30
0.0
  0
SPLINE
  5
164
330
1F
100
AcDbEntity
  8
1
100
AcDbSpline
210
0.0
220
0.0
230
1.0
 70
     8
 71
     3
 72
    31
 73
    27
 74
     0
 42
0.000000001
 43
0.0000000001
 40
0.0
 40
0.0
 40
0.0
 40
0.0
 40
0.1250000000000104
 40
0.1250000000000104
 40
0.2500000000000207
 40
0.2500000000000207
 40
0.312500000000026
 40
0.312500000000026
 40
0.3437500000000288
 40
0.3593750000000301
 40
0.3593750000000301
 40
0.3750000000000315
 40
0.3750000000000315
 40
0.5000000000000293
 40
0.5000000000000293
 40
0.6250000000000272
 40
0.6250000000000272
 40
0.6875000000000262
 40
0.6875000000000262
 40
0.7187500000000241
 40
0.7343750000000231
 40
0.7343750000000231
 40
0.7500000000000219
 40
0.7500000000000219
 40
0.875000000000011
 40
1.0
 40
1.0
 40
1.0
 40
1.0
 10
416.7050895843185
 20
356.3919980871863
 30
0.0
 10
416.3456776179373
 20
355.968215604122
 30
0.0
 10
415.965918284968
 20
355.5690077747787
 30
0.0
 10
415.1671240785607
 20
354.8180274179332
 30
0.0
 10
414.7480850825219
 20
354.4662598694582
 30
0.0
 10
414.0899799646563
 20
353.9742937069011
 30
0.0
 10
413.8656756733197
 20
353.8162663794858
 30
0.0
 10
413.5216978352403
 20
353.5883094206736
 30
0.0
 10
413.3478274181555
 20
353.4766033355801
 30
0.0
 10
413.1711018912153
 20
353.3683455327678
 30
0.0
 10
413.0526459633063
 20
353.2969453129995
 30
0.0
 10
412.9930900996103
 20
353.2616271725135
 30
0.0
 10
412.4559363652881
 20
352.9482592320318
 30
0.0
 10
411.9672851154681
 20
352.6997252549207
 30
0.0
 10
410.9683916813542
 20
352.2606166760737
 30
0.0
 10
410.4581472839469
 20
352.0700480151611
 30
0.0
 10
409.6765320723938
 20
351.8278133438856
 30
0.0
 10
409.4132792536616
 20
351.7543551183316
 30
0.0
 10
409.014262986518
 20
351.6552733871743
 30
0.0
 10
408.8137199612228
 20
351.6085106198387
 30
0.0
 10
408.6116063688248
 20
351.5659639362761
 30
0.0
 10
408.4765124983133
 20
351.5385429936185
 30
0.0
 10
408.4088044637264
 20
351.5253080472322
 30
0.0
 10
407.7995105191864
 20
351.410765412031
 30
0.0
 10
406.7116481275631
 20
351.2707537589967
 30
0.0
 10
405.6146025421907
 20
351.2557609328579
 30
0.0
 10
405.0637351138175
 20
351.280184077517
 30
0.0
  0
SPLINE
  5
165
330
1F
100
AcDbEntity
  8
1
100
AcDbSpline
210
0.0
220
0.0
230
1.0
 70
    12
 71
     2
 72
     6
 73
     3
 74
     0
 42
0.000000001
 43
0.0000000001
 40
0.0
 40
0.0
 40
0.0
 40
1.0
 40
1.0
 40
1.0
 10
405.0637351138175
 20
351.280184077517
 30
0.0
 41
0.5000000133292604
 10
405.0592931197828
 20
351.2803810168482
 30
0.0
 41
0.4999999866707396
 10
405.0548511068574
 20
351.2805808505202
 30
0.0
 41
0.5000000133292604
  0
SPLINE
  5
166
330
1F
100
AcDbEntity
  8
1
100
AcDbSpline
210
0.0
220
0.0
230
1.0
 70
     8
 71
     3
 72
    12
 73
     8
 74
     0
 42
0.000000001
 43
0.0000000001
 40
0.0
 40
0.0
 40
0.0
 40
0.0
 40
0.4154548646821417
 40
0.4154548646821417
 40
0.8309097293642832
 40
0.8309097293642832
 40
1.0
 40
1.0
 40
1.0
 40
1.0
 10
397.0229244909015
 20
370.8084023252183
 30
0.0
 10
397.0662997823205
 20
370.7850699867413
 30
0.0
 10
397.1054012684302
 20
370.7663570923762
 30
0.0
 10
397.1770112658557
 20
370.7358907493347
 30
0.0
 10
397.2095045814738
 20
370.7241549786597
 30
0.0
 10
397.2514371696553
 20
370.7115432604834
 30
0.0
 10
397.2631200841769
 20
370.7083556690049
 30
0.0
 10
397.2743847835304
 20
370.7055951916378
 30
0.0
  0
SPLINE
  5
167
330
1F
100
AcDbEntity
  8
1
100
AcDbSpline
210
0.0
220
0.0
230
1.0
 70
     8
 71
     3
 72
    36
 73
    32
 74
     0
 42
0.000000001
 43
0.0000000001
 40
0.0
 40
0.0
 40
0.0
 40
0.0
 40
0.0156250000000008
 40
0.0156250000000008
 40
0.0312500000000017
 40
0.0312500000000017
 40
0.0625000000000026
 40
0.0625000000000026
 40
0.1250000000000044
 40
0.1250000000000044
 40
0.1562500000000053
 40
0.1562500000000053
 40
0.1875000000000061
 40
0.1875000000000061
 40
0.2500000000000078
 40
0.2500000000000078
 40
0.2812500000000063
 40
0.2812500000000063
 40
0.3125000000000049
 40
0.3125000000000049
 40
0.3750000000000064
 40
0.3750000000000064
 40
0.5000000000000052
 40
0.5000000000000052
 40
0.6250000000000039
 40
0.6250000000000039
 40
0.7500000000000026
 40
0.7500000000000026
 40
0.8750000000000014
 40
0.8750000000000014
 40
1.0
 40
1.0
 40
1.0
 40
1.0
 10
393.2567723138382
 20
375.5799031665205
 30
0.0
 10
393.2584392261793
 20
375.5686270189654
 30
0.0
 10
393.2601601949863
 20
375.5573212908312
 30
0.0
 10
393.2637119171848
 20
375.5346497586482
 30
0.0
 10
393.2655432445571
 20
375.5232827139706
 30
0.0
 10
393.2711387817512
 20
375.4894727257951
 30
0.0
 10
393.2750243399561
 20
375.4671916359791
 30
0.0
 10
393.2871138957487
 20
375.4010704920399
 30
0.0
 10
393.2957500526941
 20
375.3579513592945
 30
0.0
 10
393.3094515709698
 20
375.294519265574
 30
0.0
 10
393.3141138093123
 20
375.2737237849552
 30
0.0
 10
393.3235277175992
 20
375.2330852884253
 30
0.0
 10
393.3282921204845
 20
375.2131833356827
 30
0.0
 10
393.3427359203684
 20
375.1545713403178
 30
0.0
 10
393.3525649854442
 20
375.1169484549867
 30
0.0
 10
393.3675430170262
 20
375.062217005802
 30
0.0
 10
393.3725750242528
 20
375.0442588744537
 30
0.0
 10
393.3827093475981
 20
375.0088533206933
 30
0.0
 10
393.3878193413468
 20
374.9913813542296
 30
0.0
 10
393.4031217488766
 20
374.9400582621321
 30
0.0
 10
393.4133229396035
 20
374.9071610145807
 30
0.0
 10
393.443925554596
 20
374.8115147357307
 30
0.0
 10
393.4643260364636
 20
374.7517641123784
 30
0.0
 10
393.5051253679208
 20
374.6374562480136
 30
0.0
 10
393.5255242067484
 20
374.5829332494762
 30
0.0
 10
393.5663207220187
 20
374.4775855861024
 30
0.0
 10
393.586718394286
 20
374.4267742065949
 30
0.0
 10
393.6275128699593
 20
374.3279158844139
 30
0.0
 10
393.6478280132151
 20
374.2800718834965
 30
0.0
 10
393.6882837129605
 20
374.1868910395582
 30
0.0
 10
393.7084339276818
 20
374.1415348908999
 30
0.0
 10
393.7285236100692
 20
374.0971411084265
 30
0.0
  0
SPLINE
  5
168
330
1F
100
AcDbEntity
  8
1
100
AcDbSpline
210
0.0
220
0.0
230
1.0
 70
     8
 71
     3
 72
    12
 73
     8
 74
     0
 42
0.000000001
 43
0.0000000001
 40
0.0
 40
0.0
 40
0.0
 40
0.0
 40
0.2500000000000004
 40
0.2500000000000004
 40
0.5000000000000004
 40
0.5000000000000004
 40
1.0
 40
1.0
 40
1.0
 40
1.0
 10
393.7285236100692
 20
374.0971411084265
 30
0.0
 10
393.7713008892467
 20
374.0026127236562
 30
0.0
 10
393.81727158541
 20
373.9097367865836
 30
0.0
 10
393.9152618837708
 20
373.7267909585763
 30
0.0
 10
393.9672838997943
 20
373.636724899048
 30
0.0
 10
394.1321604565113
 20
373.3703537622933
 30
0.0
 10
394.2537915146998
 20
373.1978298080579
 30
0.0
 10
394.3869911450818
 20
373.0301367435074
 30
0.0
  0
SPLINE
  5
169
330
1F
100
AcDbEntity
  8
1
100
AcDbSpline
210
0.0
220
0.0
230
1.0
 70
     8
 71
     3
 72
    11
 73
     7
 74
     0
 42
0.000000001
 43
0.0000000001
 40
0.0
 40
0.0
 40
0.0
 40
0.0
 40
0.0592480755648148
 40
0.3837444372821029
 40
0.7093979088010296
 40
1.0
 40
1.0
 40
1.0
 40
1.0
 10
404.1861733957983
 20
360.1152325802835
 30
0.0
 10
404.1979461863856
 20
360.1228277228912
 30
0.0
 10
404.2745276079117
 20
360.1714368991145
 30
0.0
 10
404.419950765657
 20
360.2542510819269
 30
0.0
 10
404.6202129385922
 20
360.3476814693059
 30
0.0
 10
404.7552157783567
 20
360.3984074131534
 30
0.0
 10
404.8195713741373
 20
360.4199601888807
 30
0.0
  0
SPLINE
  5
16A
330
1F
100
AcDbEntity
  8
1
100
AcDbSpline
210
0.0
220
0.0
230
1.0
 70
     8
 71
     3
 72
    29
 73
    25
 74
     0
 42
0.000000001
 43
0.0000000001
 40
0.0
 40
0.0
 40
0.0
 40
0.0
 40
0.1250000000000031
 40
0.1250000000000031
 40
0.1874999999999994
 40
0.1874999999999994
 40
0.2499999999999959
 40
0.2499999999999959
 40
0.374999999999986
 40
0.374999999999986
 40
0.4374999999999839
 40
0.4687499999999868
 40
0.4687499999999868
 40
0.4999999999999898
 40
0.4999999999999898
 40
0.6250000000000073
 40
0.6250000000000073
 40
0.6875000000000162
 40
0.6875000000000162
 40
0.750000000000025
 40
0.750000000000025
 40
0.8750000000000124
 40
0.8750000000000124
 40
1.0
 40
1.0
 40
1.0
 40
1.0
 10
407.2797561367254
 20
373.5511093619438
 30
0.0
 10
407.2655525313941
 20
373.5858871280545
 30
0.0
 10
407.2541709543719
 20
373.6214138222384
 30
0.0
 10
407.2413589615138
 20
373.6758696105332
 30
0.0
 10
407.2378016326647
 20
373.6942167450206
 30
0.0
 10
407.2321600140828
 20
373.7313202178822
 30
0.0
 10
407.2300733436902
 20
373.7501098536802
 30
0.0
 10
407.2261545870193
 20
373.8069223598464
 30
0.0
 10
407.226692804169
 20
373.8446158450374
 30
0.0
 10
407.2322008820943
 20
373.9009004776166
 30
0.0
 10
407.2361353040007
 20
373.9289784848156
 30
0.0
 10
407.2418834109995
 20
373.9569592911663
 30
0.0
 10
407.2461268442352
 20
373.9755911897376
 30
0.0
 10
407.2484609527487
 20
373.9849191954237
 30
0.0
 10
407.2610629339151
 20
374.0310830178273
 30
0.0
 10
407.2741291933158
 20
374.0666716612487
 30
0.0
 10
407.2979789783979
 20
374.1181432333722
 30
0.0
 10
407.3066406742085
 20
374.1349803498418
 30
0.0
 10
407.3253884815006
 20
374.1680141566376
 30
0.0
 10
407.3354997655925
 20
374.1842475757358
 30
0.0
 10
407.3678469927825
 20
374.2317317045522
 30
0.0
 10
407.3916519231273
 20
374.2611719640442
 30
0.0
 10
407.4434113837971
 20
374.3159822234195
 30
0.0
 10
407.471367879439
 20
374.3413502633957
 30
0.0
 10
407.5014027778074
 20
374.3646970338201
 30
0.0
  0
SPLINE
  5
16B
330
1F
100
AcDbEntity
  8
1
100
AcDbSpline
210
0.0
220
0.0
230
1.0
 70
     8
 71
     3
 72
    26
 73
    22
 74
     0
 42
0.000000001
 43
0.0000000001
 40
0.0
 40
0.0
 40
0.0
 40
0.0
 40
0.1656383521675866
 40
0.1656383521675866
 40
0.2484575282513783
 40
0.2484575282513783
 40
0.33127670433517
 40
0.33127670433517
 40
0.4969150565027804
 40
0.4969150565027804
 40
0.5797342325865868
 40
0.5797342325865868
 40
0.6625534086703936
 40
0.6625534086703936
 40
0.8281917608379643
 40
0.8281917608379643
 40
0.9110109369217505
 40
0.9110109369217505
 40
0.9938301130055368
 40
0.9938301130055368
 40
1.0
 40
1.0
 40
1.0
 40
1.0
 10
407.3821978355061
 20
373.3910642780929
 30
0.0
 10
407.3766343255933
 20
373.3540427246282
 30
0.0
 10
407.3681984531976
 20
373.3178036610228
 30
0.0
 10
407.3512880177521
 20
373.2646137606077
 30
0.0
 10
407.3449386397037
 20
373.2470794030088
 30
0.0
 10
407.3307846773563
 20
373.2124113996971
 30
0.0
 10
407.3230079196678
 20
373.19535929457
 30
0.0
 10
407.2978503979367
 20
373.1455467451757
 30
0.0
 10
407.2785691015875
 20
373.1139112168804
 30
0.0
 10
407.2459094355103
 20
373.0688044962678
 30
0.0
 10
407.234397170388
 20
373.0541617183927
 30
0.0
 10
407.2100912259386
 20
373.0256809317638
 30
0.0
 10
407.1972624325004
 20
373.0118172737398
 30
0.0
 10
407.1575193342316
 20
372.972175599735
 30
0.0
 10
407.1291625405045
 20
372.9480859712456
 30
0.0
 10
407.0838989027931
 20
372.9153773756026
 30
0.0
 10
407.0683541994412
 20
372.9050480725612
 30
0.0
 10
407.0363367257888
 20
372.8855540900752
 30
0.0
 10
407.0197883220504
 20
372.8763529040817
 30
0.0
 10
407.0017129297747
 20
372.8672213007012
 30
0.0
 10
407.0004583546511
 20
372.8665920909227
 30
0.0
 10
406.9992024291718
 20
372.8659667878804
 30
0.0
  0
SPLINE
  5
16C
330
1F
100
AcDbEntity
  8
1
100
AcDbSpline
210
0.0
220
0.0
230
1.0
 70
     8
 71
     3
 72
    18
 73
    14
 74
     0
 42
0.000000001
 43
0.0000000001
 40
0.0
 40
0.0
 40
0.0
 40
0.0
 40
0.2499999999999781
 40
0.2499999999999781
 40
0.3749999999999671
 40
0.3749999999999671
 40
0.4999999999999562
 40
0.4999999999999562
 40
0.6249999999999451
 40
0.6249999999999451
 40
0.7499999999999343
 40
0.7499999999999343
 40
1.0
 40
1.0
 40
1.0
 40
1.0
 10
406.7014019701522
 20
376.057060073793
 30
0.0
 10
406.7078772422422
 20
376.0486538345694
 30
0.0
 10
406.712852393316
 20
376.0392471016133
 30
0.0
 10
406.7178394264395
 20
376.0245859765669
 30
0.0
 10
406.7191079079836
 20
376.0195802872703
 30
0.0
 10
406.720854219195
 20
376.0093317275672
 30
0.0
 10
406.7213191013857
 20
376.0041187640066
 30
0.0
 10
406.7214449221798
 20
375.9938159571925
 30
0.0
 10
406.7211139295725
 20
375.9886834704467
 30
0.0
 10
406.7196777572075
 20
375.978456490455
 30
0.0
 10
406.7185579166169
 20
375.9733216757774
 30
0.0
 10
406.7141130430585
 20
375.958375748709
 30
0.0
 10
406.7097487305138
 20
375.9489669951157
 30
0.0
 10
406.7039742549701
 20
375.9401181794704
 30
0.0
  0
SPLINE
  5
16D
330
1F
100
AcDbEntity
  8
1
100
AcDbSpline
210
0.0
220
0.0
230
1.0
 70
     8
 71
     3
 72
    29
 73
    25
 74
     0
 42
0.000000001
 43
0.0000000001
 40
0.0
 40
0.0
 40
0.0
 40
0.0
 40
0.1249999999999569
 40
0.1249999999999569
 40
0.1874999999999355
 40
0.1874999999999355
 40
0.2499999999999141
 40
0.2499999999999141
 40
0.3749999999999114
 40
0.3749999999999114
 40
0.4374999999999102
 40
0.4687499999999245
 40
0.4687499999999245
 40
0.499999999999939
 40
0.499999999999939
 40
0.6249999999999699
 40
0.6249999999999699
 40
0.687499999999975
 40
0.687499999999975
 40
0.7499999999999801
 40
0.7499999999999801
 40
0.87499999999999
 40
0.87499999999999
 40
1.0
 40
1.0
 40
1.0
 40
1.0
 10
407.2702209446436
 20
375.270004816406
 30
0.0
 10
407.2325674888855
 20
375.2764694660661
 30
0.0
 10
407.1957646021291
 20
375.2856526817433
 30
0.0
 10
407.1418301522887
 20
375.3035215240461
 30
0.0
 10
407.1240646173798
 20
375.3101632815937
 30
0.0
 10
407.088970126595
 20
375.3248605411341
 30
0.0
 10
407.0716109848937
 20
375.3329314841058
 30
0.0
 10
407.0204112249832
 20
375.3592760269703
 30
0.0
 10
406.9881307693344
 20
375.3793032693042
 30
0.0
 10
406.942473764327
 20
375.4130064476446
 30
0.0
 10
406.9203392401695
 20
375.4307777824108
 30
0.0
 10
406.8992709803733
 20
375.4499608300168
 30
0.0
 10
406.8854673116755
 20
375.4630696513294
 30
0.0
 10
406.8786701427929
 20
375.4698014885695
 30
0.0
 10
406.8456008212406
 20
375.5039632939996
 30
0.0
 10
406.8219231087888
 20
375.5329989342909
 30
0.0
 10
406.7903573827043
 20
375.578990583861
 30
0.0
 10
406.7804969823312
 20
375.5947295934051
 30
0.0
 10
406.7620981024292
 20
375.6270283144654
 30
0.0
 10
406.7535414292337
 20
375.643627600527
 30
0.0
 10
406.7300052728943
 20
375.6944295119633
 30
0.0
 10
406.7174321491771
 20
375.7289698235395
 30
0.0
 10
406.6980105780817
 20
375.7993505758491
 30
0.0
 10
406.6911648880084
 20
375.8351915809242
 30
0.0
 10
406.6871609418568
 20
375.8717114373557
 30
0.0
  0
SPLINE
  5
16E
330
1F
100
AcDbEntity
  8
1
100
AcDbSpline
210
0.0
220
0.0
230
1.0
 70
     8
 71
     3
 72
    10
 73
     6
 74
     0
 42
0.000000001
 43
0.0000000001
 40
0.0
 40
0.0
 40
0.0
 40
0.0
 40
0.5
 40
0.5
 40
1.0
 40
1.0
 40
1.0
 40
1.0
 10
406.6871609418568
 20
375.8717114373557
 30
0.0
 10
406.6858462569567
 20
375.883702633539
 30
0.0
 10
406.6867102534726
 20
375.8955917832105
 30
0.0
 10
406.6925197833324
 20
375.9189773161274
 30
0.0
 10
406.6973171405293
 20
375.9299168065542
 30
0.0
 10
406.7039742549701
 20
375.9401181794704
 30
0.0
  0
SPLINE
  5
16F
330
1F
100
AcDbEntity
  8
1
100
AcDbSpline
210
0.0
220
0.0
230
1.0
 70
     8
 71
     3
 72
    17
 73
    13
 74
     0
 42
0.000000001
 43
0.0000000001
 40
0.0
 40
0.0
 40
0.0
 40
0.0
 40
0.0315943767544888
 40
0.0315943767544888
 40
0.2736957825659236
 40
0.2736957825659236
 40
0.394746485471601
 40
0.394746485471601
 40
0.5157971883772783
 40
0.5157971883772783
 40
0.7578985941886391
 40
1.0
 40
1.0
 40
1.0
 40
1.0
 10
406.3281246436326
 20
376.3030657622427
 30
0.0
 10
406.3328412159997
 20
376.3018422204352
 30
0.0
 10
406.3375377335202
 20
376.3005716204053
 30
0.0
 10
406.3779932393154
 20
376.2891708348157
 30
0.0
 10
406.4125416393627
 20
376.2763818785316
 30
0.0
 10
406.4625501341207
 20
376.2532365415128
 30
0.0
 10
406.4789158808231
 20
376.2448581242662
 30
0.0
 10
406.5110299463844
 20
376.2267545605011
 30
0.0
 10
406.5268455573296
 20
376.2169821380593
 30
0.0
 10
406.5727802795519
 20
376.1859616923518
 30
0.0
 10
406.6298663346808
 20
376.1402575691321
 30
0.0
 10
406.6789390003098
 20
376.0862216434611
 30
0.0
 10
406.7014019701522
 20
376.057060073793
 30
0.0
  0
SPLINE
  5
170
330
1F
100
AcDbEntity
  8
1
100
AcDbSpline
210
0.0
220
0.0
230
1.0
 70
     8
 71
     3
 72
    25
 73
    21
 74
     0
 42
0.000000001
 43
0.0000000001
 40
0.0
 40
0.0
 40
0.0
 40
0.0
 40
0.177714712172522
 40
0.177714712172522
 40
0.2665720682588054
 40
0.2665720682588054
 40
0.3554294243450886
 40
0.3554294243450886
 40
0.5331441365176573
 40
0.5331441365176573
 40
0.6220014926039706
 40
0.6664301706471577
 40
0.6664301706471577
 40
0.7108588486903449
 40
0.7108588486903449
 40
0.8885735608629104
 40
0.8885735608629104
 40
0.9774309169491932
 40
0.9774309169491932
 40
1.0
 40
1.0
 40
1.0
 40
1.0
 10
405.8185318899396
 20
372.6832765275203
 30
0.0
 10
405.8402005538125
 20
372.7115898103746
 30
0.0
 10
405.8639972244995
 20
372.7379334900768
 30
0.0
 10
405.9029505351499
 20
372.7745207485759
 30
0.0
 10
405.9164805499492
 20
372.7862262315268
 30
0.0
 10
405.9446751452841
 20
372.8086326533966
 30
0.0
 10
405.9593666772412
 20
372.8193516545322
 30
0.0
 10
406.0050732734302
 20
372.8498191213673
 30
0.0
 10
406.0370876636073
 20
372.867485199815
 30
0.0
 10
406.0874373182809
 20
372.8900666050023
 30
0.0
 10
406.1131965222373
 20
372.9003733026087
 30
0.0
 10
406.1398563383495
 20
372.9091711528336
 30
0.0
 10
406.1578339417405
 20
372.9146943049082
 30
0.0
 10
406.1669479229553
 20
372.917290482691
 30
0.0
 10
406.2126211331953
 20
372.9292920921083
 30
0.0
 10
406.2496479566417
 20
372.9358449531072
 30
0.0
 10
406.3058790975981
 20
372.9413248274263
 30
0.0
 10
406.3247384237076
 20
372.9424229461627
 30
0.0
 10
406.3485318607436
 20
372.9428838819985
 30
0.0
 10
406.3533614476827
 20
372.9429299392702
 30
0.0
 10
406.3581990293261
 20
372.9429285761491
 30
0.0
  0
SPLINE
  5
171
330
1F
100
AcDbEntity
  8
1
100
AcDbSpline
210
0.0
220
0.0
230
1.0
 70
     8
 71
     3
 72
    10
 73
     6
 74
     0
 42
0.000000001
 43
0.0000000001
 40
0.0
 40
0.0
 40
0.0
 40
0.0
 40
0.5
 40
0.5
 40
1.0
 40
1.0
 40
1.0
 40
1.0
 10
405.7989191510554
 20
372.6179759114022
 30
0.0
 10
405.798265361571
 20
372.6298108507211
 30
0.0
 10
405.7995840742948
 20
372.6413332917321
 30
0.0
 10
405.8062508251028
 20
372.6637142228388
 30
0.0
 10
405.8114180364804
 20
372.67398123611
 30
0.0
 10
405.8185318899394
 20
372.6832765275203
 30
0.0
  0
SPLINE
  5
172
330
1F
100
AcDbEntity
  8
1
100
AcDbSpline
210
0.0
220
0.0
230
1.0
 70
     8
 71
     3
 72
    14
 73
    10
 74
     0
 42
0.000000001
 43
0.0000000001
 40
0.0
 40
0.0
 40
0.0
 40
0.0
 40
0.5000000000000623
 40
0.5000000000000623
 40
0.6250000000000468
 40
0.6250000000000468
 40
0.7500000000000312
 40
0.7500000000000312
 40
1.0
 40
1.0
 40
1.0
 40
1.0
 10
405.7989191510554
 20
372.6179759114022
 30
0.0
 10
405.8000523448619
 20
372.5974627641921
 30
0.0
 10
405.7950859220607
 20
372.5772430512831
 30
0.0
 10
405.7818527115763
 20
372.5559105324713
 30
0.0
 10
405.7788878652013
 20
372.5518869834236
 30
0.0
 10
405.7723184599585
 20
372.5443298293886
 30
0.0
 10
405.7686909177629
 20
372.5407772595572
 30
0.0
 10
405.7569324737364
 20
372.5310416805806
 30
0.0
 10
405.7481600978912
 20
372.5259085673036
 30
0.0
 10
405.7384008072991
 20
372.5222179923822
 30
0.0
  0
SPLINE
  5
173
330
1F
100
AcDbEntity
  8
1
100
AcDbSpline
210
0.0
220
0.0
230
1.0
 70
     8
 71
     3
 72
    12
 73
     8
 74
     0
 42
0.000000001
 43
0.0000000001
 40
0.0
 40
0.0
 40
0.0
 40
0.0
 40
0.1571854018458825
 40
0.1571854018458825
 40
0.5785927009229415
 40
0.5785927009229415
 40
1.0
 40
1.0
 40
1.0
 40
1.0
 10
405.2404274830626
 20
375.8614153879036
 30
0.0
 10
405.2268654868481
 20
375.8614193974994
 30
0.0
 10
405.2133051717503
 20
375.8618324834873
 30
0.0
 10
405.1635956924531
 20
375.8648696956929
 30
0.0
 10
405.1284838778183
 20
375.8699698430671
 30
0.0
 10
405.0601921616206
 20
375.8855403996981
 30
0.0
 10
405.0270132614311
 20
375.896013331259
 30
0.0
 10
404.9947548619069
 20
375.909186385518
 30
0.0
  0
SPLINE
  5
174
330
1F
100
AcDbEntity
  8
1
100
AcDbSpline
210
0.0
220
0.0
230
1.0
 70
     8
 71
     3
 72
     8
 73
     4
 74
     0
 42
0.000000001
 43
0.0000000001
 40
0.0
 40
0.0
 40
0.0
 40
0.0
 40
1.0
 40
1.0
 40
1.0
 40
1.0
 10
404.9947548619069
 20
375.909186385518
 30
0.0
 10
404.9843488668932
 20
375.9134357822321
 30
0.0
 10
404.9751135228756
 20
375.9194255593263
 30
0.0
 10
404.9670480573366
 20
375.9270109574346
 30
0.0
  0
SPLINE
  5
175
330
1F
100
AcDbEntity
  8
1
100
AcDbSpline
210
0.0
220
0.0
230
1.0
 70
     8
 71
     3
 72
     8
 73
     4
 74
     0
 42
0.000000001
 43
0.0000000001
 40
0.0
 40
0.0
 40
0.0
 40
0.0
 40
1.0
 40
1.0
 40
1.0
 40
1.0
 10
405.7384008072991
 20
372.5222179923822
 30
0.0
 10
405.7153638920172
 20
372.5135063487436
 30
0.0
 10
405.6919453922959
 20
372.5060948477001
 30
0.0
 10
405.6681510174859
 20
372.4999754946669
 30
0.0
  0
SPLINE
  5
178
330
1F
100
AcDbEntity
  8
1
100
AcDbSpline
210
0.0
220
0.0
230
1.0
 70
     8
 71
     3
 72
     8
 73
     4
 74
     0
 42
0.000000001
 43
0.0000000001
 40
0.0
 40
0.0
 40
0.0
 40
0.0
 40
1.0
 40
1.0
 40
1.0
 40
1.0
 10
393.8458293077908
 20
352.5189581083073
 30
0.0
 10
393.5348231394753
 20
352.2003288113341
 30
0.0
 10
393.2233948025449
 20
351.8821316176863
 30
0.0
 10
392.9116202407338
 20
351.5642887964789
 30
0.0
  0
SPLINE
  5
179
330
1F
100
AcDbEntity
  8
1
100
AcDbSpline
210
0.0
220
0.0
230
1.0
 70
     8
 71
     3
 72
     8
 73
     4
 74
     0
 42
0.000000001
 43
0.0000000001
 40
0.0
 40
0.0
 40
0.0
 40
0.0
 40
1.0
 40
1.0
 40
1.0
 40
1.0
 10
393.8458293077908
 20
370.9396943601888
 30
0.0
 10
393.5344665469909
 20
371.0792851544748
 30
0.0
 10
393.2230610102341
 20
371.2188888148468
 30
0.0
 10
392.9116202407338
 20
371.3585030724685
 30
0.0
  0
SPLINE
  5
17A
330
1F
100
AcDbEntity
  8
1
100
AcDbSpline
210
0.0
220
0.0
230
1.0
 70
     8
 71
     3
 72
    63
 73
    59
 74
     0
 42
0.000000001
 43
0.0000000001
 40
0.0
 40
0.0
 40
0.0
 40
0.0
 40
0.0506653255981534
 40
0.0506653255981534
 40
0.0819107147290582
 40
0.0819107147290582
 40
0.1131561038599629
 40
0.1444014929908676
 40
0.1444014929908676
 40
0.16002418755632
 40
0.16002418755632
 40
0.1756468821217723
 40
0.1756468821217723
 40
0.2381376603835525
 40
0.2381376603835525
 40
0.2693830495144425
 40
0.2693830495144425
 40
0.3006284386453325
 40
0.3006284386453325
 40
0.3631192169070977
 40
0.3631192169070977
 40
0.3943646060379803
 40
0.3943646060379803
 40
0.4256099951688628
 40
0.4256099951688628
 40
0.4881007734306457
 40
0.4881007734306457
 40
0.5505915516924285
 40
0.5505915516924285
 40
0.5818369408233286
 40
0.5818369408233286
 40
0.5974596353887789
 40
0.5974596353887789
 40
0.6130823299542289
 40
0.6130823299542289
 40
0.6755731082160467
 40
0.6755731082160467
 40
0.7068184973469554
 40
0.7068184973469554
 40
0.7224411919124027
 40
0.7224411919124027
 40
0.7380638864778497
 40
0.7380638864778497
 40
0.8005546647396382
 40
0.8005546647396382
 40
0.8161773593050828
 40
0.8161773593050828
 40
0.831800053870527
 40
0.831800053870527
 40
0.8630454430014065
 40
0.8630454430014065
 40
0.9255362212631732
 40
0.9255362212631732
 40
0.9411589158286171
 40
0.9411589158286171
 40
0.9567816103940607
 40
0.9880269995249511
 40
1.0
 40
1.0
 40
1.0
 40
1.0
 10
386.4957845619339
 20
380.5080750617608
 30
0.0
 10
386.4958264346841
 20
380.5080727095367
 30
0.0
 10
386.4991587362666
 20
380.5079140330442
 30
0.0
 10
386.5098634324917
 20
380.5074125784374
 30
0.0
 10
386.5152511754645
 20
380.5071616590725
 30
0.0
 10
386.5283605900869
 20
380.5065607431605
 30
0.0
 10
386.5437972622115
 20
380.5058610379684
 30
0.0
 10
386.5637503346862
 20
380.504989906651
 30
0.0
 10
386.5804082532622
 20
380.5042818632992
 30
0.0
 10
386.586243596138
 20
380.5040367324537
 30
0.0
 10
386.598485943869
 20
380.5035298579078
 30
0.0
 10
386.6049115266022
 20
380.5032673779165
 30
0.0
 10
386.6381715018034
 20
380.5019304981759
 30
0.0
 10
386.6684489626795
 20
380.5007794598812
 30
0.0
 10
386.7190976642587
 20
380.4990331289014
 30
0.0
 10
386.7368593697017
 20
380.49844761435
 30
0.0
 10
386.7741737531348
 20
380.4972866853355
 30
0.0
 10
386.7935173364898
 20
380.4967180197629
 30
0.0
 10
386.8531465815477
 20
380.4950811322502
 30
0.0
 10
386.8951764565477
 20
380.4940769421782
 30
0.0
 10
386.9616140988054
 20
380.4927839527664
 30
0.0
 10
386.9844154824002
 20
380.4923876009312
 30
0.0
 10
387.0302774466717
 20
380.491692624989
 30
0.0
 10
387.0534287838199
 20
380.4913918829108
 30
0.0
 10
387.1235277021679
 20
380.4906388500116
 30
0.0
 10
387.1711142168232
 20
380.4903356550361
 30
0.0
 10
387.2680535927612
 20
380.4901741467426
 30
0.0
 10
387.3159685848781
 20
380.4903185786509
 30
0.0
 10
387.3869015538457
 20
380.4908483166847
 30
0.0
 10
387.4103962294203
 20
380.4910770829
 30
0.0
 10
387.4454090072526
 20
380.4914953770306
 30
0.0
 10
387.4570416618718
 20
380.4916473314195
 30
0.0
 10
387.4802287927627
 20
380.491975741485
 30
0.0
 10
387.4917771577149
 20
380.4921521951492
 30
0.0
 10
387.5487065612513
 20
380.4930833179845
 30
0.0
 10
387.5921684275728
 20
380.4939912112604
 30
0.0
 10
387.6542663677467
 20
380.4955204323957
 30
0.0
 10
387.6744463590969
 20
380.4960580981472
 30
0.0
 10
387.7039069293922
 20
380.4968964767261
 30
0.0
 10
387.7136172544285
 20
380.4971820343255
 30
0.0
 10
387.7325762253103
 20
380.4977563513123
 30
0.0
 10
387.7418372313003
 20
380.4980454083831
 30
0.0
 10
387.7870642332488
 20
380.4994948895121
 30
0.0
 10
387.8198274051954
 20
380.5006679981569
 30
0.0
 10
387.8564226737516
 20
380.5020676856166
 30
0.0
 10
387.8635218137645
 20
380.5023442737434
 30
0.0
 10
387.8772697937515
 20
380.5028885465024
 30
0.0
 10
387.8839370298093
 20
380.5031569882593
 30
0.0
 10
387.9030922452093
 20
380.5039393633304
 30
0.0
 10
387.9147132736834
 20
380.5044292671625
 30
0.0
 10
387.9462056950346
 20
380.5057846660625
 30
0.0
 10
387.9627406960906
 20
380.5065361527145
 30
0.0
 10
387.97758030138
 20
380.5072208898294
 30
0.0
 10
387.9802598276243
 20
380.5073453571985
 30
0.0
 10
387.9849664105469
 20
380.5075648671576
 30
0.0
 10
387.9910622682473
 20
380.5078508203369
 30
0.0
 10
387.9951626291002
 20
380.5080454589911
 30
0.0
 10
387.995796088705
 20
380.5080754747846
 30
0.0
 10
387.9957877691433
 20
380.5080750735723
 30
0.0
  0
LINE
  5
17B
330
1F
100
AcDbEntity
  8
SK4
100
AcDbLine
 10
217.745788
 20
366.008075
 30
0.0
 11
326.245788
 21
366.008075
 31
0.0
  0
LINE
  5
17C
330
1F
100
AcDbEntity
  8
4
100
AcDbLine
 10
321.245788
 20
366.008075
 30
0.0
 11
425.845829
 21
366.008075
 31
0.0
  0
MTEXT
  5
185
330
1F
100
AcDbEntity
  8
SK6
100
AcDbMText
 10
307.611262
 20
335.324449
 30
0.0
 40
3.5
 41
0.0
 71
     7
 72
     5
  1
\W0.7515;32L2R100E04-SZP32
  7
cesky
 73
     2
 44
0.8433729999999998
  0
MTEXT
  5
2C4
330
1F
100
AcDbEntity
  8
2
100
AcDbMText
 10
403.541487
 20
384.484178
 30
0.0
 40
3.5
 41
0.0
 71
     7
 72
     5
  1
\W0.8594;27,9
  7
cesky
 73
     2
 44
0.8433729999999998
  0
LINE
  5
2C5
330
1F
100
AcDbEntity
  8
2
100
AcDbLine
 10
422.174849
 20
383.508075
 30
0.0
 11
422.174849
 21
385.610012
 31
0.0
  0
LINE
  5
2C6
330
1F
100
AcDbEntity
  8
2
100
AcDbLine
 10
393.587125
 20
381.1481490000001
 30
0.0
 11
393.587125
 21
385.610012
 31
0.0
  0
LINE
  5
2C7
330
1F
100
AcDbEntity
  8
2
100
AcDbLine
 10
422.174849
 20
384.610012
 30
0.0
 11
393.587125
 21
384.610012
 31
0.0
  0
SOLID
  5
2C8
330
1F
100
AcDbEntity
  8
2
100
AcDbTrace
 10
422.174849
 20
384.610012
 30
0.0
 11
418.674851
 21
383.992867
 31
0.0
 12
418.674846
 22
385.227156
 32
0.0
 13
418.674846
 23
385.227156
 33
0.0
  0
SOLID
  5
2C9
330
1F
100
AcDbEntity
  8
2
100
AcDbTrace
 10
393.587125
 20
384.610012
 30
0.0
 11
397.087123
 21
385.227156
 31
0.0
 12
397.087127
 22
383.992867
 32
0.0
 13
397.087127
 23
383.992867
 33
0.0
  0
MTEXT
  5
2CA
330
1F
100
AcDbEntity
  8
2
100
AcDbMText
 10
369.097849
 20
391.67585
 30
0.0
 40
3.5
 41
0.0
 71
     7
 72
     5
  1
\W0.7809;100
  7
cesky
 73
     2
 44
0.8433729999999998
  0
LINE
  5
2CB
330
1F
100
AcDbEntity
  8
2
100
AcDbLine
 10
422.174849
 20
383.508075
 30
0.0
 11
422.174849
 21
392.801684
 31
0.0
  0
LINE
  5
2CC
330
1F
100
AcDbEntity
  8
2
100
AcDbLine
 10
322.174849
 20
366.008075
 30
0.0
 11
322.174849
 21
392.801684
 31
0.0
  0
LINE
  5
2CD
330
1F
100
AcDbEntity
  8
2
100
AcDbLine
 10
422.174849
 20
391.801684
 30
0.0
 11
322.174849
 21
391.801684
 31
0.0
  0
SOLID
  5
2CE
330
1F
100
AcDbEntity
  8
2
100
AcDbTrace
 10
422.174849
 20
391.801684
 30
0.0
 11
418.674851
 21
391.184539
 31
0.0
 12
418.674846
 22
392.418828
 32
0.0
 13
418.674846
 23
392.418828
 33
0.0
  0
SOLID
  5
2CF
330
1F
100
AcDbEntity
  8
2
100
AcDbTrace
 10
322.174849
 20
391.801684
 30
0.0
 11
325.674846
 21
392.418828
 31
0.0
 12
325.674851
 22
391.184539
 32
0.0
 13
325.674851
 23
391.184539
 33
0.0
  0
MTEXT
  5
2D0
330
1F
100
AcDbEntity
  8
2
100
AcDbMText
 10
435.565748
 20
365.566895
 30
0.0
 40
3.5
 41
0.0
 71
     7
 72
     5
  1
\W0.7045;32
  7
cesky
 11
0.0000000000000001
 21
1.0
 31
0.0
 73
     2
 44
0.8433729999999998
  0
MTEXT
  5
2D1
330
1F
100
AcDbEntity
  8
2
100
AcDbMText
 10
435.565748
 20
358.8293950000001
 30
0.0
 40
3.5
 41
0.0
 71
     7
 72
     5
  1
\W3.0115;\H2.63;%%c\H3.50;
  7
cesky
 11
0.0000000000000001
 21
1.0
 31
0.0
 73
     2
 44
0.8433729999999998
  0
LINE
  5
2D2
330
1F
100
AcDbEntity
  8
2
100
AcDbLine
 10
423.674849
 20
382.008075
 30
0.0
 11
436.753164
 21
382.008075
 31
0.0
  0
LINE
  5
2D3
330
1F
100
AcDbEntity
  8
2
100
AcDbLine
 10
435.7531639999999
 20
382.008075
 30
0.0
 11
435.7531639999999
 21
358.671895
 31
0.0
  0
SOLID
  5
2D4
330
1F
100
AcDbEntity
  8
2
100
AcDbTrace
 10
435.7531639999999
 20
382.008075
 30
0.0
 11
436.3703089999999
 21
378.508077
 31
0.0
 12
435.13602
 22
378.508073
 32
0.0
 13
435.13602
 23
378.508073
 33
0.0
  0
MTEXT
  5
2D5
330
1F
100
AcDbEntity
  8
SK2
100
AcDbMText
 10
315.358318
 20
409.0093069999999
 30
0.0
 40
3.5
 41
0.0
 71
     7
 72
     5
  1
\W0.8145;202,4
  7
cesky
 73
     2
 44
0.8433729999999998
  0
LINE
  5
2D6
330
1F
100
AcDbEntity
  8
SK2
100
AcDbLine
 10
422.174849
 20
383.508075
 30
0.0
 11
422.174849
 21
410.1351399999999
 31
0.0
  0
LINE
  5
2D7
330
1F
100
AcDbEntity
  8
SK2
100
AcDbLine
 10
219.745788
 20
377.258075
 30
0.0
 11
219.745788
 21
410.1351399999999
 31
0.0
  0
LINE
  5
2D8
330
1F
100
AcDbEntity
  8
SK2
100
AcDbLine
 10
422.174849
 20
409.1351399999999
 30
0.0
 11
219.745788
 21
409.1351399999999
 31
0.0
  0
SOLID
  5
2D9
330
1F
100
AcDbEntity
  8
SK2
100
AcDbTrace
 10
422.174849
 20
409.1351399999999
 30
0.0
 11
418.674851
 21
408.5179959999999
 31
0.0
 12
418.674846
 22
409.752285
 32
0.0
 13
418.674846
 23
409.752285
 33
0.0
  0
SOLID
  5
2DA
330
1F
100
AcDbEntity
  8
SK2
100
AcDbTrace
 10
219.745788
 20
409.1351399999999
 30
0.0
 11
223.245785
 21
409.752285
 31
0.0
 12
223.24579
 22
408.5179959999999
 32
0.0
 13
223.24579
 23
408.5179959999999
 33
0.0
  0
ELLIPSE
  5
2DD
330
1F
100
AcDbEntity
  8
CUT
100
AcDbEllipse
 10
393.585927
 20
379.549717
 30
0.0
 11
0.0
 21
1.60000000000001
 31
0.0
210
0.0
220
0.0
230
1.0
 40
0.9848079999999999
 41
0.0442747036089415
 42
1.8003454366364
  0
ELLIPSE
  5
2DE
330
1F
100
AcDbEntity
  8
CUT
100
AcDbEllipse
 10
407.1242919999999
 20
382.761998
 30
0.0
 11
0.0
 21
15.71753173807484
 31
0.0
210
0.0
220
0.0
230
1.0
 40
0.9848079999999999
 41
1.800345436636396
 42
3.028787724519246
  0
ELLIPSE
  5
2DF
330
1F
100
AcDbEntity
  8
CUT
100
AcDbEllipse
 10
419.436953
 20
365.555448
 30
0.0
 11
-0.3045078164653744
 21
0.0347924548240849
 31
0.0
210
0.0
220
0.0
230
1.0
 40
0.090381
 41
1.562327812627034
 42
2.1731930508213
  0
ELLIPSE
  5
2E0
330
1F
100
AcDbEntity
  8
CUT
100
AcDbEllipse
 10
420.4518099999999
 20
367.625817
 30
0.0
 11
-0.9530240912880188
 21
-1.974631179527629
 31
0.0
210
0.0
220
0.0
230
1.0
 40
0.87482
 41
0.3524186280573904
 42
1.428263479852752
  0
ELLIPSE
  5
2E1
330
1F
100
AcDbEntity
  8
CUT
100
AcDbEllipse
 10
406.8354229999999
 20
367.558112
 30
0.0
 11
-7.441260300995372
 21
-15.41799598557471
 31
0.0
210
0.0
220
0.0
230
1.0
 40
0.87482
 41
1.908242955043391
 42
1.94029018904394
  0
ELLIPSE
  5
2E2
330
1F
100
AcDbEntity
  8
CUT
100
AcDbEllipse
 10
406.786708
 20
365.975662
 30
0.0
 11
-0.2287447929859623
 21
16.63348562010628
 31
0.0
210
0.0
220
0.0
230
1.0
 40
0.9231469999999999
 41
4.770555483233148
 42
4.902430916739751
  0
ELLIPSE
  5
2E3
330
1F
100
AcDbEntity
  8
CUT
100
AcDbEllipse
 10
406.696081
 20
366.008125
 30
0.0
 11
0.0
 21
15.71753173807485
 31
0.0
210
0.0
220
0.0
230
1.0
 40
0.9848079999999999
 41
4.948647410035441
 42
6.327460010788527
  0
LINE
  5
2E4
330
1F
100
AcDbEntity
  8
CUT
100
AcDbLine
 10
405.3819129999999
 20
367.144363
 30
0.0
 11
419.4312299999999
 21
365.528221
 31
0.0
  0
LINE
  5
2E5
330
1F
100
AcDbEntity
  8
CUT
100
AcDbLine
 10
406.0109879999999
 20
381.710254
 30
0.0
 11
393.516186
 21
381.1481490000001
 31
0.0
  0
LINE
  5
2E6
330
1F
100
AcDbEntity
  8
CUT
100
AcDbLine
 10
419.6069019999999
 20
365.513056
 30
0.0
 11
420.153619
 21
365.48477
 31
0.0
  0
ARC
  5
2E7
330
1F
100
AcDbEntity
  8
CUT
100
AcDbCircle
 10
421.6435106827377
 20
367.1114827764775
 30
0.0
 40
0.4603308383219297
100
AcDbArc
 50
353.0521049001072
 51
358.1737579531373
  0
ARC
  5
2E8
330
1F
100
AcDbEntity
  8
CUT
100
AcDbCircle
 10
421.5455903345652
 20
367.1151420555972
 30
0.0
 40
0.5583183237010201
100
AcDbArc
 50
358.1186661162775
 51
3.932884986548468
  0
LINE
  5
2E9
330
1F
100
AcDbEntity
  8
CUT
100
AcDbLine
 10
421.8222009404461
 20
369.3250918048268
 30
0.0
 11
421.8222009404461
 21
369.3250918048268
 31
0.0
  0
ARC
  5
2EA
330
1F
100
AcDbEntity
  8
CUT
100
AcDbCircle
 10
413.311073268891
 20
367.6953376412389
 30
0.0
 40
8.665759797919653
100
AcDbArc
 50
10.84007011012643
 51
13.28764324820298
  0
ENDSEC
  0
SECTION
  2
OBJECTS
  0
DICTIONARY
  5
C
330
0
100
AcDbDictionary
281
     1
  3
ACAD_CIP_PREVIOUS_PRODUCT_INFO
350
247
  3
ACAD_COLOR
350
241
  3
ACAD_DETAILVIEWSTYLE
350
23D
  3
ACAD_FIELDLIST
350
2B1
  3
ACAD_GROUP
350
D
  3
ACAD_IMAGE_DICT
350
E0
  3
ACAD_IMAGE_VARS
350
246
  3
ACAD_LAYOUT
350
1A
  3
ACAD_MATERIAL
350
43
  3
ACAD_MLEADERSTYLE
350
6B
  3
ACAD_MLINESTYLE
350
17
  3
ACAD_PLOTSETTINGS
350
19
  3
ACAD_PLOTSTYLENAME
350
E
  3
ACAD_SCALELIST
350
47
  3
ACAD_SECTIONVIEWSTYLE
350
23E
  3
ACAD_TABLESTYLE
350
69
  3
ACAD_VISUALSTYLE
350
2A
  3
ACDB_RECOMPOSE_DATA
350
317
  3
AcDbVariableDictionary
350
1FA
  3
AcmDictionary
350
273
  3
AMG
350
248
  3
AMGSNAPSETTINGS
350
2BB
  0
DICTIONARY
  5
2F9
330
10
100
AcDbDictionary
280
     1
281
     1
  3
ADSK_XREC_LAYER_RECONCILED
360
2FA
  0
DICTIONARY
  5
2FB
330
76
100
AcDbDictionary
280
     1
281
     1
  3
ADSK_XREC_LAYER_RECONCILED
360
2FC
  0
DICTIONARY
  5
2FD
330
2EB
100
AcDbDictionary
280
     1
281
     1
  3
ADSK_XREC_LAYER_RECONCILED
360
2FE
  0
DICTIONARY
  5
2FF
330
2EC
100
AcDbDictionary
280
     1
281
     1
  3
ADSK_XREC_LAYER_RECONCILED
360
300
  0
DICTIONARY
  5
301
330
2ED
100
AcDbDictionary
280
     1
281
     1
  3
ADSK_XREC_LAYER_RECONCILED
360
302
  0
DICTIONARY
  5
303
330
2EF
100
AcDbDictionary
280
     1
281
     1
  3
ADSK_XREC_LAYER_RECONCILED
360
304
  0
DICTIONARY
  5
305
330
2F0
100
AcDbDictionary
280
     1
281
     1
  3
ADSK_XREC_LAYER_RECONCILED
360
306
  0
DICTIONARY
  5
307
330
2F2
100
AcDbDictionary
280
     1
281
     1
  3
ADSK_XREC_LAYER_RECONCILED
360
308
  0
DICTIONARY
  5
309
330
2F3
100
AcDbDictionary
280
     1
281
     1
  3
ADSK_XREC_LAYER_RECONCILED
360
30A
  0
DICTIONARY
  5
30B
330
2F4
100
AcDbDictionary
280
     1
281
     1
  3
ADSK_XREC_LAYER_RECONCILED
360
30C
  0
DICTIONARY
  5
30D
330
2F5
100
AcDbDictionary
280
     1
281
     1
  3
ADSK_XREC_LAYER_RECONCILED
360
30E
  0
DICTIONARY
  5
30F
330
2F6
100
AcDbDictionary
280
     1
281
     1
  3
ADSK_XREC_LAYER_RECONCILED
360
310
  0
DICTIONARY
  5
311
330
2F7
100
AcDbDictionary
280
     1
281
     1
  3
ADSK_XREC_LAYER_RECONCILED
360
312
  0
DICTIONARY
  5
2C2
330
1F
100
AcDbDictionary
280
     1
281
     1
  3
ACAD_SORTENTS
360
2C3
  0
XRECORD
  5
247
102
{ACAD_REACTORS
330
C
102
}
330
C
100
AcDbXrecord
280
     1
300
AMECH_PP
300
2019
300
87089AMECH_PP_2019_0F
  0
DICTIONARY
  5
241
102
{ACAD_REACTORS
330
C
102
}
330
C
100
AcDbDictionary
281
     1
  0
DICTIONARY
  5
23D
102
{ACAD_REACTORS
330
C
102
}
330
C
100
AcDbDictionary
281
     1
  3
Metric50
350
243
  0
FIELDLIST
  5
2B1
102
{ACAD_REACTORS
330
C
102
}
330
C
100
AcDbIdSet
 90
        3
330
2AF
330
2B0
330
2B2
100
AcDbFieldList
  0
DICTIONARY
  5
D
102
{ACAD_REACTORS
330
C
102
}
330
C
100
AcDbDictionary
281
     1
  3
NULOVY_BOD
350
2F8
  0
DICTIONARY
  5
E0
102
{ACAD_REACTORS
330
C
102
}
330
C
100
AcDbDictionary
281
     1
  3
32L2R100E04-SZP32_115009717ndi000_00-2D_DormerPramet_jpg
350
E1
  0
RASTERVARIABLES
  5
246
102
{ACAD_REACTORS
330
C
102
}
330
C
100
AcDbRasterVariables
 90
        0
 70
     1
 71
     1
 72
     1
  0
DICTIONARY
  5
1A
102
{ACAD_REACTORS
330
C
102
}
330
C
100
AcDbDictionary
281
     1
  3
Layout1
350
1E
  3
Layout2
350
26
  3
Model
350
22
  0
DICTIONARY
  5
43
102
{ACAD_REACTORS
330
C
102
}
330
C
100
AcDbDictionary
281
     1
  3
ByBlock
350
45
  3
ByLayer
350
44
  3
Global
350
46
  0
DICTIONARY
  5
6B
102
{ACAD_REACTORS
330
C
102
}
330
C
100
AcDbDictionary
281
     1
  3
Standard
350
6C
  0
DICTIONARY
  5
17
102
{ACAD_REACTORS
330
C
102
}
330
C
100
AcDbDictionary
281
     1
  3
Standard
350
18
  0
DICTIONARY
  5
19
102
{ACAD_REACTORS
330
C
102
}
330
C
100
AcDbDictionary
281
     1
  0
ACDBDICTIONARYWDFLT
  5
E
102
{ACAD_REACTORS
330
C
102
}
330
C
100
AcDbDictionary
281
     1
  3
Normal
350
F
100
AcDbDictionaryWithDefault
340
F
  0
DICTIONARY
  5
47
102
{ACAD_REACTORS
330
C
102
}
330
C
100
AcDbDictionary
281
     1
  3
A0
350
48
  3
A1
350
49
  3
A2
350
4A
  3
A3
350
4B
  3
A4
350
4C
  3
A5
350
4D
  3
A6
350
4E
  3
A7
350
4F
  3
A8
350
50
  3
A9
350
51
  3
B0
350
52
  3
B1
350
53
  3
B2
350
54
  3
B3
350
55
  3
B4
350
56
  3
B5
350
57
  3
B6
350
58
  3
B7
350
59
  3
B8
350
5A
  3
B9
350
5B
  3
C0
350
5C
  3
C1
350
5D
  3
C2
350
5E
  3
C3
350
5F
  3
C4
350
60
  3
C5
350
61
  3
C6
350
62
  3
C7
350
63
  3
C8
350
64
  3
C9
350
65
  3
D0
350
66
  3
D1
350
67
  3
D2
350
68
  0
DICTIONARY
  5
23E
102
{ACAD_REACTORS
330
C
102
}
330
C
100
AcDbDictionary
281
     1
  3
Metric50
350
242
  0
DICTIONARY
  5
69
102
{ACAD_REACTORS
330
C
102
}
330
C
100
AcDbDictionary
281
     1
  3
Standard
350
6A
  0
DICTIONARY
  5
2A
102
{ACAD_REACTORS
330
C
102
}
330
C
100
AcDbDictionary
281
     1
  3
2dWireframe
350
2F
  3
Basic
350
32
  3
Brighten
350
36
  3
ColorChange
350
3A
  3
Conceptual
350
34
  3
Dim
350
35
  3
EdgeColorOff
350
3D
  3
Facepattern
350
39
  3
Flat
350
2B
  3
FlatWithEdges
350
2C
  3
Gouraud
350
2D
  3
GouraudWithEdges
350
2E
  3
Hidden
350
31
  3
JitterOff
350
3B
  3
Linepattern
350
38
  3
OverhangOff
350
3C
  3
Realistic
350
33
  3
Shaded
350
42
  3
Shaded with edges
350
41
  3
Shades of Gray
350
3E
  3
Sketchy
350
3F
  3
Thicken
350
37
  3
Wireframe
350
30
  3
X-Ray
350
40
  0
XRECORD
  5
317
102
{ACAD_REACTORS
330
C
102
}
330
C
100
AcDbXrecord
280
     1
 90
        1
330
6A
  0
DICTIONARY
  5
1FA
102
{ACAD_REACTORS
330
C
102
}
330
C
100
AcDbDictionary
281
     1
  3
CANNOSCALE
350
1FB
  3
CMLEADERSTYLE
350
23C
  3
CTABLESTYLE
350
23B
  3
CVIEWDETAILSTYLE
350
313
  3
CVIEWSECTIONSTYLE
350
314
  3
MSLTSCALE
350
1FC
  3
XCLIPFRAME
350
315
  0
DICTIONARY
  5
273
102
{ACAD_REACTORS
330
C
102
}
330
C
100
AcDbDictionary
281
     1
  3
AcmStdDictionary
350
27A
  0
DICTIONARY
  5
248
102
{ACAD_REACTORS
330
C
102
}
330
C
100
AcDbDictionary
281
     1
  0
DICTIONARY
  5
2BB
102
{ACAD_REACTORS
330
C
102
}
330
C
100
AcDbDictionary
281
     1
  0
XRECORD
  5
2FA
102
{ACAD_REACTORS
330
2F9
102
}
330
2F9
100
AcDbXrecord
280
     1
290
     1
  0
XRECORD
  5
2FC
102
{ACAD_REACTORS
330
2FB
102
}
330
2FB
100
AcDbXrecord
280
     1
290
     1
  0
XRECORD
  5
2FE
102
{ACAD_REACTORS
330
2FD
102
}
330
2FD
100
AcDbXrecord
280
     1
290
     1
  0
XRECORD
  5
300
102
{ACAD_REACTORS
330
2FF
102
}
330
2FF
100
AcDbXrecord
280
     1
290
     1
  0
XRECORD
  5
302
102
{ACAD_REACTORS
330
301
102
}
330
301
100
AcDbXrecord
280
     1
290
     1
  0
XRECORD
  5
304
102
{ACAD_REACTORS
330
303
102
}
330
303
100
AcDbXrecord
280
     1
290
     1
  0
XRECORD
  5
306
102
{ACAD_REACTORS
330
305
102
}
330
305
100
AcDbXrecord
280
     1
290
     1
  0
XRECORD
  5
308
102
{ACAD_REACTORS
330
307
102
}
330
307
100
AcDbXrecord
280
     1
290
     1
  0
XRECORD
  5
30A
102
{ACAD_REACTORS
330
309
102
}
330
309
100
AcDbXrecord
280
     1
290
     1
  0
XRECORD
  5
30C
102
{ACAD_REACTORS
330
30B
102
}
330
30B
100
AcDbXrecord
280
     1
290
     1
  0
XRECORD
  5
30E
102
{ACAD_REACTORS
330
30D
102
}
330
30D
100
AcDbXrecord
280
     1
290
     1
  0
XRECORD
  5
310
102
{ACAD_REACTORS
330
30F
102
}
330
30F
100
AcDbXrecord
280
     1
290
     1
  0
XRECORD
  5
312
102
{ACAD_REACTORS
330
311
102
}
330
311
100
AcDbXrecord
280
     1
290
     1
  0
SORTENTSTABLE
  5
2C3
102
{ACAD_REACTORS
330
2C2
102
}
330
2C2
100
AcDbSortentsTable
330
1F
331
2C4
  5
1A0
331
2C5
  5
2C4
331
2C6
  5
2C5
331
2C7
  5
2C6
331
2C8
  5
2C7
331
2C9
  5
2C8
331
2CA
  5
2D0
331
2CB
  5
2D1
331
2CC
  5
2D2
331
2CD
  5
2D3
331
2CE
  5
2D4
331
2CF
  5
2D5
331
2D0
  5
2D6
331
2D1
  5
2D7
331
2D2
  5
2D8
331
2D3
  5
2D9
331
2D4
  5
2DA
331
2D5
  5
2CA
331
2D6
  5
2CB
331
2D7
  5
2CC
331
2D8
  5
2CD
331
2D9
  5
2CE
331
2DA
  5
2CF
331
2E4
  5
2E8
331
2E5
  5
2E9
331
2E6
  5
2EA
331
2E7
  5
2E4
331
2E8
  5
2E5
331
2E9
  5
2E6
331
2EA
  5
2E7
  0
ACDBDETAILVIEWSTYLE
  5
243
102
{ACAD_XDICTIONARY
360
34B
102
}
102
{ACAD_REACTORS
330
23D
330
2A5
102
}
330
23D
100
AcDbModelDocViewStyle
 70
     0
  3
Metric50
290
     0
100
AcDbDetailViewStyle
 70
     0
 71
     0
 90
        3
 71
     1
340
11
 62
   256
 40
5.0
340
0
 62
   256
 40
5.0
300

 40
0.0
280
     1
 71
     2
340
16
 90
       25
 62
   256
 71
     3
340
11
 62
   256
 40
5.0
 90
        0
 40
15.0
 90
        1
300
%<\AcVar ViewDetailId>% (%<\AcVar ViewScale \f "%sn">%)
 71
     4
340
16
 90
       25
 62
   256
340
16
 90
       25
 62
   256
280
     0
  0
GROUP
  5
2F8
102
{ACAD_REACTORS
330
D
102
}
330
D
100
AcDbGroup
300

 70
     0
 71
     1
340
73
  0
IMAGEDEF
  5
E1
102
{ACAD_REACTORS
330
E0
330
E4
102
}
330
E0
100
AcDbRasterImageDef
 90
        0
  1
R:\Katalog\Data\ZP\32L2R100E04-SZP32\32L2R100E04-SZP32_115009717ndi000_00-2D_DormerPramet.jpg
 10
2089.0
 20
531.0
 11
0.0004786979415989
 21
0.0004786979415989
280
     1
281
     0
  0
LAYOUT
  5
1E
102
{ACAD_REACTORS
330
1A
102
}
330
1A
100
AcDbPlotSettings
  1

  2
none_device
  4

  6

 40
0.0
 41
0.0
 42
0.0
 43
0.0
 44
0.0
 45
0.0
 46
0.0
 47
0.0
 48
0.0
 49
0.0
140
0.0
141
0.0
142
1.0
143
1.0
 70
   688
 72
     0
 73
     0
 74
     5
  7

 75
    16
147
1.0
 76
     0
 77
     2
 78
   300
148
0.0
149
0.0
100
AcDbLayout
  1
Layout1
 70
     1
 71
     1
 10
-0.5
 20
-0.5
 11
5.0
 21
5.0
 12
0.0
 22
0.0
 32
0.0
 14
-0.5
 24
-0.5
 34
-0.5
 15
5.0
 25
5.0
 35
5.0
146
0.0
 13
0.0
 23
0.0
 33
0.0
 16
1.0
 26
0.0
 36
0.0
 17
0.0
 27
1.0
 37
0.0
 76
     0
330
1B
  0
LAYOUT
  5
26
102
{ACAD_REACTORS
330
1A
102
}
330
1A
100
AcDbPlotSettings
  1

  2
none_device
  4

  6

 40
0.0
 41
0.0
 42
0.0
 43
0.0
 44
0.0
 45
0.0
 46
0.0
 47
0.0
 48
0.0
 49
0.0
140
0.0
141
0.0
142
1.0
143
1.0
 70
   688
 72
     0
 73
     0
 74
     5
  7

 75
    16
147
1.0
 76
     0
 77
     2
 78
   300
148
0.0
149
0.0
100
AcDbLayout
  1
Layout2
 70
     1
 71
     2
 10
0.0
 20
0.0
 11
0.0
 21
0.0
 12
0.0
 22
0.0
 32
0.0
 14
0.0
 24
0.0
 34
0.0
 15
0.0
 25
0.0
 35
0.0
146
0.0
 13
0.0
 23
0.0
 33
0.0
 16
1.0
 26
0.0
 36
0.0
 17
0.0
 27
1.0
 37
0.0
 76
     0
330
23
  0
LAYOUT
  5
22
102
{ACAD_REACTORS
330
1A
102
}
330
1A
100
AcDbPlotSettings
  1

  2
none_device
  4
Letter_(8.50_x_11.00_Inches)
  6

 40
6.349999999999999
 41
6.349999999999999
 42
6.350005
 43
6.350005
 44
215.9
 45
279.4
 46
0.0
 47
0.0
 48
0.0
 49
0.0
140
0.0
141
0.0
142
1.0
143
1.0
 70
  1712
 72
     0
 73
     0
 74
     0
  7

 75
     0
147
1.0
 76
     0
 77
     2
 78
   300
148
0.0
149
0.0
100
AcDbLayout
  1
Model
 70
     1
 71
     0
 10
-0.5
 20
-0.5
 11
5.0
 21
5.0
 12
0.0
 22
0.0
 32
0.0
 14
-0.5
 24
-0.5
 34
-0.5
 15
5.0
 25
5.0
 35
5.0
146
0.0
 13
0.0
 23
0.0
 33
0.0
 16
1.0
 26
0.0
 36
0.0
 17
0.0
 27
1.0
 37
0.0
 76
     0
330
1F
331
29
  0
MATERIAL
  5
45
102
{ACAD_XDICTIONARY
360
230
102
}
102
{ACAD_REACTORS
330
43
102
}
330
43
100
AcDbMaterial
  1
ByBlock
  0
MATERIAL
  5
44
102
{ACAD_XDICTIONARY
360
22E
102
}
102
{ACAD_REACTORS
330
43
102
}
330
43
100
AcDbMaterial
  1
ByLayer
  0
MATERIAL
  5
46
102
{ACAD_XDICTIONARY
360
232
102
}
102
{ACAD_REACTORS
330
43
102
}
330
43
100
AcDbMaterial
  1
Global
  0
MLEADERSTYLE
  5
6C
102
{ACAD_REACTORS
330
6B
102
}
330
6B
100
AcDbMLeaderStyle
170
     2
171
     1
172
     0
 90
        2
 40
0.0
 41
0.0
173
     1
 91
-1056964608
340
14
 92
       -2
290
     1
 42
0.09
291
     1
 43
0.36
  3
Standard
 44
0.18
300

342
11
174
     1
178
     6
175
     1
176
     0
 93
-1056964608
 45
0.18
292
     0
297
     0
 46
0.18
 94
-1056964608
 47
1.0
 49
1.0
140
1.0
293
     1
141
0.0
294
     1
177
     0
142
1.0
295
     0
296
     0
143
0.125
1001
ACAD_MLEADERVER
1070
     2
  0
MLINESTYLE
  5
18
102
{ACAD_REACTORS
330
17
102
}
330
17
100
AcDbMlineStyle
  2
STANDARD
 70
     0
  3

 62
   256
 51
90.0
 52
90.0
 71
     2
 49
0.5
 62
   256
  6
BYLAYER
 49
-0.5
 62
   256
  6
BYLAYER
  0
ACDBPLACEHOLDER
  5
F
102
{ACAD_REACTORS
330
E
102
}
330
E
  0
SCALE
  5
48
102
{ACAD_REACTORS
330
47
102
}
330
47
100
AcDbScale
 70
     0
300
1:1
140
1.0
141
1.0
290
     1
  0
SCALE
  5
49
102
{ACAD_REACTORS
330
47
102
}
330
47
100
AcDbScale
 70
     0
300
1:2
140
1.0
141
2.0
290
     0
  0
SCALE
  5
4A
102
{ACAD_REACTORS
330
47
102
}
330
47
100
AcDbScale
 70
     0
300
1:4
140
1.0
141
4.0
290
     0
  0
SCALE
  5
4B
102
{ACAD_REACTORS
330
47
102
}
330
47
100
AcDbScale
 70
     0
300
1:5
140
1.0
141
5.0
290
     0
  0
SCALE
  5
4C
102
{ACAD_REACTORS
330
47
102
}
330
47
100
AcDbScale
 70
     0
300
1:8
140
1.0
141
8.0
290
     0
  0
SCALE
  5
4D
102
{ACAD_REACTORS
330
47
102
}
330
47
100
AcDbScale
 70
     0
300
1:10
140
1.0
141
10.0
290
     0
  0
SCALE
  5
4E
102
{ACAD_REACTORS
330
47
102
}
330
47
100
AcDbScale
 70
     0
300
1:16
140
1.0
141
16.0
290
     0
  0
SCALE
  5
4F
102
{ACAD_REACTORS
330
47
102
}
330
47
100
AcDbScale
 70
     0
300
1:20
140
1.0
141
20.0
290
     0
  0
SCALE
  5
50
102
{ACAD_REACTORS
330
47
102
}
330
47
100
AcDbScale
 70
     0
300
1:30
140
1.0
141
30.0
290
     0
  0
SCALE
  5
51
102
{ACAD_REACTORS
330
47
102
}
330
47
100
AcDbScale
 70
     0
300
1:40
140
1.0
141
40.0
290
     0
  0
SCALE
  5
52
102
{ACAD_REACTORS
330
47
102
}
330
47
100
AcDbScale
 70
     0
300
1:50
140
1.0
141
50.0
290
     0
  0
SCALE
  5
53
102
{ACAD_REACTORS
330
47
102
}
330
47
100
AcDbScale
 70
     0
300
1:100
140
1.0
141
100.0
290
     0
  0
SCALE
  5
54
102
{ACAD_REACTORS
330
47
102
}
330
47
100
AcDbScale
 70
     0
300
2:1
140
2.0
141
1.0
290
     0
  0
SCALE
  5
55
102
{ACAD_REACTORS
330
47
102
}
330
47
100
AcDbScale
 70
     0
300
4:1
140
4.0
141
1.0
290
     0
  0
SCALE
  5
56
102
{ACAD_REACTORS
330
47
102
}
330
47
100
AcDbScale
 70
     0
300
8:1
140
8.0
141
1.0
290
     0
  0
SCALE
  5
57
102
{ACAD_REACTORS
330
47
102
}
330
47
100
AcDbScale
 70
     0
300
10:1
140
10.0
141
1.0
290
     0
  0
SCALE
  5
58
102
{ACAD_REACTORS
330
47
102
}
330
47
100
AcDbScale
 70
     0
300
100:1
140
100.0
141
1.0
290
     0
  0
SCALE
  5
59
102
{ACAD_REACTORS
330
47
102
}
330
47
100
AcDbScale
 70
     0
300
1/128" = 1'-0"
140
0.007812
141
12.0
290
     0
  0
SCALE
  5
5A
102
{ACAD_REACTORS
330
47
102
}
330
47
100
AcDbScale
 70
     0
300
1/64" = 1'-0"
140
0.015625
141
12.0
290
     0
  0
SCALE
  5
5B
102
{ACAD_REACTORS
330
47
102
}
330
47
100
AcDbScale
 70
     0
300
1/32" = 1'-0"
140
0.03125
141
12.0
290
     0
  0
SCALE
  5
5C
102
{ACAD_REACTORS
330
47
102
}
330
47
100
AcDbScale
 70
     0
300
1/16" = 1'-0"
140
0.0625
141
12.0
290
     0
  0
SCALE
  5
5D
102
{ACAD_REACTORS
330
47
102
}
330
47
100
AcDbScale
 70
     0
300
3/32" = 1'-0"
140
0.09375
141
12.0
290
     0
  0
SCALE
  5
5E
102
{ACAD_REACTORS
330
47
102
}
330
47
100
AcDbScale
 70
     0
300
1/8" = 1'-0"
140
0.125
141
12.0
290
     0
  0
SCALE
  5
5F
102
{ACAD_REACTORS
330
47
102
}
330
47
100
AcDbScale
 70
     0
300
3/16" = 1'-0"
140
0.1875
141
12.0
290
     0
  0
SCALE
  5
60
102
{ACAD_REACTORS
330
47
102
}
330
47
100
AcDbScale
 70
     0
300
1/4" = 1'-0"
140
0.25
141
12.0
290
     0
  0
SCALE
  5
61
102
{ACAD_REACTORS
330
47
102
}
330
47
100
AcDbScale
 70
     0
300
3/8" = 1'-0"
140
0.375
141
12.0
290
     0
  0
SCALE
  5
62
102
{ACAD_REACTORS
330
47
102
}
330
47
100
AcDbScale
 70
     0
300
1/2" = 1'-0"
140
0.5
141
12.0
290
     0
  0
SCALE
  5
63
102
{ACAD_REACTORS
330
47
102
}
330
47
100
AcDbScale
 70
     0
300
3/4" = 1'-0"
140
0.75
141
12.0
290
     0
  0
SCALE
  5
64
102
{ACAD_REACTORS
330
47
102
}
330
47
100
AcDbScale
 70
     0
300
1" = 1'-0"
140
1.0
141
12.0
290
     0
  0
SCALE
  5
65
102
{ACAD_REACTORS
330
47
102
}
330
47
100
AcDbScale
 70
     0
300
1-1/2" = 1'-0"
140
1.5
141
12.0
290
     0
  0
SCALE
  5
66
102
{ACAD_REACTORS
330
47
102
}
330
47
100
AcDbScale
 70
     0
300
3" = 1'-0"
140
3.0
141
12.0
290
     0
  0
SCALE
  5
67
102
{ACAD_REACTORS
330
47
102
}
330
47
100
AcDbScale
 70
     0
300
6" = 1'-0"
140
6.0
141
12.0
290
     0
  0
SCALE
  5
68
102
{ACAD_REACTORS
330
47
102
}
330
47
100
AcDbScale
 70
     0
300
1'-0" = 1'-0"
140
12.0
141
12.0
290
     0
  0
ACDBSECTIONVIEWSTYLE
  5
242
102
{ACAD_XDICTIONARY
360
349
102
}
102
{ACAD_REACTORS
330
23E
330
2A4
102
}
330
23E
100
AcDbModelDocViewStyle
 70
     0
  3
Metric50
290
     0
100
AcDbSectionViewStyle
 70
     0
 71
     0
 90
      102
 71
     1
340
11
 62
   256
 40
5.0
340
0
340
0
 62
   256
 40
5.0
300
I, O, Q, S, X, Z
 40
10.0
 90
        0
 40
2.5
 90
        0
 71
     2
340
16
 90
       25
 62
   256
340
16
 90
       50
 62
   256
 40
5.0
 40
2.5
 40
5.0
 71
     3
340
11
 62
   256
 40
5.0
 90
        0
 40
15.0
 90
        1
300
%<\AcVar ViewSectionStartId>%-%<\AcVar ViewSectionEndId>% (%<\AcVar ViewScale \f "%sn">%)
 71
     4
 62
   256
 62
   257
300
ANSI31
 40
1.0
 90
        0
290
     0
290
     0
 90
        6
 40
0.0
 40
1.570796326794896
 40
0.2617993877991494
 40
1.308996938995747
 40
-0.2617993877991494
 40
1.832595714594046
  0
TABLESTYLE
  5
6A
102
{ACAD_XDICTIONARY
360
234
102
}
102
{ACAD_REACTORS
330
69
102
}
330
69
100
AcDbTableStyle
  3
Standard
 70
     0
 71
     0
 40
0.06
 41
0.06
280
     0
281
     0
  7
Standard
140
0.18
170
     2
 62
     0
 63
     7
283
     0
274
    -2
284
     1
 64
     0
275
    -2
285
     1
 65
     0
276
    -2
286
     1
 66
     0
277
    -2
287
     1
 67
     0
278
    -2
288
     1
 68
     0
279
    -2
289
     1
 69
     0
  7
Standard
140
0.25
170
     5
 62
     0
 63
     7
283
     0
274
    -2
284
     1
 64
     0
275
    -2
285
     1
 65
     0
276
    -2
286
     1
 66
     0
277
    -2
287
     1
 67
     0
278
    -2
288
     1
 68
     0
279
    -2
289
     1
 69
     0
  7
Standard
140
0.18
170
     5
 62
     0
 63
     7
283
     0
274
    -2
284
     1
 64
     0
275
    -2
285
     1
 65
     0
276
    -2
286
     1
 66
     0
277
    -2
287
     1
 67
     0
278
    -2
288
     1
 68
     0
279
    -2
289
     1
 69
     0
  0
VISUALSTYLE
  5
2F
102
{ACAD_XDICTIONARY
360
320
102
}
102
{ACAD_REACTORS
330
2A
102
}
330
2A
100
AcDbVisualStyle
  2

 70
     4
 71
     0
 72
     2
 73
     0
 90
        0
 40
-0.6
 41
-30.0
 62
     5
 63
     7
421
 16777215
 74
     1
 91
        4
 64
     7
 65
   257
 75
     1
175
     1
 42
1.0
 92
        0
 66
   257
 43
1.0
 76
     1
 77
     6
 78
     2
 67
     7
 79
     5
170
     0
171
     0
290
     0
174
     0
 93
        1
 44
0.0
173
     0
291
     0
 45
0.0
1001
ACAD
1000
AcDbSavedByObjectVersion
1070
     0
  0
VISUALSTYLE
  5
32
102
{ACAD_XDICTIONARY
360
326
102
}
102
{ACAD_REACTORS
330
2A
102
}
330
2A
100
AcDbVisualStyle
  2

 70
     7
 71
     1
 72
     0
 73
     1
 90
        0
 40
-0.6
 41
-30.0
 62
     5
 63
     7
421
 16777215
 74
     0
 91
        4
 64
     7
 65
   257
 75
     1
175
     1
 42
1.0
 92
        8
 66
     7
 43
1.0
 76
     1
 77
     6
 78
     2
 67
     7
 79
     5
170
     0
171
     0
290
     0
174
     0
 93
        1
 44
0.0
173
     0
291
     1
 45
0.0
1001
ACAD
1000
AcDbSavedByObjectVersion
1070
     0
  0
VISUALSTYLE
  5
36
102
{ACAD_XDICTIONARY
360
32E
102
}
102
{ACAD_REACTORS
330
2A
102
}
330
2A
100
AcDbVisualStyle
  2

 70
    12
 71
     2
 72
     2
 73
     0
 90
        0
 40
-0.6
 41
-30.0
 62
     5
 63
     7
421
 16777215
 74
     1
 91
        4
 64
     7
 65
   257
 75
     1
175
     1
 42
1.0
 92
        8
 66
     7
 43
1.0
 76
     1
 77
     6
 78
     2
 67
     7
 79
     5
170
     0
171
     0
290
     0
174
     0
 93
        1
 44
50.0
173
     0
291
     1
 45
0.0
1001
ACAD
1000
AcDbSavedByObjectVersion
1070
     0
  0
VISUALSTYLE
  5
3A
102
{ACAD_XDICTIONARY
360
336
102
}
102
{ACAD_REACTORS
330
2A
102
}
330
2A
100
AcDbVisualStyle
  2

 70
    16
 71
     2
 72
     2
 73
     3
 90
        0
 40
-0.6
 41
-30.0
 62
     5
 63
     8
421
  8421504
 74
     1
 91
        4
 64
     7
 65
   257
 75
     1
175
     1
 42
1.0
 92
        8
 66
     8
424
  8421504
 43
1.0
 76
     1
 77
     6
 78
     2
 67
     7
 79
     5
170
     0
171
     0
290
     0
174
     0
 93
        1
 44
0.0
173
     0
291
     1
 45
0.0
1001
ACAD
1000
AcDbSavedByObjectVersion
1070
     0
  0
VISUALSTYLE
  5
34
102
{ACAD_XDICTIONARY
360
32A
102
}
102
{ACAD_REACTORS
330
2A
102
}
330
2A
100
AcDbVisualStyle
  2

 70
     9
 71
     3
 72
     2
 73
     0
 90
        0
 40
-0.6
 41
-30.0
 62
     5
 63
     7
421
 16777215
 74
     2
 91
        2
 64
     7
 65
   257
 75
     1
175
     1
 42
179.0
 92
        8
 66
     7
 43
1.0
 76
     1
 77
     6
 78
     2
 67
     7
 79
     3
170
     0
171
     0
290
     0
174
     0
 93
        1
 44
0.0
173
     0
291
     0
 45
0.0
1001
ACAD
1000
AcDbSavedByObjectVersion
1070
     0
  0
VISUALSTYLE
  5
35
102
{ACAD_XDICTIONARY
360
32C
102
}
102
{ACAD_REACTORS
330
2A
102
}
330
2A
100
AcDbVisualStyle
  2

 70
    11
 71
     2
 72
     2
 73
     0
 90
        0
 40
-0.6
 41
-30.0
 62
     5
 63
     7
421
 16777215
 74
     1
 91
        4
 64
     7
 65
   257
 75
     1
175
     1
 42
1.0
 92
        8
 66
     7
 43
1.0
 76
     1
 77
     6
 78
     2
 67
     7
 79
     5
170
     0
171
     0
290
     0
174
     0
 93
        1
 44
-50.0
173
     0
291
     1
 45
0.0
1001
ACAD
1000
AcDbSavedByObjectVersion
1070
     0
  0
VISUALSTYLE
  5
3D
102
{ACAD_XDICTIONARY
360
33C
102
}
102
{ACAD_REACTORS
330
2A
102
}
330
2A
100
AcDbVisualStyle
  2

 70
    22
 71
     2
 72
     2
 73
     0
 90
        0
 40
-0.6
 41
-30.0
 62
     5
 63
     7
421
 16777215
 74
     1
 91
        4
 64
     7
 65
   257
 75
     1
175
     1
 42
1.0
 92
        8
 66
     7
 43
1.0
 76
     1
 77
     6
 78
     2
 67
     7
 79
     5
170
     0
171
     0
290
     0
174
     0
 93
        1
 44
0.0
173
     0
291
     1
 45
0.0
1001
ACAD
1000
AcDbSavedByObjectVersion
1070
     0
  0
VISUALSTYLE
  5
39
102
{ACAD_XDICTIONARY
360
334
102
}
102
{ACAD_REACTORS
330
2A
102
}
330
2A
100
AcDbVisualStyle
  2

 70
    15
 71
     2
 72
     2
 73
     0
 90
        0
 40
-0.6
 41
-30.0
 62
     5
 63
     7
421
 16777215
 74
     1
 91
        4
 64
     7
 65
   257
 75
     1
175
     1
 42
1.0
 92
        8
 66
     7
 43
1.0
 76
     1
 77
     6
 78
     2
 67
     7
 79
     5
170
     0
171
     0
290
     0
174
     0
 93
        1
 44
0.0
173
     0
291
     1
 45
0.0
1001
ACAD
1000
AcDbSavedByObjectVersion
1070
     0
  0
VISUALSTYLE
  5
2B
102
{ACAD_XDICTIONARY
360
318
102
}
102
{ACAD_REACTORS
330
2A
102
}
330
2A
100
AcDbVisualStyle
  2

 70
     0
 71
     2
 72
     1
 73
     1
 90
        2
 40
-0.6
 41
30.0
 62
     5
 63
     7
421
 16777215
 74
     0
 91
        0
 64
     7
 65
   257
 75
     1
175
     1
 42
1.0
 92
        8
 66
     7
 43
1.0
 76
     1
 77
     6
 78
     2
 67
     7
 79
     5
170
     0
171
     0
290
     0
174
     0
 93
       13
 44
0.0
173
     0
291
     1
 45
0.0
1001
ACAD
1000
AcDbSavedByObjectVersion
1070
     0
  0
VISUALSTYLE
  5
2C
102
{ACAD_XDICTIONARY
360
31A
102
}
102
{ACAD_REACTORS
330
2A
102
}
330
2A
100
AcDbVisualStyle
  2

 70
     1
 71
     2
 72
     1
 73
     1
 90
        2
 40
-0.6
 41
30.0
 62
     5
 63
     7
421
 16777215
 74
     1
 91
        0
 64
     7
 65
   257
 75
     1
175
     1
 42
1.0
 92
        0
 66
   257
 43
1.0
 76
     1
 77
     6
 78
     2
 67
     7
 79
     5
170
     0
171
     0
290
     0
174
     0
 93
       13
 44
0.0
173
     0
291
     1
 45
0.0
1001
ACAD
1000
AcDbSavedByObjectVersion
1070
     0
  0
VISUALSTYLE
  5
2D
102
{ACAD_XDICTIONARY
360
31C
102
}
102
{ACAD_REACTORS
330
2A
102
}
330
2A
100
AcDbVisualStyle
  2

 70
     2
 71
     2
 72
     2
 73
     1
 90
        2
 40
-0.6
 41
30.0
 62
     5
 63
     7
421
 16777215
 74
     0
 91
        0
 64
     7
 65
   257
 75
     1
175
     1
 42
1.0
 92
        0
 66
     7
 43
1.0
 76
     1
 77
     6
 78
     2
 67
     7
 79
     5
170
     0
171
     0
290
     0
174
     0
 93
       13
 44
0.0
173
     0
291
     1
 45
0.0
1001
ACAD
1000
AcDbSavedByObjectVersion
1070
     0
  0
VISUALSTYLE
  5
2E
102
{ACAD_XDICTIONARY
360
31E
102
}
102
{ACAD_REACTORS
330
2A
102
}
330
2A
100
AcDbVisualStyle
  2

 70
     3
 71
     2
 72
     2
 73
     1
 90
        2
 40
-0.6
 41
30.0
 62
     5
 63
     7
421
 16777215
 74
     1
 91
        0
 64
     7
 65
   257
 75
     1
175
     1
 42
1.0
 92
        0
 66
   257
 43
1.0
 76
     1
 77
     6
 78
     2
 67
     7
 79
     5
170
     0
171
     0
290
     0
174
     0
 93
       13
 44
0.0
173
     0
291
     1
 45
0.0
1001
ACAD
1000
AcDbSavedByObjectVersion
1070
     0
  0
VISUALSTYLE
  5
31
102
{ACAD_XDICTIONARY
360
324
102
}
102
{ACAD_REACTORS
330
2A
102
}
330
2A
100
AcDbVisualStyle
  2

 70
     6
 71
     1
 72
     2
 73
     2
 90
        0
 40
-0.6
 41
-30.0
 62
     5
 63
     7
421
 16777215
 74
     2
 91
        2
 64
     7
 65
   257
 75
     2
175
     1
 42
40.0
 92
        0
 66
   257
 43
1.0
 76
     1
 77
     6
 78
     2
 67
     7
 79
     3
170
     0
171
     0
290
     0
174
     0
 93
        1
 44
0.0
173
     0
291
     0
 45
0.0
1001
ACAD
1000
AcDbSavedByObjectVersion
1070
     0
  0
VISUALSTYLE
  5
3B
102
{ACAD_XDICTIONARY
360
338
102
}
102
{ACAD_REACTORS
330
2A
102
}
330
2A
100
AcDbVisualStyle
  2

 70
    20
 71
     2
 72
     2
 73
     0
 90
        0
 40
-0.6
 41
-30.0
 62
     5
 63
     7
421
 16777215
 74
     1
 91
        4
 64
     7
 65
   257
 75
     1
175
     1
 42
1.0
 92
       10
 66
     7
 43
1.0
 76
     1
 77
     6
 78
     2
 67
     7
 79
     5
170
     0
171
     0
290
     0
174
     0
 93
        1
 44
0.0
173
     0
291
     1
 45
0.0
1001
ACAD
1000
AcDbSavedByObjectVersion
1070
     0
  0
VISUALSTYLE
  5
38
102
{ACAD_XDICTIONARY
360
332
102
}
102
{ACAD_REACTORS
330
2A
102
}
330
2A
100
AcDbVisualStyle
  2

 70
    14
 71
     2
 72
     2
 73
     0
 90
        0
 40
-0.6
 41
-30.0
 62
     5
 63
     7
421
 16777215
 74
     1
 91
        4
 64
     7
 65
   257
 75
     7
175
     7
 42
1.0
 92
        8
 66
     7
 43
1.0
 76
     1
 77
     6
 78
     2
 67
     7
 79
     5
170
     0
171
     0
290
     0
174
     0
 93
        1
 44
0.0
173
     0
291
     1
 45
0.0
1001
ACAD
1000
AcDbSavedByObjectVersion
1070
     0
  0
VISUALSTYLE
  5
3C
102
{ACAD_XDICTIONARY
360
33A
102
}
102
{ACAD_REACTORS
330
2A
102
}
330
2A
100
AcDbVisualStyle
  2

 70
    21
 71
     2
 72
     2
 73
     0
 90
        0
 40
-0.6
 41
-30.0
 62
     5
 63
     7
421
 16777215
 74
     1
 91
        4
 64
     7
 65
   257
 75
     1
175
     1
 42
1.0
 92
        9
 66
     7
 43
1.0
 76
     1
 77
     6
 78
     2
 67
     7
 79
     5
170
     0
171
     0
290
     0
174
     0
 93
        1
 44
0.0
173
     0
291
     1
 45
0.0
1001
ACAD
1000
AcDbSavedByObjectVersion
1070
     0
  0
VISUALSTYLE
  5
33
102
{ACAD_XDICTIONARY
360
328
102
}
102
{ACAD_REACTORS
330
2A
102
}
330
2A
100
AcDbVisualStyle
  2

 70
     8
 71
     2
 72
     3
 73
     0
 90
        2
 40
-0.6
 41
30.0
 62
     5
 63
     7
421
 16777215
 74
     0
 91
        0
 64
     7
 65
   257
 75
     1
175
     1
 42
1.0
 92
        8
 66
   257
 43
1.0
 76
     1
 77
     6
 78
     2
 67
     7
 79
     3
170
     0
171
     0
290
     0
174
     0
 93
       13
 44
0.0
173
     0
291
     0
 45
0.0
1001
ACAD
1000
AcDbSavedByObjectVersion
1070
     0
  0
VISUALSTYLE
  5
42
102
{ACAD_XDICTIONARY
360
346
102
}
102
{ACAD_REACTORS
330
2A
102
}
330
2A
100
AcDbVisualStyle
  2

 70
    27
 71
     2
 72
     2
 73
     1
 90
        2
 40
-0.6
 41
30.0
 62
     5
 63
     7
421
 16777215
 74
     0
 91
        4
 64
     7
 65
   257
 75
     1
175
     1
 42
1.0
 92
        8
 66
   257
 43
1.0
 76
     1
 77
     6
 78
     2
 67
     8
425
  7895160
 79
     3
170
     0
171
     0
290
     0
174
     0
 93
        5
 44
0.0
173
     0
291
     0
 45
0.0
1001
ACAD
1000
AcDbSavedByObjectVersion
1070
     0
  0
VISUALSTYLE
  5
41
102
{ACAD_XDICTIONARY
360
344
102
}
102
{ACAD_REACTORS
330
2A
102
}
330
2A
100
AcDbVisualStyle
  2

 70
    26
 71
     2
 72
     2
 73
     1
 90
        2
 40
-0.6
 41
30.0
 62
     5
 63
     7
421
 16777215
 74
     1
 91
       10
 64
     7
 65
   257
 75
     2
175
     1
 42
1.0
 92
        8
 66
   257
 43
1.0
 76
     1
 77
     6
 78
     2
 67
     7
 79
     3
170
     0
171
     0
290
     0
174
     0
 93
        5
 44
0.0
173
     0
291
     0
 45
0.0
1001
ACAD
1000
AcDbSavedByObjectVersion
1070
     0
  0
VISUALSTYLE
  5
3E
102
{ACAD_XDICTIONARY
360
33E
102
}
102
{ACAD_REACTORS
330
2A
102
}
330
2A
100
AcDbVisualStyle
  2

 70
    23
 71
     2
 72
     2
 73
     3
 90
        0
 40
-0.6
 41
-30.0
 62
     5
 63
     7
421
 16777215
 74
     2
 91
        2
 64
     7
 65
     7
 75
     1
175
     1
 42
40.0
 92
        8
 66
     7
 43
1.0
 76
     1
 77
     6
 78
     2
 67
     7
 79
     3
170
     0
171
     0
290
     0
174
     0
 93
        1
 44
0.0
173
     0
291
     0
 45
0.0
1001
ACAD
1000
AcDbSavedByObjectVersion
1070
     0
  0
VISUALSTYLE
  5
3F
102
{ACAD_XDICTIONARY
360
340
102
}
102
{ACAD_REACTORS
330
2A
102
}
330
2A
100
AcDbVisualStyle
  2

 70
    24
 71
     1
 72
     2
 73
     2
 90
        0
 40
-0.6
 41
-30.0
 62
     5
 63
     7
421
 16777215
 74
     2
 91
        2
 64
     7
 65
     7
 75
     1
175
     1
 42
40.0
 92
       11
 66
     7
 43
1.0
 76
     1
 77
     6
 78
     2
 67
     7
 79
     6
170
     0
171
     0
290
     0
174
     0
 93
        1
 44
0.0
173
     0
291
     0
 45
0.0
1001
ACAD
1000
AcDbSavedByObjectVersion
1070
     0
  0
VISUALSTYLE
  5
37
102
{ACAD_XDICTIONARY
360
330
102
}
102
{ACAD_REACTORS
330
2A
102
}
330
2A
100
AcDbVisualStyle
  2

 70
    13
 71
     2
 72
     2
 73
     0
 90
        0
 40
-0.6
 41
-30.0
 62
     5
 63
     7
421
 16777215
 74
     1
 91
        4
 64
     7
 65
   257
 75
     1
175
     1
 42
1.0
 92
       12
 66
     7
 43
1.0
 76
     1
 77
     6
 78
     2
 67
     7
 79
     5
170
     0
171
     0
290
     0
174
     0
 93
        1
 44
0.0
173
     0
291
     1
 45
0.0
1001
ACAD
1000
AcDbSavedByObjectVersion
1070
     0
  0
VISUALSTYLE
  5
30
102
{ACAD_XDICTIONARY
360
322
102
}
102
{ACAD_REACTORS
330
2A
102
}
330
2A
100
AcDbVisualStyle
  2

 70
     5
 71
     0
 72
     2
 73
     0
 90
        0
 40
-0.6
 41
-30.0
 62
     5
 63
     7
421
 16777215
 74
     1
 91
        4
 64
     7
 65
   257
 75
     1
175
     1
 42
1.0
 92
        0
 66
   257
 43
1.0
 76
     1
 77
     6
 78
     2
 67
     7
 79
     3
170
     0
171
     0
290
     0
174
     0
 93
        1
 44
0.0
173
     0
291
     0
 45
0.0
1001
ACAD
1000
AcDbSavedByObjectVersion
1070
     0
  0
VISUALSTYLE
  5
40
102
{ACAD_XDICTIONARY
360
342
102
}
102
{ACAD_REACTORS
330
2A
102
}
330
2A
100
AcDbVisualStyle
  2

 70
    25
 71
     2
 72
     2
 73
     1
 90
        1
 40
0.5
 41
-30.0
 62
     5
 63
     7
421
 16777215
 74
     1
 91
        0
 64
     7
 65
   257
 75
     1
175
     1
 42
1.0
 92
        8
 66
     7
 43
1.0
 76
     1
 77
     6
 78
     2
 67
     7
 79
     3
170
     0
171
     0
290
     0
174
     0
 93
       13
 44
0.0
173
     0
291
     0
 45
0.0
1001
ACAD
1000
AcDbSavedByObjectVersion
1070
     0
  0
DICTIONARYVAR
  5
1FB
102
{ACAD_REACTORS
330
1FA
102
}
330
1FA
100
DictionaryVariables
280
     0
  1
1:1
  0
DICTIONARYVAR
  5
23C
102
{ACAD_REACTORS
330
1FA
102
}
330
1FA
100
DictionaryVariables
280
     0
  1
STANDARD
  0
DICTIONARYVAR
  5
23B
102
{ACAD_REACTORS
330
1FA
102
}
330
1FA
100
DictionaryVariables
280
     0
  1
STANDARD
  0
DICTIONARYVAR
  5
313
102
{ACAD_REACTORS
330
1FA
102
}
330
1FA
100
DictionaryVariables
280
     0
  1
Metric50
  0
DICTIONARYVAR
  5
314
102
{ACAD_REACTORS
330
1FA
102
}
330
1FA
100
DictionaryVariables
280
     0
  1
Metric50
  0
DICTIONARYVAR
  5
1FC
102
{ACAD_REACTORS
330
1FA
102
}
330
1FA
100
DictionaryVariables
280
     0
  1
1
  0
DICTIONARYVAR
  5
315
102
{ACAD_REACTORS
330
1FA
102
}
330
1FA
100
DictionaryVariables
280
     0
  1
2
  0
DICTIONARY
  5
27A
102
{ACAD_REACTORS
330
273
102
}
330
273
100
AcDbDictionary
281
     1
  0
DICTIONARY
  5
34B
330
243
100
AcDbDictionary
280
     1
281
     1
  3
ACAD_XREC_ROUNDTRIP
360
34C
  0
DICTIONARY
  5
230
330
45
100
AcDbDictionary
280
     1
281
     1
  3
ACAD_XREC_ROUNDTRIP
360
231
  0
DICTIONARY
  5
22E
330
44
100
AcDbDictionary
280
     1
281
     1
  3
ACAD_XREC_ROUNDTRIP
360
22F
  0
DICTIONARY
  5
232
330
46
100
AcDbDictionary
280
     1
281
     1
  3
ACAD_XREC_ROUNDTRIP
360
233
  0
DICTIONARY
  5
349
330
242
100
AcDbDictionary
280
     1
281
     1
  3
ACAD_XREC_ROUNDTRIP
360
34A
  0
DICTIONARY
  5
234
330
6A
100
AcDbDictionary
280
     1
281
     1
  3
ACAD_ROUNDTRIP_2008_TABLESTYLE_CELLSTYLEMAP
360
316
  3
ACAD_XREC_ROUNDTRIP
360
348
  0
DICTIONARY
  5
320
330
2F
100
AcDbDictionary
280
     1
281
     1
  3
ACAD_XREC_ROUNDTRIP
360
321
  0
DICTIONARY
  5
326
330
32
100
AcDbDictionary
280
     1
281
     1
  3
ACAD_XREC_ROUNDTRIP
360
327
  0
DICTIONARY
  5
32E
330
36
100
AcDbDictionary
280
     1
281
     1
  3
ACAD_XREC_ROUNDTRIP
360
32F
  0
DICTIONARY
  5
336
330
3A
100
AcDbDictionary
280
     1
281
     1
  3
ACAD_XREC_ROUNDTRIP
360
337
  0
DICTIONARY
  5
32A
330
34
100
AcDbDictionary
280
     1
281
     1
  3
ACAD_XREC_ROUNDTRIP
360
32B
  0
DICTIONARY
  5
32C
330
35
100
AcDbDictionary
280
     1
281
     1
  3
ACAD_XREC_ROUNDTRIP
360
32D
  0
DICTIONARY
  5
33C
330
3D
100
AcDbDictionary
280
     1
281
     1
  3
ACAD_XREC_ROUNDTRIP
360
33D
  0
DICTIONARY
  5
334
330
39
100
AcDbDictionary
280
     1
281
     1
  3
ACAD_XREC_ROUNDTRIP
360
335
  0
DICTIONARY
  5
318
330
2B
100
AcDbDictionary
280
     1
281
     1
  3
ACAD_XREC_ROUNDTRIP
360
319
  0
DICTIONARY
  5
31A
330
2C
100
AcDbDictionary
280
     1
281
     1
  3
ACAD_XREC_ROUNDTRIP
360
31B
  0
DICTIONARY
  5
31C
330
2D
100
AcDbDictionary
280
     1
281
     1
  3
ACAD_XREC_ROUNDTRIP
360
31D
  0
DICTIONARY
  5
31E
330
2E
100
AcDbDictionary
280
     1
281
     1
  3
ACAD_XREC_ROUNDTRIP
360
31F
  0
DICTIONARY
  5
324
330
31
100
AcDbDictionary
280
     1
281
     1
  3
ACAD_XREC_ROUNDTRIP
360
325
  0
DICTIONARY
  5
338
330
3B
100
AcDbDictionary
280
     1
281
     1
  3
ACAD_XREC_ROUNDTRIP
360
339
  0
DICTIONARY
  5
332
330
38
100
AcDbDictionary
280
     1
281
     1
  3
ACAD_XREC_ROUNDTRIP
360
333
  0
DICTIONARY
  5
33A
330
3C
100
AcDbDictionary
280
     1
281
     1
  3
ACAD_XREC_ROUNDTRIP
360
33B
  0
DICTIONARY
  5
328
330
33
100
AcDbDictionary
280
     1
281
     1
  3
ACAD_XREC_ROUNDTRIP
360
329
  0
DICTIONARY
  5
346
330
42
100
AcDbDictionary
280
     1
281
     1
  3
ACAD_XREC_ROUNDTRIP
360
347
  0
DICTIONARY
  5
344
330
41
100
AcDbDictionary
280
     1
281
     1
  3
ACAD_XREC_ROUNDTRIP
360
345
  0
DICTIONARY
  5
33E
330
3E
100
AcDbDictionary
280
     1
281
     1
  3
ACAD_XREC_ROUNDTRIP
360
33F
  0
DICTIONARY
  5
340
330
3F
100
AcDbDictionary
280
     1
281
     1
  3
ACAD_XREC_ROUNDTRIP
360
341
  0
DICTIONARY
  5
330
330
37
100
AcDbDictionary
280
     1
281
     1
  3
ACAD_XREC_ROUNDTRIP
360
331
  0
DICTIONARY
  5
322
330
30
100
AcDbDictionary
280
     1
281
     1
  3
ACAD_XREC_ROUNDTRIP
360
323
  0
DICTIONARY
  5
342
330
40
100
AcDbDictionary
280
     1
281
     1
  3
ACAD_XREC_ROUNDTRIP
360
343
  0
XRECORD
  5
34C
102
{ACAD_REACTORS
330
34B
102
}
330
34B
100
AcDbXrecord
280
     1
102
DISPLAYNAME
  1
Metric50
102
FLAGS
 90
        0
  0
XRECORD
  5
231
102
{ACAD_REACTORS
330
230
102
}
330
230
100
AcDbXrecord
280
     1
102
MATERIAL
148
0.0
149
0.0
149
0.0
 93
        0
 94
      127
282
     0
 72
     1
 77
     1
171
     1
175
     1
179
     1
273
     0
  0
XRECORD
  5
22F
102
{ACAD_REACTORS
330
22E
102
}
330
22E
100
AcDbXrecord
280
     1
102
MATERIAL
148
0.0
149
0.0
149
0.0
 93
        0
 94
      127
282
     0
 72
     1
 77
     1
171
     1
175
     1
179
     1
273
     0
  0
XRECORD
  5
233
102
{ACAD_REACTORS
330
232
102
}
330
232
100
AcDbXrecord
280
     1
102
MATERIAL
148
0.0
149
0.0
149
0.0
 93
        0
 94
      127
282
     0
 72
     1
 77
     1
171
     1
175
     1
179
     1
273
     0
  0
XRECORD
  5
34A
102
{ACAD_REACTORS
330
349
102
}
330
349
100
AcDbXrecord
280
     1
102
DISPLAYNAME
  1
Metric50
102
FLAGS
 90
        0
  0
CELLSTYLEMAP
  5
316
102
{ACAD_REACTORS
330
234
102
}
330
234
100
AcDbCellStyleMap
 90
        3
300
CELLSTYLE
  1
TABLEFORMAT_BEGIN
 90
        5
170
     1
 91
        0
 92
    32768
 62
   257
 93
        1
300
CONTENTFORMAT
  1
CONTENTFORMAT_BEGIN
 90
        0
 91
        0
 92
        4
 93
        0
300

 40
0.0
140
1.0
 94
        5
 62
     0
340
11
144
0.25
309
CONTENTFORMAT_END
171
     1
301
MARGIN
  1
CELLMARGIN_BEGIN
 40
0.06
 40
0.06
 40
0.06
 40
0.06
 40
0.18
 40
0.18
309
CELLMARGIN_END
 94
        6
 95
        1
302
GRIDFORMAT
  1
GRIDFORMAT_BEGIN
 90
        0
 91
        1
 62
     0
 92
       -2
340
14
 93
        0
 40
0.045
309
GRIDFORMAT_END
 95
        2
302
GRIDFORMAT
  1
GRIDFORMAT_BEGIN
 90
        0
 91
        1
 62
     0
 92
       -2
340
14
 93
        0
 40
0.045
309
GRIDFORMAT_END
 95
        4
302
GRIDFORMAT
  1
GRIDFORMAT_BEGIN
 90
        0
 91
        1
 62
     0
 92
       -2
340
14
 93
        0
 40
0.045
309
GRIDFORMAT_END
 95
        8
302
GRIDFORMAT
  1
GRIDFORMAT_BEGIN
 90
        0
 91
        1
 62
     0
 92
       -2
340
14
 93
        0
 40
0.045
309
GRIDFORMAT_END
 95
       16
302
GRIDFORMAT
  1
GRIDFORMAT_BEGIN
 90
        0
 91
        1
 62
     0
 92
       -2
340
14
 93
        0
 40
0.045
309
GRIDFORMAT_END
 95
       32
302
GRIDFORMAT
  1
GRIDFORMAT_BEGIN
 90
        0
 91
        1
 62
     0
 92
       -2
340
14
 93
        0
 40
0.045
309
GRIDFORMAT_END
309
TABLEFORMAT_END
  1
CELLSTYLE_BEGIN
 90
        1
 91
        1
300
_TITLE
309
CELLSTYLE_END
300
CELLSTYLE
  1
TABLEFORMAT_BEGIN
 90
        5
170
     1
 91
        0
 92
        0
 62
   257
 93
        1
300
CONTENTFORMAT
  1
CONTENTFORMAT_BEGIN
 90
        0
 91
        0
 92
        4
 93
        0
300

 40
0.0
140
1.0
 94
        5
 62
     0
340
11
144
0.18
309
CONTENTFORMAT_END
171
     1
301
MARGIN
  1
CELLMARGIN_BEGIN
 40
0.06
 40
0.06
 40
0.06
 40
0.06
 40
0.18
 40
0.18
309
CELLMARGIN_END
 94
        6
 95
        1
302
GRIDFORMAT
  1
GRIDFORMAT_BEGIN
 90
        0
 91
        1
 62
     0
 92
       -2
340
14
 93
        0
 40
0.045
309
GRIDFORMAT_END
 95
        2
302
GRIDFORMAT
  1
GRIDFORMAT_BEGIN
 90
        0
 91
        1
 62
     0
 92
       -2
340
14
 93
        0
 40
0.045
309
GRIDFORMAT_END
 95
        4
302
GRIDFORMAT
  1
GRIDFORMAT_BEGIN
 90
        0
 91
        1
 62
     0
 92
       -2
340
14
 93
        0
 40
0.045
309
GRIDFORMAT_END
 95
        8
302
GRIDFORMAT
  1
GRIDFORMAT_BEGIN
 90
        0
 91
        1
 62
     0
 92
       -2
340
14
 93
        0
 40
0.045
309
GRIDFORMAT_END
 95
       16
302
GRIDFORMAT
  1
GRIDFORMAT_BEGIN
 90
        0
 91
        1
 62
     0
 92
       -2
340
14
 93
        0
 40
0.045
309
GRIDFORMAT_END
 95
       32
302
GRIDFORMAT
  1
GRIDFORMAT_BEGIN
 90
        0
 91
        1
 62
     0
 92
       -2
340
14
 93
        0
 40
0.045
309
GRIDFORMAT_END
309
TABLEFORMAT_END
  1
CELLSTYLE_BEGIN
 90
        2
 91
        1
300
_HEADER
309
CELLSTYLE_END
300
CELLSTYLE
  1
TABLEFORMAT_BEGIN
 90
        5
170
     1
 91
        0
 92
        0
 62
   257
 93
        1
300
CONTENTFORMAT
  1
CONTENTFORMAT_BEGIN
 90
        0
 91
        0
 92
        4
 93
        0
300

 40
0.0
140
1.0
 94
        2
 62
     0
340
11
144
0.18
309
CONTENTFORMAT_END
171
     1
301
MARGIN
  1
CELLMARGIN_BEGIN
 40
0.06
 40
0.06
 40
0.06
 40
0.06
 40
0.18
 40
0.18
309
CELLMARGIN_END
 94
        6
 95
        1
302
GRIDFORMAT
  1
GRIDFORMAT_BEGIN
 90
        0
 91
        1
 62
     0
 92
       -2
340
14
 93
        0
 40
0.045
309
GRIDFORMAT_END
 95
        2
302
GRIDFORMAT
  1
GRIDFORMAT_BEGIN
 90
        0
 91
        1
 62
     0
 92
       -2
340
14
 93
        0
 40
0.045
309
GRIDFORMAT_END
 95
        4
302
GRIDFORMAT
  1
GRIDFORMAT_BEGIN
 90
        0
 91
        1
 62
     0
 92
       -2
340
14
 93
        0
 40
0.045
309
GRIDFORMAT_END
 95
        8
302
GRIDFORMAT
  1
GRIDFORMAT_BEGIN
 90
        0
 91
        1
 62
     0
 92
       -2
340
14
 93
        0
 40
0.045
309
GRIDFORMAT_END
 95
       16
302
GRIDFORMAT
  1
GRIDFORMAT_BEGIN
 90
        0
 91
        1
 62
     0
 92
       -2
340
14
 93
        0
 40
0.045
309
GRIDFORMAT_END
 95
       32
302
GRIDFORMAT
  1
GRIDFORMAT_BEGIN
 90
        0
 91
        1
 62
     0
 92
       -2
340
14
 93
        0
 40
0.045
309
GRIDFORMAT_END
309
TABLEFORMAT_END
  1
CELLSTYLE_BEGIN
 90
        3
 91
        2
300
_DATA
309
CELLSTYLE_END
  0
XRECORD
  5
348
102
{ACAD_REACTORS
330
234
102
}
330
234
100
AcDbXrecord
280
     1
102
ACAD_ROUNDTRIP_PRE2007_TABLESTYLE
 90
        4
 91
        0
  1

 92
        4
 93
        0
  2

 94
        4
 95
        0
  3

  0
XRECORD
  5
321
102
{ACAD_REACTORS
330
320
102
}
330
320
100
AcDbXrecord
280
     1
102
RTVSPost2010Prop28
280
     1
102
RTVSPost2010PropOp28
 70
     1
102
RTVSPost2010Prop29
280
     1
102
RTVSPost2010PropOp29
 70
     1
102
RTVSPost2010Prop30
280
     0
102
RTVSPost2010PropOp30
 70
     1
102
RTVSPost2010Prop31
280
     0
102
RTVSPost2010PropOp31
 70
     1
102
RTVSPost2010Prop32
280
     0
102
RTVSPost2010PropOp32
 70
     1
102
RTVSPost2010Prop33
280
     0
102
RTVSPost2010PropOp33
 70
     1
102
RTVSPost2010Prop34
280
     0
102
RTVSPost2010PropOp34
 70
     1
102
RTVSPost2010Prop35
280
     0
102
RTVSPost2010PropOp35
 70
     1
102
RTVSPost2010Prop36
280
     0
102
RTVSPost2010PropOp36
 70
     1
102
RTVSPost2010Prop37
 90
       50
102
RTVSPost2010PropOp37
 70
     1
102
RTVSPost2010Prop38
140
0.0
102
RTVSPost2010PropOp38
 70
     1
102
RTVSPost2010Prop39
140
1.0
102
RTVSPost2010PropOp39
 70
     1
102
RTVSPost2010Prop40
 90
        0
102
RTVSPost2010PropOp40
 70
     1
102
RTVSPost2010Prop41ColorIndex
 90
       18
102
RTVSPost2010Prop41ColorRGB
 90
        0
102
RTVSPost2010PropOp41
 70
     1
102
RTVSPost2010Prop42
 90
       50
102
RTVSPost2010PropOp42
 70
     1
102
RTVSPost2010Prop43
 90
        3
102
RTVSPost2010PropOp43
 70
     1
102
RTVSPost2010Prop44ColorIndex
 90
        5
102
RTVSPost2010Prop44ColorRGB
 90
      255
102
RTVSPost2010PropOp44
 70
     1
102
RTVSPost2010Prop45
280
     0
102
RTVSPost2010PropOp45
 70
     1
102
RTVSPost2010Prop46
 90
       50
102
RTVSPost2010PropOp46
 70
     1
102
RTVSPost2010Prop47
 90
       50
102
RTVSPost2010PropOp47
 70
     1
102
RTVSPost2010Prop48
 90
       50
102
RTVSPost2010PropOp48
 70
     1
102
RTVSPost2010Prop49
280
     0
102
RTVSPost2010PropOp49
 70
     1
102
RTVSPost2010Prop50
 90
       50
102
RTVSPost2010PropOp50
 70
     1
102
RTVSPost2010Prop51ColorIndex
 90
      256
102
RTVSPost2010Prop51ColorRGB
 90
-16777216
102
RTVSPost2010PropOp51
 70
     0
102
RTVSPost2010Prop52
140
1.0
102
RTVSPost2010PropOp52
 70
     0
102
RTVSPost2010Prop53
 90
        2
102
RTVSPost2010PropOp53
 70
     1
102
RTVSPost2010Prop54
  1
strokes_ogs.tif
102
RTVSPost2010PropOp54
 70
     1
102
RTVSPost2010Prop55
280
     0
102
RTVSPost2010PropOp55
 70
     1
102
RTVSPost2010Prop56
140
1.0
102
RTVSPost2010PropOp56
 70
     1
102
RTVSPost2010Prop57
140
1.0
102
RTVSPost2010PropOp57
 70
     1
102
RTVSPropertyOp0
 70
     1
102
RTVSPropertyOp1
 70
     1
102
RTVSPropertyOp2
 70
     1
102
RTVSPropertyOp3
 70
     1
102
RTVSPropertyOp4
 70
     1
102
RTVSPropertyOp5
 70
     1
102
RTVSPropertyOp6
 70
     1
102
RTVSPropertyOp7
 70
     1
102
RTVSPropertyOp8
 70
     1
102
RTVSPropertyOp9
 70
     1
102
RTVSPropertyOp10
 70
     1
102
RTVSPropertyOp11
 70
     1
102
RTVSPropertyOp12
 70
     1
102
RTVSPropertyOp13
 70
     1
102
RTVSPropertyOp14
 70
     1
102
RTVSPropertyOp15
 70
     1
102
RTVSPropertyOp16
 70
     1
102
RTVSPropertyOp17
 70
     1
102
RTVSPropertyOp18
 70
     1
102
RTVSPropertyOp19
 70
     1
102
RTVSPropertyOp20
 70
     1
102
RTVSPropertyOp21
 70
     1
102
RTVSPropertyOp22
 70
     1
102
RTVSPropertyOp23
 70
     1
102
RTVSPropertyOp24
 70
     1
102
RTVSPropertyOp25
 70
     1
102
RTVSPropertyOp26
 70
     1
102
RTVSPropertyOp27
 70
     1
102
RTVSPropertyOp28
 70
     1
102
RTVSPropertyOp29
 70
     1
102
RTVSPropertyOp30
 70
     1
102
RTVSPropertyOp31
 70
     1
102
RTVSPropertyOp32
 70
     1
102
RTVSPropertyOp33
 70
     1
102
RTVSPropertyOp34
 70
     1
102
RTVSPropertyOp35
 70
     1
102
RTVSPropertyOp36
 70
     1
102
RTVSPropertyOp37
 70
     1
102
RTVSPropertyOp38
 70
     1
102
RTVSPropertyOp39
 70
     1
102
RTVSPropertyOp40
 70
     1
102
RTVSPropertyOp41
 70
     1
102
RTVSPropertyOp42
 70
     1
102
RTVSPropertyOp43
 70
     1
102
RTVSPropertyOp44
 70
     1
102
RTVSPropertyOp45
 70
     1
102
RTVSPropertyOp46
 70
     1
102
RTVSPropertyOp47
 70
     1
102
RTVSPropertyOp48
 70
     1
102
RTVSPropertyOp49
 70
     1
102
RTVSPropertyOp50
 70
     1
102
RTVSPropertyOp51
 70
     0
102
RTVSPropertyOp52
 70
     0
102
RTVSPropertyOp53
 70
     1
102
RTVSPropertyOp54
 70
     1
102
RTVSPropertyOp55
 70
     1
102
RTVSPropertyOp56
 70
     1
102
RTVSPropertyOp57
 70
     1
102
RTVSPropertyOp58
 70
     1
102
RTVSPropertyOp59
 70
     1
102
RTVSPropertyOp60
 70
     1
102
RTVSPropertyOp61
 70
     1
102
RTVSPropertyOp62
 70
     1
  0
XRECORD
  5
327
102
{ACAD_REACTORS
330
326
102
}
330
326
100
AcDbXrecord
280
     1
102
RTVSPost2010Prop28
280
     0
102
RTVSPost2010PropOp28
 70
     1
102
RTVSPost2010Prop29
280
     1
102
RTVSPost2010PropOp29
 70
     1
102
RTVSPost2010Prop30
280
     1
102
RTVSPost2010PropOp30
 70
     1
102
RTVSPost2010Prop31
280
     0
102
RTVSPost2010PropOp31
 70
     1
102
RTVSPost2010Prop32
280
     0
102
RTVSPost2010PropOp32
 70
     1
102
RTVSPost2010Prop33
280
     0
102
RTVSPost2010PropOp33
 70
     1
102
RTVSPost2010Prop34
280
     0
102
RTVSPost2010PropOp34
 70
     1
102
RTVSPost2010Prop35
280
     0
102
RTVSPost2010PropOp35
 70
     1
102
RTVSPost2010Prop36
280
     0
102
RTVSPost2010PropOp36
 70
     1
102
RTVSPost2010Prop37
 90
       50
102
RTVSPost2010PropOp37
 70
     1
102
RTVSPost2010Prop38
140
0.0
102
RTVSPost2010PropOp38
 70
     1
102
RTVSPost2010Prop39
140
1.0
102
RTVSPost2010PropOp39
 70
     1
102
RTVSPost2010Prop40
 90
        0
102
RTVSPost2010PropOp40
 70
     1
102
RTVSPost2010Prop41ColorIndex
 90
       18
102
RTVSPost2010Prop41ColorRGB
 90
        0
102
RTVSPost2010PropOp41
 70
     1
102
RTVSPost2010Prop42
 90
       50
102
RTVSPost2010PropOp42
 70
     1
102
RTVSPost2010Prop43
 90
        3
102
RTVSPost2010PropOp43
 70
     1
102
RTVSPost2010Prop44ColorIndex
 90
        5
102
RTVSPost2010Prop44ColorRGB
 90
      255
102
RTVSPost2010PropOp44
 70
     1
102
RTVSPost2010Prop45
280
     0
102
RTVSPost2010PropOp45
 70
     1
102
RTVSPost2010Prop46
 90
       50
102
RTVSPost2010PropOp46
 70
     1
102
RTVSPost2010Prop47
 90
       50
102
RTVSPost2010PropOp47
 70
     1
102
RTVSPost2010Prop48
 90
       50
102
RTVSPost2010PropOp48
 70
     1
102
RTVSPost2010Prop49
280
     0
102
RTVSPost2010PropOp49
 70
     1
102
RTVSPost2010Prop50
 90
       50
102
RTVSPost2010PropOp50
 70
     1
102
RTVSPost2010Prop51ColorIndex
 90
      256
102
RTVSPost2010Prop51ColorRGB
 90
-16777216
102
RTVSPost2010PropOp51
 70
     0
102
RTVSPost2010Prop52
140
1.0
102
RTVSPost2010PropOp52
 70
     0
102
RTVSPost2010Prop53
 90
        2
102
RTVSPost2010PropOp53
 70
     1
102
RTVSPost2010Prop54
  1
strokes_ogs.tif
102
RTVSPost2010PropOp54
 70
     1
102
RTVSPost2010Prop55
280
     0
102
RTVSPost2010PropOp55
 70
     1
102
RTVSPost2010Prop56
140
1.0
102
RTVSPost2010PropOp56
 70
     1
102
RTVSPost2010Prop57
140
1.0
102
RTVSPost2010PropOp57
 70
     1
102
RTVSPropertyOp0
 70
     1
102
RTVSPropertyOp1
 70
     1
102
RTVSPropertyOp2
 70
     1
102
RTVSPropertyOp3
 70
     1
102
RTVSPropertyOp4
 70
     1
102
RTVSPropertyOp5
 70
     1
102
RTVSPropertyOp6
 70
     1
102
RTVSPropertyOp7
 70
     1
102
RTVSPropertyOp8
 70
     1
102
RTVSPropertyOp9
 70
     1
102
RTVSPropertyOp10
 70
     1
102
RTVSPropertyOp11
 70
     1
102
RTVSPropertyOp12
 70
     1
102
RTVSPropertyOp13
 70
     1
102
RTVSPropertyOp14
 70
     1
102
RTVSPropertyOp15
 70
     1
102
RTVSPropertyOp16
 70
     1
102
RTVSPropertyOp17
 70
     1
102
RTVSPropertyOp18
 70
     1
102
RTVSPropertyOp19
 70
     1
102
RTVSPropertyOp20
 70
     1
102
RTVSPropertyOp21
 70
     1
102
RTVSPropertyOp22
 70
     1
102
RTVSPropertyOp23
 70
     1
102
RTVSPropertyOp24
 70
     1
102
RTVSPropertyOp25
 70
     1
102
RTVSPropertyOp26
 70
     1
102
RTVSPropertyOp27
 70
     1
102
RTVSPropertyOp28
 70
     1
102
RTVSPropertyOp29
 70
     1
102
RTVSPropertyOp30
 70
     1
102
RTVSPropertyOp31
 70
     1
102
RTVSPropertyOp32
 70
     1
102
RTVSPropertyOp33
 70
     1
102
RTVSPropertyOp34
 70
     1
102
RTVSPropertyOp35
 70
     1
102
RTVSPropertyOp36
 70
     1
102
RTVSPropertyOp37
 70
     1
102
RTVSPropertyOp38
 70
     1
102
RTVSPropertyOp39
 70
     1
102
RTVSPropertyOp40
 70
     1
102
RTVSPropertyOp41
 70
     1
102
RTVSPropertyOp42
 70
     1
102
RTVSPropertyOp43
 70
     1
102
RTVSPropertyOp44
 70
     1
102
RTVSPropertyOp45
 70
     1
102
RTVSPropertyOp46
 70
     1
102
RTVSPropertyOp47
 70
     1
102
RTVSPropertyOp48
 70
     1
102
RTVSPropertyOp49
 70
     1
102
RTVSPropertyOp50
 70
     1
102
RTVSPropertyOp51
 70
     0
102
RTVSPropertyOp52
 70
     0
102
RTVSPropertyOp53
 70
     1
102
RTVSPropertyOp54
 70
     1
102
RTVSPropertyOp55
 70
     1
102
RTVSPropertyOp56
 70
     1
102
RTVSPropertyOp57
 70
     1
102
RTVSPropertyOp58
 70
     1
102
RTVSPropertyOp59
 70
     1
102
RTVSPropertyOp60
 70
     1
102
RTVSPropertyOp61
 70
     1
102
RTVSPropertyOp62
 70
     1
  0
XRECORD
  5
32F
102
{ACAD_REACTORS
330
32E
102
}
330
32E
100
AcDbXrecord
280
     1
102
RTVSPost2010Prop28
280
     0
102
RTVSPost2010PropOp28
 70
     1
102
RTVSPost2010Prop29
280
     1
102
RTVSPost2010PropOp29
 70
     1
102
RTVSPost2010Prop30
280
     1
102
RTVSPost2010PropOp30
 70
     1
102
RTVSPost2010Prop31
280
     0
102
RTVSPost2010PropOp31
 70
     1
102
RTVSPost2010Prop32
280
     0
102
RTVSPost2010PropOp32
 70
     1
102
RTVSPost2010Prop33
280
     0
102
RTVSPost2010PropOp33
 70
     1
102
RTVSPost2010Prop34
280
     0
102
RTVSPost2010PropOp34
 70
     1
102
RTVSPost2010Prop35
280
     0
102
RTVSPost2010PropOp35
 70
     1
102
RTVSPost2010Prop36
280
     0
102
RTVSPost2010PropOp36
 70
     1
102
RTVSPost2010Prop37
 90
       50
102
RTVSPost2010PropOp37
 70
     1
102
RTVSPost2010Prop38
140
0.0
102
RTVSPost2010PropOp38
 70
     1
102
RTVSPost2010Prop39
140
1.0
102
RTVSPost2010PropOp39
 70
     1
102
RTVSPost2010Prop40
 90
        0
102
RTVSPost2010PropOp40
 70
     1
102
RTVSPost2010Prop41ColorIndex
 90
       18
102
RTVSPost2010Prop41ColorRGB
 90
        0
102
RTVSPost2010PropOp41
 70
     1
102
RTVSPost2010Prop42
 90
       50
102
RTVSPost2010PropOp42
 70
     1
102
RTVSPost2010Prop43
 90
        3
102
RTVSPost2010PropOp43
 70
     1
102
RTVSPost2010Prop44ColorIndex
 90
        5
102
RTVSPost2010Prop44ColorRGB
 90
      255
102
RTVSPost2010PropOp44
 70
     1
102
RTVSPost2010Prop45
280
     0
102
RTVSPost2010PropOp45
 70
     1
102
RTVSPost2010Prop46
 90
       50
102
RTVSPost2010PropOp46
 70
     1
102
RTVSPost2010Prop47
 90
       50
102
RTVSPost2010PropOp47
 70
     1
102
RTVSPost2010Prop48
 90
       50
102
RTVSPost2010PropOp48
 70
     1
102
RTVSPost2010Prop49
280
     0
102
RTVSPost2010PropOp49
 70
     1
102
RTVSPost2010Prop50
 90
       50
102
RTVSPost2010PropOp50
 70
     1
102
RTVSPost2010Prop51ColorIndex
 90
      256
102
RTVSPost2010Prop51ColorRGB
 90
-16777216
102
RTVSPost2010PropOp51
 70
     0
102
RTVSPost2010Prop52
140
1.0
102
RTVSPost2010PropOp52
 70
     0
102
RTVSPost2010Prop53
 90
        2
102
RTVSPost2010PropOp53
 70
     1
102
RTVSPost2010Prop54
  1
strokes_ogs.tif
102
RTVSPost2010PropOp54
 70
     1
102
RTVSPost2010Prop55
280
     0
102
RTVSPost2010PropOp55
 70
     1
102
RTVSPost2010Prop56
140
1.0
102
RTVSPost2010PropOp56
 70
     1
102
RTVSPost2010Prop57
140
1.0
102
RTVSPost2010PropOp57
 70
     1
102
RTVSPropertyOp0
 70
     1
102
RTVSPropertyOp1
 70
     1
102
RTVSPropertyOp2
 70
     1
102
RTVSPropertyOp3
 70
     1
102
RTVSPropertyOp4
 70
     1
102
RTVSPropertyOp5
 70
     1
102
RTVSPropertyOp6
 70
     1
102
RTVSPropertyOp7
 70
     1
102
RTVSPropertyOp8
 70
     1
102
RTVSPropertyOp9
 70
     1
102
RTVSPropertyOp10
 70
     1
102
RTVSPropertyOp11
 70
     1
102
RTVSPropertyOp12
 70
     1
102
RTVSPropertyOp13
 70
     1
102
RTVSPropertyOp14
 70
     1
102
RTVSPropertyOp15
 70
     1
102
RTVSPropertyOp16
 70
     1
102
RTVSPropertyOp17
 70
     1
102
RTVSPropertyOp18
 70
     1
102
RTVSPropertyOp19
 70
     1
102
RTVSPropertyOp20
 70
     1
102
RTVSPropertyOp21
 70
     1
102
RTVSPropertyOp22
 70
     1
102
RTVSPropertyOp23
 70
     1
102
RTVSPropertyOp24
 70
     1
102
RTVSPropertyOp25
 70
     1
102
RTVSPropertyOp26
 70
     1
102
RTVSPropertyOp27
 70
     1
102
RTVSPropertyOp28
 70
     1
102
RTVSPropertyOp29
 70
     1
102
RTVSPropertyOp30
 70
     1
102
RTVSPropertyOp31
 70
     1
102
RTVSPropertyOp32
 70
     1
102
RTVSPropertyOp33
 70
     1
102
RTVSPropertyOp34
 70
     1
102
RTVSPropertyOp35
 70
     1
102
RTVSPropertyOp36
 70
     1
102
RTVSPropertyOp37
 70
     1
102
RTVSPropertyOp38
 70
     1
102
RTVSPropertyOp39
 70
     1
102
RTVSPropertyOp40
 70
     1
102
RTVSPropertyOp41
 70
     1
102
RTVSPropertyOp42
 70
     1
102
RTVSPropertyOp43
 70
     1
102
RTVSPropertyOp44
 70
     1
102
RTVSPropertyOp45
 70
     1
102
RTVSPropertyOp46
 70
     1
102
RTVSPropertyOp47
 70
     1
102
RTVSPropertyOp48
 70
     1
102
RTVSPropertyOp49
 70
     1
102
RTVSPropertyOp50
 70
     1
102
RTVSPropertyOp51
 70
     0
102
RTVSPropertyOp52
 70
     0
102
RTVSPropertyOp53
 70
     1
102
RTVSPropertyOp54
 70
     1
102
RTVSPropertyOp55
 70
     1
102
RTVSPropertyOp56
 70
     1
102
RTVSPropertyOp57
 70
     1
102
RTVSPropertyOp58
 70
     1
102
RTVSPropertyOp59
 70
     1
102
RTVSPropertyOp60
 70
     1
102
RTVSPropertyOp61
 70
     1
102
RTVSPropertyOp62
 70
     1
  0
XRECORD
  5
337
102
{ACAD_REACTORS
330
336
102
}
330
336
100
AcDbXrecord
280
     1
102
RTVSPost2010Prop28
280
     0
102
RTVSPost2010PropOp28
 70
     1
102
RTVSPost2010Prop29
280
     1
102
RTVSPost2010PropOp29
 70
     1
102
RTVSPost2010Prop30
280
     1
102
RTVSPost2010PropOp30
 70
     1
102
RTVSPost2010Prop31
280
     0
102
RTVSPost2010PropOp31
 70
     1
102
RTVSPost2010Prop32
280
     0
102
RTVSPost2010PropOp32
 70
     1
102
RTVSPost2010Prop33
280
     0
102
RTVSPost2010PropOp33
 70
     1
102
RTVSPost2010Prop34
280
     0
102
RTVSPost2010PropOp34
 70
     1
102
RTVSPost2010Prop35
280
     0
102
RTVSPost2010PropOp35
 70
     1
102
RTVSPost2010Prop36
280
     0
102
RTVSPost2010PropOp36
 70
     1
102
RTVSPost2010Prop37
 90
       50
102
RTVSPost2010PropOp37
 70
     1
102
RTVSPost2010Prop38
140
0.0
102
RTVSPost2010PropOp38
 70
     1
102
RTVSPost2010Prop39
140
1.0
102
RTVSPost2010PropOp39
 70
     1
102
RTVSPost2010Prop40
 90
        0
102
RTVSPost2010PropOp40
 70
     1
102
RTVSPost2010Prop41ColorIndex
 90
       18
102
RTVSPost2010Prop41ColorRGB
 90
        0
102
RTVSPost2010PropOp41
 70
     1
102
RTVSPost2010Prop42
 90
       50
102
RTVSPost2010PropOp42
 70
     1
102
RTVSPost2010Prop43
 90
        3
102
RTVSPost2010PropOp43
 70
     1
102
RTVSPost2010Prop44ColorIndex
 90
        5
102
RTVSPost2010Prop44ColorRGB
 90
      255
102
RTVSPost2010PropOp44
 70
     1
102
RTVSPost2010Prop45
280
     0
102
RTVSPost2010PropOp45
 70
     1
102
RTVSPost2010Prop46
 90
       50
102
RTVSPost2010PropOp46
 70
     1
102
RTVSPost2010Prop47
 90
       50
102
RTVSPost2010PropOp47
 70
     1
102
RTVSPost2010Prop48
 90
       50
102
RTVSPost2010PropOp48
 70
     1
102
RTVSPost2010Prop49
280
     0
102
RTVSPost2010PropOp49
 70
     1
102
RTVSPost2010Prop50
 90
       50
102
RTVSPost2010PropOp50
 70
     1
102
RTVSPost2010Prop51ColorIndex
 90
      256
102
RTVSPost2010Prop51ColorRGB
 90
-16777216
102
RTVSPost2010PropOp51
 70
     0
102
RTVSPost2010Prop52
140
1.0
102
RTVSPost2010PropOp52
 70
     0
102
RTVSPost2010Prop53
 90
        2
102
RTVSPost2010PropOp53
 70
     1
102
RTVSPost2010Prop54
  1
strokes_ogs.tif
102
RTVSPost2010PropOp54
 70
     1
102
RTVSPost2010Prop55
280
     0
102
RTVSPost2010PropOp55
 70
     1
102
RTVSPost2010Prop56
140
1.0
102
RTVSPost2010PropOp56
 70
     1
102
RTVSPost2010Prop57
140
1.0
102
RTVSPost2010PropOp57
 70
     1
102
RTVSPropertyOp0
 70
     1
102
RTVSPropertyOp1
 70
     1
102
RTVSPropertyOp2
 70
     1
102
RTVSPropertyOp3
 70
     1
102
RTVSPropertyOp4
 70
     1
102
RTVSPropertyOp5
 70
     1
102
RTVSPropertyOp6
 70
     1
102
RTVSPropertyOp7
 70
     1
102
RTVSPropertyOp8
 70
     1
102
RTVSPropertyOp9
 70
     1
102
RTVSPropertyOp10
 70
     1
102
RTVSPropertyOp11
 70
     1
102
RTVSPropertyOp12
 70
     1
102
RTVSPropertyOp13
 70
     1
102
RTVSPropertyOp14
 70
     1
102
RTVSPropertyOp15
 70
     1
102
RTVSPropertyOp16
 70
     1
102
RTVSPropertyOp17
 70
     1
102
RTVSPropertyOp18
 70
     1
102
RTVSPropertyOp19
 70
     1
102
RTVSPropertyOp20
 70
     1
102
RTVSPropertyOp21
 70
     1
102
RTVSPropertyOp22
 70
     1
102
RTVSPropertyOp23
 70
     1
102
RTVSPropertyOp24
 70
     1
102
RTVSPropertyOp25
 70
     1
102
RTVSPropertyOp26
 70
     1
102
RTVSPropertyOp27
 70
     1
102
RTVSPropertyOp28
 70
     1
102
RTVSPropertyOp29
 70
     1
102
RTVSPropertyOp30
 70
     1
102
RTVSPropertyOp31
 70
     1
102
RTVSPropertyOp32
 70
     1
102
RTVSPropertyOp33
 70
     1
102
RTVSPropertyOp34
 70
     1
102
RTVSPropertyOp35
 70
     1
102
RTVSPropertyOp36
 70
     1
102
RTVSPropertyOp37
 70
     1
102
RTVSPropertyOp38
 70
     1
102
RTVSPropertyOp39
 70
     1
102
RTVSPropertyOp40
 70
     1
102
RTVSPropertyOp41
 70
     1
102
RTVSPropertyOp42
 70
     1
102
RTVSPropertyOp43
 70
     1
102
RTVSPropertyOp44
 70
     1
102
RTVSPropertyOp45
 70
     1
102
RTVSPropertyOp46
 70
     1
102
RTVSPropertyOp47
 70
     1
102
RTVSPropertyOp48
 70
     1
102
RTVSPropertyOp49
 70
     1
102
RTVSPropertyOp50
 70
     1
102
RTVSPropertyOp51
 70
     0
102
RTVSPropertyOp52
 70
     0
102
RTVSPropertyOp53
 70
     1
102
RTVSPropertyOp54
 70
     1
102
RTVSPropertyOp55
 70
     1
102
RTVSPropertyOp56
 70
     1
102
RTVSPropertyOp57
 70
     1
102
RTVSPropertyOp58
 70
     1
102
RTVSPropertyOp59
 70
     1
102
RTVSPropertyOp60
 70
     1
102
RTVSPropertyOp61
 70
     1
102
RTVSPropertyOp62
 70
     1
  0
XRECORD
  5
32B
102
{ACAD_REACTORS
330
32A
102
}
330
32A
100
AcDbXrecord
280
     1
102
RTVSPost2010Prop28
280
     0
102
RTVSPost2010PropOp28
 70
     1
102
RTVSPost2010Prop29
280
     1
102
RTVSPost2010PropOp29
 70
     1
102
RTVSPost2010Prop30
280
     1
102
RTVSPost2010PropOp30
 70
     1
102
RTVSPost2010Prop31
280
     0
102
RTVSPost2010PropOp31
 70
     1
102
RTVSPost2010Prop32
280
     0
102
RTVSPost2010PropOp32
 70
     1
102
RTVSPost2010Prop33
280
     0
102
RTVSPost2010PropOp33
 70
     1
102
RTVSPost2010Prop34
280
     0
102
RTVSPost2010PropOp34
 70
     1
102
RTVSPost2010Prop35
280
     0
102
RTVSPost2010PropOp35
 70
     1
102
RTVSPost2010Prop36
280
     0
102
RTVSPost2010PropOp36
 70
     1
102
RTVSPost2010Prop37
 90
       50
102
RTVSPost2010PropOp37
 70
     1
102
RTVSPost2010Prop38
140
0.0
102
RTVSPost2010PropOp38
 70
     1
102
RTVSPost2010Prop39
140
1.0
102
RTVSPost2010PropOp39
 70
     1
102
RTVSPost2010Prop40
 90
        0
102
RTVSPost2010PropOp40
 70
     1
102
RTVSPost2010Prop41ColorIndex
 90
       18
102
RTVSPost2010Prop41ColorRGB
 90
        0
102
RTVSPost2010PropOp41
 70
     1
102
RTVSPost2010Prop42
 90
       50
102
RTVSPost2010PropOp42
 70
     1
102
RTVSPost2010Prop43
 90
        3
102
RTVSPost2010PropOp43
 70
     1
102
RTVSPost2010Prop44ColorIndex
 90
        5
102
RTVSPost2010Prop44ColorRGB
 90
      255
102
RTVSPost2010PropOp44
 70
     1
102
RTVSPost2010Prop45
280
     0
102
RTVSPost2010PropOp45
 70
     1
102
RTVSPost2010Prop46
 90
       50
102
RTVSPost2010PropOp46
 70
     1
102
RTVSPost2010Prop47
 90
       50
102
RTVSPost2010PropOp47
 70
     1
102
RTVSPost2010Prop48
 90
       50
102
RTVSPost2010PropOp48
 70
     1
102
RTVSPost2010Prop49
280
     0
102
RTVSPost2010PropOp49
 70
     1
102
RTVSPost2010Prop50
 90
       50
102
RTVSPost2010PropOp50
 70
     1
102
RTVSPost2010Prop51ColorIndex
 90
      256
102
RTVSPost2010Prop51ColorRGB
 90
-16777216
102
RTVSPost2010PropOp51
 70
     0
102
RTVSPost2010Prop52
140
1.0
102
RTVSPost2010PropOp52
 70
     0
102
RTVSPost2010Prop53
 90
        2
102
RTVSPost2010PropOp53
 70
     1
102
RTVSPost2010Prop54
  1
strokes_ogs.tif
102
RTVSPost2010PropOp54
 70
     1
102
RTVSPost2010Prop55
280
     0
102
RTVSPost2010PropOp55
 70
     1
102
RTVSPost2010Prop56
140
1.0
102
RTVSPost2010PropOp56
 70
     1
102
RTVSPost2010Prop57
140
1.0
102
RTVSPost2010PropOp57
 70
     1
102
RTVSPropertyOp0
 70
     1
102
RTVSPropertyOp1
 70
     1
102
RTVSPropertyOp2
 70
     1
102
RTVSPropertyOp3
 70
     1
102
RTVSPropertyOp4
 70
     1
102
RTVSPropertyOp5
 70
     1
102
RTVSPropertyOp6
 70
     1
102
RTVSPropertyOp7
 70
     1
102
RTVSPropertyOp8
 70
     1
102
RTVSPropertyOp9
 70
     1
102
RTVSPropertyOp10
 70
     1
102
RTVSPropertyOp11
 70
     1
102
RTVSPropertyOp12
 70
     1
102
RTVSPropertyOp13
 70
     1
102
RTVSPropertyOp14
 70
     1
102
RTVSPropertyOp15
 70
     1
102
RTVSPropertyOp16
 70
     1
102
RTVSPropertyOp17
 70
     1
102
RTVSPropertyOp18
 70
     1
102
RTVSPropertyOp19
 70
     1
102
RTVSPropertyOp20
 70
     1
102
RTVSPropertyOp21
 70
     1
102
RTVSPropertyOp22
 70
     1
102
RTVSPropertyOp23
 70
     1
102
RTVSPropertyOp24
 70
     1
102
RTVSPropertyOp25
 70
     1
102
RTVSPropertyOp26
 70
     1
102
RTVSPropertyOp27
 70
     1
102
RTVSPropertyOp28
 70
     1
102
RTVSPropertyOp29
 70
     1
102
RTVSPropertyOp30
 70
     1
102
RTVSPropertyOp31
 70
     1
102
RTVSPropertyOp32
 70
     1
102
RTVSPropertyOp33
 70
     1
102
RTVSPropertyOp34
 70
     1
102
RTVSPropertyOp35
 70
     1
102
RTVSPropertyOp36
 70
     1
102
RTVSPropertyOp37
 70
     1
102
RTVSPropertyOp38
 70
     1
102
RTVSPropertyOp39
 70
     1
102
RTVSPropertyOp40
 70
     1
102
RTVSPropertyOp41
 70
     1
102
RTVSPropertyOp42
 70
     1
102
RTVSPropertyOp43
 70
     1
102
RTVSPropertyOp44
 70
     1
102
RTVSPropertyOp45
 70
     1
102
RTVSPropertyOp46
 70
     1
102
RTVSPropertyOp47
 70
     1
102
RTVSPropertyOp48
 70
     1
102
RTVSPropertyOp49
 70
     1
102
RTVSPropertyOp50
 70
     1
102
RTVSPropertyOp51
 70
     0
102
RTVSPropertyOp52
 70
     0
102
RTVSPropertyOp53
 70
     1
102
RTVSPropertyOp54
 70
     1
102
RTVSPropertyOp55
 70
     1
102
RTVSPropertyOp56
 70
     1
102
RTVSPropertyOp57
 70
     1
102
RTVSPropertyOp58
 70
     1
102
RTVSPropertyOp59
 70
     1
102
RTVSPropertyOp60
 70
     1
102
RTVSPropertyOp61
 70
     1
102
RTVSPropertyOp62
 70
     1
  0
XRECORD
  5
32D
102
{ACAD_REACTORS
330
32C
102
}
330
32C
100
AcDbXrecord
280
     1
102
RTVSPost2010Prop28
280
     0
102
RTVSPost2010PropOp28
 70
     1
102
RTVSPost2010Prop29
280
     1
102
RTVSPost2010PropOp29
 70
     1
102
RTVSPost2010Prop30
280
     1
102
RTVSPost2010PropOp30
 70
     1
102
RTVSPost2010Prop31
280
     0
102
RTVSPost2010PropOp31
 70
     1
102
RTVSPost2010Prop32
280
     0
102
RTVSPost2010PropOp32
 70
     1
102
RTVSPost2010Prop33
280
     0
102
RTVSPost2010PropOp33
 70
     1
102
RTVSPost2010Prop34
280
     0
102
RTVSPost2010PropOp34
 70
     1
102
RTVSPost2010Prop35
280
     0
102
RTVSPost2010PropOp35
 70
     1
102
RTVSPost2010Prop36
280
     0
102
RTVSPost2010PropOp36
 70
     1
102
RTVSPost2010Prop37
 90
       50
102
RTVSPost2010PropOp37
 70
     1
102
RTVSPost2010Prop38
140
0.0
102
RTVSPost2010PropOp38
 70
     1
102
RTVSPost2010Prop39
140
1.0
102
RTVSPost2010PropOp39
 70
     1
102
RTVSPost2010Prop40
 90
        0
102
RTVSPost2010PropOp40
 70
     1
102
RTVSPost2010Prop41ColorIndex
 90
       18
102
RTVSPost2010Prop41ColorRGB
 90
        0
102
RTVSPost2010PropOp41
 70
     1
102
RTVSPost2010Prop42
 90
       50
102
RTVSPost2010PropOp42
 70
     1
102
RTVSPost2010Prop43
 90
        3
102
RTVSPost2010PropOp43
 70
     1
102
RTVSPost2010Prop44ColorIndex
 90
        5
102
RTVSPost2010Prop44ColorRGB
 90
      255
102
RTVSPost2010PropOp44
 70
     1
102
RTVSPost2010Prop45
280
     0
102
RTVSPost2010PropOp45
 70
     1
102
RTVSPost2010Prop46
 90
       50
102
RTVSPost2010PropOp46
 70
     1
102
RTVSPost2010Prop47
 90
       50
102
RTVSPost2010PropOp47
 70
     1
102
RTVSPost2010Prop48
 90
       50
102
RTVSPost2010PropOp48
 70
     1
102
RTVSPost2010Prop49
280
     0
102
RTVSPost2010PropOp49
 70
     1
102
RTVSPost2010Prop50
 90
       50
102
RTVSPost2010PropOp50
 70
     1
102
RTVSPost2010Prop51ColorIndex
 90
      256
102
RTVSPost2010Prop51ColorRGB
 90
-16777216
102
RTVSPost2010PropOp51
 70
     0
102
RTVSPost2010Prop52
140
1.0
102
RTVSPost2010PropOp52
 70
     0
102
RTVSPost2010Prop53
 90
        2
102
RTVSPost2010PropOp53
 70
     1
102
RTVSPost2010Prop54
  1
strokes_ogs.tif
102
RTVSPost2010PropOp54
 70
     1
102
RTVSPost2010Prop55
280
     0
102
RTVSPost2010PropOp55
 70
     1
102
RTVSPost2010Prop56
140
1.0
102
RTVSPost2010PropOp56
 70
     1
102
RTVSPost2010Prop57
140
1.0
102
RTVSPost2010PropOp57
 70
     1
102
RTVSPropertyOp0
 70
     1
102
RTVSPropertyOp1
 70
     1
102
RTVSPropertyOp2
 70
     1
102
RTVSPropertyOp3
 70
     1
102
RTVSPropertyOp4
 70
     1
102
RTVSPropertyOp5
 70
     1
102
RTVSPropertyOp6
 70
     1
102
RTVSPropertyOp7
 70
     1
102
RTVSPropertyOp8
 70
     1
102
RTVSPropertyOp9
 70
     1
102
RTVSPropertyOp10
 70
     1
102
RTVSPropertyOp11
 70
     1
102
RTVSPropertyOp12
 70
     1
102
RTVSPropertyOp13
 70
     1
102
RTVSPropertyOp14
 70
     1
102
RTVSPropertyOp15
 70
     1
102
RTVSPropertyOp16
 70
     1
102
RTVSPropertyOp17
 70
     1
102
RTVSPropertyOp18
 70
     1
102
RTVSPropertyOp19
 70
     1
102
RTVSPropertyOp20
 70
     1
102
RTVSPropertyOp21
 70
     1
102
RTVSPropertyOp22
 70
     1
102
RTVSPropertyOp23
 70
     1
102
RTVSPropertyOp24
 70
     1
102
RTVSPropertyOp25
 70
     1
102
RTVSPropertyOp26
 70
     1
102
RTVSPropertyOp27
 70
     1
102
RTVSPropertyOp28
 70
     1
102
RTVSPropertyOp29
 70
     1
102
RTVSPropertyOp30
 70
     1
102
RTVSPropertyOp31
 70
     1
102
RTVSPropertyOp32
 70
     1
102
RTVSPropertyOp33
 70
     1
102
RTVSPropertyOp34
 70
     1
102
RTVSPropertyOp35
 70
     1
102
RTVSPropertyOp36
 70
     1
102
RTVSPropertyOp37
 70
     1
102
RTVSPropertyOp38
 70
     1
102
RTVSPropertyOp39
 70
     1
102
RTVSPropertyOp40
 70
     1
102
RTVSPropertyOp41
 70
     1
102
RTVSPropertyOp42
 70
     1
102
RTVSPropertyOp43
 70
     1
102
RTVSPropertyOp44
 70
     1
102
RTVSPropertyOp45
 70
     1
102
RTVSPropertyOp46
 70
     1
102
RTVSPropertyOp47
 70
     1
102
RTVSPropertyOp48
 70
     1
102
RTVSPropertyOp49
 70
     1
102
RTVSPropertyOp50
 70
     1
102
RTVSPropertyOp51
 70
     0
102
RTVSPropertyOp52
 70
     0
102
RTVSPropertyOp53
 70
     1
102
RTVSPropertyOp54
 70
     1
102
RTVSPropertyOp55
 70
     1
102
RTVSPropertyOp56
 70
     1
102
RTVSPropertyOp57
 70
     1
102
RTVSPropertyOp58
 70
     1
102
RTVSPropertyOp59
 70
     1
102
RTVSPropertyOp60
 70
     1
102
RTVSPropertyOp61
 70
     1
102
RTVSPropertyOp62
 70
     1
  0
XRECORD
  5
33D
102
{ACAD_REACTORS
330
33C
102
}
330
33C
100
AcDbXrecord
280
     1
102
RTVSPost2010Prop28
280
     0
102
RTVSPost2010PropOp28
 70
     0
102
RTVSPost2010Prop29
280
     1
102
RTVSPost2010PropOp29
 70
     0
102
RTVSPost2010Prop30
280
     1
102
RTVSPost2010PropOp30
 70
     0
102
RTVSPost2010Prop31
280
     0
102
RTVSPost2010PropOp31
 70
     0
102
RTVSPost2010Prop32
280
     0
102
RTVSPost2010PropOp32
 70
     0
102
RTVSPost2010Prop33
280
     0
102
RTVSPost2010PropOp33
 70
     0
102
RTVSPost2010Prop34
280
     0
102
RTVSPost2010PropOp34
 70
     0
102
RTVSPost2010Prop35
280
     0
102
RTVSPost2010PropOp35
 70
     0
102
RTVSPost2010Prop36
280
     0
102
RTVSPost2010PropOp36
 70
     0
102
RTVSPost2010Prop37
 90
       50
102
RTVSPost2010PropOp37
 70
     0
102
RTVSPost2010Prop38
140
0.0
102
RTVSPost2010PropOp38
 70
     0
102
RTVSPost2010Prop39
140
1.0
102
RTVSPost2010PropOp39
 70
     0
102
RTVSPost2010Prop40
 90
        0
102
RTVSPost2010PropOp40
 70
     0
102
RTVSPost2010Prop41ColorIndex
 90
       18
102
RTVSPost2010Prop41ColorRGB
 90
        0
102
RTVSPost2010PropOp41
 70
     0
102
RTVSPost2010Prop42
 90
       50
102
RTVSPost2010PropOp42
 70
     0
102
RTVSPost2010Prop43
 90
        3
102
RTVSPost2010PropOp43
 70
     0
102
RTVSPost2010Prop44ColorIndex
 90
        5
102
RTVSPost2010Prop44ColorRGB
 90
      255
102
RTVSPost2010PropOp44
 70
     0
102
RTVSPost2010Prop45
280
     0
102
RTVSPost2010PropOp45
 70
     0
102
RTVSPost2010Prop46
 90
       50
102
RTVSPost2010PropOp46
 70
     0
102
RTVSPost2010Prop47
 90
       50
102
RTVSPost2010PropOp47
 70
     0
102
RTVSPost2010Prop48
 90
       50
102
RTVSPost2010PropOp48
 70
     0
102
RTVSPost2010Prop49
280
     0
102
RTVSPost2010PropOp49
 70
     0
102
RTVSPost2010Prop50
 90
       50
102
RTVSPost2010PropOp50
 70
     0
102
RTVSPost2010Prop51ColorIndex
 90
      256
102
RTVSPost2010Prop51ColorRGB
 90
-16777216
102
RTVSPost2010PropOp51
 70
     0
102
RTVSPost2010Prop52
140
1.0
102
RTVSPost2010PropOp52
 70
     0
102
RTVSPost2010Prop53
 90
        2
102
RTVSPost2010PropOp53
 70
     0
102
RTVSPost2010Prop54
  1
strokes_ogs.tif
102
RTVSPost2010PropOp54
 70
     0
102
RTVSPost2010Prop55
280
     0
102
RTVSPost2010PropOp55
 70
     0
102
RTVSPost2010Prop56
140
1.0
102
RTVSPost2010PropOp56
 70
     0
102
RTVSPost2010Prop57
140
1.0
102
RTVSPost2010PropOp57
 70
     0
102
RTVSPropertyOp0
 70
     0
102
RTVSPropertyOp1
 70
     0
102
RTVSPropertyOp2
 70
     0
102
RTVSPropertyOp3
 70
     0
102
RTVSPropertyOp4
 70
     0
102
RTVSPropertyOp5
 70
     0
102
RTVSPropertyOp6
 70
     0
102
RTVSPropertyOp7
 70
     0
102
RTVSPropertyOp8
 70
     0
102
RTVSPropertyOp9
 70
     0
102
RTVSPropertyOp10
 70
     0
102
RTVSPropertyOp11
 70
     0
102
RTVSPropertyOp12
 70
     0
102
RTVSPropertyOp13
 70
     0
102
RTVSPropertyOp14
 70
     2
102
RTVSPropertyOp15
 70
     0
102
RTVSPropertyOp16
 70
     0
102
RTVSPropertyOp17
 70
     0
102
RTVSPropertyOp18
 70
     0
102
RTVSPropertyOp19
 70
     0
102
RTVSPropertyOp20
 70
     0
102
RTVSPropertyOp21
 70
     0
102
RTVSPropertyOp22
 70
     0
102
RTVSPropertyOp23
 70
     0
102
RTVSPropertyOp24
 70
     0
102
RTVSPropertyOp25
 70
     0
102
RTVSPropertyOp26
 70
     0
102
RTVSPropertyOp27
 70
     0
102
RTVSPropertyOp28
 70
     0
102
RTVSPropertyOp29
 70
     0
102
RTVSPropertyOp30
 70
     0
102
RTVSPropertyOp31
 70
     0
102
RTVSPropertyOp32
 70
     0
102
RTVSPropertyOp33
 70
     0
102
RTVSPropertyOp34
 70
     0
102
RTVSPropertyOp35
 70
     0
102
RTVSPropertyOp36
 70
     0
102
RTVSPropertyOp37
 70
     0
102
RTVSPropertyOp38
 70
     0
102
RTVSPropertyOp39
 70
     0
102
RTVSPropertyOp40
 70
     0
102
RTVSPropertyOp41
 70
     0
102
RTVSPropertyOp42
 70
     0
102
RTVSPropertyOp43
 70
     0
102
RTVSPropertyOp44
 70
     0
102
RTVSPropertyOp45
 70
     0
102
RTVSPropertyOp46
 70
     0
102
RTVSPropertyOp47
 70
     0
102
RTVSPropertyOp48
 70
     0
102
RTVSPropertyOp49
 70
     0
102
RTVSPropertyOp50
 70
     0
102
RTVSPropertyOp51
 70
     0
102
RTVSPropertyOp52
 70
     0
102
RTVSPropertyOp53
 70
     0
102
RTVSPropertyOp54
 70
     0
102
RTVSPropertyOp55
 70
     0
102
RTVSPropertyOp56
 70
     0
102
RTVSPropertyOp57
 70
     0
102
RTVSPropertyOp58
 70
     1
102
RTVSPropertyOp59
 70
     1
102
RTVSPropertyOp60
 70
     1
102
RTVSPropertyOp61
 70
     1
102
RTVSPropertyOp62
 70
     1
  0
XRECORD
  5
335
102
{ACAD_REACTORS
330
334
102
}
330
334
100
AcDbXrecord
280
     1
102
RTVSPost2010Prop28
280
     0
102
RTVSPost2010PropOp28
 70
     1
102
RTVSPost2010Prop29
280
     1
102
RTVSPost2010PropOp29
 70
     1
102
RTVSPost2010Prop30
280
     1
102
RTVSPost2010PropOp30
 70
     1
102
RTVSPost2010Prop31
280
     0
102
RTVSPost2010PropOp31
 70
     1
102
RTVSPost2010Prop32
280
     0
102
RTVSPost2010PropOp32
 70
     1
102
RTVSPost2010Prop33
280
     0
102
RTVSPost2010PropOp33
 70
     1
102
RTVSPost2010Prop34
280
     0
102
RTVSPost2010PropOp34
 70
     1
102
RTVSPost2010Prop35
280
     0
102
RTVSPost2010PropOp35
 70
     1
102
RTVSPost2010Prop36
280
     0
102
RTVSPost2010PropOp36
 70
     1
102
RTVSPost2010Prop37
 90
       50
102
RTVSPost2010PropOp37
 70
     1
102
RTVSPost2010Prop38
140
0.0
102
RTVSPost2010PropOp38
 70
     1
102
RTVSPost2010Prop39
140
1.0
102
RTVSPost2010PropOp39
 70
     1
102
RTVSPost2010Prop40
 90
        0
102
RTVSPost2010PropOp40
 70
     1
102
RTVSPost2010Prop41ColorIndex
 90
       18
102
RTVSPost2010Prop41ColorRGB
 90
        0
102
RTVSPost2010PropOp41
 70
     1
102
RTVSPost2010Prop42
 90
       50
102
RTVSPost2010PropOp42
 70
     1
102
RTVSPost2010Prop43
 90
        3
102
RTVSPost2010PropOp43
 70
     1
102
RTVSPost2010Prop44ColorIndex
 90
        5
102
RTVSPost2010Prop44ColorRGB
 90
      255
102
RTVSPost2010PropOp44
 70
     1
102
RTVSPost2010Prop45
280
     0
102
RTVSPost2010PropOp45
 70
     1
102
RTVSPost2010Prop46
 90
       50
102
RTVSPost2010PropOp46
 70
     1
102
RTVSPost2010Prop47
 90
       50
102
RTVSPost2010PropOp47
 70
     1
102
RTVSPost2010Prop48
 90
       50
102
RTVSPost2010PropOp48
 70
     1
102
RTVSPost2010Prop49
280
     0
102
RTVSPost2010PropOp49
 70
     1
102
RTVSPost2010Prop50
 90
       50
102
RTVSPost2010PropOp50
 70
     1
102
RTVSPost2010Prop51ColorIndex
 90
      256
102
RTVSPost2010Prop51ColorRGB
 90
-16777216
102
RTVSPost2010PropOp51
 70
     0
102
RTVSPost2010Prop52
140
1.0
102
RTVSPost2010PropOp52
 70
     0
102
RTVSPost2010Prop53
 90
        2
102
RTVSPost2010PropOp53
 70
     1
102
RTVSPost2010Prop54
  1
strokes_ogs.tif
102
RTVSPost2010PropOp54
 70
     1
102
RTVSPost2010Prop55
280
     0
102
RTVSPost2010PropOp55
 70
     1
102
RTVSPost2010Prop56
140
1.0
102
RTVSPost2010PropOp56
 70
     1
102
RTVSPost2010Prop57
140
1.0
102
RTVSPost2010PropOp57
 70
     1
102
RTVSPropertyOp0
 70
     1
102
RTVSPropertyOp1
 70
     1
102
RTVSPropertyOp2
 70
     1
102
RTVSPropertyOp3
 70
     1
102
RTVSPropertyOp4
 70
     1
102
RTVSPropertyOp5
 70
     1
102
RTVSPropertyOp6
 70
     1
102
RTVSPropertyOp7
 70
     1
102
RTVSPropertyOp8
 70
     1
102
RTVSPropertyOp9
 70
     1
102
RTVSPropertyOp10
 70
     1
102
RTVSPropertyOp11
 70
     1
102
RTVSPropertyOp12
 70
     1
102
RTVSPropertyOp13
 70
     1
102
RTVSPropertyOp14
 70
     1
102
RTVSPropertyOp15
 70
     1
102
RTVSPropertyOp16
 70
     1
102
RTVSPropertyOp17
 70
     1
102
RTVSPropertyOp18
 70
     1
102
RTVSPropertyOp19
 70
     1
102
RTVSPropertyOp20
 70
     1
102
RTVSPropertyOp21
 70
     1
102
RTVSPropertyOp22
 70
     1
102
RTVSPropertyOp23
 70
     1
102
RTVSPropertyOp24
 70
     1
102
RTVSPropertyOp25
 70
     1
102
RTVSPropertyOp26
 70
     1
102
RTVSPropertyOp27
 70
     1
102
RTVSPropertyOp28
 70
     1
102
RTVSPropertyOp29
 70
     1
102
RTVSPropertyOp30
 70
     1
102
RTVSPropertyOp31
 70
     1
102
RTVSPropertyOp32
 70
     1
102
RTVSPropertyOp33
 70
     1
102
RTVSPropertyOp34
 70
     1
102
RTVSPropertyOp35
 70
     1
102
RTVSPropertyOp36
 70
     1
102
RTVSPropertyOp37
 70
     1
102
RTVSPropertyOp38
 70
     1
102
RTVSPropertyOp39
 70
     1
102
RTVSPropertyOp40
 70
     1
102
RTVSPropertyOp41
 70
     1
102
RTVSPropertyOp42
 70
     1
102
RTVSPropertyOp43
 70
     1
102
RTVSPropertyOp44
 70
     1
102
RTVSPropertyOp45
 70
     1
102
RTVSPropertyOp46
 70
     1
102
RTVSPropertyOp47
 70
     1
102
RTVSPropertyOp48
 70
     1
102
RTVSPropertyOp49
 70
     1
102
RTVSPropertyOp50
 70
     1
102
RTVSPropertyOp51
 70
     0
102
RTVSPropertyOp52
 70
     0
102
RTVSPropertyOp53
 70
     1
102
RTVSPropertyOp54
 70
     1
102
RTVSPropertyOp55
 70
     1
102
RTVSPropertyOp56
 70
     1
102
RTVSPropertyOp57
 70
     1
102
RTVSPropertyOp58
 70
     1
102
RTVSPropertyOp59
 70
     1
102
RTVSPropertyOp60
 70
     1
102
RTVSPropertyOp61
 70
     1
102
RTVSPropertyOp62
 70
     1
  0
XRECORD
  5
319
102
{ACAD_REACTORS
330
318
102
}
330
318
100
AcDbXrecord
280
     1
102
RTVSPost2010Prop28
280
     0
102
RTVSPost2010PropOp28
 70
     1
102
RTVSPost2010Prop29
280
     1
102
RTVSPost2010PropOp29
 70
     1
102
RTVSPost2010Prop30
280
     1
102
RTVSPost2010PropOp30
 70
     1
102
RTVSPost2010Prop31
280
     0
102
RTVSPost2010PropOp31
 70
     1
102
RTVSPost2010Prop32
280
     0
102
RTVSPost2010PropOp32
 70
     1
102
RTVSPost2010Prop33
280
     0
102
RTVSPost2010PropOp33
 70
     1
102
RTVSPost2010Prop34
280
     0
102
RTVSPost2010PropOp34
 70
     1
102
RTVSPost2010Prop35
280
     0
102
RTVSPost2010PropOp35
 70
     1
102
RTVSPost2010Prop36
280
     0
102
RTVSPost2010PropOp36
 70
     1
102
RTVSPost2010Prop37
 90
       50
102
RTVSPost2010PropOp37
 70
     1
102
RTVSPost2010Prop38
140
0.0
102
RTVSPost2010PropOp38
 70
     1
102
RTVSPost2010Prop39
140
1.0
102
RTVSPost2010PropOp39
 70
     1
102
RTVSPost2010Prop40
 90
        0
102
RTVSPost2010PropOp40
 70
     1
102
RTVSPost2010Prop41ColorIndex
 90
       18
102
RTVSPost2010Prop41ColorRGB
 90
        0
102
RTVSPost2010PropOp41
 70
     1
102
RTVSPost2010Prop42
 90
       50
102
RTVSPost2010PropOp42
 70
     1
102
RTVSPost2010Prop43
 90
        3
102
RTVSPost2010PropOp43
 70
     1
102
RTVSPost2010Prop44ColorIndex
 90
        5
102
RTVSPost2010Prop44ColorRGB
 90
      255
102
RTVSPost2010PropOp44
 70
     1
102
RTVSPost2010Prop45
280
     0
102
RTVSPost2010PropOp45
 70
     1
102
RTVSPost2010Prop46
 90
       50
102
RTVSPost2010PropOp46
 70
     1
102
RTVSPost2010Prop47
 90
       50
102
RTVSPost2010PropOp47
 70
     1
102
RTVSPost2010Prop48
 90
       50
102
RTVSPost2010PropOp48
 70
     1
102
RTVSPost2010Prop49
280
     0
102
RTVSPost2010PropOp49
 70
     1
102
RTVSPost2010Prop50
 90
       50
102
RTVSPost2010PropOp50
 70
     1
102
RTVSPost2010Prop51ColorIndex
 90
      256
102
RTVSPost2010Prop51ColorRGB
 90
-16777216
102
RTVSPost2010PropOp51
 70
     0
102
RTVSPost2010Prop52
140
1.0
102
RTVSPost2010PropOp52
 70
     0
102
RTVSPost2010Prop53
 90
        2
102
RTVSPost2010PropOp53
 70
     1
102
RTVSPost2010Prop54
  1
strokes_ogs.tif
102
RTVSPost2010PropOp54
 70
     1
102
RTVSPost2010Prop55
280
     0
102
RTVSPost2010PropOp55
 70
     1
102
RTVSPost2010Prop56
140
1.0
102
RTVSPost2010PropOp56
 70
     1
102
RTVSPost2010Prop57
140
1.0
102
RTVSPost2010PropOp57
 70
     1
102
RTVSPropertyOp0
 70
     1
102
RTVSPropertyOp1
 70
     1
102
RTVSPropertyOp2
 70
     1
102
RTVSPropertyOp3
 70
     1
102
RTVSPropertyOp4
 70
     1
102
RTVSPropertyOp5
 70
     1
102
RTVSPropertyOp6
 70
     1
102
RTVSPropertyOp7
 70
     1
102
RTVSPropertyOp8
 70
     1
102
RTVSPropertyOp9
 70
     1
102
RTVSPropertyOp10
 70
     1
102
RTVSPropertyOp11
 70
     1
102
RTVSPropertyOp12
 70
     1
102
RTVSPropertyOp13
 70
     1
102
RTVSPropertyOp14
 70
     1
102
RTVSPropertyOp15
 70
     1
102
RTVSPropertyOp16
 70
     1
102
RTVSPropertyOp17
 70
     1
102
RTVSPropertyOp18
 70
     1
102
RTVSPropertyOp19
 70
     1
102
RTVSPropertyOp20
 70
     1
102
RTVSPropertyOp21
 70
     1
102
RTVSPropertyOp22
 70
     1
102
RTVSPropertyOp23
 70
     1
102
RTVSPropertyOp24
 70
     1
102
RTVSPropertyOp25
 70
     1
102
RTVSPropertyOp26
 70
     1
102
RTVSPropertyOp27
 70
     1
102
RTVSPropertyOp28
 70
     1
102
RTVSPropertyOp29
 70
     1
102
RTVSPropertyOp30
 70
     1
102
RTVSPropertyOp31
 70
     1
102
RTVSPropertyOp32
 70
     1
102
RTVSPropertyOp33
 70
     1
102
RTVSPropertyOp34
 70
     1
102
RTVSPropertyOp35
 70
     1
102
RTVSPropertyOp36
 70
     1
102
RTVSPropertyOp37
 70
     1
102
RTVSPropertyOp38
 70
     1
102
RTVSPropertyOp39
 70
     1
102
RTVSPropertyOp40
 70
     1
102
RTVSPropertyOp41
 70
     1
102
RTVSPropertyOp42
 70
     1
102
RTVSPropertyOp43
 70
     1
102
RTVSPropertyOp44
 70
     1
102
RTVSPropertyOp45
 70
     1
102
RTVSPropertyOp46
 70
     1
102
RTVSPropertyOp47
 70
     1
102
RTVSPropertyOp48
 70
     1
102
RTVSPropertyOp49
 70
     1
102
RTVSPropertyOp50
 70
     1
102
RTVSPropertyOp51
 70
     0
102
RTVSPropertyOp52
 70
     0
102
RTVSPropertyOp53
 70
     1
102
RTVSPropertyOp54
 70
     1
102
RTVSPropertyOp55
 70
     1
102
RTVSPropertyOp56
 70
     1
102
RTVSPropertyOp57
 70
     1
102
RTVSPropertyOp58
 70
     1
102
RTVSPropertyOp59
 70
     1
102
RTVSPropertyOp60
 70
     1
102
RTVSPropertyOp61
 70
     1
102
RTVSPropertyOp62
 70
     1
  0
XRECORD
  5
31B
102
{ACAD_REACTORS
330
31A
102
}
330
31A
100
AcDbXrecord
280
     1
102
RTVSPost2010Prop28
280
     0
102
RTVSPost2010PropOp28
 70
     1
102
RTVSPost2010Prop29
280
     1
102
RTVSPost2010PropOp29
 70
     1
102
RTVSPost2010Prop30
280
     1
102
RTVSPost2010PropOp30
 70
     1
102
RTVSPost2010Prop31
280
     0
102
RTVSPost2010PropOp31
 70
     1
102
RTVSPost2010Prop32
280
     0
102
RTVSPost2010PropOp32
 70
     1
102
RTVSPost2010Prop33
280
     0
102
RTVSPost2010PropOp33
 70
     1
102
RTVSPost2010Prop34
280
     0
102
RTVSPost2010PropOp34
 70
     1
102
RTVSPost2010Prop35
280
     0
102
RTVSPost2010PropOp35
 70
     1
102
RTVSPost2010Prop36
280
     0
102
RTVSPost2010PropOp36
 70
     1
102
RTVSPost2010Prop37
 90
       50
102
RTVSPost2010PropOp37
 70
     1
102
RTVSPost2010Prop38
140
0.0
102
RTVSPost2010PropOp38
 70
     1
102
RTVSPost2010Prop39
140
1.0
102
RTVSPost2010PropOp39
 70
     1
102
RTVSPost2010Prop40
 90
        0
102
RTVSPost2010PropOp40
 70
     1
102
RTVSPost2010Prop41ColorIndex
 90
       18
102
RTVSPost2010Prop41ColorRGB
 90
        0
102
RTVSPost2010PropOp41
 70
     1
102
RTVSPost2010Prop42
 90
       50
102
RTVSPost2010PropOp42
 70
     1
102
RTVSPost2010Prop43
 90
        3
102
RTVSPost2010PropOp43
 70
     1
102
RTVSPost2010Prop44ColorIndex
 90
        5
102
RTVSPost2010Prop44ColorRGB
 90
      255
102
RTVSPost2010PropOp44
 70
     1
102
RTVSPost2010Prop45
280
     0
102
RTVSPost2010PropOp45
 70
     1
102
RTVSPost2010Prop46
 90
       50
102
RTVSPost2010PropOp46
 70
     1
102
RTVSPost2010Prop47
 90
       50
102
RTVSPost2010PropOp47
 70
     1
102
RTVSPost2010Prop48
 90
       50
102
RTVSPost2010PropOp48
 70
     1
102
RTVSPost2010Prop49
280
     0
102
RTVSPost2010PropOp49
 70
     1
102
RTVSPost2010Prop50
 90
       50
102
RTVSPost2010PropOp50
 70
     1
102
RTVSPost2010Prop51ColorIndex
 90
      256
102
RTVSPost2010Prop51ColorRGB
 90
-16777216
102
RTVSPost2010PropOp51
 70
     0
102
RTVSPost2010Prop52
140
1.0
102
RTVSPost2010PropOp52
 70
     0
102
RTVSPost2010Prop53
 90
        2
102
RTVSPost2010PropOp53
 70
     1
102
RTVSPost2010Prop54
  1
strokes_ogs.tif
102
RTVSPost2010PropOp54
 70
     1
102
RTVSPost2010Prop55
280
     0
102
RTVSPost2010PropOp55
 70
     1
102
RTVSPost2010Prop56
140
1.0
102
RTVSPost2010PropOp56
 70
     1
102
RTVSPost2010Prop57
140
1.0
102
RTVSPost2010PropOp57
 70
     1
102
RTVSPropertyOp0
 70
     1
102
RTVSPropertyOp1
 70
     1
102
RTVSPropertyOp2
 70
     1
102
RTVSPropertyOp3
 70
     1
102
RTVSPropertyOp4
 70
     1
102
RTVSPropertyOp5
 70
     1
102
RTVSPropertyOp6
 70
     1
102
RTVSPropertyOp7
 70
     1
102
RTVSPropertyOp8
 70
     1
102
RTVSPropertyOp9
 70
     1
102
RTVSPropertyOp10
 70
     1
102
RTVSPropertyOp11
 70
     1
102
RTVSPropertyOp12
 70
     1
102
RTVSPropertyOp13
 70
     1
102
RTVSPropertyOp14
 70
     1
102
RTVSPropertyOp15
 70
     1
102
RTVSPropertyOp16
 70
     1
102
RTVSPropertyOp17
 70
     1
102
RTVSPropertyOp18
 70
     1
102
RTVSPropertyOp19
 70
     1
102
RTVSPropertyOp20
 70
     1
102
RTVSPropertyOp21
 70
     1
102
RTVSPropertyOp22
 70
     1
102
RTVSPropertyOp23
 70
     1
102
RTVSPropertyOp24
 70
     1
102
RTVSPropertyOp25
 70
     1
102
RTVSPropertyOp26
 70
     1
102
RTVSPropertyOp27
 70
     1
102
RTVSPropertyOp28
 70
     1
102
RTVSPropertyOp29
 70
     1
102
RTVSPropertyOp30
 70
     1
102
RTVSPropertyOp31
 70
     1
102
RTVSPropertyOp32
 70
     1
102
RTVSPropertyOp33
 70
     1
102
RTVSPropertyOp34
 70
     1
102
RTVSPropertyOp35
 70
     1
102
RTVSPropertyOp36
 70
     1
102
RTVSPropertyOp37
 70
     1
102
RTVSPropertyOp38
 70
     1
102
RTVSPropertyOp39
 70
     1
102
RTVSPropertyOp40
 70
     1
102
RTVSPropertyOp41
 70
     1
102
RTVSPropertyOp42
 70
     1
102
RTVSPropertyOp43
 70
     1
102
RTVSPropertyOp44
 70
     1
102
RTVSPropertyOp45
 70
     1
102
RTVSPropertyOp46
 70
     1
102
RTVSPropertyOp47
 70
     1
102
RTVSPropertyOp48
 70
     1
102
RTVSPropertyOp49
 70
     1
102
RTVSPropertyOp50
 70
     1
102
RTVSPropertyOp51
 70
     0
102
RTVSPropertyOp52
 70
     0
102
RTVSPropertyOp53
 70
     1
102
RTVSPropertyOp54
 70
     1
102
RTVSPropertyOp55
 70
     1
102
RTVSPropertyOp56
 70
     1
102
RTVSPropertyOp57
 70
     1
102
RTVSPropertyOp58
 70
     1
102
RTVSPropertyOp59
 70
     1
102
RTVSPropertyOp60
 70
     1
102
RTVSPropertyOp61
 70
     1
102
RTVSPropertyOp62
 70
     1
  0
XRECORD
  5
31D
102
{ACAD_REACTORS
330
31C
102
}
330
31C
100
AcDbXrecord
280
     1
102
RTVSPost2010Prop28
280
     0
102
RTVSPost2010PropOp28
 70
     1
102
RTVSPost2010Prop29
280
     1
102
RTVSPost2010PropOp29
 70
     1
102
RTVSPost2010Prop30
280
     1
102
RTVSPost2010PropOp30
 70
     1
102
RTVSPost2010Prop31
280
     0
102
RTVSPost2010PropOp31
 70
     1
102
RTVSPost2010Prop32
280
     0
102
RTVSPost2010PropOp32
 70
     1
102
RTVSPost2010Prop33
280
     0
102
RTVSPost2010PropOp33
 70
     1
102
RTVSPost2010Prop34
280
     0
102
RTVSPost2010PropOp34
 70
     1
102
RTVSPost2010Prop35
280
     0
102
RTVSPost2010PropOp35
 70
     1
102
RTVSPost2010Prop36
280
     0
102
RTVSPost2010PropOp36
 70
     1
102
RTVSPost2010Prop37
 90
       50
102
RTVSPost2010PropOp37
 70
     1
102
RTVSPost2010Prop38
140
0.0
102
RTVSPost2010PropOp38
 70
     1
102
RTVSPost2010Prop39
140
1.0
102
RTVSPost2010PropOp39
 70
     1
102
RTVSPost2010Prop40
 90
        0
102
RTVSPost2010PropOp40
 70
     1
102
RTVSPost2010Prop41ColorIndex
 90
       18
102
RTVSPost2010Prop41ColorRGB
 90
        0
102
RTVSPost2010PropOp41
 70
     1
102
RTVSPost2010Prop42
 90
       50
102
RTVSPost2010PropOp42
 70
     1
102
RTVSPost2010Prop43
 90
        3
102
RTVSPost2010PropOp43
 70
     1
102
RTVSPost2010Prop44ColorIndex
 90
        5
102
RTVSPost2010Prop44ColorRGB
 90
      255
102
RTVSPost2010PropOp44
 70
     1
102
RTVSPost2010Prop45
280
     0
102
RTVSPost2010PropOp45
 70
     1
102
RTVSPost2010Prop46
 90
       50
102
RTVSPost2010PropOp46
 70
     1
102
RTVSPost2010Prop47
 90
       50
102
RTVSPost2010PropOp47
 70
     1
102
RTVSPost2010Prop48
 90
       50
102
RTVSPost2010PropOp48
 70
     1
102
RTVSPost2010Prop49
280
     0
102
RTVSPost2010PropOp49
 70
     1
102
RTVSPost2010Prop50
 90
       50
102
RTVSPost2010PropOp50
 70
     1
102
RTVSPost2010Prop51ColorIndex
 90
      256
102
RTVSPost2010Prop51ColorRGB
 90
-16777216
102
RTVSPost2010PropOp51
 70
     0
102
RTVSPost2010Prop52
140
1.0
102
RTVSPost2010PropOp52
 70
     0
102
RTVSPost2010Prop53
 90
        2
102
RTVSPost2010PropOp53
 70
     1
102
RTVSPost2010Prop54
  1
strokes_ogs.tif
102
RTVSPost2010PropOp54
 70
     1
102
RTVSPost2010Prop55
280
     0
102
RTVSPost2010PropOp55
 70
     1
102
RTVSPost2010Prop56
140
1.0
102
RTVSPost2010PropOp56
 70
     1
102
RTVSPost2010Prop57
140
1.0
102
RTVSPost2010PropOp57
 70
     1
102
RTVSPropertyOp0
 70
     1
102
RTVSPropertyOp1
 70
     1
102
RTVSPropertyOp2
 70
     1
102
RTVSPropertyOp3
 70
     1
102
RTVSPropertyOp4
 70
     1
102
RTVSPropertyOp5
 70
     1
102
RTVSPropertyOp6
 70
     1
102
RTVSPropertyOp7
 70
     1
102
RTVSPropertyOp8
 70
     1
102
RTVSPropertyOp9
 70
     1
102
RTVSPropertyOp10
 70
     1
102
RTVSPropertyOp11
 70
     1
102
RTVSPropertyOp12
 70
     1
102
RTVSPropertyOp13
 70
     1
102
RTVSPropertyOp14
 70
     1
102
RTVSPropertyOp15
 70
     1
102
RTVSPropertyOp16
 70
     1
102
RTVSPropertyOp17
 70
     1
102
RTVSPropertyOp18
 70
     1
102
RTVSPropertyOp19
 70
     1
102
RTVSPropertyOp20
 70
     1
102
RTVSPropertyOp21
 70
     1
102
RTVSPropertyOp22
 70
     1
102
RTVSPropertyOp23
 70
     1
102
RTVSPropertyOp24
 70
     1
102
RTVSPropertyOp25
 70
     1
102
RTVSPropertyOp26
 70
     1
102
RTVSPropertyOp27
 70
     1
102
RTVSPropertyOp28
 70
     1
102
RTVSPropertyOp29
 70
     1
102
RTVSPropertyOp30
 70
     1
102
RTVSPropertyOp31
 70
     1
102
RTVSPropertyOp32
 70
     1
102
RTVSPropertyOp33
 70
     1
102
RTVSPropertyOp34
 70
     1
102
RTVSPropertyOp35
 70
     1
102
RTVSPropertyOp36
 70
     1
102
RTVSPropertyOp37
 70
     1
102
RTVSPropertyOp38
 70
     1
102
RTVSPropertyOp39
 70
     1
102
RTVSPropertyOp40
 70
     1
102
RTVSPropertyOp41
 70
     1
102
RTVSPropertyOp42
 70
     1
102
RTVSPropertyOp43
 70
     1
102
RTVSPropertyOp44
 70
     1
102
RTVSPropertyOp45
 70
     1
102
RTVSPropertyOp46
 70
     1
102
RTVSPropertyOp47
 70
     1
102
RTVSPropertyOp48
 70
     1
102
RTVSPropertyOp49
 70
     1
102
RTVSPropertyOp50
 70
     1
102
RTVSPropertyOp51
 70
     0
102
RTVSPropertyOp52
 70
     0
102
RTVSPropertyOp53
 70
     1
102
RTVSPropertyOp54
 70
     1
102
RTVSPropertyOp55
 70
     1
102
RTVSPropertyOp56
 70
     1
102
RTVSPropertyOp57
 70
     1
102
RTVSPropertyOp58
 70
     1
102
RTVSPropertyOp59
 70
     1
102
RTVSPropertyOp60
 70
     1
102
RTVSPropertyOp61
 70
     1
102
RTVSPropertyOp62
 70
     1
  0
XRECORD
  5
31F
102
{ACAD_REACTORS
330
31E
102
}
330
31E
100
AcDbXrecord
280
     1
102
RTVSPost2010Prop28
280
     0
102
RTVSPost2010PropOp28
 70
     1
102
RTVSPost2010Prop29
280
     1
102
RTVSPost2010PropOp29
 70
     1
102
RTVSPost2010Prop30
280
     1
102
RTVSPost2010PropOp30
 70
     1
102
RTVSPost2010Prop31
280
     0
102
RTVSPost2010PropOp31
 70
     1
102
RTVSPost2010Prop32
280
     0
102
RTVSPost2010PropOp32
 70
     1
102
RTVSPost2010Prop33
280
     0
102
RTVSPost2010PropOp33
 70
     1
102
RTVSPost2010Prop34
280
     0
102
RTVSPost2010PropOp34
 70
     1
102
RTVSPost2010Prop35
280
     0
102
RTVSPost2010PropOp35
 70
     1
102
RTVSPost2010Prop36
280
     0
102
RTVSPost2010PropOp36
 70
     1
102
RTVSPost2010Prop37
 90
       50
102
RTVSPost2010PropOp37
 70
     1
102
RTVSPost2010Prop38
140
0.0
102
RTVSPost2010PropOp38
 70
     1
102
RTVSPost2010Prop39
140
1.0
102
RTVSPost2010PropOp39
 70
     1
102
RTVSPost2010Prop40
 90
        0
102
RTVSPost2010PropOp40
 70
     1
102
RTVSPost2010Prop41ColorIndex
 90
       18
102
RTVSPost2010Prop41ColorRGB
 90
        0
102
RTVSPost2010PropOp41
 70
     1
102
RTVSPost2010Prop42
 90
       50
102
RTVSPost2010PropOp42
 70
     1
102
RTVSPost2010Prop43
 90
        3
102
RTVSPost2010PropOp43
 70
     1
102
RTVSPost2010Prop44ColorIndex
 90
        5
102
RTVSPost2010Prop44ColorRGB
 90
      255
102
RTVSPost2010PropOp44
 70
     1
102
RTVSPost2010Prop45
280
     0
102
RTVSPost2010PropOp45
 70
     1
102
RTVSPost2010Prop46
 90
       50
102
RTVSPost2010PropOp46
 70
     1
102
RTVSPost2010Prop47
 90
       50
102
RTVSPost2010PropOp47
 70
     1
102
RTVSPost2010Prop48
 90
       50
102
RTVSPost2010PropOp48
 70
     1
102
RTVSPost2010Prop49
280
     0
102
RTVSPost2010PropOp49
 70
     1
102
RTVSPost2010Prop50
 90
       50
102
RTVSPost2010PropOp50
 70
     1
102
RTVSPost2010Prop51ColorIndex
 90
      256
102
RTVSPost2010Prop51ColorRGB
 90
-16777216
102
RTVSPost2010PropOp51
 70
     0
102
RTVSPost2010Prop52
140
1.0
102
RTVSPost2010PropOp52
 70
     0
102
RTVSPost2010Prop53
 90
        2
102
RTVSPost2010PropOp53
 70
     1
102
RTVSPost2010Prop54
  1
strokes_ogs.tif
102
RTVSPost2010PropOp54
 70
     1
102
RTVSPost2010Prop55
280
     0
102
RTVSPost2010PropOp55
 70
     1
102
RTVSPost2010Prop56
140
1.0
102
RTVSPost2010PropOp56
 70
     1
102
RTVSPost2010Prop57
140
1.0
102
RTVSPost2010PropOp57
 70
     1
102
RTVSPropertyOp0
 70
     1
102
RTVSPropertyOp1
 70
     1
102
RTVSPropertyOp2
 70
     1
102
RTVSPropertyOp3
 70
     1
102
RTVSPropertyOp4
 70
     1
102
RTVSPropertyOp5
 70
     1
102
RTVSPropertyOp6
 70
     1
102
RTVSPropertyOp7
 70
     1
102
RTVSPropertyOp8
 70
     1
102
RTVSPropertyOp9
 70
     1
102
RTVSPropertyOp10
 70
     1
102
RTVSPropertyOp11
 70
     1
102
RTVSPropertyOp12
 70
     1
102
RTVSPropertyOp13
 70
     1
102
RTVSPropertyOp14
 70
     1
102
RTVSPropertyOp15
 70
     1
102
RTVSPropertyOp16
 70
     1
102
RTVSPropertyOp17
 70
     1
102
RTVSPropertyOp18
 70
     1
102
RTVSPropertyOp19
 70
     1
102
RTVSPropertyOp20
 70
     1
102
RTVSPropertyOp21
 70
     1
102
RTVSPropertyOp22
 70
     1
102
RTVSPropertyOp23
 70
     1
102
RTVSPropertyOp24
 70
     1
102
RTVSPropertyOp25
 70
     1
102
RTVSPropertyOp26
 70
     1
102
RTVSPropertyOp27
 70
     1
102
RTVSPropertyOp28
 70
     1
102
RTVSPropertyOp29
 70
     1
102
RTVSPropertyOp30
 70
     1
102
RTVSPropertyOp31
 70
     1
102
RTVSPropertyOp32
 70
     1
102
RTVSPropertyOp33
 70
     1
102
RTVSPropertyOp34
 70
     1
102
RTVSPropertyOp35
 70
     1
102
RTVSPropertyOp36
 70
     1
102
RTVSPropertyOp37
 70
     1
102
RTVSPropertyOp38
 70
     1
102
RTVSPropertyOp39
 70
     1
102
RTVSPropertyOp40
 70
     1
102
RTVSPropertyOp41
 70
     1
102
RTVSPropertyOp42
 70
     1
102
RTVSPropertyOp43
 70
     1
102
RTVSPropertyOp44
 70
     1
102
RTVSPropertyOp45
 70
     1
102
RTVSPropertyOp46
 70
     1
102
RTVSPropertyOp47
 70
     1
102
RTVSPropertyOp48
 70
     1
102
RTVSPropertyOp49
 70
     1
102
RTVSPropertyOp50
 70
     1
102
RTVSPropertyOp51
 70
     0
102
RTVSPropertyOp52
 70
     0
102
RTVSPropertyOp53
 70
     1
102
RTVSPropertyOp54
 70
     1
102
RTVSPropertyOp55
 70
     1
102
RTVSPropertyOp56
 70
     1
102
RTVSPropertyOp57
 70
     1
102
RTVSPropertyOp58
 70
     1
102
RTVSPropertyOp59
 70
     1
102
RTVSPropertyOp60
 70
     1
102
RTVSPropertyOp61
 70
     1
102
RTVSPropertyOp62
 70
     1
  0
XRECORD
  5
325
102
{ACAD_REACTORS
330
324
102
}
330
324
100
AcDbXrecord
280
     1
102
RTVSPost2010Prop28
280
     0
102
RTVSPost2010PropOp28
 70
     1
102
RTVSPost2010Prop29
280
     1
102
RTVSPost2010PropOp29
 70
     1
102
RTVSPost2010Prop30
280
     1
102
RTVSPost2010PropOp30
 70
     1
102
RTVSPost2010Prop31
280
     0
102
RTVSPost2010PropOp31
 70
     1
102
RTVSPost2010Prop32
280
     0
102
RTVSPost2010PropOp32
 70
     1
102
RTVSPost2010Prop33
280
     0
102
RTVSPost2010PropOp33
 70
     1
102
RTVSPost2010Prop34
280
     0
102
RTVSPost2010PropOp34
 70
     1
102
RTVSPost2010Prop35
280
     0
102
RTVSPost2010PropOp35
 70
     1
102
RTVSPost2010Prop36
280
     0
102
RTVSPost2010PropOp36
 70
     1
102
RTVSPost2010Prop37
 90
       50
102
RTVSPost2010PropOp37
 70
     1
102
RTVSPost2010Prop38
140
0.0
102
RTVSPost2010PropOp38
 70
     1
102
RTVSPost2010Prop39
140
1.0
102
RTVSPost2010PropOp39
 70
     1
102
RTVSPost2010Prop40
 90
        0
102
RTVSPost2010PropOp40
 70
     1
102
RTVSPost2010Prop41ColorIndex
 90
       18
102
RTVSPost2010Prop41ColorRGB
 90
        0
102
RTVSPost2010PropOp41
 70
     1
102
RTVSPost2010Prop42
 90
       50
102
RTVSPost2010PropOp42
 70
     1
102
RTVSPost2010Prop43
 90
        3
102
RTVSPost2010PropOp43
 70
     1
102
RTVSPost2010Prop44ColorIndex
 90
        5
102
RTVSPost2010Prop44ColorRGB
 90
      255
102
RTVSPost2010PropOp44
 70
     1
102
RTVSPost2010Prop45
280
     0
102
RTVSPost2010PropOp45
 70
     1
102
RTVSPost2010Prop46
 90
       50
102
RTVSPost2010PropOp46
 70
     1
102
RTVSPost2010Prop47
 90
       50
102
RTVSPost2010PropOp47
 70
     1
102
RTVSPost2010Prop48
 90
       50
102
RTVSPost2010PropOp48
 70
     1
102
RTVSPost2010Prop49
280
     0
102
RTVSPost2010PropOp49
 70
     1
102
RTVSPost2010Prop50
 90
       50
102
RTVSPost2010PropOp50
 70
     1
102
RTVSPost2010Prop51ColorIndex
 90
      256
102
RTVSPost2010Prop51ColorRGB
 90
-16777216
102
RTVSPost2010PropOp51
 70
     0
102
RTVSPost2010Prop52
140
1.0
102
RTVSPost2010PropOp52
 70
     0
102
RTVSPost2010Prop53
 90
        2
102
RTVSPost2010PropOp53
 70
     1
102
RTVSPost2010Prop54
  1
strokes_ogs.tif
102
RTVSPost2010PropOp54
 70
     1
102
RTVSPost2010Prop55
280
     0
102
RTVSPost2010PropOp55
 70
     1
102
RTVSPost2010Prop56
140
1.0
102
RTVSPost2010PropOp56
 70
     1
102
RTVSPost2010Prop57
140
1.0
102
RTVSPost2010PropOp57
 70
     1
102
RTVSPropertyOp0
 70
     1
102
RTVSPropertyOp1
 70
     1
102
RTVSPropertyOp2
 70
     1
102
RTVSPropertyOp3
 70
     1
102
RTVSPropertyOp4
 70
     1
102
RTVSPropertyOp5
 70
     1
102
RTVSPropertyOp6
 70
     1
102
RTVSPropertyOp7
 70
     1
102
RTVSPropertyOp8
 70
     1
102
RTVSPropertyOp9
 70
     1
102
RTVSPropertyOp10
 70
     1
102
RTVSPropertyOp11
 70
     1
102
RTVSPropertyOp12
 70
     1
102
RTVSPropertyOp13
 70
     1
102
RTVSPropertyOp14
 70
     1
102
RTVSPropertyOp15
 70
     1
102
RTVSPropertyOp16
 70
     1
102
RTVSPropertyOp17
 70
     1
102
RTVSPropertyOp18
 70
     1
102
RTVSPropertyOp19
 70
     1
102
RTVSPropertyOp20
 70
     1
102
RTVSPropertyOp21
 70
     1
102
RTVSPropertyOp22
 70
     1
102
RTVSPropertyOp23
 70
     1
102
RTVSPropertyOp24
 70
     1
102
RTVSPropertyOp25
 70
     1
102
RTVSPropertyOp26
 70
     1
102
RTVSPropertyOp27
 70
     1
102
RTVSPropertyOp28
 70
     1
102
RTVSPropertyOp29
 70
     1
102
RTVSPropertyOp30
 70
     1
102
RTVSPropertyOp31
 70
     1
102
RTVSPropertyOp32
 70
     1
102
RTVSPropertyOp33
 70
     1
102
RTVSPropertyOp34
 70
     1
102
RTVSPropertyOp35
 70
     1
102
RTVSPropertyOp36
 70
     1
102
RTVSPropertyOp37
 70
     1
102
RTVSPropertyOp38
 70
     1
102
RTVSPropertyOp39
 70
     1
102
RTVSPropertyOp40
 70
     1
102
RTVSPropertyOp41
 70
     1
102
RTVSPropertyOp42
 70
     1
102
RTVSPropertyOp43
 70
     1
102
RTVSPropertyOp44
 70
     1
102
RTVSPropertyOp45
 70
     1
102
RTVSPropertyOp46
 70
     1
102
RTVSPropertyOp47
 70
     1
102
RTVSPropertyOp48
 70
     1
102
RTVSPropertyOp49
 70
     1
102
RTVSPropertyOp50
 70
     1
102
RTVSPropertyOp51
 70
     0
102
RTVSPropertyOp52
 70
     0
102
RTVSPropertyOp53
 70
     1
102
RTVSPropertyOp54
 70
     1
102
RTVSPropertyOp55
 70
     1
102
RTVSPropertyOp56
 70
     1
102
RTVSPropertyOp57
 70
     1
102
RTVSPropertyOp58
 70
     1
102
RTVSPropertyOp59
 70
     1
102
RTVSPropertyOp60
 70
     1
102
RTVSPropertyOp61
 70
     1
102
RTVSPropertyOp62
 70
     1
  0
XRECORD
  5
339
102
{ACAD_REACTORS
330
338
102
}
330
338
100
AcDbXrecord
280
     1
102
RTVSPost2010Prop28
280
     0
102
RTVSPost2010PropOp28
 70
     0
102
RTVSPost2010Prop29
280
     1
102
RTVSPost2010PropOp29
 70
     0
102
RTVSPost2010Prop30
280
     1
102
RTVSPost2010PropOp30
 70
     0
102
RTVSPost2010Prop31
280
     0
102
RTVSPost2010PropOp31
 70
     0
102
RTVSPost2010Prop32
280
     0
102
RTVSPost2010PropOp32
 70
     0
102
RTVSPost2010Prop33
280
     0
102
RTVSPost2010PropOp33
 70
     0
102
RTVSPost2010Prop34
280
     0
102
RTVSPost2010PropOp34
 70
     0
102
RTVSPost2010Prop35
280
     0
102
RTVSPost2010PropOp35
 70
     0
102
RTVSPost2010Prop36
280
     0
102
RTVSPost2010PropOp36
 70
     0
102
RTVSPost2010Prop37
 90
       50
102
RTVSPost2010PropOp37
 70
     0
102
RTVSPost2010Prop38
140
0.0
102
RTVSPost2010PropOp38
 70
     0
102
RTVSPost2010Prop39
140
1.0
102
RTVSPost2010PropOp39
 70
     0
102
RTVSPost2010Prop40
 90
        0
102
RTVSPost2010PropOp40
 70
     0
102
RTVSPost2010Prop41ColorIndex
 90
       18
102
RTVSPost2010Prop41ColorRGB
 90
        0
102
RTVSPost2010PropOp41
 70
     0
102
RTVSPost2010Prop42
 90
       50
102
RTVSPost2010PropOp42
 70
     0
102
RTVSPost2010Prop43
 90
        3
102
RTVSPost2010PropOp43
 70
     0
102
RTVSPost2010Prop44ColorIndex
 90
        5
102
RTVSPost2010Prop44ColorRGB
 90
      255
102
RTVSPost2010PropOp44
 70
     0
102
RTVSPost2010Prop45
280
     0
102
RTVSPost2010PropOp45
 70
     0
102
RTVSPost2010Prop46
 90
       50
102
RTVSPost2010PropOp46
 70
     0
102
RTVSPost2010Prop47
 90
       50
102
RTVSPost2010PropOp47
 70
     0
102
RTVSPost2010Prop48
 90
       50
102
RTVSPost2010PropOp48
 70
     0
102
RTVSPost2010Prop49
280
     0
102
RTVSPost2010PropOp49
 70
     0
102
RTVSPost2010Prop50
 90
       50
102
RTVSPost2010PropOp50
 70
     0
102
RTVSPost2010Prop51ColorIndex
 90
      256
102
RTVSPost2010Prop51ColorRGB
 90
-16777216
102
RTVSPost2010PropOp51
 70
     0
102
RTVSPost2010Prop52
140
1.0
102
RTVSPost2010PropOp52
 70
     0
102
RTVSPost2010Prop53
 90
        2
102
RTVSPost2010PropOp53
 70
     0
102
RTVSPost2010Prop54
  1
strokes_ogs.tif
102
RTVSPost2010PropOp54
 70
     0
102
RTVSPost2010Prop55
280
     0
102
RTVSPost2010PropOp55
 70
     0
102
RTVSPost2010Prop56
140
1.0
102
RTVSPost2010PropOp56
 70
     0
102
RTVSPost2010Prop57
140
1.0
102
RTVSPost2010PropOp57
 70
     0
102
RTVSPropertyOp0
 70
     0
102
RTVSPropertyOp1
 70
     0
102
RTVSPropertyOp2
 70
     0
102
RTVSPropertyOp3
 70
     0
102
RTVSPropertyOp4
 70
     0
102
RTVSPropertyOp5
 70
     0
102
RTVSPropertyOp6
 70
     0
102
RTVSPropertyOp7
 70
     0
102
RTVSPropertyOp8
 70
     0
102
RTVSPropertyOp9
 70
     0
102
RTVSPropertyOp10
 70
     0
102
RTVSPropertyOp11
 70
     0
102
RTVSPropertyOp12
 70
     0
102
RTVSPropertyOp13
 70
     0
102
RTVSPropertyOp14
 70
     2
102
RTVSPropertyOp15
 70
     0
102
RTVSPropertyOp16
 70
     0
102
RTVSPropertyOp17
 70
     0
102
RTVSPropertyOp18
 70
     0
102
RTVSPropertyOp19
 70
     0
102
RTVSPropertyOp20
 70
     0
102
RTVSPropertyOp21
 70
     0
102
RTVSPropertyOp22
 70
     0
102
RTVSPropertyOp23
 70
     0
102
RTVSPropertyOp24
 70
     0
102
RTVSPropertyOp25
 70
     0
102
RTVSPropertyOp26
 70
     0
102
RTVSPropertyOp27
 70
     0
102
RTVSPropertyOp28
 70
     0
102
RTVSPropertyOp29
 70
     0
102
RTVSPropertyOp30
 70
     0
102
RTVSPropertyOp31
 70
     0
102
RTVSPropertyOp32
 70
     0
102
RTVSPropertyOp33
 70
     0
102
RTVSPropertyOp34
 70
     0
102
RTVSPropertyOp35
 70
     0
102
RTVSPropertyOp36
 70
     0
102
RTVSPropertyOp37
 70
     0
102
RTVSPropertyOp38
 70
     0
102
RTVSPropertyOp39
 70
     0
102
RTVSPropertyOp40
 70
     0
102
RTVSPropertyOp41
 70
     0
102
RTVSPropertyOp42
 70
     0
102
RTVSPropertyOp43
 70
     0
102
RTVSPropertyOp44
 70
     0
102
RTVSPropertyOp45
 70
     0
102
RTVSPropertyOp46
 70
     0
102
RTVSPropertyOp47
 70
     0
102
RTVSPropertyOp48
 70
     0
102
RTVSPropertyOp49
 70
     0
102
RTVSPropertyOp50
 70
     0
102
RTVSPropertyOp51
 70
     0
102
RTVSPropertyOp52
 70
     0
102
RTVSPropertyOp53
 70
     0
102
RTVSPropertyOp54
 70
     0
102
RTVSPropertyOp55
 70
     0
102
RTVSPropertyOp56
 70
     0
102
RTVSPropertyOp57
 70
     0
102
RTVSPropertyOp58
 70
     1
102
RTVSPropertyOp59
 70
     1
102
RTVSPropertyOp60
 70
     1
102
RTVSPropertyOp61
 70
     1
102
RTVSPropertyOp62
 70
     1
  0
XRECORD
  5
333
102
{ACAD_REACTORS
330
332
102
}
330
332
100
AcDbXrecord
280
     1
102
RTVSPost2010Prop28
280
     0
102
RTVSPost2010PropOp28
 70
     1
102
RTVSPost2010Prop29
280
     1
102
RTVSPost2010PropOp29
 70
     1
102
RTVSPost2010Prop30
280
     1
102
RTVSPost2010PropOp30
 70
     1
102
RTVSPost2010Prop31
280
     0
102
RTVSPost2010PropOp31
 70
     1
102
RTVSPost2010Prop32
280
     0
102
RTVSPost2010PropOp32
 70
     1
102
RTVSPost2010Prop33
280
     0
102
RTVSPost2010PropOp33
 70
     1
102
RTVSPost2010Prop34
280
     0
102
RTVSPost2010PropOp34
 70
     1
102
RTVSPost2010Prop35
280
     0
102
RTVSPost2010PropOp35
 70
     1
102
RTVSPost2010Prop36
280
     0
102
RTVSPost2010PropOp36
 70
     1
102
RTVSPost2010Prop37
 90
       50
102
RTVSPost2010PropOp37
 70
     1
102
RTVSPost2010Prop38
140
0.0
102
RTVSPost2010PropOp38
 70
     1
102
RTVSPost2010Prop39
140
1.0
102
RTVSPost2010PropOp39
 70
     1
102
RTVSPost2010Prop40
 90
        0
102
RTVSPost2010PropOp40
 70
     1
102
RTVSPost2010Prop41ColorIndex
 90
       18
102
RTVSPost2010Prop41ColorRGB
 90
        0
102
RTVSPost2010PropOp41
 70
     1
102
RTVSPost2010Prop42
 90
       50
102
RTVSPost2010PropOp42
 70
     1
102
RTVSPost2010Prop43
 90
        3
102
RTVSPost2010PropOp43
 70
     1
102
RTVSPost2010Prop44ColorIndex
 90
        5
102
RTVSPost2010Prop44ColorRGB
 90
      255
102
RTVSPost2010PropOp44
 70
     1
102
RTVSPost2010Prop45
280
     0
102
RTVSPost2010PropOp45
 70
     1
102
RTVSPost2010Prop46
 90
       50
102
RTVSPost2010PropOp46
 70
     1
102
RTVSPost2010Prop47
 90
       50
102
RTVSPost2010PropOp47
 70
     1
102
RTVSPost2010Prop48
 90
       50
102
RTVSPost2010PropOp48
 70
     1
102
RTVSPost2010Prop49
280
     0
102
RTVSPost2010PropOp49
 70
     1
102
RTVSPost2010Prop50
 90
       50
102
RTVSPost2010PropOp50
 70
     1
102
RTVSPost2010Prop51ColorIndex
 90
      256
102
RTVSPost2010Prop51ColorRGB
 90
-16777216
102
RTVSPost2010PropOp51
 70
     0
102
RTVSPost2010Prop52
140
1.0
102
RTVSPost2010PropOp52
 70
     0
102
RTVSPost2010Prop53
 90
        2
102
RTVSPost2010PropOp53
 70
     1
102
RTVSPost2010Prop54
  1
strokes_ogs.tif
102
RTVSPost2010PropOp54
 70
     1
102
RTVSPost2010Prop55
280
     0
102
RTVSPost2010PropOp55
 70
     1
102
RTVSPost2010Prop56
140
1.0
102
RTVSPost2010PropOp56
 70
     1
102
RTVSPost2010Prop57
140
1.0
102
RTVSPost2010PropOp57
 70
     1
102
RTVSPropertyOp0
 70
     1
102
RTVSPropertyOp1
 70
     1
102
RTVSPropertyOp2
 70
     1
102
RTVSPropertyOp3
 70
     1
102
RTVSPropertyOp4
 70
     1
102
RTVSPropertyOp5
 70
     1
102
RTVSPropertyOp6
 70
     1
102
RTVSPropertyOp7
 70
     1
102
RTVSPropertyOp8
 70
     1
102
RTVSPropertyOp9
 70
     1
102
RTVSPropertyOp10
 70
     1
102
RTVSPropertyOp11
 70
     1
102
RTVSPropertyOp12
 70
     1
102
RTVSPropertyOp13
 70
     1
102
RTVSPropertyOp14
 70
     1
102
RTVSPropertyOp15
 70
     1
102
RTVSPropertyOp16
 70
     1
102
RTVSPropertyOp17
 70
     1
102
RTVSPropertyOp18
 70
     1
102
RTVSPropertyOp19
 70
     1
102
RTVSPropertyOp20
 70
     1
102
RTVSPropertyOp21
 70
     1
102
RTVSPropertyOp22
 70
     1
102
RTVSPropertyOp23
 70
     1
102
RTVSPropertyOp24
 70
     1
102
RTVSPropertyOp25
 70
     1
102
RTVSPropertyOp26
 70
     1
102
RTVSPropertyOp27
 70
     1
102
RTVSPropertyOp28
 70
     1
102
RTVSPropertyOp29
 70
     1
102
RTVSPropertyOp30
 70
     1
102
RTVSPropertyOp31
 70
     1
102
RTVSPropertyOp32
 70
     1
102
RTVSPropertyOp33
 70
     1
102
RTVSPropertyOp34
 70
     1
102
RTVSPropertyOp35
 70
     1
102
RTVSPropertyOp36
 70
     1
102
RTVSPropertyOp37
 70
     1
102
RTVSPropertyOp38
 70
     1
102
RTVSPropertyOp39
 70
     1
102
RTVSPropertyOp40
 70
     1
102
RTVSPropertyOp41
 70
     1
102
RTVSPropertyOp42
 70
     1
102
RTVSPropertyOp43
 70
     1
102
RTVSPropertyOp44
 70
     1
102
RTVSPropertyOp45
 70
     1
102
RTVSPropertyOp46
 70
     1
102
RTVSPropertyOp47
 70
     1
102
RTVSPropertyOp48
 70
     1
102
RTVSPropertyOp49
 70
     1
102
RTVSPropertyOp50
 70
     1
102
RTVSPropertyOp51
 70
     0
102
RTVSPropertyOp52
 70
     0
102
RTVSPropertyOp53
 70
     1
102
RTVSPropertyOp54
 70
     1
102
RTVSPropertyOp55
 70
     1
102
RTVSPropertyOp56
 70
     1
102
RTVSPropertyOp57
 70
     1
102
RTVSPropertyOp58
 70
     1
102
RTVSPropertyOp59
 70
     1
102
RTVSPropertyOp60
 70
     1
102
RTVSPropertyOp61
 70
     1
102
RTVSPropertyOp62
 70
     1
  0
XRECORD
  5
33B
102
{ACAD_REACTORS
330
33A
102
}
330
33A
100
AcDbXrecord
280
     1
102
RTVSPost2010Prop28
280
     0
102
RTVSPost2010PropOp28
 70
     0
102
RTVSPost2010Prop29
280
     1
102
RTVSPost2010PropOp29
 70
     0
102
RTVSPost2010Prop30
280
     1
102
RTVSPost2010PropOp30
 70
     0
102
RTVSPost2010Prop31
280
     0
102
RTVSPost2010PropOp31
 70
     0
102
RTVSPost2010Prop32
280
     0
102
RTVSPost2010PropOp32
 70
     0
102
RTVSPost2010Prop33
280
     0
102
RTVSPost2010PropOp33
 70
     0
102
RTVSPost2010Prop34
280
     0
102
RTVSPost2010PropOp34
 70
     0
102
RTVSPost2010Prop35
280
     0
102
RTVSPost2010PropOp35
 70
     0
102
RTVSPost2010Prop36
280
     0
102
RTVSPost2010PropOp36
 70
     0
102
RTVSPost2010Prop37
 90
       50
102
RTVSPost2010PropOp37
 70
     0
102
RTVSPost2010Prop38
140
0.0
102
RTVSPost2010PropOp38
 70
     0
102
RTVSPost2010Prop39
140
1.0
102
RTVSPost2010PropOp39
 70
     0
102
RTVSPost2010Prop40
 90
        0
102
RTVSPost2010PropOp40
 70
     0
102
RTVSPost2010Prop41ColorIndex
 90
       18
102
RTVSPost2010Prop41ColorRGB
 90
        0
102
RTVSPost2010PropOp41
 70
     0
102
RTVSPost2010Prop42
 90
       50
102
RTVSPost2010PropOp42
 70
     0
102
RTVSPost2010Prop43
 90
        3
102
RTVSPost2010PropOp43
 70
     0
102
RTVSPost2010Prop44ColorIndex
 90
        5
102
RTVSPost2010Prop44ColorRGB
 90
      255
102
RTVSPost2010PropOp44
 70
     0
102
RTVSPost2010Prop45
280
     0
102
RTVSPost2010PropOp45
 70
     0
102
RTVSPost2010Prop46
 90
       50
102
RTVSPost2010PropOp46
 70
     0
102
RTVSPost2010Prop47
 90
       50
102
RTVSPost2010PropOp47
 70
     0
102
RTVSPost2010Prop48
 90
       50
102
RTVSPost2010PropOp48
 70
     0
102
RTVSPost2010Prop49
280
     0
102
RTVSPost2010PropOp49
 70
     0
102
RTVSPost2010Prop50
 90
       50
102
RTVSPost2010PropOp50
 70
     0
102
RTVSPost2010Prop51ColorIndex
 90
      256
102
RTVSPost2010Prop51ColorRGB
 90
-16777216
102
RTVSPost2010PropOp51
 70
     0
102
RTVSPost2010Prop52
140
1.0
102
RTVSPost2010PropOp52
 70
     0
102
RTVSPost2010Prop53
 90
        2
102
RTVSPost2010PropOp53
 70
     0
102
RTVSPost2010Prop54
  1
strokes_ogs.tif
102
RTVSPost2010PropOp54
 70
     0
102
RTVSPost2010Prop55
280
     0
102
RTVSPost2010PropOp55
 70
     0
102
RTVSPost2010Prop56
140
1.0
102
RTVSPost2010PropOp56
 70
     0
102
RTVSPost2010Prop57
140
1.0
102
RTVSPost2010PropOp57
 70
     0
102
RTVSPropertyOp0
 70
     0
102
RTVSPropertyOp1
 70
     0
102
RTVSPropertyOp2
 70
     0
102
RTVSPropertyOp3
 70
     0
102
RTVSPropertyOp4
 70
     0
102
RTVSPropertyOp5
 70
     0
102
RTVSPropertyOp6
 70
     0
102
RTVSPropertyOp7
 70
     0
102
RTVSPropertyOp8
 70
     0
102
RTVSPropertyOp9
 70
     0
102
RTVSPropertyOp10
 70
     0
102
RTVSPropertyOp11
 70
     0
102
RTVSPropertyOp12
 70
     0
102
RTVSPropertyOp13
 70
     0
102
RTVSPropertyOp14
 70
     2
102
RTVSPropertyOp15
 70
     0
102
RTVSPropertyOp16
 70
     0
102
RTVSPropertyOp17
 70
     0
102
RTVSPropertyOp18
 70
     0
102
RTVSPropertyOp19
 70
     0
102
RTVSPropertyOp20
 70
     0
102
RTVSPropertyOp21
 70
     0
102
RTVSPropertyOp22
 70
     0
102
RTVSPropertyOp23
 70
     0
102
RTVSPropertyOp24
 70
     0
102
RTVSPropertyOp25
 70
     0
102
RTVSPropertyOp26
 70
     0
102
RTVSPropertyOp27
 70
     0
102
RTVSPropertyOp28
 70
     0
102
RTVSPropertyOp29
 70
     0
102
RTVSPropertyOp30
 70
     0
102
RTVSPropertyOp31
 70
     0
102
RTVSPropertyOp32
 70
     0
102
RTVSPropertyOp33
 70
     0
102
RTVSPropertyOp34
 70
     0
102
RTVSPropertyOp35
 70
     0
102
RTVSPropertyOp36
 70
     0
102
RTVSPropertyOp37
 70
     0
102
RTVSPropertyOp38
 70
     0
102
RTVSPropertyOp39
 70
     0
102
RTVSPropertyOp40
 70
     0
102
RTVSPropertyOp41
 70
     0
102
RTVSPropertyOp42
 70
     0
102
RTVSPropertyOp43
 70
     0
102
RTVSPropertyOp44
 70
     0
102
RTVSPropertyOp45
 70
     0
102
RTVSPropertyOp46
 70
     0
102
RTVSPropertyOp47
 70
     0
102
RTVSPropertyOp48
 70
     0
102
RTVSPropertyOp49
 70
     0
102
RTVSPropertyOp50
 70
     0
102
RTVSPropertyOp51
 70
     0
102
RTVSPropertyOp52
 70
     0
102
RTVSPropertyOp53
 70
     0
102
RTVSPropertyOp54
 70
     0
102
RTVSPropertyOp55
 70
     0
102
RTVSPropertyOp56
 70
     0
102
RTVSPropertyOp57
 70
     0
102
RTVSPropertyOp58
 70
     1
102
RTVSPropertyOp59
 70
     1
102
RTVSPropertyOp60
 70
     1
102
RTVSPropertyOp61
 70
     1
102
RTVSPropertyOp62
 70
     1
  0
XRECORD
  5
329
102
{ACAD_REACTORS
330
328
102
}
330
328
100
AcDbXrecord
280
     1
102
RTVSPost2010Prop28
280
     0
102
RTVSPost2010PropOp28
 70
     1
102
RTVSPost2010Prop29
280
     1
102
RTVSPost2010PropOp29
 70
     1
102
RTVSPost2010Prop30
280
     1
102
RTVSPost2010PropOp30
 70
     1
102
RTVSPost2010Prop31
280
     0
102
RTVSPost2010PropOp31
 70
     1
102
RTVSPost2010Prop32
280
     0
102
RTVSPost2010PropOp32
 70
     1
102
RTVSPost2010Prop33
280
     0
102
RTVSPost2010PropOp33
 70
     1
102
RTVSPost2010Prop34
280
     0
102
RTVSPost2010PropOp34
 70
     1
102
RTVSPost2010Prop35
280
     0
102
RTVSPost2010PropOp35
 70
     1
102
RTVSPost2010Prop36
280
     0
102
RTVSPost2010PropOp36
 70
     1
102
RTVSPost2010Prop37
 90
       50
102
RTVSPost2010PropOp37
 70
     1
102
RTVSPost2010Prop38
140
0.0
102
RTVSPost2010PropOp38
 70
     1
102
RTVSPost2010Prop39
140
1.0
102
RTVSPost2010PropOp39
 70
     1
102
RTVSPost2010Prop40
 90
        0
102
RTVSPost2010PropOp40
 70
     1
102
RTVSPost2010Prop41ColorIndex
 90
       18
102
RTVSPost2010Prop41ColorRGB
 90
        0
102
RTVSPost2010PropOp41
 70
     1
102
RTVSPost2010Prop42
 90
       50
102
RTVSPost2010PropOp42
 70
     1
102
RTVSPost2010Prop43
 90
        3
102
RTVSPost2010PropOp43
 70
     1
102
RTVSPost2010Prop44ColorIndex
 90
        5
102
RTVSPost2010Prop44ColorRGB
 90
      255
102
RTVSPost2010PropOp44
 70
     1
102
RTVSPost2010Prop45
280
     0
102
RTVSPost2010PropOp45
 70
     1
102
RTVSPost2010Prop46
 90
       50
102
RTVSPost2010PropOp46
 70
     1
102
RTVSPost2010Prop47
 90
       50
102
RTVSPost2010PropOp47
 70
     1
102
RTVSPost2010Prop48
 90
       50
102
RTVSPost2010PropOp48
 70
     1
102
RTVSPost2010Prop49
280
     0
102
RTVSPost2010PropOp49
 70
     1
102
RTVSPost2010Prop50
 90
       50
102
RTVSPost2010PropOp50
 70
     1
102
RTVSPost2010Prop51ColorIndex
 90
      256
102
RTVSPost2010Prop51ColorRGB
 90
-16777216
102
RTVSPost2010PropOp51
 70
     0
102
RTVSPost2010Prop52
140
1.0
102
RTVSPost2010PropOp52
 70
     0
102
RTVSPost2010Prop53
 90
        2
102
RTVSPost2010PropOp53
 70
     1
102
RTVSPost2010Prop54
  1
strokes_ogs.tif
102
RTVSPost2010PropOp54
 70
     1
102
RTVSPost2010Prop55
280
     0
102
RTVSPost2010PropOp55
 70
     1
102
RTVSPost2010Prop56
140
1.0
102
RTVSPost2010PropOp56
 70
     1
102
RTVSPost2010Prop57
140
1.0
102
RTVSPost2010PropOp57
 70
     1
102
RTVSPropertyOp0
 70
     1
102
RTVSPropertyOp1
 70
     1
102
RTVSPropertyOp2
 70
     1
102
RTVSPropertyOp3
 70
     1
102
RTVSPropertyOp4
 70
     1
102
RTVSPropertyOp5
 70
     1
102
RTVSPropertyOp6
 70
     1
102
RTVSPropertyOp7
 70
     1
102
RTVSPropertyOp8
 70
     1
102
RTVSPropertyOp9
 70
     1
102
RTVSPropertyOp10
 70
     1
102
RTVSPropertyOp11
 70
     1
102
RTVSPropertyOp12
 70
     1
102
RTVSPropertyOp13
 70
     1
102
RTVSPropertyOp14
 70
     1
102
RTVSPropertyOp15
 70
     1
102
RTVSPropertyOp16
 70
     1
102
RTVSPropertyOp17
 70
     1
102
RTVSPropertyOp18
 70
     1
102
RTVSPropertyOp19
 70
     1
102
RTVSPropertyOp20
 70
     1
102
RTVSPropertyOp21
 70
     1
102
RTVSPropertyOp22
 70
     1
102
RTVSPropertyOp23
 70
     1
102
RTVSPropertyOp24
 70
     1
102
RTVSPropertyOp25
 70
     1
102
RTVSPropertyOp26
 70
     1
102
RTVSPropertyOp27
 70
     1
102
RTVSPropertyOp28
 70
     1
102
RTVSPropertyOp29
 70
     1
102
RTVSPropertyOp30
 70
     1
102
RTVSPropertyOp31
 70
     1
102
RTVSPropertyOp32
 70
     1
102
RTVSPropertyOp33
 70
     1
102
RTVSPropertyOp34
 70
     1
102
RTVSPropertyOp35
 70
     1
102
RTVSPropertyOp36
 70
     1
102
RTVSPropertyOp37
 70
     1
102
RTVSPropertyOp38
 70
     1
102
RTVSPropertyOp39
 70
     1
102
RTVSPropertyOp40
 70
     1
102
RTVSPropertyOp41
 70
     1
102
RTVSPropertyOp42
 70
     1
102
RTVSPropertyOp43
 70
     1
102
RTVSPropertyOp44
 70
     1
102
RTVSPropertyOp45
 70
     1
102
RTVSPropertyOp46
 70
     1
102
RTVSPropertyOp47
 70
     1
102
RTVSPropertyOp48
 70
     1
102
RTVSPropertyOp49
 70
     1
102
RTVSPropertyOp50
 70
     1
102
RTVSPropertyOp51
 70
     0
102
RTVSPropertyOp52
 70
     0
102
RTVSPropertyOp53
 70
     1
102
RTVSPropertyOp54
 70
     1
102
RTVSPropertyOp55
 70
     1
102
RTVSPropertyOp56
 70
     1
102
RTVSPropertyOp57
 70
     1
102
RTVSPropertyOp58
 70
     1
102
RTVSPropertyOp59
 70
     1
102
RTVSPropertyOp60
 70
     1
102
RTVSPropertyOp61
 70
     1
102
RTVSPropertyOp62
 70
     1
  0
XRECORD
  5
347
102
{ACAD_REACTORS
330
346
102
}
330
346
100
AcDbXrecord
280
     1
102
RTVSPost2010Prop28
280
     0
102
RTVSPost2010PropOp28
 70
     1
102
RTVSPost2010Prop29
280
     1
102
RTVSPost2010PropOp29
 70
     1
102
RTVSPost2010Prop30
280
     1
102
RTVSPost2010PropOp30
 70
     1
102
RTVSPost2010Prop31
280
     0
102
RTVSPost2010PropOp31
 70
     1
102
RTVSPost2010Prop32
280
     0
102
RTVSPost2010PropOp32
 70
     1
102
RTVSPost2010Prop33
280
     0
102
RTVSPost2010PropOp33
 70
     1
102
RTVSPost2010Prop34
280
     0
102
RTVSPost2010PropOp34
 70
     1
102
RTVSPost2010Prop35
280
     0
102
RTVSPost2010PropOp35
 70
     1
102
RTVSPost2010Prop36
280
     0
102
RTVSPost2010PropOp36
 70
     1
102
RTVSPost2010Prop37
 90
       50
102
RTVSPost2010PropOp37
 70
     1
102
RTVSPost2010Prop38
140
0.0
102
RTVSPost2010PropOp38
 70
     1
102
RTVSPost2010Prop39
140
1.0
102
RTVSPost2010PropOp39
 70
     1
102
RTVSPost2010Prop40
 90
        0
102
RTVSPost2010PropOp40
 70
     1
102
RTVSPost2010Prop41ColorIndex
 90
       18
102
RTVSPost2010Prop41ColorRGB
 90
        0
102
RTVSPost2010PropOp41
 70
     1
102
RTVSPost2010Prop42
 90
       50
102
RTVSPost2010PropOp42
 70
     1
102
RTVSPost2010Prop43
 90
        3
102
RTVSPost2010PropOp43
 70
     1
102
RTVSPost2010Prop44ColorIndex
 90
        5
102
RTVSPost2010Prop44ColorRGB
 90
      255
102
RTVSPost2010PropOp44
 70
     1
102
RTVSPost2010Prop45
280
     0
102
RTVSPost2010PropOp45
 70
     1
102
RTVSPost2010Prop46
 90
       50
102
RTVSPost2010PropOp46
 70
     1
102
RTVSPost2010Prop47
 90
       50
102
RTVSPost2010PropOp47
 70
     1
102
RTVSPost2010Prop48
 90
       50
102
RTVSPost2010PropOp48
 70
     1
102
RTVSPost2010Prop49
280
     0
102
RTVSPost2010PropOp49
 70
     1
102
RTVSPost2010Prop50
 90
       50
102
RTVSPost2010PropOp50
 70
     1
102
RTVSPost2010Prop51ColorIndex
 90
      256
102
RTVSPost2010Prop51ColorRGB
 90
-16777216
102
RTVSPost2010PropOp51
 70
     0
102
RTVSPost2010Prop52
140
1.0
102
RTVSPost2010PropOp52
 70
     0
102
RTVSPost2010Prop53
 90
        2
102
RTVSPost2010PropOp53
 70
     1
102
RTVSPost2010Prop54
  1
strokes_ogs.tif
102
RTVSPost2010PropOp54
 70
     1
102
RTVSPost2010Prop55
280
     0
102
RTVSPost2010PropOp55
 70
     1
102
RTVSPost2010Prop56
140
1.0
102
RTVSPost2010PropOp56
 70
     1
102
RTVSPost2010Prop57
140
1.0
102
RTVSPost2010PropOp57
 70
     1
102
RTVSPropertyOp0
 70
     1
102
RTVSPropertyOp1
 70
     1
102
RTVSPropertyOp2
 70
     1
102
RTVSPropertyOp3
 70
     1
102
RTVSPropertyOp4
 70
     1
102
RTVSPropertyOp5
 70
     1
102
RTVSPropertyOp6
 70
     1
102
RTVSPropertyOp7
 70
     1
102
RTVSPropertyOp8
 70
     1
102
RTVSPropertyOp9
 70
     1
102
RTVSPropertyOp10
 70
     1
102
RTVSPropertyOp11
 70
     1
102
RTVSPropertyOp12
 70
     1
102
RTVSPropertyOp13
 70
     1
102
RTVSPropertyOp14
 70
     1
102
RTVSPropertyOp15
 70
     1
102
RTVSPropertyOp16
 70
     1
102
RTVSPropertyOp17
 70
     1
102
RTVSPropertyOp18
 70
     1
102
RTVSPropertyOp19
 70
     1
102
RTVSPropertyOp20
 70
     1
102
RTVSPropertyOp21
 70
     1
102
RTVSPropertyOp22
 70
     1
102
RTVSPropertyOp23
 70
     1
102
RTVSPropertyOp24
 70
     1
102
RTVSPropertyOp25
 70
     1
102
RTVSPropertyOp26
 70
     1
102
RTVSPropertyOp27
 70
     1
102
RTVSPropertyOp28
 70
     1
102
RTVSPropertyOp29
 70
     1
102
RTVSPropertyOp30
 70
     1
102
RTVSPropertyOp31
 70
     1
102
RTVSPropertyOp32
 70
     1
102
RTVSPropertyOp33
 70
     1
102
RTVSPropertyOp34
 70
     1
102
RTVSPropertyOp35
 70
     1
102
RTVSPropertyOp36
 70
     1
102
RTVSPropertyOp37
 70
     1
102
RTVSPropertyOp38
 70
     1
102
RTVSPropertyOp39
 70
     1
102
RTVSPropertyOp40
 70
     1
102
RTVSPropertyOp41
 70
     1
102
RTVSPropertyOp42
 70
     1
102
RTVSPropertyOp43
 70
     1
102
RTVSPropertyOp44
 70
     1
102
RTVSPropertyOp45
 70
     1
102
RTVSPropertyOp46
 70
     1
102
RTVSPropertyOp47
 70
     1
102
RTVSPropertyOp48
 70
     1
102
RTVSPropertyOp49
 70
     1
102
RTVSPropertyOp50
 70
     1
102
RTVSPropertyOp51
 70
     0
102
RTVSPropertyOp52
 70
     0
102
RTVSPropertyOp53
 70
     1
102
RTVSPropertyOp54
 70
     1
102
RTVSPropertyOp55
 70
     1
102
RTVSPropertyOp56
 70
     1
102
RTVSPropertyOp57
 70
     1
102
RTVSPropertyOp58
 70
     1
102
RTVSPropertyOp59
 70
     1
102
RTVSPropertyOp60
 70
     1
102
RTVSPropertyOp61
 70
     1
102
RTVSPropertyOp62
 70
     1
  0
XRECORD
  5
345
102
{ACAD_REACTORS
330
344
102
}
330
344
100
AcDbXrecord
280
     1
102
RTVSPost2010Prop28
280
     0
102
RTVSPost2010PropOp28
 70
     1
102
RTVSPost2010Prop29
280
     1
102
RTVSPost2010PropOp29
 70
     1
102
RTVSPost2010Prop30
280
     1
102
RTVSPost2010PropOp30
 70
     1
102
RTVSPost2010Prop31
280
     0
102
RTVSPost2010PropOp31
 70
     1
102
RTVSPost2010Prop32
280
     0
102
RTVSPost2010PropOp32
 70
     1
102
RTVSPost2010Prop33
280
     0
102
RTVSPost2010PropOp33
 70
     1
102
RTVSPost2010Prop34
280
     0
102
RTVSPost2010PropOp34
 70
     1
102
RTVSPost2010Prop35
280
     0
102
RTVSPost2010PropOp35
 70
     1
102
RTVSPost2010Prop36
280
     0
102
RTVSPost2010PropOp36
 70
     1
102
RTVSPost2010Prop37
 90
       50
102
RTVSPost2010PropOp37
 70
     1
102
RTVSPost2010Prop38
140
0.0
102
RTVSPost2010PropOp38
 70
     1
102
RTVSPost2010Prop39
140
1.0
102
RTVSPost2010PropOp39
 70
     1
102
RTVSPost2010Prop40
 90
        0
102
RTVSPost2010PropOp40
 70
     1
102
RTVSPost2010Prop41ColorIndex
 90
       18
102
RTVSPost2010Prop41ColorRGB
 90
        0
102
RTVSPost2010PropOp41
 70
     1
102
RTVSPost2010Prop42
 90
       50
102
RTVSPost2010PropOp42
 70
     1
102
RTVSPost2010Prop43
 90
        3
102
RTVSPost2010PropOp43
 70
     1
102
RTVSPost2010Prop44ColorIndex
 90
        5
102
RTVSPost2010Prop44ColorRGB
 90
      255
102
RTVSPost2010PropOp44
 70
     1
102
RTVSPost2010Prop45
280
     0
102
RTVSPost2010PropOp45
 70
     1
102
RTVSPost2010Prop46
 90
       50
102
RTVSPost2010PropOp46
 70
     1
102
RTVSPost2010Prop47
 90
       50
102
RTVSPost2010PropOp47
 70
     1
102
RTVSPost2010Prop48
 90
       50
102
RTVSPost2010PropOp48
 70
     1
102
RTVSPost2010Prop49
280
     0
102
RTVSPost2010PropOp49
 70
     1
102
RTVSPost2010Prop50
 90
       50
102
RTVSPost2010PropOp50
 70
     1
102
RTVSPost2010Prop51ColorIndex
 90
      256
102
RTVSPost2010Prop51ColorRGB
 90
-16777216
102
RTVSPost2010PropOp51
 70
     0
102
RTVSPost2010Prop52
140
1.0
102
RTVSPost2010PropOp52
 70
     0
102
RTVSPost2010Prop53
 90
        2
102
RTVSPost2010PropOp53
 70
     1
102
RTVSPost2010Prop54
  1
strokes_ogs.tif
102
RTVSPost2010PropOp54
 70
     1
102
RTVSPost2010Prop55
280
     0
102
RTVSPost2010PropOp55
 70
     1
102
RTVSPost2010Prop56
140
1.0
102
RTVSPost2010PropOp56
 70
     1
102
RTVSPost2010Prop57
140
1.0
102
RTVSPost2010PropOp57
 70
     1
102
RTVSPropertyOp0
 70
     1
102
RTVSPropertyOp1
 70
     1
102
RTVSPropertyOp2
 70
     1
102
RTVSPropertyOp3
 70
     1
102
RTVSPropertyOp4
 70
     1
102
RTVSPropertyOp5
 70
     1
102
RTVSPropertyOp6
 70
     1
102
RTVSPropertyOp7
 70
     1
102
RTVSPropertyOp8
 70
     1
102
RTVSPropertyOp9
 70
     1
102
RTVSPropertyOp10
 70
     1
102
RTVSPropertyOp11
 70
     1
102
RTVSPropertyOp12
 70
     1
102
RTVSPropertyOp13
 70
     1
102
RTVSPropertyOp14
 70
     1
102
RTVSPropertyOp15
 70
     1
102
RTVSPropertyOp16
 70
     1
102
RTVSPropertyOp17
 70
     1
102
RTVSPropertyOp18
 70
     1
102
RTVSPropertyOp19
 70
     1
102
RTVSPropertyOp20
 70
     1
102
RTVSPropertyOp21
 70
     1
102
RTVSPropertyOp22
 70
     1
102
RTVSPropertyOp23
 70
     1
102
RTVSPropertyOp24
 70
     1
102
RTVSPropertyOp25
 70
     1
102
RTVSPropertyOp26
 70
     1
102
RTVSPropertyOp27
 70
     1
102
RTVSPropertyOp28
 70
     1
102
RTVSPropertyOp29
 70
     1
102
RTVSPropertyOp30
 70
     1
102
RTVSPropertyOp31
 70
     1
102
RTVSPropertyOp32
 70
     1
102
RTVSPropertyOp33
 70
     1
102
RTVSPropertyOp34
 70
     1
102
RTVSPropertyOp35
 70
     1
102
RTVSPropertyOp36
 70
     1
102
RTVSPropertyOp37
 70
     1
102
RTVSPropertyOp38
 70
     1
102
RTVSPropertyOp39
 70
     1
102
RTVSPropertyOp40
 70
     1
102
RTVSPropertyOp41
 70
     1
102
RTVSPropertyOp42
 70
     1
102
RTVSPropertyOp43
 70
     1
102
RTVSPropertyOp44
 70
     1
102
RTVSPropertyOp45
 70
     1
102
RTVSPropertyOp46
 70
     1
102
RTVSPropertyOp47
 70
     1
102
RTVSPropertyOp48
 70
     1
102
RTVSPropertyOp49
 70
     1
102
RTVSPropertyOp50
 70
     1
102
RTVSPropertyOp51
 70
     0
102
RTVSPropertyOp52
 70
     0
102
RTVSPropertyOp53
 70
     1
102
RTVSPropertyOp54
 70
     1
102
RTVSPropertyOp55
 70
     1
102
RTVSPropertyOp56
 70
     1
102
RTVSPropertyOp57
 70
     1
102
RTVSPropertyOp58
 70
     1
102
RTVSPropertyOp59
 70
     1
102
RTVSPropertyOp60
 70
     1
102
RTVSPropertyOp61
 70
     1
102
RTVSPropertyOp62
 70
     1
  0
XRECORD
  5
33F
102
{ACAD_REACTORS
330
33E
102
}
330
33E
100
AcDbXrecord
280
     1
102
RTVSPost2010Prop28
280
     0
102
RTVSPost2010PropOp28
 70
     1
102
RTVSPost2010Prop29
280
     1
102
RTVSPost2010PropOp29
 70
     1
102
RTVSPost2010Prop30
280
     1
102
RTVSPost2010PropOp30
 70
     1
102
RTVSPost2010Prop31
280
     0
102
RTVSPost2010PropOp31
 70
     1
102
RTVSPost2010Prop32
280
     0
102
RTVSPost2010PropOp32
 70
     1
102
RTVSPost2010Prop33
280
     0
102
RTVSPost2010PropOp33
 70
     1
102
RTVSPost2010Prop34
280
     0
102
RTVSPost2010PropOp34
 70
     1
102
RTVSPost2010Prop35
280
     0
102
RTVSPost2010PropOp35
 70
     1
102
RTVSPost2010Prop36
280
     0
102
RTVSPost2010PropOp36
 70
     1
102
RTVSPost2010Prop37
 90
       50
102
RTVSPost2010PropOp37
 70
     1
102
RTVSPost2010Prop38
140
0.0
102
RTVSPost2010PropOp38
 70
     1
102
RTVSPost2010Prop39
140
1.0
102
RTVSPost2010PropOp39
 70
     1
102
RTVSPost2010Prop40
 90
        0
102
RTVSPost2010PropOp40
 70
     1
102
RTVSPost2010Prop41ColorIndex
 90
       18
102
RTVSPost2010Prop41ColorRGB
 90
        0
102
RTVSPost2010PropOp41
 70
     1
102
RTVSPost2010Prop42
 90
       50
102
RTVSPost2010PropOp42
 70
     1
102
RTVSPost2010Prop43
 90
        3
102
RTVSPost2010PropOp43
 70
     1
102
RTVSPost2010Prop44ColorIndex
 90
        5
102
RTVSPost2010Prop44ColorRGB
 90
      255
102
RTVSPost2010PropOp44
 70
     1
102
RTVSPost2010Prop45
280
     0
102
RTVSPost2010PropOp45
 70
     1
102
RTVSPost2010Prop46
 90
       50
102
RTVSPost2010PropOp46
 70
     1
102
RTVSPost2010Prop47
 90
       50
102
RTVSPost2010PropOp47
 70
     1
102
RTVSPost2010Prop48
 90
       50
102
RTVSPost2010PropOp48
 70
     1
102
RTVSPost2010Prop49
280
     0
102
RTVSPost2010PropOp49
 70
     1
102
RTVSPost2010Prop50
 90
       50
102
RTVSPost2010PropOp50
 70
     1
102
RTVSPost2010Prop51ColorIndex
 90
      256
102
RTVSPost2010Prop51ColorRGB
 90
-16777216
102
RTVSPost2010PropOp51
 70
     0
102
RTVSPost2010Prop52
140
1.0
102
RTVSPost2010PropOp52
 70
     0
102
RTVSPost2010Prop53
 90
        2
102
RTVSPost2010PropOp53
 70
     1
102
RTVSPost2010Prop54
  1
strokes_ogs.tif
102
RTVSPost2010PropOp54
 70
     1
102
RTVSPost2010Prop55
280
     0
102
RTVSPost2010PropOp55
 70
     1
102
RTVSPost2010Prop56
140
1.0
102
RTVSPost2010PropOp56
 70
     1
102
RTVSPost2010Prop57
140
1.0
102
RTVSPost2010PropOp57
 70
     1
102
RTVSPropertyOp0
 70
     1
102
RTVSPropertyOp1
 70
     1
102
RTVSPropertyOp2
 70
     1
102
RTVSPropertyOp3
 70
     1
102
RTVSPropertyOp4
 70
     1
102
RTVSPropertyOp5
 70
     1
102
RTVSPropertyOp6
 70
     1
102
RTVSPropertyOp7
 70
     1
102
RTVSPropertyOp8
 70
     1
102
RTVSPropertyOp9
 70
     1
102
RTVSPropertyOp10
 70
     1
102
RTVSPropertyOp11
 70
     1
102
RTVSPropertyOp12
 70
     1
102
RTVSPropertyOp13
 70
     1
102
RTVSPropertyOp14
 70
     1
102
RTVSPropertyOp15
 70
     1
102
RTVSPropertyOp16
 70
     1
102
RTVSPropertyOp17
 70
     1
102
RTVSPropertyOp18
 70
     1
102
RTVSPropertyOp19
 70
     1
102
RTVSPropertyOp20
 70
     1
102
RTVSPropertyOp21
 70
     1
102
RTVSPropertyOp22
 70
     1
102
RTVSPropertyOp23
 70
     1
102
RTVSPropertyOp24
 70
     1
102
RTVSPropertyOp25
 70
     1
102
RTVSPropertyOp26
 70
     1
102
RTVSPropertyOp27
 70
     1
102
RTVSPropertyOp28
 70
     1
102
RTVSPropertyOp29
 70
     1
102
RTVSPropertyOp30
 70
     1
102
RTVSPropertyOp31
 70
     1
102
RTVSPropertyOp32
 70
     1
102
RTVSPropertyOp33
 70
     1
102
RTVSPropertyOp34
 70
     1
102
RTVSPropertyOp35
 70
     1
102
RTVSPropertyOp36
 70
     1
102
RTVSPropertyOp37
 70
     1
102
RTVSPropertyOp38
 70
     1
102
RTVSPropertyOp39
 70
     1
102
RTVSPropertyOp40
 70
     1
102
RTVSPropertyOp41
 70
     1
102
RTVSPropertyOp42
 70
     1
102
RTVSPropertyOp43
 70
     1
102
RTVSPropertyOp44
 70
     1
102
RTVSPropertyOp45
 70
     1
102
RTVSPropertyOp46
 70
     1
102
RTVSPropertyOp47
 70
     1
102
RTVSPropertyOp48
 70
     1
102
RTVSPropertyOp49
 70
     1
102
RTVSPropertyOp50
 70
     1
102
RTVSPropertyOp51
 70
     0
102
RTVSPropertyOp52
 70
     0
102
RTVSPropertyOp53
 70
     1
102
RTVSPropertyOp54
 70
     1
102
RTVSPropertyOp55
 70
     1
102
RTVSPropertyOp56
 70
     1
102
RTVSPropertyOp57
 70
     1
102
RTVSPropertyOp58
 70
     1
102
RTVSPropertyOp59
 70
     1
102
RTVSPropertyOp60
 70
     1
102
RTVSPropertyOp61
 70
     1
102
RTVSPropertyOp62
 70
     1
  0
XRECORD
  5
341
102
{ACAD_REACTORS
330
340
102
}
330
340
100
AcDbXrecord
280
     1
102
RTVSPost2010Prop28
280
     0
102
RTVSPost2010PropOp28
 70
     1
102
RTVSPost2010Prop29
280
     1
102
RTVSPost2010PropOp29
 70
     1
102
RTVSPost2010Prop30
280
     1
102
RTVSPost2010PropOp30
 70
     1
102
RTVSPost2010Prop31
280
     0
102
RTVSPost2010PropOp31
 70
     1
102
RTVSPost2010Prop32
280
     0
102
RTVSPost2010PropOp32
 70
     1
102
RTVSPost2010Prop33
280
     0
102
RTVSPost2010PropOp33
 70
     1
102
RTVSPost2010Prop34
280
     0
102
RTVSPost2010PropOp34
 70
     1
102
RTVSPost2010Prop35
280
     0
102
RTVSPost2010PropOp35
 70
     1
102
RTVSPost2010Prop36
280
     0
102
RTVSPost2010PropOp36
 70
     1
102
RTVSPost2010Prop37
 90
       50
102
RTVSPost2010PropOp37
 70
     1
102
RTVSPost2010Prop38
140
0.0
102
RTVSPost2010PropOp38
 70
     1
102
RTVSPost2010Prop39
140
1.0
102
RTVSPost2010PropOp39
 70
     1
102
RTVSPost2010Prop40
 90
        0
102
RTVSPost2010PropOp40
 70
     1
102
RTVSPost2010Prop41ColorIndex
 90
       18
102
RTVSPost2010Prop41ColorRGB
 90
        0
102
RTVSPost2010PropOp41
 70
     1
102
RTVSPost2010Prop42
 90
       50
102
RTVSPost2010PropOp42
 70
     1
102
RTVSPost2010Prop43
 90
        3
102
RTVSPost2010PropOp43
 70
     1
102
RTVSPost2010Prop44ColorIndex
 90
        5
102
RTVSPost2010Prop44ColorRGB
 90
      255
102
RTVSPost2010PropOp44
 70
     1
102
RTVSPost2010Prop45
280
     0
102
RTVSPost2010PropOp45
 70
     1
102
RTVSPost2010Prop46
 90
       50
102
RTVSPost2010PropOp46
 70
     1
102
RTVSPost2010Prop47
 90
       50
102
RTVSPost2010PropOp47
 70
     1
102
RTVSPost2010Prop48
 90
       50
102
RTVSPost2010PropOp48
 70
     1
102
RTVSPost2010Prop49
280
     0
102
RTVSPost2010PropOp49
 70
     1
102
RTVSPost2010Prop50
 90
       50
102
RTVSPost2010PropOp50
 70
     1
102
RTVSPost2010Prop51ColorIndex
 90
      256
102
RTVSPost2010Prop51ColorRGB
 90
-16777216
102
RTVSPost2010PropOp51
 70
     0
102
RTVSPost2010Prop52
140
1.0
102
RTVSPost2010PropOp52
 70
     0
102
RTVSPost2010Prop53
 90
        2
102
RTVSPost2010PropOp53
 70
     1
102
RTVSPost2010Prop54
  1
strokes_ogs.tif
102
RTVSPost2010PropOp54
 70
     1
102
RTVSPost2010Prop55
280
     0
102
RTVSPost2010PropOp55
 70
     1
102
RTVSPost2010Prop56
140
1.0
102
RTVSPost2010PropOp56
 70
     1
102
RTVSPost2010Prop57
140
1.0
102
RTVSPost2010PropOp57
 70
     1
102
RTVSPropertyOp0
 70
     1
102
RTVSPropertyOp1
 70
     1
102
RTVSPropertyOp2
 70
     1
102
RTVSPropertyOp3
 70
     1
102
RTVSPropertyOp4
 70
     1
102
RTVSPropertyOp5
 70
     1
102
RTVSPropertyOp6
 70
     1
102
RTVSPropertyOp7
 70
     1
102
RTVSPropertyOp8
 70
     1
102
RTVSPropertyOp9
 70
     1
102
RTVSPropertyOp10
 70
     1
102
RTVSPropertyOp11
 70
     1
102
RTVSPropertyOp12
 70
     1
102
RTVSPropertyOp13
 70
     1
102
RTVSPropertyOp14
 70
     1
102
RTVSPropertyOp15
 70
     1
102
RTVSPropertyOp16
 70
     1
102
RTVSPropertyOp17
 70
     1
102
RTVSPropertyOp18
 70
     1
102
RTVSPropertyOp19
 70
     1
102
RTVSPropertyOp20
 70
     1
102
RTVSPropertyOp21
 70
     1
102
RTVSPropertyOp22
 70
     1
102
RTVSPropertyOp23
 70
     1
102
RTVSPropertyOp24
 70
     1
102
RTVSPropertyOp25
 70
     1
102
RTVSPropertyOp26
 70
     1
102
RTVSPropertyOp27
 70
     1
102
RTVSPropertyOp28
 70
     1
102
RTVSPropertyOp29
 70
     1
102
RTVSPropertyOp30
 70
     1
102
RTVSPropertyOp31
 70
     1
102
RTVSPropertyOp32
 70
     1
102
RTVSPropertyOp33
 70
     1
102
RTVSPropertyOp34
 70
     1
102
RTVSPropertyOp35
 70
     1
102
RTVSPropertyOp36
 70
     1
102
RTVSPropertyOp37
 70
     1
102
RTVSPropertyOp38
 70
     1
102
RTVSPropertyOp39
 70
     1
102
RTVSPropertyOp40
 70
     1
102
RTVSPropertyOp41
 70
     1
102
RTVSPropertyOp42
 70
     1
102
RTVSPropertyOp43
 70
     1
102
RTVSPropertyOp44
 70
     1
102
RTVSPropertyOp45
 70
     1
102
RTVSPropertyOp46
 70
     1
102
RTVSPropertyOp47
 70
     1
102
RTVSPropertyOp48
 70
     1
102
RTVSPropertyOp49
 70
     1
102
RTVSPropertyOp50
 70
     1
102
RTVSPropertyOp51
 70
     0
102
RTVSPropertyOp52
 70
     0
102
RTVSPropertyOp53
 70
     1
102
RTVSPropertyOp54
 70
     1
102
RTVSPropertyOp55
 70
     1
102
RTVSPropertyOp56
 70
     1
102
RTVSPropertyOp57
 70
     1
102
RTVSPropertyOp58
 70
     1
102
RTVSPropertyOp59
 70
     1
102
RTVSPropertyOp60
 70
     1
102
RTVSPropertyOp61
 70
     1
102
RTVSPropertyOp62
 70
     1
  0
XRECORD
  5
331
102
{ACAD_REACTORS
330
330
102
}
330
330
100
AcDbXrecord
280
     1
102
RTVSPost2010Prop28
280
     0
102
RTVSPost2010PropOp28
 70
     1
102
RTVSPost2010Prop29
280
     1
102
RTVSPost2010PropOp29
 70
     1
102
RTVSPost2010Prop30
280
     1
102
RTVSPost2010PropOp30
 70
     1
102
RTVSPost2010Prop31
280
     0
102
RTVSPost2010PropOp31
 70
     1
102
RTVSPost2010Prop32
280
     0
102
RTVSPost2010PropOp32
 70
     1
102
RTVSPost2010Prop33
280
     0
102
RTVSPost2010PropOp33
 70
     1
102
RTVSPost2010Prop34
280
     0
102
RTVSPost2010PropOp34
 70
     1
102
RTVSPost2010Prop35
280
     0
102
RTVSPost2010PropOp35
 70
     1
102
RTVSPost2010Prop36
280
     0
102
RTVSPost2010PropOp36
 70
     1
102
RTVSPost2010Prop37
 90
       50
102
RTVSPost2010PropOp37
 70
     1
102
RTVSPost2010Prop38
140
0.0
102
RTVSPost2010PropOp38
 70
     1
102
RTVSPost2010Prop39
140
1.0
102
RTVSPost2010PropOp39
 70
     1
102
RTVSPost2010Prop40
 90
        0
102
RTVSPost2010PropOp40
 70
     1
102
RTVSPost2010Prop41ColorIndex
 90
       18
102
RTVSPost2010Prop41ColorRGB
 90
        0
102
RTVSPost2010PropOp41
 70
     1
102
RTVSPost2010Prop42
 90
       50
102
RTVSPost2010PropOp42
 70
     1
102
RTVSPost2010Prop43
 90
        3
102
RTVSPost2010PropOp43
 70
     1
102
RTVSPost2010Prop44ColorIndex
 90
        5
102
RTVSPost2010Prop44ColorRGB
 90
      255
102
RTVSPost2010PropOp44
 70
     1
102
RTVSPost2010Prop45
280
     0
102
RTVSPost2010PropOp45
 70
     1
102
RTVSPost2010Prop46
 90
       50
102
RTVSPost2010PropOp46
 70
     1
102
RTVSPost2010Prop47
 90
       50
102
RTVSPost2010PropOp47
 70
     1
102
RTVSPost2010Prop48
 90
       50
102
RTVSPost2010PropOp48
 70
     1
102
RTVSPost2010Prop49
280
     0
102
RTVSPost2010PropOp49
 70
     1
102
RTVSPost2010Prop50
 90
       50
102
RTVSPost2010PropOp50
 70
     1
102
RTVSPost2010Prop51ColorIndex
 90
      256
102
RTVSPost2010Prop51ColorRGB
 90
-16777216
102
RTVSPost2010PropOp51
 70
     0
102
RTVSPost2010Prop52
140
1.0
102
RTVSPost2010PropOp52
 70
     0
102
RTVSPost2010Prop53
 90
        2
102
RTVSPost2010PropOp53
 70
     1
102
RTVSPost2010Prop54
  1
strokes_ogs.tif
102
RTVSPost2010PropOp54
 70
     1
102
RTVSPost2010Prop55
280
     0
102
RTVSPost2010PropOp55
 70
     1
102
RTVSPost2010Prop56
140
1.0
102
RTVSPost2010PropOp56
 70
     1
102
RTVSPost2010Prop57
140
1.0
102
RTVSPost2010PropOp57
 70
     1
102
RTVSPropertyOp0
 70
     1
102
RTVSPropertyOp1
 70
     1
102
RTVSPropertyOp2
 70
     1
102
RTVSPropertyOp3
 70
     1
102
RTVSPropertyOp4
 70
     1
102
RTVSPropertyOp5
 70
     1
102
RTVSPropertyOp6
 70
     1
102
RTVSPropertyOp7
 70
     1
102
RTVSPropertyOp8
 70
     1
102
RTVSPropertyOp9
 70
     1
102
RTVSPropertyOp10
 70
     1
102
RTVSPropertyOp11
 70
     1
102
RTVSPropertyOp12
 70
     1
102
RTVSPropertyOp13
 70
     1
102
RTVSPropertyOp14
 70
     1
102
RTVSPropertyOp15
 70
     1
102
RTVSPropertyOp16
 70
     1
102
RTVSPropertyOp17
 70
     1
102
RTVSPropertyOp18
 70
     1
102
RTVSPropertyOp19
 70
     1
102
RTVSPropertyOp20
 70
     1
102
RTVSPropertyOp21
 70
     1
102
RTVSPropertyOp22
 70
     1
102
RTVSPropertyOp23
 70
     1
102
RTVSPropertyOp24
 70
     1
102
RTVSPropertyOp25
 70
     1
102
RTVSPropertyOp26
 70
     1
102
RTVSPropertyOp27
 70
     1
102
RTVSPropertyOp28
 70
     1
102
RTVSPropertyOp29
 70
     1
102
RTVSPropertyOp30
 70
     1
102
RTVSPropertyOp31
 70
     1
102
RTVSPropertyOp32
 70
     1
102
RTVSPropertyOp33
 70
     1
102
RTVSPropertyOp34
 70
     1
102
RTVSPropertyOp35
 70
     1
102
RTVSPropertyOp36
 70
     1
102
RTVSPropertyOp37
 70
     1
102
RTVSPropertyOp38
 70
     1
102
RTVSPropertyOp39
 70
     1
102
RTVSPropertyOp40
 70
     1
102
RTVSPropertyOp41
 70
     1
102
RTVSPropertyOp42
 70
     1
102
RTVSPropertyOp43
 70
     1
102
RTVSPropertyOp44
 70
     1
102
RTVSPropertyOp45
 70
     1
102
RTVSPropertyOp46
 70
     1
102
RTVSPropertyOp47
 70
     1
102
RTVSPropertyOp48
 70
     1
102
RTVSPropertyOp49
 70
     1
102
RTVSPropertyOp50
 70
     1
102
RTVSPropertyOp51
 70
     0
102
RTVSPropertyOp52
 70
     0
102
RTVSPropertyOp53
 70
     1
102
RTVSPropertyOp54
 70
     1
102
RTVSPropertyOp55
 70
     1
102
RTVSPropertyOp56
 70
     1
102
RTVSPropertyOp57
 70
     1
102
RTVSPropertyOp58
 70
     1
102
RTVSPropertyOp59
 70
     1
102
RTVSPropertyOp60
 70
     1
102
RTVSPropertyOp61
 70
     1
102
RTVSPropertyOp62
 70
     1
  0
XRECORD
  5
323
102
{ACAD_REACTORS
330
322
102
}
330
322
100
AcDbXrecord
280
     1
102
RTVSPost2010Prop28
280
     0
102
RTVSPost2010PropOp28
 70
     1
102
RTVSPost2010Prop29
280
     1
102
RTVSPost2010PropOp29
 70
     1
102
RTVSPost2010Prop30
280
     1
102
RTVSPost2010PropOp30
 70
     1
102
RTVSPost2010Prop31
280
     0
102
RTVSPost2010PropOp31
 70
     1
102
RTVSPost2010Prop32
280
     0
102
RTVSPost2010PropOp32
 70
     1
102
RTVSPost2010Prop33
280
     0
102
RTVSPost2010PropOp33
 70
     1
102
RTVSPost2010Prop34
280
     0
102
RTVSPost2010PropOp34
 70
     1
102
RTVSPost2010Prop35
280
     0
102
RTVSPost2010PropOp35
 70
     1
102
RTVSPost2010Prop36
280
     0
102
RTVSPost2010PropOp36
 70
     1
102
RTVSPost2010Prop37
 90
       50
102
RTVSPost2010PropOp37
 70
     1
102
RTVSPost2010Prop38
140
0.0
102
RTVSPost2010PropOp38
 70
     1
102
RTVSPost2010Prop39
140
1.0
102
RTVSPost2010PropOp39
 70
     1
102
RTVSPost2010Prop40
 90
        0
102
RTVSPost2010PropOp40
 70
     1
102
RTVSPost2010Prop41ColorIndex
 90
       18
102
RTVSPost2010Prop41ColorRGB
 90
        0
102
RTVSPost2010PropOp41
 70
     1
102
RTVSPost2010Prop42
 90
       50
102
RTVSPost2010PropOp42
 70
     1
102
RTVSPost2010Prop43
 90
        3
102
RTVSPost2010PropOp43
 70
     1
102
RTVSPost2010Prop44ColorIndex
 90
        5
102
RTVSPost2010Prop44ColorRGB
 90
      255
102
RTVSPost2010PropOp44
 70
     1
102
RTVSPost2010Prop45
280
     0
102
RTVSPost2010PropOp45
 70
     1
102
RTVSPost2010Prop46
 90
       50
102
RTVSPost2010PropOp46
 70
     1
102
RTVSPost2010Prop47
 90
       50
102
RTVSPost2010PropOp47
 70
     1
102
RTVSPost2010Prop48
 90
       50
102
RTVSPost2010PropOp48
 70
     1
102
RTVSPost2010Prop49
280
     0
102
RTVSPost2010PropOp49
 70
     1
102
RTVSPost2010Prop50
 90
       50
102
RTVSPost2010PropOp50
 70
     1
102
RTVSPost2010Prop51ColorIndex
 90
      256
102
RTVSPost2010Prop51ColorRGB
 90
-16777216
102
RTVSPost2010PropOp51
 70
     0
102
RTVSPost2010Prop52
140
1.0
102
RTVSPost2010PropOp52
 70
     0
102
RTVSPost2010Prop53
 90
        2
102
RTVSPost2010PropOp53
 70
     1
102
RTVSPost2010Prop54
  1
strokes_ogs.tif
102
RTVSPost2010PropOp54
 70
     1
102
RTVSPost2010Prop55
280
     0
102
RTVSPost2010PropOp55
 70
     1
102
RTVSPost2010Prop56
140
1.0
102
RTVSPost2010PropOp56
 70
     1
102
RTVSPost2010Prop57
140
1.0
102
RTVSPost2010PropOp57
 70
     1
102
RTVSPropertyOp0
 70
     1
102
RTVSPropertyOp1
 70
     1
102
RTVSPropertyOp2
 70
     1
102
RTVSPropertyOp3
 70
     1
102
RTVSPropertyOp4
 70
     1
102
RTVSPropertyOp5
 70
     1
102
RTVSPropertyOp6
 70
     1
102
RTVSPropertyOp7
 70
     1
102
RTVSPropertyOp8
 70
     1
102
RTVSPropertyOp9
 70
     1
102
RTVSPropertyOp10
 70
     1
102
RTVSPropertyOp11
 70
     1
102
RTVSPropertyOp12
 70
     1
102
RTVSPropertyOp13
 70
     1
102
RTVSPropertyOp14
 70
     1
102
RTVSPropertyOp15
 70
     1
102
RTVSPropertyOp16
 70
     1
102
RTVSPropertyOp17
 70
     1
102
RTVSPropertyOp18
 70
     1
102
RTVSPropertyOp19
 70
     1
102
RTVSPropertyOp20
 70
     1
102
RTVSPropertyOp21
 70
     1
102
RTVSPropertyOp22
 70
     1
102
RTVSPropertyOp23
 70
     1
102
RTVSPropertyOp24
 70
     1
102
RTVSPropertyOp25
 70
     1
102
RTVSPropertyOp26
 70
     1
102
RTVSPropertyOp27
 70
     1
102
RTVSPropertyOp28
 70
     1
102
RTVSPropertyOp29
 70
     1
102
RTVSPropertyOp30
 70
     1
102
RTVSPropertyOp31
 70
     1
102
RTVSPropertyOp32
 70
     1
102
RTVSPropertyOp33
 70
     1
102
RTVSPropertyOp34
 70
     1
102
RTVSPropertyOp35
 70
     1
102
RTVSPropertyOp36
 70
     1
102
RTVSPropertyOp37
 70
     1
102
RTVSPropertyOp38
 70
     1
102
RTVSPropertyOp39
 70
     1
102
RTVSPropertyOp40
 70
     1
102
RTVSPropertyOp41
 70
     1
102
RTVSPropertyOp42
 70
     1
102
RTVSPropertyOp43
 70
     1
102
RTVSPropertyOp44
 70
     1
102
RTVSPropertyOp45
 70
     1
102
RTVSPropertyOp46
 70
     1
102
RTVSPropertyOp47
 70
     1
102
RTVSPropertyOp48
 70
     1
102
RTVSPropertyOp49
 70
     1
102
RTVSPropertyOp50
 70
     1
102
RTVSPropertyOp51
 70
     0
102
RTVSPropertyOp52
 70
     0
102
RTVSPropertyOp53
 70
     1
102
RTVSPropertyOp54
 70
     1
102
RTVSPropertyOp55
 70
     1
102
RTVSPropertyOp56
 70
     1
102
RTVSPropertyOp57
 70
     1
102
RTVSPropertyOp58
 70
     1
102
RTVSPropertyOp59
 70
     1
102
RTVSPropertyOp60
 70
     1
102
RTVSPropertyOp61
 70
     1
102
RTVSPropertyOp62
 70
     1
  0
XRECORD
  5
343
102
{ACAD_REACTORS
330
342
102
}
330
342
100
AcDbXrecord
280
     1
102
RTVSPost2010Prop28
280
     0
102
RTVSPost2010PropOp28
 70
     1
102
RTVSPost2010Prop29
280
     1
102
RTVSPost2010PropOp29
 70
     1
102
RTVSPost2010Prop30
280
     1
102
RTVSPost2010PropOp30
 70
     1
102
RTVSPost2010Prop31
280
     0
102
RTVSPost2010PropOp31
 70
     1
102
RTVSPost2010Prop32
280
     0
102
RTVSPost2010PropOp32
 70
     1
102
RTVSPost2010Prop33
280
     0
102
RTVSPost2010PropOp33
 70
     1
102
RTVSPost2010Prop34
280
     0
102
RTVSPost2010PropOp34
 70
     1
102
RTVSPost2010Prop35
280
     0
102
RTVSPost2010PropOp35
 70
     1
102
RTVSPost2010Prop36
280
     0
102
RTVSPost2010PropOp36
 70
     1
102
RTVSPost2010Prop37
 90
       50
102
RTVSPost2010PropOp37
 70
     1
102
RTVSPost2010Prop38
140
0.0
102
RTVSPost2010PropOp38
 70
     1
102
RTVSPost2010Prop39
140
1.0
102
RTVSPost2010PropOp39
 70
     1
102
RTVSPost2010Prop40
 90
        0
102
RTVSPost2010PropOp40
 70
     1
102
RTVSPost2010Prop41ColorIndex
 90
       18
102
RTVSPost2010Prop41ColorRGB
 90
        0
102
RTVSPost2010PropOp41
 70
     1
102
RTVSPost2010Prop42
 90
       50
102
RTVSPost2010PropOp42
 70
     1
102
RTVSPost2010Prop43
 90
        3
102
RTVSPost2010PropOp43
 70
     1
102
RTVSPost2010Prop44ColorIndex
 90
        5
102
RTVSPost2010Prop44ColorRGB
 90
      255
102
RTVSPost2010PropOp44
 70
     1
102
RTVSPost2010Prop45
280
     0
102
RTVSPost2010PropOp45
 70
     1
102
RTVSPost2010Prop46
 90
       50
102
RTVSPost2010PropOp46
 70
     1
102
RTVSPost2010Prop47
 90
       50
102
RTVSPost2010PropOp47
 70
     1
102
RTVSPost2010Prop48
 90
       50
102
RTVSPost2010PropOp48
 70
     1
102
RTVSPost2010Prop49
280
     0
102
RTVSPost2010PropOp49
 70
     1
102
RTVSPost2010Prop50
 90
       50
102
RTVSPost2010PropOp50
 70
     1
102
RTVSPost2010Prop51ColorIndex
 90
      256
102
RTVSPost2010Prop51ColorRGB
 90
-16777216
102
RTVSPost2010PropOp51
 70
     0
102
RTVSPost2010Prop52
140
1.0
102
RTVSPost2010PropOp52
 70
     0
102
RTVSPost2010Prop53
 90
        2
102
RTVSPost2010PropOp53
 70
     1
102
RTVSPost2010Prop54
  1
strokes_ogs.tif
102
RTVSPost2010PropOp54
 70
     1
102
RTVSPost2010Prop55
280
     0
102
RTVSPost2010PropOp55
 70
     1
102
RTVSPost2010Prop56
140
1.0
102
RTVSPost2010PropOp56
 70
     1
102
RTVSPost2010Prop57
140
1.0
102
RTVSPost2010PropOp57
 70
     1
102
RTVSPropertyOp0
 70
     1
102
RTVSPropertyOp1
 70
     1
102
RTVSPropertyOp2
 70
     1
102
RTVSPropertyOp3
 70
     1
102
RTVSPropertyOp4
 70
     1
102
RTVSPropertyOp5
 70
     1
102
RTVSPropertyOp6
 70
     1
102
RTVSPropertyOp7
 70
     1
102
RTVSPropertyOp8
 70
     1
102
RTVSPropertyOp9
 70
     1
102
RTVSPropertyOp10
 70
     1
102
RTVSPropertyOp11
 70
     1
102
RTVSPropertyOp12
 70
     1
102
RTVSPropertyOp13
 70
     1
102
RTVSPropertyOp14
 70
     1
102
RTVSPropertyOp15
 70
     1
102
RTVSPropertyOp16
 70
     1
102
RTVSPropertyOp17
 70
     1
102
RTVSPropertyOp18
 70
     1
102
RTVSPropertyOp19
 70
     1
102
RTVSPropertyOp20
 70
     1
102
RTVSPropertyOp21
 70
     1
102
RTVSPropertyOp22
 70
     1
102
RTVSPropertyOp23
 70
     1
102
RTVSPropertyOp24
 70
     1
102
RTVSPropertyOp25
 70
     1
102
RTVSPropertyOp26
 70
     1
102
RTVSPropertyOp27
 70
     1
102
RTVSPropertyOp28
 70
     1
102
RTVSPropertyOp29
 70
     1
102
RTVSPropertyOp30
 70
     1
102
RTVSPropertyOp31
 70
     1
102
RTVSPropertyOp32
 70
     1
102
RTVSPropertyOp33
 70
     1
102
RTVSPropertyOp34
 70
     1
102
RTVSPropertyOp35
 70
     1
102
RTVSPropertyOp36
 70
     1
102
RTVSPropertyOp37
 70
     1
102
RTVSPropertyOp38
 70
     1
102
RTVSPropertyOp39
 70
     1
102
RTVSPropertyOp40
 70
     1
102
RTVSPropertyOp41
 70
     1
102
RTVSPropertyOp42
 70
     1
102
RTVSPropertyOp43
 70
     1
102
RTVSPropertyOp44
 70
     1
102
RTVSPropertyOp45
 70
     1
102
RTVSPropertyOp46
 70
     1
102
RTVSPropertyOp47
 70
     1
102
RTVSPropertyOp48
 70
     1
102
RTVSPropertyOp49
 70
     1
102
RTVSPropertyOp50
 70
     1
102
RTVSPropertyOp51
 70
     0
102
RTVSPropertyOp52
 70
     0
102
RTVSPropertyOp53
 70
     1
102
RTVSPropertyOp54
 70
     1
102
RTVSPropertyOp55
 70
     1
102
RTVSPropertyOp56
 70
     1
102
RTVSPropertyOp57
 70
     1
102
RTVSPropertyOp58
 70
     1
102
RTVSPropertyOp59
 70
     1
102
RTVSPropertyOp60
 70
     1
102
RTVSPropertyOp61
 70
     1
102
RTVSPropertyOp62
 70
     1
  0
ENDSEC
  0
EOF
