  0
SECTION
  2
HEADER
  9
$ACADVER
  1
AC1018
  9
$ACADMAINTVER
 70
   104
  9
$DWGCODEPAGE
  3
ANSI_1250
  9
$LASTSAVEDBY
  1
hm1535
  9
$INSBASE
 10
0.0
 20
0.0
 30
0.0
  9
$EXTMIN
 10
245.5822143333334
 20
21.404126
 30
0.0
  9
$EXTMAX
 10
587.478648
 20
413.6759736666666
 30
0.0
  9
$LIMMIN
 10
-0.5
 20
-0.5
  9
$LIMMAX
 10
5.0
 20
5.0
  9
$ORTHOMODE
 70
     0
  9
$REGENMODE
 70
     1
  9
$FILLMODE
 70
     1
  9
$QTEXTMODE
 70
     0
  9
$MIRRTEXT
 70
     1
  9
$LTSCALE
 40
1.0
  9
$ATTMODE
 70
     1
  9
$TEXTSIZE
 40
0.2
  9
$TRACEWID
 40
0.05
  9
$TEXTSTYLE
  7
Standard
  9
$CLAYER
  8
0
  9
$CELTYPE
  6
ByLayer
  9
$CECOLOR
 62
   256
  9
$CELTSCALE
 40
1.0
  9
$DISPSILH
 70
     0
  9
$DIMSCALE
 40
1.0
  9
$DIMASZ
 40
0.18
  9
$DIMEXO
 40
0.0625
  9
$DIMDLI
 40
0.38
  9
$DIMRND
 40
0.0
  9
$DIMDLE
 40
0.0
  9
$DIMEXE
 40
0.18
  9
$DIMTP
 40
0.0
  9
$DIMTM
 40
0.0
  9
$DIMTXT
 40
0.18
  9
$DIMCEN
 40
0.09
  9
$DIMTSZ
 40
0.0
  9
$DIMTOL
 70
     0
  9
$DIMLIM
 70
     0
  9
$DIMTIH
 70
     1
  9
$DIMTOH
 70
     1
  9
$DIMSE1
 70
     0
  9
$DIMSE2
 70
     0
  9
$DIMTAD
 70
     0
  9
$DIMZIN
 70
     0
  9
$DIMBLK
  1

  9
$DIMASO
 70
     1
  9
$DIMSHO
 70
     1
  9
$DIMPOST
  1

  9
$DIMAPOST
  1

  9
$DIMALT
 70
     0
  9
$DIMALTD
 70
     2
  9
$DIMALTF
 40
25.4
  9
$DIMLFAC
 40
1.0
  9
$DIMTOFL
 70
     0
  9
$DIMTVP
 40
0.0
  9
$DIMTIX
 70
     0
  9
$DIMSOXD
 70
     0
  9
$DIMSAH
 70
     0
  9
$DIMBLK1
  1

  9
$DIMBLK2
  1

  9
$DIMSTYLE
  2
Standard
  9
$DIMCLRD
 70
     0
  9
$DIMCLRE
 70
     0
  9
$DIMCLRT
 70
     0
  9
$DIMTFAC
 40
1.0
  9
$DIMGAP
 40
0.09
  9
$DIMJUST
 70
     0
  9
$DIMSD1
 70
     0
  9
$DIMSD2
 70
     0
  9
$DIMTOLJ
 70
     1
  9
$DIMTZIN
 70
     0
  9
$DIMALTZ
 70
     0
  9
$DIMALTTZ
 70
     0
  9
$DIMUPT
 70
     0
  9
$DIMDEC
 70
     4
  9
$DIMTDEC
 70
     4
  9
$DIMALTU
 70
     2
  9
$DIMALTTD
 70
     2
  9
$DIMTXSTY
  7
Standard
  9
$DIMAUNIT
 70
     0
  9
$DIMADEC
 70
     0
  9
$DIMALTRND
 40
0.0
  9
$DIMAZIN
 70
     0
  9
$DIMDSEP
 70
    46
  9
$DIMATFIT
 70
     3
  9
$DIMFRAC
 70
     0
  9
$DIMLDRBLK
  1

  9
$DIMLUNIT
 70
     2
  9
$DIMLWD
 70
    -2
  9
$DIMLWE
 70
    -2
  9
$DIMTMOVE
 70
     0
  9
$LUNITS
 70
     2
  9
$LUPREC
 70
     2
  9
$SKETCHINC
 40
0.1
  9
$FILLETRAD
 40
0.5
  9
$AUNITS
 70
     0
  9
$AUPREC
 70
     0
  9
$MENU
  1
.
  9
$ELEVATION
 40
0.0
  9
$PELEVATION
 40
0.0
  9
$THICKNESS
 40
0.0
  9
$LIMCHECK
 70
     0
  9
$CHAMFERA
 40
0.0
  9
$CHAMFERB
 40
0.0
  9
$CHAMFERC
 40
0.0
  9
$CHAMFERD
 40
0.0
  9
$SKPOLY
 70
     0
  9
$TDCREATE
 40
2458878.415844908
  9
$TDUCREATE
 40
2458878.374184283
  9
$TDUPDATE
 40
2458878.416238426
  9
$TDUUPDATE
 40
2458878.374571760
  9
$TDINDWG
 40
0.0001851968
  9
$TDUSRTIMER
 40
0.0001851968
  9
$USRTIMER
 70
     1
  9
$ANGBASE
 50
0.0
  9
$ANGDIR
 70
     0
  9
$PDMODE
 70
     0
  9
$PDSIZE
 40
0.0
  9
$PLINEWID
 40
0.0
  9
$SPLFRAME
 70
     0
  9
$SPLINETYPE
 70
     6
  9
$SPLINESEGS
 70
     8
  9
$HANDSEED
  5
383
  9
$SURFTAB1
 70
     6
  9
$SURFTAB2
 70
     6
  9
$SURFTYPE
 70
     6
  9
$SURFU
 70
     6
  9
$SURFV
 70
     6
  9
$UCSBASE
  2

  9
$UCSNAME
  2

  9
$UCSORG
 10
321.174849
 20
366.008075
 30
0.0
  9
$UCSXDIR
 10
1.0
 20
0.0
 30
0.0
  9
$UCSYDIR
 10
0.0
 20
1.0
 30
0.0
  9
$UCSORTHOREF
  2

  9
$UCSORTHOVIEW
 70
     0
  9
$UCSORGTOP
 10
0.0
 20
0.0
 30
0.0
  9
$UCSORGBOTTOM
 10
0.0
 20
0.0
 30
0.0
  9
$UCSORGLEFT
 10
0.0
 20
0.0
 30
0.0
  9
$UCSORGRIGHT
 10
0.0
 20
0.0
 30
0.0
  9
$UCSORGFRONT
 10
0.0
 20
0.0
 30
0.0
  9
$UCSORGBACK
 10
0.0
 20
0.0
 30
0.0
  9
$PUCSBASE
  2

  9
$PUCSNAME
  2

  9
$PUCSORG
 10
0.0
 20
0.0
 30
0.0
  9
$PUCSXDIR
 10
1.0
 20
0.0
 30
0.0
  9
$PUCSYDIR
 10
0.0
 20
1.0
 30
0.0
  9
$PUCSORTHOREF
  2

  9
$PUCSORTHOVIEW
 70
     0
  9
$PUCSORGTOP
 10
0.0
 20
0.0
 30
0.0
  9
$PUCSORGBOTTOM
 10
0.0
 20
0.0
 30
0.0
  9
$PUCSORGLEFT
 10
0.0
 20
0.0
 30
0.0
  9
$PUCSORGRIGHT
 10
0.0
 20
0.0
 30
0.0
  9
$PUCSORGFRONT
 10
0.0
 20
0.0
 30
0.0
  9
$PUCSORGBACK
 10
0.0
 20
0.0
 30
0.0
  9
$USERI1
 70
     0
  9
$USERI2
 70
     0
  9
$USERI3
 70
     0
  9
$USERI4
 70
     0
  9
$USERI5
 70
     0
  9
$USERR1
 40
0.0
  9
$USERR2
 40
0.0
  9
$USERR3
 40
0.0
  9
$USERR4
 40
0.0
  9
$USERR5
 40
0.0
  9
$WORLDVIEW
 70
     1
  9
$SHADEDGE
 70
     3
  9
$SHADEDIF
 70
    70
  9
$TILEMODE
 70
     1
  9
$MAXACTVP
 70
    64
  9
$PINSBASE
 10
0.0
 20
0.0
 30
0.0
  9
$PLIMCHECK
 70
     0
  9
$PEXTMIN
 10
-0.5
 20
-0.5
 30
-0.5
  9
$PEXTMAX
 10
5.0
 20
5.0
 30
5.0
  9
$PLIMMIN
 10
-0.5
 20
-0.5
  9
$PLIMMAX
 10
5.0
 20
5.0
  9
$UNITMODE
 70
     0
  9
$VISRETAIN
 70
     1
  9
$PLINEGEN
 70
     0
  9
$PSLTSCALE
 70
     1
  9
$TREEDEPTH
 70
  3020
  9
$CMLSTYLE
  2
Standard
  9
$CMLJUST
 70
     0
  9
$CMLSCALE
 40
1.0
  9
$PROXYGRAPHICS
 70
     1
  9
$MEASUREMENT
 70
     1
  9
$CELWEIGHT
370
    13
  9
$ENDCAPS
280
     0
  9
$JOINSTYLE
280
     0
  9
$LWDISPLAY
290
     0
  9
$INSUNITS
 70
     4
  9
$HYPERLINKBASE
  1

  9
$STYLESHEET
  1

  9
$XEDIT
290
     1
  9
$CEPSNTYPE
380
     0
  9
$PSTYLEMODE
290
     1
  9
$FINGERPRINTGUID
  2
{9BC436E1-AE07-4B08-86D6-4EC98F8C7498}
  9
$VERSIONGUID
  2
{F15736FB-D07C-7641-94A6-68EF0F9C2D14}
  9
$EXTNAMES
290
     1
  9
$PSVPSCALE
 40
0.0
  9
$OLESTARTUP
290
     0
  9
$SORTENTS
280
   127
  9
$INDEXCTL
280
     0
  9
$HIDETEXT
280
     1
  9
$XCLIPFRAME
290
     0
  9
$HALOGAP
280
     0
  9
$OBSCOLOR
 70
   257
  9
$OBSLTYPE
280
     0
  9
$INTERSECTIONDISPLAY
280
     0
  9
$INTERSECTIONCOLOR
 70
   257
  9
$DIMASSOC
280
     2
  9
$PROJECTNAME
  1

  0
ENDSEC
  0
SECTION
  2
CLASSES
  0
CLASS
  1
ACDBDICTIONARYWDFLT
  2
AcDbDictionaryWithDefault
  3
ObjectDBX Classes
 90
        0
 91
        1
280
     0
281
     0
  0
CLASS
  1
VISUALSTYLE
  2
AcDbVisualStyle
  3
ObjectDBX Classes
 90
     4095
 91
       24
280
     0
281
     0
  0
CLASS
  1
MATERIAL
  2
AcDbMaterial
  3
ObjectDBX Classes
 90
     1153
 91
        3
280
     0
281
     0
  0
CLASS
  1
SCALE
  2
AcDbScale
  3
ObjectDBX Classes
 90
     1153
 91
       33
280
     0
281
     0
  0
CLASS
  1
TABLESTYLE
  2
AcDbTableStyle
  3
ObjectDBX Classes
 90
     4095
 91
        1
280
     0
281
     0
  0
CLASS
  1
MLEADERSTYLE
  2
AcDbMLeaderStyle
  3
ACDB_MLEADERSTYLE_CLASS
 90
     4095
 91
        1
280
     0
281
     0
  0
CLASS
  1
SUN
  2
AcDbSun
  3
SCENEOE
 90
     1153
 91
        0
280
     0
281
     0
  0
CLASS
  1
IMAGEDEF
  2
AcDbRasterImageDef
  3
ISM
 90
        0
 91
        1
280
     0
281
     0
  0
CLASS
  1
IMAGE
  2
AcDbRasterImage
  3
ISM
 90
     2175
 91
        1
280
     0
281
     1
  0
CLASS
  1
IMAGEDEF_REACTOR
  2
AcDbRasterImageDefReactor
  3
ISM
 90
        1
 91
        1
280
     0
281
     0
  0
CLASS
  1
DIMASSOC
  2
AcDbDimAssoc
  3
"AcDbDimAssoc|Product Desc:     AcDim ARX App For Dimension|Company:          Autodesk, Inc.|WEB Address:      www.autodesk.com"
 90
        0
 91
        6
280
     0
281
     0
  0
CLASS
  1
DICTIONARYVAR
  2
AcDbDictionaryVar
  3
ObjectDBX Classes
 90
        0
 91
        8
280
     0
281
     0
  0
CLASS
  1
CELLSTYLEMAP
  2
AcDbCellStyleMap
  3
ObjectDBX Classes
 90
     1152
 91
        2
280
     0
281
     0
  0
CLASS
  1
ACDBSECTIONVIEWSTYLE
  2
AcDbSectionViewStyle
  3
ObjectDBX Classes
 90
     1025
 91
        2
280
     0
281
     0
  0
CLASS
  1
ACDBDETAILVIEWSTYLE
  2
AcDbDetailViewStyle
  3
ObjectDBX Classes
 90
     1025
 91
        2
280
     0
281
     0
  0
CLASS
  1
RASTERVARIABLES
  2
AcDbRasterVariables
  3
ISM
 90
        0
 91
        1
280
     0
281
     0
  0
CLASS
  1
AMGSETTINGSOBJ
  2
AmgSettingsObj
  3
"AcadM|Product Description: AutoCAD Mechanical|Company: Autodesk, Inc."
 90
     1024
 91
        2
280
     0
281
     0
  0
CLASS
  1
ACME_DOCUMENT
  2
AcMeDbDoc
  3
AcMeServices
 90
     1024
 91
        1
280
     0
281
     0
  0
CLASS
  1
ACMESCOPE
  2
AcMeScope
  3
AcMeServices
 90
     1024
 91
        1
280
     0
281
     0
  0
CLASS
  1
ACMECOMMANDHISTORY
  2
AcMeCommandHistory
  3
AcMeServices
 90
     1024
 91
        1
280
     0
281
     0
  0
CLASS
  1
ACIMSYSVARMAN
  2
AcImSysVarManager
  3
AcMeServices
 90
     1024
 91
        3
280
     0
281
     0
  0
CLASS
  1
ACIMINTSYSVAR
  2
AcImIntSysVar
  3
AcMeServices
 90
     1024
 91
        2
280
     0
281
     0
  0
CLASS
  1
ACMESTATEMGR
  2
AcMeStateMgr
  3
AcMeServices
 90
     1024
 91
        1
280
     0
281
     0
  0
CLASS
  1
ACDBENTITYCACHE
  2
AcMeEntityCache
  3
AcMeServices
 90
     1024
 91
        1
280
     0
281
     0
  0
CLASS
  1
ACGREFMASTER
  2
AcGrefMaster
  3
AcAttribServices
 90
     1024
 91
        1
280
     0
281
     0
  0
CLASS
  1
ACME_DATABASE
  2
AcMeDbDatabase
  3
AcMeServices
 90
     1024
 91
        1
280
     0
281
     0
  0
CLASS
  1
ACRFINSADJUSTERMGR
  2
AcRfInsAdjusterMgr
  3
AcMeServices
 90
     1024
 91
        1
280
     0
281
     0
  0
CLASS
  1
ACGREFACADMASTER
  2
AcGrefacadMaster
  3
AcGrefServices
 90
     1024
 91
        1
280
     0
281
     0
  0
CLASS
  1
AMIMASTER
  2
AmiMaster
  3
AmiServices
 90
     1024
 91
        1
280
     0
281
     0
  0
CLASS
  1
AMDTMENUSTATEMGR
  2
AmdtMenuStateMgr
  3
McadcomServices
 90
     1024
 91
        1
280
     0
281
     0
  0
CLASS
  1
AMDTMCOMMENUSTATE
  2
AmdtMcomMenuState
  3
McadcomServices
 90
     1024
 91
        1
280
     0
281
     0
  0
CLASS
  1
MAPIAMMOUDLE
  2
MApiAmModule
  3
MApiAmServices
 90
     1024
 91
        1
280
     0
281
     0
  0
CLASS
  1
ACIMSTRSYSVAR
  2
AcImStrSysVar
  3
AcMeServices
 90
     1024
 91
        5
280
     0
281
     0
  0
CLASS
  1
AMDTAMMENUSTATE
  2
AmdtAmMenuState
  3
DesignerAssemblies_arx
 90
     1024
 91
        1
280
     0
281
     0
  0
CLASS
  1
ACAMPROJECT
  2
AcAmProject
  3
DesignerAssemblies
 90
     1024
 91
        1
280
     0
281
     0
  0
CLASS
  1
ACAMGRCOMPDEF
  2
AcAmGrCompDef
  3
DesignerAssemblies
 90
     1024
 91
        1
280
     0
281
     0
  0
CLASS
  1
ACAMCOMPDEF
  2
AcAmCompDef
  3
DesignerAssemblies
 90
     1024
 91
        1
280
     0
281
     0
  0
CLASS
  1
ACAMCOMPDEFMGR
  2
AcAmCompDefMgr
  3
DesignerAssemblies
 90
     1024
 91
        1
280
     0
281
     0
  0
CLASS
  1
AMCONTEXTMGR
  2
AcAmContextMgr
  3
DesignerAssemblies
 90
     1024
 91
        1
280
     0
281
     0
  0
CLASS
  1
ACAMCONTEXTMODELER
  2
AcAmContextModeler
  3
DesignerAssemblies
 90
     1024
 91
        1
280
     0
281
     0
  0
CLASS
  1
ACMDATADICTIONARY
  2
AcmDataDictionary
  3
"AcmSymBB|Product Description: AutoCAD Mechanical|Company: Autodesk, Inc."
 90
     1024
 91
        1
280
     0
281
     0
  0
CLASS
  1
ACAMGRCOMPDEFSET
  2
AcAmGrCompDefSet
  3
DesignerAssemblies
 90
     1024
 91
        1
280
     0
281
     0
  0
CLASS
  1
AMDTBROWSERDBTAB
  2
AmdtBrowserDbTab
  3
McadcomServices
 90
     1024
 91
        1
280
     0
281
     0
  0
CLASS
  1
CBROWSERAPPOBJECT
  2
CBrowserAppObject
  3
McadcomServices
 90
     1024
 91
        2
280
     0
281
     0
  0
CLASS
  1
DM_PLACEHOLDER
  2
AcDmSelsetPlaceholder
  3
McadcomServices
 90
     1024
 91
        1
280
     0
281
     0
  0
CLASS
  1
ACMSTANDARDISO
  2
AcmStandardISO
  3
"Amdt_StdImp|Product Description: AutoCAD Mechanical|Company: Autodesk, Inc."
 90
     1024
 91
        1
280
     0
281
     0
  0
CLASS
  1
AMDTEDGESTANDARDISO13715
  2
AmdtEdgeStdISO13715
  3
"Amdt_StdImp|Product Description: AutoCAD Mechanical|Company: Autodesk, Inc."
 90
     1024
 91
        1
280
     0
281
     0
  0
CLASS
  1
ACMSURFSTANDARDISO2002
  2
AcmSurfTextStdISO2002
  3
"Amdt_StdImp|Product Description: AutoCAD Mechanical|Company: Autodesk, Inc."
 90
     1024
 91
        1
280
     0
281
     0
  0
CLASS
  1
ACMFCFSTANDARDISO2012
  2
AcmFCFStdISO2012
  3
"Amdt_StdImp|Product Description: AutoCAD Mechanical|Company: Autodesk, Inc."
 90
     1024
 91
        1
280
     0
281
     0
  0
CLASS
  1
ACMWELDSTANDARDISO
  2
AcmWeldingStdISO
  3
"Amdt_StdImp|Product Description: AutoCAD Mechanical|Company: Autodesk, Inc."
 90
     1024
 91
        1
280
     0
281
     0
  0
CLASS
  1
ACMIDSTANDARDISO2012
  2
AcmIdStdISO2012
  3
"Amdt_StdImp|Product Description: AutoCAD Mechanical|Company: Autodesk, Inc."
 90
     1024
 91
        1
280
     0
281
     0
  0
CLASS
  1
ACMDATUMSTANDARDISO2012
  2
AcmDatumStdISO2012
  3
"Amdt_StdImp|Product Description: AutoCAD Mechanical|Company: Autodesk, Inc."
 90
     1024
 91
        1
280
     0
281
     0
  0
CLASS
  1
ACMBOMSTANDARDISO
  2
AcmBOMStdISO
  3
"Amdt_StdImp|Product Description: AutoCAD Mechanical|Company: Autodesk, Inc."
 90
     1024
 91
        1
280
     0
281
     0
  0
CLASS
  1
ACMDETAILSTANDARDISO
  2
AmdtDetailSymStdISO
  3
"Amdt_StdImp|Product Description: AutoCAD Mechanical|Company: Autodesk, Inc."
 90
     1024
 91
        1
280
     0
281
     0
  0
CLASS
  1
ACMSECTIONSTANDARDISO2001
  2
AmdtSectionSymStdISO2001
  3
"Amdt_StdImp|Product Description: AutoCAD Mechanical|Company: Autodesk, Inc."
 90
     1024
 91
        1
280
     0
281
     0
  0
CLASS
  1
ACMCENTERLINESTANDARDISO
  2
AmdtCenterLineStdISO
  3
"Amdt_StdImp|Product Description: AutoCAD Mechanical|Company: Autodesk, Inc."
 90
     1024
 91
        1
280
     0
281
     0
  0
CLASS
  1
ACMTHREADLINESTANDARDISO
  2
AmdtThreadLineStdISO
  3
"Amdt_StdImp|Product Description: AutoCAD Mechanical|Company: Autodesk, Inc."
 90
     1024
 91
        1
280
     0
281
     0
  0
CLASS
  1
ACMNOTESTANDARDISO
  2
AmdtNoteStdISO
  3
"Amdt_StdImp|Product Description: AutoCAD Mechanical|Company: Autodesk, Inc."
 90
     1024
 91
        1
280
     0
281
     0
  0
CLASS
  1
ACMTAPERSTANDARDISO
  2
AcmTaperStdISO
  3
"Amdt_StdImp|Product Description: AutoCAD Mechanical|Company: Autodesk, Inc."
 90
     1024
 91
        1
280
     0
281
     0
  0
CLASS
  1
ACMANOOTATIONVIEWSTANDARDISO
  2
AmdtAnViewStdISO
  3
"Amdt_StdImp|Product Description: AutoCAD Mechanical|Company: Autodesk, Inc."
 90
     1024
 91
        1
280
     0
281
     0
  0
CLASS
  1
ACAMGLAYSTD
  2
AcAmgLayStd
  3
"AmgLay|Product Description: AutoCAD Mechanical|Company: Autodesk, Inc."
 90
     1024
 91
        1
280
     0
281
     0
  0
CLASS
  1
ACAMGTITLESTD
  2
AcAmgTitleStd
  3
"AmgTitle|Product Description: AutoCAD Mechanical|Company: Autodesk, Inc."
 90
     1024
 91
        1
280
     0
281
     0
  0
CLASS
  1
ACAMGDIMSTD
  2
AcAmgDimStd
  3
"AmgDim|Product Description: AutoCAD Mechanical|Company: Autodesk, Inc."
 90
     1024
 91
        1
280
     0
281
     0
  0
CLASS
  1
AMGOBJPROPCFG
  2
AmgObjPropCfg
  3
"AmgLay|Product Description: AutoCAD Mechanical|Company: Autodesk, Inc."
 90
     1024
 91
        1
280
     0
281
     0
  0
CLASS
  1
ACAMGHOLECHARTSTDISO
  2
AcAmgHoleChartStdISO
  3
"AmgDim" "Product Description: AutoCAD Mechanical|Company: Autodesk, Inc."
 90
     1024
 91
        1
280
     0
281
     0
  0
CLASS
  1
ACMSECTIONSTANDARDCUSTOM
  2
AmdtSectionSymStdCustom
  3
"Amdt_StdImp|Product Description: AutoCAD Mechanical|Company: Autodesk, Inc."
 90
     1024
 91
        1
280
     0
281
     0
  0
CLASS
  1
ACMDETAILTANDARDCUSTOM
  2
AmdtDetailSymStdCustom
  3
"Amdt_StdImp|Product Description: AutoCAD Mechanical|Company: Autodesk, Inc."
 90
     1024
 91
        1
280
     0
281
     0
  0
CLASS
  1
FIELD
  2
AcDbField
  3
ObjectDBX Classes
 90
     1152
 91
        3
280
     0
281
     0
  0
CLASS
  1
FIELDLIST
  2
AcDbFieldList
  3
ObjectDBX Classes
 90
     1152
 91
        1
280
     0
281
     0
  0
CLASS
  1
AMDTNOTETEMPLATEDB
  2
AmdtNoteTemplateDB
  3
"AcmSymBB" "Product Description: AutoCAD Mechanical|Company: Autodesk, Inc."
 90
     1024
 91
        7
280
     0
281
     0
  0
CLASS
  1
ACAMGFILTERDAT
  2
AcAmgFilterDat
  3
"AcadM|Product Description: AutoCAD Mechanical|Company: Autodesk, Inc."
 90
     1024
 91
        6
280
     0
281
     0
  0
CLASS
  1
SORTENTSTABLE
  2
AcDbSortentsTable
  3
ObjectDBX Classes
 90
        0
 91
        1
280
     0
281
     0
  0
ENDSEC
  0
SECTION
  2
TABLES
  0
TABLE
  2
VPORT
  5
8
330
0
100
AcDbSymbolTable
 70
    16
  0
VPORT
  5
29
330
8
100
AcDbSymbolTableRecord
100
AcDbViewportTableRecord
  2
*Active
 70
     0
 10
0.0
 20
0.0
 11
1.0
 21
1.0
 12
390.9592610407171
 22
383.2834162072651
 13
0.0
 23
0.0
 14
0.5
 24
0.5
 15
0.5
 25
0.5
 16
0.0
 26
0.0
 36
1.0
 17
0.0
 27
0.0
 37
0.0
 40
202.5677755450192
 41
2.292712066905615
 42
50.0
 43
770.281532
 44
-770.281532
 50
0.0
 51
0.0
 71
     0
 72
   100
 73
     1
 74
     3
 75
     0
 76
     0
 77
     0
 78
     0
281
     0
 65
     0
110
0.0
120
0.0
130
0.0
111
1.0
121
0.0
131
0.0
112
0.0
122
1.0
132
0.0
 79
     0
146
0.0
1001
ACAD_NAV_VCDISPLAY
1070
     3
  0
VPORT
  5
20E
330
8
100
AcDbSymbolTableRecord
100
AcDbViewportTableRecord
  2
L1
 70
     0
 10
0.0
 20
0.0
 11
1.0
 21
1.0
 12
416.02622
 22
217.544638
 13
0.0
 23
0.0
 14
0.5
 24
0.5
 15
0.5
 25
0.5
 16
0.0
 26
0.0
 36
1.0
 17
0.0
 27
0.0
 37
0.0
 40
207.433333
 41
0.085602
 42
50.0
 43
770.281532
 44
-770.281532
 50
0.0
 51
0.0
 71
     0
 72
   100
 73
     1
 74
     3
 75
     0
 76
     0
 77
     0
 78
     0
281
     0
 65
     1
110
0.0
120
0.0
130
0.0
111
1.0
121
0.0
131
0.0
112
0.0
122
1.0
132
0.0
 79
     0
146
0.0
  0
VPORT
  5
20F
330
8
100
AcDbSymbolTableRecord
100
AcDbViewportTableRecord
  2
L2
 70
     0
 10
0.0
 20
0.0
 11
0.5
 21
1.0
 12
0.0
 22
0.0
 13
0.0
 23
0.0
 14
0.5
 24
0.5
 15
0.5
 25
0.5
 16
0.0
 26
-1.0
 36
0.0
 17
0.0
 27
0.0
 37
0.0
 40
1478.660809
 41
0.012009
 42
50.0
 43
765.39502
 44
-765.39502
 50
0.0
 51
0.0
 71
     0
 72
   100
 73
     1
 74
     3
 75
     0
 76
     0
 77
     0
 78
     0
281
     0
 65
     1
110
0.0
120
0.0
130
0.0
111
1.0
121
0.0
131
0.0
112
0.0
122
1.0
132
0.0
 79
     0
146
0.0
  0
VPORT
  5
210
330
8
100
AcDbSymbolTableRecord
100
AcDbViewportTableRecord
  2
L2
 70
     0
 10
0.5
 20
0.0
 11
1.0
 21
1.0
 12
0.0
 22
0.0
 13
0.0
 23
0.0
 14
0.5
 24
0.5
 15
0.5
 25
0.5
 16
1.0
 26
0.0
 36
0.0
 17
0.0
 27
0.0
 37
0.0
 40
1478.660809
 41
0.012009
 42
50.0
 43
746.5698859999999
 44
-746.5698859999999
 50
0.0
 51
0.0
 71
     0
 72
   100
 73
     1
 74
     3
 75
     0
 76
     0
 77
     0
 78
     0
281
     0
 65
     1
110
0.0
120
0.0
130
0.0
111
1.0
121
0.0
131
0.0
112
0.0
122
1.0
132
0.0
 79
     0
146
0.0
  0
VPORT
  5
211
330
8
100
AcDbSymbolTableRecord
100
AcDbViewportTableRecord
  2
L3
 70
     0
 10
0.0
 20
0.5
 11
1.0
 21
1.0
 12
416.02622
 22
217.544638
 13
0.0
 23
0.0
 14
0.5
 24
0.5
 15
0.5
 25
0.5
 16
0.0
 26
0.0
 36
1.0
 17
0.0
 27
0.0
 37
0.0
 40
207.433333
 41
0.085602
 42
50.0
 43
770.281532
 44
-770.281532
 50
0.0
 51
0.0
 71
     0
 72
   100
 73
     1
 74
     3
 75
     0
 76
     0
 77
     0
 78
     0
281
     0
 65
     1
110
0.0
120
0.0
130
0.0
111
1.0
121
0.0
131
0.0
112
0.0
122
1.0
132
0.0
 79
     0
146
0.0
  0
VPORT
  5
212
330
8
100
AcDbSymbolTableRecord
100
AcDbViewportTableRecord
  2
L3
 70
     0
 10
0.0
 20
0.0
 11
1.0
 21
0.5
 12
0.0
 22
0.0
 13
0.0
 23
0.0
 14
0.5
 24
0.5
 15
0.5
 25
0.5
 16
0.0
 26
-1.0
 36
0.0
 17
0.0
 27
0.0
 37
0.0
 40
1478.660809
 41
0.012009
 42
50.0
 43
765.39502
 44
-765.39502
 50
0.0
 51
0.0
 71
     0
 72
   100
 73
     1
 74
     3
 75
     0
 76
     0
 77
     0
 78
     0
281
     0
 65
     1
110
0.0
120
0.0
130
0.0
111
1.0
121
0.0
131
0.0
112
0.0
122
1.0
132
0.0
 79
     0
146
0.0
  0
VPORT
  5
213
330
8
100
AcDbSymbolTableRecord
100
AcDbViewportTableRecord
  2
L4
 70
     0
 10
0.0
 20
0.5
 11
0.5
 21
1.0
 12
416.02622
 22
217.544638
 13
0.0
 23
0.0
 14
0.5
 24
0.5
 15
0.5
 25
0.5
 16
0.0
 26
0.0
 36
1.0
 17
0.0
 27
0.0
 37
0.0
 40
207.433333
 41
0.085602
 42
50.0
 43
770.281532
 44
-770.281532
 50
0.0
 51
0.0
 71
     0
 72
   100
 73
     1
 74
     3
 75
     0
 76
     0
 77
     0
 78
     0
281
     0
 65
     1
110
0.0
120
0.0
130
0.0
111
1.0
121
0.0
131
0.0
112
0.0
122
1.0
132
0.0
 79
     0
146
0.0
  0
VPORT
  5
214
330
8
100
AcDbSymbolTableRecord
100
AcDbViewportTableRecord
  2
L4
 70
     0
 10
0.0
 20
0.0
 11
0.5
 21
0.5
 12
0.0
 22
0.0
 13
0.0
 23
0.0
 14
0.5
 24
0.5
 15
0.5
 25
0.5
 16
0.0
 26
-1.0
 36
0.0
 17
0.0
 27
0.0
 37
0.0
 40
1478.660809
 41
0.012009
 42
50.0
 43
765.39502
 44
-765.39502
 50
0.0
 51
0.0
 71
     0
 72
   100
 73
     1
 74
     3
 75
     0
 76
     0
 77
     0
 78
     0
281
     0
 65
     1
110
0.0
120
0.0
130
0.0
111
1.0
121
0.0
131
0.0
112
0.0
122
1.0
132
0.0
 79
     0
146
0.0
  0
VPORT
  5
215
330
8
100
AcDbSymbolTableRecord
100
AcDbViewportTableRecord
  2
L4
 70
     0
 10
0.5
 20
0.0
 11
1.0
 21
0.5
 12
0.0
 22
0.0
 13
0.0
 23
0.0
 14
0.5
 24
0.5
 15
0.5
 25
0.5
 16
1.0
 26
0.0
 36
0.0
 17
0.0
 27
0.0
 37
0.0
 40
1478.660809
 41
0.012009
 42
50.0
 43
746.5698859999999
 44
-746.5698859999999
 50
0.0
 51
0.0
 71
     0
 72
   100
 73
     1
 74
     3
 75
     0
 76
     0
 77
     0
 78
     0
281
     0
 65
     1
110
0.0
120
0.0
130
0.0
111
1.0
121
0.0
131
0.0
112
0.0
122
1.0
132
0.0
 79
     0
146
0.0
  0
VPORT
  5
216
330
8
100
AcDbSymbolTableRecord
100
AcDbViewportTableRecord
  2
L4
 70
     0
 10
0.5
 20
0.5
 11
1.0
 21
1.0
 12
0.0
 22
0.0
 13
0.0
 23
0.0
 14
0.5
 24
0.5
 15
0.5
 25
0.5
 16
0.5773502691896259
 26
-0.5773502691896259
 36
0.5773502691896259
 17
0.0
 27
0.0
 37
0.0
 40
1453.705292
 41
0.012215
 42
50.0
 43
757.5245879999999
 44
-757.5245879999999
 50
0.0
 51
0.0
 71
     0
 72
   100
 73
     1
 74
     3
 75
     0
 76
     0
 77
     0
 78
     0
281
     0
 65
     1
110
0.0
120
0.0
130
0.0
111
1.0
121
0.0
131
0.0
112
0.0
122
1.0
132
0.0
 79
     0
146
0.0
  0
VPORT
  5
217
330
8
100
AcDbSymbolTableRecord
100
AcDbViewportTableRecord
  2
L6
 70
     0
 10
0.0
 20
0.5
 11
0.333333
 21
1.0
 12
0.0
 22
0.0
 13
0.0
 23
0.0
 14
0.5
 24
0.5
 15
0.5
 25
0.5
 16
0.7188730927569434
 26
-0.5850486126764433
 36
0.3754192287502549
 17
0.0
 27
0.0
 37
0.0
 40
1534.989881
 41
0.011568
 42
50.0
 43
794.5176169999999
 44
-794.5176169999999
 50
0.0
 51
0.0
 71
     0
 72
   100
 73
     1
 74
     3
 75
     0
 76
     0
 77
     0
 78
     0
281
     0
 65
     1
110
0.0
120
0.0
130
0.0
111
1.0
121
0.0
131
0.0
112
0.0
122
1.0
132
0.0
 79
     0
146
0.0
  0
VPORT
  5
218
330
8
100
AcDbSymbolTableRecord
100
AcDbViewportTableRecord
  2
L6
 70
     0
 10
0.0
 20
0.0
 11
0.333333
 21
0.5
 12
0.0
 22
0.0
 13
0.0
 23
0.0
 14
0.5
 24
0.5
 15
0.5
 25
0.5
 16
-1.0
 26
0.0
 36
0.0
 17
0.0
 27
0.0
 37
0.0
 40
1478.660809
 41
0.012009
 42
50.0
 43
746.5698859999999
 44
-746.5698859999999
 50
0.0
 51
0.0
 71
     0
 72
   100
 73
     1
 74
     3
 75
     0
 76
     0
 77
     0
 78
     0
281
     0
 65
     1
110
0.0
120
0.0
130
0.0
111
1.0
121
0.0
131
0.0
112
0.0
122
1.0
132
0.0
 79
     0
146
0.0
  0
VPORT
  5
219
330
8
100
AcDbSymbolTableRecord
100
AcDbViewportTableRecord
  2
L6
 70
     0
 10
0.333333
 20
0.5
 11
0.666667
 21
1.0
 12
416.02622
 22
217.544638
 13
0.0
 23
0.0
 14
0.5
 24
0.5
 15
0.5
 25
0.5
 16
0.0
 26
0.0
 36
1.0
 17
0.0
 27
0.0
 37
0.0
 40
207.433333
 41
0.085602
 42
50.0
 43
770.281532
 44
-770.281532
 50
0.0
 51
0.0
 71
     0
 72
   100
 73
     1
 74
     3
 75
     0
 76
     0
 77
     0
 78
     0
281
     0
 65
     1
110
0.0
120
0.0
130
0.0
111
1.0
121
0.0
131
0.0
112
0.0
122
1.0
132
0.0
 79
     0
146
0.0
  0
VPORT
  5
21A
330
8
100
AcDbSymbolTableRecord
100
AcDbViewportTableRecord
  2
L6
 70
     0
 10
0.333333
 20
0.0
 11
0.666667
 21
0.5
 12
0.0
 22
0.0
 13
0.0
 23
0.0
 14
0.5
 24
0.5
 15
0.5
 25
0.5
 16
0.0
 26
-1.0
 36
0.0
 17
0.0
 27
0.0
 37
0.0
 40
1478.660809
 41
0.012009
 42
50.0
 43
765.39502
 44
-765.39502
 50
0.0
 51
0.0
 71
     0
 72
   100
 73
     1
 74
     3
 75
     0
 76
     0
 77
     0
 78
     0
281
     0
 65
     1
110
0.0
120
0.0
130
0.0
111
1.0
121
0.0
131
0.0
112
0.0
122
1.0
132
0.0
 79
     0
146
0.0
  0
VPORT
  5
21B
330
8
100
AcDbSymbolTableRecord
100
AcDbViewportTableRecord
  2
L6
 70
     0
 10
0.666667
 20
0.5
 11
1.0
 21
1.0
 12
0.0
 22
0.0
 13
0.0
 23
0.0
 14
0.5
 24
0.5
 15
0.5
 25
0.5
 16
0.5773502691896259
 26
-0.5773502691896259
 36
0.5773502691896259
 17
0.0
 27
0.0
 37
0.0
 40
1453.705292
 41
0.012215
 42
50.0
 43
757.5245879999999
 44
-757.5245879999999
 50
0.0
 51
0.0
 71
     0
 72
   100
 73
     1
 74
     3
 75
     0
 76
     0
 77
     0
 78
     0
281
     0
 65
     1
110
0.0
120
0.0
130
0.0
111
1.0
121
0.0
131
0.0
112
0.0
122
1.0
132
0.0
 79
     0
146
0.0
  0
VPORT
  5
21C
330
8
100
AcDbSymbolTableRecord
100
AcDbViewportTableRecord
  2
L6
 70
     0
 10
0.666667
 20
0.0
 11
1.0
 21
0.5
 12
0.0
 22
0.0
 13
0.0
 23
0.0
 14
0.5
 24
0.5
 15
0.5
 25
0.5
 16
1.0
 26
0.0
 36
0.0
 17
0.0
 27
0.0
 37
0.0
 40
1478.660809
 41
0.012009
 42
50.0
 43
746.5698859999999
 44
-746.5698859999999
 50
0.0
 51
0.0
 71
     0
 72
   100
 73
     1
 74
     3
 75
     0
 76
     0
 77
     0
 78
     0
281
     0
 65
     1
110
0.0
120
0.0
130
0.0
111
1.0
121
0.0
131
0.0
112
0.0
122
1.0
132
0.0
 79
     0
146
0.0
  0
ENDTAB
  0
TABLE
  2
LTYPE
  5
5
330
0
100
AcDbSymbolTable
 70
    19
  0
LTYPE
  5
14
330
5
100
AcDbSymbolTableRecord
100
AcDbLinetypeTableRecord
  2
ByBlock
 70
     0
  3

 72
    65
 73
     0
 40
0.0
  0
LTYPE
  5
15
330
5
100
AcDbSymbolTableRecord
100
AcDbLinetypeTableRecord
  2
ByLayer
 70
     0
  3

 72
    65
 73
     0
 40
0.0
  0
LTYPE
  5
16
330
5
100
AcDbSymbolTableRecord
100
AcDbLinetypeTableRecord
  2
Continuous
 70
     0
  3
Solid line
 72
    65
 73
     0
 40
0.0
  0
LTYPE
  5
6E
330
5
100
AcDbSymbolTableRecord
100
AcDbLinetypeTableRecord
  2
CENTER
 70
     0
  3
____ _ ____ _ ____ _ ____
 72
    65
 73
     4
 40
47.4
 49
22.0
 74
     4
 75
     0
340
0
 46
0.0
 50
0.0
 44
0.0
 45
0.0
 49
-8.5
 74
     4
 75
     0
340
0
 46
0.0
 50
0.0
 44
0.0
 45
0.0
 49
8.5
 74
     4
 75
     0
340
0
 46
0.0
 50
0.0
 44
0.0
 45
0.0
 49
-8.5
 74
     4
 75
     0
340
0
 46
0.0
 50
0.0
 44
0.0
 45
0.0
  0
LTYPE
  5
6F
330
5
100
AcDbSymbolTableRecord
100
AcDbLinetypeTableRecord
  2
DASHDOT
 70
     0
  3
_._._._._._._._._._._._._._._._.
 72
    65
 73
     4
 40
70.0
 49
31.0
 74
     4
 75
     0
340
0
 46
0.0
 50
0.0
 44
0.0
 45
0.0
 49
-13.0
 74
     4
 75
     0
340
0
 46
0.0
 50
0.0
 44
0.0
 45
0.0
 49
13.0
 74
     4
 75
     0
340
0
 46
0.0
 50
0.0
 44
0.0
 45
0.0
 49
-13.0
 74
     4
 75
     0
340
0
 46
0.0
 50
0.0
 44
0.0
 45
0.0
  0
LTYPE
  5
70
330
5
100
AcDbSymbolTableRecord
100
AcDbLinetypeTableRecord
  2
DASHED
 70
     0
  3
__ __ __ __ __ __ __ __ __
 72
    65
 73
     2
 40
25.72
 49
12.86
 74
     4
 75
     0
340
0
 46
0.0
 50
0.0
 44
0.0
 45
0.0
 49
-12.86
 74
     4
 75
     0
340
0
 46
0.0
 50
0.0
 44
0.0
 45
0.0
  0
LTYPE
  5
71
330
5
100
AcDbSymbolTableRecord
100
AcDbLinetypeTableRecord
  2
DOT
 70
     0
  3
.........................
 72
    65
 73
     2
 40
10.0
 49
0.0
 74
     4
 75
     0
340
0
 46
0.0
 50
0.0
 44
0.0
 45
0.0
 49
-10.0
 74
     4
 75
     0
340
0
 46
0.0
 50
0.0
 44
0.0
 45
0.0
  0
LTYPE
  5
72
330
5
100
AcDbSymbolTableRecord
100
AcDbLinetypeTableRecord
  2
PHANTOM
 70
     0
  3
____ _ _ ____ _ _ _____ _ _ ____
 72
    65
 73
     6
 40
50.5
 49
18.0
 74
     4
 75
     0
340
0
 46
0.0
 50
0.0
 44
0.0
 45
0.0
 49
-6.5
 74
     4
 75
     0
340
0
 46
0.0
 50
0.0
 44
0.0
 45
0.0
 49
6.5
 74
     4
 75
     0
340
0
 46
0.0
 50
0.0
 44
0.0
 45
0.0
 49
-6.5
 74
     4
 75
     0
340
0
 46
0.0
 50
0.0
 44
0.0
 45
0.0
 49
6.5
 74
     4
 75
     0
340
0
 46
0.0
 50
0.0
 44
0.0
 45
0.0
 49
-6.5
 74
     4
 75
     0
340
0
 46
0.0
 50
0.0
 44
0.0
 45
0.0
  0
LTYPE
  5
27C
330
5
100
AcDbSymbolTableRecord
100
AcDbLinetypeTableRecord
  2
HIDDEN
 70
     0
  3
Hidden __ __ __ __ __ __ __ __ __ __ __ __ __ _
 72
    65
 73
     2
 40
9.524999999999998
 49
6.349999999999999
 74
     0
 49
-3.174999999999999
 74
     0
  0
LTYPE
  5
27D
330
5
100
AcDbSymbolTableRecord
100
AcDbLinetypeTableRecord
  2
PHANTOM2
 70
     0
  3
Phantom (.5x) ___ _ _ ___ _ _ ___ _ _ ___ _ _
 72
    65
 73
     6
 40
31.75
 49
15.875
 74
     0
 49
-3.174999999999999
 74
     0
 49
3.174999999999999
 74
     0
 49
-3.174999999999999
 74
     0
 49
3.174999999999999
 74
     0
 49
-3.174999999999999
 74
     0
  0
LTYPE
  5
2B8
330
5
100
AcDbSymbolTableRecord
100
AcDbLinetypeTableRecord
  2
AM_ISO02W050
 70
     0
  3
__ __ __ __ __ __ __ __ __ __ __ __ __ __ __
 72
    65
 73
     2
 40
7.5
 49
6.0
 74
     0
 49
-1.5
 74
     0
  0
LTYPE
  5
2B9
330
5
100
AcDbSymbolTableRecord
100
AcDbLinetypeTableRecord
  2
AM_ISO08W050
 70
     0
  3
____ . ____ . ____ . ____ . ____ . ____ . ____
 72
    65
 73
     4
 40
18.0
 49
12.0
 74
     0
 49
-1.5
 74
     0
 49
3.0
 74
     0
 49
-1.5
 74
     0
  0
LTYPE
  5
2BA
330
5
100
AcDbSymbolTableRecord
100
AcDbLinetypeTableRecord
  2
AM_ISO09W050
 70
     0
  3
_____ . . _____ . . _____ . . ____ .. ____
 72
    65
 73
     6
 40
22.5
 49
12.0
 74
     0
 49
-1.5
 74
     0
 49
3.0
 74
     0
 49
-1.5
 74
     0
 49
3.0
 74
     0
 49
-1.5
 74
     0
  0
LTYPE
  5
2BB
330
5
100
AcDbSymbolTableRecord
100
AcDbLinetypeTableRecord
  2
Amconstr
 70
     0
  3
_______________________
 72
    65
 73
     2
 40
9999.0
 49
9999.0
 74
     0
 49
0.0
 74
     0
  0
LTYPE
  5
2BC
330
5
100
AcDbSymbolTableRecord
100
AcDbLinetypeTableRecord
  2
AM_ISO08W050x2
 70
     0
  3
__ . __ . __ . __ . __ . __
 72
    65
 73
     4
 40
9.0
 49
6.0
 74
     0
 49
-0.75
 74
     0
 49
1.5
 74
     0
 49
-0.75
 74
     0
  0
LTYPE
  5
2BD
330
5
100
AcDbSymbolTableRecord
100
AcDbLinetypeTableRecord
  2
AM_ISO02W050x2
 70
     0
  3
 _ _ _ _ _ _ _ _ _ _ _ _
 72
    65
 73
     2
 40
3.75
 49
3.0
 74
     0
 49
-0.75
 74
     0
  0
LTYPE
  5
2C0
330
5
100
AcDbSymbolTableRecord
100
AcDbLinetypeTableRecord
  2
Amzigzag
 70
     0
  3
/\/-/\/-/\/-/\/-/\/-/\/
 72
    65
 73
     2
 40
11.0001
 49
0.0001
 74
     4
 75
   136
340
2BF
 46
0.04
 50
0.0
 44
0.0
 45
0.0
 49
-11.0
 74
     0
  0
LTYPE
  5
2D0
330
5
100
AcDbSymbolTableRecord
100
AcDbLinetypeTableRecord
  2
ACISOWELD
 70
     0
  3
_ _ _ _ _
 72
    65
 73
     2
 40
2.0
 49
2.0
 74
     0
 49
-1.0
 74
     0
  0
LTYPE
  5
2D1
330
5
100
AcDbSymbolTableRecord
100
AcDbLinetypeTableRecord
  2
ACISOTGL
 70
     0
  3
_ _ _ _ _
 72
    65
 73
     2
 40
3.0
 49
2.0
 74
     0
 49
-1.0
 74
     0
  0
LTYPE
  5
2D2
330
5
100
AcDbSymbolTableRecord
100
AcDbLinetypeTableRecord
  2
ACISOTGB
 70
     0
  3
__ . . __ . .
 72
    65
 73
     6
 40
9.0
 49
4.0
 74
     0
 49
-1.0
 74
     0
 49
1.0
 74
     0
 49
-1.0
 74
     0
 49
1.0
 74
     0
 49
-1.0
 74
     0
  0
LTYPE
  5
323
330
5
100
AcDbSymbolTableRecord
100
AcDbLinetypeTableRecord
  2
CENTER2
 70
     0
  3
Center (.5x) ___ _ ___ _ ___ _ ___ _ ___ _ ___
 72
    65
 73
     4
 40
1.125
 49
0.75
 74
     0
 49
-0.125
 74
     0
 49
0.125
 74
     0
 49
-0.125
 74
     0
  0
ENDTAB
  0
TABLE
  2
LAYER
  5
2
330
0
100
AcDbSymbolTable
 70
    23
  0
LAYER
  5
10
102
{ACAD_XDICTIONARY
360
32E
102
}
330
2
100
AcDbSymbolTableRecord
100
AcDbLayerTableRecord
  2
0
 70
     0
 62
     7
  6
Continuous
370
    -3
390
F
  0
LAYER
  5
76
102
{ACAD_XDICTIONARY
360
330
102
}
330
2
100
AcDbSymbolTableRecord
100
AcDbLayerTableRecord
  2
96
 70
     0
 62
     7
420
 16777215
  6
Continuous
370
    -3
390
F
  0
LAYER
  5
181
330
2
100
AcDbSymbolTableRecord
100
AcDbLayerTableRecord
  2
Defpoints
 70
     0
 62
     7
  6
Continuous
290
     0
370
    -3
390
F
  0
LAYER
  5
320
102
{ACAD_XDICTIONARY
360
332
102
}
330
2
100
AcDbSymbolTableRecord
100
AcDbLayerTableRecord
  2
1
 70
     0
 62
     4
  6
Continuous
370
    -3
390
F
  0
LAYER
  5
321
102
{ACAD_XDICTIONARY
360
334
102
}
330
2
100
AcDbSymbolTableRecord
100
AcDbLayerTableRecord
  2
2
 70
     0
 62
     7
  6
Continuous
370
    -3
390
F
  0
LAYER
  5
322
102
{ACAD_XDICTIONARY
360
336
102
}
330
2
100
AcDbSymbolTableRecord
100
AcDbLayerTableRecord
  2
4
 70
     0
 62
     2
  6
CENTER2
370
    -3
390
F
  0
LAYER
  5
324
102
{ACAD_XDICTIONARY
360
338
102
}
330
2
100
AcDbSymbolTableRecord
100
AcDbLayerTableRecord
  2
SK1
 70
     0
 62
     4
  6
Continuous
370
    -3
390
F
  0
LAYER
  5
325
102
{ACAD_XDICTIONARY
360
33A
102
}
330
2
100
AcDbSymbolTableRecord
100
AcDbLayerTableRecord
  2
SK2
 70
     0
 62
     7
  6
Continuous
370
    -3
390
F
  0
LAYER
  5
327
102
{ACAD_XDICTIONARY
360
33C
102
}
330
2
100
AcDbSymbolTableRecord
100
AcDbLayerTableRecord
  2
SK4
 70
     0
 62
     2
  6
CENTER2
370
    -3
390
F
  0
LAYER
  5
328
102
{ACAD_XDICTIONARY
360
33E
102
}
330
2
100
AcDbSymbolTableRecord
100
AcDbLayerTableRecord
  2
SK6
 70
     0
 62
     5
  6
Continuous
370
    -3
390
F
  0
LAYER
  5
329
102
{ACAD_XDICTIONARY
360
340
102
}
330
2
100
AcDbSymbolTableRecord
100
AcDbLayerTableRecord
  2
CUT
 70
     0
 62
     1
  6
Continuous
370
    -3
390
F
  0
LAYER
  5
32A
102
{ACAD_XDICTIONARY
360
342
102
}
330
2
100
AcDbSymbolTableRecord
100
AcDbLayerTableRecord
  2
NOCUT
 70
     0
 62
     7
  6
Continuous
370
    -3
390
F
  0
LAYER
  5
32B
102
{ACAD_XDICTIONARY
360
344
102
}
330
2
100
AcDbSymbolTableRecord
100
AcDbLayerTableRecord
  2
80
 70
     0
 62
     6
  6
Continuous
370
    -3
390
F
  0
LAYER
  5
32C
102
{ACAD_XDICTIONARY
360
346
102
}
330
2
100
AcDbSymbolTableRecord
100
AcDbLayerTableRecord
  2
81
 70
     0
 62
     3
  6
Continuous
370
    -3
390
F
  0
ENDTAB
  0
TABLE
  2
STYLE
  5
3
330
0
100
AcDbSymbolTable
 70
     6
  0
STYLE
  5
11
330
3
100
AcDbSymbolTableRecord
100
AcDbTextStyleTableRecord
  2
Standard
 70
     0
 40
0.0
 41
1.0
 50
0.0
 71
     0
 42
0.2
  3
txt
  4

  0
STYLE
  5
17A
330
3
100
AcDbSymbolTableRecord
100
AcDbTextStyleTableRecord
  2
cesky
 70
     0
 40
0.0
 41
1.0
 50
0.0
 71
     0
 42
0.2
  3
simplex.shx
  4

  0
STYLE
  5
17B
330
3
100
AcDbSymbolTableRecord
100
AcDbTextStyleTableRecord
  2
DWGDirectTextStyle
 70
     0
 40
0.0
 41
1.0
 50
0.0
 71
     0
 42
0.2
  3
simplex
  4

  0
STYLE
  5
2BF
330
3
100
AcDbSymbolTableRecord
100
AcDbTextStyleTableRecord
  2

 70
     1
 40
0.0
 41
1.0
 50
0.0
 71
     0
 42
0.2
  3
genltshp.shx
  4

  0
STYLE
  5
2CE
330
3
100
AcDbSymbolTableRecord
100
AcDbTextStyleTableRecord
  2
ACISOTS
 70
     0
 40
0.0
 41
1.0
 50
0.0
 71
     0
 42
0.2
  3
isocp.shx
  4

  0
STYLE
  5
2CF
330
3
100
AcDbSymbolTableRecord
100
AcDbTextStyleTableRecord
  2
ACISOGDT
 70
     0
 40
0.0
 41
1.0
 50
0.0
 71
     0
 42
0.2
  3
amgdt.shx
  4

  0
ENDTAB
  0
TABLE
  2
VIEW
  5
6
330
0
100
AcDbSymbolTable
 70
     0
  0
ENDTAB
  0
TABLE
  2
UCS
  5
7
330
0
100
AcDbSymbolTable
 70
     0
  0
ENDTAB
  0
TABLE
  2
APPID
  5
9
330
0
100
AcDbSymbolTable
 70
    13
  0
APPID
  5
12
330
9
100
AcDbSymbolTableRecord
100
AcDbRegAppTableRecord
  2
ACAD
 70
     0
  0
APPID
  5
17D
330
9
100
AcDbSymbolTableRecord
100
AcDbRegAppTableRecord
  2
ACAD_DSTYLE_DIMBREAK
 70
     0
  0
APPID
  5
21D
330
9
100
AcDbSymbolTableRecord
100
AcDbRegAppTableRecord
  2
ACAD_DSTYLE_DIM_LINETYPE
 70
     0
  0
APPID
  5
21E
330
9
100
AcDbSymbolTableRecord
100
AcDbRegAppTableRecord
  2
ACAD_DSTYLE_DIM_EXT1_LINETYPE
 70
     0
  0
APPID
  5
21F
330
9
100
AcDbSymbolTableRecord
100
AcDbRegAppTableRecord
  2
ACAD_DSTYLE_DIM_EXT2_LINETYPE
 70
     0
  0
APPID
  5
25F
330
9
100
AcDbSymbolTableRecord
100
AcDbRegAppTableRecord
  2
ACAD_MLEADERVER
 70
     0
  0
APPID
  5
275
330
9
100
AcDbSymbolTableRecord
100
AcDbRegAppTableRecord
  2
MCAD_NO_VIS
 70
     0
  0
APPID
  5
276
330
9
100
AcDbSymbolTableRecord
100
AcDbRegAppTableRecord
  2
ACAD_TEMP_GRAPHIC
 70
     0
  0
APPID
  5
282
330
9
100
AcDbSymbolTableRecord
100
AcDbRegAppTableRecord
  2
ACATTRIBSERVICES
 70
     0
  0
APPID
  5
29A
330
9
100
AcDbSymbolTableRecord
100
AcDbRegAppTableRecord
  2
DESIGNERASSEMBLIES
 70
     0
  0
APPID
  5
2B6
330
9
100
AcDbSymbolTableRecord
100
AcDbRegAppTableRecord
  2
ACAD_DSTYLE_DIMJAG
 70
     0
  0
APPID
  5
2E2
330
9
100
AcDbSymbolTableRecord
100
AcDbRegAppTableRecord
  2
ACAD_NAV_VCDISPLAY
 70
     0
  0
APPID
  5
382
330
9
100
AcDbSymbolTableRecord
100
AcDbRegAppTableRecord
  2
ACAD_DSTYLE_DIMARC_LENGTH_SYMBOL
 70
     0
  0
ENDTAB
  0
TABLE
  2
DIMSTYLE
  5
A
330
0
100
AcDbSymbolTable
 70
     8
100
AcDbDimStyleTable
 71
     0
  0
DIMSTYLE
105
27
330
A
100
AcDbSymbolTableRecord
100
AcDbDimStyleTableRecord
  2
Standard
 70
     0
340
11
1001
ACAD_DSTYLE_DIMBREAK
1070
   391
1040
6.349999999999999
  0
DIMSTYLE
105
2B5
102
{ACAD_REACTORS
330
2A3
102
}
330
A
100
AcDbSymbolTableRecord
100
AcDbDimStyleTableRecord
  2
AM_ISO
 70
     0
  4
"
 41
3.5
 42
1.0
 43
10.0
 44
1.0
 47
0.1
 48
0.1
 73
     0
 74
     0
 77
     1
 78
     8
 79
     2
140
3.5
141
0.0
143
0.0393701
146
0.71
147
1.5
172
     1
176
   256
177
   256
178
     2
271
     2
272
     3
274
     4
283
     0
284
     8
340
11
371
    -1
372
    -1
1001
ACAD_DSTYLE_DIMJAG
1070
   388
1040
1.5
1001
ACAD_DSTYLE_DIMBREAK
1070
   391
1040
3.75
1001
ACAD_DSTYLE_DIMARC_LENGTH_SYMBOL
1070
   379
1070
     1
1001
ACAD_DSTYLE_DIM_LINETYPE
1070
   380
1005
14
1001
ACAD_DSTYLE_DIM_EXT1_LINETYPE
1070
   381
1005
14
1001
ACAD_DSTYLE_DIM_EXT2_LINETYPE
1070
   382
1005
14
  0
DIMSTYLE
105
2C1
330
A
100
AcDbSymbolTableRecord
100
AcDbDimStyleTableRecord
  2
AM_ISO$3
 70
     0
  4
"
 41
3.5
 42
1.0
 43
10.0
 44
1.0
 47
0.1
 48
0.1
 73
     0
 77
     1
 78
     8
 79
     2
140
3.5
141
0.0
143
0.0393701
146
0.71
147
1.5
176
   256
177
   256
178
     2
271
     2
272
     3
274
     4
283
     0
284
     8
288
     1
289
     0
340
11
371
    -1
372
    -1
1001
ACAD_DSTYLE_DIMBREAK
1070
   391
1040
3.75
1001
ACAD_DSTYLE_DIMJAG
1070
   388
1040
1.5
1001
ACAD_DSTYLE_DIMARC_LENGTH_SYMBOL
1070
   379
1070
     1
1001
ACAD_DSTYLE_DIM_LINETYPE
1070
   380
1005
14
1001
ACAD_DSTYLE_DIM_EXT1_LINETYPE
1070
   381
1005
14
1001
ACAD_DSTYLE_DIM_EXT2_LINETYPE
1070
   382
1005
14
  0
DIMSTYLE
105
2C2
330
A
100
AcDbSymbolTableRecord
100
AcDbDimStyleTableRecord
  2
AM_ISO$4
 70
     0
  4
"
 41
3.5
 42
1.0
 43
10.0
 44
1.0
 47
0.1
 48
0.1
 73
     0
 77
     1
 78
     8
 79
     2
140
3.5
141
0.0
143
0.0393701
146
0.71
147
1.5
176
   256
177
   256
178
     2
271
     2
272
     3
274
     4
283
     0
284
     8
288
     1
289
     0
340
11
371
    -1
372
    -1
1001
ACAD_DSTYLE_DIMBREAK
1070
   391
1040
3.75
1001
ACAD_DSTYLE_DIMJAG
1070
   388
1040
1.5
1001
ACAD_DSTYLE_DIMARC_LENGTH_SYMBOL
1070
   379
1070
     1
1001
ACAD_DSTYLE_DIM_LINETYPE
1070
   380
1005
14
1001
ACAD_DSTYLE_DIM_EXT1_LINETYPE
1070
   381
1005
14
1001
ACAD_DSTYLE_DIM_EXT2_LINETYPE
1070
   382
1005
14
  0
DIMSTYLE
105
2C3
330
A
100
AcDbSymbolTableRecord
100
AcDbDimStyleTableRecord
  2
AM_ISO$6
 70
     0
  4
"
 41
3.5
 42
1.0
 43
10.0
 44
1.0
 47
0.1
 48
0.1
 73
     0
 74
     0
 78
     8
 79
     2
140
3.5
141
0.0
143
0.0393701
146
0.71
147
1.5
172
     1
176
   256
177
   256
178
     2
271
     2
272
     3
274
     4
283
     0
284
     8
340
11
371
    -1
372
    -1
1001
ACAD_DSTYLE_DIMBREAK
1070
   391
1040
3.75
1001
ACAD_DSTYLE_DIMJAG
1070
   388
1040
1.5
1001
ACAD_DSTYLE_DIMARC_LENGTH_SYMBOL
1070
   379
1070
     1
1001
ACAD_DSTYLE_DIM_LINETYPE
1070
   380
1005
14
1001
ACAD_DSTYLE_DIM_EXT1_LINETYPE
1070
   381
1005
14
1001
ACAD_DSTYLE_DIM_EXT2_LINETYPE
1070
   382
1005
14
  0
DIMSTYLE
105
2C4
330
A
100
AcDbSymbolTableRecord
100
AcDbDimStyleTableRecord
  2
AM_ISO$7
 70
     0
  4
"
 41
3.5
 42
1.0
 43
10.0
 44
1.0
 47
0.1
 48
0.1
 73
     0
 74
     0
 77
     1
 78
     8
 79
     2
140
3.5
141
0.0
143
0.0393701
146
0.71
147
1.5
172
     1
176
   256
177
   256
178
     2
271
     2
272
     3
274
     4
283
     0
284
     8
340
11
371
    -1
372
    -1
1001
ACAD_DSTYLE_DIMBREAK
1070
   391
1040
3.75
1001
ACAD_DSTYLE_DIMJAG
1070
   388
1040
1.5
1001
ACAD_DSTYLE_DIMARC_LENGTH_SYMBOL
1070
   379
1070
     1
1001
ACAD_DSTYLE_DIM_LINETYPE
1070
   380
1005
14
1001
ACAD_DSTYLE_DIM_EXT1_LINETYPE
1070
   381
1005
14
1001
ACAD_DSTYLE_DIM_EXT2_LINETYPE
1070
   382
1005
14
  0
DIMSTYLE
105
2C5
330
A
100
AcDbSymbolTableRecord
100
AcDbDimStyleTableRecord
  2
AM_ISO$SF
 70
     0
  4
"
 41
3.5
 42
1.0
 43
10.0
 44
1.0
 47
0.1
 48
0.1
 73
     0
 74
     0
 75
     1
 76
     1
 77
     1
 78
     8
 79
     2
140
3.5
141
0.0
143
0.0393701
146
0.71
147
1.5
172
     1
176
   256
177
   256
178
     2
271
     2
272
     3
274
     4
283
     0
284
     8
340
11
371
    -1
372
    -1
1001
ACAD_DSTYLE_DIMBREAK
1070
   391
1040
3.75
1001
ACAD_DSTYLE_DIMJAG
1070
   388
1040
1.5
1001
ACAD_DSTYLE_DIMARC_LENGTH_SYMBOL
1070
   379
1070
     1
1001
ACAD_DSTYLE_DIM_LINETYPE
1070
   380
1005
14
1001
ACAD_DSTYLE_DIM_EXT1_LINETYPE
1070
   381
1005
14
1001
ACAD_DSTYLE_DIM_EXT2_LINETYPE
1070
   382
1005
14
  0
DIMSTYLE
105
2CA
330
A
100
AcDbSymbolTableRecord
100
AcDbDimStyleTableRecord
  2
AM_ISO$SH
 70
     0
  4
"
 41
3.5
 42
1.0
 43
10.0
 44
1.0
 47
0.1
 48
0.1
 73
     0
 74
     0
 75
     1
 76
     1
 77
     1
 78
     8
 79
     2
140
3.5
141
0.0
143
0.0393701
144
2.0
146
0.71
147
1.5
172
     1
173
     1
176
   256
177
   256
178
     2
271
     2
272
     3
274
     4
283
     0
284
     8
340
11
343
2C6
371
    -1
372
    -1
1001
ACAD_DSTYLE_DIMBREAK
1070
   391
1040
3.75
1001
ACAD_DSTYLE_DIMJAG
1070
   388
1040
1.5
1001
ACAD_DSTYLE_DIMARC_LENGTH_SYMBOL
1070
   379
1070
     1
1001
ACAD_DSTYLE_DIM_LINETYPE
1070
   380
1005
14
1001
ACAD_DSTYLE_DIM_EXT1_LINETYPE
1070
   381
1005
14
1001
ACAD_DSTYLE_DIM_EXT2_LINETYPE
1070
   382
1005
14
  0
ENDTAB
  0
TABLE
  2
BLOCK_RECORD
  5
1
330
0
100
AcDbSymbolTable
 70
    16
  0
BLOCK_RECORD
  5
1F
102
{ACAD_XDICTIONARY
360
2EA
102
}
330
1
100
AcDbSymbolTableRecord
100
AcDbBlockTableRecord
  2
*Model_Space
340
22
  0
BLOCK_RECORD
  5
1B
330
1
100
AcDbSymbolTableRecord
100
AcDbBlockTableRecord
  2
*Paper_Space
340
1E
  0
BLOCK_RECORD
  5
23
330
1
100
AcDbSymbolTableRecord
100
AcDbBlockTableRecord
  2
*Paper_Space0
340
26
  0
BLOCK_RECORD
  5
174
330
1
100
AcDbSymbolTableRecord
100
AcDbBlockTableRecord
  2
ASSORTED_DRAFT1
340
0
  0
BLOCK_RECORD
  5
182
330
1
100
AcDbSymbolTableRecord
100
AcDbBlockTableRecord
  2
*D2
340
0
  0
BLOCK_RECORD
  5
18E
330
1
100
AcDbSymbolTableRecord
100
AcDbBlockTableRecord
  2
_U0
340
0
  0
BLOCK_RECORD
  5
19A
330
1
100
AcDbSymbolTableRecord
100
AcDbBlockTableRecord
  2
*D4
340
0
  0
BLOCK_RECORD
  5
1A6
330
1
100
AcDbSymbolTableRecord
100
AcDbBlockTableRecord
  2
_U1
340
0
  0
BLOCK_RECORD
  5
1B2
330
1
100
AcDbSymbolTableRecord
100
AcDbBlockTableRecord
  2
*D6
340
0
  0
BLOCK_RECORD
  5
1BE
330
1
100
AcDbSymbolTableRecord
100
AcDbBlockTableRecord
  2
_U2
340
0
  0
BLOCK_RECORD
  5
1CA
330
1
100
AcDbSymbolTableRecord
100
AcDbBlockTableRecord
  2
*D8
340
0
  0
BLOCK_RECORD
  5
1D6
330
1
100
AcDbSymbolTableRecord
100
AcDbBlockTableRecord
  2
_U3
340
0
  0
BLOCK_RECORD
  5
1E2
330
1
100
AcDbSymbolTableRecord
100
AcDbBlockTableRecord
  2
*D10
340
0
  0
BLOCK_RECORD
  5
1ED
330
1
100
AcDbSymbolTableRecord
100
AcDbBlockTableRecord
  2
_U4
340
0
  0
BLOCK_RECORD
  5
1F8
330
1
100
AcDbSymbolTableRecord
100
AcDbBlockTableRecord
  2
*D12
340
0
  0
BLOCK_RECORD
  5
204
330
1
100
AcDbSymbolTableRecord
100
AcDbBlockTableRecord
  2
_U5
340
0
  0
BLOCK_RECORD
  5
2C6
330
1
100
AcDbSymbolTableRecord
100
AcDbBlockTableRecord
  2
GENAXEH
340
0
  0
ENDTAB
  0
ENDSEC
  0
SECTION
  2
BLOCKS
  0
BLOCK
  5
20
330
1F
100
AcDbEntity
  8
0
100
AcDbBlockBegin
  2
*Model_Space
 70
     0
 10
0.0
 20
0.0
 30
0.0
  3
*Model_Space
  1

  0
ENDBLK
  5
21
330
1F
100
AcDbEntity
  8
0
100
AcDbBlockEnd
  0
BLOCK
  5
1C
330
1B
100
AcDbEntity
 67
     1
  8
0
100
AcDbBlockBegin
  2
*Paper_Space
 70
     0
 10
0.0
 20
0.0
 30
0.0
  3
*Paper_Space
  1

  0
ENDBLK
  5
1D
330
1B
100
AcDbEntity
 67
     1
  8
0
100
AcDbBlockEnd
  0
BLOCK
  5
24
330
23
100
AcDbEntity
 67
     1
  8
0
100
AcDbBlockBegin
  2
*Paper_Space0
 70
     0
 10
0.0
 20
0.0
 30
0.0
  3
*Paper_Space0
  1

  0
ENDBLK
  5
25
330
23
100
AcDbEntity
 67
     1
  8
0
100
AcDbBlockEnd
  0
BLOCK
  5
177
330
174
100
AcDbEntity
  8
0
100
AcDbBlockBegin
  2
ASSORTED_DRAFT1
 70
     0
 10
0.0
 20
0.0
 30
0.0
  3
ASSORTED_DRAFT1
  1

  0
SOLID
  5
175
330
174
100
AcDbEntity
  8
0
 62
   254
370
    13
100
AcDbTrace
 10
476.517572
 20
269.186216
 30
0.0
 11
481.517568
 21
270.29469
 31
0.0
 12
481.5175759999999
 22
268.077743
 32
0.0
 13
476.517572
 23
269.186216
 33
0.0
  0
ENDBLK
  5
178
330
174
100
AcDbEntity
  8
0
100
AcDbBlockEnd
  0
BLOCK
  5
183
330
182
100
AcDbEntity
  8
0
100
AcDbBlockBegin
  2
*D2
 70
     1
 10
0.0
 20
0.0
 30
0.0
  3
*D2
  1

  0
LINE
  5
185
330
182
100
AcDbEntity
  8
0
 62
   254
370
    -2
100
AcDbLine
 10
392.174849
 20
383.508075
 30
0.0
 11
392.174849
 21
385.610012
 31
0.0
  0
LINE
  5
186
330
182
100
AcDbEntity
  8
0
 62
   254
370
    -2
100
AcDbLine
 10
363.516186
 20
381.1481490000001
 30
0.0
 11
363.516186
 21
385.610012
 31
0.0
  0
LINE
  5
187
330
182
100
AcDbEntity
  8
0
 62
   254
370
    -2
100
AcDbLine
 10
388.674849
 20
384.610012
 30
0.0
 11
367.016186
 21
384.610012
 31
0.0
  0
SOLID
  5
188
330
182
100
AcDbEntity
  8
0
 62
   254
100
AcDbTrace
 10
388.674849
 20
384.026678
 30
0.0
 11
388.674849
 21
385.193345
 31
0.0
 12
392.174849
 22
384.610012
 32
0.0
 13
392.174849
 23
384.610012
 33
0.0
  0
SOLID
  5
189
330
182
100
AcDbEntity
  8
0
 62
   254
100
AcDbTrace
 10
367.016186
 20
385.193345
 30
0.0
 11
367.016186
 21
384.026678
 31
0.0
 12
363.516186
 22
384.610012
 32
0.0
 13
363.516186
 23
384.610012
 33
0.0
  0
MTEXT
  5
18A
330
182
100
AcDbEntity
  8
0
 62
   254
370
    13
100
AcDbMText
 10
377.845517
 20
389.860012
 30
0.0
 40
3.5
 41
0.0
 71
     5
 72
     1
  1
\A1;28.66
  7
cesky
 73
     1
 44
1.0
  0
POINT
  5
18B
330
182
100
AcDbEntity
  8
Defpoints
 62
     0
100
AcDbPoint
 10
392.174849
 20
383.508075
 30
0.0
  0
POINT
  5
18C
330
182
100
AcDbEntity
  8
Defpoints
 62
     0
100
AcDbPoint
 10
363.516186
 20
381.1481490000001
 30
0.0
  0
POINT
  5
18D
330
182
100
AcDbEntity
  8
Defpoints
 62
     0
100
AcDbPoint
 10
363.516186
 20
384.610012
 30
0.0
  0
ENDBLK
  5
184
330
182
100
AcDbEntity
  8
0
100
AcDbBlockEnd
  0
BLOCK
  5
195
330
18E
100
AcDbEntity
  8
0
100
AcDbBlockBegin
  2
_U0
 70
     0
 10
0.0
 20
0.0
 30
0.0
  3
_U0
  1

  0
ENDBLK
  5
196
330
18E
100
AcDbEntity
  8
0
100
AcDbBlockEnd
  0
BLOCK
  5
19B
330
19A
100
AcDbEntity
  8
0
100
AcDbBlockBegin
  2
*D4
 70
     1
 10
0.0
 20
0.0
 30
0.0
  3
*D4
  1

  0
LINE
  5
19D
330
19A
100
AcDbEntity
  8
0
 62
    95
370
    -2
100
AcDbLine
 10
392.174849
 20
383.508075
 30
0.0
 11
392.174849
 21
410.1351399999999
 31
0.0
  0
LINE
  5
19E
330
19A
100
AcDbEntity
  8
0
 62
    95
370
    -2
100
AcDbLine
 10
261.174849
 20
380.508075
 30
0.0
 11
261.174849
 21
410.1351399999999
 31
0.0
  0
LINE
  5
19F
330
19A
100
AcDbEntity
  8
0
 62
    95
370
    -2
100
AcDbLine
 10
388.674849
 20
409.1351399999999
 30
0.0
 11
264.674849
 21
409.1351399999999
 31
0.0
  0
SOLID
  5
1A0
330
19A
100
AcDbEntity
  8
0
 62
    95
100
AcDbTrace
 10
388.674849
 20
408.551807
 30
0.0
 11
388.674849
 21
409.718473
 31
0.0
 12
392.174849
 22
409.1351399999999
 32
0.0
 13
392.174849
 23
409.1351399999999
 33
0.0
  0
SOLID
  5
1A1
330
19A
100
AcDbEntity
  8
0
 62
    95
100
AcDbTrace
 10
264.674849
 20
409.718473
 30
0.0
 11
264.674849
 21
408.551807
 31
0.0
 12
261.174849
 22
409.1351399999999
 32
0.0
 13
261.174849
 23
409.1351399999999
 33
0.0
  0
MTEXT
  5
1A2
330
19A
100
AcDbEntity
  8
0
 62
    95
370
    13
100
AcDbMText
 10
326.674849
 20
414.3851399999999
 30
0.0
 40
3.5
 41
0.0
 71
     5
 72
     1
  1
\A1;131
  7
cesky
 73
     1
 44
1.0
  0
POINT
  5
1A3
330
19A
100
AcDbEntity
  8
Defpoints
 62
     0
100
AcDbPoint
 10
392.174849
 20
383.508075
 30
0.0
  0
POINT
  5
1A4
330
19A
100
AcDbEntity
  8
Defpoints
 62
     0
100
AcDbPoint
 10
261.174849
 20
380.508075
 30
0.0
  0
POINT
  5
1A5
330
19A
100
AcDbEntity
  8
Defpoints
 62
     0
100
AcDbPoint
 10
261.174849
 20
409.1351399999999
 30
0.0
  0
ENDBLK
  5
19C
330
19A
100
AcDbEntity
  8
0
100
AcDbBlockEnd
  0
BLOCK
  5
1AD
330
1A6
100
AcDbEntity
  8
0
100
AcDbBlockBegin
  2
_U1
 70
     0
 10
0.0
 20
0.0
 30
0.0
  3
_U1
  1

  0
MTEXT
  5
1A7
330
1A6
100
AcDbEntity
  8
96
  6
Continuous
 62
    95
440
 16777216
370
    13
100
AcDbMText
 10
323.597849
 20
409.0093069999999
 30
0.0
 40
3.5
 41
0.0
 71
     7
 72
     5
  1
\W0.9524;131
  7
cesky
 73
     2
 44
0.8433729999999998
  0
LINE
  5
1A8
330
1A6
100
AcDbEntity
  8
96
 62
    95
440
 16777216
370
    13
100
AcDbLine
 10
392.174849
 20
383.508075
 30
0.0
 11
392.174849
 21
410.1351399999999
 31
0.0
  0
LINE
  5
1A9
330
1A6
100
AcDbEntity
  8
96
 62
    95
440
 16777216
370
    13
100
AcDbLine
 10
261.174849
 20
380.508075
 30
0.0
 11
261.174849
 21
410.1351399999999
 31
0.0
  0
LINE
  5
1AA
330
1A6
100
AcDbEntity
  8
96
 62
    95
440
 16777216
370
    13
100
AcDbLine
 10
392.174849
 20
409.1351399999999
 30
0.0
 11
261.174849
 21
409.1351399999999
 31
0.0
  0
SOLID
  5
1AB
330
1A6
100
AcDbEntity
  8
96
 62
    95
440
 16777216
370
    13
100
AcDbTrace
 10
392.174849
 20
409.1351399999999
 30
0.0
 11
388.674851
 21
408.5179959999999
 31
0.0
 12
388.674846
 22
409.752285
 32
0.0
 13
388.674846
 23
409.752285
 33
0.0
  0
SOLID
  5
1AC
330
1A6
100
AcDbEntity
  8
96
 62
    95
440
 16777216
370
    13
100
AcDbTrace
 10
261.174849
 20
409.1351399999999
 30
0.0
 11
264.674846
 21
409.752285
 31
0.0
 12
264.674851
 22
408.5179959999999
 32
0.0
 13
264.674851
 23
408.5179959999999
 33
0.0
  0
ENDBLK
  5
1AE
330
1A6
100
AcDbEntity
  8
0
100
AcDbBlockEnd
  0
BLOCK
  5
1B3
330
1B2
100
AcDbEntity
  8
0
100
AcDbBlockBegin
  2
*D6
 70
     1
 10
0.0
 20
0.0
 30
0.0
  3
*D6
  1

  0
LINE
  5
1B5
330
1B2
100
AcDbEntity
  8
0
 62
   254
370
    -2
100
AcDbLine
 10
392.174849
 20
383.508075
 30
0.0
 11
392.174849
 21
392.801684
 31
0.0
  0
LINE
  5
1B6
330
1B2
100
AcDbEntity
  8
0
 62
   254
370
    -2
100
AcDbLine
 10
322.174849
 20
381.508075
 30
0.0
 11
322.174849
 21
392.801684
 31
0.0
  0
LINE
  5
1B7
330
1B2
100
AcDbEntity
  8
0
 62
   254
370
    -2
100
AcDbLine
 10
388.674849
 20
391.801684
 30
0.0
 11
325.674849
 21
391.801684
 31
0.0
  0
SOLID
  5
1B8
330
1B2
100
AcDbEntity
  8
0
 62
   254
100
AcDbTrace
 10
388.674849
 20
391.21835
 30
0.0
 11
388.674849
 21
392.385017
 31
0.0
 12
392.174849
 22
391.801684
 32
0.0
 13
392.174849
 23
391.801684
 33
0.0
  0
SOLID
  5
1B9
330
1B2
100
AcDbEntity
  8
0
 62
   254
100
AcDbTrace
 10
325.674849
 20
392.385017
 30
0.0
 11
325.674849
 21
391.21835
 31
0.0
 12
322.174849
 22
391.801684
 32
0.0
 13
322.174849
 23
391.801684
 33
0.0
  0
MTEXT
  5
1BA
330
1B2
100
AcDbEntity
  8
0
 62
   254
370
    13
100
AcDbMText
 10
357.174849
 20
397.051684
 30
0.0
 40
3.5
 41
0.0
 71
     5
 72
     1
  1
\A1;70
  7
cesky
 73
     1
 44
1.0
  0
POINT
  5
1BB
330
1B2
100
AcDbEntity
  8
Defpoints
 62
     0
100
AcDbPoint
 10
392.174849
 20
383.508075
 30
0.0
  0
POINT
  5
1BC
330
1B2
100
AcDbEntity
  8
Defpoints
 62
     0
100
AcDbPoint
 10
322.174849
 20
381.508075
 30
0.0
  0
POINT
  5
1BD
330
1B2
100
AcDbEntity
  8
Defpoints
 62
     0
100
AcDbPoint
 10
322.174849
 20
391.801684
 30
0.0
  0
ENDBLK
  5
1B4
330
1B2
100
AcDbEntity
  8
0
100
AcDbBlockEnd
  0
BLOCK
  5
1C5
330
1BE
100
AcDbEntity
  8
0
100
AcDbBlockBegin
  2
_U2
 70
     0
 10
0.0
 20
0.0
 30
0.0
  3
_U2
  1

  0
MTEXT
  5
1BF
330
1BE
100
AcDbEntity
  8
96
  6
Continuous
 62
   254
440
 16777216
370
    13
100
AcDbMText
 10
355.360349
 20
391.67585
 30
0.0
 40
3.5
 41
0.0
 71
     7
 72
     5
  1
\W0.7045;70
  7
cesky
 73
     2
 44
0.8433729999999998
  0
LINE
  5
1C0
330
1BE
100
AcDbEntity
  8
96
 62
   254
440
 16777216
370
    13
100
AcDbLine
 10
392.174849
 20
383.508075
 30
0.0
 11
392.174849
 21
392.801684
 31
0.0
  0
LINE
  5
1C1
330
1BE
100
AcDbEntity
  8
96
 62
   254
440
 16777216
370
    13
100
AcDbLine
 10
322.174849
 20
381.508075
 30
0.0
 11
322.174849
 21
392.801684
 31
0.0
  0
LINE
  5
1C2
330
1BE
100
AcDbEntity
  8
96
 62
   254
440
 16777216
370
    13
100
AcDbLine
 10
392.174849
 20
391.801684
 30
0.0
 11
322.174849
 21
391.801684
 31
0.0
  0
SOLID
  5
1C3
330
1BE
100
AcDbEntity
  8
96
 62
   254
440
 16777216
370
    13
100
AcDbTrace
 10
392.174849
 20
391.801684
 30
0.0
 11
388.674851
 21
391.184539
 31
0.0
 12
388.674846
 22
392.418828
 32
0.0
 13
388.674846
 23
392.418828
 33
0.0
  0
SOLID
  5
1C4
330
1BE
100
AcDbEntity
  8
96
 62
   254
440
 16777216
370
    13
100
AcDbTrace
 10
322.174849
 20
391.801684
 30
0.0
 11
325.674846
 21
392.418828
 31
0.0
 12
325.674851
 22
391.184539
 32
0.0
 13
325.674851
 23
391.184539
 33
0.0
  0
ENDBLK
  5
1C6
330
1BE
100
AcDbEntity
  8
0
100
AcDbBlockEnd
  0
BLOCK
  5
1CB
330
1CA
100
AcDbEntity
  8
0
100
AcDbBlockBegin
  2
*D8
 70
     1
 10
0.0
 20
0.0
 30
0.0
  3
*D8
  1

  0
LINE
  5
1CD
330
1CA
100
AcDbEntity
  8
0
 62
    95
370
    -2
100
AcDbLine
 10
392.174849
 20
383.508075
 30
0.0
 11
392.174849
 21
401.7810909999999
 31
0.0
  0
LINE
  5
1CE
330
1CA
100
AcDbEntity
  8
0
 62
    95
370
    -2
100
AcDbLine
 10
321.174849
 20
366.008075
 30
0.0
 11
321.174849
 21
401.7810909999999
 31
0.0
  0
LINE
  5
1CF
330
1CA
100
AcDbEntity
  8
0
 62
    95
370
    -2
100
AcDbLine
 10
388.674849
 20
400.7810909999999
 30
0.0
 11
324.674849
 21
400.7810909999999
 31
0.0
  0
SOLID
  5
1D0
330
1CA
100
AcDbEntity
  8
0
 62
    95
100
AcDbTrace
 10
388.674849
 20
400.1977569999999
 30
0.0
 11
388.674849
 21
401.364424
 31
0.0
 12
392.174849
 22
400.7810909999999
 32
0.0
 13
392.174849
 23
400.7810909999999
 33
0.0
  0
SOLID
  5
1D1
330
1CA
100
AcDbEntity
  8
0
 62
    95
100
AcDbTrace
 10
324.674849
 20
401.364424
 30
0.0
 11
324.674849
 21
400.1977569999999
 31
0.0
 12
321.174849
 22
400.7810909999999
 32
0.0
 13
321.174849
 23
400.7810909999999
 33
0.0
  0
MTEXT
  5
1D2
330
1CA
100
AcDbEntity
  8
0
 62
    95
370
    13
100
AcDbMText
 10
356.674849
 20
406.031091
 30
0.0
 40
3.5
 41
0.0
 71
     5
 72
     1
  1
\A1;71
  7
cesky
 73
     1
 44
1.0
  0
POINT
  5
1D3
330
1CA
100
AcDbEntity
  8
Defpoints
 62
     0
100
AcDbPoint
 10
392.174849
 20
383.508075
 30
0.0
  0
POINT
  5
1D4
330
1CA
100
AcDbEntity
  8
Defpoints
 62
     0
100
AcDbPoint
 10
321.174849
 20
366.008075
 30
0.0
  0
POINT
  5
1D5
330
1CA
100
AcDbEntity
  8
Defpoints
 62
     0
100
AcDbPoint
 10
321.174849
 20
400.7810909999999
 30
0.0
  0
ENDBLK
  5
1CC
330
1CA
100
AcDbEntity
  8
0
100
AcDbBlockEnd
  0
BLOCK
  5
1DD
330
1D6
100
AcDbEntity
  8
0
100
AcDbBlockBegin
  2
_U3
 70
     0
 10
0.0
 20
0.0
 30
0.0
  3
_U3
  1

  0
MTEXT
  5
1D7
330
1D6
100
AcDbEntity
  8
96
  6
Continuous
 62
    95
440
 16777216
370
    13
100
AcDbMText
 10
354.860349
 20
400.655257
 30
0.0
 40
3.5
 41
0.0
 71
     7
 72
     5
  1
\W0.9581;71
  7
cesky
 73
     2
 44
0.8433729999999998
  0
LINE
  5
1D8
330
1D6
100
AcDbEntity
  8
96
 62
    95
440
 16777216
370
    13
100
AcDbLine
 10
392.174849
 20
383.508075
 30
0.0
 11
392.174849
 21
401.7810909999999
 31
0.0
  0
LINE
  5
1D9
330
1D6
100
AcDbEntity
  8
96
 62
    95
440
 16777216
370
    13
100
AcDbLine
 10
321.174849
 20
366.008075
 30
0.0
 11
321.174849
 21
401.7810909999999
 31
0.0
  0
LINE
  5
1DA
330
1D6
100
AcDbEntity
  8
96
 62
    95
440
 16777216
370
    13
100
AcDbLine
 10
392.174849
 20
400.7810909999999
 30
0.0
 11
321.174849
 21
400.7810909999999
 31
0.0
  0
SOLID
  5
1DB
330
1D6
100
AcDbEntity
  8
96
 62
    95
440
 16777216
370
    13
100
AcDbTrace
 10
392.174849
 20
400.7810909999999
 30
0.0
 11
388.674851
 21
400.1639459999999
 31
0.0
 12
388.674846
 22
401.398235
 32
0.0
 13
388.674846
 23
401.398235
 33
0.0
  0
SOLID
  5
1DC
330
1D6
100
AcDbEntity
  8
96
 62
    95
440
 16777216
370
    13
100
AcDbTrace
 10
321.174849
 20
400.7810909999999
 30
0.0
 11
324.674846
 21
401.398235
 31
0.0
 12
324.674851
 22
400.1639459999999
 32
0.0
 13
324.674851
 23
400.1639459999999
 33
0.0
  0
ENDBLK
  5
1DE
330
1D6
100
AcDbEntity
  8
0
100
AcDbBlockEnd
  0
BLOCK
  5
1E3
330
1E2
100
AcDbEntity
  8
0
100
AcDbBlockBegin
  2
*D10
 70
     1
 10
0.0
 20
0.0
 30
0.0
  3
*D10
  1

  0
LINE
  5
1E5
330
1E2
100
AcDbEntity
  8
0
 62
   254
370
    -2
100
AcDbLine
 10
363.77489
 20
366.008075
 30
0.0
 11
407.529363
 21
366.008075
 31
0.0
  0
LINE
  5
1E6
330
1E2
100
AcDbEntity
  8
0
 62
   254
370
    -2
100
AcDbLine
 10
393.674849
 20
382.008075
 30
0.0
 11
407.529363
 21
382.008075
 31
0.0
  0
LINE
  5
1E7
330
1E2
100
AcDbEntity
  8
0
 62
   254
370
    -2
100
AcDbLine
 10
406.529363
 20
366.008075
 30
0.0
 11
406.529363
 21
382.008075
 31
0.0
  0
SOLID
  5
1E8
330
1E2
100
AcDbEntity
  8
0
 62
   254
100
AcDbTrace
 10
407.1126969999999
 20
378.508075
 30
0.0
 11
405.94603
 21
378.508075
 31
0.0
 12
406.529363
 22
382.008075
 32
0.0
 13
406.529363
 23
382.008075
 33
0.0
  0
MTEXT
  5
1E9
330
1E2
100
AcDbEntity
  8
0
 62
   254
370
    13
100
AcDbMText
 10
401.279363
 20
356.174742
 30
0.0
 40
3.5
 41
0.0
 71
     5
 72
     1
  1
\A1;32
  7
cesky
 11
0.0
 21
1.0
 31
0.0
 73
     1
 44
1.0
  0
POINT
  5
1EA
330
1E2
100
AcDbEntity
  8
Defpoints
 62
     0
100
AcDbPoint
 10
363.77489
 20
366.008075
 30
0.0
  0
POINT
  5
1EB
330
1E2
100
AcDbEntity
  8
Defpoints
 62
     0
100
AcDbPoint
 10
393.674849
 20
382.008075
 30
0.0
  0
POINT
  5
1EC
330
1E2
100
AcDbEntity
  8
Defpoints
 62
     0
100
AcDbPoint
 10
406.529363
 20
382.008075
 30
0.0
  0
ENDBLK
  5
1E4
330
1E2
100
AcDbEntity
  8
0
100
AcDbBlockEnd
  0
BLOCK
  5
1F3
330
1ED
100
AcDbEntity
  8
0
100
AcDbBlockBegin
  2
_U4
 70
     0
 10
0.0
 20
0.0
 30
0.0
  3
_U4
  1

  0
ENDBLK
  5
1F4
330
1ED
100
AcDbEntity
  8
0
100
AcDbBlockEnd
  0
BLOCK
  5
1F9
330
1F8
100
AcDbEntity
  8
0
100
AcDbBlockBegin
  2
*D12
 70
     1
 10
0.0
 20
0.0
 30
0.0
  3
*D12
  1

  0
LINE
  5
1FB
330
1F8
100
AcDbEntity
  8
0
 62
    95
370
    -2
100
AcDbLine
 10
277.062334
 20
382.008075
 30
0.0
 11
249.436298
 21
382.008075
 31
0.0
  0
LINE
  5
1FC
330
1F8
100
AcDbEntity
  8
0
 62
    95
370
    -2
100
AcDbLine
 10
271.228619
 20
350.008075
 30
0.0
 11
249.436298
 21
350.008075
 31
0.0
  0
LINE
  5
1FD
330
1F8
100
AcDbEntity
  8
0
 62
    95
370
    -2
100
AcDbLine
 10
250.436298
 20
378.508075
 30
0.0
 11
250.436298
 21
353.508075
 31
0.0
  0
SOLID
  5
1FE
330
1F8
100
AcDbEntity
  8
0
 62
    95
100
AcDbTrace
 10
251.019631
 20
378.508075
 30
0.0
 11
249.852965
 21
378.508075
 31
0.0
 12
250.436298
 22
382.008075
 32
0.0
 13
250.436298
 23
382.008075
 33
0.0
  0
SOLID
  5
1FF
330
1F8
100
AcDbEntity
  8
0
 62
    95
100
AcDbTrace
 10
249.852965
 20
353.508075
 30
0.0
 11
251.019631
 21
353.508075
 31
0.0
 12
250.436298
 22
350.008075
 32
0.0
 13
250.436298
 23
350.008075
 33
0.0
  0
MTEXT
  5
200
330
1F8
100
AcDbEntity
  8
0
 62
    95
370
    13
100
AcDbMText
 10
245.186298
 20
366.008075
 30
0.0
 40
3.5
 41
0.0
 71
     5
 72
     1
  1
\A1;32
  7
cesky
 11
0.0
 21
1.0
 31
0.0
 73
     1
 44
1.0
  0
POINT
  5
201
330
1F8
100
AcDbEntity
  8
Defpoints
 62
     0
100
AcDbPoint
 10
277.062334
 20
382.008075
 30
0.0
  0
POINT
  5
202
330
1F8
100
AcDbEntity
  8
Defpoints
 62
     0
100
AcDbPoint
 10
271.228619
 20
350.008075
 30
0.0
  0
POINT
  5
203
330
1F8
100
AcDbEntity
  8
Defpoints
 62
     0
100
AcDbPoint
 10
250.436298
 20
350.008075
 30
0.0
  0
ENDBLK
  5
1FA
330
1F8
100
AcDbEntity
  8
0
100
AcDbBlockEnd
  0
BLOCK
  5
20C
330
204
100
AcDbEntity
  8
0
100
AcDbBlockBegin
  2
_U5
 70
     0
 10
0.0
 20
0.0
 30
0.0
  3
_U5
  1

  0
MTEXT
  5
205
330
204
100
AcDbEntity
  8
96
  6
Continuous
 62
    95
440
 16777216
370
    13
100
AcDbMText
 10
250.248881
 20
367.534325
 30
0.0
 40
3.5
 41
0.0
 71
     7
 72
     5
  1
\W0.7045;32
  7
cesky
 11
0.0000000000000001
 21
1.0
 31
0.0
 73
     2
 44
0.8433729999999998
  0
MTEXT
  5
206
330
204
100
AcDbEntity
  8
96
  6
Continuous
 62
    95
440
 16777216
370
    13
100
AcDbMText
 10
250.248881
 20
360.796825
 30
0.0
 40
3.5
 41
0.0
 71
     7
 72
     5
  1
\W3.0115;\H2.63;%%c\H3.50;
  7
cesky
 11
0.0000000000000001
 21
1.0
 31
0.0
 73
     2
 44
0.8433729999999998
  0
LINE
  5
207
330
204
100
AcDbEntity
  8
96
 62
    95
440
 16777216
370
    13
100
AcDbLine
 10
262.674849
 20
382.008075
 30
0.0
 11
249.436298
 21
382.008075
 31
0.0
  0
LINE
  5
208
330
204
100
AcDbEntity
  8
96
 62
    95
440
 16777216
370
    13
100
AcDbLine
 10
262.674849
 20
350.008075
 30
0.0
 11
249.436298
 21
350.008075
 31
0.0
  0
LINE
  5
209
330
204
100
AcDbEntity
  8
96
 62
    95
440
 16777216
370
    13
100
AcDbLine
 10
250.436298
 20
382.008075
 30
0.0
 11
250.436298
 21
350.008075
 31
0.0
  0
SOLID
  5
20A
330
204
100
AcDbEntity
  8
96
 62
    95
440
 16777216
370
    13
100
AcDbTrace
 10
250.436298
 20
382.008075
 30
0.0
 11
251.053443
 21
378.508077
 31
0.0
 12
249.819154
 22
378.508073
 32
0.0
 13
249.819154
 23
378.508073
 33
0.0
  0
SOLID
  5
20B
330
204
100
AcDbEntity
  8
96
 62
    95
440
 16777216
370
    13
100
AcDbTrace
 10
250.436298
 20
350.008075
 30
0.0
 11
249.819154
 21
353.508073
 31
0.0
 12
251.053443
 22
353.508077
 32
0.0
 13
251.053443
 23
353.508077
 33
0.0
  0
ENDBLK
  5
20D
330
204
100
AcDbEntity
  8
0
100
AcDbBlockEnd
  0
BLOCK
  5
2C8
330
2C6
100
AcDbEntity
  8
0
370
    13
100
AcDbBlockBegin
  2
GENAXEH
 70
     0
 10
0.0
 20
0.0
 30
0.0
  3
GENAXEH
  1

  0
LINE
  5
2C7
330
2C6
100
AcDbEntity
  8
0
100
AcDbLine
 10
-1.0
 20
0.0
 30
0.0
 11
1.0
 21
0.0
 31
0.0
  0
ENDBLK
  5
2C9
330
2C6
100
AcDbEntity
  8
0
370
    13
100
AcDbBlockEnd
  0
ENDSEC
  0
SECTION
  2
ENTITIES
  0
POINT
  5
73
102
{ACAD_REACTORS
330
32D
102
}
330
1F
100
AcDbEntity
  8
80
100
AcDbPoint
 10
321.174849
 20
366.008075
 30
0.0
  0
POINT
  5
75
330
1F
100
AcDbEntity
  8
SK6
 60
     1
100
AcDbPoint
 10
261.174849
 20
366.008075
 30
0.0
  0
POINT
  5
77
330
1F
100
AcDbEntity
  8
SK6
 60
     1
100
AcDbPoint
 10
322.174849
 20
366.008075
 30
0.0
  0
POINT
  5
78
330
1F
100
AcDbEntity
  8
SK6
 60
     1
100
AcDbPoint
 10
322.174849
 20
366.008075
 30
0.0
  0
POINT
  5
79
330
1F
100
AcDbEntity
  8
SK6
 60
     1
100
AcDbPoint
 10
363.77489
 20
366.008075
 30
0.0
  0
LINE
  5
7E
330
1F
100
AcDbEntity
  8
80
100
AcDbLine
 10
321.174849
 20
366.008075
 30
0.0
 11
322.174849
 21
366.008075
 31
0.0
  0
LINE
  5
7F
330
1F
100
AcDbEntity
  8
81
100
AcDbLine
 10
390.674849
 20
382.008075
 30
0.0
 11
393.674849
 21
382.008075
 31
0.0
  0
LINE
  5
80
330
1F
100
AcDbEntity
  8
81
100
AcDbLine
 10
392.174849
 20
380.508075
 30
0.0
 11
392.174849
 21
383.508075
 31
0.0
  0
LINE
  5
81
330
1F
100
AcDbEntity
  8
1
100
AcDbLine
 10
363.77489
 20
370.939694
 30
0.0
 11
363.77489
 21
352.518958
 31
0.0
  0
LINE
  5
83
330
1F
100
AcDbEntity
  8
1
100
AcDbLine
 10
329.174849
 20
381.508075
 30
0.0
 11
322.174849
 21
381.508075
 31
0.0
  0
LINE
  5
84
330
1F
100
AcDbEntity
  8
1
100
AcDbLine
 10
322.174849
 20
350.508075
 30
0.0
 11
329.174849
 21
350.508075
 31
0.0
  0
LINE
  5
85
330
1F
100
AcDbEntity
  8
1
100
AcDbLine
 10
329.174849
 20
350.508075
 30
0.0
 11
329.174849
 21
381.508075
 31
0.0
  0
LINE
  5
86
330
1F
100
AcDbEntity
  8
1
100
AcDbLine
 10
342.174849
 20
351.508075
 30
0.0
 11
342.174849
 21
380.508075
 31
0.0
  0
LINE
  5
87
330
1F
100
AcDbEntity
  8
1
100
AcDbLine
 10
342.174849
 20
380.508075
 30
0.0
 11
329.174849
 21
381.508075
 31
0.0
  0
LINE
  5
88
330
1F
100
AcDbEntity
  8
1
100
AcDbLine
 10
329.174849
 20
350.508075
 30
0.0
 11
342.174849
 21
351.508075
 31
0.0
  0
LINE
  5
89
330
1F
100
AcDbEntity
  8
SK1
100
AcDbLine
 10
322.174849
 20
350.008075
 30
0.0
 11
322.174849
 21
382.008075
 31
0.0
  0
LINE
  5
8A
330
1F
100
AcDbEntity
  8
SK1
100
AcDbLine
 10
280.674849
 20
374.104988
 30
0.0
 11
262.674849
 21
374.104988
 31
0.0
  0
LINE
  5
8B
330
1F
100
AcDbEntity
  8
SK1
100
AcDbLine
 10
262.674849
 20
357.911162
 30
0.0
 11
280.674849
 21
357.911162
 31
0.0
  0
LINE
  5
8C
330
1F
100
AcDbEntity
  8
SK1
100
AcDbLine
 10
262.674849
 20
374.104988
 30
0.0
 11
262.674849
 21
382.008075
 31
0.0
  0
LINE
  5
8D
330
1F
100
AcDbEntity
  8
SK1
100
AcDbLine
 10
262.674849
 20
350.008075
 30
0.0
 11
262.674849
 21
357.911162
 31
0.0
  0
LINE
  5
8E
330
1F
100
AcDbEntity
  8
SK1
100
AcDbLine
 10
289.662349
 20
357.911162
 30
0.0
 11
303.687349
 21
357.911162
 31
0.0
  0
LINE
  5
8F
330
1F
100
AcDbEntity
  8
SK1
100
AcDbLine
 10
303.687349
 20
374.104988
 30
0.0
 11
289.662349
 21
374.104988
 31
0.0
  0
LINE
  5
90
330
1F
100
AcDbEntity
  8
SK1
100
AcDbLine
 10
322.174849
 20
382.008075
 30
0.0
 11
262.674849
 21
382.008075
 31
0.0
  0
LINE
  5
91
330
1F
100
AcDbEntity
  8
SK1
100
AcDbLine
 10
262.674849
 20
350.008075
 30
0.0
 11
322.174849
 21
350.008075
 31
0.0
  0
LINE
  5
92
330
1F
100
AcDbEntity
  8
SK1
100
AcDbLine
 10
289.662349
 20
374.104988
 30
0.0
 11
289.662349
 21
357.911162
 31
0.0
  0
LINE
  5
93
330
1F
100
AcDbEntity
  8
SK1
100
AcDbLine
 10
303.687349
 20
374.104988
 30
0.0
 11
303.687349
 21
357.911162
 31
0.0
  0
LINE
  5
94
330
1F
100
AcDbEntity
  8
SK1
100
AcDbLine
 10
280.674849
 20
374.104988
 30
0.0
 11
280.674849
 21
357.911162
 31
0.0
  0
LINE
  5
95
330
1F
100
AcDbEntity
  8
1
100
AcDbLine
 10
375.366551
 20
360.1140299999999
 30
0.0
 11
373.947898
 21
360.1140299999999
 31
0.0
  0
LINE
  5
97
330
1F
100
AcDbEntity
  8
1
100
AcDbLine
 10
374.596175
 20
373.53592
 30
0.0
 11
374.42826
 21
373.53592
 31
0.0
  0
LINE
  5
98
330
1F
100
AcDbEntity
  8
1
100
AcDbLine
 10
377.217945
 20
375.2684240000001
 30
0.0
 11
377.553987
 21
375.2684240000001
 31
0.0
  0
LINE
  5
99
330
1F
100
AcDbEntity
  8
1
100
AcDbLine
 10
376.63378
 20
372.942929
 30
0.0
 11
376.287248
 21
372.942929
 31
0.0
  0
LINE
  5
9A
330
1F
100
AcDbEntity
  8
1
100
AcDbLine
 10
375.936162
 20
370.902172
 30
0.0
 11
375.988638
 21
370.902172
 31
0.0
  0
LINE
  5
9B
330
1F
100
AcDbEntity
  8
1
100
AcDbLine
 10
375.988638
 20
377.902172
 30
0.0
 11
375.936162
 21
377.902172
 31
0.0
  0
LINE
  5
9C
330
1F
100
AcDbEntity
  8
1
100
AcDbLine
 10
375.169849
 20
375.861415
 30
0.0
 11
375.516382
 21
375.861415
 31
0.0
  0
LINE
  5
9D
330
1F
100
AcDbEntity
  8
1
100
AcDbLine
 10
363.091911
 20
376.121259
 30
0.0
 11
363.220619
 21
375.85415
 31
0.0
  0
LINE
  5
9F
330
1F
100
AcDbEntity
  8
1
100
AcDbLine
 10
362.170572
 20
380.252916
 30
0.0
 11
362.114582
 21
380.136718
 31
0.0
  0
LINE
  5
A0
330
1F
100
AcDbEntity
  8
1
100
AcDbLine
 10
376.010988
 20
381.710254
 30
0.0
 11
363.516186
 21
381.1481490000001
 31
0.0
  0
LINE
  5
A1
330
1F
100
AcDbEntity
  8
1
100
AcDbLine
 10
375.381913
 20
367.144363
 30
0.0
 11
389.43123
 21
365.528221
 31
0.0
  0
LINE
  5
A2
330
1F
100
AcDbEntity
  8
1
100
AcDbLine
 10
377.832171
 20
374.387746
 30
0.0
 11
377.499277
 21
374.387746
 31
0.0
  0
LINE
  5
A3
330
1F
100
AcDbEntity
  8
1
100
AcDbLine
 10
390.153619
 20
365.48477
 30
0.0
 11
389.606902
 21
365.513056
 31
0.0
  0
LINE
  5
A4
330
1F
100
AcDbEntity
  8
1
100
AcDbLine
 10
387.644018
 20
361.500193
 30
0.0
 11
387.990956
 21
361.428283
 31
0.0
  0
LINE
  5
A5
330
1F
100
AcDbEntity
  8
1
100
AcDbLine
 10
388.138547
 20
361.180363
 30
0.0
 11
386.762177
 21
356.757634
 31
0.0
  0
LINE
  5
A6
330
1F
100
AcDbEntity
  8
1
100
AcDbLine
 10
363.407953
 20
352.143832
 30
0.0
 11
374.974716
 21
351.623496
 31
0.0
  0
LINE
  5
A7
330
1F
100
AcDbEntity
  8
1
100
AcDbLine
 10
386.435551
 20
356.852304
 30
0.0
 11
387.716424
 21
360.968192
 31
0.0
  0
LINE
  5
A8
330
1F
100
AcDbEntity
  8
1
100
AcDbLine
 10
387.611478
 20
361.1493680000001
 30
0.0
 11
387.539482
 21
361.164291
 31
0.0
  0
LINE
  5
A9
330
1F
100
AcDbEntity
  8
1
100
AcDbLine
 10
387.746251
 20
361.828512
 30
0.0
 11
388.90517
 21
361.667486
 31
0.0
  0
LINE
  5
AA
330
1F
100
AcDbEntity
  8
1
100
AcDbLine
 10
388.90517
 20
361.667486
 30
0.0
 11
389.949529
 21
361.795608
 31
0.0
  0
LINE
  5
AB
330
1F
100
AcDbEntity
  8
1
100
AcDbLine
 10
386.261915
 20
357.058849
 30
0.0
 11
387.746251
 21
361.828512
 31
0.0
  0
LINE
  5
AC
330
1F
100
AcDbEntity
  8
SK1
100
AcDbLine
 10
261.174849
 20
370.4589180000001
 30
0.0
 11
261.174849
 21
361.557232
 31
0.0
  0
LINE
  5
AD
330
1F
100
AcDbEntity
  8
SK1
100
AcDbLine
 10
261.174849
 20
380.508075
 30
0.0
 11
261.174849
 21
370.4589180000001
 31
0.0
  0
LINE
  5
AE
330
1F
100
AcDbEntity
  8
SK1
100
AcDbLine
 10
261.174849
 20
361.557232
 30
0.0
 11
261.174849
 21
351.508075
 31
0.0
  0
LINE
  5
AF
330
1F
100
AcDbEntity
  8
SK1
100
AcDbLine
 10
261.174849
 20
351.508075
 30
0.0
 11
262.674849
 21
350.008075
 31
0.0
  0
LINE
  5
B0
330
1F
100
AcDbEntity
  8
SK1
100
AcDbLine
 10
262.674849
 20
382.008075
 30
0.0
 11
261.174849
 21
380.508075
 31
0.0
  0
LINE
  5
B1
330
1F
100
AcDbEntity
  8
1
100
AcDbLine
 10
362.840681
 20
371.358503
 30
0.0
 11
362.840681
 21
351.564289
 31
0.0
  0
LINE
  5
B2
330
1F
100
AcDbEntity
  8
1
100
AcDbLine
 10
342.174849
 20
351.508075
 30
0.0
 11
358.313763
 21
351.508075
 31
0.0
  0
LINE
  5
B3
330
1F
100
AcDbEntity
  8
1
100
AcDbLine
 10
361.81365
 20
380.508075
 30
0.0
 11
357.915384
 21
380.508075
 31
0.0
  0
LINE
  5
B4
330
1F
100
AcDbEntity
  8
1
100
AcDbLine
 10
356.433569
 20
380.508075
 30
0.0
 11
342.174849
 21
380.508075
 31
0.0
  0
LINE
  5
B5
330
1F
100
AcDbEntity
  8
1
100
AcDbLine
 10
390.414849
 20
363.073795
 30
0.0
 11
390.414849
 21
364.967606
 31
0.0
  0
LINE
  5
B6
330
1F
100
AcDbEntity
  8
1
100
AcDbLine
 10
363.185833
 20
375.579903
 30
0.0
 11
363.111948
 21
376.079717
 31
0.0
  0
LINE
  5
B7
330
1F
100
AcDbEntity
  8
1
100
AcDbLine
 10
382.029906
 20
366.326177
 30
0.0
 11
381.04666
 21
366.439283
 31
0.0
  0
LINE
  5
B8
330
1F
100
AcDbEntity
  8
1
100
AcDbLine
 10
361.951412
 20
379.752903
 30
0.0
 11
362.595101
 21
375.398548
 31
0.0
  0
LINE
  5
B9
330
1F
100
AcDbEntity
  8
1
100
AcDbLine
 10
390.414849
 20
364.967615
 30
0.0
 11
390.414849
 21
365.490293
 31
0.0
  0
LINE
  5
BA
330
1F
100
AcDbEntity
  8
1
100
AcDbLine
 10
361.067329
 20
351.0210830000001
 30
0.0
 11
361.69734
 21
350.95533
 31
0.0
  0
LINE
  5
BB
330
1F
100
AcDbEntity
  8
1
100
AcDbLine
 10
376.010995
 20
350.305949
 30
0.0
 11
361.88567
 21
350.9414060000001
 31
0.0
  0
LINE
  5
BC
330
1F
100
AcDbEntity
  8
1
100
AcDbLine
 10
374.983912
 20
351.280581
 30
0.0
 11
363.086928
 21
351.815793
 31
0.0
  0
LINE
  5
BD
330
1F
100
AcDbEntity
  8
80
100
AcDbLine
 10
321.174849
 20
366.008075
 30
0.0
 11
321.174849
 21
365.008075
 31
0.0
  0
LINE
  5
C0
330
1F
100
AcDbEntity
  8
NOCUT
100
AcDbLine
 10
351.98425
 20
366.008075
 30
0.0
 11
349.674849
 21
370.008075
 31
0.0
  0
LINE
  5
C1
330
1F
100
AcDbEntity
  8
NOCUT
100
AcDbLine
 10
349.674849
 20
370.008075
 30
0.0
 11
262.906899
 21
370.008075
 31
0.0
  0
LINE
  5
C2
330
1F
100
AcDbEntity
  8
NOCUT
100
AcDbLine
 10
262.906899
 20
370.008075
 30
0.0
 11
261.174849
 21
371.008075
 31
0.0
  0
LINE
  5
C3
330
1F
100
AcDbEntity
  8
NOCUT
100
AcDbLine
 10
261.174849
 20
371.008075
 30
0.0
 11
261.174849
 21
380.508075
 31
0.0
  0
LINE
  5
C4
330
1F
100
AcDbEntity
  8
NOCUT
100
AcDbLine
 10
261.174849
 20
380.508075
 30
0.0
 11
262.674849
 21
382.008075
 31
0.0
  0
LINE
  5
C5
330
1F
100
AcDbEntity
  8
NOCUT
100
AcDbLine
 10
262.674849
 20
382.008075
 30
0.0
 11
322.174849
 21
382.008075
 31
0.0
  0
LINE
  5
C6
330
1F
100
AcDbEntity
  8
NOCUT
100
AcDbLine
 10
322.174849
 20
382.008075
 30
0.0
 11
322.174849
 21
381.508075
 31
0.0
  0
LINE
  5
C7
330
1F
100
AcDbEntity
  8
NOCUT
100
AcDbLine
 10
322.174849
 20
381.508075
 30
0.0
 11
329.174849
 21
381.508075
 31
0.0
  0
LINE
  5
C8
330
1F
100
AcDbEntity
  8
NOCUT
100
AcDbLine
 10
329.174849
 20
381.508075
 30
0.0
 11
342.174849
 21
380.508075
 31
0.0
  0
LINE
  5
C9
330
1F
100
AcDbEntity
  8
NOCUT
100
AcDbLine
 10
342.174849
 20
380.508075
 30
0.0
 11
362.840681
 21
380.508075
 31
0.0
  0
LINE
  5
CA
330
1F
100
AcDbEntity
  8
NOCUT
100
AcDbLine
 10
362.840681
 20
380.508075
 30
0.0
 11
363.77489
 21
379.573866
 31
0.0
  0
LINE
  5
CB
330
1F
100
AcDbEntity
  8
NOCUT
100
AcDbLine
 10
363.77489
 20
379.573866
 30
0.0
 11
375.077192
 21
380.463376
 31
0.0
  0
LINE
  5
CC
330
1F
100
AcDbEntity
  8
NOCUT
100
AcDbLine
 10
382.355327
 20
379.143696
 30
0.0
 11
382.455696
 21
379.317539
 31
0.0
  0
LINE
  5
CD
330
1F
100
AcDbEntity
  8
NOCUT
100
AcDbLine
 10
351.98425
 20
366.008075
 30
0.0
 11
390.414849
 21
366.008075
 31
0.0
  0
LINE
  5
CE
330
1F
100
AcDbEntity
  8
NOCUT
100
AcDbLine
 10
384.620759
 20
378.067539
 30
0.0
 11
384.5203899999999
 21
377.893696
 31
0.0
  0
LINE
  5
CF
330
1F
100
AcDbEntity
  8
NOCUT
100
AcDbLine
 10
390.414849
 20
368.942355
 30
0.0
 11
390.414849
 21
366.008075
 31
0.0
  0
ARC
  5
DD
330
1F
100
AcDbEntity
  8
1
100
AcDbCircle
 10
376.214849
 20
366.008075
 30
0.0
 40
14.5
100
AcDbArc
 50
346.6240620000001
 51
348.324758
  0
ARC
  5
E3
330
1F
100
AcDbEntity
  8
NOCUT
100
AcDbCircle
 10
376.214849
 20
366.008075
 30
0.0
 40
14.5
100
AcDbArc
 50
64.94543
 51
94.50000000000001
  0
ARC
  5
E4
330
1F
100
AcDbEntity
  8
NOCUT
100
AcDbCircle
 10
376.214849
 20
366.008075
 30
0.0
 40
14.7
100
AcDbArc
 50
55.12201899999999
 51
64.877981
  0
ARC
  5
E5
330
1F
100
AcDbEntity
  8
NOCUT
100
AcDbCircle
 10
376.214849
 20
366.008075
 30
0.0
 40
14.5
100
AcDbArc
 50
11.675242
 51
55.05456999999999
  0
ELLIPSE
  5
ED
330
1F
100
AcDbEntity
  8
1
100
AcDbEllipse
 10
396.456846
 20
366.008075
 30
0.0
 11
-91.52267293711277
 21
0.0000000000001128
 31
0.0
210
0.0
220
0.0
230
1.0
 40
0.157789
 41
1.205644245246275
 42
1.335018323214073
  0
ELLIPSE
  5
EE
330
1F
100
AcDbEntity
  8
1
100
AcDbEllipse
 10
349.71247
 20
366.008075
 30
0.0
 11
-70.6588078287848
 21
-0.0000000825456176
 31
0.0
210
0.0
220
0.0
230
1.0
 40
0.157789
 41
1.899141258129475
 42
1.902010605543719
  0
ELLIPSE
  5
EF
330
1F
100
AcDbEntity
  8
SK1
100
AcDbEllipse
 10
303.705331
 20
366.008075
 30
0.0
 11
-16.28171828755276
 21
0.0000000000000201
 31
0.0
210
0.0
220
0.0
230
1.0
 40
0.9826969999999999
 41
5.752578202753987
 42
6.813792411605186
  0
ELLIPSE
  5
F0
330
1F
100
AcDbEntity
  8
SK1
100
AcDbEllipse
 10
289.644367
 20
366.008075
 30
0.0
 11
-16.28171828755458
 21
0.0000000000000201
 31
0.0
210
0.0
220
0.0
230
1.0
 40
0.9826969999999999
 41
2.610985549164225
 42
3.672199758015363
  0
ELLIPSE
  5
F1
330
1F
100
AcDbEntity
  8
SK1
100
AcDbEllipse
 10
266.631867
 20
366.008075
 30
0.0
 11
-16.28171828755595
 21
0.0000000000000201
 31
0.0
210
0.0
220
0.0
230
1.0
 40
0.9826969999999999
 41
2.610985549164245
 42
3.672199758015341
  0
ELLIPSE
  5
F2
330
1F
100
AcDbEntity
  8
1
100
AcDbEllipse
 10
373.947898
 20
357.61403
 30
0.0
 11
0.0000000000000002
 21
2.5
 31
0.0
210
0.0
220
0.0
230
1.0
 40
0.9848079999999999
 41
0.0
 42
6.283185307179585
  0
ELLIPSE
  5
F3
330
1F
100
AcDbEntity
  8
1
100
AcDbEllipse
 10
373.843709
 20
357.61403
 30
0.0
 11
0.0000000000000001
 21
1.899999999999999
 31
0.0
210
0.0
220
0.0
230
0.9999999999999998
 40
0.9848079999999999
 41
0.0
 42
6.283185307179585
  0
ELLIPSE
  5
F4
330
1F
100
AcDbEntity
  8
1
100
AcDbEllipse
 10
375.988106
 20
376.187199
 30
0.0
 11
0.0
 21
-0.1027459371154633
 31
0.0
210
0.0
220
0.0
230
1.0
 40
0.9848079999999999
 41
0.8715522683383868
 42
1.56271115284399
  0
ELLIPSE
  5
F5
330
1F
100
AcDbEntity
  8
1
100
AcDbEllipse
 10
376.190469
 20
376.185537
 30
0.0
 11
0.0
 21
-0.1027459371154634
 31
0.0
210
0.0
220
0.0
230
1.0
 40
0.9848079999999999
 41
3.489546146329853
 42
4.704303806433818
  0
ELLIPSE
  5
F6
330
1F
100
AcDbEntity
  8
1
100
AcDbEllipse
 10
376.400635
 20
375.597168
 30
0.0
 11
0.0
 21
-0.7286223111655376
 31
0.0
210
0.0
220
0.0
230
1.0
 40
0.9848079999999999
 41
2.253870037349659
 42
3.489546146329852
  0
ELLIPSE
  5
F7
330
1F
100
AcDbEntity
  8
1
100
AcDbEllipse
 10
376.878712
 20
375.992209
 30
0.0
 11
0.0
 21
-0.1027459371154613
 31
0.0
210
0.0
220
0.0
230
0.9999999999999998
 40
0.9848079999999999
 41
1.039112377245724
 42
2.253870037349616
  0
ELLIPSE
  5
F8
330
1F
100
AcDbEntity
  8
1
100
AcDbEllipse
 10
377.053146
 20
375.888027
 30
0.0
 11
0.0
 21
-0.1027459371154612
 31
0.0
210
0.0
220
0.0
230
1.0
 40
0.9848079999999999
 41
4.180705030835546
 42
4.871863915341139
  0
ELLIPSE
  5
F9
330
1F
100
AcDbEntity
  8
1
100
AcDbEllipse
 10
377.661693
 20
375.987417
 30
0.0
 11
0.0
 21
-0.7286223111655374
 31
0.0
210
0.0
220
0.0
230
0.9999999999999998
 40
0.9848079999999999
 41
4.871863915341157
 42
6.107540024321356
  0
ELLIPSE
  5
FA
330
1F
100
AcDbEntity
  8
1
100
AcDbEllipse
 10
377.553987
 20
375.37117
 30
0.0
 11
0.0
 21
-0.1027459371154633
 31
0.0
210
0.0
220
0.0
230
1.0
 40
0.9848079999999999
 41
6.107540024321241
 42
6.798698908826955
  0
ELLIPSE
  5
FB
330
1F
100
AcDbEntity
  8
1
100
AcDbEllipse
 10
377.653751
 20
375.192384
 30
0.0
 11
0.0
 21
-0.1027459371154634
 31
0.0
210
0.0
220
0.0
230
1.0
 40
0.9848079999999999
 41
2.442348595133238
 42
3.657106255237223
  0
ELLIPSE
  5
FC
330
1F
100
AcDbEntity
  8
1
100
AcDbEllipse
 10
377.2570330000001
 20
374.713383
 30
0.0
 11
0.0
 21
-0.7286223111655376
 31
0.0
210
0.0
220
0.0
230
1.0
 40
0.9848079999999999
 41
1.206672486153059
 42
2.442348595133252
  0
ELLIPSE
  5
FD
330
1F
100
AcDbEntity
  8
1
100
AcDbEllipse
 10
377.832989
 20
374.490489
 30
0.0
 11
0.0
 21
-0.1027459371154613
 31
0.0
210
0.0
220
0.0
230
0.9999999999999998
 40
0.9848079999999999
 41
6.275100133228678
 42
7.489857793332682
  0
ELLIPSE
  5
FE
330
1F
100
AcDbEntity
  8
1
100
AcDbEllipse
 10
377.831353
 20
374.285004
 30
0.0
 11
0.0
 21
-0.1027459371154612
 31
0.0
210
0.0
220
0.0
230
1.0
 40
0.9848079999999999
 41
3.133507479638886
 42
3.824666364144551
  0
ELLIPSE
  5
FF
330
1F
100
AcDbEntity
  8
1
100
AcDbEllipse
 10
378.220392
 20
373.799551
 30
0.0
 11
0.0
 21
-0.7286223111655374
 31
0.0
210
0.0
220
0.0
230
0.9999999999999998
 40
0.9848079999999999
 41
3.824666364144553
 42
5.060342473124752
  0
ELLIPSE
  5
100
330
1F
100
AcDbEntity
  8
1
100
AcDbEllipse
 10
377.640962
 20
373.586143
 30
0.0
 11
0.0
 21
-0.1027459371154633
 31
0.0
210
0.0
220
0.0
230
1.0
 40
0.9848079999999999
 41
5.06034247312475
 42
5.751501357630397
  0
ELLIPSE
  5
101
330
1F
100
AcDbEntity
  8
1
100
AcDbEllipse
 10
377.538363
 20
373.409018
 30
0.0
 11
0.0
 21
-0.1027459371154634
 31
0.0
210
0.0
220
0.0
230
1.0
 40
0.9848079999999999
 41
1.395151043936688
 42
2.609908704040603
  0
ELLIPSE
  5
102
330
1F
100
AcDbEntity
  8
1
100
AcDbEllipse
 10
376.931478
 20
373.518386
 30
0.0
 11
0.0
 21
-0.7286223111655376
 31
0.0
210
0.0
220
0.0
230
1.0
 40
0.9848079999999999
 41
0.1594749349564647
 42
1.395151043936654
  0
ELLIPSE
  5
103
330
1F
100
AcDbEntity
  8
1
100
AcDbEllipse
 10
377.029358
 20
372.900452
 30
0.0
 11
0.0
 21
-0.1027459371154613
 31
0.0
210
0.0
220
0.0
230
0.9999999999999998
 40
0.9848079999999999
 41
5.227902582032077
 42
6.442660242136079
  0
ELLIPSE
  5
104
330
1F
100
AcDbEntity
  8
1
100
AcDbEllipse
 10
376.8532879999999
 20
372.799148
 30
0.0
 11
0.0
 21
-0.1027459371154612
 31
0.0
210
0.0
220
0.0
230
1.0
 40
0.9848079999999999
 41
2.08630992844227
 42
2.777468812947926
  0
ELLIPSE
  5
105
330
1F
100
AcDbEntity
  8
1
100
AcDbEllipse
 10
376.63378
 20
372.2143069999999
 30
0.0
 11
0.0
 21
-0.7286223111655374
 31
0.0
210
0.0
220
0.0
230
0.9999999999999998
 40
0.9848079999999999
 41
2.777468812947964
 42
4.013144921928155
  0
ELLIPSE
  5
106
330
1F
100
AcDbEntity
  8
1
100
AcDbEllipse
 10
376.162056
 20
372.617145
 30
0.0
 11
0.0
 21
-0.1027459371154633
 31
0.0
210
0.0
220
0.0
230
1.0
 40
0.9848079999999999
 41
4.013144921928134
 42
4.704303806433836
  0
ELLIPSE
  5
107
330
1F
100
AcDbEntity
  8
1
100
AcDbEllipse
 10
375.959692
 20
372.618807
 30
0.0
 11
0.0
 21
-0.1027459371154634
 31
0.0
210
0.0
220
0.0
230
1.0
 40
0.9848079999999999
 41
0.3479534927400609
 42
1.562711152844007
  0
ELLIPSE
  5
108
330
1F
100
AcDbEntity
  8
1
100
AcDbEllipse
 10
375.749527
 20
373.207176
 30
0.0
 11
0.0
 21
-0.7286223111655376
 31
0.0
210
0.0
220
0.0
230
1.0
 40
0.9848079999999999
 41
5.395462690939452
 42
6.631138799919646
  0
ELLIPSE
  5
109
330
1F
100
AcDbEntity
  8
1
100
AcDbEllipse
 10
375.271449
 20
372.812135
 30
0.0
 11
0.0
 21
-0.1027459371154613
 31
0.0
210
0.0
220
0.0
230
0.9999999999999998
 40
0.9848079999999999
 41
4.180705030835429
 42
5.39546269093948
  0
ELLIPSE
  5
10A
330
1F
100
AcDbEntity
  8
1
100
AcDbEllipse
 10
375.097016
 20
372.916316
 30
0.0
 11
0.0
 21
-0.1027459371154612
 31
0.0
210
0.0
220
0.0
230
1.0
 40
0.9848079999999999
 41
1.039112377245738
 42
1.730271261751346
  0
ELLIPSE
  5
10B
330
1F
100
AcDbEntity
  8
1
100
AcDbEllipse
 10
374.488469
 20
372.816927
 30
0.0
 11
0.0
 21
-0.7286223111655374
 31
0.0
210
0.0
220
0.0
230
0.9999999999999998
 40
0.9848079999999999
 41
1.73027126175136
 42
2.965947370731561
  0
ELLIPSE
  5
10C
330
1F
100
AcDbEntity
  8
1
100
AcDbEllipse
 10
374.596175
 20
373.433174
 30
0.0
 11
0.0
 21
-0.1027459371154633
 31
0.0
210
0.0
220
0.0
230
1.0
 40
0.9848079999999999
 41
2.965947370731586
 42
3.657106255237241
  0
ELLIPSE
  5
10D
330
1F
100
AcDbEntity
  8
1
100
AcDbEllipse
 10
374.49641
 20
373.61196
 30
0.0
 11
0.0
 21
-0.1027459371154634
 31
0.0
210
0.0
220
0.0
230
1.0
 40
0.9848079999999999
 41
5.583941248723106
 42
6.798698908827017
  0
ELLIPSE
  5
10E
330
1F
100
AcDbEntity
  8
1
100
AcDbEllipse
 10
376.243558
 20
374.402172
 30
0.0
 11
-0.0000000000000003
 21
-4.699999999999998
 31
0.0
210
0.0
220
0.0
230
1.0
 40
0.9848079999999999
 41
0.0
 42
6.283185307179585
  0
ELLIPSE
  5
10F
330
1F
100
AcDbEntity
  8
1
100
AcDbEllipse
 10
375.936162
 20
374.402172
 30
0.0
 11
-0.0000000000000002
 21
-3.5
 31
0.0
210
0.0
220
0.0
230
1.0
 40
0.9848079999999999
 41
3.141688793082168
 42
6.283185307179585
  0
ELLIPSE
  5
110
330
1F
100
AcDbEntity
  8
1
100
AcDbEllipse
 10
376.092163
 20
374.402172
 30
0.0
 11
-0.0000000000000003
 21
-4.219085678285776
 31
0.0
210
0.0
220
0.0
230
1.0
 40
0.9848080000000001
 41
5.779742847861547
 42
6.015067806242556
  0
ELLIPSE
  5
111
330
1F
100
AcDbEntity
  8
1
100
AcDbEllipse
 10
376.092163
 20
374.402172
 30
0.0
 11
-0.0000000000000003
 21
-4.219085678285776
 31
0.0
210
0.0
220
0.0
230
1.0
 40
0.9848080000000001
 41
3.42629733040641
 42
3.645030626209263
  0
ELLIPSE
  5
112
330
1F
100
AcDbEntity
  8
1
100
AcDbEllipse
 10
376.243558
 20
374.402172
 30
0.0
 11
-0.0000000000000003
 21
-4.295362643243258
 31
0.0
210
0.0
220
0.0
230
1.0
 40
0.9848079999999999
 41
0.0
 42
6.283185307179585
  0
ELLIPSE
  5
113
330
1F
100
AcDbEntity
  8
1
100
AcDbEllipse
 10
376.696081
 20
366.008125
 30
0.0
 11
0.000000000000001
 21
15.71753173807485
 31
0.0
210
0.0
220
0.0
230
1.0
 40
0.9848079999999999
 41
4.948647410035441
 42
6.327460010788527
  0
ELLIPSE
  5
114
330
1F
100
AcDbEntity
  8
1
100
AcDbEllipse
 10
363.585927
 20
379.549717
 30
0.0
 11
0.0000000000000001
 21
1.60000000000001
 31
0.0
210
0.0
220
0.0
230
1.0
 40
0.9848079999999999
 41
0.0442747036089414
 42
1.8003454366364
  0
ELLIPSE
  5
115
330
1F
100
AcDbEntity
  8
1
100
AcDbEllipse
 10
377.124292
 20
382.761998
 30
0.0
 11
0.000000000000001
 21
15.71753173807484
 31
0.0
210
0.0
220
0.0
230
1.0
 40
0.9848079999999999
 41
1.800345436636396
 42
3.028787724519246
  0
ELLIPSE
  5
116
330
1F
100
AcDbEntity
  8
1
100
AcDbEllipse
 10
389.436953
 20
365.555448
 30
0.0
 11
-0.3045078164421248
 21
0.0347924548201776
 31
0.0
210
0.0
220
0.0
230
0.9999999999999998
 40
0.090381
 41
1.562327812580591
 42
2.173193050818629
  0
ELLIPSE
  5
117
330
1F
100
AcDbEntity
  8
1
100
AcDbEllipse
 10
376.786708
 20
365.975662
 30
0.0
 11
-0.2287447929393426
 21
16.63348562013413
 31
0.0
210
0.0
220
0.0
230
1.0
 40
0.9231469999999999
 41
4.770555483236119
 42
4.902430916742511
  0
ELLIPSE
  5
118
330
1F
100
AcDbEntity
  8
1
100
AcDbEllipse
 10
376.835436
 20
367.558111
 30
0.0
 11
-7.441240477292297
 21
-15.41799631220002
 31
0.0
210
0.0
220
0.0
230
1.0
 40
0.87482
 41
1.908241887545104
 42
1.940289135458717
  0
ELLIPSE
  5
119
330
1F
100
AcDbEntity
  8
1
100
AcDbEllipse
 10
390.45181
 20
367.625817
 30
0.0
 11
-0.9530240912848991
 21
-1.974631179530614
 31
0.0
210
0.0
220
0.0
230
1.0
 40
0.87482
 41
0.352418628055831
 42
1.428263479850657
  0
ELLIPSE
  5
11A
330
1F
100
AcDbEntity
  8
1
100
AcDbEllipse
 10
387.895561
 20
361.226251
 30
0.0
 11
-0.250324009328222
 21
-0.0060763970384394
 31
0.0
210
0.0
220
0.0
230
0.9999999999999996
 40
0.795862
 41
2.878788681598509
 42
3.366642457987424
  0
ELLIPSE
  5
11B
330
1F
100
AcDbEntity
  8
1
100
AcDbEllipse
 10
387.904605
 20
361.227491
 30
0.0
 11
-0.1984057718778181
 21
-0.1268823943370613
 31
0.0
210
0.0
220
0.0
230
1.0
 40
0.813437
 41
3.123487885183893
 42
3.836307411052541
  0
ELLIPSE
  5
11C
330
1F
100
AcDbEntity
  8
1
100
AcDbEllipse
 10
375.158265
 20
357.61403
 30
0.0
 11
0.0000000000000002
 21
2.949999999999998
 31
0.0
210
0.0
220
0.0
230
1.0
 40
0.9848080000000001
 41
0.2195208556941381
 42
0.5782515728810443
  0
ELLIPSE
  5
11D
330
1F
100
AcDbEntity
  8
1
100
AcDbEllipse
 10
375.597959
 20
365.908586
 30
0.0
 11
-0.0000000000000009
 21
-14.29910078293372
 31
0.0
210
0.0
220
0.0
230
1.0
 40
0.9848079999999999
 41
6.238912274160168
 42
7.148395176250519
  0
ELLIPSE
  5
11E
330
1F
100
AcDbEntity
  8
1
100
AcDbEllipse
 10
387.404217
 20
360.903652
 30
0.0
 11
-0.30417165303234
 21
-0.1842032208411356
 31
0.0
210
0.0
220
0.0
230
0.9999999999999998
 40
0.5601729999999999
 41
2.577386316441049
 42
3.68395144031935
  0
ELLIPSE
  5
11F
330
1F
100
AcDbEntity
  8
1
100
AcDbEllipse
 10
374.919407
 20
358.059128
 30
0.0
 11
-0.0000000000000002
 21
-2.5
 31
0.0
210
0.0
220
0.0
230
1.0
 40
0.9848079999999999
 41
3.336766124748147
 42
3.783559371982191
  0
ELLIPSE
  5
120
330
1F
100
AcDbEntity
  8
1
100
AcDbEllipse
 10
387.2963509999999
 20
362.195655
 30
0.0
 11
-1.750603357653895
 21
-5.088451386620201
 31
0.0
210
0.0
220
0.0
230
1.0
 40
0.4924160000000001
 41
1.661019332579838
 42
2.309764139049314
  0
ELLIPSE
  5
121
330
1F
100
AcDbEntity
  8
1
100
AcDbEllipse
 10
373.964342
 20
358.059128
 30
0.0
 11
-0.0000000000000002
 21
-3.0
 31
0.0
210
0.0
220
0.0
230
1.0
 40
0.9848079999999999
 41
3.232554259967504
 42
5.76394575882969
  0
ELLIPSE
  5
122
330
1F
100
AcDbEntity
  8
1
100
AcDbEllipse
 10
355.606656
 20
366.008075
 30
0.0
 11
-82.23358513581974
 21
0.0000000000001014
 31
0.0
210
0.0
220
0.0
230
1.0
 40
0.176327
 41
1.629067367040964
 42
1.658879414657779
  0
ELLIPSE
  5
123
330
1F
100
AcDbEntity
  8
1
100
AcDbEllipse
 10
374.289448
 20
366.008075
 30
0.0
 11
-37.55252545100888
 21
14.47450232642632
 31
0.0
210
0.0
220
0.0
230
1.0
 40
0.022889
 41
5.031004153040646
 42
5.136359909673193
  0
ELLIPSE
  5
124
330
1F
100
AcDbEntity
  8
1
100
AcDbEllipse
 10
388.143699
 20
366.00808
 30
0.0
 11
-82.23356929524117
 21
-0.0000017368319858
 31
0.0
210
0.0
220
0.0
230
1.0
 40
0.176327
 41
5.036547118297447
 42
5.054076929795327
  0
ELLIPSE
  5
125
330
1F
100
AcDbEntity
  8
1
100
AcDbEllipse
 10
364.711592
 20
366.008075
 30
0.0
 11
-2.139470078470629
 21
14.49557510753655
 31
0.0
210
0.0
220
0.0
230
1.0
 40
0.167421
 41
0.230316233058093
 42
0.2994527144532408
  0
ELLIPSE
  5
126
330
1F
100
AcDbEntity
  8
1
100
AcDbEllipse
 10
382.217202
 20
362.954186
 30
0.0
 11
-38.89213177514714
 21
14.99047442171949
 31
0.0
210
0.0
220
0.0
230
0.9999999999999998
 40
0.022408
 41
4.980400355969878
 42
5.215050904807581
  0
ELLIPSE
  5
127
330
1F
100
AcDbEntity
  8
1
100
AcDbEllipse
 10
376.696089
 20
366.0080779999999
 30
0.0
 11
0.000000000000001
 21
15.71753173807484
 31
0.0
210
0.0
220
0.0
230
1.0
 40
0.9848079999999999
 41
3.097317949980845
 42
4.325760237863696
  0
ELLIPSE
  5
128
330
1F
100
AcDbEntity
  8
1
100
AcDbEllipse
 10
381.492217
 20
370.300754
 30
0.0
 11
0.0000000000000002
 21
4.0
 31
0.0
210
0.0
220
0.0
230
1.0
 40
0.9848079999999999
 41
3.266140370665998
 42
3.317237499833698
  0
ELLIPSE
  5
129
330
1F
100
AcDbEntity
  8
1
100
AcDbEllipse
 10
375.977145
 20
364.646128
 30
0.0
 11
-14.216815364104
 21
2.481294082964208
 31
0.0
210
0.0
220
0.0
230
1.0
 40
0.1799109999999999
 41
2.984675863244811
 42
3.098702383119062
  0
ELLIPSE
  5
12A
330
1F
100
AcDbEntity
  8
1
100
AcDbEllipse
 10
376.574548
 20
366.008075
 30
0.0
 11
0.0000000000000009
 21
14.35127864753449
 31
0.0
210
0.0
220
0.0
230
0.9999999999999998
 40
0.9848079999999999
 41
4.433507398675761
 42
4.475613042892363
  0
ELLIPSE
  5
12B
330
1F
100
AcDbEntity
  8
1
100
AcDbEllipse
 10
375.093055
 20
358.059128
 30
0.0
 11
-0.0000000000000002
 21
-2.6
 31
0.0
210
0.0
220
0.0
230
1.0
 40
0.9848079999999999
 41
3.77285642734472
 42
3.831074127602001
  0
ELLIPSE
  5
12C
330
1F
100
AcDbEntity
  8
1
100
AcDbEllipse
 10
382.473329
 20
370.300754
 30
0.0
 11
-0.0000000000000002
 21
-4.0
 31
0.0
210
0.0
220
0.0
230
1.0
 40
0.9848079999999999
 41
6.170380378109034
 42
6.333507438546982
  0
ELLIPSE
  5
12D
330
1F
100
AcDbEntity
  8
1
100
AcDbEllipse
 10
381.490083
 20
370.41386
 30
0.0
 11
-0.0000000000000002
 21
-4.0
 31
0.0
210
0.0
220
0.0
230
1.0
 40
0.9848079999999999
 41
6.007253360567358
 42
6.17038037810903
  0
ELLIPSE
  5
12E
330
1F
100
AcDbEntity
  8
1
100
AcDbEllipse
 10
376.807048
 20
382.784462
 30
0.0
 11
-0.000000000000001
 21
-15.60666262984765
 31
0.0
210
0.0
220
0.0
230
1.0
 40
0.9848079999999999
 41
5.587115850542539
 42
5.87280607593067
  0
ELLIPSE
  5
12F
330
1F
100
AcDbEntity
  8
1
100
AcDbEllipse
 10
367.899699
 20
374.690916
 30
0.0
 11
0.0000000000000002
 21
4.0
 31
0.0
210
0.0
220
0.0
230
1.0
 40
0.9848079999999999
 41
1.998953356117185
 42
2.898625927743968
  0
ELLIPSE
  5
130
330
1F
100
AcDbEntity
  8
1
100
AcDbEllipse
 10
365.659615
 20
375.865649
 30
0.0
 11
-0.0000000000000002
 21
-3.146651362267734
 31
0.0
210
0.0
220
0.0
230
1.0
 40
0.9848079999999999
 41
4.861383439113287
 42
5.834736059147421
  0
ELLIPSE
  5
131
330
1F
100
AcDbEntity
  8
1
100
AcDbEllipse
 10
374.893129
 20
374.090961
 30
0.0
 11
0.0
 21
-0.7286223111655376
 31
0.0
210
0.0
220
0.0
230
1.0
 40
0.9848079999999999
 41
4.348265139742857
 42
5.58394124872306
  0
ELLIPSE
  5
132
330
1F
100
AcDbEntity
  8
1
100
AcDbEllipse
 10
374.317173
 20
374.313855
 30
0.0
 11
0.0
 21
-0.1027459371154613
 31
0.0
210
0.0
220
0.0
230
0.9999999999999998
 40
0.9848079999999999
 41
3.133507479639026
 42
4.348265139742871
  0
ELLIPSE
  5
133
330
1F
100
AcDbEntity
  8
1
100
AcDbEllipse
 10
374.318809
 20
374.51934
 30
0.0
 11
0.0
 21
-0.1027459371154612
 31
0.0
210
0.0
220
0.0
230
1.0
 40
0.9848079999999999
 41
6.275100133228678
 42
6.966259017734322
  0
ELLIPSE
  5
134
330
1F
100
AcDbEntity
  8
1
100
AcDbEllipse
 10
373.92977
 20
375.004793
 30
0.0
 11
0.0
 21
-0.7286223111655374
 31
0.0
210
0.0
220
0.0
230
0.9999999999999998
 40
0.9848079999999999
 41
0.6830737105547628
 42
1.918749819534956
  0
ELLIPSE
  5
135
330
1F
100
AcDbEntity
  8
1
100
AcDbEllipse
 10
374.5092
 20
375.218201
 30
0.0
 11
0.0
 21
-0.1027459371154633
 31
0.0
210
0.0
220
0.0
230
1.0
 40
0.9848079999999999
 41
1.918749819534941
 42
2.609908704040595
  0
ELLIPSE
  5
136
330
1F
100
AcDbEntity
  8
1
100
AcDbEllipse
 10
374.611799
 20
375.395325
 30
0.0
 11
0.0
 21
-0.1027459371154634
 31
0.0
210
0.0
220
0.0
230
1.0
 40
0.9848079999999999
 41
4.536743697526418
 42
5.751501357630326
  0
ELLIPSE
  5
137
330
1F
100
AcDbEntity
  8
1
100
AcDbEllipse
 10
375.218683
 20
375.285958
 30
0.0
 11
0.0
 21
-0.7286223111655376
 31
0.0
210
0.0
220
0.0
230
1.0
 40
0.9848079999999999
 41
3.301067588546248
 42
4.536743697526452
  0
ELLIPSE
  5
138
330
1F
100
AcDbEntity
  8
1
100
AcDbEllipse
 10
375.120804
 20
375.903892
 30
0.0
 11
0.0
 21
-0.1027459371154613
 31
0.0
210
0.0
220
0.0
230
0.9999999999999998
 40
0.9848079999999999
 41
2.086309928442354
 42
3.301067588546217
  0
ELLIPSE
  5
139
330
1F
100
AcDbEntity
  8
1
100
AcDbEllipse
 10
375.296874
 20
376.005196
 30
0.0
 11
0.0
 21
-0.1027459371154612
 31
0.0
210
0.0
220
0.0
230
1.0
 40
0.9848079999999999
 41
5.227902582032048
 42
5.919061466537785
  0
ELLIPSE
  5
13A
330
1F
100
AcDbEntity
  8
1
100
AcDbEllipse
 10
375.516382
 20
376.590037
 30
0.0
 11
0.0
 21
-0.7286223111655374
 31
0.0
210
0.0
220
0.0
230
0.9999999999999998
 40
0.9848079999999999
 41
5.919061466537757
 42
7.154737575517948
  0
ELLIPSE
  5
13B
330
1F
100
AcDbEntity
  8
1
100
AcDbEllipse
 10
376.075081
 20
374.402172
 30
0.0
 11
0.0000000000000001
 21
2.200000000000001
 31
0.0
210
0.0
220
0.0
230
1.0
 40
0.9848079999999999
 41
0.0
 42
6.283185307179585
  0
ELLIPSE
  5
13C
330
1F
100
AcDbEntity
  8
1
100
AcDbEllipse
 10
375.988638
 20
374.402172
 30
0.0
 11
0.0000000000000002
 21
3.5
 31
0.0
210
0.0
220
0.0
230
1.0
 40
0.9848079999999999
 41
0.0
 42
6.283185307179585
  0
ELLIPSE
  5
13D
330
1F
100
AcDbEntity
  8
1
100
AcDbEllipse
 10
361.522154
 20
353.149613
 30
0.0
 11
-2.096911366047045
 21
-1.03869308059001
 31
0.0
210
0.0
220
0.0
230
1.0
 40
0.893045
 41
0.3533283525486226
 42
0.9546249643099198
  0
ELLIPSE
  5
13E
330
1F
100
AcDbEntity
  8
1
100
AcDbEllipse
 10
361.81518
 20
350.974723
 30
0.0
 11
-0.3141224461630357
 21
0.0210794880111985
 31
0.0
210
0.0
220
0.0
230
1.0
 40
0.093103
 41
1.192504561217937
 42
1.803369799443809
  0
ELLIPSE
  5
13F
330
1F
100
AcDbEntity
  8
1
100
AcDbEllipse
 10
389.572896
 20
360.684806
 30
0.0
 11
0.0000000000000001
 21
1.60000000000001
 31
0.0
210
0.0
220
0.0
230
1.0
 40
0.9848079999999999
 41
4.325760237863694
 42
5.881117781578207
  0
SPLINE
  5
142
330
1F
100
AcDbEntity
  8
1
100
AcDbSpline
210
0.0
220
0.0
230
1.0
 70
     8
 71
     3
 72
     8
 73
     4
 74
     0
 42
0.000000001
 43
0.0000000001
 40
0.0
 40
0.0
 40
0.0
 40
0.0
 40
1.0
 40
1.0
 40
1.0
 40
1.0
 10
375.6674618766671
 20
372.5222179923822
 30
0.0
 10
375.6444249613851
 20
372.5135063487436
 30
0.0
 10
375.621006461664
 20
372.5060948477
 30
0.0
 10
375.5972120868539
 20
372.4999754946667
 30
0.0
  0
SPLINE
  5
143
330
1F
100
AcDbEntity
  8
1
100
AcDbSpline
210
0.0
220
0.0
230
1.0
 70
     8
 71
     3
 72
    32
 73
    28
 74
     0
 42
0.000000001
 43
0.0000000001
 40
0.0
 40
0.0
 40
0.0
 40
0.0
 40
0.0493327759557306
 40
0.0493327759557306
 40
0.073999163933596
 40
0.073999163933596
 40
0.0986655519114615
 40
0.0986655519114615
 40
0.1973311038229226
 40
0.1973311038229226
 40
0.2959966557343837
 40
0.2959966557343837
 40
0.3946622076458448
 40
0.3946622076458448
 40
0.4439949836015756
 40
0.4439949836015756
 40
0.4933277595573064
 40
0.4933277595573064
 40
0.5919933114687689
 40
0.5919933114687689
 40
0.6906588633802314
 40
0.6906588633802314
 40
0.7893244152916941
 40
0.7893244152916941
 40
0.9866555191146192
 40
0.9866555191146192
 40
1.0
 40
1.0
 40
1.0
 40
1.0
 10
362.036300980856
 20
379.2109354703139
 30
0.0
 10
362.0522416682949
 20
379.1399962112078
 30
0.0
 10
362.068414116681
 20
379.0702309524906
 30
0.0
 10
362.0929949067088
 20
378.9672145340385
 30
0.0
 10
362.1012422293327
 20
378.9331478405915
 30
0.0
 10
362.1178405093147
 20
378.8655393030975
 30
0.0
 10
362.1261930864491
 20
378.831992074024
 30
0.0
 10
362.1680466319643
 20
378.6661447444885
 30
0.0
 10
362.2019454020156
 20
378.5389581654699
 30
0.0
 10
362.2704312449997
 20
378.2936650733465
 30
0.0
 10
362.3050189132492
 20
378.1755664293318
 30
0.0
 10
362.3747797506754
 20
377.947085767386
 30
0.0
 10
362.409953263186
 20
377.8367082887247
 30
0.0
 10
362.4630945412287
 20
377.676158088989
 30
0.0
 10
362.4808969897216
 20
377.6234083428172
 30
0.0
 10
362.5164351427947
 20
377.5200137791761
 30
0.0
 10
362.5341840487793
 20
377.4693259982158
 30
0.0
 10
362.5873754257174
 20
377.3200376453991
 30
0.0
 10
362.622762740446
 20
377.224202960163
 30
0.0
 10
362.6934122909637
 20
377.0388317875111
 30
0.0
 10
362.7286744610529
 20
376.9492985390106
 30
0.0
 10
362.7990905133206
 20
376.7757095486873
 30
0.0
 10
362.8342443542464
 20
376.6916558398277
 30
0.0
 10
362.9395632637142
 20
376.4467442809277
 30
0.0
 10
363.0095866000819
 20
376.2930926250334
 30
0.0
 10
363.0841845192315
 20
376.1373143529045
 30
0.0
 10
363.088908960802
 20
376.12748276793
 30
0.0
 10
363.0936327182692
 20
376.1176863729633
 30
0.0
  0
SPLINE
  5
144
330
1F
100
AcDbEntity
  8
1
100
AcDbSpline
210
0.0
220
0.0
230
1.0
 70
     8
 71
     3
 72
    14
 73
    10
 74
     0
 42
0.000000001
 43
0.0000000001
 40
0.0
 40
0.0
 40
0.0
 40
0.0
 40
0.499999999999984
 40
0.499999999999984
 40
0.6249999999999928
 40
0.6249999999999928
 40
0.7500000000000015
 40
0.7500000000000015
 40
1.0
 40
1.0
 40
1.0
 40
1.0
 10
377.2567682482838
 20
373.4975807941784
 30
0.0
 10
377.27547806849
 20
373.4871806181429
 30
0.0
 10
377.2908799669291
 20
373.4715771097025
 30
0.0
 10
377.3031388737867
 20
373.4480749591768
 30
0.0
 10
377.3052171774656
 20
373.443228865404
 30
0.0
 10
377.3086217613458
 20
373.4332440981317
 30
0.0
 10
377.3099534080676
 20
373.4280741806904
 30
0.0
 10
377.3126962712999
 20
373.4123060668537
 30
0.0
 10
377.3128605408786
 20
373.4017221278859
 30
0.0
 10
377.3112589048742
 20
373.3910642780929
 30
0.0
  0
SPLINE
  5
145
330
1F
100
AcDbEntity
  8
1
100
AcDbSpline
210
0.0
220
0.0
230
1.0
 70
     8
 71
     3
 72
    10
 73
     6
 74
     0
 42
0.000000001
 43
0.0000000001
 40
0.0
 40
0.0
 40
0.0
 40
0.0
 40
0.5
 40
0.5
 40
1.0
 40
1.0
 40
1.0
 40
1.0
 10
377.2567682482838
 20
373.4975807941784
 30
0.0
 10
377.2459735937695
 20
373.5035811889421
 30
0.0
 10
377.2364418603749
 20
373.5111428234548
 30
0.0
 10
377.2199778752089
 20
373.5294428418178
 30
0.0
 10
377.2134801423951
 20
373.5396920841259
 30
0.0
 10
377.2088172060936
 20
373.5511093619438
 30
0.0
  0
SPLINE
  5
146
330
1F
100
AcDbEntity
  8
1
100
AcDbSpline
210
0.0
220
0.0
230
1.0
 70
     8
 71
     3
 72
     8
 73
     4
 74
     0
 42
0.000000001
 43
0.0000000001
 40
0.0
 40
0.0
 40
0.0
 40
0.0
 40
1.0
 40
1.0
 40
1.0
 40
1.0
 10
377.2179863714184
 20
375.2684118502934
 30
0.0
 10
377.2117631624862
 20
375.268406428401
 30
0.0
 10
377.2055285959909
 20
375.2689323527169
 30
0.0
 10
377.1992820140116
 20
375.270004816406
 30
0.0
  0
SPLINE
  5
147
330
1F
100
AcDbEntity
  8
1
100
AcDbSpline
210
0.0
220
0.0
230
1.0
 70
     8
 71
     3
 72
    29
 73
    25
 74
     0
 42
0.000000001
 43
0.0000000001
 40
0.0
 40
0.0
 40
0.0
 40
0.0
 40
0.1250000000000107
 40
0.1250000000000107
 40
0.1875000000000149
 40
0.1875000000000149
 40
0.2500000000000191
 40
0.2500000000000191
 40
0.3750000000000302
 40
0.3750000000000302
 40
0.4375000000000397
 40
0.4687500000000425
 40
0.4687500000000425
 40
0.5000000000000452
 40
0.5000000000000452
 40
0.6250000000000436
 40
0.6250000000000436
 40
0.6875000000000405
 40
0.6875000000000405
 40
0.7500000000000375
 40
0.7500000000000375
 40
0.8750000000000188
 40
0.8750000000000188
 40
1.0
 40
1.0
 40
1.0
 40
1.0
 10
377.2088172060936
 20
373.5511093619438
 30
0.0
 10
377.1946136007622
 20
373.5858871280545
 30
0.0
 10
377.18323202374
 20
373.6214138222384
 30
0.0
 10
377.1704200308818
 20
373.6758696105332
 30
0.0
 10
377.1668627020327
 20
373.6942167450206
 30
0.0
 10
377.1612210834508
 20
373.7313202178822
 30
0.0
 10
377.1591344130582
 20
373.7501098536802
 30
0.0
 10
377.1552156563873
 20
373.8069223598464
 30
0.0
 10
377.1557538735371
 20
373.8446158450374
 30
0.0
 10
377.1612619514624
 20
373.9009004776166
 30
0.0
 10
377.1651963733688
 20
373.9289784848156
 30
0.0
 10
377.1709444803675
 20
373.9569592911663
 30
0.0
 10
377.1751879136033
 20
373.9755911897376
 30
0.0
 10
377.1775220221167
 20
373.9849191954237
 30
0.0
 10
377.1901240032832
 20
374.0310830178273
 30
0.0
 10
377.2031902626838
 20
374.0666716612487
 30
0.0
 10
377.227040047766
 20
374.1181432333722
 30
0.0
 10
377.2357017435765
 20
374.1349803498418
 30
0.0
 10
377.2544495508686
 20
374.1680141566376
 30
0.0
 10
377.2645608349605
 20
374.1842475757358
 30
0.0
 10
377.2969080621505
 20
374.2317317045522
 30
0.0
 10
377.3207129924955
 20
374.2611719640442
 30
0.0
 10
377.3724724531652
 20
374.3159822234195
 30
0.0
 10
377.4004289488071
 20
374.3413502633957
 30
0.0
 10
377.4304638471755
 20
374.3646970338201
 30
0.0
  0
SPLINE
  5
148
330
1F
100
AcDbEntity
  8
1
100
AcDbSpline
210
0.0
220
0.0
230
1.0
 70
     8
 71
     3
 72
    26
 73
    22
 74
     0
 42
0.000000001
 43
0.0000000001
 40
0.0
 40
0.0
 40
0.0
 40
0.0
 40
0.1656383521654998
 40
0.1656383521654998
 40
0.2484575282482469
 40
0.2484575282482469
 40
0.3312767043309941
 40
0.3312767043309941
 40
0.4969150564964849
 40
0.4969150564964849
 40
0.5797342325792377
 40
0.5797342325792377
 40
0.6625534086619905
 40
0.6625534086619905
 40
0.82819176082752
 40
0.82819176082752
 40
0.9110109369102985
 40
0.9110109369102985
 40
0.9938301129930767
 40
0.9938301129930767
 40
1.0
 40
1.0
 40
1.0
 40
1.0
 10
377.3112589048742
 20
373.3910642780929
 30
0.0
 10
377.3056953949614
 20
373.3540427246282
 30
0.0
 10
377.2972595225656
 20
373.3178036610228
 30
0.0
 10
377.2803490871203
 20
373.2646137606077
 30
0.0
 10
377.2739997090716
 20
373.2470794030088
 30
0.0
 10
377.2598457467244
 20
373.2124113996971
 30
0.0
 10
377.2520689890359
 20
373.19535929457
 30
0.0
 10
377.2269114673048
 20
373.1455467451757
 30
0.0
 10
377.2076301709557
 20
373.1139112168804
 30
0.0
 10
377.1749705048784
 20
373.0688044962678
 30
0.0
 10
377.1634582397561
 20
373.0541617183927
 30
0.0
 10
377.1391522953067
 20
373.0256809317638
 30
0.0
 10
377.1263235018685
 20
373.0118172737398
 30
0.0
 10
377.0865804035996
 20
372.972175599735
 30
0.0
 10
377.0582236098726
 20
372.9480859712456
 30
0.0
 10
377.0129599721612
 20
372.9153773756026
 30
0.0
 10
376.9974152688093
 20
372.9050480725612
 30
0.0
 10
376.9653977951568
 20
372.8855540900752
 30
0.0
 10
376.9488493914184
 20
372.8763529040817
 30
0.0
 10
376.9307739991401
 20
372.8672213006998
 30
0.0
 10
376.9295194240141
 20
372.8665920909201
 30
0.0
 10
376.9282634985321
 20
372.8659667878766
 30
0.0
  0
SPLINE
  5
149
330
1F
100
AcDbEntity
  8
1
100
AcDbSpline
210
0.0
220
0.0
230
1.0
 70
     8
 71
     3
 72
    18
 73
    14
 74
     0
 42
0.000000001
 43
0.0000000001
 40
0.0
 40
0.0
 40
0.0
 40
0.0
 40
0.2499999999999537
 40
0.2499999999999537
 40
0.3749999999999553
 40
0.3749999999999553
 40
0.499999999999957
 40
0.499999999999957
 40
0.6249999999999587
 40
0.6249999999999587
 40
0.7499999999999602
 40
0.7499999999999602
 40
1.0
 40
1.0
 40
1.0
 40
1.0
 10
376.6304630395203
 20
376.057060073793
 30
0.0
 10
376.6369383116103
 20
376.0486538345694
 30
0.0
 10
376.641913462684
 20
376.0392471016133
 30
0.0
 10
376.6469004958077
 20
376.0245859765669
 30
0.0
 10
376.6481689773517
 20
376.0195802872703
 30
0.0
 10
376.6499152885631
 20
376.0093317275672
 30
0.0
 10
376.6503801707539
 20
376.0041187640066
 30
0.0
 10
376.6505059915478
 20
375.9938159571925
 30
0.0
 10
376.6501749989405
 20
375.9886834704467
 30
0.0
 10
376.6487388265756
 20
375.9784564904549
 30
0.0
 10
376.647618985985
 20
375.9733216757774
 30
0.0
 10
376.6431741124267
 20
375.958375748709
 30
0.0
 10
376.6388097998819
 20
375.9489669951157
 30
0.0
 10
376.6330353243382
 20
375.9401181794704
 30
0.0
  0
SPLINE
  5
14A
330
1F
100
AcDbEntity
  8
1
100
AcDbSpline
210
0.0
220
0.0
230
1.0
 70
     8
 71
     3
 72
    29
 73
    25
 74
     0
 42
0.000000001
 43
0.0000000001
 40
0.0
 40
0.0
 40
0.0
 40
0.0
 40
0.1249999999999795
 40
0.1249999999999795
 40
0.1874999999999694
 40
0.1874999999999694
 40
0.2499999999999591
 40
0.2499999999999591
 40
0.3749999999999212
 40
0.3749999999999212
 40
0.4374999999999039
 40
0.4687499999998972
 40
0.4687499999998972
 40
0.4999999999998904
 40
0.4999999999998904
 40
0.6249999999999143
 40
0.6249999999999143
 40
0.6874999999999286
 40
0.6874999999999286
 40
0.749999999999943
 40
0.749999999999943
 40
0.8749999999999714
 40
0.8749999999999714
 40
1.0
 40
1.0
 40
1.0
 40
1.0
 10
377.1992820140116
 20
375.270004816406
 30
0.0
 10
377.1616285582534
 20
375.2764694660661
 30
0.0
 10
377.1248256714971
 20
375.2856526817433
 30
0.0
 10
377.0708912216567
 20
375.3035215240461
 30
0.0
 10
377.0531256867477
 20
375.3101632815937
 30
0.0
 10
377.018031195963
 20
375.3248605411342
 30
0.0
 10
377.0006720542617
 20
375.3329314841058
 30
0.0
 10
376.9494722943513
 20
375.3592760269703
 30
0.0
 10
376.9171918387024
 20
375.3793032693042
 30
0.0
 10
376.8715348336951
 20
375.4130064476446
 30
0.0
 10
376.8494003095375
 20
375.4307777824108
 30
0.0
 10
376.8283320497415
 20
375.4499608300168
 30
0.0
 10
376.8145283810435
 20
375.4630696513294
 30
0.0
 10
376.8077312121609
 20
375.4698014885695
 30
0.0
 10
376.7746618906086
 20
375.5039632939996
 30
0.0
 10
376.7509841781568
 20
375.5329989342909
 30
0.0
 10
376.7194184520723
 20
375.578990583861
 30
0.0
 10
376.7095580516992
 20
375.5947295934051
 30
0.0
 10
376.6911591717973
 20
375.6270283144654
 30
0.0
 10
376.6826024986019
 20
375.643627600527
 30
0.0
 10
376.6590663422623
 20
375.6944295119633
 30
0.0
 10
376.6464932185452
 20
375.7289698235395
 30
0.0
 10
376.6270716474497
 20
375.7993505758491
 30
0.0
 10
376.6202259573763
 20
375.8351915809242
 30
0.0
 10
376.6162220112249
 20
375.8717114373557
 30
0.0
  0
SPLINE
  5
14B
330
1F
100
AcDbEntity
  8
1
100
AcDbSpline
210
0.0
220
0.0
230
1.0
 70
     8
 71
     3
 72
    10
 73
     6
 74
     0
 42
0.000000001
 43
0.0000000001
 40
0.0
 40
0.0
 40
0.0
 40
0.0
 40
0.5
 40
0.5
 40
1.0
 40
1.0
 40
1.0
 40
1.0
 10
376.6162220112249
 20
375.8717114373557
 30
0.0
 10
376.6149073263246
 20
375.883702633539
 30
0.0
 10
376.6157713228408
 20
375.8955917832105
 30
0.0
 10
376.6215808527005
 20
375.9189773161275
 30
0.0
 10
376.6263782098973
 20
375.9299168065542
 30
0.0
 10
376.6330353243382
 20
375.9401181794704
 30
0.0
  0
SPLINE
  5
14C
330
1F
100
AcDbEntity
  8
1
100
AcDbSpline
210
0.0
220
0.0
230
1.0
 70
     8
 71
     3
 72
    17
 73
    13
 74
     0
 42
0.000000001
 43
0.0000000001
 40
0.0
 40
0.0
 40
0.0
 40
0.0
 40
0.0315943767573233
 40
0.0315943767573233
 40
0.2736957825679859
 40
0.2736957825679859
 40
0.3947464854733196
 40
0.3947464854733196
 40
0.5157971883786533
 40
0.5157971883786533
 40
0.7578985941893266
 40
1.0
 40
1.0
 40
1.0
 40
1.0
 10
376.2571857129992
 20
376.303065762243
 30
0.0
 10
376.2619022853668
 20
376.3018422204354
 30
0.0
 10
376.2665988028878
 20
376.3005716204057
 30
0.0
 10
376.3070543086834
 20
376.2891708348157
 30
0.0
 10
376.3416027087309
 20
376.2763818785316
 30
0.0
 10
376.3916112034888
 20
376.2532365415128
 30
0.0
 10
376.4079769501912
 20
376.2448581242662
 30
0.0
 10
376.4400910157526
 20
376.2267545605011
 30
0.0
 10
376.4559066266977
 20
376.2169821380593
 30
0.0
 10
376.50184134892
 20
376.1859616923518
 30
0.0
 10
376.5589274040489
 20
376.1402575691321
 30
0.0
 10
376.6080000696778
 20
376.0862216434611
 30
0.0
 10
376.6304630395203
 20
376.0570600737931
 30
0.0
  0
SPLINE
  5
14D
330
1F
100
AcDbEntity
  8
1
100
AcDbSpline
210
0.0
220
0.0
230
1.0
 70
     8
 71
     3
 72
    25
 73
    21
 74
     0
 42
0.000000001
 43
0.0000000001
 40
0.0
 40
0.0
 40
0.0
 40
0.0
 40
0.177714712175304
 40
0.177714712175304
 40
0.2665720682629561
 40
0.2665720682629561
 40
0.3554294243506083
 40
0.3554294243506083
 40
0.5331441365259101
 40
0.5331441365259101
 40
0.6220014926135611
 40
0.6664301706574022
 40
0.6664301706574022
 40
0.7108588487012434
 40
0.7108588487012434
 40
0.8885735608766415
 40
0.8885735608766415
 40
0.9774309169643244
 40
0.9774309169643244
 40
1.0
 40
1.0
 40
1.0
 40
1.0
 10
375.7475929593076
 20
372.6832765275203
 30
0.0
 10
375.7692616231805
 20
372.7115898103745
 30
0.0
 10
375.7930582938675
 20
372.7379334900768
 30
0.0
 10
375.832011604518
 20
372.7745207485759
 30
0.0
 10
375.8455416193173
 20
372.7862262315268
 30
0.0
 10
375.8737362146522
 20
372.8086326533966
 30
0.0
 10
375.8884277466092
 20
372.8193516545322
 30
0.0
 10
375.9341343427981
 20
372.8498191213673
 30
0.0
 10
375.9661487329753
 20
372.867485199815
 30
0.0
 10
376.0164983876488
 20
372.8900666050023
 30
0.0
 10
376.0422575916054
 20
372.9003733026087
 30
0.0
 10
376.0689174077176
 20
372.9091711528336
 30
0.0
 10
376.0868950111085
 20
372.9146943049082
 30
0.0
 10
376.0960089923233
 20
372.917290482691
 30
0.0
 10
376.1416822025633
 20
372.9292920921083
 30
0.0
 10
376.1787090260098
 20
372.9358449531072
 30
0.0
 10
376.2349401669663
 20
372.9413248274263
 30
0.0
 10
376.2537994930757
 20
372.9424229461627
 30
0.0
 10
376.2775929301083
 20
372.9428838819984
 30
0.0
 10
376.2824225170442
 20
372.9429299392701
 30
0.0
 10
376.2872600986842
 20
372.9429285761492
 30
0.0
  0
SPLINE
  5
14E
330
1F
100
AcDbEntity
  8
1
100
AcDbSpline
210
0.0
220
0.0
230
1.0
 70
     8
 71
     3
 72
    10
 73
     6
 74
     0
 42
0.000000001
 43
0.0000000001
 40
0.0
 40
0.0
 40
0.0
 40
0.0
 40
0.5
 40
0.5
 40
1.0
 40
1.0
 40
1.0
 40
1.0
 10
375.7279802204234
 20
372.6179759114022
 30
0.0
 10
375.7273264309391
 20
372.6298108507211
 30
0.0
 10
375.7286451436629
 20
372.6413332917321
 30
0.0
 10
375.735311894471
 20
372.6637142228388
 30
0.0
 10
375.7404791058485
 20
372.67398123611
 30
0.0
 10
375.7475929593076
 20
372.6832765275203
 30
0.0
  0
SPLINE
  5
14F
330
1F
100
AcDbEntity
  8
1
100
AcDbSpline
210
0.0
220
0.0
230
1.0
 70
     8
 71
     3
 72
    14
 73
    10
 74
     0
 42
0.000000001
 43
0.0000000001
 40
0.0
 40
0.0
 40
0.0
 40
0.0
 40
0.5000000000000826
 40
0.5000000000000826
 40
0.6250000000000875
 40
0.6250000000000875
 40
0.7500000000000926
 40
0.7500000000000926
 40
1.0
 40
1.0
 40
1.0
 40
1.0
 10
375.7279802204234
 20
372.6179759114022
 30
0.0
 10
375.7291134142299
 20
372.5974627641921
 30
0.0
 10
375.7241469914289
 20
372.5772430512831
 30
0.0
 10
375.7109137809443
 20
372.5559105324713
 30
0.0
 10
375.7079489345693
 20
372.5518869834236
 30
0.0
 10
375.7013795293265
 20
372.5443298293886
 30
0.0
 10
375.6977519871311
 20
372.5407772595572
 30
0.0
 10
375.6859935431045
 20
372.5310416805806
 30
0.0
 10
375.6772211672593
 20
372.5259085673036
 30
0.0
 10
375.6674618766671
 20
372.5222179923822
 30
0.0
  0
SPLINE
  5
150
330
1F
100
AcDbEntity
  8
1
100
AcDbSpline
210
0.0
220
0.0
230
1.0
 70
     8
 71
     3
 72
    12
 73
     8
 74
     0
 42
0.000000001
 43
0.0000000001
 40
0.0
 40
0.0
 40
0.0
 40
0.0
 40
0.1571854018452173
 40
0.1571854018452173
 40
0.5785927009226085
 40
0.5785927009226085
 40
1.0
 40
1.0
 40
1.0
 40
1.0
 10
375.1694885524307
 20
375.8614153879036
 30
0.0
 10
375.1559265562161
 20
375.8614193974994
 30
0.0
 10
375.1423662411184
 20
375.8618324834874
 30
0.0
 10
375.0926567618212
 20
375.8648696956929
 30
0.0
 10
375.0575449471863
 20
375.8699698430671
 30
0.0
 10
374.9892532309888
 20
375.8855403996981
 30
0.0
 10
374.9560743307991
 20
375.896013331259
 30
0.0
 10
374.9238159312751
 20
375.909186385518
 30
0.0
  0
SPLINE
  5
151
330
1F
100
AcDbEntity
  8
1
100
AcDbSpline
210
0.0
220
0.0
230
1.0
 70
     8
 71
     3
 72
     8
 73
     4
 74
     0
 42
0.000000001
 43
0.0000000001
 40
0.0
 40
0.0
 40
0.0
 40
0.0
 40
1.0
 40
1.0
 40
1.0
 40
1.0
 10
374.9238159312751
 20
375.909186385518
 30
0.0
 10
374.913409936261
 20
375.9134357822321
 30
0.0
 10
374.9041745922438
 20
375.9194255593263
 30
0.0
 10
374.8961091267047
 20
375.9270109574346
 30
0.0
  0
SPLINE
  5
152
330
1F
100
AcDbEntity
  8
1
100
AcDbSpline
210
0.0
220
0.0
230
1.0
 70
     8
 71
     3
 72
    41
 73
    37
 74
     0
 42
0.000000001
 43
0.0000000001
 40
0.0
 40
0.0
 40
0.0
 40
0.0
 40
0.0482979595246343
 40
0.0482979595246343
 40
0.2386383676197097
 40
0.2386383676197097
 40
0.3338085716672488
 40
0.3338085716672488
 40
0.3813936736910173
 40
0.3813936736910173
 40
0.4289787757147858
 40
0.4289787757147858
 40
0.5241489797623232
 40
0.5241489797623232
 40
0.5717340817860901
 40
0.5717340817860901
 40
0.6193191838098569
 40
0.6193191838098569
 40
0.71448938785739
 40
0.71448938785739
 40
0.7620744898811573
 40
0.7620744898811573
 40
0.7858670408930414
 40
0.7858670408930414
 40
0.8096595919049251
 40
0.8334521429168091
 40
0.8334521429168091
 40
0.857244693928693
 40
0.857244693928693
 40
0.9048297959524626
 40
0.9048297959524626
 40
0.9286223469643472
 40
0.9286223469643472
 40
0.9524148979762317
 40
0.9524148979762317
 40
1.0
 40
1.0
 40
1.0
 40
1.0
 10
362.1159201127422
 20
380.139492470268
 30
0.0
 10
362.1121879584132
 20
380.1317969976738
 30
0.0
 10
362.1084989225203
 20
380.1239238274218
 30
0.0
 10
362.0904930355758
 20
380.0840965171666
 30
0.0
 10
362.0768216545457
 20
380.0494480690393
 30
0.0
 10
362.0576712482324
 20
379.9914502609687
 30
0.0
 10
362.0515158786972
 20
379.9711036758223
 30
0.0
 10
362.0426985511938
 20
379.9386842538631
 30
0.0
 10
362.0398290417767
 20
379.9275596390075
 30
0.0
 10
362.0342467296188
 20
379.9045849390544
 30
0.0
 10
362.0315328839458
 20
379.8927275069664
 30
0.0
 10
362.0237101566066
 20
379.8561442314435
 30
0.0
 10
362.0188984314002
 20
379.8303578818551
 30
0.0
 10
362.0124751077599
 20
379.7888735838483
 30
0.0
 10
362.0104638182277
 20
379.7745452848427
 30
0.0
 10
362.0067747927613
 20
379.744906858813
 30
0.0
 10
362.005099975009
 20
379.7296279403444
 30
0.0
 10
362.0006706167533
 20
379.6821676902449
 30
0.0
 10
361.9984913278596
 20
379.6484183592732
 30
0.0
 10
361.9969735572099
 20
379.5929630404382
 30
0.0
 10
361.9967629656643
 20
379.5736629991682
 30
0.0
 10
361.9970309210985
 20
379.5430947924174
 30
0.0
 10
361.9972195905519
 20
379.5326240584432
 30
0.0
 10
361.9978126696171
 20
379.5114240717325
 30
0.0
 10
361.9986215437805
 20
379.4898853092211
 30
0.0
 10
361.9999060510094
 20
379.4675986578634
 30
0.0
 10
362.0014553375993
 20
379.4448951221976
 30
0.0
 10
362.0023668047603
 20
379.4332861923637
 30
0.0
 10
362.0055180188732
 20
379.3980924265621
 30
0.0
 10
362.0081382016438
 20
379.3744972759494
 30
0.0
 10
362.012893419965
 20
379.3388935162377
 30
0.0
 10
362.0146161569514
 20
379.3269903835526
 30
0.0
 10
362.0183469652494
 20
379.3031111282689
 30
0.0
 10
362.0203597957797
 20
379.2911195087004
 30
0.0
 10
362.0266780064111
 20
379.2558898499176
 30
0.0
 10
362.0313050819359
 20
379.2331025413289
 30
0.0
 10
362.036300980856
 20
379.2109354703137
 30
0.0
  0
SPLINE
  5
153
330
1F
100
AcDbEntity
  8
1
100
AcDbSpline
210
0.0
220
0.0
230
1.0
 70
     8
 71
     3
 72
    18
 73
    14
 74
     0
 42
0.000000001
 43
0.0000000001
 40
0.0
 40
0.0
 40
0.0
 40
0.0
 40
0.2500000000000394
 40
0.2500000000000394
 40
0.3750000000000077
 40
0.3750000000000077
 40
0.4999999999999759
 40
0.4999999999999759
 40
0.624999999999944
 40
0.624999999999944
 40
0.7499999999999122
 40
0.7499999999999122
 40
1.0
 40
1.0
 40
1.0
 40
1.0
 10
377.6008078644604
 20
374.4538977267476
 30
0.0
 10
377.5967452333176
 20
374.4437701192533
 30
0.0
 10
377.5910326748401
 20
374.4343797550259
 30
0.0
 10
377.5807061247133
 20
374.422107846133
 30
0.0
 10
377.5769570607997
 20
374.418288836103
 30
0.0
 10
377.5688434675692
 20
374.4111961054211
 30
0.0
 10
377.5644985765707
 20
374.4079497840672
 30
0.0
 10
377.5555030416768
 20
374.4022102202809
 30
0.0
 10
377.5508190529292
 20
374.3996867836476
 30
0.0
 10
377.5410855411199
 20
374.3953206396873
 30
0.0
 10
377.5359930048411
 20
374.3934683879711
 30
0.0
 10
377.5205590306736
 20
374.3890869741539
 30
0.0
 10
377.5100355473971
 20
374.3876631307936
 30
0.0
 10
377.4992770324835
 20
374.3877461320486
 30
0.0
  0
SPLINE
  5
154
330
1F
100
AcDbEntity
  8
1
100
AcDbSpline
210
0.0
220
0.0
230
1.0
 70
     8
 71
     3
 72
    10
 73
     6
 74
     0
 42
0.000000001
 43
0.0000000001
 40
0.0
 40
0.0
 40
0.0
 40
0.0
 40
0.5
 40
0.5
 40
1.0
 40
1.0
 40
1.0
 40
1.0
 10
377.4304638471755
 20
374.3646970338201
 30
0.0
 10
377.4403254683729
 20
374.3723626834015
 30
0.0
 10
377.4512235262379
 20
374.3781214350985
 30
0.0
 10
377.4747808974887
 20
374.3859500712811
 30
0.0
 10
377.4868739191693
 20
374.3878418212752
 30
0.0
 10
377.4992770324835
 20
374.3877461320486
 30
0.0
  0
SPLINE
  5
155
330
1F
100
AcDbEntity
  8
1
100
AcDbSpline
210
0.0
220
0.0
230
1.0
 70
     8
 71
     3
 72
    27
 73
    23
 74
     0
 42
0.000000001
 43
0.0000000001
 40
0.0
 40
0.0
 40
0.0
 40
0.0
 40
0.1250000000000149
 40
0.1250000000000149
 40
0.1875000000000147
 40
0.1875000000000147
 40
0.2500000000000144
 40
0.2500000000000144
 40
0.375000000000014
 40
0.375000000000014
 40
0.4375000000000093
 40
0.4375000000000093
 40
0.5000000000000045
 40
0.5000000000000045
 40
0.6250000000000061
 40
0.6250000000000061
 40
0.6875000000000052
 40
0.6875000000000052
 40
0.750000000000004
 40
0.750000000000004
 40
0.8750000000000021
 40
1.0
 40
1.0
 40
1.0
 40
1.0
 10
377.3921457627914
 20
375.2710182676932
 30
0.0
 10
377.4213919484207
 20
375.2468174653888
 30
0.0
 10
377.4484770831731
 20
375.2205832344928
 30
0.0
 10
377.4858990682607
 20
375.1782149180944
 30
0.0
 10
377.4978364323063
 20
375.1635871128793
 30
0.0
 10
377.5206148132628
 20
375.1332996331569
 30
0.0
 10
377.5313993223015
 20
375.117706702778
 30
0.0
 10
377.5616482122377
 20
375.0700721036322
 30
0.0
 10
377.5791598909817
 20
375.036997281169
 30
0.0
 10
377.6014727937468
 20
374.9854198908654
 30
0.0
 10
377.6082484200173
 20
374.9678984635593
 30
0.0
 10
377.6204437899006
 20
374.9321817761853
 30
0.0
 10
377.6258676845495
 20
374.9139431566535
 30
0.0
 10
377.6398043094196
 20
374.8591746372743
 30
0.0
 10
377.6461127550193
 20
374.8222961386431
 30
0.0
 10
377.6512039406318
 20
374.7664421530698
 30
0.0
 10
377.6521690953933
 20
374.7477343847867
 30
0.0
 10
377.6526127094327
 20
374.7101366682945
 30
0.0
 10
377.6520839370569
 20
374.69116288738
 30
0.0
 10
377.648247264629
 20
374.6346474069236
 30
0.0
 10
377.6372389792231
 20
374.5605893558257
 30
0.0
 10
377.6149009776038
 20
374.489030012519
 30
0.0
 10
377.6008078644604
 20
374.4538977267476
 30
0.0
  0
SPLINE
  5
156
330
1F
100
AcDbEntity
  8
1
100
AcDbSpline
210
0.0
220
0.0
230
1.0
 70
     8
 71
     3
 72
    12
 73
     8
 74
     0
 42
0.000000001
 43
0.0000000001
 40
0.0
 40
0.0
 40
0.0
 40
0.0
 40
0.5000000000000044
 40
0.5000000000000044
 40
0.7500000000000022
 40
0.7500000000000022
 40
1.0
 40
1.0
 40
1.0
 40
1.0
 10
392.1025938616297
 20
367.15343593785
 30
0.0
 10
392.1037525994854
 20
367.1362844129575
 30
0.0
 10
392.104137443399
 20
367.1195139052739
 30
0.0
 10
392.1036020620567
 20
367.0949081186813
 30
0.0
 10
392.1032319810456
 20
367.0867557039529
 30
0.0
 10
392.1021211247219
 20
367.0709342353303
 30
0.0
 10
392.1013825213848
 20
367.0632516664241
 30
0.0
 10
392.1004611135114
 20
367.0557980880434
 30
0.0
  0
SPLINE
  5
157
330
1F
100
AcDbEntity
  8
1
100
AcDbSpline
210
0.0
220
0.0
230
1.0
 70
     8
 71
     3
 72
    10
 73
     6
 74
     0
 42
0.000000001
 43
0.0000000001
 40
0.0
 40
0.0
 40
0.0
 40
0.0
 40
0.5
 40
0.5
 40
1.0
 40
1.0
 40
1.0
 40
1.0
 10
391.7448373668642
 20
369.6870745754201
 30
0.0
 10
391.7591025698478
 20
369.6269084878559
 30
0.0
 10
391.772633201365
 20
369.5666596226382
 30
0.0
 10
391.7983816172369
 20
369.445998218708
 30
0.0
 10
391.8105982125411
 20
369.3855856667925
 30
0.0
 10
391.8222009404461
 20
369.3250918048268
 30
0.0
  0
SPLINE
  5
158
330
1F
100
AcDbEntity
  8
1
100
AcDbSpline
210
0.0
220
0.0
230
1.0
 70
     8
 71
     3
 72
     8
 73
     4
 74
     0
 42
0.000000001
 43
0.0000000001
 40
0.0
 40
0.0
 40
0.0
 40
0.0
 40
1.0
 40
1.0
 40
1.0
 40
1.0
 10
386.7621772203738
 20
356.757634003921
 30
0.0
 10
386.7336210455223
 20
356.665875004832
 30
0.0
 10
386.707583132973
 20
356.573604193956
 30
0.0
 10
386.683763798213
 20
356.4813149172458
 30
0.0
  0
SPLINE
  5
159
330
1F
100
AcDbEntity
  8
1
100
AcDbSpline
210
0.0
220
0.0
230
1.0
 70
     8
 71
     3
 72
    10
 73
     6
 74
     0
 42
0.000000001
 43
0.0000000001
 40
0.0
 40
0.0
 40
0.0
 40
0.0
 40
0.5
 40
0.5
 40
1.0
 40
1.0
 40
1.0
 40
1.0
 10
388.1384934294481
 20
361.2766321123249
 30
0.0
 10
388.1343372574475
 20
361.2898634793028
 30
0.0
 10
388.1294445619844
 20
361.3027407777346
 30
0.0
 10
388.1181970929875
 20
361.3277899752121
 30
0.0
 10
388.1117917083816
 20
361.3400190871016
 30
0.0
 10
388.1048469124878
 20
361.3514304374144
 30
0.0
  0
SPLINE
  5
15A
330
1F
100
AcDbEntity
  8
1
100
AcDbSpline
210
0.0
220
0.0
230
1.0
 70
     8
 71
     3
 72
    10
 73
     6
 74
     0
 42
0.000000001
 43
0.0000000001
 40
0.0
 40
0.0
 40
0.0
 40
0.0
 40
0.5
 40
0.5
 40
1.0
 40
1.0
 40
1.0
 40
1.0
 10
386.3175167879688
 20
356.6358994640209
 30
0.0
 10
386.3440249572078
 20
356.667498973622
 30
0.0
 10
386.3674093445077
 20
356.7017894096073
 30
0.0
 10
386.4070147948407
 20
356.7744021598693
 30
0.0
 10
386.4232347178519
 20
356.8127225598598
 30
0.0
 10
386.4355507758418
 20
356.8523035899452
 30
0.0
  0
SPLINE
  5
15B
330
1F
100
AcDbEntity
  8
SK1
100
AcDbSpline
210
0.0
220
0.0
230
1.0
 70
     8
 71
     3
 72
    17
 73
    13
 74
     0
 42
0.000000001
 43
0.0000000001
 40
0.0
 40
0.0
 40
0.0
 40
0.0
 40
0.2500000000000013
 40
0.2500000000000013
 40
0.3125000000000017
 40
0.3125000000000017
 40
0.375000000000002
 40
0.5000000000000008
 40
0.5000000000000008
 40
0.7500000000000005
 40
0.7500000000000005
 40
1.0
 40
1.0
 40
1.0
 40
1.0
 10
261.1748486011854
 20
370.4589177040837
 30
0.0
 10
261.2711710400012
 20
370.7727179174501
 30
0.0
 10
261.3761481867197
 20
371.0846629639846
 30
0.0
 10
261.5171744786406
 20
371.472492566523
 30
0.0
 10
261.5458854398894
 20
371.5499936092996
 30
0.0
 10
261.6041817614173
 20
371.7045751404527
 30
0.0
 10
261.6929167621461
 20
371.9357654184952
 30
0.0
 10
261.7853875443939
 20
372.1649813947886
 30
0.0
 10
261.9749728978764
 20
372.6209591779673
 30
0.0
 10
262.1075471692823
 20
372.9216762011664
 30
0.0
 10
262.3834629491198
 20
373.5174199322224
 30
0.0
 10
262.5268056271697
 20
373.8124460219544
 30
0.0
 10
262.6748486011854
 20
374.104988079229
 30
0.0
  0
SPLINE
  5
15C
330
1F
100
AcDbEntity
  8
SK1
100
AcDbSpline
210
0.0
220
0.0
230
1.0
 70
     8
 71
     3
 72
    14
 73
    10
 74
     0
 42
0.000000001
 43
0.0000000001
 40
0.0
 40
0.0
 40
0.0
 40
0.0
 40
0.25
 40
0.25
 40
0.5
 40
0.5
 40
0.75
 40
0.75
 40
1.0
 40
1.0
 40
1.0
 40
1.0
 10
261.1748486011854
 20
361.5572324703766
 30
0.0
 10
261.2723383907914
 20
361.2396292498236
 30
0.0
 10
261.37800924252
 20
360.926119212221
 30
0.0
 10
261.6036026989339
 20
360.3062296331959
 30
0.0
 10
261.7235262523956
 20
359.9998505664693
 30
0.0
 10
261.9757984820338
 20
359.3933090219733
 30
0.0
 10
262.1081481974289
 20
359.0931470641504
 30
0.0
 10
262.383698063179
 20
358.4982518831499
 30
0.0
 10
262.526899237672
 20
358.2035191723734
 30
0.0
 10
262.6748486011854
 20
357.9111620952312
 30
0.0
  0
SPLINE
  5
15D
330
1F
100
AcDbEntity
  8
1
100
AcDbSpline
210
0.0
220
0.0
230
1.0
 70
     8
 71
     3
 72
     8
 73
     4
 74
     0
 42
0.000000001
 43
0.0000000001
 40
0.0
 40
0.0
 40
0.0
 40
0.0
 40
1.0
 40
1.0
 40
1.0
 40
1.0
 10
363.7748903771587
 20
352.5189581083075
 30
0.0
 10
363.4638842088433
 20
352.2003288113341
 30
0.0
 10
363.1524558719128
 20
351.8821316176863
 30
0.0
 10
362.8406813101018
 20
351.5642887964789
 30
0.0
  0
SPLINE
  5
15E
330
1F
100
AcDbEntity
  8
1
100
AcDbSpline
210
0.0
220
0.0
230
1.0
 70
     8
 71
     3
 72
     8
 73
     4
 74
     0
 42
0.000000001
 43
0.0000000001
 40
0.0
 40
0.0
 40
0.0
 40
0.0
 40
1.0
 40
1.0
 40
1.0
 40
1.0
 10
363.7748903771587
 20
370.9396943601888
 30
0.0
 10
363.4635276163589
 20
371.0792851544748
 30
0.0
 10
363.1521220796021
 20
371.2188888148468
 30
0.0
 10
362.8406813101018
 20
371.3585030724685
 30
0.0
  0
SPLINE
  5
15F
330
1F
100
AcDbEntity
  8
1
100
AcDbSpline
210
0.0
220
0.0
230
1.0
 70
     8
 71
     3
 72
    63
 73
    59
 74
     0
 42
0.000000001
 43
0.0000000001
 40
0.0
 40
0.0
 40
0.0
 40
0.0
 40
0.0506630050445622
 40
0.0506630050445622
 40
0.0819084258126921
 40
0.0819084258126921
 40
0.1131538465808221
 40
0.1443992673489519
 40
0.1443992673489519
 40
0.1600219777330169
 40
0.1600219777330169
 40
0.1756446881170819
 40
0.1756446881170819
 40
0.2381355296533269
 40
0.2381355296533269
 40
0.2693809504214462
 40
0.2693809504214462
 40
0.3006263711895657
 40
0.3006263711895657
 40
0.3631172127258046
 40
0.3631172127258046
 40
0.3943626334939198
 40
0.3943626334939198
 40
0.425608054262035
 40
0.425608054262035
 40
0.4880988957982657
 40
0.4880988957982657
 40
0.5505897373344962
 40
0.5505897373344962
 40
0.5818351581026072
 40
0.5818351581026072
 40
0.597457868486658
 40
0.597457868486658
 40
0.6130805788707093
 40
0.6130805788707093
 40
0.6755714204068961
 40
0.6755714204068961
 40
0.7068168411749899
 40
0.7068168411749899
 40
0.7224395515590367
 40
0.7224395515590367
 40
0.7380622619430836
 40
0.7380622619430836
 40
0.8005531034792504
 40
0.8005531034792504
 40
0.816175813863289
 40
0.816175813863289
 40
0.8317985242473278
 40
0.8317985242473278
 40
0.8630439450154007
 40
0.8630439450154007
 40
0.9255347865515467
 40
0.9255347865515467
 40
0.9411574969355831
 40
0.9411574969355831
 40
0.9567802073196197
 40
0.9880256280876924
 40
1.0
 40
1.0
 40
1.0
 40
1.0
 10
356.4248456372042
 20
380.5080750614294
 30
0.0
 10
356.4248878160568
 20
380.5080726946798
 30
0.0
 10
356.4282201156056
 20
380.5079140185238
 30
0.0
 10
356.4389245018597
 20
380.5074125784375
 30
0.0
 10
356.4443122448324
 20
380.5071616590725
 30
0.0
 10
356.4574218272626
 20
380.5065607212338
 30
0.0
 10
356.4728583315795
 20
380.5058610379684
 30
0.0
 10
356.4928114040542
 20
380.504989906651
 30
0.0
 10
356.5094693226301
 20
380.5042818632992
 30
0.0
 10
356.5153046655059
 20
380.5040367324537
 30
0.0
 10
356.527547013237
 20
380.5035298579078
 30
0.0
 10
356.5339725959702
 20
380.5032673779165
 30
0.0
 10
356.5672325711714
 20
380.5019304981759
 30
0.0
 10
356.5975100320474
 20
380.5007794598812
 30
0.0
 10
356.6481587336267
 20
380.4990331289014
 30
0.0
 10
356.6659204390696
 20
380.49844761435
 30
0.0
 10
356.7032348225029
 20
380.4972866853355
 30
0.0
 10
356.7225784058579
 20
380.4967180197629
 30
0.0
 10
356.7822076509156
 20
380.4950811322502
 30
0.0
 10
356.8242375259156
 20
380.4940769421784
 30
0.0
 10
356.8906751681733
 20
380.4927839527664
 30
0.0
 10
356.9134765517682
 20
380.4923876009312
 30
0.0
 10
356.9593385160397
 20
380.491692624989
 30
0.0
 10
356.9824898531879
 20
380.4913918829108
 30
0.0
 10
357.0525887715358
 20
380.4906388500116
 30
0.0
 10
357.1001752861912
 20
380.4903356550361
 30
0.0
 10
357.1971146621293
 20
380.4901741467426
 30
0.0
 10
357.2450296542462
 20
380.4903185786509
 30
0.0
 10
357.3159626232136
 20
380.4908483166847
 30
0.0
 10
357.3394572987883
 20
380.4910770829
 30
0.0
 10
357.3744700766207
 20
380.4914953770306
 30
0.0
 10
357.3861027312397
 20
380.4916473314195
 30
0.0
 10
357.4092898621306
 20
380.491975741485
 30
0.0
 10
357.4208382270827
 20
380.4921521951492
 30
0.0
 10
357.4777676306193
 20
380.4930833179845
 30
0.0
 10
357.5212294969407
 20
380.4939912112604
 30
0.0
 10
357.5833274371146
 20
380.4955204323957
 30
0.0
 10
357.6035074284649
 20
380.4960580981472
 30
0.0
 10
357.6329679987603
 20
380.4968964767261
 30
0.0
 10
357.6426783237966
 20
380.4971820343256
 30
0.0
 10
357.6616372946784
 20
380.4977563513123
 30
0.0
 10
357.6708983006684
 20
380.4980454083831
 30
0.0
 10
357.7161253026166
 20
380.4994948895121
 30
0.0
 10
357.7488884745634
 20
380.5006679981569
 30
0.0
 10
357.7854837431197
 20
380.5020676856166
 30
0.0
 10
357.7925828831325
 20
380.5023442737434
 30
0.0
 10
357.8063308631195
 20
380.5028885465024
 30
0.0
 10
357.8129980991774
 20
380.5031569882593
 30
0.0
 10
357.8321533145774
 20
380.5039393633304
 30
0.0
 10
357.8437743430513
 20
380.5044292671625
 30
0.0
 10
357.8752667644026
 20
380.5057846660625
 30
0.0
 10
357.8918017654586
 20
380.5065361527145
 30
0.0
 10
357.906641370748
 20
380.5072208898295
 30
0.0
 10
357.9093208969923
 20
380.5073453571985
 30
0.0
 10
357.9140274799148
 20
380.5075648671576
 30
0.0
 10
357.9201233969438
 20
380.5078508246081
 30
0.0
 10
357.924223807829
 20
380.5080454645414
 30
0.0
 10
357.9248572024317
 20
380.5080754769976
 30
0.0
 10
357.9248488384544
 20
380.5080750736359
 30
0.0
  0
SPLINE
  5
160
330
1F
100
AcDbEntity
  8
1
100
AcDbSpline
210
0.0
220
0.0
230
1.0
 70
     9
 71
     3
 72
   123
 73
   119
 74
     0
 42
0.000000001
 43
0.0000000001
 40
0.0
 40
0.0
 40
0.0
 40
0.0
 40
0.0312499999999969
 40
0.0312499999999969
 40
0.0390624999999952
 40
0.0390624999999952
 40
0.0468749999999934
 40
0.0468749999999934
 40
0.0624999999999914
 40
0.0624999999999914
 40
0.0937499999999863
 40
0.0937499999999863
 40
0.1015624999999848
 40
0.1015624999999848
 40
0.1093749999999833
 40
0.1249999999999803
 40
0.1406249999999772
 40
0.1406249999999772
 40
0.1484374999999756
 40
0.1484374999999756
 40
0.156249999999974
 40
0.156249999999974
 40
0.1874999999999669
 40
0.1874999999999669
 40
0.2031249999999633
 40
0.2031249999999633
 40
0.2187499999999598
 40
0.2343749999999562
 40
0.2343749999999562
 40
0.2421874999999563
 40
0.2421874999999563
 40
0.2499999999999564
 40
0.2499999999999564
 40
0.2812499999999528
 40
0.2812499999999528
 40
0.2968749999999489
 40
0.2968749999999489
 40
0.3046874999999471
 40
0.3046874999999471
 40
0.3124999999999451
 40
0.3124999999999451
 40
0.3437499999999461
 40
0.3437499999999461
 40
0.3515624999999475
 40
0.3515624999999475
 40
0.3593749999999489
 40
0.3593749999999489
 40
0.3749999999999516
 40
0.3749999999999516
 40
0.4062499999999617
 40
0.4062499999999617
 40
0.4218749999999666
 40
0.4218749999999666
 40
0.4374999999999716
 40
0.4374999999999716
 40
0.4687499999999816
 40
0.4687499999999816
 40
0.4765624999999815
 40
0.4765624999999815
 40
0.4843749999999813
 40
0.4999999999999809
 40
0.5156249999999805
 40
0.5156249999999805
 40
0.5234374999999803
 40
0.5234374999999803
 40
0.53124999999998
 40
0.53124999999998
 40
0.5624999999999833
 40
0.5624999999999833
 40
0.5781249999999849
 40
0.5781249999999849
 40
0.585937499999986
 40
0.585937499999986
 40
0.5937499999999871
 40
0.5937499999999871
 40
0.6249999999999915
 40
0.6249999999999915
 40
0.6328124999999928
 40
0.6328124999999928
 40
0.6406249999999942
 40
0.6562499999999968
 40
0.6718749999999995
 40
0.6718749999999995
 40
0.6875000000000023
 40
0.6875000000000023
 40
0.71875000000001
 40
0.71875000000001
 40
0.7265625000000103
 40
0.7265625000000103
 40
0.7343750000000107
 40
0.7343750000000107
 40
0.7500000000000112
 40
0.7500000000000112
 40
0.7812500000000162
 40
0.7812500000000162
 40
0.7890625000000174
 40
0.7890625000000174
 40
0.7968750000000187
 40
0.8125000000000254
 40
0.8281250000000323
 40
0.8281250000000323
 40
0.8359375000000333
 40
0.8359375000000333
 40
0.8437500000000344
 40
0.8437500000000344
 40
0.8750000000000301
 40
0.8750000000000301
 40
0.890625000000028
 40
0.890625000000028
 40
0.9062500000000259
 40
0.9062500000000259
 40
0.9375000000000172
 40
0.9375000000000172
 40
0.9531250000000127
 40
0.9531250000000127
 40
0.9687500000000087
 40
0.9687500000000087
 40
1.0
 40
1.0
 40
1.0
 40
1.0
 10
354.7851294874531
 20
351.5498257895944
 30
0.0
 10
354.8141207375276
 20
351.5527777813604
 30
0.0
 10
354.8388141482216
 20
351.5560632833735
 30
0.0
 10
354.8643133122408
 20
351.5606616382515
 30
0.0
 10
354.8691422676404
 20
351.5616060288863
 30
0.0
 10
354.8782482526355
 20
351.5635467645608
 30
0.0
 10
354.8825340221597
 20
351.5645456722049
 30
0.0
 10
354.8944296800261
 20
351.5675940347423
 30
0.0
 10
354.9011148020252
 20
351.5697007242487
 30
0.0
 10
354.9175194501679
 20
351.576252511111
 30
0.0
 10
354.9236255384867
 20
351.5809284385476
 30
0.0
 10
354.9249490347588
 20
351.5871973325161
 30
0.0
 10
354.9248925964763
 20
351.5884688546858
 30
0.0
 10
354.9241475847354
 20
351.5910246759706
 30
0.0
 10
354.9220811816921
 20
351.5948872204853
 30
0.0
 10
354.9139926328967
 20
351.6014649776126
 30
0.0
 10
354.9026212854525
 20
351.6068662099373
 30
0.0
 10
354.8922197577792
 20
351.6109643743192
 30
0.0
 10
354.8884273022635
 20
351.6123423271086
 30
0.0
 10
354.880276801024
 20
351.6150890716158
 30
0.0
 10
354.8759214817759
 20
351.6164577116902
 30
0.0
 10
354.8527773278337
 20
351.6232742535131
 30
0.0
 10
354.8299259730783
 20
351.6286442220983
 30
0.0
 10
354.7892677486609
 20
351.6364932700728
 30
0.0
 10
354.7745598648008
 20
351.6390870481414
 30
0.0
 10
354.7435558707103
 20
351.6440895193766
 30
0.0
 10
354.7109029762378
 20
351.6489236588778
 30
0.0
 10
354.6750588823948
 20
351.6533994600653
 30
0.0
 10
354.6469835883456
 20
351.6566101770075
 30
0.0
 10
354.6374260966268
 20
351.6576560219054
 30
0.0
 10
354.6179094163516
 20
351.6596964628329
 30
0.0
 10
354.6079249460926
 20
351.6606934214654
 30
0.0
 10
354.5573110137793
 20
351.6655121238161
 30
0.0
 10
354.5148736656777
 20
351.6688199265566
 30
0.0
 10
354.4484420655221
 20
351.6729217538908
 30
0.0
 10
354.4258321569314
 20
351.6741450046376
 30
0.0
 10
354.3912061331496
 20
351.6757521979856
 30
0.0
 10
354.3795150302379
 20
351.6762510265236
 30
0.0
 10
354.3560830364687
 20
351.6771629717643
 30
0.0
 10
354.3443379739626
 20
351.6775765606761
 30
0.0
 10
354.2854702030561
 20
351.6794345211142
 30
0.0
 10
354.2379239900597
 20
351.6802528656334
 30
0.0
 10
354.1779318485929
 20
351.6804312072463
 30
0.0
 10
354.1659052112807
 20
351.6804244010753
 30
0.0
 10
354.1417946806735
 20
351.6803245937381
 30
0.0
 10
354.1296832223613
 20
351.6802312514458
 30
0.0
 10
354.0934652208945
 20
351.6798218844584
 30
0.0
 10
354.0695825395099
 20
351.6793788758513
 30
0.0
 10
353.9986998682223
 20
351.6775599592136
 30
0.0
 10
353.9524582658058
 20
351.6756971367258
 30
0.0
 10
353.8846546878848
 20
351.6719516999868
 30
0.0
 10
353.8622156764953
 20
351.670535626457
 30
0.0
 10
353.8187492730707
 20
351.6674452556176
 30
0.0
 10
353.7976399629569
 20
351.6657680568288
 30
0.0
 10
353.7361578480292
 20
351.6603663055811
 30
0.0
 10
353.6976121116788
 20
351.6562742089549
 30
0.0
 10
353.6526653596657
 20
351.6505898862183
 30
0.0
 10
353.6438400565528
 20
351.6494240648513
 30
0.0
 10
353.6267210766911
 20
351.6470637150609
 30
0.0
 10
353.6017629980462
 20
351.6434701521633
 30
0.0
 10
353.5637119974609
 20
351.6372355346116
 30
0.0
 10
353.537050531416
 20
351.6320186639537
 30
0.0
 10
353.5185130054601
 20
351.6280292324753
 30
0.0
 10
353.5125773743142
 20
351.6266865955643
 30
0.0
 10
353.5012059659634
 20
351.6239768385503
 30
0.0
 10
353.4957659789025
 20
351.6226080831601
 30
0.0
 10
353.4701523855325
 20
351.6157887885255
 30
0.0
 10
353.4544144980287
 20
351.6103501156783
 30
0.0
 10
353.4378780149149
 20
351.602279336146
 30
0.0
 10
353.4335527366178
 20
351.5996033235473
 30
0.0
 10
353.4289197959633
 20
351.5956161664215
 30
0.0
 10
353.4276926035829
 20
351.5942964863633
 30
0.0
 10
353.4258833739388
 20
351.5916968437488
 30
0.0
 10
353.4252974884619
 20
351.5904137037796
 30
0.0
 10
353.4239375682877
 20
351.5840806626574
 30
0.0
 10
353.4278253624376
 20
351.5792784843372
 30
0.0
 10
353.4389932182685
 20
351.5735969423302
 30
0.0
 10
353.4415541739642
 20
351.5724734794738
 30
0.0
 10
353.4472760520659
 20
351.5702770311352
 30
0.0
 10
353.4567509730666
 20
351.5670592603523
 30
0.0
 10
353.4768815101908
 20
351.5620630170356
 30
0.0
 10
353.4975090469437
 20
351.5584272888497
 30
0.0
 10
353.5204135015823
 20
351.5549603031807
 30
0.0
 10
353.5330800923982
 20
351.5533038681792
 30
0.0
 10
353.5737716153148
 20
351.5486626329431
 30
0.0
 10
353.604555434664
 20
351.5459782199244
 30
0.0
 10
353.6474410632578
 20
351.5430354545338
 30
0.0
 10
353.6562405484107
 20
351.5424677424416
 30
0.0
 10
353.6742883351678
 20
351.5413722690323
 30
0.0
 10
353.6835620963617
 20
351.5408431926798
 30
0.0
 10
353.7118453768838
 20
351.5393253219132
 30
0.0
 10
353.7313025715117
 20
351.5384054513564
 30
0.0
 10
353.7914086178858
 20
351.5358876415476
 30
0.0
 10
353.8337762100112
 20
351.5345288132834
 30
0.0
 10
353.8896259208186
 20
351.5331637394768
 30
0.0
 10
353.9009626892891
 20
351.5329072599182
 30
0.0
 10
353.9237068026619
 20
351.5324316705758
 30
0.0
 10
353.9579981768351
 20
351.5317727455403
 30
0.0
 10
354.0160057638747
 20
351.5309303188984
 30
0.0
 10
354.0633077625607
 20
351.5305086497111
 30
0.0
 10
354.0991234186817
 20
351.5302840376132
 30
0.0
 10
354.1111185926427
 20
351.5302244882044
 30
0.0
 10
354.1352239118747
 20
351.5301361257102
 30
0.0
 10
354.1473623199166
 20
351.5301073286087
 30
0.0
 10
354.2077877137231
 20
351.5300415859749
 30
0.0
 10
354.2555550258995
 20
351.5302331534829
 30
0.0
 10
354.3263699328912
 20
351.5308908308119
 30
0.0
 10
354.3498345994208
 20
351.531172547574
 30
0.0
 10
354.3964754681819
 20
351.531871330598
 30
0.0
 10
354.4196979944256
 20
351.5322902225152
 30
0.0
 10
354.4874681905928
 20
351.5337406243901
 30
0.0
 10
354.5306194491185
 20
351.5349686837383
 30
0.0
 10
354.5922891352655
 20
351.5372812231385
 30
0.0
 10
354.6123327511035
 20
351.5381311737637
 30
0.0
 10
354.6513464370531
 20
351.540012514619
 30
0.0
 10
354.670073064392
 20
351.5410326503986
 30
0.0
 10
354.7236815133472
 20
351.5443389552924
 30
0.0
 10
354.7561382373785
 20
351.546873797828
 30
0.0
 10
354.785129487453
 20
351.5498257895944
 30
0.0
  0
SPLINE
  5
161
330
1F
100
AcDbEntity
  8
1
100
AcDbSpline
210
0.0
220
0.0
230
1.0
 70
     8
 71
     3
 72
    24
 73
    20
 74
     0
 42
0.000000001
 43
0.0000000001
 40
0.0
 40
0.0
 40
0.0
 40
0.0
 40
0.022068435683807
 40
0.022068435683807
 40
0.1382192094586182
 40
0.1382192094586182
 40
0.3705207570082272
 40
0.3705207570082272
 40
0.4866715307830404
 40
0.4866715307830404
 40
0.5447469176704474
 40
0.5447469176704474
 40
0.6028223045578539
 40
0.6028223045578539
 40
0.8351238521075448
 40
0.8351238521075448
 40
0.9512746258823778
 40
0.9512746258823778
 40
1.0
 40
1.0
 40
1.0
 40
1.0
 10
361.8102379638815
 20
380.5080750130622
 30
0.0
 10
361.8123962615253
 20
380.5080745090012
 30
0.0
 10
361.8145965024809
 20
380.5080714001436
 30
0.0
 10
361.8286417677285
 20
380.5080358555886
 30
0.0
 10
361.8416815666126
 20
380.5079337377166
 30
0.0
 10
361.8836876118834
 20
380.5074439387773
 30
0.0
 10
361.9156509458811
 20
380.5068750192056
 30
0.0
 10
361.9696415194149
 20
380.5057918440171
 30
0.0
 10
361.9886517161034
 20
380.5053923723527
 30
0.0
 10
362.0187587135713
 20
380.5047521218585
 30
0.0
 10
362.0290601057799
 20
380.5045318681818
 30
0.0
 10
362.0502122842301
 20
380.5040805357269
 30
0.0
 10
362.06105624618
 20
380.5038496177018
 30
0.0
 10
362.1160345567859
 20
380.5026893228789
 30
0.0
 10
362.162903401476
 20
380.5017335005505
 30
0.0
 10
362.237603142483
 20
380.5004042794223
 30
0.0
 10
362.2632403190692
 20
380.4999784235445
 30
0.0
 10
362.3007300807815
 20
380.4994148168877
 30
0.0
 10
362.311965259914
 20
380.4992531832068
 30
0.0
 10
362.3233018411833
 20
380.4990979213624
 30
0.0
  0
SPLINE
  5
162
330
1F
100
AcDbEntity
  8
1
100
AcDbSpline
210
0.0
220
0.0
230
1.0
 70
    24
 71
     3
 72
     8
 73
     4
 74
     0
 42
0.000000001
 43
0.0000000001
 40
0.0
 40
0.0
 40
0.0
 40
0.0
 40
1.0
 40
1.0
 40
1.0
 40
1.0
 10
359.3462882508778
 20
351.533002343855
 30
0.0
 10
359.6616212218938
 20
351.5330024394391
 30
0.0
 10
359.9769541929098
 20
351.5330025350235
 30
0.0
 10
360.2922871639258
 20
351.5330026306082
 30
0.0
  0
SPLINE
  5
163
330
1F
100
AcDbEntity
  8
1
100
AcDbSpline
210
0.0
220
0.0
230
1.0
 70
     8
 71
     3
 72
     8
 73
     4
 74
     0
 42
0.000000001
 43
0.0000000001
 40
0.0
 40
0.0
 40
0.0
 40
0.0
 40
1.0
 40
1.0
 40
1.0
 40
1.0
 10
360.3957812521817
 20
351.532685598984
 30
0.0
 10
360.3613946205554
 20
351.5328961689407
 30
0.0
 10
360.3268967172625
 20
351.5330026410991
 30
0.0
 10
360.2922871639258
 20
351.5330026306082
 30
0.0
  0
SPLINE
  5
164
330
1F
100
AcDbEntity
  8
1
100
AcDbSpline
210
0.0
220
0.0
230
1.0
 70
     8
 71
     3
 72
    59
 73
    55
 74
     0
 42
0.000000001
 43
0.0000000001
 40
0.0
 40
0.0
 40
0.0
 40
0.0
 40
0.0343288278450581
 40
0.0343288278450581
 40
0.0635199441771387
 40
0.0635199441771387
 40
0.0927110605092193
 40
0.0927110605092193
 40
0.1510932931733772
 40
0.1510932931733772
 40
0.209475525837535
 40
0.209475525837535
 40
0.238666642169612
 40
0.238666642169612
 40
0.2678577585016889
 40
0.2678577585016889
 40
0.3262399911658466
 40
0.3262399911658466
 40
0.3846222238300043
 40
0.3846222238300043
 40
0.4138133401620854
 40
0.4138133401620854
 40
0.4430044564941665
 40
0.4430044564941665
 40
0.5013866891583247
 40
0.5013866891583247
 40
0.5597689218224825
 40
0.5597689218224825
 40
0.588960038154564
 40
0.588960038154564
 40
0.6181511544866454
 40
0.6181511544866454
 40
0.6765333871508125
 40
0.6765333871508125
 40
0.7349156198149794
 40
0.7349156198149794
 40
0.7495111779810216
 40
0.7495111779810216
 40
0.7641067361470634
 40
0.7641067361470634
 40
0.7932978524791479
 40
0.7932978524791479
 40
0.8516800851433135
 40
0.8516800851433135
 40
0.8808712014753979
 40
0.8808712014753979
 40
0.9100623178074819
 40
0.9100623178074819
 40
0.9684445504716503
 40
0.9684445504716503
 40
0.9830401086376916
 40
0.9830401086376916
 40
0.9976356668037327
 40
1.0
 40
1.0
 40
1.0
 40
1.0
 10
363.9039919273166
 20
370.8914936949835
 30
0.0
 10
363.88249225147
 20
370.9255207808866
 30
0.0
 10
363.8605638751731
 20
370.959773053703
 30
0.0
 10
363.818847522996
 20
371.0232994715533
 30
0.0
 10
363.7992333632254
 20
371.0525539069901
 30
0.0
 10
363.7589173596571
 20
371.1110316397523
 30
0.0
 10
363.7381520870763
 20
371.1403383775628
 30
0.0
 10
363.674678601631
 20
371.2270236269836
 30
0.0
 10
363.6306570389276
 20
371.2833627358731
 30
0.0
 10
363.5384462861934
 20
371.3924709385274
 30
0.0
 10
363.4902626791921
 20
371.4452449168476
 30
0.0
 10
363.414472512812
 20
371.5213853144887
 30
0.0
 10
363.3886245678511
 20
371.546263124181
 30
0.0
 10
363.3357027993665
 20
371.59496427784
 30
0.0
 10
363.3088368550697
 20
371.6185940505572
 30
0.0
 10
363.2272827771848
 20
371.6871334878203
 30
0.0
 10
363.1715247655927
 20
371.7298004900027
 30
0.0
 10
363.0572630213953
 20
371.8093107489851
 30
0.0
 10
362.9987606330881
 20
371.84615523134
 30
0.0
 10
362.9089854128129
 20
371.8971407398894
 30
0.0
 10
362.8786472177127
 20
371.9134571327824
 30
0.0
 10
362.8179184505439
 20
371.9443593697566
 30
0.0
 10
362.7874794198689
 20
371.9589774189699
 30
0.0
 10
362.6959646804164
 20
372.0004337206171
 30
0.0
 10
362.634690117686
 20
372.0248820358133
 30
0.0
 10
362.5117799358991
 20
372.067738846985
 30
0.0
 10
362.4501437378867
 20
372.0861475432638
 30
0.0
 10
362.357578779177
 20
372.1092919374963
 30
0.0
 10
362.3266770688455
 20
372.1162610737447
 30
0.0
 10
362.2655594050507
 20
372.1285694946797
 30
0.0
 10
362.2352586717855
 20
372.1339319169822
 30
0.0
 10
362.1451840535716
 20
372.1477047001336
 30
0.0
 10
362.0862308048269
 20
372.1538108449376
 30
0.0
 10
361.9709464995423
 20
372.1599509111402
 30
0.0
 10
361.9146108828334
 20
372.1599877239747
 30
0.0
 10
361.846266671696
 20
372.15606308195
 30
0.0
 10
361.8327024953172
 20
372.1550785745445
 30
0.0
 10
361.8057986497893
 20
372.1527013224761
 30
0.0
 10
361.7924387577929
 20
372.1513060470018
 30
0.0
 10
361.7528675030158
 20
372.146509005776
 30
0.0
 10
361.7272653843639
 20
372.142512107858
 30
0.0
 10
361.6529779719082
 20
372.1281291304696
 30
0.0
 10
361.6067859396633
 20
372.1153659569905
 30
0.0
 10
361.5436050586788
 20
372.0912311368323
 30
0.0
 10
361.5235584865007
 20
372.0823459716524
 30
0.0
 10
361.4858298678217
 20
372.0628352925137
 30
0.0
 10
361.468406201363
 20
372.0523432568397
 30
0.0
 10
361.4206901054205
 20
372.0187192433081
 30
0.0
 10
361.3949210580342
 20
371.9934499398799
 30
0.0
 10
361.3714431497241
 20
371.9583448672008
 30
0.0
 10
361.3671758968028
 20
371.9511232040336
 30
0.0
 10
361.3596342258519
 20
371.9364793313425
 30
0.0
 10
361.3558215831137
 20
371.9278501182478
 30
0.0
 10
361.3526626042524
 20
371.9190902380325
 30
0.0
 10
361.3522349091407
 20
371.9178665341169
 30
0.0
  0
SPLINE
  5
165
330
1F
100
AcDbEntity
  8
1
100
AcDbSpline
210
0.0
220
0.0
230
1.0
 70
     8
 71
     2
 72
    10
 73
     7
 74
     0
 42
0.000000001
 43
0.0000000001
 40
0.0
 40
0.0
 40
0.0
 40
0.1477826486524861
 40
0.3923747703845376
 40
0.6369668921165893
 40
0.8815590138486408
 40
1.0
 40
1.0
 40
1.0
 10
360.5890453422002
 20
379.6698286184704
 30
0.0
 10
360.748681695496
 20
378.8160450500251
 30
0.0
 10
361.4150849825658
 20
376.6007332343423
 30
0.0
 10
362.7192776142123
 20
374.0347265139277
 30
0.0
 10
364.4547821076337
 20
371.7472452114433
 30
0.0
 10
366.0210000436176
 20
370.3113957385939
 30
0.0
 10
366.5680442303968
 20
369.8915078684553
 30
0.0
  0
SPLINE
  5
166
330
1F
100
AcDbEntity
  8
1
100
AcDbSpline
210
0.0
220
0.0
230
1.0
 70
     8
 71
     3
 72
    80
 73
    76
 74
     0
 42
0.000000001
 43
0.0000000001
 40
0.0
 40
0.0
 40
0.0
 40
0.0
 40
0.0625000000000065
 40
0.0625000000000065
 40
0.125000000000013
 40
0.125000000000013
 40
0.1562500000000168
 40
0.1562500000000168
 40
0.1875000000000206
 40
0.1875000000000206
 40
0.195312500000021
 40
0.195312500000021
 40
0.2031250000000215
 40
0.2031250000000215
 40
0.2187500000000218
 40
0.2187500000000218
 40
0.2500000000000221
 40
0.2500000000000221
 40
0.2812500000000225
 40
0.2812500000000225
 40
0.312500000000023
 40
0.312500000000023
 40
0.3203125000000229
 40
0.3203125000000229
 40
0.3281250000000227
 40
0.3437500000000215
 40
0.3437500000000215
 40
0.3750000000000201
 40
0.3750000000000201
 40
0.4062500000000186
 40
0.4062500000000186
 40
0.4140625000000182
 40
0.4140625000000182
 40
0.4218750000000177
 40
0.4375000000000174
 40
0.4375000000000174
 40
0.4687500000000166
 40
0.4687500000000166
 40
0.4843750000000164
 40
0.4843750000000164
 40
0.5000000000000162
 40
0.5000000000000162
 40
0.5312500000000158
 40
0.5312500000000158
 40
0.546875000000016
 40
0.5546875000000159
 40
0.5546875000000159
 40
0.5625000000000158
 40
0.5625000000000158
 40
0.5937500000000166
 40
0.5937500000000166
 40
0.6250000000000173
 40
0.6250000000000173
 40
0.640625000000018
 40
0.6484375000000179
 40
0.6484375000000179
 40
0.6562500000000178
 40
0.6562500000000178
 40
0.6875000000000161
 40
0.6875000000000161
 40
0.7187500000000146
 40
0.7187500000000146
 40
0.7500000000000129
 40
0.7500000000000129
 40
0.7812500000000112
 40
0.7812500000000112
 40
0.7968750000000105
 40
0.7968750000000105
 40
0.8125000000000095
 40
0.8125000000000095
 40
0.8750000000000063
 40
0.8750000000000063
 40
0.9375000000000031
 40
0.9375000000000031
 40
1.0
 40
1.0
 40
1.0
 40
1.0
 10
359.1429446548378
 20
372.746064563246
 30
0.0
 10
358.8371923832593
 20
372.8603023124842
 30
0.0
 10
358.5398162708282
 20
372.9853912555263
 30
0.0
 10
357.9628666695558
 20
373.2574925827949
 30
0.0
 10
357.6832802850138
 20
373.4044940635505
 30
0.0
 10
357.2787218008663
 20
373.642238751436
 30
0.0
 10
357.1463474206147
 20
373.7243683085613
 30
0.0
 10
356.8869341577701
 20
373.8946442500155
 30
0.0
 10
356.7598939199599
 20
373.9827894505733
 30
0.0
 10
356.6047424226143
 20
374.0969596445947
 30
0.0
 10
356.5738949336343
 20
374.1199934481179
 30
0.0
 10
356.5125750702862
 20
374.1664677482547
 30
0.0
 10
356.4820731351435
 20
374.1899315189482
 30
0.0
 10
356.391395834132
 20
374.2607478619741
 30
0.0
 10
356.332071822629
 20
374.3085038059994
 30
0.0
 10
356.1575598898633
 20
374.4533987867563
 30
0.0
 10
356.0458263038563
 20
374.5521628327434
 30
0.0
 10
355.8321131498076
 20
374.7540308553952
 30
0.0
 10
355.7301316849401
 20
374.8571342922937
 30
0.0
 10
355.5366653974673
 20
375.0677602769989
 30
0.0
 10
355.4451775912011
 20
375.1752819388341
 30
0.0
 10
355.338015983498
 20
375.31255512176
 30
0.0
 10
355.3169193243151
 20
375.3401876905288
 30
0.0
 10
355.2756167248556
 20
375.3955417552692
 30
0.0
 10
355.2149956428875
 20
375.4787013977491
 30
0.0
 10
355.1584219728843
 20
375.5622381059345
 30
0.0
 10
355.0508715194359
 20
375.7298078407897
 30
0.0
 10
354.9866093042353
 20
375.8421781554976
 30
0.0
 10
354.8745426916623
 20
376.0682996962083
 30
0.0
 10
354.8267266270787
 20
376.182049294104
 30
0.0
 10
354.7787945448902
 20
376.3252434771628
 30
0.0
 10
354.7697914228427
 20
376.3539772833218
 30
0.0
 10
354.7531289890742
 20
376.4111789694786
 30
0.0
 10
354.7301144657077
 20
376.4966766848621
 30
0.0
 10
354.7131043583078
 20
376.5812572257057
 30
0.0
 10
354.6873250713763
 20
376.749188496049
 30
0.0
 10
354.6811058438314
 20
376.8595029410295
 30
0.0
 10
354.6895371444363
 20
377.0224883125796
 30
0.0
 10
354.6953127574048
 20
377.0764023908717
 30
0.0
 10
354.7130772554213
 20
377.1833972069492
 30
0.0
 10
354.7249640015879
 20
377.2358364248205
 30
0.0
 10
354.7693461667971
 20
377.3898500154562
 30
0.0
 10
354.8105759237084
 20
377.488246633365
 30
0.0
 10
354.8890914660138
 20
377.6299486044302
 30
0.0
 10
354.9325203017931
 20
377.6993249628795
 30
0.0
 10
354.9820808394836
 20
377.7665773438441
 30
0.0
 10
355.0164710656285
 20
377.8109494501332
 30
0.0
 10
355.0343752593914
 20
377.8329421700029
 30
0.0
 10
355.1266159891478
 20
377.9410612741711
 30
0.0
 10
355.2092882448323
 20
378.0220131590204
 30
0.0
 10
355.3897217872403
 20
378.174763068906
 30
0.0
 10
355.4874914926151
 20
378.2465548456233
 30
0.0
 10
355.6439327829239
 20
378.348467649443
 30
0.0
 10
355.7246060950131
 20
378.3979757647899
 30
0.0
 10
355.8087156329482
 20
378.4454821245653
 30
0.0
 10
355.8655279494757
 20
378.4767251222177
 30
0.0
 10
355.8943158276815
 20
378.492138175745
 30
0.0
 10
356.0393925449372
 20
378.5678448446907
 30
0.0
 10
356.1595718802594
 20
378.6243644704495
 30
0.0
 10
356.4067071082152
 20
378.7308921253618
 30
0.0
 10
356.5336682934204
 20
378.7808940748323
 30
0.0
 10
356.7932942075265
 20
378.8755298904905
 30
0.0
 10
356.9259620762553
 20
378.9201601605355
 30
0.0
 10
357.1961759875762
 20
379.0049190083246
 30
0.0
 10
357.3337240042777
 20
379.045045334421
 30
0.0
 10
357.5432162783204
 20
379.1023634710759
 30
0.0
 10
357.6135766015398
 20
379.1209896430423
 30
0.0
 10
357.7552870202459
 20
379.1573531674127
 30
0.0
 10
357.8266729333306
 20
379.1750990581219
 30
0.0
 10
358.1855046706426
 20
379.2616650312111
 30
0.0
 10
358.47763332202
 20
379.3238421443625
 30
0.0
 10
359.0695471864523
 20
379.4378445273388
 30
0.0
 10
359.3693480480895
 20
379.4896436845579
 30
0.0
 10
359.9749956550369
 20
379.5852985498641
 30
0.0
 10
360.2808503069324
 20
379.629141238245
 30
0.0
 10
360.589158344821
 20
379.6698429597768
 30
0.0
  0
SPLINE
  5
167
330
1F
100
AcDbEntity
  8
1
100
AcDbSpline
210
0.0
220
0.0
230
1.0
 70
     8
 71
     3
 72
    93
 73
    89
 74
     0
 42
0.000000001
 43
0.0000000001
 40
0.0
 40
0.0
 40
0.0
 40
0.0
 40
0.0312500000000029
 40
0.0312500000000029
 40
0.0625000000000058
 40
0.0625000000000058
 40
0.0781250000000063
 40
0.0781250000000063
 40
0.0937500000000068
 40
0.0937500000000068
 40
0.1250000000000059
 40
0.156250000000005
 40
0.156250000000005
 40
0.1718750000000036
 40
0.1718750000000036
 40
0.1796875000000029
 40
0.1796875000000029
 40
0.1875000000000022
 40
0.1875000000000022
 40
0.2187499999999957
 40
0.2187499999999957
 40
0.2499999999999891
 40
0.2499999999999891
 40
0.2656249999999858
 40
0.2656249999999858
 40
0.2734374999999849
 40
0.2734374999999849
 40
0.281249999999984
 40
0.281249999999984
 40
0.3124999999999793
 40
0.3124999999999793
 40
0.3437499999999747
 40
0.3437499999999747
 40
0.3593749999999722
 40
0.3593749999999722
 40
0.3671874999999717
 40
0.3671874999999717
 40
0.3749999999999713
 40
0.3749999999999713
 40
0.4062499999999717
 40
0.4062499999999717
 40
0.4374999999999722
 40
0.4374999999999722
 40
0.4453124999999726
 40
0.4453124999999726
 40
0.4531249999999729
 40
0.4531249999999729
 40
0.4687499999999739
 40
0.4687499999999739
 40
0.4999999999999757
 40
0.4999999999999757
 40
0.5312499999999777
 40
0.5312499999999777
 40
0.5468749999999785
 40
0.5468749999999785
 40
0.5624999999999793
 40
0.5624999999999793
 40
0.5937499999999806
 40
0.5937499999999806
 40
0.6249999999999819
 40
0.6249999999999819
 40
0.6406249999999825
 40
0.6406249999999825
 40
0.656249999999983
 40
0.656249999999983
 40
0.6874999999999845
 40
0.6874999999999845
 40
0.7187499999999859
 40
0.7499999999999874
 40
0.7499999999999874
 40
0.7656249999999881
 40
0.7656249999999881
 40
0.7812499999999888
 40
0.7812499999999888
 40
0.8124999999999895
 40
0.84374999999999
 40
0.84374999999999
 40
0.8749999999999907
 40
0.8749999999999907
 40
0.8906249999999914
 40
0.8906249999999914
 40
0.9062499999999925
 40
0.9062499999999925
 40
0.9374999999999948
 40
0.9374999999999948
 40
0.9687499999999975
 40
0.9687499999999975
 40
1.0
 40
1.0
 40
1.0
 40
1.0
 10
375.0771917131318
 20
360.5239223794619
 30
0.0
 10
374.9835877287093
 20
360.5857859014315
 30
0.0
 10
374.8873921375503
 20
360.6426027239347
 30
0.0
 10
374.6898604258635
 20
360.7461426678579
 30
0.0
 10
374.5885247136659
 20
360.7928667412281
 30
0.0
 10
374.4325716597515
 20
360.8551441011069
 30
0.0
 10
374.3799277160052
 20
360.8745992028041
 30
0.0
 10
374.2732870771067
 20
360.9108273027426
 30
0.0
 10
374.2192358763074
 20
360.9276156975603
 30
0.0
 10
374.0553240554598
 20
360.9737109824509
 30
0.0
 10
373.8355516438158
 20
361.022863518817
 30
0.0
 10
373.6133631348864
 20
361.0478687743518
 30
0.0
 10
373.4457975638739
 20
361.0574128567862
 30
0.0
 10
373.3897880293309
 20
361.0590557938369
 30
0.0
 10
373.3055369244806
 20
361.0591599469725
 30
0.0
 10
373.2774137334954
 20
361.0588010448854
 30
0.0
 10
373.2210872082917
 20
361.0572841167187
 30
0.0
 10
373.1928436020897
 20
361.0561237175064
 30
0.0
 10
373.0519022020405
 20
361.0483166305995
 30
0.0
 10
372.9408952045256
 20
361.0357429987739
 30
0.0
 10
372.7222847721879
 20
360.9983487997613
 30
0.0
 10
372.6146815660808
 20
360.9735271711605
 30
0.0
 10
372.4558756479471
 20
360.9270596080527
 30
0.0
 10
372.4033746299239
 20
360.9100276638995
 30
0.0
 10
372.3252910688889
 20
360.8821260917134
 30
0.0
 10
372.2993746209774
 20
360.8724330513271
 30
0.0
 10
372.2477682773136
 20
360.8522523344819
 30
0.0
 10
372.2220773746534
 20
360.8417621263702
 30
0.0
 10
372.0951072579282
 20
360.7877023530088
 30
0.0
 10
371.9975228839958
 20
360.7390401562365
 30
0.0
 10
371.8101047666109
 20
360.6314042034297
 30
0.0
 10
371.7202721665884
 20
360.5724284794285
 30
0.0
 10
371.5913876681832
 20
360.4763339163003
 30
0.0
 10
371.5494057834821
 20
360.4430278276078
 30
0.0
 10
371.4879288361962
 20
360.3911455256693
 30
0.0
 10
371.4676629705359
 20
360.3735085966359
 30
0.0
 10
371.427891180979
 20
360.3378239977459
 30
0.0
 10
371.4083566087227
 20
360.3197534268168
 30
0.0
 10
371.3124121718256
 20
360.2282870223957
 30
0.0
 10
371.2411726738571
 20
360.1515607926887
 30
0.0
 10
371.1092584816388
 20
359.9915375792827
 30
0.0
 10
371.0485859682693
 20
359.908238741936
 30
0.0
 10
370.979270006152
 20
359.8001994645562
 30
0.0
 10
370.9657337971682
 20
359.7783953364935
 30
0.0
 10
370.939316269407
 20
359.7343974792253
 30
0.0
 10
370.9264203854971
 20
359.7121762051964
 30
0.0
 10
370.8889195098723
 20
359.6452997751667
 30
0.0
 10
370.865443557842
 20
359.6003449647025
 30
0.0
 10
370.7994046754367
 20
359.4644542558699
 30
0.0
 10
370.7612201671989
 20
359.3724956989831
 30
0.0
 10
370.6958446840521
 20
359.1862004727782
 30
0.0
 10
370.6686561407363
 20
359.0918628191517
 30
0.0
 10
370.6358396550091
 20
358.9487557042154
 30
0.0
 10
370.6262206838045
 20
358.900698766744
 30
0.0
 10
370.6097505588163
 20
358.8049427466007
 30
0.0
 10
370.6028742179664
 20
358.7571556281759
 30
0.0
 10
370.5861429488691
 20
358.6140802468423
 30
0.0
 10
370.5801766392929
 20
358.519078539549
 30
0.0
 10
370.5779219181368
 20
358.3298933620921
 30
0.0
 10
370.5816354804682
 20
358.2357097448551
 30
0.0
 10
370.5941476151752
 20
358.0950758356237
 30
0.0
 10
370.5994850823864
 20
358.048249526369
 30
0.0
 10
370.6124114834018
 20
357.9550600641905
 30
0.0
 10
370.6199769483052
 20
357.9088430801169
 30
0.0
 10
370.645844489584
 20
357.7712855031314
 30
0.0
 10
370.6673101609226
 20
357.6810367724086
 30
0.0
 10
370.7181637086478
 20
357.503281220719
 30
0.0
 10
370.7769419491216
 20
357.3282682725187
 30
0.0
 10
370.8509893900937
 20
357.1584886200998
 30
0.0
 10
370.9121884301926
 20
357.0330498823803
 30
0.0
 10
370.9335482900204
 20
356.9915338488915
 30
0.0
 10
370.9778544564951
 20
356.9096739315772
 30
0.0
 10
371.0008334528006
 20
356.869259624042
 30
0.0
 10
371.0722035687425
 20
356.7495150120314
 30
0.0
 10
371.17384027819
 20
356.5938455305488
 30
0.0
 10
371.2882517570812
 20
356.4457757444125
 30
0.0
 10
371.4091621840042
 20
356.301400155823
 30
0.0
 10
371.4728654507794
 20
356.2310591901761
 30
0.0
 10
371.5735459378718
 20
356.1283037396005
 30
0.0
 10
371.6079622446143
 20
356.094511951564
 30
0.0
 10
371.6785753302816
 20
356.0278553016855
 30
0.0
 10
371.7148083486188
 20
355.9949634901544
 30
0.0
 10
371.8254660875473
 20
355.8984086934779
 30
0.0
 10
371.9020794676786
 20
355.8366260345746
 30
0.0
 10
372.0613353964643
 20
355.718260795586
 30
0.0
 10
372.143975195227
 20
355.661676650062
 30
0.0
 10
372.315902877722
 20
355.5539263135187
 30
0.0
 10
372.4051852747494
 20
355.5027566750693
 30
0.0
 10
372.4982976477808
 20
355.4545371787603
 30
0.0
  0
SPLINE
  5
168
330
1F
100
AcDbEntity
  8
1
100
AcDbSpline
210
0.0
220
0.0
230
1.0
 70
     8
 71
     3
 72
    10
 73
     6
 74
     0
 42
0.000000001
 43
0.0000000001
 40
0.0
 40
0.0
 40
0.0
 40
0.0
 40
0.5
 40
0.5
 40
1.0
 40
1.0
 40
1.0
 40
1.0
 10
386.639772828912
 20
356.3986263455486
 30
0.0
 10
386.6500350431302
 20
356.4107234801189
 30
0.0
 10
386.6589540267566
 20
356.4236230949422
 30
0.0
 10
386.6738288545063
 20
356.4511875585799
 30
0.0
 10
386.679805882103
 20
356.4659797612171
 30
0.0
 10
386.6837637982123
 20
356.4813149172431
 30
0.0
  0
SPLINE
  5
169
330
1F
100
AcDbEntity
  8
1
100
AcDbSpline
210
0.0
220
0.0
230
1.0
 70
     8
 71
     3
 72
     8
 73
     4
 74
     0
 42
0.000000001
 43
0.0000000001
 40
0.0
 40
0.0
 40
0.0
 40
0.0
 40
1.0
 40
1.0
 40
1.0
 40
1.0
 10
386.6397728289193
 20
356.3986263455512
 30
0.0
 10
386.6378983937675
 20
356.3964167547364
 30
0.0
 10
386.6360243352598
 20
356.3942073353118
 30
0.0
 10
386.6341506536866
 20
356.3919980871864
 30
0.0
  0
SPLINE
  5
16A
330
1F
100
AcDbEntity
  8
1
100
AcDbSpline
210
0.0
220
0.0
230
1.0
 70
     8
 71
     3
 72
    31
 73
    27
 74
     0
 42
0.000000001
 43
0.0000000001
 40
0.0
 40
0.0
 40
0.0
 40
0.0
 40
0.1249999999999993
 40
0.1249999999999993
 40
0.2499999999999986
 40
0.2499999999999986
 40
0.3124999999999976
 40
0.3124999999999976
 40
0.3437499999999969
 40
0.3593749999999973
 40
0.3593749999999973
 40
0.3749999999999976
 40
0.3749999999999976
 40
0.4999999999999964
 40
0.4999999999999964
 40
0.6249999999999954
 40
0.6249999999999954
 40
0.6874999999999947
 40
0.6874999999999947
 40
0.7187499999999945
 40
0.7343749999999949
 40
0.7343749999999949
 40
0.7499999999999956
 40
0.7499999999999956
 40
0.8749999999999976
 40
1.0
 40
1.0
 40
1.0
 40
1.0
 10
386.6341506536866
 20
356.3919980871864
 30
0.0
 10
386.2747386873054
 20
355.9682156041222
 30
0.0
 10
385.8949793543361
 20
355.5690077747789
 30
0.0
 10
385.0961851479289
 20
354.8180274179334
 30
0.0
 10
384.6771461518899
 20
354.4662598694583
 30
0.0
 10
384.0190410340243
 20
353.9742937069013
 30
0.0
 10
383.7947367426877
 20
353.816266379486
 30
0.0
 10
383.4507589046084
 20
353.5883094206738
 30
0.0
 10
383.2768884875235
 20
353.4766033355804
 30
0.0
 10
383.1001629605834
 20
353.368345532768
 30
0.0
 10
382.9817070326745
 20
353.2969453129997
 30
0.0
 10
382.9221511689784
 20
353.2616271725137
 30
0.0
 10
382.3849974346562
 20
352.948259232032
 30
0.0
 10
381.8963461848361
 20
352.6997252549209
 30
0.0
 10
380.8974527507223
 20
352.2606166760738
 30
0.0
 10
380.387208353315
 20
352.0700480151613
 30
0.0
 10
379.6055931417618
 20
351.8278133438859
 30
0.0
 10
379.3423403230297
 20
351.7543551183318
 30
0.0
 10
378.943324055886
 20
351.6552733871745
 30
0.0
 10
378.742781030591
 20
351.608510619839
 30
0.0
 10
378.5406674381928
 20
351.5659639362764
 30
0.0
 10
378.4055735676813
 20
351.5385429936186
 30
0.0
 10
378.3378655330943
 20
351.5253080472323
 30
0.0
 10
377.7285715885544
 20
351.4107654120312
 30
0.0
 10
376.6407091969311
 20
351.2707537589968
 30
0.0
 10
375.5436636115587
 20
351.255760932858
 30
0.0
 10
374.9927961831855
 20
351.2801840775172
 30
0.0
  0
SPLINE
  5
16B
330
1F
100
AcDbEntity
  8
1
100
AcDbSpline
210
0.0
220
0.0
230
1.0
 70
    12
 71
     2
 72
     6
 73
     3
 74
     0
 42
0.000000001
 43
0.0000000001
 40
0.0
 40
0.0
 40
0.0
 40
1.0
 40
1.0
 40
1.0
 10
374.9927961831855
 20
351.2801840775172
 30
0.0
 41
0.5000000130452916
 10
374.9883541891509
 20
351.2803810168484
 30
0.0
 41
0.4999999869547085
 10
374.9839121762254
 20
351.2805808505204
 30
0.0
 41
0.5000000130452916
  0
SPLINE
  5
16C
330
1F
100
AcDbEntity
  8
1
100
AcDbSpline
210
0.0
220
0.0
230
1.0
 70
     8
 71
     3
 72
    12
 73
     8
 74
     0
 42
0.000000001
 43
0.0000000001
 40
0.0
 40
0.0
 40
0.0
 40
0.0
 40
0.4154649599041543
 40
0.4154649599041543
 40
0.8309299198083087
 40
0.8309299198083087
 40
1.0
 40
1.0
 40
1.0
 40
1.0
 10
366.9519855602695
 20
370.8084023252183
 30
0.0
 10
366.9953608516885
 20
370.7850699867413
 30
0.0
 10
367.0344623377982
 20
370.7663570923762
 30
0.0
 10
367.1060723352235
 20
370.7358907493347
 30
0.0
 10
367.1385656508419
 20
370.7241549786598
 30
0.0
 10
367.1804964959523
 20
370.7115437847325
 30
0.0
 10
367.192177795819
 20
370.7083565851413
 30
0.0
 10
367.2034409965925
 20
370.7055963817227
 30
0.0
  0
SPLINE
  5
16D
330
1F
100
AcDbEntity
  8
1
100
AcDbSpline
210
0.0
220
0.0
230
1.0
 70
     8
 71
     3
 72
    36
 73
    32
 74
     0
 42
0.000000001
 43
0.0000000001
 40
0.0
 40
0.0
 40
0.0
 40
0.0
 40
0.0156250000000005
 40
0.0156250000000005
 40
0.031250000000001
 40
0.031250000000001
 40
0.0624999999999997
 40
0.0624999999999997
 40
0.124999999999997
 40
0.124999999999997
 40
0.1562499999999955
 40
0.1562499999999955
 40
0.187499999999994
 40
0.187499999999994
 40
0.2499999999999929
 40
0.2499999999999929
 40
0.2812499999999925
 40
0.2812499999999925
 40
0.312499999999992
 40
0.312499999999992
 40
0.3749999999999934
 40
0.3749999999999934
 40
0.4999999999999948
 40
0.4999999999999948
 40
0.624999999999996
 40
0.624999999999996
 40
0.7499999999999974
 40
0.7499999999999974
 40
0.8749999999999985
 40
0.8749999999999985
 40
1.0
 40
1.0
 40
1.0
 40
1.0
 10
363.1858333832062
 20
375.5799031665205
 30
0.0
 10
363.1875002955474
 20
375.5686270189654
 30
0.0
 10
363.1892212643543
 20
375.5573212908312
 30
0.0
 10
363.1927729865528
 20
375.5346497586482
 30
0.0
 10
363.194604313925
 20
375.5232827139707
 30
0.0
 10
363.2001998511192
 20
375.4894727257951
 30
0.0
 10
363.2040854093241
 20
375.4671916359793
 30
0.0
 10
363.2161749651166
 20
375.4010704920399
 30
0.0
 10
363.2248111220621
 20
375.3579513592945
 30
0.0
 10
363.2385126403379
 20
375.2945192655742
 30
0.0
 10
363.2431748786804
 20
375.2737237849552
 30
0.0
 10
363.2525887869672
 20
375.2330852884253
 30
0.0
 10
363.2573531898525
 20
375.2131833356827
 30
0.0
 10
363.2717969897364
 20
375.1545713403178
 30
0.0
 10
363.2816260548123
 20
375.1169484549868
 30
0.0
 10
363.2966040863943
 20
375.062217005802
 30
0.0
 10
363.3016360936209
 20
375.0442588744537
 30
0.0
 10
363.3117704169662
 20
375.0088533206933
 30
0.0
 10
363.3168804107148
 20
374.9913813542296
 30
0.0
 10
363.3321828182446
 20
374.9400582621321
 30
0.0
 10
363.3423840089714
 20
374.9071610145807
 30
0.0
 10
363.372986623964
 20
374.8115147357307
 30
0.0
 10
363.3933871058316
 20
374.7517641123784
 30
0.0
 10
363.4341864372889
 20
374.6374562480136
 30
0.0
 10
363.4545852761164
 20
374.5829332494762
 30
0.0
 10
363.4953817913867
 20
374.4775855861024
 30
0.0
 10
363.515779463654
 20
374.4267742065949
 30
0.0
 10
363.5565739393273
 20
374.3279158844139
 30
0.0
 10
363.5768890825831
 20
374.2800718834965
 30
0.0
 10
363.6173447823285
 20
374.1868910395582
 30
0.0
 10
363.6374949970498
 20
374.1415348908999
 30
0.0
 10
363.657584679437
 20
374.0971411084266
 30
0.0
  0
SPLINE
  5
16E
330
1F
100
AcDbEntity
  8
1
100
AcDbSpline
210
0.0
220
0.0
230
1.0
 70
     8
 71
     3
 72
    12
 73
     8
 74
     0
 42
0.000000001
 43
0.0000000001
 40
0.0
 40
0.0
 40
0.0
 40
0.0
 40
0.2500000000000009
 40
0.2500000000000009
 40
0.5000000000000014
 40
0.5000000000000014
 40
1.0
 40
1.0
 40
1.0
 40
1.0
 10
363.6575846794371
 20
374.0971411084265
 30
0.0
 10
363.7003619586147
 20
374.0026127236563
 30
0.0
 10
363.746332654778
 20
373.9097367865836
 30
0.0
 10
363.8443229531388
 20
373.7267909585764
 30
0.0
 10
363.8963449691623
 20
373.636724899048
 30
0.0
 10
364.0612215258792
 20
373.3703537622934
 30
0.0
 10
364.1828525840679
 20
373.1978298080579
 30
0.0
 10
364.3160522144497
 20
373.0301367435074
 30
0.0
  0
SPLINE
  5
16F
330
1F
100
AcDbEntity
  8
1
100
AcDbSpline
210
0.0
220
0.0
230
1.0
 70
     8
 71
     3
 72
    11
 73
     7
 74
     0
 42
0.000000001
 43
0.0000000001
 40
0.0
 40
0.0
 40
0.0
 40
0.0
 40
0.0592480755660261
 40
0.3837444372815575
 40
0.7093979087985424
 40
1.0
 40
1.0
 40
1.0
 40
1.0
 10
374.1152344651654
 20
360.1152325802831
 30
0.0
 10
374.127007255753
 20
360.122827722891
 30
0.0
 10
374.2035886772795
 20
360.1714368991145
 30
0.0
 10
374.3490118350251
 20
360.2542510819271
 30
0.0
 10
374.5492740079611
 20
360.3476814693065
 30
0.0
 10
374.6842768477266
 20
360.3984074131542
 30
0.0
 10
374.7486324435083
 20
360.4199601888817
 30
0.0
  0
LINE
  5
172
330
1F
100
AcDbEntity
  8
SK4
100
AcDbLine
 10
259.174849
 20
366.008075
 30
0.0
 11
325.174849
 21
366.008075
 31
0.0
  0
LINE
  5
173
330
1F
100
AcDbEntity
  8
4
100
AcDbLine
 10
320.174849
 20
366.008075
 30
0.0
 11
395.77489
 21
366.008075
 31
0.0
  0
MTEXT
  5
179
330
1F
100
AcDbEntity
  8
SK6
100
AcDbMText
 10
307.611262
 20
335.324449
 30
0.0
 40
3.5
 41
0.0
 71
     7
 72
     5
  1
\W0.7275;32L2R070B32-SZP32-C
  7
cesky
 73
     2
 44
0.8433729999999998
  0
MTEXT
  5
2EC
330
1F
100
AcDbEntity
  8
2
100
AcDbMText
 10
373.506017
 20
384.484178
 30
0.0
 40
3.5
 41
0.0
 71
     7
 72
     5
  1
\W0.8594;27,9
  7
cesky
 73
     2
 44
0.8433729999999998
  0
LINE
  5
2ED
330
1F
100
AcDbEntity
  8
2
100
AcDbLine
 10
392.174849
 20
383.508075
 30
0.0
 11
392.174849
 21
385.610012
 31
0.0
  0
LINE
  5
2EE
330
1F
100
AcDbEntity
  8
2
100
AcDbLine
 10
363.516186
 20
381.1481490000001
 30
0.0
 11
363.516186
 21
385.610012
 31
0.0
  0
LINE
  5
2EF
330
1F
100
AcDbEntity
  8
2
100
AcDbLine
 10
392.174849
 20
384.610012
 30
0.0
 11
363.516186
 21
384.610012
 31
0.0
  0
SOLID
  5
2F0
330
1F
100
AcDbEntity
  8
2
100
AcDbTrace
 10
392.174849
 20
384.610012
 30
0.0
 11
388.674851
 21
383.992867
 31
0.0
 12
388.674846
 22
385.227156
 32
0.0
 13
388.674846
 23
385.227156
 33
0.0
  0
SOLID
  5
2F1
330
1F
100
AcDbEntity
  8
2
100
AcDbTrace
 10
363.516186
 20
384.610012
 30
0.0
 11
367.016184
 21
385.227156
 31
0.0
 12
367.016188
 22
383.992867
 32
0.0
 13
367.016188
 23
383.992867
 33
0.0
  0
MTEXT
  5
2F2
330
1F
100
AcDbEntity
  8
2
100
AcDbMText
 10
355.360349
 20
391.67585
 30
0.0
 40
3.5
 41
0.0
 71
     7
 72
     5
  1
\W0.7045;70
  7
cesky
 73
     2
 44
0.8433729999999998
  0
LINE
  5
2F3
330
1F
100
AcDbEntity
  8
2
100
AcDbLine
 10
392.174849
 20
383.508075
 30
0.0
 11
392.174849
 21
392.801684
 31
0.0
  0
LINE
  5
2F4
330
1F
100
AcDbEntity
  8
2
100
AcDbLine
 10
322.174849
 20
381.508075
 30
0.0
 11
322.174849
 21
392.801684
 31
0.0
  0
LINE
  5
2F5
330
1F
100
AcDbEntity
  8
2
100
AcDbLine
 10
392.174849
 20
391.801684
 30
0.0
 11
322.174849
 21
391.801684
 31
0.0
  0
SOLID
  5
2F6
330
1F
100
AcDbEntity
  8
2
100
AcDbTrace
 10
392.174849
 20
391.801684
 30
0.0
 11
388.674851
 21
391.184539
 31
0.0
 12
388.674846
 22
392.418828
 32
0.0
 13
388.674846
 23
392.418828
 33
0.0
  0
SOLID
  5
2F7
330
1F
100
AcDbEntity
  8
2
100
AcDbTrace
 10
322.174849
 20
391.801684
 30
0.0
 11
325.674846
 21
392.418828
 31
0.0
 12
325.674851
 22
391.184539
 32
0.0
 13
325.674851
 23
391.184539
 33
0.0
  0
MTEXT
  5
2F8
330
1F
100
AcDbEntity
  8
2
100
AcDbMText
 10
406.341947
 20
363.786349
 30
0.0
 40
3.5
 41
0.0
 71
     7
 72
     5
  1
\W0.7045;32
  7
cesky
 11
0.0000000000000001
 21
1.0
 31
0.0
 73
     2
 44
0.8433729999999998
  0
MTEXT
  5
2F9
330
1F
100
AcDbEntity
  8
2
100
AcDbMText
 10
406.341947
 20
357.048849
 30
0.0
 40
3.5
 41
0.0
 71
     7
 72
     5
  1
\W3.0115;\H2.63;%%c\H3.50;
  7
cesky
 11
0.0000000000000001
 21
1.0
 31
0.0
 73
     2
 44
0.8433729999999998
  0
LINE
  5
2FA
330
1F
100
AcDbEntity
  8
2
100
AcDbLine
 10
393.674849
 20
382.008075
 30
0.0
 11
407.529363
 21
382.008075
 31
0.0
  0
LINE
  5
2FB
330
1F
100
AcDbEntity
  8
2
100
AcDbLine
 10
406.529363
 20
382.008075
 30
0.0
 11
406.529363
 21
356.891349
 31
0.0
  0
SOLID
  5
2FC
330
1F
100
AcDbEntity
  8
2
100
AcDbTrace
 10
406.529363
 20
382.008075
 30
0.0
 11
407.146508
 21
378.508077
 31
0.0
 12
405.912219
 22
378.508073
 32
0.0
 13
405.912219
 23
378.508073
 33
0.0
  0
MTEXT
  5
2FD
330
1F
100
AcDbEntity
  8
SK2
100
AcDbMText
 10
323.597849
 20
409.0093069999999
 30
0.0
 40
3.5
 41
0.0
 71
     7
 72
     5
  1
\W0.9524;131
  7
cesky
 73
     2
 44
0.8433729999999998
  0
LINE
  5
2FE
330
1F
100
AcDbEntity
  8
SK2
100
AcDbLine
 10
392.174849
 20
383.508075
 30
0.0
 11
392.174849
 21
410.1351399999999
 31
0.0
  0
LINE
  5
2FF
330
1F
100
AcDbEntity
  8
SK2
100
AcDbLine
 10
261.174849
 20
380.508075
 30
0.0
 11
261.174849
 21
410.1351399999999
 31
0.0
  0
LINE
  5
300
330
1F
100
AcDbEntity
  8
SK2
100
AcDbLine
 10
392.174849
 20
409.1351399999999
 30
0.0
 11
261.174849
 21
409.1351399999999
 31
0.0
  0
SOLID
  5
301
330
1F
100
AcDbEntity
  8
SK2
100
AcDbTrace
 10
392.174849
 20
409.1351399999999
 30
0.0
 11
388.674851
 21
408.5179959999999
 31
0.0
 12
388.674846
 22
409.752285
 32
0.0
 13
388.674846
 23
409.752285
 33
0.0
  0
SOLID
  5
302
330
1F
100
AcDbEntity
  8
SK2
100
AcDbTrace
 10
261.174849
 20
409.1351399999999
 30
0.0
 11
264.674846
 21
409.752285
 31
0.0
 12
264.674851
 22
408.5179959999999
 32
0.0
 13
264.674851
 23
408.5179959999999
 33
0.0
  0
MTEXT
  5
303
330
1F
100
AcDbEntity
  8
SK2
100
AcDbMText
 10
354.860349
 20
400.655257
 30
0.0
 40
3.5
 41
0.0
 71
     7
 72
     5
  1
\W0.9581;71
  7
cesky
 73
     2
 44
0.8433729999999998
  0
LINE
  5
304
330
1F
100
AcDbEntity
  8
SK2
100
AcDbLine
 10
392.174849
 20
383.508075
 30
0.0
 11
392.174849
 21
401.7810909999999
 31
0.0
  0
LINE
  5
305
330
1F
100
AcDbEntity
  8
SK2
100
AcDbLine
 10
321.174849
 20
366.008075
 30
0.0
 11
321.174849
 21
401.7810909999999
 31
0.0
  0
LINE
  5
306
330
1F
100
AcDbEntity
  8
SK2
100
AcDbLine
 10
392.174849
 20
400.7810909999999
 30
0.0
 11
321.174849
 21
400.7810909999999
 31
0.0
  0
SOLID
  5
307
330
1F
100
AcDbEntity
  8
SK2
100
AcDbTrace
 10
392.174849
 20
400.7810909999999
 30
0.0
 11
388.674851
 21
400.1639459999999
 31
0.0
 12
388.674846
 22
401.398235
 32
0.0
 13
388.674846
 23
401.398235
 33
0.0
  0
SOLID
  5
308
330
1F
100
AcDbEntity
  8
SK2
100
AcDbTrace
 10
321.174849
 20
400.7810909999999
 30
0.0
 11
324.674846
 21
401.398235
 31
0.0
 12
324.674851
 22
400.1639459999999
 32
0.0
 13
324.674851
 23
400.1639459999999
 33
0.0
  0
MTEXT
  5
309
330
1F
100
AcDbEntity
  8
SK2
100
AcDbMText
 10
250.248881
 20
367.534325
 30
0.0
 40
3.5
 41
0.0
 71
     7
 72
     5
  1
\W0.7045;32
  7
cesky
 11
0.0000000000000001
 21
1.0
 31
0.0
 73
     2
 44
0.8433729999999998
  0
MTEXT
  5
30A
330
1F
100
AcDbEntity
  8
SK2
100
AcDbMText
 10
250.248881
 20
360.796825
 30
0.0
 40
3.5
 41
0.0
 71
     7
 72
     5
  1
\W3.0115;\H2.63;%%c\H3.50;
  7
cesky
 11
0.0000000000000001
 21
1.0
 31
0.0
 73
     2
 44
0.8433729999999998
  0
LINE
  5
30B
330
1F
100
AcDbEntity
  8
SK2
100
AcDbLine
 10
262.674849
 20
382.008075
 30
0.0
 11
249.436298
 21
382.008075
 31
0.0
  0
LINE
  5
30C
330
1F
100
AcDbEntity
  8
SK2
100
AcDbLine
 10
262.674849
 20
350.008075
 30
0.0
 11
249.436298
 21
350.008075
 31
0.0
  0
LINE
  5
30D
330
1F
100
AcDbEntity
  8
SK2
100
AcDbLine
 10
250.436298
 20
382.008075
 30
0.0
 11
250.436298
 21
350.008075
 31
0.0
  0
SOLID
  5
30E
330
1F
100
AcDbEntity
  8
SK2
100
AcDbTrace
 10
250.436298
 20
382.008075
 30
0.0
 11
251.053443
 21
378.508077
 31
0.0
 12
249.819154
 22
378.508073
 32
0.0
 13
249.819154
 23
378.508073
 33
0.0
  0
SOLID
  5
30F
330
1F
100
AcDbEntity
  8
SK2
100
AcDbTrace
 10
250.436298
 20
350.008075
 30
0.0
 11
249.819154
 21
353.508073
 31
0.0
 12
251.053443
 22
353.508077
 32
0.0
 13
251.053443
 23
353.508077
 33
0.0
  0
ELLIPSE
  5
312
330
1F
100
AcDbEntity
  8
CUT
100
AcDbEllipse
 10
376.786708
 20
365.975662
 30
0.0
 11
-0.2287448023157276
 21
16.63348561348368
 31
0.0
210
0.0
220
0.0
230
0.9999999999999998
 40
0.9231469999999999
 41
4.770555482641789
 42
4.902430916199233
  0
ELLIPSE
  5
313
330
1F
100
AcDbEntity
  8
CUT
100
AcDbEllipse
 10
389.436953
 20
365.555448
 30
0.0
 11
-0.3045078164454011
 21
0.0347924548206323
 31
0.0
210
0.0
220
0.0
230
1.0
 40
0.090381
 41
1.562327812583116
 42
2.173193050814159
  0
ELLIPSE
  5
314
330
1F
100
AcDbEntity
  8
CUT
100
AcDbEllipse
 10
376.696081
 20
366.008125
 30
0.0
 11
0.000000000000001
 21
15.71753173807485
 31
0.0
210
0.0
220
0.0
230
1.0
 40
0.9848079999999999
 41
4.948647410035441
 42
6.327460010788527
  0
ELLIPSE
  5
315
330
1F
100
AcDbEntity
  8
CUT
100
AcDbEllipse
 10
390.45181
 20
367.625817
 30
0.0
 11
-0.9530240912874058
 21
-1.974631179528159
 31
0.0
210
0.0
220
0.0
230
1.0
 40
0.87482
 41
0.3524186280571412
 42
1.428263479852388
  0
ELLIPSE
  5
316
330
1F
100
AcDbEntity
  8
CUT
100
AcDbEllipse
 10
376.835432
 20
367.558112
 30
0.0
 11
-7.441246559234643
 21
-15.41799621184258
 31
0.0
210
0.0
220
0.0
230
1.0
 40
0.87482
 41
1.908242215064094
 42
1.940289458709476
  0
ELLIPSE
  5
317
330
1F
100
AcDbEntity
  8
CUT
100
AcDbEllipse
 10
363.585927
 20
379.549717
 30
0.0
 11
0.0000000000000001
 21
1.60000000000001
 31
0.0
210
0.0
220
0.0
230
1.0
 40
0.9848079999999999
 41
0.0442747036089415
 42
1.8003454366364
  0
ELLIPSE
  5
318
330
1F
100
AcDbEntity
  8
CUT
100
AcDbEllipse
 10
377.124292
 20
382.761998
 30
0.0
 11
0.000000000000001
 21
15.71753173807484
 31
0.0
210
0.0
220
0.0
230
1.0
 40
0.9848079999999999
 41
1.800345436636396
 42
3.028787724519246
  0
LINE
  5
319
330
1F
100
AcDbEntity
  8
CUT
100
AcDbLine
 10
375.381913
 20
367.144363
 30
0.0
 11
389.43123
 21
365.528221
 31
0.0
  0
LINE
  5
31A
330
1F
100
AcDbEntity
  8
CUT
100
AcDbLine
 10
389.606902
 20
365.513056
 30
0.0
 11
390.153619
 21
365.48477
 31
0.0
  0
LINE
  5
31B
330
1F
100
AcDbEntity
  8
CUT
100
AcDbLine
 10
376.010988
 20
381.710254
 30
0.0
 11
363.516186
 21
381.1481490000001
 31
0.0
  0
LINE
  5
31C
330
1F
100
AcDbEntity
  8
CUT
100
AcDbLine
 10
391.8222009404461
 20
369.3250918048268
 30
0.0
 11
391.8222009404461
 21
369.3250918048268
 31
0.0
  0
ARC
  5
31D
330
1F
100
AcDbEntity
  8
CUT
100
AcDbCircle
 10
383.3110732688911
 20
367.6953376412389
 30
0.0
 40
8.665759797919653
100
AcDbArc
 50
10.84007011012643
 51
13.28764324820298
  0
ARC
  5
31E
330
1F
100
AcDbEntity
  8
CUT
100
AcDbCircle
 10
391.6435106827376
 20
367.1114827764775
 30
0.0
 40
0.460330838322099
100
AcDbArc
 50
353.0521049001097
 51
358.173757953138
  0
ARC
  5
31F
330
1F
100
AcDbEntity
  8
CUT
100
AcDbCircle
 10
391.5455903345648
 20
367.1151420555971
 30
0.0
 40
0.5583183237014159
100
AcDbArc
 50
358.1186661162846
 51
3.932884986551488
  0
ENDSEC
  0
SECTION
  2
OBJECTS
  0
DICTIONARY
  5
C
330
0
100
AcDbDictionary
281
     1
  3
ACAD_CIP_PREVIOUS_PRODUCT_INFO
350
26F
  3
ACAD_COLOR
350
269
  3
ACAD_DETAILVIEWSTYLE
350
265
  3
ACAD_FIELDLIST
350
2D9
  3
ACAD_GROUP
350
D
  3
ACAD_IMAGE_DICT
350
D8
  3
ACAD_IMAGE_VARS
350
26E
  3
ACAD_LAYOUT
350
1A
  3
ACAD_MATERIAL
350
43
  3
ACAD_MLEADERSTYLE
350
6B
  3
ACAD_MLINESTYLE
350
17
  3
ACAD_PLOTSETTINGS
350
19
  3
ACAD_PLOTSTYLENAME
350
E
  3
ACAD_SCALELIST
350
47
  3
ACAD_SECTIONVIEWSTYLE
350
266
  3
ACAD_TABLESTYLE
350
69
  3
ACAD_VISUALSTYLE
350
2A
  3
ACDB_RECOMPOSE_DATA
350
34C
  3
AcDbVariableDictionary
350
222
  3
AcmDictionary
350
29B
  3
AMG
350
270
  3
AMGSNAPSETTINGS
350
2E3
  0
DICTIONARY
  5
32E
330
10
100
AcDbDictionary
280
     1
281
     1
  3
ADSK_XREC_LAYER_RECONCILED
360
32F
  0
DICTIONARY
  5
330
330
76
100
AcDbDictionary
280
     1
281
     1
  3
ADSK_XREC_LAYER_RECONCILED
360
331
  0
DICTIONARY
  5
332
330
320
100
AcDbDictionary
280
     1
281
     1
  3
ADSK_XREC_LAYER_RECONCILED
360
333
  0
DICTIONARY
  5
334
330
321
100
AcDbDictionary
280
     1
281
     1
  3
ADSK_XREC_LAYER_RECONCILED
360
335
  0
DICTIONARY
  5
336
330
322
100
AcDbDictionary
280
     1
281
     1
  3
ADSK_XREC_LAYER_RECONCILED
360
337
  0
DICTIONARY
  5
338
330
324
100
AcDbDictionary
280
     1
281
     1
  3
ADSK_XREC_LAYER_RECONCILED
360
339
  0
DICTIONARY
  5
33A
330
325
100
AcDbDictionary
280
     1
281
     1
  3
ADSK_XREC_LAYER_RECONCILED
360
33B
  0
DICTIONARY
  5
33C
330
327
100
AcDbDictionary
280
     1
281
     1
  3
ADSK_XREC_LAYER_RECONCILED
360
33D
  0
DICTIONARY
  5
33E
330
328
100
AcDbDictionary
280
     1
281
     1
  3
ADSK_XREC_LAYER_RECONCILED
360
33F
  0
DICTIONARY
  5
340
330
329
100
AcDbDictionary
280
     1
281
     1
  3
ADSK_XREC_LAYER_RECONCILED
360
341
  0
DICTIONARY
  5
342
330
32A
100
AcDbDictionary
280
     1
281
     1
  3
ADSK_XREC_LAYER_RECONCILED
360
343
  0
DICTIONARY
  5
344
330
32B
100
AcDbDictionary
280
     1
281
     1
  3
ADSK_XREC_LAYER_RECONCILED
360
345
  0
DICTIONARY
  5
346
330
32C
100
AcDbDictionary
280
     1
281
     1
  3
ADSK_XREC_LAYER_RECONCILED
360
347
  0
DICTIONARY
  5
2EA
330
1F
100
AcDbDictionary
280
     1
281
     1
  3
ACAD_SORTENTS
360
2EB
  0
XRECORD
  5
26F
102
{ACAD_REACTORS
330
C
102
}
330
C
100
AcDbXrecord
280
     1
300
AMECH_PP
300
2019
300
87089AMECH_PP_2019_0F
  0
DICTIONARY
  5
269
102
{ACAD_REACTORS
330
C
102
}
330
C
100
AcDbDictionary
281
     1
  0
DICTIONARY
  5
265
102
{ACAD_REACTORS
330
C
102
}
330
C
100
AcDbDictionary
281
     1
  3
Metric50
350
26B
  0
FIELDLIST
  5
2D9
102
{ACAD_REACTORS
330
C
102
}
330
C
100
AcDbIdSet
 90
        3
330
2D7
330
2D8
330
2DA
100
AcDbFieldList
  0
DICTIONARY
  5
D
102
{ACAD_REACTORS
330
C
102
}
330
C
100
AcDbDictionary
281
     1
  3
NULOVY_BOD
350
32D
  0
DICTIONARY
  5
D8
102
{ACAD_REACTORS
330
C
102
}
330
C
100
AcDbDictionary
281
     1
  3
32L2R070B32-SZP32-C_115009714ndi000_00-2D_DormerPramet_jpg
350
D9
  0
RASTERVARIABLES
  5
26E
102
{ACAD_REACTORS
330
C
102
}
330
C
100
AcDbRasterVariables
 90
        0
 70
     1
 71
     1
 72
     1
  0
DICTIONARY
  5
1A
102
{ACAD_REACTORS
330
C
102
}
330
C
100
AcDbDictionary
281
     1
  3
Layout1
350
1E
  3
Layout2
350
26
  3
Model
350
22
  0
DICTIONARY
  5
43
102
{ACAD_REACTORS
330
C
102
}
330
C
100
AcDbDictionary
281
     1
  3
ByBlock
350
45
  3
ByLayer
350
44
  3
Global
350
46
  0
DICTIONARY
  5
6B
102
{ACAD_REACTORS
330
C
102
}
330
C
100
AcDbDictionary
281
     1
  3
Standard
350
6C
  0
DICTIONARY
  5
17
102
{ACAD_REACTORS
330
C
102
}
330
C
100
AcDbDictionary
281
     1
  3
Standard
350
18
  0
DICTIONARY
  5
19
102
{ACAD_REACTORS
330
C
102
}
330
C
100
AcDbDictionary
281
     1
  0
ACDBDICTIONARYWDFLT
  5
E
102
{ACAD_REACTORS
330
C
102
}
330
C
100
AcDbDictionary
281
     1
  3
Normal
350
F
100
AcDbDictionaryWithDefault
340
F
  0
DICTIONARY
  5
47
102
{ACAD_REACTORS
330
C
102
}
330
C
100
AcDbDictionary
281
     1
  3
A0
350
48
  3
A1
350
49
  3
A2
350
4A
  3
A3
350
4B
  3
A4
350
4C
  3
A5
350
4D
  3
A6
350
4E
  3
A7
350
4F
  3
A8
350
50
  3
A9
350
51
  3
B0
350
52
  3
B1
350
53
  3
B2
350
54
  3
B3
350
55
  3
B4
350
56
  3
B5
350
57
  3
B6
350
58
  3
B7
350
59
  3
B8
350
5A
  3
B9
350
5B
  3
C0
350
5C
  3
C1
350
5D
  3
C2
350
5E
  3
C3
350
5F
  3
C4
350
60
  3
C5
350
61
  3
C6
350
62
  3
C7
350
63
  3
C8
350
64
  3
C9
350
65
  3
D0
350
66
  3
D1
350
67
  3
D2
350
68
  0
DICTIONARY
  5
266
102
{ACAD_REACTORS
330
C
102
}
330
C
100
AcDbDictionary
281
     1
  3
Metric50
350
26A
  0
DICTIONARY
  5
69
102
{ACAD_REACTORS
330
C
102
}
330
C
100
AcDbDictionary
281
     1
  3
Standard
350
6A
  0
DICTIONARY
  5
2A
102
{ACAD_REACTORS
330
C
102
}
330
C
100
AcDbDictionary
281
     1
  3
2dWireframe
350
2F
  3
Basic
350
32
  3
Brighten
350
36
  3
ColorChange
350
3A
  3
Conceptual
350
34
  3
Dim
350
35
  3
EdgeColorOff
350
3D
  3
Facepattern
350
39
  3
Flat
350
2B
  3
FlatWithEdges
350
2C
  3
Gouraud
350
2D
  3
GouraudWithEdges
350
2E
  3
Hidden
350
31
  3
JitterOff
350
3B
  3
Linepattern
350
38
  3
OverhangOff
350
3C
  3
Realistic
350
33
  3
Shaded
350
42
  3
Shaded with edges
350
41
  3
Shades of Gray
350
3E
  3
Sketchy
350
3F
  3
Thicken
350
37
  3
Wireframe
350
30
  3
X-Ray
350
40
  0
XRECORD
  5
34C
102
{ACAD_REACTORS
330
C
102
}
330
C
100
AcDbXrecord
280
     1
 90
        1
330
6A
  0
DICTIONARY
  5
222
102
{ACAD_REACTORS
330
C
102
}
330
C
100
AcDbDictionary
281
     1
  3
CANNOSCALE
350
223
  3
CMLEADERSTYLE
350
264
  3
CTABLESTYLE
350
263
  3
CVIEWDETAILSTYLE
350
348
  3
CVIEWSECTIONSTYLE
350
349
  3
MSLTSCALE
350
224
  3
XCLIPFRAME
350
34A
  0
DICTIONARY
  5
29B
102
{ACAD_REACTORS
330
C
102
}
330
C
100
AcDbDictionary
281
     1
  3
AcmStdDictionary
350
2A2
  0
DICTIONARY
  5
270
102
{ACAD_REACTORS
330
C
102
}
330
C
100
AcDbDictionary
281
     1
  0
DICTIONARY
  5
2E3
102
{ACAD_REACTORS
330
C
102
}
330
C
100
AcDbDictionary
281
     1
  0
XRECORD
  5
32F
102
{ACAD_REACTORS
330
32E
102
}
330
32E
100
AcDbXrecord
280
     1
290
     1
  0
XRECORD
  5
331
102
{ACAD_REACTORS
330
330
102
}
330
330
100
AcDbXrecord
280
     1
290
     1
  0
XRECORD
  5
333
102
{ACAD_REACTORS
330
332
102
}
330
332
100
AcDbXrecord
280
     1
290
     1
  0
XRECORD
  5
335
102
{ACAD_REACTORS
330
334
102
}
330
334
100
AcDbXrecord
280
     1
290
     1
  0
XRECORD
  5
337
102
{ACAD_REACTORS
330
336
102
}
330
336
100
AcDbXrecord
280
     1
290
     1
  0
XRECORD
  5
339
102
{ACAD_REACTORS
330
338
102
}
330
338
100
AcDbXrecord
280
     1
290
     1
  0
XRECORD
  5
33B
102
{ACAD_REACTORS
330
33A
102
}
330
33A
100
AcDbXrecord
280
     1
290
     1
  0
XRECORD
  5
33D
102
{ACAD_REACTORS
330
33C
102
}
330
33C
100
AcDbXrecord
280
     1
290
     1
  0
XRECORD
  5
33F
102
{ACAD_REACTORS
330
33E
102
}
330
33E
100
AcDbXrecord
280
     1
290
     1
  0
XRECORD
  5
341
102
{ACAD_REACTORS
330
340
102
}
330
340
100
AcDbXrecord
280
     1
290
     1
  0
XRECORD
  5
343
102
{ACAD_REACTORS
330
342
102
}
330
342
100
AcDbXrecord
280
     1
290
     1
  0
XRECORD
  5
345
102
{ACAD_REACTORS
330
344
102
}
330
344
100
AcDbXrecord
280
     1
290
     1
  0
XRECORD
  5
347
102
{ACAD_REACTORS
330
346
102
}
330
346
100
AcDbXrecord
280
     1
290
     1
  0
SORTENTSTABLE
  5
2EB
102
{ACAD_REACTORS
330
2EA
102
}
330
2EA
100
AcDbSortentsTable
330
1F
331
2EC
  5
197
331
2ED
  5
1C7
331
2EE
  5
1F5
331
2EF
  5
2EC
331
2F0
  5
2ED
331
2F1
  5
2EE
331
2F2
  5
2F7
331
2F3
  5
2F8
331
2F4
  5
2F9
331
2F5
  5
2FA
331
2F6
  5
2FB
331
2F7
  5
2FD
331
2F8
  5
304
331
2F9
  5
305
331
2FA
  5
306
331
2FB
  5
307
331
2FC
  5
308
331
2FD
  5
2F0
331
2FE
  5
2F1
331
2FF
  5
2F2
331
300
  5
2F3
331
301
  5
2F4
331
302
  5
2F5
331
303
  5
2FE
331
304
  5
2FF
331
305
  5
300
331
306
  5
301
331
307
  5
302
331
308
  5
303
331
319
  5
31D
331
31A
  5
31E
331
31B
  5
31F
331
31C
  5
319
331
31D
  5
31A
331
31E
  5
31B
331
31F
  5
31C
  0
ACDBDETAILVIEWSTYLE
  5
26B
102
{ACAD_XDICTIONARY
360
380
102
}
102
{ACAD_REACTORS
330
265
330
2CD
102
}
330
265
100
AcDbModelDocViewStyle
 70
     0
  3
Metric50
290
     0
100
AcDbDetailViewStyle
 70
     0
 71
     0
 90
        3
 71
     1
340
11
 62
   256
 40
5.0
340
0
 62
   256
 40
5.0
300

 40
0.0
280
     1
 71
     2
340
16
 90
       25
 62
   256
 71
     3
340
11
 62
   256
 40
5.0
 90
        0
 40
15.0
 90
        1
300
%<\AcVar ViewDetailId>% (%<\AcVar ViewScale \f "%sn">%)
 71
     4
340
16
 90
       25
 62
   256
340
16
 90
       25
 62
   256
280
     0
  0
GROUP
  5
32D
102
{ACAD_REACTORS
330
D
102
}
330
D
100
AcDbGroup
300

 70
     0
 71
     1
340
73
  0
IMAGEDEF
  5
D9
102
{ACAD_REACTORS
330
D8
330
DC
102
}
330
D8
100
AcDbRasterImageDef
 90
        0
  1
R:\Katalog\Data\ZP\32L2R070B32-SZP32-C\32L2R070B32-SZP32-C_115009714ndi000_00-2D_DormerPramet.jpg
 10
2089.0
 20
531.0
 11
0.0004786979415989
 21
0.0004786979415989
280
     1
281
     0
  0
LAYOUT
  5
1E
102
{ACAD_REACTORS
330
1A
102
}
330
1A
100
AcDbPlotSettings
  1

  2
none_device
  4

  6

 40
0.0
 41
0.0
 42
0.0
 43
0.0
 44
0.0
 45
0.0
 46
0.0
 47
0.0
 48
0.0
 49
0.0
140
0.0
141
0.0
142
1.0
143
1.0
 70
   688
 72
     0
 73
     0
 74
     5
  7

 75
    16
147
1.0
 76
     0
 77
     2
 78
   300
148
0.0
149
0.0
100
AcDbLayout
  1
Layout1
 70
     1
 71
     1
 10
-0.5
 20
-0.5
 11
5.0
 21
5.0
 12
0.0
 22
0.0
 32
0.0
 14
-0.5
 24
-0.5
 34
-0.5
 15
5.0
 25
5.0
 35
5.0
146
0.0
 13
0.0
 23
0.0
 33
0.0
 16
1.0
 26
0.0
 36
0.0
 17
0.0
 27
1.0
 37
0.0
 76
     0
330
1B
  0
LAYOUT
  5
26
102
{ACAD_REACTORS
330
1A
102
}
330
1A
100
AcDbPlotSettings
  1

  2
none_device
  4

  6

 40
0.0
 41
0.0
 42
0.0
 43
0.0
 44
0.0
 45
0.0
 46
0.0
 47
0.0
 48
0.0
 49
0.0
140
0.0
141
0.0
142
1.0
143
1.0
 70
   688
 72
     0
 73
     0
 74
     5
  7

 75
    16
147
1.0
 76
     0
 77
     2
 78
   300
148
0.0
149
0.0
100
AcDbLayout
  1
Layout2
 70
     1
 71
     2
 10
0.0
 20
0.0
 11
0.0
 21
0.0
 12
0.0
 22
0.0
 32
0.0
 14
0.0
 24
0.0
 34
0.0
 15
0.0
 25
0.0
 35
0.0
146
0.0
 13
0.0
 23
0.0
 33
0.0
 16
1.0
 26
0.0
 36
0.0
 17
0.0
 27
1.0
 37
0.0
 76
     0
330
23
  0
LAYOUT
  5
22
102
{ACAD_REACTORS
330
1A
102
}
330
1A
100
AcDbPlotSettings
  1

  2
none_device
  4
Letter_(8.50_x_11.00_Inches)
  6

 40
6.349999999999999
 41
6.349999999999999
 42
6.350005
 43
6.350005
 44
215.9
 45
279.4
 46
0.0
 47
0.0
 48
0.0
 49
0.0
140
0.0
141
0.0
142
1.0
143
1.0
 70
  1712
 72
     0
 73
     0
 74
     0
  7

 75
     0
147
1.0
 76
     0
 77
     2
 78
   300
148
0.0
149
0.0
100
AcDbLayout
  1
Model
 70
     1
 71
     0
 10
-0.5
 20
-0.5
 11
5.0
 21
5.0
 12
0.0
 22
0.0
 32
0.0
 14
-0.5
 24
-0.5
 34
-0.5
 15
5.0
 25
5.0
 35
5.0
146
0.0
 13
0.0
 23
0.0
 33
0.0
 16
1.0
 26
0.0
 36
0.0
 17
0.0
 27
1.0
 37
0.0
 76
     0
330
1F
331
29
  0
MATERIAL
  5
45
102
{ACAD_XDICTIONARY
360
258
102
}
102
{ACAD_REACTORS
330
43
102
}
330
43
100
AcDbMaterial
  1
ByBlock
  0
MATERIAL
  5
44
102
{ACAD_XDICTIONARY
360
256
102
}
102
{ACAD_REACTORS
330
43
102
}
330
43
100
AcDbMaterial
  1
ByLayer
  0
MATERIAL
  5
46
102
{ACAD_XDICTIONARY
360
25A
102
}
102
{ACAD_REACTORS
330
43
102
}
330
43
100
AcDbMaterial
  1
Global
  0
MLEADERSTYLE
  5
6C
102
{ACAD_REACTORS
330
6B
102
}
330
6B
100
AcDbMLeaderStyle
170
     2
171
     1
172
     0
 90
        2
 40
0.0
 41
0.0
173
     1
 91
-1056964608
340
14
 92
       -2
290
     1
 42
0.09
291
     1
 43
0.36
  3
Standard
 44
0.18
300

342
11
174
     1
178
     6
175
     1
176
     0
 93
-1056964608
 45
0.18
292
     0
297
     0
 46
0.18
 94
-1056964608
 47
1.0
 49
1.0
140
1.0
293
     1
141
0.0
294
     1
177
     0
142
1.0
295
     0
296
     0
143
0.125
1001
ACAD_MLEADERVER
1070
     2
  0
MLINESTYLE
  5
18
102
{ACAD_REACTORS
330
17
102
}
330
17
100
AcDbMlineStyle
  2
STANDARD
 70
     0
  3

 62
   256
 51
90.0
 52
90.0
 71
     2
 49
0.5
 62
   256
  6
BYLAYER
 49
-0.5
 62
   256
  6
BYLAYER
  0
ACDBPLACEHOLDER
  5
F
102
{ACAD_REACTORS
330
E
102
}
330
E
  0
SCALE
  5
48
102
{ACAD_REACTORS
330
47
102
}
330
47
100
AcDbScale
 70
     0
300
1:1
140
1.0
141
1.0
290
     1
  0
SCALE
  5
49
102
{ACAD_REACTORS
330
47
102
}
330
47
100
AcDbScale
 70
     0
300
1:2
140
1.0
141
2.0
290
     0
  0
SCALE
  5
4A
102
{ACAD_REACTORS
330
47
102
}
330
47
100
AcDbScale
 70
     0
300
1:4
140
1.0
141
4.0
290
     0
  0
SCALE
  5
4B
102
{ACAD_REACTORS
330
47
102
}
330
47
100
AcDbScale
 70
     0
300
1:5
140
1.0
141
5.0
290
     0
  0
SCALE
  5
4C
102
{ACAD_REACTORS
330
47
102
}
330
47
100
AcDbScale
 70
     0
300
1:8
140
1.0
141
8.0
290
     0
  0
SCALE
  5
4D
102
{ACAD_REACTORS
330
47
102
}
330
47
100
AcDbScale
 70
     0
300
1:10
140
1.0
141
10.0
290
     0
  0
SCALE
  5
4E
102
{ACAD_REACTORS
330
47
102
}
330
47
100
AcDbScale
 70
     0
300
1:16
140
1.0
141
16.0
290
     0
  0
SCALE
  5
4F
102
{ACAD_REACTORS
330
47
102
}
330
47
100
AcDbScale
 70
     0
300
1:20
140
1.0
141
20.0
290
     0
  0
SCALE
  5
50
102
{ACAD_REACTORS
330
47
102
}
330
47
100
AcDbScale
 70
     0
300
1:30
140
1.0
141
30.0
290
     0
  0
SCALE
  5
51
102
{ACAD_REACTORS
330
47
102
}
330
47
100
AcDbScale
 70
     0
300
1:40
140
1.0
141
40.0
290
     0
  0
SCALE
  5
52
102
{ACAD_REACTORS
330
47
102
}
330
47
100
AcDbScale
 70
     0
300
1:50
140
1.0
141
50.0
290
     0
  0
SCALE
  5
53
102
{ACAD_REACTORS
330
47
102
}
330
47
100
AcDbScale
 70
     0
300
1:100
140
1.0
141
100.0
290
     0
  0
SCALE
  5
54
102
{ACAD_REACTORS
330
47
102
}
330
47
100
AcDbScale
 70
     0
300
2:1
140
2.0
141
1.0
290
     0
  0
SCALE
  5
55
102
{ACAD_REACTORS
330
47
102
}
330
47
100
AcDbScale
 70
     0
300
4:1
140
4.0
141
1.0
290
     0
  0
SCALE
  5
56
102
{ACAD_REACTORS
330
47
102
}
330
47
100
AcDbScale
 70
     0
300
8:1
140
8.0
141
1.0
290
     0
  0
SCALE
  5
57
102
{ACAD_REACTORS
330
47
102
}
330
47
100
AcDbScale
 70
     0
300
10:1
140
10.0
141
1.0
290
     0
  0
SCALE
  5
58
102
{ACAD_REACTORS
330
47
102
}
330
47
100
AcDbScale
 70
     0
300
100:1
140
100.0
141
1.0
290
     0
  0
SCALE
  5
59
102
{ACAD_REACTORS
330
47
102
}
330
47
100
AcDbScale
 70
     0
300
1/128" = 1'-0"
140
0.007812
141
12.0
290
     0
  0
SCALE
  5
5A
102
{ACAD_REACTORS
330
47
102
}
330
47
100
AcDbScale
 70
     0
300
1/64" = 1'-0"
140
0.015625
141
12.0
290
     0
  0
SCALE
  5
5B
102
{ACAD_REACTORS
330
47
102
}
330
47
100
AcDbScale
 70
     0
300
1/32" = 1'-0"
140
0.03125
141
12.0
290
     0
  0
SCALE
  5
5C
102
{ACAD_REACTORS
330
47
102
}
330
47
100
AcDbScale
 70
     0
300
1/16" = 1'-0"
140
0.0625
141
12.0
290
     0
  0
SCALE
  5
5D
102
{ACAD_REACTORS
330
47
102
}
330
47
100
AcDbScale
 70
     0
300
3/32" = 1'-0"
140
0.09375
141
12.0
290
     0
  0
SCALE
  5
5E
102
{ACAD_REACTORS
330
47
102
}
330
47
100
AcDbScale
 70
     0
300
1/8" = 1'-0"
140
0.125
141
12.0
290
     0
  0
SCALE
  5
5F
102
{ACAD_REACTORS
330
47
102
}
330
47
100
AcDbScale
 70
     0
300
3/16" = 1'-0"
140
0.1875
141
12.0
290
     0
  0
SCALE
  5
60
102
{ACAD_REACTORS
330
47
102
}
330
47
100
AcDbScale
 70
     0
300
1/4" = 1'-0"
140
0.25
141
12.0
290
     0
  0
SCALE
  5
61
102
{ACAD_REACTORS
330
47
102
}
330
47
100
AcDbScale
 70
     0
300
3/8" = 1'-0"
140
0.375
141
12.0
290
     0
  0
SCALE
  5
62
102
{ACAD_REACTORS
330
47
102
}
330
47
100
AcDbScale
 70
     0
300
1/2" = 1'-0"
140
0.5
141
12.0
290
     0
  0
SCALE
  5
63
102
{ACAD_REACTORS
330
47
102
}
330
47
100
AcDbScale
 70
     0
300
3/4" = 1'-0"
140
0.75
141
12.0
290
     0
  0
SCALE
  5
64
102
{ACAD_REACTORS
330
47
102
}
330
47
100
AcDbScale
 70
     0
300
1" = 1'-0"
140
1.0
141
12.0
290
     0
  0
SCALE
  5
65
102
{ACAD_REACTORS
330
47
102
}
330
47
100
AcDbScale
 70
     0
300
1-1/2" = 1'-0"
140
1.5
141
12.0
290
     0
  0
SCALE
  5
66
102
{ACAD_REACTORS
330
47
102
}
330
47
100
AcDbScale
 70
     0
300
3" = 1'-0"
140
3.0
141
12.0
290
     0
  0
SCALE
  5
67
102
{ACAD_REACTORS
330
47
102
}
330
47
100
AcDbScale
 70
     0
300
6" = 1'-0"
140
6.0
141
12.0
290
     0
  0
SCALE
  5
68
102
{ACAD_REACTORS
330
47
102
}
330
47
100
AcDbScale
 70
     0
300
1'-0" = 1'-0"
140
12.0
141
12.0
290
     0
  0
ACDBSECTIONVIEWSTYLE
  5
26A
102
{ACAD_XDICTIONARY
360
37E
102
}
102
{ACAD_REACTORS
330
266
330
2CC
102
}
330
266
100
AcDbModelDocViewStyle
 70
     0
  3
Metric50
290
     0
100
AcDbSectionViewStyle
 70
     0
 71
     0
 90
      102
 71
     1
340
11
 62
   256
 40
5.0
340
0
340
0
 62
   256
 40
5.0
300
I, O, Q, S, X, Z
 40
10.0
 90
        0
 40
2.5
 90
        0
 71
     2
340
16
 90
       25
 62
   256
340
16
 90
       50
 62
   256
 40
5.0
 40
2.5
 40
5.0
 71
     3
340
11
 62
   256
 40
5.0
 90
        0
 40
15.0
 90
        1
300
%<\AcVar ViewSectionStartId>%-%<\AcVar ViewSectionEndId>% (%<\AcVar ViewScale \f "%sn">%)
 71
     4
 62
   256
 62
   257
300
ANSI31
 40
1.0
 90
        0
290
     0
290
     0
 90
        6
 40
0.0
 40
1.570796326794896
 40
0.2617993877991494
 40
1.308996938995747
 40
-0.2617993877991494
 40
1.832595714594046
  0
TABLESTYLE
  5
6A
102
{ACAD_XDICTIONARY
360
25C
102
}
102
{ACAD_REACTORS
330
69
102
}
330
69
100
AcDbTableStyle
  3
Standard
 70
     0
 71
     0
 40
0.06
 41
0.06
280
     0
281
     0
  7
Standard
140
0.18
170
     2
 62
     0
 63
     7
283
     0
274
    -2
284
     1
 64
     0
275
    -2
285
     1
 65
     0
276
    -2
286
     1
 66
     0
277
    -2
287
     1
 67
     0
278
    -2
288
     1
 68
     0
279
    -2
289
     1
 69
     0
  7
Standard
140
0.25
170
     5
 62
     0
 63
     7
283
     0
274
    -2
284
     1
 64
     0
275
    -2
285
     1
 65
     0
276
    -2
286
     1
 66
     0
277
    -2
287
     1
 67
     0
278
    -2
288
     1
 68
     0
279
    -2
289
     1
 69
     0
  7
Standard
140
0.18
170
     5
 62
     0
 63
     7
283
     0
274
    -2
284
     1
 64
     0
275
    -2
285
     1
 65
     0
276
    -2
286
     1
 66
     0
277
    -2
287
     1
 67
     0
278
    -2
288
     1
 68
     0
279
    -2
289
     1
 69
     0
  0
VISUALSTYLE
  5
2F
102
{ACAD_XDICTIONARY
360
355
102
}
102
{ACAD_REACTORS
330
2A
102
}
330
2A
100
AcDbVisualStyle
  2

 70
     4
 71
     0
 72
     2
 73
     0
 90
        0
 40
-0.6
 41
-30.0
 62
     5
 63
     7
421
 16777215
 74
     1
 91
        4
 64
     7
 65
   257
 75
     1
175
     1
 42
1.0
 92
        0
 66
   257
 43
1.0
 76
     1
 77
     6
 78
     2
 67
     7
 79
     5
170
     0
171
     0
290
     0
174
     0
 93
        1
 44
0.0
173
     0
291
     0
 45
0.0
1001
ACAD
1000
AcDbSavedByObjectVersion
1070
     0
  0
VISUALSTYLE
  5
32
102
{ACAD_XDICTIONARY
360
35B
102
}
102
{ACAD_REACTORS
330
2A
102
}
330
2A
100
AcDbVisualStyle
  2

 70
     7
 71
     1
 72
     0
 73
     1
 90
        0
 40
-0.6
 41
-30.0
 62
     5
 63
     7
421
 16777215
 74
     0
 91
        4
 64
     7
 65
   257
 75
     1
175
     1
 42
1.0
 92
        8
 66
     7
 43
1.0
 76
     1
 77
     6
 78
     2
 67
     7
 79
     5
170
     0
171
     0
290
     0
174
     0
 93
        1
 44
0.0
173
     0
291
     1
 45
0.0
1001
ACAD
1000
AcDbSavedByObjectVersion
1070
     0
  0
VISUALSTYLE
  5
36
102
{ACAD_XDICTIONARY
360
363
102
}
102
{ACAD_REACTORS
330
2A
102
}
330
2A
100
AcDbVisualStyle
  2

 70
    12
 71
     2
 72
     2
 73
     0
 90
        0
 40
-0.6
 41
-30.0
 62
     5
 63
     7
421
 16777215
 74
     1
 91
        4
 64
     7
 65
   257
 75
     1
175
     1
 42
1.0
 92
        8
 66
     7
 43
1.0
 76
     1
 77
     6
 78
     2
 67
     7
 79
     5
170
     0
171
     0
290
     0
174
     0
 93
        1
 44
50.0
173
     0
291
     1
 45
0.0
1001
ACAD
1000
AcDbSavedByObjectVersion
1070
     0
  0
VISUALSTYLE
  5
3A
102
{ACAD_XDICTIONARY
360
36B
102
}
102
{ACAD_REACTORS
330
2A
102
}
330
2A
100
AcDbVisualStyle
  2

 70
    16
 71
     2
 72
     2
 73
     3
 90
        0
 40
-0.6
 41
-30.0
 62
     5
 63
     8
421
  8421504
 74
     1
 91
        4
 64
     7
 65
   257
 75
     1
175
     1
 42
1.0
 92
        8
 66
     8
424
  8421504
 43
1.0
 76
     1
 77
     6
 78
     2
 67
     7
 79
     5
170
     0
171
     0
290
     0
174
     0
 93
        1
 44
0.0
173
     0
291
     1
 45
0.0
1001
ACAD
1000
AcDbSavedByObjectVersion
1070
     0
  0
VISUALSTYLE
  5
34
102
{ACAD_XDICTIONARY
360
35F
102
}
102
{ACAD_REACTORS
330
2A
102
}
330
2A
100
AcDbVisualStyle
  2

 70
     9
 71
     3
 72
     2
 73
     0
 90
        0
 40
-0.6
 41
-30.0
 62
     5
 63
     7
421
 16777215
 74
     2
 91
        2
 64
     7
 65
   257
 75
     1
175
     1
 42
179.0
 92
        8
 66
     7
 43
1.0
 76
     1
 77
     6
 78
     2
 67
     7
 79
     3
170
     0
171
     0
290
     0
174
     0
 93
        1
 44
0.0
173
     0
291
     0
 45
0.0
1001
ACAD
1000
AcDbSavedByObjectVersion
1070
     0
  0
VISUALSTYLE
  5
35
102
{ACAD_XDICTIONARY
360
361
102
}
102
{ACAD_REACTORS
330
2A
102
}
330
2A
100
AcDbVisualStyle
  2

 70
    11
 71
     2
 72
     2
 73
     0
 90
        0
 40
-0.6
 41
-30.0
 62
     5
 63
     7
421
 16777215
 74
     1
 91
        4
 64
     7
 65
   257
 75
     1
175
     1
 42
1.0
 92
        8
 66
     7
 43
1.0
 76
     1
 77
     6
 78
     2
 67
     7
 79
     5
170
     0
171
     0
290
     0
174
     0
 93
        1
 44
-50.0
173
     0
291
     1
 45
0.0
1001
ACAD
1000
AcDbSavedByObjectVersion
1070
     0
  0
VISUALSTYLE
  5
3D
102
{ACAD_XDICTIONARY
360
371
102
}
102
{ACAD_REACTORS
330
2A
102
}
330
2A
100
AcDbVisualStyle
  2

 70
    22
 71
     2
 72
     2
 73
     0
 90
        0
 40
-0.6
 41
-30.0
 62
     5
 63
     7
421
 16777215
 74
     1
 91
        4
 64
     7
 65
   257
 75
     1
175
     1
 42
1.0
 92
        8
 66
     7
 43
1.0
 76
     1
 77
     6
 78
     2
 67
     7
 79
     5
170
     0
171
     0
290
     0
174
     0
 93
        1
 44
0.0
173
     0
291
     1
 45
0.0
1001
ACAD
1000
AcDbSavedByObjectVersion
1070
     0
  0
VISUALSTYLE
  5
39
102
{ACAD_XDICTIONARY
360
369
102
}
102
{ACAD_REACTORS
330
2A
102
}
330
2A
100
AcDbVisualStyle
  2

 70
    15
 71
     2
 72
     2
 73
     0
 90
        0
 40
-0.6
 41
-30.0
 62
     5
 63
     7
421
 16777215
 74
     1
 91
        4
 64
     7
 65
   257
 75
     1
175
     1
 42
1.0
 92
        8
 66
     7
 43
1.0
 76
     1
 77
     6
 78
     2
 67
     7
 79
     5
170
     0
171
     0
290
     0
174
     0
 93
        1
 44
0.0
173
     0
291
     1
 45
0.0
1001
ACAD
1000
AcDbSavedByObjectVersion
1070
     0
  0
VISUALSTYLE
  5
2B
102
{ACAD_XDICTIONARY
360
34D
102
}
102
{ACAD_REACTORS
330
2A
102
}
330
2A
100
AcDbVisualStyle
  2

 70
     0
 71
     2
 72
     1
 73
     1
 90
        2
 40
-0.6
 41
30.0
 62
     5
 63
     7
421
 16777215
 74
     0
 91
        0
 64
     7
 65
   257
 75
     1
175
     1
 42
1.0
 92
        8
 66
     7
 43
1.0
 76
     1
 77
     6
 78
     2
 67
     7
 79
     5
170
     0
171
     0
290
     0
174
     0
 93
       13
 44
0.0
173
     0
291
     1
 45
0.0
1001
ACAD
1000
AcDbSavedByObjectVersion
1070
     0
  0
VISUALSTYLE
  5
2C
102
{ACAD_XDICTIONARY
360
34F
102
}
102
{ACAD_REACTORS
330
2A
102
}
330
2A
100
AcDbVisualStyle
  2

 70
     1
 71
     2
 72
     1
 73
     1
 90
        2
 40
-0.6
 41
30.0
 62
     5
 63
     7
421
 16777215
 74
     1
 91
        0
 64
     7
 65
   257
 75
     1
175
     1
 42
1.0
 92
        0
 66
   257
 43
1.0
 76
     1
 77
     6
 78
     2
 67
     7
 79
     5
170
     0
171
     0
290
     0
174
     0
 93
       13
 44
0.0
173
     0
291
     1
 45
0.0
1001
ACAD
1000
AcDbSavedByObjectVersion
1070
     0
  0
VISUALSTYLE
  5
2D
102
{ACAD_XDICTIONARY
360
351
102
}
102
{ACAD_REACTORS
330
2A
102
}
330
2A
100
AcDbVisualStyle
  2

 70
     2
 71
     2
 72
     2
 73
     1
 90
        2
 40
-0.6
 41
30.0
 62
     5
 63
     7
421
 16777215
 74
     0
 91
        0
 64
     7
 65
   257
 75
     1
175
     1
 42
1.0
 92
        0
 66
     7
 43
1.0
 76
     1
 77
     6
 78
     2
 67
     7
 79
     5
170
     0
171
     0
290
     0
174
     0
 93
       13
 44
0.0
173
     0
291
     1
 45
0.0
1001
ACAD
1000
AcDbSavedByObjectVersion
1070
     0
  0
VISUALSTYLE
  5
2E
102
{ACAD_XDICTIONARY
360
353
102
}
102
{ACAD_REACTORS
330
2A
102
}
330
2A
100
AcDbVisualStyle
  2

 70
     3
 71
     2
 72
     2
 73
     1
 90
        2
 40
-0.6
 41
30.0
 62
     5
 63
     7
421
 16777215
 74
     1
 91
        0
 64
     7
 65
   257
 75
     1
175
     1
 42
1.0
 92
        0
 66
   257
 43
1.0
 76
     1
 77
     6
 78
     2
 67
     7
 79
     5
170
     0
171
     0
290
     0
174
     0
 93
       13
 44
0.0
173
     0
291
     1
 45
0.0
1001
ACAD
1000
AcDbSavedByObjectVersion
1070
     0
  0
VISUALSTYLE
  5
31
102
{ACAD_XDICTIONARY
360
359
102
}
102
{ACAD_REACTORS
330
2A
102
}
330
2A
100
AcDbVisualStyle
  2

 70
     6
 71
     1
 72
     2
 73
     2
 90
        0
 40
-0.6
 41
-30.0
 62
     5
 63
     7
421
 16777215
 74
     2
 91
        2
 64
     7
 65
   257
 75
     2
175
     1
 42
40.0
 92
        0
 66
   257
 43
1.0
 76
     1
 77
     6
 78
     2
 67
     7
 79
     3
170
     0
171
     0
290
     0
174
     0
 93
        1
 44
0.0
173
     0
291
     0
 45
0.0
1001
ACAD
1000
AcDbSavedByObjectVersion
1070
     0
  0
VISUALSTYLE
  5
3B
102
{ACAD_XDICTIONARY
360
36D
102
}
102
{ACAD_REACTORS
330
2A
102
}
330
2A
100
AcDbVisualStyle
  2

 70
    20
 71
     2
 72
     2
 73
     0
 90
        0
 40
-0.6
 41
-30.0
 62
     5
 63
     7
421
 16777215
 74
     1
 91
        4
 64
     7
 65
   257
 75
     1
175
     1
 42
1.0
 92
       10
 66
     7
 43
1.0
 76
     1
 77
     6
 78
     2
 67
     7
 79
     5
170
     0
171
     0
290
     0
174
     0
 93
        1
 44
0.0
173
     0
291
     1
 45
0.0
1001
ACAD
1000
AcDbSavedByObjectVersion
1070
     0
  0
VISUALSTYLE
  5
38
102
{ACAD_XDICTIONARY
360
367
102
}
102
{ACAD_REACTORS
330
2A
102
}
330
2A
100
AcDbVisualStyle
  2

 70
    14
 71
     2
 72
     2
 73
     0
 90
        0
 40
-0.6
 41
-30.0
 62
     5
 63
     7
421
 16777215
 74
     1
 91
        4
 64
     7
 65
   257
 75
     7
175
     7
 42
1.0
 92
        8
 66
     7
 43
1.0
 76
     1
 77
     6
 78
     2
 67
     7
 79
     5
170
     0
171
     0
290
     0
174
     0
 93
        1
 44
0.0
173
     0
291
     1
 45
0.0
1001
ACAD
1000
AcDbSavedByObjectVersion
1070
     0
  0
VISUALSTYLE
  5
3C
102
{ACAD_XDICTIONARY
360
36F
102
}
102
{ACAD_REACTORS
330
2A
102
}
330
2A
100
AcDbVisualStyle
  2

 70
    21
 71
     2
 72
     2
 73
     0
 90
        0
 40
-0.6
 41
-30.0
 62
     5
 63
     7
421
 16777215
 74
     1
 91
        4
 64
     7
 65
   257
 75
     1
175
     1
 42
1.0
 92
        9
 66
     7
 43
1.0
 76
     1
 77
     6
 78
     2
 67
     7
 79
     5
170
     0
171
     0
290
     0
174
     0
 93
        1
 44
0.0
173
     0
291
     1
 45
0.0
1001
ACAD
1000
AcDbSavedByObjectVersion
1070
     0
  0
VISUALSTYLE
  5
33
102
{ACAD_XDICTIONARY
360
35D
102
}
102
{ACAD_REACTORS
330
2A
102
}
330
2A
100
AcDbVisualStyle
  2

 70
     8
 71
     2
 72
     3
 73
     0
 90
        2
 40
-0.6
 41
30.0
 62
     5
 63
     7
421
 16777215
 74
     0
 91
        0
 64
     7
 65
   257
 75
     1
175
     1
 42
1.0
 92
        8
 66
   257
 43
1.0
 76
     1
 77
     6
 78
     2
 67
     7
 79
     3
170
     0
171
     0
290
     0
174
     0
 93
       13
 44
0.0
173
     0
291
     0
 45
0.0
1001
ACAD
1000
AcDbSavedByObjectVersion
1070
     0
  0
VISUALSTYLE
  5
42
102
{ACAD_XDICTIONARY
360
37B
102
}
102
{ACAD_REACTORS
330
2A
102
}
330
2A
100
AcDbVisualStyle
  2

 70
    27
 71
     2
 72
     2
 73
     1
 90
        2
 40
-0.6
 41
30.0
 62
     5
 63
     7
421
 16777215
 74
     0
 91
        4
 64
     7
 65
   257
 75
     1
175
     1
 42
1.0
 92
        8
 66
   257
 43
1.0
 76
     1
 77
     6
 78
     2
 67
     8
425
  7895160
 79
     3
170
     0
171
     0
290
     0
174
     0
 93
        5
 44
0.0
173
     0
291
     0
 45
0.0
1001
ACAD
1000
AcDbSavedByObjectVersion
1070
     0
  0
VISUALSTYLE
  5
41
102
{ACAD_XDICTIONARY
360
379
102
}
102
{ACAD_REACTORS
330
2A
102
}
330
2A
100
AcDbVisualStyle
  2

 70
    26
 71
     2
 72
     2
 73
     1
 90
        2
 40
-0.6
 41
30.0
 62
     5
 63
     7
421
 16777215
 74
     1
 91
       10
 64
     7
 65
   257
 75
     2
175
     1
 42
1.0
 92
        8
 66
   257
 43
1.0
 76
     1
 77
     6
 78
     2
 67
     7
 79
     3
170
     0
171
     0
290
     0
174
     0
 93
        5
 44
0.0
173
     0
291
     0
 45
0.0
1001
ACAD
1000
AcDbSavedByObjectVersion
1070
     0
  0
VISUALSTYLE
  5
3E
102
{ACAD_XDICTIONARY
360
373
102
}
102
{ACAD_REACTORS
330
2A
102
}
330
2A
100
AcDbVisualStyle
  2

 70
    23
 71
     2
 72
     2
 73
     3
 90
        0
 40
-0.6
 41
-30.0
 62
     5
 63
     7
421
 16777215
 74
     2
 91
        2
 64
     7
 65
     7
 75
     1
175
     1
 42
40.0
 92
        8
 66
     7
 43
1.0
 76
     1
 77
     6
 78
     2
 67
     7
 79
     3
170
     0
171
     0
290
     0
174
     0
 93
        1
 44
0.0
173
     0
291
     0
 45
0.0
1001
ACAD
1000
AcDbSavedByObjectVersion
1070
     0
  0
VISUALSTYLE
  5
3F
102
{ACAD_XDICTIONARY
360
375
102
}
102
{ACAD_REACTORS
330
2A
102
}
330
2A
100
AcDbVisualStyle
  2

 70
    24
 71
     1
 72
     2
 73
     2
 90
        0
 40
-0.6
 41
-30.0
 62
     5
 63
     7
421
 16777215
 74
     2
 91
        2
 64
     7
 65
     7
 75
     1
175
     1
 42
40.0
 92
       11
 66
     7
 43
1.0
 76
     1
 77
     6
 78
     2
 67
     7
 79
     6
170
     0
171
     0
290
     0
174
     0
 93
        1
 44
0.0
173
     0
291
     0
 45
0.0
1001
ACAD
1000
AcDbSavedByObjectVersion
1070
     0
  0
VISUALSTYLE
  5
37
102
{ACAD_XDICTIONARY
360
365
102
}
102
{ACAD_REACTORS
330
2A
102
}
330
2A
100
AcDbVisualStyle
  2

 70
    13
 71
     2
 72
     2
 73
     0
 90
        0
 40
-0.6
 41
-30.0
 62
     5
 63
     7
421
 16777215
 74
     1
 91
        4
 64
     7
 65
   257
 75
     1
175
     1
 42
1.0
 92
       12
 66
     7
 43
1.0
 76
     1
 77
     6
 78
     2
 67
     7
 79
     5
170
     0
171
     0
290
     0
174
     0
 93
        1
 44
0.0
173
     0
291
     1
 45
0.0
1001
ACAD
1000
AcDbSavedByObjectVersion
1070
     0
  0
VISUALSTYLE
  5
30
102
{ACAD_XDICTIONARY
360
357
102
}
102
{ACAD_REACTORS
330
2A
102
}
330
2A
100
AcDbVisualStyle
  2

 70
     5
 71
     0
 72
     2
 73
     0
 90
        0
 40
-0.6
 41
-30.0
 62
     5
 63
     7
421
 16777215
 74
     1
 91
        4
 64
     7
 65
   257
 75
     1
175
     1
 42
1.0
 92
        0
 66
   257
 43
1.0
 76
     1
 77
     6
 78
     2
 67
     7
 79
     3
170
     0
171
     0
290
     0
174
     0
 93
        1
 44
0.0
173
     0
291
     0
 45
0.0
1001
ACAD
1000
AcDbSavedByObjectVersion
1070
     0
  0
VISUALSTYLE
  5
40
102
{ACAD_XDICTIONARY
360
377
102
}
102
{ACAD_REACTORS
330
2A
102
}
330
2A
100
AcDbVisualStyle
  2

 70
    25
 71
     2
 72
     2
 73
     1
 90
        1
 40
0.5
 41
-30.0
 62
     5
 63
     7
421
 16777215
 74
     1
 91
        0
 64
     7
 65
   257
 75
     1
175
     1
 42
1.0
 92
        8
 66
     7
 43
1.0
 76
     1
 77
     6
 78
     2
 67
     7
 79
     3
170
     0
171
     0
290
     0
174
     0
 93
       13
 44
0.0
173
     0
291
     0
 45
0.0
1001
ACAD
1000
AcDbSavedByObjectVersion
1070
     0
  0
DICTIONARYVAR
  5
223
102
{ACAD_REACTORS
330
222
102
}
330
222
100
DictionaryVariables
280
     0
  1
1:1
  0
DICTIONARYVAR
  5
264
102
{ACAD_REACTORS
330
222
102
}
330
222
100
DictionaryVariables
280
     0
  1
STANDARD
  0
DICTIONARYVAR
  5
263
102
{ACAD_REACTORS
330
222
102
}
330
222
100
DictionaryVariables
280
     0
  1
STANDARD
  0
DICTIONARYVAR
  5
348
102
{ACAD_REACTORS
330
222
102
}
330
222
100
DictionaryVariables
280
     0
  1
Metric50
  0
DICTIONARYVAR
  5
349
102
{ACAD_REACTORS
330
222
102
}
330
222
100
DictionaryVariables
280
     0
  1
Metric50
  0
DICTIONARYVAR
  5
224
102
{ACAD_REACTORS
330
222
102
}
330
222
100
DictionaryVariables
280
     0
  1
1
  0
DICTIONARYVAR
  5
34A
102
{ACAD_REACTORS
330
222
102
}
330
222
100
DictionaryVariables
280
     0
  1
2
  0
DICTIONARY
  5
2A2
102
{ACAD_REACTORS
330
29B
102
}
330
29B
100
AcDbDictionary
281
     1
  0
DICTIONARY
  5
380
330
26B
100
AcDbDictionary
280
     1
281
     1
  3
ACAD_XREC_ROUNDTRIP
360
381
  0
DICTIONARY
  5
258
330
45
100
AcDbDictionary
280
     1
281
     1
  3
ACAD_XREC_ROUNDTRIP
360
259
  0
DICTIONARY
  5
256
330
44
100
AcDbDictionary
280
     1
281
     1
  3
ACAD_XREC_ROUNDTRIP
360
257
  0
DICTIONARY
  5
25A
330
46
100
AcDbDictionary
280
     1
281
     1
  3
ACAD_XREC_ROUNDTRIP
360
25B
  0
DICTIONARY
  5
37E
330
26A
100
AcDbDictionary
280
     1
281
     1
  3
ACAD_XREC_ROUNDTRIP
360
37F
  0
DICTIONARY
  5
25C
330
6A
100
AcDbDictionary
280
     1
281
     1
  3
ACAD_ROUNDTRIP_2008_TABLESTYLE_CELLSTYLEMAP
360
34B
  3
ACAD_XREC_ROUNDTRIP
360
37D
  0
DICTIONARY
  5
355
330
2F
100
AcDbDictionary
280
     1
281
     1
  3
ACAD_XREC_ROUNDTRIP
360
356
  0
DICTIONARY
  5
35B
330
32
100
AcDbDictionary
280
     1
281
     1
  3
ACAD_XREC_ROUNDTRIP
360
35C
  0
DICTIONARY
  5
363
330
36
100
AcDbDictionary
280
     1
281
     1
  3
ACAD_XREC_ROUNDTRIP
360
364
  0
DICTIONARY
  5
36B
330
3A
100
AcDbDictionary
280
     1
281
     1
  3
ACAD_XREC_ROUNDTRIP
360
36C
  0
DICTIONARY
  5
35F
330
34
100
AcDbDictionary
280
     1
281
     1
  3
ACAD_XREC_ROUNDTRIP
360
360
  0
DICTIONARY
  5
361
330
35
100
AcDbDictionary
280
     1
281
     1
  3
ACAD_XREC_ROUNDTRIP
360
362
  0
DICTIONARY
  5
371
330
3D
100
AcDbDictionary
280
     1
281
     1
  3
ACAD_XREC_ROUNDTRIP
360
372
  0
DICTIONARY
  5
369
330
39
100
AcDbDictionary
280
     1
281
     1
  3
ACAD_XREC_ROUNDTRIP
360
36A
  0
DICTIONARY
  5
34D
330
2B
100
AcDbDictionary
280
     1
281
     1
  3
ACAD_XREC_ROUNDTRIP
360
34E
  0
DICTIONARY
  5
34F
330
2C
100
AcDbDictionary
280
     1
281
     1
  3
ACAD_XREC_ROUNDTRIP
360
350
  0
DICTIONARY
  5
351
330
2D
100
AcDbDictionary
280
     1
281
     1
  3
ACAD_XREC_ROUNDTRIP
360
352
  0
DICTIONARY
  5
353
330
2E
100
AcDbDictionary
280
     1
281
     1
  3
ACAD_XREC_ROUNDTRIP
360
354
  0
DICTIONARY
  5
359
330
31
100
AcDbDictionary
280
     1
281
     1
  3
ACAD_XREC_ROUNDTRIP
360
35A
  0
DICTIONARY
  5
36D
330
3B
100
AcDbDictionary
280
     1
281
     1
  3
ACAD_XREC_ROUNDTRIP
360
36E
  0
DICTIONARY
  5
367
330
38
100
AcDbDictionary
280
     1
281
     1
  3
ACAD_XREC_ROUNDTRIP
360
368
  0
DICTIONARY
  5
36F
330
3C
100
AcDbDictionary
280
     1
281
     1
  3
ACAD_XREC_ROUNDTRIP
360
370
  0
DICTIONARY
  5
35D
330
33
100
AcDbDictionary
280
     1
281
     1
  3
ACAD_XREC_ROUNDTRIP
360
35E
  0
DICTIONARY
  5
37B
330
42
100
AcDbDictionary
280
     1
281
     1
  3
ACAD_XREC_ROUNDTRIP
360
37C
  0
DICTIONARY
  5
379
330
41
100
AcDbDictionary
280
     1
281
     1
  3
ACAD_XREC_ROUNDTRIP
360
37A
  0
DICTIONARY
  5
373
330
3E
100
AcDbDictionary
280
     1
281
     1
  3
ACAD_XREC_ROUNDTRIP
360
374
  0
DICTIONARY
  5
375
330
3F
100
AcDbDictionary
280
     1
281
     1
  3
ACAD_XREC_ROUNDTRIP
360
376
  0
DICTIONARY
  5
365
330
37
100
AcDbDictionary
280
     1
281
     1
  3
ACAD_XREC_ROUNDTRIP
360
366
  0
DICTIONARY
  5
357
330
30
100
AcDbDictionary
280
     1
281
     1
  3
ACAD_XREC_ROUNDTRIP
360
358
  0
DICTIONARY
  5
377
330
40
100
AcDbDictionary
280
     1
281
     1
  3
ACAD_XREC_ROUNDTRIP
360
378
  0
XRECORD
  5
381
102
{ACAD_REACTORS
330
380
102
}
330
380
100
AcDbXrecord
280
     1
102
DISPLAYNAME
  1
Metric50
102
FLAGS
 90
        0
  0
XRECORD
  5
259
102
{ACAD_REACTORS
330
258
102
}
330
258
100
AcDbXrecord
280
     1
102
MATERIAL
148
0.0
149
0.0
149
0.0
 93
        0
 94
      127
282
     0
 72
     1
 77
     1
171
     1
175
     1
179
     1
273
     0
  0
XRECORD
  5
257
102
{ACAD_REACTORS
330
256
102
}
330
256
100
AcDbXrecord
280
     1
102
MATERIAL
148
0.0
149
0.0
149
0.0
 93
        0
 94
      127
282
     0
 72
     1
 77
     1
171
     1
175
     1
179
     1
273
     0
  0
XRECORD
  5
25B
102
{ACAD_REACTORS
330
25A
102
}
330
25A
100
AcDbXrecord
280
     1
102
MATERIAL
148
0.0
149
0.0
149
0.0
 93
        0
 94
      127
282
     0
 72
     1
 77
     1
171
     1
175
     1
179
     1
273
     0
  0
XRECORD
  5
37F
102
{ACAD_REACTORS
330
37E
102
}
330
37E
100
AcDbXrecord
280
     1
102
DISPLAYNAME
  1
Metric50
102
FLAGS
 90
        0
  0
CELLSTYLEMAP
  5
34B
102
{ACAD_REACTORS
330
25C
102
}
330
25C
100
AcDbCellStyleMap
 90
        3
300
CELLSTYLE
  1
TABLEFORMAT_BEGIN
 90
        5
170
     1
 91
        0
 92
    32768
 62
   257
 93
        1
300
CONTENTFORMAT
  1
CONTENTFORMAT_BEGIN
 90
        0
 91
        0
 92
        4
 93
        0
300

 40
0.0
140
1.0
 94
        5
 62
     0
340
11
144
0.25
309
CONTENTFORMAT_END
171
     1
301
MARGIN
  1
CELLMARGIN_BEGIN
 40
0.06
 40
0.06
 40
0.06
 40
0.06
 40
0.18
 40
0.18
309
CELLMARGIN_END
 94
        6
 95
        1
302
GRIDFORMAT
  1
GRIDFORMAT_BEGIN
 90
        0
 91
        1
 62
     0
 92
       -2
340
14
 93
        0
 40
0.045
309
GRIDFORMAT_END
 95
        2
302
GRIDFORMAT
  1
GRIDFORMAT_BEGIN
 90
        0
 91
        1
 62
     0
 92
       -2
340
14
 93
        0
 40
0.045
309
GRIDFORMAT_END
 95
        4
302
GRIDFORMAT
  1
GRIDFORMAT_BEGIN
 90
        0
 91
        1
 62
     0
 92
       -2
340
14
 93
        0
 40
0.045
309
GRIDFORMAT_END
 95
        8
302
GRIDFORMAT
  1
GRIDFORMAT_BEGIN
 90
        0
 91
        1
 62
     0
 92
       -2
340
14
 93
        0
 40
0.045
309
GRIDFORMAT_END
 95
       16
302
GRIDFORMAT
  1
GRIDFORMAT_BEGIN
 90
        0
 91
        1
 62
     0
 92
       -2
340
14
 93
        0
 40
0.045
309
GRIDFORMAT_END
 95
       32
302
GRIDFORMAT
  1
GRIDFORMAT_BEGIN
 90
        0
 91
        1
 62
     0
 92
       -2
340
14
 93
        0
 40
0.045
309
GRIDFORMAT_END
309
TABLEFORMAT_END
  1
CELLSTYLE_BEGIN
 90
        1
 91
        1
300
_TITLE
309
CELLSTYLE_END
300
CELLSTYLE
  1
TABLEFORMAT_BEGIN
 90
        5
170
     1
 91
        0
 92
        0
 62
   257
 93
        1
300
CONTENTFORMAT
  1
CONTENTFORMAT_BEGIN
 90
        0
 91
        0
 92
        4
 93
        0
300

 40
0.0
140
1.0
 94
        5
 62
     0
340
11
144
0.18
309
CONTENTFORMAT_END
171
     1
301
MARGIN
  1
CELLMARGIN_BEGIN
 40
0.06
 40
0.06
 40
0.06
 40
0.06
 40
0.18
 40
0.18
309
CELLMARGIN_END
 94
        6
 95
        1
302
GRIDFORMAT
  1
GRIDFORMAT_BEGIN
 90
        0
 91
        1
 62
     0
 92
       -2
340
14
 93
        0
 40
0.045
309
GRIDFORMAT_END
 95
        2
302
GRIDFORMAT
  1
GRIDFORMAT_BEGIN
 90
        0
 91
        1
 62
     0
 92
       -2
340
14
 93
        0
 40
0.045
309
GRIDFORMAT_END
 95
        4
302
GRIDFORMAT
  1
GRIDFORMAT_BEGIN
 90
        0
 91
        1
 62
     0
 92
       -2
340
14
 93
        0
 40
0.045
309
GRIDFORMAT_END
 95
        8
302
GRIDFORMAT
  1
GRIDFORMAT_BEGIN
 90
        0
 91
        1
 62
     0
 92
       -2
340
14
 93
        0
 40
0.045
309
GRIDFORMAT_END
 95
       16
302
GRIDFORMAT
  1
GRIDFORMAT_BEGIN
 90
        0
 91
        1
 62
     0
 92
       -2
340
14
 93
        0
 40
0.045
309
GRIDFORMAT_END
 95
       32
302
GRIDFORMAT
  1
GRIDFORMAT_BEGIN
 90
        0
 91
        1
 62
     0
 92
       -2
340
14
 93
        0
 40
0.045
309
GRIDFORMAT_END
309
TABLEFORMAT_END
  1
CELLSTYLE_BEGIN
 90
        2
 91
        1
300
_HEADER
309
CELLSTYLE_END
300
CELLSTYLE
  1
TABLEFORMAT_BEGIN
 90
        5
170
     1
 91
        0
 92
        0
 62
   257
 93
        1
300
CONTENTFORMAT
  1
CONTENTFORMAT_BEGIN
 90
        0
 91
        0
 92
        4
 93
        0
300

 40
0.0
140
1.0
 94
        2
 62
     0
340
11
144
0.18
309
CONTENTFORMAT_END
171
     1
301
MARGIN
  1
CELLMARGIN_BEGIN
 40
0.06
 40
0.06
 40
0.06
 40
0.06
 40
0.18
 40
0.18
309
CELLMARGIN_END
 94
        6
 95
        1
302
GRIDFORMAT
  1
GRIDFORMAT_BEGIN
 90
        0
 91
        1
 62
     0
 92
       -2
340
14
 93
        0
 40
0.045
309
GRIDFORMAT_END
 95
        2
302
GRIDFORMAT
  1
GRIDFORMAT_BEGIN
 90
        0
 91
        1
 62
     0
 92
       -2
340
14
 93
        0
 40
0.045
309
GRIDFORMAT_END
 95
        4
302
GRIDFORMAT
  1
GRIDFORMAT_BEGIN
 90
        0
 91
        1
 62
     0
 92
       -2
340
14
 93
        0
 40
0.045
309
GRIDFORMAT_END
 95
        8
302
GRIDFORMAT
  1
GRIDFORMAT_BEGIN
 90
        0
 91
        1
 62
     0
 92
       -2
340
14
 93
        0
 40
0.045
309
GRIDFORMAT_END
 95
       16
302
GRIDFORMAT
  1
GRIDFORMAT_BEGIN
 90
        0
 91
        1
 62
     0
 92
       -2
340
14
 93
        0
 40
0.045
309
GRIDFORMAT_END
 95
       32
302
GRIDFORMAT
  1
GRIDFORMAT_BEGIN
 90
        0
 91
        1
 62
     0
 92
       -2
340
14
 93
        0
 40
0.045
309
GRIDFORMAT_END
309
TABLEFORMAT_END
  1
CELLSTYLE_BEGIN
 90
        3
 91
        2
300
_DATA
309
CELLSTYLE_END
  0
XRECORD
  5
37D
102
{ACAD_REACTORS
330
25C
102
}
330
25C
100
AcDbXrecord
280
     1
102
ACAD_ROUNDTRIP_PRE2007_TABLESTYLE
 90
        4
 91
        0
  1

 92
        4
 93
        0
  2

 94
        4
 95
        0
  3

  0
XRECORD
  5
356
102
{ACAD_REACTORS
330
355
102
}
330
355
100
AcDbXrecord
280
     1
102
RTVSPost2010Prop28
280
     1
102
RTVSPost2010PropOp28
 70
     1
102
RTVSPost2010Prop29
280
     1
102
RTVSPost2010PropOp29
 70
     1
102
RTVSPost2010Prop30
280
     0
102
RTVSPost2010PropOp30
 70
     1
102
RTVSPost2010Prop31
280
     0
102
RTVSPost2010PropOp31
 70
     1
102
RTVSPost2010Prop32
280
     0
102
RTVSPost2010PropOp32
 70
     1
102
RTVSPost2010Prop33
280
     0
102
RTVSPost2010PropOp33
 70
     1
102
RTVSPost2010Prop34
280
     0
102
RTVSPost2010PropOp34
 70
     1
102
RTVSPost2010Prop35
280
     0
102
RTVSPost2010PropOp35
 70
     1
102
RTVSPost2010Prop36
280
     0
102
RTVSPost2010PropOp36
 70
     1
102
RTVSPost2010Prop37
 90
       50
102
RTVSPost2010PropOp37
 70
     1
102
RTVSPost2010Prop38
140
0.0
102
RTVSPost2010PropOp38
 70
     1
102
RTVSPost2010Prop39
140
1.0
102
RTVSPost2010PropOp39
 70
     1
102
RTVSPost2010Prop40
 90
        0
102
RTVSPost2010PropOp40
 70
     1
102
RTVSPost2010Prop41ColorIndex
 90
       18
102
RTVSPost2010Prop41ColorRGB
 90
        0
102
RTVSPost2010PropOp41
 70
     1
102
RTVSPost2010Prop42
 90
       50
102
RTVSPost2010PropOp42
 70
     1
102
RTVSPost2010Prop43
 90
        3
102
RTVSPost2010PropOp43
 70
     1
102
RTVSPost2010Prop44ColorIndex
 90
        5
102
RTVSPost2010Prop44ColorRGB
 90
      255
102
RTVSPost2010PropOp44
 70
     1
102
RTVSPost2010Prop45
280
     0
102
RTVSPost2010PropOp45
 70
     1
102
RTVSPost2010Prop46
 90
       50
102
RTVSPost2010PropOp46
 70
     1
102
RTVSPost2010Prop47
 90
       50
102
RTVSPost2010PropOp47
 70
     1
102
RTVSPost2010Prop48
 90
       50
102
RTVSPost2010PropOp48
 70
     1
102
RTVSPost2010Prop49
280
     0
102
RTVSPost2010PropOp49
 70
     1
102
RTVSPost2010Prop50
 90
       50
102
RTVSPost2010PropOp50
 70
     1
102
RTVSPost2010Prop51ColorIndex
 90
      256
102
RTVSPost2010Prop51ColorRGB
 90
-16777216
102
RTVSPost2010PropOp51
 70
     0
102
RTVSPost2010Prop52
140
1.0
102
RTVSPost2010PropOp52
 70
     0
102
RTVSPost2010Prop53
 90
        2
102
RTVSPost2010PropOp53
 70
     1
102
RTVSPost2010Prop54
  1
strokes_ogs.tif
102
RTVSPost2010PropOp54
 70
     1
102
RTVSPost2010Prop55
280
     0
102
RTVSPost2010PropOp55
 70
     1
102
RTVSPost2010Prop56
140
1.0
102
RTVSPost2010PropOp56
 70
     1
102
RTVSPost2010Prop57
140
1.0
102
RTVSPost2010PropOp57
 70
     1
102
RTVSPropertyOp0
 70
     1
102
RTVSPropertyOp1
 70
     1
102
RTVSPropertyOp2
 70
     1
102
RTVSPropertyOp3
 70
     1
102
RTVSPropertyOp4
 70
     1
102
RTVSPropertyOp5
 70
     1
102
RTVSPropertyOp6
 70
     1
102
RTVSPropertyOp7
 70
     1
102
RTVSPropertyOp8
 70
     1
102
RTVSPropertyOp9
 70
     1
102
RTVSPropertyOp10
 70
     1
102
RTVSPropertyOp11
 70
     1
102
RTVSPropertyOp12
 70
     1
102
RTVSPropertyOp13
 70
     1
102
RTVSPropertyOp14
 70
     1
102
RTVSPropertyOp15
 70
     1
102
RTVSPropertyOp16
 70
     1
102
RTVSPropertyOp17
 70
     1
102
RTVSPropertyOp18
 70
     1
102
RTVSPropertyOp19
 70
     1
102
RTVSPropertyOp20
 70
     1
102
RTVSPropertyOp21
 70
     1
102
RTVSPropertyOp22
 70
     1
102
RTVSPropertyOp23
 70
     1
102
RTVSPropertyOp24
 70
     1
102
RTVSPropertyOp25
 70
     1
102
RTVSPropertyOp26
 70
     1
102
RTVSPropertyOp27
 70
     1
102
RTVSPropertyOp28
 70
     1
102
RTVSPropertyOp29
 70
     1
102
RTVSPropertyOp30
 70
     1
102
RTVSPropertyOp31
 70
     1
102
RTVSPropertyOp32
 70
     1
102
RTVSPropertyOp33
 70
     1
102
RTVSPropertyOp34
 70
     1
102
RTVSPropertyOp35
 70
     1
102
RTVSPropertyOp36
 70
     1
102
RTVSPropertyOp37
 70
     1
102
RTVSPropertyOp38
 70
     1
102
RTVSPropertyOp39
 70
     1
102
RTVSPropertyOp40
 70
     1
102
RTVSPropertyOp41
 70
     1
102
RTVSPropertyOp42
 70
     1
102
RTVSPropertyOp43
 70
     1
102
RTVSPropertyOp44
 70
     1
102
RTVSPropertyOp45
 70
     1
102
RTVSPropertyOp46
 70
     1
102
RTVSPropertyOp47
 70
     1
102
RTVSPropertyOp48
 70
     1
102
RTVSPropertyOp49
 70
     1
102
RTVSPropertyOp50
 70
     1
102
RTVSPropertyOp51
 70
     0
102
RTVSPropertyOp52
 70
     0
102
RTVSPropertyOp53
 70
     1
102
RTVSPropertyOp54
 70
     1
102
RTVSPropertyOp55
 70
     1
102
RTVSPropertyOp56
 70
     1
102
RTVSPropertyOp57
 70
     1
102
RTVSPropertyOp58
 70
     1
102
RTVSPropertyOp59
 70
     1
102
RTVSPropertyOp60
 70
     1
102
RTVSPropertyOp61
 70
     1
102
RTVSPropertyOp62
 70
     1
  0
XRECORD
  5
35C
102
{ACAD_REACTORS
330
35B
102
}
330
35B
100
AcDbXrecord
280
     1
102
RTVSPost2010Prop28
280
     0
102
RTVSPost2010PropOp28
 70
     1
102
RTVSPost2010Prop29
280
     1
102
RTVSPost2010PropOp29
 70
     1
102
RTVSPost2010Prop30
280
     1
102
RTVSPost2010PropOp30
 70
     1
102
RTVSPost2010Prop31
280
     0
102
RTVSPost2010PropOp31
 70
     1
102
RTVSPost2010Prop32
280
     0
102
RTVSPost2010PropOp32
 70
     1
102
RTVSPost2010Prop33
280
     0
102
RTVSPost2010PropOp33
 70
     1
102
RTVSPost2010Prop34
280
     0
102
RTVSPost2010PropOp34
 70
     1
102
RTVSPost2010Prop35
280
     0
102
RTVSPost2010PropOp35
 70
     1
102
RTVSPost2010Prop36
280
     0
102
RTVSPost2010PropOp36
 70
     1
102
RTVSPost2010Prop37
 90
       50
102
RTVSPost2010PropOp37
 70
     1
102
RTVSPost2010Prop38
140
0.0
102
RTVSPost2010PropOp38
 70
     1
102
RTVSPost2010Prop39
140
1.0
102
RTVSPost2010PropOp39
 70
     1
102
RTVSPost2010Prop40
 90
        0
102
RTVSPost2010PropOp40
 70
     1
102
RTVSPost2010Prop41ColorIndex
 90
       18
102
RTVSPost2010Prop41ColorRGB
 90
        0
102
RTVSPost2010PropOp41
 70
     1
102
RTVSPost2010Prop42
 90
       50
102
RTVSPost2010PropOp42
 70
     1
102
RTVSPost2010Prop43
 90
        3
102
RTVSPost2010PropOp43
 70
     1
102
RTVSPost2010Prop44ColorIndex
 90
        5
102
RTVSPost2010Prop44ColorRGB
 90
      255
102
RTVSPost2010PropOp44
 70
     1
102
RTVSPost2010Prop45
280
     0
102
RTVSPost2010PropOp45
 70
     1
102
RTVSPost2010Prop46
 90
       50
102
RTVSPost2010PropOp46
 70
     1
102
RTVSPost2010Prop47
 90
       50
102
RTVSPost2010PropOp47
 70
     1
102
RTVSPost2010Prop48
 90
       50
102
RTVSPost2010PropOp48
 70
     1
102
RTVSPost2010Prop49
280
     0
102
RTVSPost2010PropOp49
 70
     1
102
RTVSPost2010Prop50
 90
       50
102
RTVSPost2010PropOp50
 70
     1
102
RTVSPost2010Prop51ColorIndex
 90
      256
102
RTVSPost2010Prop51ColorRGB
 90
-16777216
102
RTVSPost2010PropOp51
 70
     0
102
RTVSPost2010Prop52
140
1.0
102
RTVSPost2010PropOp52
 70
     0
102
RTVSPost2010Prop53
 90
        2
102
RTVSPost2010PropOp53
 70
     1
102
RTVSPost2010Prop54
  1
strokes_ogs.tif
102
RTVSPost2010PropOp54
 70
     1
102
RTVSPost2010Prop55
280
     0
102
RTVSPost2010PropOp55
 70
     1
102
RTVSPost2010Prop56
140
1.0
102
RTVSPost2010PropOp56
 70
     1
102
RTVSPost2010Prop57
140
1.0
102
RTVSPost2010PropOp57
 70
     1
102
RTVSPropertyOp0
 70
     1
102
RTVSPropertyOp1
 70
     1
102
RTVSPropertyOp2
 70
     1
102
RTVSPropertyOp3
 70
     1
102
RTVSPropertyOp4
 70
     1
102
RTVSPropertyOp5
 70
     1
102
RTVSPropertyOp6
 70
     1
102
RTVSPropertyOp7
 70
     1
102
RTVSPropertyOp8
 70
     1
102
RTVSPropertyOp9
 70
     1
102
RTVSPropertyOp10
 70
     1
102
RTVSPropertyOp11
 70
     1
102
RTVSPropertyOp12
 70
     1
102
RTVSPropertyOp13
 70
     1
102
RTVSPropertyOp14
 70
     1
102
RTVSPropertyOp15
 70
     1
102
RTVSPropertyOp16
 70
     1
102
RTVSPropertyOp17
 70
     1
102
RTVSPropertyOp18
 70
     1
102
RTVSPropertyOp19
 70
     1
102
RTVSPropertyOp20
 70
     1
102
RTVSPropertyOp21
 70
     1
102
RTVSPropertyOp22
 70
     1
102
RTVSPropertyOp23
 70
     1
102
RTVSPropertyOp24
 70
     1
102
RTVSPropertyOp25
 70
     1
102
RTVSPropertyOp26
 70
     1
102
RTVSPropertyOp27
 70
     1
102
RTVSPropertyOp28
 70
     1
102
RTVSPropertyOp29
 70
     1
102
RTVSPropertyOp30
 70
     1
102
RTVSPropertyOp31
 70
     1
102
RTVSPropertyOp32
 70
     1
102
RTVSPropertyOp33
 70
     1
102
RTVSPropertyOp34
 70
     1
102
RTVSPropertyOp35
 70
     1
102
RTVSPropertyOp36
 70
     1
102
RTVSPropertyOp37
 70
     1
102
RTVSPropertyOp38
 70
     1
102
RTVSPropertyOp39
 70
     1
102
RTVSPropertyOp40
 70
     1
102
RTVSPropertyOp41
 70
     1
102
RTVSPropertyOp42
 70
     1
102
RTVSPropertyOp43
 70
     1
102
RTVSPropertyOp44
 70
     1
102
RTVSPropertyOp45
 70
     1
102
RTVSPropertyOp46
 70
     1
102
RTVSPropertyOp47
 70
     1
102
RTVSPropertyOp48
 70
     1
102
RTVSPropertyOp49
 70
     1
102
RTVSPropertyOp50
 70
     1
102
RTVSPropertyOp51
 70
     0
102
RTVSPropertyOp52
 70
     0
102
RTVSPropertyOp53
 70
     1
102
RTVSPropertyOp54
 70
     1
102
RTVSPropertyOp55
 70
     1
102
RTVSPropertyOp56
 70
     1
102
RTVSPropertyOp57
 70
     1
102
RTVSPropertyOp58
 70
     1
102
RTVSPropertyOp59
 70
     1
102
RTVSPropertyOp60
 70
     1
102
RTVSPropertyOp61
 70
     1
102
RTVSPropertyOp62
 70
     1
  0
XRECORD
  5
364
102
{ACAD_REACTORS
330
363
102
}
330
363
100
AcDbXrecord
280
     1
102
RTVSPost2010Prop28
280
     0
102
RTVSPost2010PropOp28
 70
     1
102
RTVSPost2010Prop29
280
     1
102
RTVSPost2010PropOp29
 70
     1
102
RTVSPost2010Prop30
280
     1
102
RTVSPost2010PropOp30
 70
     1
102
RTVSPost2010Prop31
280
     0
102
RTVSPost2010PropOp31
 70
     1
102
RTVSPost2010Prop32
280
     0
102
RTVSPost2010PropOp32
 70
     1
102
RTVSPost2010Prop33
280
     0
102
RTVSPost2010PropOp33
 70
     1
102
RTVSPost2010Prop34
280
     0
102
RTVSPost2010PropOp34
 70
     1
102
RTVSPost2010Prop35
280
     0
102
RTVSPost2010PropOp35
 70
     1
102
RTVSPost2010Prop36
280
     0
102
RTVSPost2010PropOp36
 70
     1
102
RTVSPost2010Prop37
 90
       50
102
RTVSPost2010PropOp37
 70
     1
102
RTVSPost2010Prop38
140
0.0
102
RTVSPost2010PropOp38
 70
     1
102
RTVSPost2010Prop39
140
1.0
102
RTVSPost2010PropOp39
 70
     1
102
RTVSPost2010Prop40
 90
        0
102
RTVSPost2010PropOp40
 70
     1
102
RTVSPost2010Prop41ColorIndex
 90
       18
102
RTVSPost2010Prop41ColorRGB
 90
        0
102
RTVSPost2010PropOp41
 70
     1
102
RTVSPost2010Prop42
 90
       50
102
RTVSPost2010PropOp42
 70
     1
102
RTVSPost2010Prop43
 90
        3
102
RTVSPost2010PropOp43
 70
     1
102
RTVSPost2010Prop44ColorIndex
 90
        5
102
RTVSPost2010Prop44ColorRGB
 90
      255
102
RTVSPost2010PropOp44
 70
     1
102
RTVSPost2010Prop45
280
     0
102
RTVSPost2010PropOp45
 70
     1
102
RTVSPost2010Prop46
 90
       50
102
RTVSPost2010PropOp46
 70
     1
102
RTVSPost2010Prop47
 90
       50
102
RTVSPost2010PropOp47
 70
     1
102
RTVSPost2010Prop48
 90
       50
102
RTVSPost2010PropOp48
 70
     1
102
RTVSPost2010Prop49
280
     0
102
RTVSPost2010PropOp49
 70
     1
102
RTVSPost2010Prop50
 90
       50
102
RTVSPost2010PropOp50
 70
     1
102
RTVSPost2010Prop51ColorIndex
 90
      256
102
RTVSPost2010Prop51ColorRGB
 90
-16777216
102
RTVSPost2010PropOp51
 70
     0
102
RTVSPost2010Prop52
140
1.0
102
RTVSPost2010PropOp52
 70
     0
102
RTVSPost2010Prop53
 90
        2
102
RTVSPost2010PropOp53
 70
     1
102
RTVSPost2010Prop54
  1
strokes_ogs.tif
102
RTVSPost2010PropOp54
 70
     1
102
RTVSPost2010Prop55
280
     0
102
RTVSPost2010PropOp55
 70
     1
102
RTVSPost2010Prop56
140
1.0
102
RTVSPost2010PropOp56
 70
     1
102
RTVSPost2010Prop57
140
1.0
102
RTVSPost2010PropOp57
 70
     1
102
RTVSPropertyOp0
 70
     1
102
RTVSPropertyOp1
 70
     1
102
RTVSPropertyOp2
 70
     1
102
RTVSPropertyOp3
 70
     1
102
RTVSPropertyOp4
 70
     1
102
RTVSPropertyOp5
 70
     1
102
RTVSPropertyOp6
 70
     1
102
RTVSPropertyOp7
 70
     1
102
RTVSPropertyOp8
 70
     1
102
RTVSPropertyOp9
 70
     1
102
RTVSPropertyOp10
 70
     1
102
RTVSPropertyOp11
 70
     1
102
RTVSPropertyOp12
 70
     1
102
RTVSPropertyOp13
 70
     1
102
RTVSPropertyOp14
 70
     1
102
RTVSPropertyOp15
 70
     1
102
RTVSPropertyOp16
 70
     1
102
RTVSPropertyOp17
 70
     1
102
RTVSPropertyOp18
 70
     1
102
RTVSPropertyOp19
 70
     1
102
RTVSPropertyOp20
 70
     1
102
RTVSPropertyOp21
 70
     1
102
RTVSPropertyOp22
 70
     1
102
RTVSPropertyOp23
 70
     1
102
RTVSPropertyOp24
 70
     1
102
RTVSPropertyOp25
 70
     1
102
RTVSPropertyOp26
 70
     1
102
RTVSPropertyOp27
 70
     1
102
RTVSPropertyOp28
 70
     1
102
RTVSPropertyOp29
 70
     1
102
RTVSPropertyOp30
 70
     1
102
RTVSPropertyOp31
 70
     1
102
RTVSPropertyOp32
 70
     1
102
RTVSPropertyOp33
 70
     1
102
RTVSPropertyOp34
 70
     1
102
RTVSPropertyOp35
 70
     1
102
RTVSPropertyOp36
 70
     1
102
RTVSPropertyOp37
 70
     1
102
RTVSPropertyOp38
 70
     1
102
RTVSPropertyOp39
 70
     1
102
RTVSPropertyOp40
 70
     1
102
RTVSPropertyOp41
 70
     1
102
RTVSPropertyOp42
 70
     1
102
RTVSPropertyOp43
 70
     1
102
RTVSPropertyOp44
 70
     1
102
RTVSPropertyOp45
 70
     1
102
RTVSPropertyOp46
 70
     1
102
RTVSPropertyOp47
 70
     1
102
RTVSPropertyOp48
 70
     1
102
RTVSPropertyOp49
 70
     1
102
RTVSPropertyOp50
 70
     1
102
RTVSPropertyOp51
 70
     0
102
RTVSPropertyOp52
 70
     0
102
RTVSPropertyOp53
 70
     1
102
RTVSPropertyOp54
 70
     1
102
RTVSPropertyOp55
 70
     1
102
RTVSPropertyOp56
 70
     1
102
RTVSPropertyOp57
 70
     1
102
RTVSPropertyOp58
 70
     1
102
RTVSPropertyOp59
 70
     1
102
RTVSPropertyOp60
 70
     1
102
RTVSPropertyOp61
 70
     1
102
RTVSPropertyOp62
 70
     1
  0
XRECORD
  5
36C
102
{ACAD_REACTORS
330
36B
102
}
330
36B
100
AcDbXrecord
280
     1
102
RTVSPost2010Prop28
280
     0
102
RTVSPost2010PropOp28
 70
     1
102
RTVSPost2010Prop29
280
     1
102
RTVSPost2010PropOp29
 70
     1
102
RTVSPost2010Prop30
280
     1
102
RTVSPost2010PropOp30
 70
     1
102
RTVSPost2010Prop31
280
     0
102
RTVSPost2010PropOp31
 70
     1
102
RTVSPost2010Prop32
280
     0
102
RTVSPost2010PropOp32
 70
     1
102
RTVSPost2010Prop33
280
     0
102
RTVSPost2010PropOp33
 70
     1
102
RTVSPost2010Prop34
280
     0
102
RTVSPost2010PropOp34
 70
     1
102
RTVSPost2010Prop35
280
     0
102
RTVSPost2010PropOp35
 70
     1
102
RTVSPost2010Prop36
280
     0
102
RTVSPost2010PropOp36
 70
     1
102
RTVSPost2010Prop37
 90
       50
102
RTVSPost2010PropOp37
 70
     1
102
RTVSPost2010Prop38
140
0.0
102
RTVSPost2010PropOp38
 70
     1
102
RTVSPost2010Prop39
140
1.0
102
RTVSPost2010PropOp39
 70
     1
102
RTVSPost2010Prop40
 90
        0
102
RTVSPost2010PropOp40
 70
     1
102
RTVSPost2010Prop41ColorIndex
 90
       18
102
RTVSPost2010Prop41ColorRGB
 90
        0
102
RTVSPost2010PropOp41
 70
     1
102
RTVSPost2010Prop42
 90
       50
102
RTVSPost2010PropOp42
 70
     1
102
RTVSPost2010Prop43
 90
        3
102
RTVSPost2010PropOp43
 70
     1
102
RTVSPost2010Prop44ColorIndex
 90
        5
102
RTVSPost2010Prop44ColorRGB
 90
      255
102
RTVSPost2010PropOp44
 70
     1
102
RTVSPost2010Prop45
280
     0
102
RTVSPost2010PropOp45
 70
     1
102
RTVSPost2010Prop46
 90
       50
102
RTVSPost2010PropOp46
 70
     1
102
RTVSPost2010Prop47
 90
       50
102
RTVSPost2010PropOp47
 70
     1
102
RTVSPost2010Prop48
 90
       50
102
RTVSPost2010PropOp48
 70
     1
102
RTVSPost2010Prop49
280
     0
102
RTVSPost2010PropOp49
 70
     1
102
RTVSPost2010Prop50
 90
       50
102
RTVSPost2010PropOp50
 70
     1
102
RTVSPost2010Prop51ColorIndex
 90
      256
102
RTVSPost2010Prop51ColorRGB
 90
-16777216
102
RTVSPost2010PropOp51
 70
     0
102
RTVSPost2010Prop52
140
1.0
102
RTVSPost2010PropOp52
 70
     0
102
RTVSPost2010Prop53
 90
        2
102
RTVSPost2010PropOp53
 70
     1
102
RTVSPost2010Prop54
  1
strokes_ogs.tif
102
RTVSPost2010PropOp54
 70
     1
102
RTVSPost2010Prop55
280
     0
102
RTVSPost2010PropOp55
 70
     1
102
RTVSPost2010Prop56
140
1.0
102
RTVSPost2010PropOp56
 70
     1
102
RTVSPost2010Prop57
140
1.0
102
RTVSPost2010PropOp57
 70
     1
102
RTVSPropertyOp0
 70
     1
102
RTVSPropertyOp1
 70
     1
102
RTVSPropertyOp2
 70
     1
102
RTVSPropertyOp3
 70
     1
102
RTVSPropertyOp4
 70
     1
102
RTVSPropertyOp5
 70
     1
102
RTVSPropertyOp6
 70
     1
102
RTVSPropertyOp7
 70
     1
102
RTVSPropertyOp8
 70
     1
102
RTVSPropertyOp9
 70
     1
102
RTVSPropertyOp10
 70
     1
102
RTVSPropertyOp11
 70
     1
102
RTVSPropertyOp12
 70
     1
102
RTVSPropertyOp13
 70
     1
102
RTVSPropertyOp14
 70
     1
102
RTVSPropertyOp15
 70
     1
102
RTVSPropertyOp16
 70
     1
102
RTVSPropertyOp17
 70
     1
102
RTVSPropertyOp18
 70
     1
102
RTVSPropertyOp19
 70
     1
102
RTVSPropertyOp20
 70
     1
102
RTVSPropertyOp21
 70
     1
102
RTVSPropertyOp22
 70
     1
102
RTVSPropertyOp23
 70
     1
102
RTVSPropertyOp24
 70
     1
102
RTVSPropertyOp25
 70
     1
102
RTVSPropertyOp26
 70
     1
102
RTVSPropertyOp27
 70
     1
102
RTVSPropertyOp28
 70
     1
102
RTVSPropertyOp29
 70
     1
102
RTVSPropertyOp30
 70
     1
102
RTVSPropertyOp31
 70
     1
102
RTVSPropertyOp32
 70
     1
102
RTVSPropertyOp33
 70
     1
102
RTVSPropertyOp34
 70
     1
102
RTVSPropertyOp35
 70
     1
102
RTVSPropertyOp36
 70
     1
102
RTVSPropertyOp37
 70
     1
102
RTVSPropertyOp38
 70
     1
102
RTVSPropertyOp39
 70
     1
102
RTVSPropertyOp40
 70
     1
102
RTVSPropertyOp41
 70
     1
102
RTVSPropertyOp42
 70
     1
102
RTVSPropertyOp43
 70
     1
102
RTVSPropertyOp44
 70
     1
102
RTVSPropertyOp45
 70
     1
102
RTVSPropertyOp46
 70
     1
102
RTVSPropertyOp47
 70
     1
102
RTVSPropertyOp48
 70
     1
102
RTVSPropertyOp49
 70
     1
102
RTVSPropertyOp50
 70
     1
102
RTVSPropertyOp51
 70
     0
102
RTVSPropertyOp52
 70
     0
102
RTVSPropertyOp53
 70
     1
102
RTVSPropertyOp54
 70
     1
102
RTVSPropertyOp55
 70
     1
102
RTVSPropertyOp56
 70
     1
102
RTVSPropertyOp57
 70
     1
102
RTVSPropertyOp58
 70
     1
102
RTVSPropertyOp59
 70
     1
102
RTVSPropertyOp60
 70
     1
102
RTVSPropertyOp61
 70
     1
102
RTVSPropertyOp62
 70
     1
  0
XRECORD
  5
360
102
{ACAD_REACTORS
330
35F
102
}
330
35F
100
AcDbXrecord
280
     1
102
RTVSPost2010Prop28
280
     0
102
RTVSPost2010PropOp28
 70
     1
102
RTVSPost2010Prop29
280
     1
102
RTVSPost2010PropOp29
 70
     1
102
RTVSPost2010Prop30
280
     1
102
RTVSPost2010PropOp30
 70
     1
102
RTVSPost2010Prop31
280
     0
102
RTVSPost2010PropOp31
 70
     1
102
RTVSPost2010Prop32
280
     0
102
RTVSPost2010PropOp32
 70
     1
102
RTVSPost2010Prop33
280
     0
102
RTVSPost2010PropOp33
 70
     1
102
RTVSPost2010Prop34
280
     0
102
RTVSPost2010PropOp34
 70
     1
102
RTVSPost2010Prop35
280
     0
102
RTVSPost2010PropOp35
 70
     1
102
RTVSPost2010Prop36
280
     0
102
RTVSPost2010PropOp36
 70
     1
102
RTVSPost2010Prop37
 90
       50
102
RTVSPost2010PropOp37
 70
     1
102
RTVSPost2010Prop38
140
0.0
102
RTVSPost2010PropOp38
 70
     1
102
RTVSPost2010Prop39
140
1.0
102
RTVSPost2010PropOp39
 70
     1
102
RTVSPost2010Prop40
 90
        0
102
RTVSPost2010PropOp40
 70
     1
102
RTVSPost2010Prop41ColorIndex
 90
       18
102
RTVSPost2010Prop41ColorRGB
 90
        0
102
RTVSPost2010PropOp41
 70
     1
102
RTVSPost2010Prop42
 90
       50
102
RTVSPost2010PropOp42
 70
     1
102
RTVSPost2010Prop43
 90
        3
102
RTVSPost2010PropOp43
 70
     1
102
RTVSPost2010Prop44ColorIndex
 90
        5
102
RTVSPost2010Prop44ColorRGB
 90
      255
102
RTVSPost2010PropOp44
 70
     1
102
RTVSPost2010Prop45
280
     0
102
RTVSPost2010PropOp45
 70
     1
102
RTVSPost2010Prop46
 90
       50
102
RTVSPost2010PropOp46
 70
     1
102
RTVSPost2010Prop47
 90
       50
102
RTVSPost2010PropOp47
 70
     1
102
RTVSPost2010Prop48
 90
       50
102
RTVSPost2010PropOp48
 70
     1
102
RTVSPost2010Prop49
280
     0
102
RTVSPost2010PropOp49
 70
     1
102
RTVSPost2010Prop50
 90
       50
102
RTVSPost2010PropOp50
 70
     1
102
RTVSPost2010Prop51ColorIndex
 90
      256
102
RTVSPost2010Prop51ColorRGB
 90
-16777216
102
RTVSPost2010PropOp51
 70
     0
102
RTVSPost2010Prop52
140
1.0
102
RTVSPost2010PropOp52
 70
     0
102
RTVSPost2010Prop53
 90
        2
102
RTVSPost2010PropOp53
 70
     1
102
RTVSPost2010Prop54
  1
strokes_ogs.tif
102
RTVSPost2010PropOp54
 70
     1
102
RTVSPost2010Prop55
280
     0
102
RTVSPost2010PropOp55
 70
     1
102
RTVSPost2010Prop56
140
1.0
102
RTVSPost2010PropOp56
 70
     1
102
RTVSPost2010Prop57
140
1.0
102
RTVSPost2010PropOp57
 70
     1
102
RTVSPropertyOp0
 70
     1
102
RTVSPropertyOp1
 70
     1
102
RTVSPropertyOp2
 70
     1
102
RTVSPropertyOp3
 70
     1
102
RTVSPropertyOp4
 70
     1
102
RTVSPropertyOp5
 70
     1
102
RTVSPropertyOp6
 70
     1
102
RTVSPropertyOp7
 70
     1
102
RTVSPropertyOp8
 70
     1
102
RTVSPropertyOp9
 70
     1
102
RTVSPropertyOp10
 70
     1
102
RTVSPropertyOp11
 70
     1
102
RTVSPropertyOp12
 70
     1
102
RTVSPropertyOp13
 70
     1
102
RTVSPropertyOp14
 70
     1
102
RTVSPropertyOp15
 70
     1
102
RTVSPropertyOp16
 70
     1
102
RTVSPropertyOp17
 70
     1
102
RTVSPropertyOp18
 70
     1
102
RTVSPropertyOp19
 70
     1
102
RTVSPropertyOp20
 70
     1
102
RTVSPropertyOp21
 70
     1
102
RTVSPropertyOp22
 70
     1
102
RTVSPropertyOp23
 70
     1
102
RTVSPropertyOp24
 70
     1
102
RTVSPropertyOp25
 70
     1
102
RTVSPropertyOp26
 70
     1
102
RTVSPropertyOp27
 70
     1
102
RTVSPropertyOp28
 70
     1
102
RTVSPropertyOp29
 70
     1
102
RTVSPropertyOp30
 70
     1
102
RTVSPropertyOp31
 70
     1
102
RTVSPropertyOp32
 70
     1
102
RTVSPropertyOp33
 70
     1
102
RTVSPropertyOp34
 70
     1
102
RTVSPropertyOp35
 70
     1
102
RTVSPropertyOp36
 70
     1
102
RTVSPropertyOp37
 70
     1
102
RTVSPropertyOp38
 70
     1
102
RTVSPropertyOp39
 70
     1
102
RTVSPropertyOp40
 70
     1
102
RTVSPropertyOp41
 70
     1
102
RTVSPropertyOp42
 70
     1
102
RTVSPropertyOp43
 70
     1
102
RTVSPropertyOp44
 70
     1
102
RTVSPropertyOp45
 70
     1
102
RTVSPropertyOp46
 70
     1
102
RTVSPropertyOp47
 70
     1
102
RTVSPropertyOp48
 70
     1
102
RTVSPropertyOp49
 70
     1
102
RTVSPropertyOp50
 70
     1
102
RTVSPropertyOp51
 70
     0
102
RTVSPropertyOp52
 70
     0
102
RTVSPropertyOp53
 70
     1
102
RTVSPropertyOp54
 70
     1
102
RTVSPropertyOp55
 70
     1
102
RTVSPropertyOp56
 70
     1
102
RTVSPropertyOp57
 70
     1
102
RTVSPropertyOp58
 70
     1
102
RTVSPropertyOp59
 70
     1
102
RTVSPropertyOp60
 70
     1
102
RTVSPropertyOp61
 70
     1
102
RTVSPropertyOp62
 70
     1
  0
XRECORD
  5
362
102
{ACAD_REACTORS
330
361
102
}
330
361
100
AcDbXrecord
280
     1
102
RTVSPost2010Prop28
280
     0
102
RTVSPost2010PropOp28
 70
     1
102
RTVSPost2010Prop29
280
     1
102
RTVSPost2010PropOp29
 70
     1
102
RTVSPost2010Prop30
280
     1
102
RTVSPost2010PropOp30
 70
     1
102
RTVSPost2010Prop31
280
     0
102
RTVSPost2010PropOp31
 70
     1
102
RTVSPost2010Prop32
280
     0
102
RTVSPost2010PropOp32
 70
     1
102
RTVSPost2010Prop33
280
     0
102
RTVSPost2010PropOp33
 70
     1
102
RTVSPost2010Prop34
280
     0
102
RTVSPost2010PropOp34
 70
     1
102
RTVSPost2010Prop35
280
     0
102
RTVSPost2010PropOp35
 70
     1
102
RTVSPost2010Prop36
280
     0
102
RTVSPost2010PropOp36
 70
     1
102
RTVSPost2010Prop37
 90
       50
102
RTVSPost2010PropOp37
 70
     1
102
RTVSPost2010Prop38
140
0.0
102
RTVSPost2010PropOp38
 70
     1
102
RTVSPost2010Prop39
140
1.0
102
RTVSPost2010PropOp39
 70
     1
102
RTVSPost2010Prop40
 90
        0
102
RTVSPost2010PropOp40
 70
     1
102
RTVSPost2010Prop41ColorIndex
 90
       18
102
RTVSPost2010Prop41ColorRGB
 90
        0
102
RTVSPost2010PropOp41
 70
     1
102
RTVSPost2010Prop42
 90
       50
102
RTVSPost2010PropOp42
 70
     1
102
RTVSPost2010Prop43
 90
        3
102
RTVSPost2010PropOp43
 70
     1
102
RTVSPost2010Prop44ColorIndex
 90
        5
102
RTVSPost2010Prop44ColorRGB
 90
      255
102
RTVSPost2010PropOp44
 70
     1
102
RTVSPost2010Prop45
280
     0
102
RTVSPost2010PropOp45
 70
     1
102
RTVSPost2010Prop46
 90
       50
102
RTVSPost2010PropOp46
 70
     1
102
RTVSPost2010Prop47
 90
       50
102
RTVSPost2010PropOp47
 70
     1
102
RTVSPost2010Prop48
 90
       50
102
RTVSPost2010PropOp48
 70
     1
102
RTVSPost2010Prop49
280
     0
102
RTVSPost2010PropOp49
 70
     1
102
RTVSPost2010Prop50
 90
       50
102
RTVSPost2010PropOp50
 70
     1
102
RTVSPost2010Prop51ColorIndex
 90
      256
102
RTVSPost2010Prop51ColorRGB
 90
-16777216
102
RTVSPost2010PropOp51
 70
     0
102
RTVSPost2010Prop52
140
1.0
102
RTVSPost2010PropOp52
 70
     0
102
RTVSPost2010Prop53
 90
        2
102
RTVSPost2010PropOp53
 70
     1
102
RTVSPost2010Prop54
  1
strokes_ogs.tif
102
RTVSPost2010PropOp54
 70
     1
102
RTVSPost2010Prop55
280
     0
102
RTVSPost2010PropOp55
 70
     1
102
RTVSPost2010Prop56
140
1.0
102
RTVSPost2010PropOp56
 70
     1
102
RTVSPost2010Prop57
140
1.0
102
RTVSPost2010PropOp57
 70
     1
102
RTVSPropertyOp0
 70
     1
102
RTVSPropertyOp1
 70
     1
102
RTVSPropertyOp2
 70
     1
102
RTVSPropertyOp3
 70
     1
102
RTVSPropertyOp4
 70
     1
102
RTVSPropertyOp5
 70
     1
102
RTVSPropertyOp6
 70
     1
102
RTVSPropertyOp7
 70
     1
102
RTVSPropertyOp8
 70
     1
102
RTVSPropertyOp9
 70
     1
102
RTVSPropertyOp10
 70
     1
102
RTVSPropertyOp11
 70
     1
102
RTVSPropertyOp12
 70
     1
102
RTVSPropertyOp13
 70
     1
102
RTVSPropertyOp14
 70
     1
102
RTVSPropertyOp15
 70
     1
102
RTVSPropertyOp16
 70
     1
102
RTVSPropertyOp17
 70
     1
102
RTVSPropertyOp18
 70
     1
102
RTVSPropertyOp19
 70
     1
102
RTVSPropertyOp20
 70
     1
102
RTVSPropertyOp21
 70
     1
102
RTVSPropertyOp22
 70
     1
102
RTVSPropertyOp23
 70
     1
102
RTVSPropertyOp24
 70
     1
102
RTVSPropertyOp25
 70
     1
102
RTVSPropertyOp26
 70
     1
102
RTVSPropertyOp27
 70
     1
102
RTVSPropertyOp28
 70
     1
102
RTVSPropertyOp29
 70
     1
102
RTVSPropertyOp30
 70
     1
102
RTVSPropertyOp31
 70
     1
102
RTVSPropertyOp32
 70
     1
102
RTVSPropertyOp33
 70
     1
102
RTVSPropertyOp34
 70
     1
102
RTVSPropertyOp35
 70
     1
102
RTVSPropertyOp36
 70
     1
102
RTVSPropertyOp37
 70
     1
102
RTVSPropertyOp38
 70
     1
102
RTVSPropertyOp39
 70
     1
102
RTVSPropertyOp40
 70
     1
102
RTVSPropertyOp41
 70
     1
102
RTVSPropertyOp42
 70
     1
102
RTVSPropertyOp43
 70
     1
102
RTVSPropertyOp44
 70
     1
102
RTVSPropertyOp45
 70
     1
102
RTVSPropertyOp46
 70
     1
102
RTVSPropertyOp47
 70
     1
102
RTVSPropertyOp48
 70
     1
102
RTVSPropertyOp49
 70
     1
102
RTVSPropertyOp50
 70
     1
102
RTVSPropertyOp51
 70
     0
102
RTVSPropertyOp52
 70
     0
102
RTVSPropertyOp53
 70
     1
102
RTVSPropertyOp54
 70
     1
102
RTVSPropertyOp55
 70
     1
102
RTVSPropertyOp56
 70
     1
102
RTVSPropertyOp57
 70
     1
102
RTVSPropertyOp58
 70
     1
102
RTVSPropertyOp59
 70
     1
102
RTVSPropertyOp60
 70
     1
102
RTVSPropertyOp61
 70
     1
102
RTVSPropertyOp62
 70
     1
  0
XRECORD
  5
372
102
{ACAD_REACTORS
330
371
102
}
330
371
100
AcDbXrecord
280
     1
102
RTVSPost2010Prop28
280
     0
102
RTVSPost2010PropOp28
 70
     0
102
RTVSPost2010Prop29
280
     1
102
RTVSPost2010PropOp29
 70
     0
102
RTVSPost2010Prop30
280
     1
102
RTVSPost2010PropOp30
 70
     0
102
RTVSPost2010Prop31
280
     0
102
RTVSPost2010PropOp31
 70
     0
102
RTVSPost2010Prop32
280
     0
102
RTVSPost2010PropOp32
 70
     0
102
RTVSPost2010Prop33
280
     0
102
RTVSPost2010PropOp33
 70
     0
102
RTVSPost2010Prop34
280
     0
102
RTVSPost2010PropOp34
 70
     0
102
RTVSPost2010Prop35
280
     0
102
RTVSPost2010PropOp35
 70
     0
102
RTVSPost2010Prop36
280
     0
102
RTVSPost2010PropOp36
 70
     0
102
RTVSPost2010Prop37
 90
       50
102
RTVSPost2010PropOp37
 70
     0
102
RTVSPost2010Prop38
140
0.0
102
RTVSPost2010PropOp38
 70
     0
102
RTVSPost2010Prop39
140
1.0
102
RTVSPost2010PropOp39
 70
     0
102
RTVSPost2010Prop40
 90
        0
102
RTVSPost2010PropOp40
 70
     0
102
RTVSPost2010Prop41ColorIndex
 90
       18
102
RTVSPost2010Prop41ColorRGB
 90
        0
102
RTVSPost2010PropOp41
 70
     0
102
RTVSPost2010Prop42
 90
       50
102
RTVSPost2010PropOp42
 70
     0
102
RTVSPost2010Prop43
 90
        3
102
RTVSPost2010PropOp43
 70
     0
102
RTVSPost2010Prop44ColorIndex
 90
        5
102
RTVSPost2010Prop44ColorRGB
 90
      255
102
RTVSPost2010PropOp44
 70
     0
102
RTVSPost2010Prop45
280
     0
102
RTVSPost2010PropOp45
 70
     0
102
RTVSPost2010Prop46
 90
       50
102
RTVSPost2010PropOp46
 70
     0
102
RTVSPost2010Prop47
 90
       50
102
RTVSPost2010PropOp47
 70
     0
102
RTVSPost2010Prop48
 90
       50
102
RTVSPost2010PropOp48
 70
     0
102
RTVSPost2010Prop49
280
     0
102
RTVSPost2010PropOp49
 70
     0
102
RTVSPost2010Prop50
 90
       50
102
RTVSPost2010PropOp50
 70
     0
102
RTVSPost2010Prop51ColorIndex
 90
      256
102
RTVSPost2010Prop51ColorRGB
 90
-16777216
102
RTVSPost2010PropOp51
 70
     0
102
RTVSPost2010Prop52
140
1.0
102
RTVSPost2010PropOp52
 70
     0
102
RTVSPost2010Prop53
 90
        2
102
RTVSPost2010PropOp53
 70
     0
102
RTVSPost2010Prop54
  1
strokes_ogs.tif
102
RTVSPost2010PropOp54
 70
     0
102
RTVSPost2010Prop55
280
     0
102
RTVSPost2010PropOp55
 70
     0
102
RTVSPost2010Prop56
140
1.0
102
RTVSPost2010PropOp56
 70
     0
102
RTVSPost2010Prop57
140
1.0
102
RTVSPost2010PropOp57
 70
     0
102
RTVSPropertyOp0
 70
     0
102
RTVSPropertyOp1
 70
     0
102
RTVSPropertyOp2
 70
     0
102
RTVSPropertyOp3
 70
     0
102
RTVSPropertyOp4
 70
     0
102
RTVSPropertyOp5
 70
     0
102
RTVSPropertyOp6
 70
     0
102
RTVSPropertyOp7
 70
     0
102
RTVSPropertyOp8
 70
     0
102
RTVSPropertyOp9
 70
     0
102
RTVSPropertyOp10
 70
     0
102
RTVSPropertyOp11
 70
     0
102
RTVSPropertyOp12
 70
     0
102
RTVSPropertyOp13
 70
     0
102
RTVSPropertyOp14
 70
     2
102
RTVSPropertyOp15
 70
     0
102
RTVSPropertyOp16
 70
     0
102
RTVSPropertyOp17
 70
     0
102
RTVSPropertyOp18
 70
     0
102
RTVSPropertyOp19
 70
     0
102
RTVSPropertyOp20
 70
     0
102
RTVSPropertyOp21
 70
     0
102
RTVSPropertyOp22
 70
     0
102
RTVSPropertyOp23
 70
     0
102
RTVSPropertyOp24
 70
     0
102
RTVSPropertyOp25
 70
     0
102
RTVSPropertyOp26
 70
     0
102
RTVSPropertyOp27
 70
     0
102
RTVSPropertyOp28
 70
     0
102
RTVSPropertyOp29
 70
     0
102
RTVSPropertyOp30
 70
     0
102
RTVSPropertyOp31
 70
     0
102
RTVSPropertyOp32
 70
     0
102
RTVSPropertyOp33
 70
     0
102
RTVSPropertyOp34
 70
     0
102
RTVSPropertyOp35
 70
     0
102
RTVSPropertyOp36
 70
     0
102
RTVSPropertyOp37
 70
     0
102
RTVSPropertyOp38
 70
     0
102
RTVSPropertyOp39
 70
     0
102
RTVSPropertyOp40
 70
     0
102
RTVSPropertyOp41
 70
     0
102
RTVSPropertyOp42
 70
     0
102
RTVSPropertyOp43
 70
     0
102
RTVSPropertyOp44
 70
     0
102
RTVSPropertyOp45
 70
     0
102
RTVSPropertyOp46
 70
     0
102
RTVSPropertyOp47
 70
     0
102
RTVSPropertyOp48
 70
     0
102
RTVSPropertyOp49
 70
     0
102
RTVSPropertyOp50
 70
     0
102
RTVSPropertyOp51
 70
     0
102
RTVSPropertyOp52
 70
     0
102
RTVSPropertyOp53
 70
     0
102
RTVSPropertyOp54
 70
     0
102
RTVSPropertyOp55
 70
     0
102
RTVSPropertyOp56
 70
     0
102
RTVSPropertyOp57
 70
     0
102
RTVSPropertyOp58
 70
     1
102
RTVSPropertyOp59
 70
     1
102
RTVSPropertyOp60
 70
     1
102
RTVSPropertyOp61
 70
     1
102
RTVSPropertyOp62
 70
     1
  0
XRECORD
  5
36A
102
{ACAD_REACTORS
330
369
102
}
330
369
100
AcDbXrecord
280
     1
102
RTVSPost2010Prop28
280
     0
102
RTVSPost2010PropOp28
 70
     1
102
RTVSPost2010Prop29
280
     1
102
RTVSPost2010PropOp29
 70
     1
102
RTVSPost2010Prop30
280
     1
102
RTVSPost2010PropOp30
 70
     1
102
RTVSPost2010Prop31
280
     0
102
RTVSPost2010PropOp31
 70
     1
102
RTVSPost2010Prop32
280
     0
102
RTVSPost2010PropOp32
 70
     1
102
RTVSPost2010Prop33
280
     0
102
RTVSPost2010PropOp33
 70
     1
102
RTVSPost2010Prop34
280
     0
102
RTVSPost2010PropOp34
 70
     1
102
RTVSPost2010Prop35
280
     0
102
RTVSPost2010PropOp35
 70
     1
102
RTVSPost2010Prop36
280
     0
102
RTVSPost2010PropOp36
 70
     1
102
RTVSPost2010Prop37
 90
       50
102
RTVSPost2010PropOp37
 70
     1
102
RTVSPost2010Prop38
140
0.0
102
RTVSPost2010PropOp38
 70
     1
102
RTVSPost2010Prop39
140
1.0
102
RTVSPost2010PropOp39
 70
     1
102
RTVSPost2010Prop40
 90
        0
102
RTVSPost2010PropOp40
 70
     1
102
RTVSPost2010Prop41ColorIndex
 90
       18
102
RTVSPost2010Prop41ColorRGB
 90
        0
102
RTVSPost2010PropOp41
 70
     1
102
RTVSPost2010Prop42
 90
       50
102
RTVSPost2010PropOp42
 70
     1
102
RTVSPost2010Prop43
 90
        3
102
RTVSPost2010PropOp43
 70
     1
102
RTVSPost2010Prop44ColorIndex
 90
        5
102
RTVSPost2010Prop44ColorRGB
 90
      255
102
RTVSPost2010PropOp44
 70
     1
102
RTVSPost2010Prop45
280
     0
102
RTVSPost2010PropOp45
 70
     1
102
RTVSPost2010Prop46
 90
       50
102
RTVSPost2010PropOp46
 70
     1
102
RTVSPost2010Prop47
 90
       50
102
RTVSPost2010PropOp47
 70
     1
102
RTVSPost2010Prop48
 90
       50
102
RTVSPost2010PropOp48
 70
     1
102
RTVSPost2010Prop49
280
     0
102
RTVSPost2010PropOp49
 70
     1
102
RTVSPost2010Prop50
 90
       50
102
RTVSPost2010PropOp50
 70
     1
102
RTVSPost2010Prop51ColorIndex
 90
      256
102
RTVSPost2010Prop51ColorRGB
 90
-16777216
102
RTVSPost2010PropOp51
 70
     0
102
RTVSPost2010Prop52
140
1.0
102
RTVSPost2010PropOp52
 70
     0
102
RTVSPost2010Prop53
 90
        2
102
RTVSPost2010PropOp53
 70
     1
102
RTVSPost2010Prop54
  1
strokes_ogs.tif
102
RTVSPost2010PropOp54
 70
     1
102
RTVSPost2010Prop55
280
     0
102
RTVSPost2010PropOp55
 70
     1
102
RTVSPost2010Prop56
140
1.0
102
RTVSPost2010PropOp56
 70
     1
102
RTVSPost2010Prop57
140
1.0
102
RTVSPost2010PropOp57
 70
     1
102
RTVSPropertyOp0
 70
     1
102
RTVSPropertyOp1
 70
     1
102
RTVSPropertyOp2
 70
     1
102
RTVSPropertyOp3
 70
     1
102
RTVSPropertyOp4
 70
     1
102
RTVSPropertyOp5
 70
     1
102
RTVSPropertyOp6
 70
     1
102
RTVSPropertyOp7
 70
     1
102
RTVSPropertyOp8
 70
     1
102
RTVSPropertyOp9
 70
     1
102
RTVSPropertyOp10
 70
     1
102
RTVSPropertyOp11
 70
     1
102
RTVSPropertyOp12
 70
     1
102
RTVSPropertyOp13
 70
     1
102
RTVSPropertyOp14
 70
     1
102
RTVSPropertyOp15
 70
     1
102
RTVSPropertyOp16
 70
     1
102
RTVSPropertyOp17
 70
     1
102
RTVSPropertyOp18
 70
     1
102
RTVSPropertyOp19
 70
     1
102
RTVSPropertyOp20
 70
     1
102
RTVSPropertyOp21
 70
     1
102
RTVSPropertyOp22
 70
     1
102
RTVSPropertyOp23
 70
     1
102
RTVSPropertyOp24
 70
     1
102
RTVSPropertyOp25
 70
     1
102
RTVSPropertyOp26
 70
     1
102
RTVSPropertyOp27
 70
     1
102
RTVSPropertyOp28
 70
     1
102
RTVSPropertyOp29
 70
     1
102
RTVSPropertyOp30
 70
     1
102
RTVSPropertyOp31
 70
     1
102
RTVSPropertyOp32
 70
     1
102
RTVSPropertyOp33
 70
     1
102
RTVSPropertyOp34
 70
     1
102
RTVSPropertyOp35
 70
     1
102
RTVSPropertyOp36
 70
     1
102
RTVSPropertyOp37
 70
     1
102
RTVSPropertyOp38
 70
     1
102
RTVSPropertyOp39
 70
     1
102
RTVSPropertyOp40
 70
     1
102
RTVSPropertyOp41
 70
     1
102
RTVSPropertyOp42
 70
     1
102
RTVSPropertyOp43
 70
     1
102
RTVSPropertyOp44
 70
     1
102
RTVSPropertyOp45
 70
     1
102
RTVSPropertyOp46
 70
     1
102
RTVSPropertyOp47
 70
     1
102
RTVSPropertyOp48
 70
     1
102
RTVSPropertyOp49
 70
     1
102
RTVSPropertyOp50
 70
     1
102
RTVSPropertyOp51
 70
     0
102
RTVSPropertyOp52
 70
     0
102
RTVSPropertyOp53
 70
     1
102
RTVSPropertyOp54
 70
     1
102
RTVSPropertyOp55
 70
     1
102
RTVSPropertyOp56
 70
     1
102
RTVSPropertyOp57
 70
     1
102
RTVSPropertyOp58
 70
     1
102
RTVSPropertyOp59
 70
     1
102
RTVSPropertyOp60
 70
     1
102
RTVSPropertyOp61
 70
     1
102
RTVSPropertyOp62
 70
     1
  0
XRECORD
  5
34E
102
{ACAD_REACTORS
330
34D
102
}
330
34D
100
AcDbXrecord
280
     1
102
RTVSPost2010Prop28
280
     0
102
RTVSPost2010PropOp28
 70
     1
102
RTVSPost2010Prop29
280
     1
102
RTVSPost2010PropOp29
 70
     1
102
RTVSPost2010Prop30
280
     1
102
RTVSPost2010PropOp30
 70
     1
102
RTVSPost2010Prop31
280
     0
102
RTVSPost2010PropOp31
 70
     1
102
RTVSPost2010Prop32
280
     0
102
RTVSPost2010PropOp32
 70
     1
102
RTVSPost2010Prop33
280
     0
102
RTVSPost2010PropOp33
 70
     1
102
RTVSPost2010Prop34
280
     0
102
RTVSPost2010PropOp34
 70
     1
102
RTVSPost2010Prop35
280
     0
102
RTVSPost2010PropOp35
 70
     1
102
RTVSPost2010Prop36
280
     0
102
RTVSPost2010PropOp36
 70
     1
102
RTVSPost2010Prop37
 90
       50
102
RTVSPost2010PropOp37
 70
     1
102
RTVSPost2010Prop38
140
0.0
102
RTVSPost2010PropOp38
 70
     1
102
RTVSPost2010Prop39
140
1.0
102
RTVSPost2010PropOp39
 70
     1
102
RTVSPost2010Prop40
 90
        0
102
RTVSPost2010PropOp40
 70
     1
102
RTVSPost2010Prop41ColorIndex
 90
       18
102
RTVSPost2010Prop41ColorRGB
 90
        0
102
RTVSPost2010PropOp41
 70
     1
102
RTVSPost2010Prop42
 90
       50
102
RTVSPost2010PropOp42
 70
     1
102
RTVSPost2010Prop43
 90
        3
102
RTVSPost2010PropOp43
 70
     1
102
RTVSPost2010Prop44ColorIndex
 90
        5
102
RTVSPost2010Prop44ColorRGB
 90
      255
102
RTVSPost2010PropOp44
 70
     1
102
RTVSPost2010Prop45
280
     0
102
RTVSPost2010PropOp45
 70
     1
102
RTVSPost2010Prop46
 90
       50
102
RTVSPost2010PropOp46
 70
     1
102
RTVSPost2010Prop47
 90
       50
102
RTVSPost2010PropOp47
 70
     1
102
RTVSPost2010Prop48
 90
       50
102
RTVSPost2010PropOp48
 70
     1
102
RTVSPost2010Prop49
280
     0
102
RTVSPost2010PropOp49
 70
     1
102
RTVSPost2010Prop50
 90
       50
102
RTVSPost2010PropOp50
 70
     1
102
RTVSPost2010Prop51ColorIndex
 90
      256
102
RTVSPost2010Prop51ColorRGB
 90
-16777216
102
RTVSPost2010PropOp51
 70
     0
102
RTVSPost2010Prop52
140
1.0
102
RTVSPost2010PropOp52
 70
     0
102
RTVSPost2010Prop53
 90
        2
102
RTVSPost2010PropOp53
 70
     1
102
RTVSPost2010Prop54
  1
strokes_ogs.tif
102
RTVSPost2010PropOp54
 70
     1
102
RTVSPost2010Prop55
280
     0
102
RTVSPost2010PropOp55
 70
     1
102
RTVSPost2010Prop56
140
1.0
102
RTVSPost2010PropOp56
 70
     1
102
RTVSPost2010Prop57
140
1.0
102
RTVSPost2010PropOp57
 70
     1
102
RTVSPropertyOp0
 70
     1
102
RTVSPropertyOp1
 70
     1
102
RTVSPropertyOp2
 70
     1
102
RTVSPropertyOp3
 70
     1
102
RTVSPropertyOp4
 70
     1
102
RTVSPropertyOp5
 70
     1
102
RTVSPropertyOp6
 70
     1
102
RTVSPropertyOp7
 70
     1
102
RTVSPropertyOp8
 70
     1
102
RTVSPropertyOp9
 70
     1
102
RTVSPropertyOp10
 70
     1
102
RTVSPropertyOp11
 70
     1
102
RTVSPropertyOp12
 70
     1
102
RTVSPropertyOp13
 70
     1
102
RTVSPropertyOp14
 70
     1
102
RTVSPropertyOp15
 70
     1
102
RTVSPropertyOp16
 70
     1
102
RTVSPropertyOp17
 70
     1
102
RTVSPropertyOp18
 70
     1
102
RTVSPropertyOp19
 70
     1
102
RTVSPropertyOp20
 70
     1
102
RTVSPropertyOp21
 70
     1
102
RTVSPropertyOp22
 70
     1
102
RTVSPropertyOp23
 70
     1
102
RTVSPropertyOp24
 70
     1
102
RTVSPropertyOp25
 70
     1
102
RTVSPropertyOp26
 70
     1
102
RTVSPropertyOp27
 70
     1
102
RTVSPropertyOp28
 70
     1
102
RTVSPropertyOp29
 70
     1
102
RTVSPropertyOp30
 70
     1
102
RTVSPropertyOp31
 70
     1
102
RTVSPropertyOp32
 70
     1
102
RTVSPropertyOp33
 70
     1
102
RTVSPropertyOp34
 70
     1
102
RTVSPropertyOp35
 70
     1
102
RTVSPropertyOp36
 70
     1
102
RTVSPropertyOp37
 70
     1
102
RTVSPropertyOp38
 70
     1
102
RTVSPropertyOp39
 70
     1
102
RTVSPropertyOp40
 70
     1
102
RTVSPropertyOp41
 70
     1
102
RTVSPropertyOp42
 70
     1
102
RTVSPropertyOp43
 70
     1
102
RTVSPropertyOp44
 70
     1
102
RTVSPropertyOp45
 70
     1
102
RTVSPropertyOp46
 70
     1
102
RTVSPropertyOp47
 70
     1
102
RTVSPropertyOp48
 70
     1
102
RTVSPropertyOp49
 70
     1
102
RTVSPropertyOp50
 70
     1
102
RTVSPropertyOp51
 70
     0
102
RTVSPropertyOp52
 70
     0
102
RTVSPropertyOp53
 70
     1
102
RTVSPropertyOp54
 70
     1
102
RTVSPropertyOp55
 70
     1
102
RTVSPropertyOp56
 70
     1
102
RTVSPropertyOp57
 70
     1
102
RTVSPropertyOp58
 70
     1
102
RTVSPropertyOp59
 70
     1
102
RTVSPropertyOp60
 70
     1
102
RTVSPropertyOp61
 70
     1
102
RTVSPropertyOp62
 70
     1
  0
XRECORD
  5
350
102
{ACAD_REACTORS
330
34F
102
}
330
34F
100
AcDbXrecord
280
     1
102
RTVSPost2010Prop28
280
     0
102
RTVSPost2010PropOp28
 70
     1
102
RTVSPost2010Prop29
280
     1
102
RTVSPost2010PropOp29
 70
     1
102
RTVSPost2010Prop30
280
     1
102
RTVSPost2010PropOp30
 70
     1
102
RTVSPost2010Prop31
280
     0
102
RTVSPost2010PropOp31
 70
     1
102
RTVSPost2010Prop32
280
     0
102
RTVSPost2010PropOp32
 70
     1
102
RTVSPost2010Prop33
280
     0
102
RTVSPost2010PropOp33
 70
     1
102
RTVSPost2010Prop34
280
     0
102
RTVSPost2010PropOp34
 70
     1
102
RTVSPost2010Prop35
280
     0
102
RTVSPost2010PropOp35
 70
     1
102
RTVSPost2010Prop36
280
     0
102
RTVSPost2010PropOp36
 70
     1
102
RTVSPost2010Prop37
 90
       50
102
RTVSPost2010PropOp37
 70
     1
102
RTVSPost2010Prop38
140
0.0
102
RTVSPost2010PropOp38
 70
     1
102
RTVSPost2010Prop39
140
1.0
102
RTVSPost2010PropOp39
 70
     1
102
RTVSPost2010Prop40
 90
        0
102
RTVSPost2010PropOp40
 70
     1
102
RTVSPost2010Prop41ColorIndex
 90
       18
102
RTVSPost2010Prop41ColorRGB
 90
        0
102
RTVSPost2010PropOp41
 70
     1
102
RTVSPost2010Prop42
 90
       50
102
RTVSPost2010PropOp42
 70
     1
102
RTVSPost2010Prop43
 90
        3
102
RTVSPost2010PropOp43
 70
     1
102
RTVSPost2010Prop44ColorIndex
 90
        5
102
RTVSPost2010Prop44ColorRGB
 90
      255
102
RTVSPost2010PropOp44
 70
     1
102
RTVSPost2010Prop45
280
     0
102
RTVSPost2010PropOp45
 70
     1
102
RTVSPost2010Prop46
 90
       50
102
RTVSPost2010PropOp46
 70
     1
102
RTVSPost2010Prop47
 90
       50
102
RTVSPost2010PropOp47
 70
     1
102
RTVSPost2010Prop48
 90
       50
102
RTVSPost2010PropOp48
 70
     1
102
RTVSPost2010Prop49
280
     0
102
RTVSPost2010PropOp49
 70
     1
102
RTVSPost2010Prop50
 90
       50
102
RTVSPost2010PropOp50
 70
     1
102
RTVSPost2010Prop51ColorIndex
 90
      256
102
RTVSPost2010Prop51ColorRGB
 90
-16777216
102
RTVSPost2010PropOp51
 70
     0
102
RTVSPost2010Prop52
140
1.0
102
RTVSPost2010PropOp52
 70
     0
102
RTVSPost2010Prop53
 90
        2
102
RTVSPost2010PropOp53
 70
     1
102
RTVSPost2010Prop54
  1
strokes_ogs.tif
102
RTVSPost2010PropOp54
 70
     1
102
RTVSPost2010Prop55
280
     0
102
RTVSPost2010PropOp55
 70
     1
102
RTVSPost2010Prop56
140
1.0
102
RTVSPost2010PropOp56
 70
     1
102
RTVSPost2010Prop57
140
1.0
102
RTVSPost2010PropOp57
 70
     1
102
RTVSPropertyOp0
 70
     1
102
RTVSPropertyOp1
 70
     1
102
RTVSPropertyOp2
 70
     1
102
RTVSPropertyOp3
 70
     1
102
RTVSPropertyOp4
 70
     1
102
RTVSPropertyOp5
 70
     1
102
RTVSPropertyOp6
 70
     1
102
RTVSPropertyOp7
 70
     1
102
RTVSPropertyOp8
 70
     1
102
RTVSPropertyOp9
 70
     1
102
RTVSPropertyOp10
 70
     1
102
RTVSPropertyOp11
 70
     1
102
RTVSPropertyOp12
 70
     1
102
RTVSPropertyOp13
 70
     1
102
RTVSPropertyOp14
 70
     1
102
RTVSPropertyOp15
 70
     1
102
RTVSPropertyOp16
 70
     1
102
RTVSPropertyOp17
 70
     1
102
RTVSPropertyOp18
 70
     1
102
RTVSPropertyOp19
 70
     1
102
RTVSPropertyOp20
 70
     1
102
RTVSPropertyOp21
 70
     1
102
RTVSPropertyOp22
 70
     1
102
RTVSPropertyOp23
 70
     1
102
RTVSPropertyOp24
 70
     1
102
RTVSPropertyOp25
 70
     1
102
RTVSPropertyOp26
 70
     1
102
RTVSPropertyOp27
 70
     1
102
RTVSPropertyOp28
 70
     1
102
RTVSPropertyOp29
 70
     1
102
RTVSPropertyOp30
 70
     1
102
RTVSPropertyOp31
 70
     1
102
RTVSPropertyOp32
 70
     1
102
RTVSPropertyOp33
 70
     1
102
RTVSPropertyOp34
 70
     1
102
RTVSPropertyOp35
 70
     1
102
RTVSPropertyOp36
 70
     1
102
RTVSPropertyOp37
 70
     1
102
RTVSPropertyOp38
 70
     1
102
RTVSPropertyOp39
 70
     1
102
RTVSPropertyOp40
 70
     1
102
RTVSPropertyOp41
 70
     1
102
RTVSPropertyOp42
 70
     1
102
RTVSPropertyOp43
 70
     1
102
RTVSPropertyOp44
 70
     1
102
RTVSPropertyOp45
 70
     1
102
RTVSPropertyOp46
 70
     1
102
RTVSPropertyOp47
 70
     1
102
RTVSPropertyOp48
 70
     1
102
RTVSPropertyOp49
 70
     1
102
RTVSPropertyOp50
 70
     1
102
RTVSPropertyOp51
 70
     0
102
RTVSPropertyOp52
 70
     0
102
RTVSPropertyOp53
 70
     1
102
RTVSPropertyOp54
 70
     1
102
RTVSPropertyOp55
 70
     1
102
RTVSPropertyOp56
 70
     1
102
RTVSPropertyOp57
 70
     1
102
RTVSPropertyOp58
 70
     1
102
RTVSPropertyOp59
 70
     1
102
RTVSPropertyOp60
 70
     1
102
RTVSPropertyOp61
 70
     1
102
RTVSPropertyOp62
 70
     1
  0
XRECORD
  5
352
102
{ACAD_REACTORS
330
351
102
}
330
351
100
AcDbXrecord
280
     1
102
RTVSPost2010Prop28
280
     0
102
RTVSPost2010PropOp28
 70
     1
102
RTVSPost2010Prop29
280
     1
102
RTVSPost2010PropOp29
 70
     1
102
RTVSPost2010Prop30
280
     1
102
RTVSPost2010PropOp30
 70
     1
102
RTVSPost2010Prop31
280
     0
102
RTVSPost2010PropOp31
 70
     1
102
RTVSPost2010Prop32
280
     0
102
RTVSPost2010PropOp32
 70
     1
102
RTVSPost2010Prop33
280
     0
102
RTVSPost2010PropOp33
 70
     1
102
RTVSPost2010Prop34
280
     0
102
RTVSPost2010PropOp34
 70
     1
102
RTVSPost2010Prop35
280
     0
102
RTVSPost2010PropOp35
 70
     1
102
RTVSPost2010Prop36
280
     0
102
RTVSPost2010PropOp36
 70
     1
102
RTVSPost2010Prop37
 90
       50
102
RTVSPost2010PropOp37
 70
     1
102
RTVSPost2010Prop38
140
0.0
102
RTVSPost2010PropOp38
 70
     1
102
RTVSPost2010Prop39
140
1.0
102
RTVSPost2010PropOp39
 70
     1
102
RTVSPost2010Prop40
 90
        0
102
RTVSPost2010PropOp40
 70
     1
102
RTVSPost2010Prop41ColorIndex
 90
       18
102
RTVSPost2010Prop41ColorRGB
 90
        0
102
RTVSPost2010PropOp41
 70
     1
102
RTVSPost2010Prop42
 90
       50
102
RTVSPost2010PropOp42
 70
     1
102
RTVSPost2010Prop43
 90
        3
102
RTVSPost2010PropOp43
 70
     1
102
RTVSPost2010Prop44ColorIndex
 90
        5
102
RTVSPost2010Prop44ColorRGB
 90
      255
102
RTVSPost2010PropOp44
 70
     1
102
RTVSPost2010Prop45
280
     0
102
RTVSPost2010PropOp45
 70
     1
102
RTVSPost2010Prop46
 90
       50
102
RTVSPost2010PropOp46
 70
     1
102
RTVSPost2010Prop47
 90
       50
102
RTVSPost2010PropOp47
 70
     1
102
RTVSPost2010Prop48
 90
       50
102
RTVSPost2010PropOp48
 70
     1
102
RTVSPost2010Prop49
280
     0
102
RTVSPost2010PropOp49
 70
     1
102
RTVSPost2010Prop50
 90
       50
102
RTVSPost2010PropOp50
 70
     1
102
RTVSPost2010Prop51ColorIndex
 90
      256
102
RTVSPost2010Prop51ColorRGB
 90
-16777216
102
RTVSPost2010PropOp51
 70
     0
102
RTVSPost2010Prop52
140
1.0
102
RTVSPost2010PropOp52
 70
     0
102
RTVSPost2010Prop53
 90
        2
102
RTVSPost2010PropOp53
 70
     1
102
RTVSPost2010Prop54
  1
strokes_ogs.tif
102
RTVSPost2010PropOp54
 70
     1
102
RTVSPost2010Prop55
280
     0
102
RTVSPost2010PropOp55
 70
     1
102
RTVSPost2010Prop56
140
1.0
102
RTVSPost2010PropOp56
 70
     1
102
RTVSPost2010Prop57
140
1.0
102
RTVSPost2010PropOp57
 70
     1
102
RTVSPropertyOp0
 70
     1
102
RTVSPropertyOp1
 70
     1
102
RTVSPropertyOp2
 70
     1
102
RTVSPropertyOp3
 70
     1
102
RTVSPropertyOp4
 70
     1
102
RTVSPropertyOp5
 70
     1
102
RTVSPropertyOp6
 70
     1
102
RTVSPropertyOp7
 70
     1
102
RTVSPropertyOp8
 70
     1
102
RTVSPropertyOp9
 70
     1
102
RTVSPropertyOp10
 70
     1
102
RTVSPropertyOp11
 70
     1
102
RTVSPropertyOp12
 70
     1
102
RTVSPropertyOp13
 70
     1
102
RTVSPropertyOp14
 70
     1
102
RTVSPropertyOp15
 70
     1
102
RTVSPropertyOp16
 70
     1
102
RTVSPropertyOp17
 70
     1
102
RTVSPropertyOp18
 70
     1
102
RTVSPropertyOp19
 70
     1
102
RTVSPropertyOp20
 70
     1
102
RTVSPropertyOp21
 70
     1
102
RTVSPropertyOp22
 70
     1
102
RTVSPropertyOp23
 70
     1
102
RTVSPropertyOp24
 70
     1
102
RTVSPropertyOp25
 70
     1
102
RTVSPropertyOp26
 70
     1
102
RTVSPropertyOp27
 70
     1
102
RTVSPropertyOp28
 70
     1
102
RTVSPropertyOp29
 70
     1
102
RTVSPropertyOp30
 70
     1
102
RTVSPropertyOp31
 70
     1
102
RTVSPropertyOp32
 70
     1
102
RTVSPropertyOp33
 70
     1
102
RTVSPropertyOp34
 70
     1
102
RTVSPropertyOp35
 70
     1
102
RTVSPropertyOp36
 70
     1
102
RTVSPropertyOp37
 70
     1
102
RTVSPropertyOp38
 70
     1
102
RTVSPropertyOp39
 70
     1
102
RTVSPropertyOp40
 70
     1
102
RTVSPropertyOp41
 70
     1
102
RTVSPropertyOp42
 70
     1
102
RTVSPropertyOp43
 70
     1
102
RTVSPropertyOp44
 70
     1
102
RTVSPropertyOp45
 70
     1
102
RTVSPropertyOp46
 70
     1
102
RTVSPropertyOp47
 70
     1
102
RTVSPropertyOp48
 70
     1
102
RTVSPropertyOp49
 70
     1
102
RTVSPropertyOp50
 70
     1
102
RTVSPropertyOp51
 70
     0
102
RTVSPropertyOp52
 70
     0
102
RTVSPropertyOp53
 70
     1
102
RTVSPropertyOp54
 70
     1
102
RTVSPropertyOp55
 70
     1
102
RTVSPropertyOp56
 70
     1
102
RTVSPropertyOp57
 70
     1
102
RTVSPropertyOp58
 70
     1
102
RTVSPropertyOp59
 70
     1
102
RTVSPropertyOp60
 70
     1
102
RTVSPropertyOp61
 70
     1
102
RTVSPropertyOp62
 70
     1
  0
XRECORD
  5
354
102
{ACAD_REACTORS
330
353
102
}
330
353
100
AcDbXrecord
280
     1
102
RTVSPost2010Prop28
280
     0
102
RTVSPost2010PropOp28
 70
     1
102
RTVSPost2010Prop29
280
     1
102
RTVSPost2010PropOp29
 70
     1
102
RTVSPost2010Prop30
280
     1
102
RTVSPost2010PropOp30
 70
     1
102
RTVSPost2010Prop31
280
     0
102
RTVSPost2010PropOp31
 70
     1
102
RTVSPost2010Prop32
280
     0
102
RTVSPost2010PropOp32
 70
     1
102
RTVSPost2010Prop33
280
     0
102
RTVSPost2010PropOp33
 70
     1
102
RTVSPost2010Prop34
280
     0
102
RTVSPost2010PropOp34
 70
     1
102
RTVSPost2010Prop35
280
     0
102
RTVSPost2010PropOp35
 70
     1
102
RTVSPost2010Prop36
280
     0
102
RTVSPost2010PropOp36
 70
     1
102
RTVSPost2010Prop37
 90
       50
102
RTVSPost2010PropOp37
 70
     1
102
RTVSPost2010Prop38
140
0.0
102
RTVSPost2010PropOp38
 70
     1
102
RTVSPost2010Prop39
140
1.0
102
RTVSPost2010PropOp39
 70
     1
102
RTVSPost2010Prop40
 90
        0
102
RTVSPost2010PropOp40
 70
     1
102
RTVSPost2010Prop41ColorIndex
 90
       18
102
RTVSPost2010Prop41ColorRGB
 90
        0
102
RTVSPost2010PropOp41
 70
     1
102
RTVSPost2010Prop42
 90
       50
102
RTVSPost2010PropOp42
 70
     1
102
RTVSPost2010Prop43
 90
        3
102
RTVSPost2010PropOp43
 70
     1
102
RTVSPost2010Prop44ColorIndex
 90
        5
102
RTVSPost2010Prop44ColorRGB
 90
      255
102
RTVSPost2010PropOp44
 70
     1
102
RTVSPost2010Prop45
280
     0
102
RTVSPost2010PropOp45
 70
     1
102
RTVSPost2010Prop46
 90
       50
102
RTVSPost2010PropOp46
 70
     1
102
RTVSPost2010Prop47
 90
       50
102
RTVSPost2010PropOp47
 70
     1
102
RTVSPost2010Prop48
 90
       50
102
RTVSPost2010PropOp48
 70
     1
102
RTVSPost2010Prop49
280
     0
102
RTVSPost2010PropOp49
 70
     1
102
RTVSPost2010Prop50
 90
       50
102
RTVSPost2010PropOp50
 70
     1
102
RTVSPost2010Prop51ColorIndex
 90
      256
102
RTVSPost2010Prop51ColorRGB
 90
-16777216
102
RTVSPost2010PropOp51
 70
     0
102
RTVSPost2010Prop52
140
1.0
102
RTVSPost2010PropOp52
 70
     0
102
RTVSPost2010Prop53
 90
        2
102
RTVSPost2010PropOp53
 70
     1
102
RTVSPost2010Prop54
  1
strokes_ogs.tif
102
RTVSPost2010PropOp54
 70
     1
102
RTVSPost2010Prop55
280
     0
102
RTVSPost2010PropOp55
 70
     1
102
RTVSPost2010Prop56
140
1.0
102
RTVSPost2010PropOp56
 70
     1
102
RTVSPost2010Prop57
140
1.0
102
RTVSPost2010PropOp57
 70
     1
102
RTVSPropertyOp0
 70
     1
102
RTVSPropertyOp1
 70
     1
102
RTVSPropertyOp2
 70
     1
102
RTVSPropertyOp3
 70
     1
102
RTVSPropertyOp4
 70
     1
102
RTVSPropertyOp5
 70
     1
102
RTVSPropertyOp6
 70
     1
102
RTVSPropertyOp7
 70
     1
102
RTVSPropertyOp8
 70
     1
102
RTVSPropertyOp9
 70
     1
102
RTVSPropertyOp10
 70
     1
102
RTVSPropertyOp11
 70
     1
102
RTVSPropertyOp12
 70
     1
102
RTVSPropertyOp13
 70
     1
102
RTVSPropertyOp14
 70
     1
102
RTVSPropertyOp15
 70
     1
102
RTVSPropertyOp16
 70
     1
102
RTVSPropertyOp17
 70
     1
102
RTVSPropertyOp18
 70
     1
102
RTVSPropertyOp19
 70
     1
102
RTVSPropertyOp20
 70
     1
102
RTVSPropertyOp21
 70
     1
102
RTVSPropertyOp22
 70
     1
102
RTVSPropertyOp23
 70
     1
102
RTVSPropertyOp24
 70
     1
102
RTVSPropertyOp25
 70
     1
102
RTVSPropertyOp26
 70
     1
102
RTVSPropertyOp27
 70
     1
102
RTVSPropertyOp28
 70
     1
102
RTVSPropertyOp29
 70
     1
102
RTVSPropertyOp30
 70
     1
102
RTVSPropertyOp31
 70
     1
102
RTVSPropertyOp32
 70
     1
102
RTVSPropertyOp33
 70
     1
102
RTVSPropertyOp34
 70
     1
102
RTVSPropertyOp35
 70
     1
102
RTVSPropertyOp36
 70
     1
102
RTVSPropertyOp37
 70
     1
102
RTVSPropertyOp38
 70
     1
102
RTVSPropertyOp39
 70
     1
102
RTVSPropertyOp40
 70
     1
102
RTVSPropertyOp41
 70
     1
102
RTVSPropertyOp42
 70
     1
102
RTVSPropertyOp43
 70
     1
102
RTVSPropertyOp44
 70
     1
102
RTVSPropertyOp45
 70
     1
102
RTVSPropertyOp46
 70
     1
102
RTVSPropertyOp47
 70
     1
102
RTVSPropertyOp48
 70
     1
102
RTVSPropertyOp49
 70
     1
102
RTVSPropertyOp50
 70
     1
102
RTVSPropertyOp51
 70
     0
102
RTVSPropertyOp52
 70
     0
102
RTVSPropertyOp53
 70
     1
102
RTVSPropertyOp54
 70
     1
102
RTVSPropertyOp55
 70
     1
102
RTVSPropertyOp56
 70
     1
102
RTVSPropertyOp57
 70
     1
102
RTVSPropertyOp58
 70
     1
102
RTVSPropertyOp59
 70
     1
102
RTVSPropertyOp60
 70
     1
102
RTVSPropertyOp61
 70
     1
102
RTVSPropertyOp62
 70
     1
  0
XRECORD
  5
35A
102
{ACAD_REACTORS
330
359
102
}
330
359
100
AcDbXrecord
280
     1
102
RTVSPost2010Prop28
280
     0
102
RTVSPost2010PropOp28
 70
     1
102
RTVSPost2010Prop29
280
     1
102
RTVSPost2010PropOp29
 70
     1
102
RTVSPost2010Prop30
280
     1
102
RTVSPost2010PropOp30
 70
     1
102
RTVSPost2010Prop31
280
     0
102
RTVSPost2010PropOp31
 70
     1
102
RTVSPost2010Prop32
280
     0
102
RTVSPost2010PropOp32
 70
     1
102
RTVSPost2010Prop33
280
     0
102
RTVSPost2010PropOp33
 70
     1
102
RTVSPost2010Prop34
280
     0
102
RTVSPost2010PropOp34
 70
     1
102
RTVSPost2010Prop35
280
     0
102
RTVSPost2010PropOp35
 70
     1
102
RTVSPost2010Prop36
280
     0
102
RTVSPost2010PropOp36
 70
     1
102
RTVSPost2010Prop37
 90
       50
102
RTVSPost2010PropOp37
 70
     1
102
RTVSPost2010Prop38
140
0.0
102
RTVSPost2010PropOp38
 70
     1
102
RTVSPost2010Prop39
140
1.0
102
RTVSPost2010PropOp39
 70
     1
102
RTVSPost2010Prop40
 90
        0
102
RTVSPost2010PropOp40
 70
     1
102
RTVSPost2010Prop41ColorIndex
 90
       18
102
RTVSPost2010Prop41ColorRGB
 90
        0
102
RTVSPost2010PropOp41
 70
     1
102
RTVSPost2010Prop42
 90
       50
102
RTVSPost2010PropOp42
 70
     1
102
RTVSPost2010Prop43
 90
        3
102
RTVSPost2010PropOp43
 70
     1
102
RTVSPost2010Prop44ColorIndex
 90
        5
102
RTVSPost2010Prop44ColorRGB
 90
      255
102
RTVSPost2010PropOp44
 70
     1
102
RTVSPost2010Prop45
280
     0
102
RTVSPost2010PropOp45
 70
     1
102
RTVSPost2010Prop46
 90
       50
102
RTVSPost2010PropOp46
 70
     1
102
RTVSPost2010Prop47
 90
       50
102
RTVSPost2010PropOp47
 70
     1
102
RTVSPost2010Prop48
 90
       50
102
RTVSPost2010PropOp48
 70
     1
102
RTVSPost2010Prop49
280
     0
102
RTVSPost2010PropOp49
 70
     1
102
RTVSPost2010Prop50
 90
       50
102
RTVSPost2010PropOp50
 70
     1
102
RTVSPost2010Prop51ColorIndex
 90
      256
102
RTVSPost2010Prop51ColorRGB
 90
-16777216
102
RTVSPost2010PropOp51
 70
     0
102
RTVSPost2010Prop52
140
1.0
102
RTVSPost2010PropOp52
 70
     0
102
RTVSPost2010Prop53
 90
        2
102
RTVSPost2010PropOp53
 70
     1
102
RTVSPost2010Prop54
  1
strokes_ogs.tif
102
RTVSPost2010PropOp54
 70
     1
102
RTVSPost2010Prop55
280
     0
102
RTVSPost2010PropOp55
 70
     1
102
RTVSPost2010Prop56
140
1.0
102
RTVSPost2010PropOp56
 70
     1
102
RTVSPost2010Prop57
140
1.0
102
RTVSPost2010PropOp57
 70
     1
102
RTVSPropertyOp0
 70
     1
102
RTVSPropertyOp1
 70
     1
102
RTVSPropertyOp2
 70
     1
102
RTVSPropertyOp3
 70
     1
102
RTVSPropertyOp4
 70
     1
102
RTVSPropertyOp5
 70
     1
102
RTVSPropertyOp6
 70
     1
102
RTVSPropertyOp7
 70
     1
102
RTVSPropertyOp8
 70
     1
102
RTVSPropertyOp9
 70
     1
102
RTVSPropertyOp10
 70
     1
102
RTVSPropertyOp11
 70
     1
102
RTVSPropertyOp12
 70
     1
102
RTVSPropertyOp13
 70
     1
102
RTVSPropertyOp14
 70
     1
102
RTVSPropertyOp15
 70
     1
102
RTVSPropertyOp16
 70
     1
102
RTVSPropertyOp17
 70
     1
102
RTVSPropertyOp18
 70
     1
102
RTVSPropertyOp19
 70
     1
102
RTVSPropertyOp20
 70
     1
102
RTVSPropertyOp21
 70
     1
102
RTVSPropertyOp22
 70
     1
102
RTVSPropertyOp23
 70
     1
102
RTVSPropertyOp24
 70
     1
102
RTVSPropertyOp25
 70
     1
102
RTVSPropertyOp26
 70
     1
102
RTVSPropertyOp27
 70
     1
102
RTVSPropertyOp28
 70
     1
102
RTVSPropertyOp29
 70
     1
102
RTVSPropertyOp30
 70
     1
102
RTVSPropertyOp31
 70
     1
102
RTVSPropertyOp32
 70
     1
102
RTVSPropertyOp33
 70
     1
102
RTVSPropertyOp34
 70
     1
102
RTVSPropertyOp35
 70
     1
102
RTVSPropertyOp36
 70
     1
102
RTVSPropertyOp37
 70
     1
102
RTVSPropertyOp38
 70
     1
102
RTVSPropertyOp39
 70
     1
102
RTVSPropertyOp40
 70
     1
102
RTVSPropertyOp41
 70
     1
102
RTVSPropertyOp42
 70
     1
102
RTVSPropertyOp43
 70
     1
102
RTVSPropertyOp44
 70
     1
102
RTVSPropertyOp45
 70
     1
102
RTVSPropertyOp46
 70
     1
102
RTVSPropertyOp47
 70
     1
102
RTVSPropertyOp48
 70
     1
102
RTVSPropertyOp49
 70
     1
102
RTVSPropertyOp50
 70
     1
102
RTVSPropertyOp51
 70
     0
102
RTVSPropertyOp52
 70
     0
102
RTVSPropertyOp53
 70
     1
102
RTVSPropertyOp54
 70
     1
102
RTVSPropertyOp55
 70
     1
102
RTVSPropertyOp56
 70
     1
102
RTVSPropertyOp57
 70
     1
102
RTVSPropertyOp58
 70
     1
102
RTVSPropertyOp59
 70
     1
102
RTVSPropertyOp60
 70
     1
102
RTVSPropertyOp61
 70
     1
102
RTVSPropertyOp62
 70
     1
  0
XRECORD
  5
36E
102
{ACAD_REACTORS
330
36D
102
}
330
36D
100
AcDbXrecord
280
     1
102
RTVSPost2010Prop28
280
     0
102
RTVSPost2010PropOp28
 70
     0
102
RTVSPost2010Prop29
280
     1
102
RTVSPost2010PropOp29
 70
     0
102
RTVSPost2010Prop30
280
     1
102
RTVSPost2010PropOp30
 70
     0
102
RTVSPost2010Prop31
280
     0
102
RTVSPost2010PropOp31
 70
     0
102
RTVSPost2010Prop32
280
     0
102
RTVSPost2010PropOp32
 70
     0
102
RTVSPost2010Prop33
280
     0
102
RTVSPost2010PropOp33
 70
     0
102
RTVSPost2010Prop34
280
     0
102
RTVSPost2010PropOp34
 70
     0
102
RTVSPost2010Prop35
280
     0
102
RTVSPost2010PropOp35
 70
     0
102
RTVSPost2010Prop36
280
     0
102
RTVSPost2010PropOp36
 70
     0
102
RTVSPost2010Prop37
 90
       50
102
RTVSPost2010PropOp37
 70
     0
102
RTVSPost2010Prop38
140
0.0
102
RTVSPost2010PropOp38
 70
     0
102
RTVSPost2010Prop39
140
1.0
102
RTVSPost2010PropOp39
 70
     0
102
RTVSPost2010Prop40
 90
        0
102
RTVSPost2010PropOp40
 70
     0
102
RTVSPost2010Prop41ColorIndex
 90
       18
102
RTVSPost2010Prop41ColorRGB
 90
        0
102
RTVSPost2010PropOp41
 70
     0
102
RTVSPost2010Prop42
 90
       50
102
RTVSPost2010PropOp42
 70
     0
102
RTVSPost2010Prop43
 90
        3
102
RTVSPost2010PropOp43
 70
     0
102
RTVSPost2010Prop44ColorIndex
 90
        5
102
RTVSPost2010Prop44ColorRGB
 90
      255
102
RTVSPost2010PropOp44
 70
     0
102
RTVSPost2010Prop45
280
     0
102
RTVSPost2010PropOp45
 70
     0
102
RTVSPost2010Prop46
 90
       50
102
RTVSPost2010PropOp46
 70
     0
102
RTVSPost2010Prop47
 90
       50
102
RTVSPost2010PropOp47
 70
     0
102
RTVSPost2010Prop48
 90
       50
102
RTVSPost2010PropOp48
 70
     0
102
RTVSPost2010Prop49
280
     0
102
RTVSPost2010PropOp49
 70
     0
102
RTVSPost2010Prop50
 90
       50
102
RTVSPost2010PropOp50
 70
     0
102
RTVSPost2010Prop51ColorIndex
 90
      256
102
RTVSPost2010Prop51ColorRGB
 90
-16777216
102
RTVSPost2010PropOp51
 70
     0
102
RTVSPost2010Prop52
140
1.0
102
RTVSPost2010PropOp52
 70
     0
102
RTVSPost2010Prop53
 90
        2
102
RTVSPost2010PropOp53
 70
     0
102
RTVSPost2010Prop54
  1
strokes_ogs.tif
102
RTVSPost2010PropOp54
 70
     0
102
RTVSPost2010Prop55
280
     0
102
RTVSPost2010PropOp55
 70
     0
102
RTVSPost2010Prop56
140
1.0
102
RTVSPost2010PropOp56
 70
     0
102
RTVSPost2010Prop57
140
1.0
102
RTVSPost2010PropOp57
 70
     0
102
RTVSPropertyOp0
 70
     0
102
RTVSPropertyOp1
 70
     0
102
RTVSPropertyOp2
 70
     0
102
RTVSPropertyOp3
 70
     0
102
RTVSPropertyOp4
 70
     0
102
RTVSPropertyOp5
 70
     0
102
RTVSPropertyOp6
 70
     0
102
RTVSPropertyOp7
 70
     0
102
RTVSPropertyOp8
 70
     0
102
RTVSPropertyOp9
 70
     0
102
RTVSPropertyOp10
 70
     0
102
RTVSPropertyOp11
 70
     0
102
RTVSPropertyOp12
 70
     0
102
RTVSPropertyOp13
 70
     0
102
RTVSPropertyOp14
 70
     2
102
RTVSPropertyOp15
 70
     0
102
RTVSPropertyOp16
 70
     0
102
RTVSPropertyOp17
 70
     0
102
RTVSPropertyOp18
 70
     0
102
RTVSPropertyOp19
 70
     0
102
RTVSPropertyOp20
 70
     0
102
RTVSPropertyOp21
 70
     0
102
RTVSPropertyOp22
 70
     0
102
RTVSPropertyOp23
 70
     0
102
RTVSPropertyOp24
 70
     0
102
RTVSPropertyOp25
 70
     0
102
RTVSPropertyOp26
 70
     0
102
RTVSPropertyOp27
 70
     0
102
RTVSPropertyOp28
 70
     0
102
RTVSPropertyOp29
 70
     0
102
RTVSPropertyOp30
 70
     0
102
RTVSPropertyOp31
 70
     0
102
RTVSPropertyOp32
 70
     0
102
RTVSPropertyOp33
 70
     0
102
RTVSPropertyOp34
 70
     0
102
RTVSPropertyOp35
 70
     0
102
RTVSPropertyOp36
 70
     0
102
RTVSPropertyOp37
 70
     0
102
RTVSPropertyOp38
 70
     0
102
RTVSPropertyOp39
 70
     0
102
RTVSPropertyOp40
 70
     0
102
RTVSPropertyOp41
 70
     0
102
RTVSPropertyOp42
 70
     0
102
RTVSPropertyOp43
 70
     0
102
RTVSPropertyOp44
 70
     0
102
RTVSPropertyOp45
 70
     0
102
RTVSPropertyOp46
 70
     0
102
RTVSPropertyOp47
 70
     0
102
RTVSPropertyOp48
 70
     0
102
RTVSPropertyOp49
 70
     0
102
RTVSPropertyOp50
 70
     0
102
RTVSPropertyOp51
 70
     0
102
RTVSPropertyOp52
 70
     0
102
RTVSPropertyOp53
 70
     0
102
RTVSPropertyOp54
 70
     0
102
RTVSPropertyOp55
 70
     0
102
RTVSPropertyOp56
 70
     0
102
RTVSPropertyOp57
 70
     0
102
RTVSPropertyOp58
 70
     1
102
RTVSPropertyOp59
 70
     1
102
RTVSPropertyOp60
 70
     1
102
RTVSPropertyOp61
 70
     1
102
RTVSPropertyOp62
 70
     1
  0
XRECORD
  5
368
102
{ACAD_REACTORS
330
367
102
}
330
367
100
AcDbXrecord
280
     1
102
RTVSPost2010Prop28
280
     0
102
RTVSPost2010PropOp28
 70
     1
102
RTVSPost2010Prop29
280
     1
102
RTVSPost2010PropOp29
 70
     1
102
RTVSPost2010Prop30
280
     1
102
RTVSPost2010PropOp30
 70
     1
102
RTVSPost2010Prop31
280
     0
102
RTVSPost2010PropOp31
 70
     1
102
RTVSPost2010Prop32
280
     0
102
RTVSPost2010PropOp32
 70
     1
102
RTVSPost2010Prop33
280
     0
102
RTVSPost2010PropOp33
 70
     1
102
RTVSPost2010Prop34
280
     0
102
RTVSPost2010PropOp34
 70
     1
102
RTVSPost2010Prop35
280
     0
102
RTVSPost2010PropOp35
 70
     1
102
RTVSPost2010Prop36
280
     0
102
RTVSPost2010PropOp36
 70
     1
102
RTVSPost2010Prop37
 90
       50
102
RTVSPost2010PropOp37
 70
     1
102
RTVSPost2010Prop38
140
0.0
102
RTVSPost2010PropOp38
 70
     1
102
RTVSPost2010Prop39
140
1.0
102
RTVSPost2010PropOp39
 70
     1
102
RTVSPost2010Prop40
 90
        0
102
RTVSPost2010PropOp40
 70
     1
102
RTVSPost2010Prop41ColorIndex
 90
       18
102
RTVSPost2010Prop41ColorRGB
 90
        0
102
RTVSPost2010PropOp41
 70
     1
102
RTVSPost2010Prop42
 90
       50
102
RTVSPost2010PropOp42
 70
     1
102
RTVSPost2010Prop43
 90
        3
102
RTVSPost2010PropOp43
 70
     1
102
RTVSPost2010Prop44ColorIndex
 90
        5
102
RTVSPost2010Prop44ColorRGB
 90
      255
102
RTVSPost2010PropOp44
 70
     1
102
RTVSPost2010Prop45
280
     0
102
RTVSPost2010PropOp45
 70
     1
102
RTVSPost2010Prop46
 90
       50
102
RTVSPost2010PropOp46
 70
     1
102
RTVSPost2010Prop47
 90
       50
102
RTVSPost2010PropOp47
 70
     1
102
RTVSPost2010Prop48
 90
       50
102
RTVSPost2010PropOp48
 70
     1
102
RTVSPost2010Prop49
280
     0
102
RTVSPost2010PropOp49
 70
     1
102
RTVSPost2010Prop50
 90
       50
102
RTVSPost2010PropOp50
 70
     1
102
RTVSPost2010Prop51ColorIndex
 90
      256
102
RTVSPost2010Prop51ColorRGB
 90
-16777216
102
RTVSPost2010PropOp51
 70
     0
102
RTVSPost2010Prop52
140
1.0
102
RTVSPost2010PropOp52
 70
     0
102
RTVSPost2010Prop53
 90
        2
102
RTVSPost2010PropOp53
 70
     1
102
RTVSPost2010Prop54
  1
strokes_ogs.tif
102
RTVSPost2010PropOp54
 70
     1
102
RTVSPost2010Prop55
280
     0
102
RTVSPost2010PropOp55
 70
     1
102
RTVSPost2010Prop56
140
1.0
102
RTVSPost2010PropOp56
 70
     1
102
RTVSPost2010Prop57
140
1.0
102
RTVSPost2010PropOp57
 70
     1
102
RTVSPropertyOp0
 70
     1
102
RTVSPropertyOp1
 70
     1
102
RTVSPropertyOp2
 70
     1
102
RTVSPropertyOp3
 70
     1
102
RTVSPropertyOp4
 70
     1
102
RTVSPropertyOp5
 70
     1
102
RTVSPropertyOp6
 70
     1
102
RTVSPropertyOp7
 70
     1
102
RTVSPropertyOp8
 70
     1
102
RTVSPropertyOp9
 70
     1
102
RTVSPropertyOp10
 70
     1
102
RTVSPropertyOp11
 70
     1
102
RTVSPropertyOp12
 70
     1
102
RTVSPropertyOp13
 70
     1
102
RTVSPropertyOp14
 70
     1
102
RTVSPropertyOp15
 70
     1
102
RTVSPropertyOp16
 70
     1
102
RTVSPropertyOp17
 70
     1
102
RTVSPropertyOp18
 70
     1
102
RTVSPropertyOp19
 70
     1
102
RTVSPropertyOp20
 70
     1
102
RTVSPropertyOp21
 70
     1
102
RTVSPropertyOp22
 70
     1
102
RTVSPropertyOp23
 70
     1
102
RTVSPropertyOp24
 70
     1
102
RTVSPropertyOp25
 70
     1
102
RTVSPropertyOp26
 70
     1
102
RTVSPropertyOp27
 70
     1
102
RTVSPropertyOp28
 70
     1
102
RTVSPropertyOp29
 70
     1
102
RTVSPropertyOp30
 70
     1
102
RTVSPropertyOp31
 70
     1
102
RTVSPropertyOp32
 70
     1
102
RTVSPropertyOp33
 70
     1
102
RTVSPropertyOp34
 70
     1
102
RTVSPropertyOp35
 70
     1
102
RTVSPropertyOp36
 70
     1
102
RTVSPropertyOp37
 70
     1
102
RTVSPropertyOp38
 70
     1
102
RTVSPropertyOp39
 70
     1
102
RTVSPropertyOp40
 70
     1
102
RTVSPropertyOp41
 70
     1
102
RTVSPropertyOp42
 70
     1
102
RTVSPropertyOp43
 70
     1
102
RTVSPropertyOp44
 70
     1
102
RTVSPropertyOp45
 70
     1
102
RTVSPropertyOp46
 70
     1
102
RTVSPropertyOp47
 70
     1
102
RTVSPropertyOp48
 70
     1
102
RTVSPropertyOp49
 70
     1
102
RTVSPropertyOp50
 70
     1
102
RTVSPropertyOp51
 70
     0
102
RTVSPropertyOp52
 70
     0
102
RTVSPropertyOp53
 70
     1
102
RTVSPropertyOp54
 70
     1
102
RTVSPropertyOp55
 70
     1
102
RTVSPropertyOp56
 70
     1
102
RTVSPropertyOp57
 70
     1
102
RTVSPropertyOp58
 70
     1
102
RTVSPropertyOp59
 70
     1
102
RTVSPropertyOp60
 70
     1
102
RTVSPropertyOp61
 70
     1
102
RTVSPropertyOp62
 70
     1
  0
XRECORD
  5
370
102
{ACAD_REACTORS
330
36F
102
}
330
36F
100
AcDbXrecord
280
     1
102
RTVSPost2010Prop28
280
     0
102
RTVSPost2010PropOp28
 70
     0
102
RTVSPost2010Prop29
280
     1
102
RTVSPost2010PropOp29
 70
     0
102
RTVSPost2010Prop30
280
     1
102
RTVSPost2010PropOp30
 70
     0
102
RTVSPost2010Prop31
280
     0
102
RTVSPost2010PropOp31
 70
     0
102
RTVSPost2010Prop32
280
     0
102
RTVSPost2010PropOp32
 70
     0
102
RTVSPost2010Prop33
280
     0
102
RTVSPost2010PropOp33
 70
     0
102
RTVSPost2010Prop34
280
     0
102
RTVSPost2010PropOp34
 70
     0
102
RTVSPost2010Prop35
280
     0
102
RTVSPost2010PropOp35
 70
     0
102
RTVSPost2010Prop36
280
     0
102
RTVSPost2010PropOp36
 70
     0
102
RTVSPost2010Prop37
 90
       50
102
RTVSPost2010PropOp37
 70
     0
102
RTVSPost2010Prop38
140
0.0
102
RTVSPost2010PropOp38
 70
     0
102
RTVSPost2010Prop39
140
1.0
102
RTVSPost2010PropOp39
 70
     0
102
RTVSPost2010Prop40
 90
        0
102
RTVSPost2010PropOp40
 70
     0
102
RTVSPost2010Prop41ColorIndex
 90
       18
102
RTVSPost2010Prop41ColorRGB
 90
        0
102
RTVSPost2010PropOp41
 70
     0
102
RTVSPost2010Prop42
 90
       50
102
RTVSPost2010PropOp42
 70
     0
102
RTVSPost2010Prop43
 90
        3
102
RTVSPost2010PropOp43
 70
     0
102
RTVSPost2010Prop44ColorIndex
 90
        5
102
RTVSPost2010Prop44ColorRGB
 90
      255
102
RTVSPost2010PropOp44
 70
     0
102
RTVSPost2010Prop45
280
     0
102
RTVSPost2010PropOp45
 70
     0
102
RTVSPost2010Prop46
 90
       50
102
RTVSPost2010PropOp46
 70
     0
102
RTVSPost2010Prop47
 90
       50
102
RTVSPost2010PropOp47
 70
     0
102
RTVSPost2010Prop48
 90
       50
102
RTVSPost2010PropOp48
 70
     0
102
RTVSPost2010Prop49
280
     0
102
RTVSPost2010PropOp49
 70
     0
102
RTVSPost2010Prop50
 90
       50
102
RTVSPost2010PropOp50
 70
     0
102
RTVSPost2010Prop51ColorIndex
 90
      256
102
RTVSPost2010Prop51ColorRGB
 90
-16777216
102
RTVSPost2010PropOp51
 70
     0
102
RTVSPost2010Prop52
140
1.0
102
RTVSPost2010PropOp52
 70
     0
102
RTVSPost2010Prop53
 90
        2
102
RTVSPost2010PropOp53
 70
     0
102
RTVSPost2010Prop54
  1
strokes_ogs.tif
102
RTVSPost2010PropOp54
 70
     0
102
RTVSPost2010Prop55
280
     0
102
RTVSPost2010PropOp55
 70
     0
102
RTVSPost2010Prop56
140
1.0
102
RTVSPost2010PropOp56
 70
     0
102
RTVSPost2010Prop57
140
1.0
102
RTVSPost2010PropOp57
 70
     0
102
RTVSPropertyOp0
 70
     0
102
RTVSPropertyOp1
 70
     0
102
RTVSPropertyOp2
 70
     0
102
RTVSPropertyOp3
 70
     0
102
RTVSPropertyOp4
 70
     0
102
RTVSPropertyOp5
 70
     0
102
RTVSPropertyOp6
 70
     0
102
RTVSPropertyOp7
 70
     0
102
RTVSPropertyOp8
 70
     0
102
RTVSPropertyOp9
 70
     0
102
RTVSPropertyOp10
 70
     0
102
RTVSPropertyOp11
 70
     0
102
RTVSPropertyOp12
 70
     0
102
RTVSPropertyOp13
 70
     0
102
RTVSPropertyOp14
 70
     2
102
RTVSPropertyOp15
 70
     0
102
RTVSPropertyOp16
 70
     0
102
RTVSPropertyOp17
 70
     0
102
RTVSPropertyOp18
 70
     0
102
RTVSPropertyOp19
 70
     0
102
RTVSPropertyOp20
 70
     0
102
RTVSPropertyOp21
 70
     0
102
RTVSPropertyOp22
 70
     0
102
RTVSPropertyOp23
 70
     0
102
RTVSPropertyOp24
 70
     0
102
RTVSPropertyOp25
 70
     0
102
RTVSPropertyOp26
 70
     0
102
RTVSPropertyOp27
 70
     0
102
RTVSPropertyOp28
 70
     0
102
RTVSPropertyOp29
 70
     0
102
RTVSPropertyOp30
 70
     0
102
RTVSPropertyOp31
 70
     0
102
RTVSPropertyOp32
 70
     0
102
RTVSPropertyOp33
 70
     0
102
RTVSPropertyOp34
 70
     0
102
RTVSPropertyOp35
 70
     0
102
RTVSPropertyOp36
 70
     0
102
RTVSPropertyOp37
 70
     0
102
RTVSPropertyOp38
 70
     0
102
RTVSPropertyOp39
 70
     0
102
RTVSPropertyOp40
 70
     0
102
RTVSPropertyOp41
 70
     0
102
RTVSPropertyOp42
 70
     0
102
RTVSPropertyOp43
 70
     0
102
RTVSPropertyOp44
 70
     0
102
RTVSPropertyOp45
 70
     0
102
RTVSPropertyOp46
 70
     0
102
RTVSPropertyOp47
 70
     0
102
RTVSPropertyOp48
 70
     0
102
RTVSPropertyOp49
 70
     0
102
RTVSPropertyOp50
 70
     0
102
RTVSPropertyOp51
 70
     0
102
RTVSPropertyOp52
 70
     0
102
RTVSPropertyOp53
 70
     0
102
RTVSPropertyOp54
 70
     0
102
RTVSPropertyOp55
 70
     0
102
RTVSPropertyOp56
 70
     0
102
RTVSPropertyOp57
 70
     0
102
RTVSPropertyOp58
 70
     1
102
RTVSPropertyOp59
 70
     1
102
RTVSPropertyOp60
 70
     1
102
RTVSPropertyOp61
 70
     1
102
RTVSPropertyOp62
 70
     1
  0
XRECORD
  5
35E
102
{ACAD_REACTORS
330
35D
102
}
330
35D
100
AcDbXrecord
280
     1
102
RTVSPost2010Prop28
280
     0
102
RTVSPost2010PropOp28
 70
     1
102
RTVSPost2010Prop29
280
     1
102
RTVSPost2010PropOp29
 70
     1
102
RTVSPost2010Prop30
280
     1
102
RTVSPost2010PropOp30
 70
     1
102
RTVSPost2010Prop31
280
     0
102
RTVSPost2010PropOp31
 70
     1
102
RTVSPost2010Prop32
280
     0
102
RTVSPost2010PropOp32
 70
     1
102
RTVSPost2010Prop33
280
     0
102
RTVSPost2010PropOp33
 70
     1
102
RTVSPost2010Prop34
280
     0
102
RTVSPost2010PropOp34
 70
     1
102
RTVSPost2010Prop35
280
     0
102
RTVSPost2010PropOp35
 70
     1
102
RTVSPost2010Prop36
280
     0
102
RTVSPost2010PropOp36
 70
     1
102
RTVSPost2010Prop37
 90
       50
102
RTVSPost2010PropOp37
 70
     1
102
RTVSPost2010Prop38
140
0.0
102
RTVSPost2010PropOp38
 70
     1
102
RTVSPost2010Prop39
140
1.0
102
RTVSPost2010PropOp39
 70
     1
102
RTVSPost2010Prop40
 90
        0
102
RTVSPost2010PropOp40
 70
     1
102
RTVSPost2010Prop41ColorIndex
 90
       18
102
RTVSPost2010Prop41ColorRGB
 90
        0
102
RTVSPost2010PropOp41
 70
     1
102
RTVSPost2010Prop42
 90
       50
102
RTVSPost2010PropOp42
 70
     1
102
RTVSPost2010Prop43
 90
        3
102
RTVSPost2010PropOp43
 70
     1
102
RTVSPost2010Prop44ColorIndex
 90
        5
102
RTVSPost2010Prop44ColorRGB
 90
      255
102
RTVSPost2010PropOp44
 70
     1
102
RTVSPost2010Prop45
280
     0
102
RTVSPost2010PropOp45
 70
     1
102
RTVSPost2010Prop46
 90
       50
102
RTVSPost2010PropOp46
 70
     1
102
RTVSPost2010Prop47
 90
       50
102
RTVSPost2010PropOp47
 70
     1
102
RTVSPost2010Prop48
 90
       50
102
RTVSPost2010PropOp48
 70
     1
102
RTVSPost2010Prop49
280
     0
102
RTVSPost2010PropOp49
 70
     1
102
RTVSPost2010Prop50
 90
       50
102
RTVSPost2010PropOp50
 70
     1
102
RTVSPost2010Prop51ColorIndex
 90
      256
102
RTVSPost2010Prop51ColorRGB
 90
-16777216
102
RTVSPost2010PropOp51
 70
     0
102
RTVSPost2010Prop52
140
1.0
102
RTVSPost2010PropOp52
 70
     0
102
RTVSPost2010Prop53
 90
        2
102
RTVSPost2010PropOp53
 70
     1
102
RTVSPost2010Prop54
  1
strokes_ogs.tif
102
RTVSPost2010PropOp54
 70
     1
102
RTVSPost2010Prop55
280
     0
102
RTVSPost2010PropOp55
 70
     1
102
RTVSPost2010Prop56
140
1.0
102
RTVSPost2010PropOp56
 70
     1
102
RTVSPost2010Prop57
140
1.0
102
RTVSPost2010PropOp57
 70
     1
102
RTVSPropertyOp0
 70
     1
102
RTVSPropertyOp1
 70
     1
102
RTVSPropertyOp2
 70
     1
102
RTVSPropertyOp3
 70
     1
102
RTVSPropertyOp4
 70
     1
102
RTVSPropertyOp5
 70
     1
102
RTVSPropertyOp6
 70
     1
102
RTVSPropertyOp7
 70
     1
102
RTVSPropertyOp8
 70
     1
102
RTVSPropertyOp9
 70
     1
102
RTVSPropertyOp10
 70
     1
102
RTVSPropertyOp11
 70
     1
102
RTVSPropertyOp12
 70
     1
102
RTVSPropertyOp13
 70
     1
102
RTVSPropertyOp14
 70
     1
102
RTVSPropertyOp15
 70
     1
102
RTVSPropertyOp16
 70
     1
102
RTVSPropertyOp17
 70
     1
102
RTVSPropertyOp18
 70
     1
102
RTVSPropertyOp19
 70
     1
102
RTVSPropertyOp20
 70
     1
102
RTVSPropertyOp21
 70
     1
102
RTVSPropertyOp22
 70
     1
102
RTVSPropertyOp23
 70
     1
102
RTVSPropertyOp24
 70
     1
102
RTVSPropertyOp25
 70
     1
102
RTVSPropertyOp26
 70
     1
102
RTVSPropertyOp27
 70
     1
102
RTVSPropertyOp28
 70
     1
102
RTVSPropertyOp29
 70
     1
102
RTVSPropertyOp30
 70
     1
102
RTVSPropertyOp31
 70
     1
102
RTVSPropertyOp32
 70
     1
102
RTVSPropertyOp33
 70
     1
102
RTVSPropertyOp34
 70
     1
102
RTVSPropertyOp35
 70
     1
102
RTVSPropertyOp36
 70
     1
102
RTVSPropertyOp37
 70
     1
102
RTVSPropertyOp38
 70
     1
102
RTVSPropertyOp39
 70
     1
102
RTVSPropertyOp40
 70
     1
102
RTVSPropertyOp41
 70
     1
102
RTVSPropertyOp42
 70
     1
102
RTVSPropertyOp43
 70
     1
102
RTVSPropertyOp44
 70
     1
102
RTVSPropertyOp45
 70
     1
102
RTVSPropertyOp46
 70
     1
102
RTVSPropertyOp47
 70
     1
102
RTVSPropertyOp48
 70
     1
102
RTVSPropertyOp49
 70
     1
102
RTVSPropertyOp50
 70
     1
102
RTVSPropertyOp51
 70
     0
102
RTVSPropertyOp52
 70
     0
102
RTVSPropertyOp53
 70
     1
102
RTVSPropertyOp54
 70
     1
102
RTVSPropertyOp55
 70
     1
102
RTVSPropertyOp56
 70
     1
102
RTVSPropertyOp57
 70
     1
102
RTVSPropertyOp58
 70
     1
102
RTVSPropertyOp59
 70
     1
102
RTVSPropertyOp60
 70
     1
102
RTVSPropertyOp61
 70
     1
102
RTVSPropertyOp62
 70
     1
  0
XRECORD
  5
37C
102
{ACAD_REACTORS
330
37B
102
}
330
37B
100
AcDbXrecord
280
     1
102
RTVSPost2010Prop28
280
     0
102
RTVSPost2010PropOp28
 70
     1
102
RTVSPost2010Prop29
280
     1
102
RTVSPost2010PropOp29
 70
     1
102
RTVSPost2010Prop30
280
     1
102
RTVSPost2010PropOp30
 70
     1
102
RTVSPost2010Prop31
280
     0
102
RTVSPost2010PropOp31
 70
     1
102
RTVSPost2010Prop32
280
     0
102
RTVSPost2010PropOp32
 70
     1
102
RTVSPost2010Prop33
280
     0
102
RTVSPost2010PropOp33
 70
     1
102
RTVSPost2010Prop34
280
     0
102
RTVSPost2010PropOp34
 70
     1
102
RTVSPost2010Prop35
280
     0
102
RTVSPost2010PropOp35
 70
     1
102
RTVSPost2010Prop36
280
     0
102
RTVSPost2010PropOp36
 70
     1
102
RTVSPost2010Prop37
 90
       50
102
RTVSPost2010PropOp37
 70
     1
102
RTVSPost2010Prop38
140
0.0
102
RTVSPost2010PropOp38
 70
     1
102
RTVSPost2010Prop39
140
1.0
102
RTVSPost2010PropOp39
 70
     1
102
RTVSPost2010Prop40
 90
        0
102
RTVSPost2010PropOp40
 70
     1
102
RTVSPost2010Prop41ColorIndex
 90
       18
102
RTVSPost2010Prop41ColorRGB
 90
        0
102
RTVSPost2010PropOp41
 70
     1
102
RTVSPost2010Prop42
 90
       50
102
RTVSPost2010PropOp42
 70
     1
102
RTVSPost2010Prop43
 90
        3
102
RTVSPost2010PropOp43
 70
     1
102
RTVSPost2010Prop44ColorIndex
 90
        5
102
RTVSPost2010Prop44ColorRGB
 90
      255
102
RTVSPost2010PropOp44
 70
     1
102
RTVSPost2010Prop45
280
     0
102
RTVSPost2010PropOp45
 70
     1
102
RTVSPost2010Prop46
 90
       50
102
RTVSPost2010PropOp46
 70
     1
102
RTVSPost2010Prop47
 90
       50
102
RTVSPost2010PropOp47
 70
     1
102
RTVSPost2010Prop48
 90
       50
102
RTVSPost2010PropOp48
 70
     1
102
RTVSPost2010Prop49
280
     0
102
RTVSPost2010PropOp49
 70
     1
102
RTVSPost2010Prop50
 90
       50
102
RTVSPost2010PropOp50
 70
     1
102
RTVSPost2010Prop51ColorIndex
 90
      256
102
RTVSPost2010Prop51ColorRGB
 90
-16777216
102
RTVSPost2010PropOp51
 70
     0
102
RTVSPost2010Prop52
140
1.0
102
RTVSPost2010PropOp52
 70
     0
102
RTVSPost2010Prop53
 90
        2
102
RTVSPost2010PropOp53
 70
     1
102
RTVSPost2010Prop54
  1
strokes_ogs.tif
102
RTVSPost2010PropOp54
 70
     1
102
RTVSPost2010Prop55
280
     0
102
RTVSPost2010PropOp55
 70
     1
102
RTVSPost2010Prop56
140
1.0
102
RTVSPost2010PropOp56
 70
     1
102
RTVSPost2010Prop57
140
1.0
102
RTVSPost2010PropOp57
 70
     1
102
RTVSPropertyOp0
 70
     1
102
RTVSPropertyOp1
 70
     1
102
RTVSPropertyOp2
 70
     1
102
RTVSPropertyOp3
 70
     1
102
RTVSPropertyOp4
 70
     1
102
RTVSPropertyOp5
 70
     1
102
RTVSPropertyOp6
 70
     1
102
RTVSPropertyOp7
 70
     1
102
RTVSPropertyOp8
 70
     1
102
RTVSPropertyOp9
 70
     1
102
RTVSPropertyOp10
 70
     1
102
RTVSPropertyOp11
 70
     1
102
RTVSPropertyOp12
 70
     1
102
RTVSPropertyOp13
 70
     1
102
RTVSPropertyOp14
 70
     1
102
RTVSPropertyOp15
 70
     1
102
RTVSPropertyOp16
 70
     1
102
RTVSPropertyOp17
 70
     1
102
RTVSPropertyOp18
 70
     1
102
RTVSPropertyOp19
 70
     1
102
RTVSPropertyOp20
 70
     1
102
RTVSPropertyOp21
 70
     1
102
RTVSPropertyOp22
 70
     1
102
RTVSPropertyOp23
 70
     1
102
RTVSPropertyOp24
 70
     1
102
RTVSPropertyOp25
 70
     1
102
RTVSPropertyOp26
 70
     1
102
RTVSPropertyOp27
 70
     1
102
RTVSPropertyOp28
 70
     1
102
RTVSPropertyOp29
 70
     1
102
RTVSPropertyOp30
 70
     1
102
RTVSPropertyOp31
 70
     1
102
RTVSPropertyOp32
 70
     1
102
RTVSPropertyOp33
 70
     1
102
RTVSPropertyOp34
 70
     1
102
RTVSPropertyOp35
 70
     1
102
RTVSPropertyOp36
 70
     1
102
RTVSPropertyOp37
 70
     1
102
RTVSPropertyOp38
 70
     1
102
RTVSPropertyOp39
 70
     1
102
RTVSPropertyOp40
 70
     1
102
RTVSPropertyOp41
 70
     1
102
RTVSPropertyOp42
 70
     1
102
RTVSPropertyOp43
 70
     1
102
RTVSPropertyOp44
 70
     1
102
RTVSPropertyOp45
 70
     1
102
RTVSPropertyOp46
 70
     1
102
RTVSPropertyOp47
 70
     1
102
RTVSPropertyOp48
 70
     1
102
RTVSPropertyOp49
 70
     1
102
RTVSPropertyOp50
 70
     1
102
RTVSPropertyOp51
 70
     0
102
RTVSPropertyOp52
 70
     0
102
RTVSPropertyOp53
 70
     1
102
RTVSPropertyOp54
 70
     1
102
RTVSPropertyOp55
 70
     1
102
RTVSPropertyOp56
 70
     1
102
RTVSPropertyOp57
 70
     1
102
RTVSPropertyOp58
 70
     1
102
RTVSPropertyOp59
 70
     1
102
RTVSPropertyOp60
 70
     1
102
RTVSPropertyOp61
 70
     1
102
RTVSPropertyOp62
 70
     1
  0
XRECORD
  5
37A
102
{ACAD_REACTORS
330
379
102
}
330
379
100
AcDbXrecord
280
     1
102
RTVSPost2010Prop28
280
     0
102
RTVSPost2010PropOp28
 70
     1
102
RTVSPost2010Prop29
280
     1
102
RTVSPost2010PropOp29
 70
     1
102
RTVSPost2010Prop30
280
     1
102
RTVSPost2010PropOp30
 70
     1
102
RTVSPost2010Prop31
280
     0
102
RTVSPost2010PropOp31
 70
     1
102
RTVSPost2010Prop32
280
     0
102
RTVSPost2010PropOp32
 70
     1
102
RTVSPost2010Prop33
280
     0
102
RTVSPost2010PropOp33
 70
     1
102
RTVSPost2010Prop34
280
     0
102
RTVSPost2010PropOp34
 70
     1
102
RTVSPost2010Prop35
280
     0
102
RTVSPost2010PropOp35
 70
     1
102
RTVSPost2010Prop36
280
     0
102
RTVSPost2010PropOp36
 70
     1
102
RTVSPost2010Prop37
 90
       50
102
RTVSPost2010PropOp37
 70
     1
102
RTVSPost2010Prop38
140
0.0
102
RTVSPost2010PropOp38
 70
     1
102
RTVSPost2010Prop39
140
1.0
102
RTVSPost2010PropOp39
 70
     1
102
RTVSPost2010Prop40
 90
        0
102
RTVSPost2010PropOp40
 70
     1
102
RTVSPost2010Prop41ColorIndex
 90
       18
102
RTVSPost2010Prop41ColorRGB
 90
        0
102
RTVSPost2010PropOp41
 70
     1
102
RTVSPost2010Prop42
 90
       50
102
RTVSPost2010PropOp42
 70
     1
102
RTVSPost2010Prop43
 90
        3
102
RTVSPost2010PropOp43
 70
     1
102
RTVSPost2010Prop44ColorIndex
 90
        5
102
RTVSPost2010Prop44ColorRGB
 90
      255
102
RTVSPost2010PropOp44
 70
     1
102
RTVSPost2010Prop45
280
     0
102
RTVSPost2010PropOp45
 70
     1
102
RTVSPost2010Prop46
 90
       50
102
RTVSPost2010PropOp46
 70
     1
102
RTVSPost2010Prop47
 90
       50
102
RTVSPost2010PropOp47
 70
     1
102
RTVSPost2010Prop48
 90
       50
102
RTVSPost2010PropOp48
 70
     1
102
RTVSPost2010Prop49
280
     0
102
RTVSPost2010PropOp49
 70
     1
102
RTVSPost2010Prop50
 90
       50
102
RTVSPost2010PropOp50
 70
     1
102
RTVSPost2010Prop51ColorIndex
 90
      256
102
RTVSPost2010Prop51ColorRGB
 90
-16777216
102
RTVSPost2010PropOp51
 70
     0
102
RTVSPost2010Prop52
140
1.0
102
RTVSPost2010PropOp52
 70
     0
102
RTVSPost2010Prop53
 90
        2
102
RTVSPost2010PropOp53
 70
     1
102
RTVSPost2010Prop54
  1
strokes_ogs.tif
102
RTVSPost2010PropOp54
 70
     1
102
RTVSPost2010Prop55
280
     0
102
RTVSPost2010PropOp55
 70
     1
102
RTVSPost2010Prop56
140
1.0
102
RTVSPost2010PropOp56
 70
     1
102
RTVSPost2010Prop57
140
1.0
102
RTVSPost2010PropOp57
 70
     1
102
RTVSPropertyOp0
 70
     1
102
RTVSPropertyOp1
 70
     1
102
RTVSPropertyOp2
 70
     1
102
RTVSPropertyOp3
 70
     1
102
RTVSPropertyOp4
 70
     1
102
RTVSPropertyOp5
 70
     1
102
RTVSPropertyOp6
 70
     1
102
RTVSPropertyOp7
 70
     1
102
RTVSPropertyOp8
 70
     1
102
RTVSPropertyOp9
 70
     1
102
RTVSPropertyOp10
 70
     1
102
RTVSPropertyOp11
 70
     1
102
RTVSPropertyOp12
 70
     1
102
RTVSPropertyOp13
 70
     1
102
RTVSPropertyOp14
 70
     1
102
RTVSPropertyOp15
 70
     1
102
RTVSPropertyOp16
 70
     1
102
RTVSPropertyOp17
 70
     1
102
RTVSPropertyOp18
 70
     1
102
RTVSPropertyOp19
 70
     1
102
RTVSPropertyOp20
 70
     1
102
RTVSPropertyOp21
 70
     1
102
RTVSPropertyOp22
 70
     1
102
RTVSPropertyOp23
 70
     1
102
RTVSPropertyOp24
 70
     1
102
RTVSPropertyOp25
 70
     1
102
RTVSPropertyOp26
 70
     1
102
RTVSPropertyOp27
 70
     1
102
RTVSPropertyOp28
 70
     1
102
RTVSPropertyOp29
 70
     1
102
RTVSPropertyOp30
 70
     1
102
RTVSPropertyOp31
 70
     1
102
RTVSPropertyOp32
 70
     1
102
RTVSPropertyOp33
 70
     1
102
RTVSPropertyOp34
 70
     1
102
RTVSPropertyOp35
 70
     1
102
RTVSPropertyOp36
 70
     1
102
RTVSPropertyOp37
 70
     1
102
RTVSPropertyOp38
 70
     1
102
RTVSPropertyOp39
 70
     1
102
RTVSPropertyOp40
 70
     1
102
RTVSPropertyOp41
 70
     1
102
RTVSPropertyOp42
 70
     1
102
RTVSPropertyOp43
 70
     1
102
RTVSPropertyOp44
 70
     1
102
RTVSPropertyOp45
 70
     1
102
RTVSPropertyOp46
 70
     1
102
RTVSPropertyOp47
 70
     1
102
RTVSPropertyOp48
 70
     1
102
RTVSPropertyOp49
 70
     1
102
RTVSPropertyOp50
 70
     1
102
RTVSPropertyOp51
 70
     0
102
RTVSPropertyOp52
 70
     0
102
RTVSPropertyOp53
 70
     1
102
RTVSPropertyOp54
 70
     1
102
RTVSPropertyOp55
 70
     1
102
RTVSPropertyOp56
 70
     1
102
RTVSPropertyOp57
 70
     1
102
RTVSPropertyOp58
 70
     1
102
RTVSPropertyOp59
 70
     1
102
RTVSPropertyOp60
 70
     1
102
RTVSPropertyOp61
 70
     1
102
RTVSPropertyOp62
 70
     1
  0
XRECORD
  5
374
102
{ACAD_REACTORS
330
373
102
}
330
373
100
AcDbXrecord
280
     1
102
RTVSPost2010Prop28
280
     0
102
RTVSPost2010PropOp28
 70
     1
102
RTVSPost2010Prop29
280
     1
102
RTVSPost2010PropOp29
 70
     1
102
RTVSPost2010Prop30
280
     1
102
RTVSPost2010PropOp30
 70
     1
102
RTVSPost2010Prop31
280
     0
102
RTVSPost2010PropOp31
 70
     1
102
RTVSPost2010Prop32
280
     0
102
RTVSPost2010PropOp32
 70
     1
102
RTVSPost2010Prop33
280
     0
102
RTVSPost2010PropOp33
 70
     1
102
RTVSPost2010Prop34
280
     0
102
RTVSPost2010PropOp34
 70
     1
102
RTVSPost2010Prop35
280
     0
102
RTVSPost2010PropOp35
 70
     1
102
RTVSPost2010Prop36
280
     0
102
RTVSPost2010PropOp36
 70
     1
102
RTVSPost2010Prop37
 90
       50
102
RTVSPost2010PropOp37
 70
     1
102
RTVSPost2010Prop38
140
0.0
102
RTVSPost2010PropOp38
 70
     1
102
RTVSPost2010Prop39
140
1.0
102
RTVSPost2010PropOp39
 70
     1
102
RTVSPost2010Prop40
 90
        0
102
RTVSPost2010PropOp40
 70
     1
102
RTVSPost2010Prop41ColorIndex
 90
       18
102
RTVSPost2010Prop41ColorRGB
 90
        0
102
RTVSPost2010PropOp41
 70
     1
102
RTVSPost2010Prop42
 90
       50
102
RTVSPost2010PropOp42
 70
     1
102
RTVSPost2010Prop43
 90
        3
102
RTVSPost2010PropOp43
 70
     1
102
RTVSPost2010Prop44ColorIndex
 90
        5
102
RTVSPost2010Prop44ColorRGB
 90
      255
102
RTVSPost2010PropOp44
 70
     1
102
RTVSPost2010Prop45
280
     0
102
RTVSPost2010PropOp45
 70
     1
102
RTVSPost2010Prop46
 90
       50
102
RTVSPost2010PropOp46
 70
     1
102
RTVSPost2010Prop47
 90
       50
102
RTVSPost2010PropOp47
 70
     1
102
RTVSPost2010Prop48
 90
       50
102
RTVSPost2010PropOp48
 70
     1
102
RTVSPost2010Prop49
280
     0
102
RTVSPost2010PropOp49
 70
     1
102
RTVSPost2010Prop50
 90
       50
102
RTVSPost2010PropOp50
 70
     1
102
RTVSPost2010Prop51ColorIndex
 90
      256
102
RTVSPost2010Prop51ColorRGB
 90
-16777216
102
RTVSPost2010PropOp51
 70
     0
102
RTVSPost2010Prop52
140
1.0
102
RTVSPost2010PropOp52
 70
     0
102
RTVSPost2010Prop53
 90
        2
102
RTVSPost2010PropOp53
 70
     1
102
RTVSPost2010Prop54
  1
strokes_ogs.tif
102
RTVSPost2010PropOp54
 70
     1
102
RTVSPost2010Prop55
280
     0
102
RTVSPost2010PropOp55
 70
     1
102
RTVSPost2010Prop56
140
1.0
102
RTVSPost2010PropOp56
 70
     1
102
RTVSPost2010Prop57
140
1.0
102
RTVSPost2010PropOp57
 70
     1
102
RTVSPropertyOp0
 70
     1
102
RTVSPropertyOp1
 70
     1
102
RTVSPropertyOp2
 70
     1
102
RTVSPropertyOp3
 70
     1
102
RTVSPropertyOp4
 70
     1
102
RTVSPropertyOp5
 70
     1
102
RTVSPropertyOp6
 70
     1
102
RTVSPropertyOp7
 70
     1
102
RTVSPropertyOp8
 70
     1
102
RTVSPropertyOp9
 70
     1
102
RTVSPropertyOp10
 70
     1
102
RTVSPropertyOp11
 70
     1
102
RTVSPropertyOp12
 70
     1
102
RTVSPropertyOp13
 70
     1
102
RTVSPropertyOp14
 70
     1
102
RTVSPropertyOp15
 70
     1
102
RTVSPropertyOp16
 70
     1
102
RTVSPropertyOp17
 70
     1
102
RTVSPropertyOp18
 70
     1
102
RTVSPropertyOp19
 70
     1
102
RTVSPropertyOp20
 70
     1
102
RTVSPropertyOp21
 70
     1
102
RTVSPropertyOp22
 70
     1
102
RTVSPropertyOp23
 70
     1
102
RTVSPropertyOp24
 70
     1
102
RTVSPropertyOp25
 70
     1
102
RTVSPropertyOp26
 70
     1
102
RTVSPropertyOp27
 70
     1
102
RTVSPropertyOp28
 70
     1
102
RTVSPropertyOp29
 70
     1
102
RTVSPropertyOp30
 70
     1
102
RTVSPropertyOp31
 70
     1
102
RTVSPropertyOp32
 70
     1
102
RTVSPropertyOp33
 70
     1
102
RTVSPropertyOp34
 70
     1
102
RTVSPropertyOp35
 70
     1
102
RTVSPropertyOp36
 70
     1
102
RTVSPropertyOp37
 70
     1
102
RTVSPropertyOp38
 70
     1
102
RTVSPropertyOp39
 70
     1
102
RTVSPropertyOp40
 70
     1
102
RTVSPropertyOp41
 70
     1
102
RTVSPropertyOp42
 70
     1
102
RTVSPropertyOp43
 70
     1
102
RTVSPropertyOp44
 70
     1
102
RTVSPropertyOp45
 70
     1
102
RTVSPropertyOp46
 70
     1
102
RTVSPropertyOp47
 70
     1
102
RTVSPropertyOp48
 70
     1
102
RTVSPropertyOp49
 70
     1
102
RTVSPropertyOp50
 70
     1
102
RTVSPropertyOp51
 70
     0
102
RTVSPropertyOp52
 70
     0
102
RTVSPropertyOp53
 70
     1
102
RTVSPropertyOp54
 70
     1
102
RTVSPropertyOp55
 70
     1
102
RTVSPropertyOp56
 70
     1
102
RTVSPropertyOp57
 70
     1
102
RTVSPropertyOp58
 70
     1
102
RTVSPropertyOp59
 70
     1
102
RTVSPropertyOp60
 70
     1
102
RTVSPropertyOp61
 70
     1
102
RTVSPropertyOp62
 70
     1
  0
XRECORD
  5
376
102
{ACAD_REACTORS
330
375
102
}
330
375
100
AcDbXrecord
280
     1
102
RTVSPost2010Prop28
280
     0
102
RTVSPost2010PropOp28
 70
     1
102
RTVSPost2010Prop29
280
     1
102
RTVSPost2010PropOp29
 70
     1
102
RTVSPost2010Prop30
280
     1
102
RTVSPost2010PropOp30
 70
     1
102
RTVSPost2010Prop31
280
     0
102
RTVSPost2010PropOp31
 70
     1
102
RTVSPost2010Prop32
280
     0
102
RTVSPost2010PropOp32
 70
     1
102
RTVSPost2010Prop33
280
     0
102
RTVSPost2010PropOp33
 70
     1
102
RTVSPost2010Prop34
280
     0
102
RTVSPost2010PropOp34
 70
     1
102
RTVSPost2010Prop35
280
     0
102
RTVSPost2010PropOp35
 70
     1
102
RTVSPost2010Prop36
280
     0
102
RTVSPost2010PropOp36
 70
     1
102
RTVSPost2010Prop37
 90
       50
102
RTVSPost2010PropOp37
 70
     1
102
RTVSPost2010Prop38
140
0.0
102
RTVSPost2010PropOp38
 70
     1
102
RTVSPost2010Prop39
140
1.0
102
RTVSPost2010PropOp39
 70
     1
102
RTVSPost2010Prop40
 90
        0
102
RTVSPost2010PropOp40
 70
     1
102
RTVSPost2010Prop41ColorIndex
 90
       18
102
RTVSPost2010Prop41ColorRGB
 90
        0
102
RTVSPost2010PropOp41
 70
     1
102
RTVSPost2010Prop42
 90
       50
102
RTVSPost2010PropOp42
 70
     1
102
RTVSPost2010Prop43
 90
        3
102
RTVSPost2010PropOp43
 70
     1
102
RTVSPost2010Prop44ColorIndex
 90
        5
102
RTVSPost2010Prop44ColorRGB
 90
      255
102
RTVSPost2010PropOp44
 70
     1
102
RTVSPost2010Prop45
280
     0
102
RTVSPost2010PropOp45
 70
     1
102
RTVSPost2010Prop46
 90
       50
102
RTVSPost2010PropOp46
 70
     1
102
RTVSPost2010Prop47
 90
       50
102
RTVSPost2010PropOp47
 70
     1
102
RTVSPost2010Prop48
 90
       50
102
RTVSPost2010PropOp48
 70
     1
102
RTVSPost2010Prop49
280
     0
102
RTVSPost2010PropOp49
 70
     1
102
RTVSPost2010Prop50
 90
       50
102
RTVSPost2010PropOp50
 70
     1
102
RTVSPost2010Prop51ColorIndex
 90
      256
102
RTVSPost2010Prop51ColorRGB
 90
-16777216
102
RTVSPost2010PropOp51
 70
     0
102
RTVSPost2010Prop52
140
1.0
102
RTVSPost2010PropOp52
 70
     0
102
RTVSPost2010Prop53
 90
        2
102
RTVSPost2010PropOp53
 70
     1
102
RTVSPost2010Prop54
  1
strokes_ogs.tif
102
RTVSPost2010PropOp54
 70
     1
102
RTVSPost2010Prop55
280
     0
102
RTVSPost2010PropOp55
 70
     1
102
RTVSPost2010Prop56
140
1.0
102
RTVSPost2010PropOp56
 70
     1
102
RTVSPost2010Prop57
140
1.0
102
RTVSPost2010PropOp57
 70
     1
102
RTVSPropertyOp0
 70
     1
102
RTVSPropertyOp1
 70
     1
102
RTVSPropertyOp2
 70
     1
102
RTVSPropertyOp3
 70
     1
102
RTVSPropertyOp4
 70
     1
102
RTVSPropertyOp5
 70
     1
102
RTVSPropertyOp6
 70
     1
102
RTVSPropertyOp7
 70
     1
102
RTVSPropertyOp8
 70
     1
102
RTVSPropertyOp9
 70
     1
102
RTVSPropertyOp10
 70
     1
102
RTVSPropertyOp11
 70
     1
102
RTVSPropertyOp12
 70
     1
102
RTVSPropertyOp13
 70
     1
102
RTVSPropertyOp14
 70
     1
102
RTVSPropertyOp15
 70
     1
102
RTVSPropertyOp16
 70
     1
102
RTVSPropertyOp17
 70
     1
102
RTVSPropertyOp18
 70
     1
102
RTVSPropertyOp19
 70
     1
102
RTVSPropertyOp20
 70
     1
102
RTVSPropertyOp21
 70
     1
102
RTVSPropertyOp22
 70
     1
102
RTVSPropertyOp23
 70
     1
102
RTVSPropertyOp24
 70
     1
102
RTVSPropertyOp25
 70
     1
102
RTVSPropertyOp26
 70
     1
102
RTVSPropertyOp27
 70
     1
102
RTVSPropertyOp28
 70
     1
102
RTVSPropertyOp29
 70
     1
102
RTVSPropertyOp30
 70
     1
102
RTVSPropertyOp31
 70
     1
102
RTVSPropertyOp32
 70
     1
102
RTVSPropertyOp33
 70
     1
102
RTVSPropertyOp34
 70
     1
102
RTVSPropertyOp35
 70
     1
102
RTVSPropertyOp36
 70
     1
102
RTVSPropertyOp37
 70
     1
102
RTVSPropertyOp38
 70
     1
102
RTVSPropertyOp39
 70
     1
102
RTVSPropertyOp40
 70
     1
102
RTVSPropertyOp41
 70
     1
102
RTVSPropertyOp42
 70
     1
102
RTVSPropertyOp43
 70
     1
102
RTVSPropertyOp44
 70
     1
102
RTVSPropertyOp45
 70
     1
102
RTVSPropertyOp46
 70
     1
102
RTVSPropertyOp47
 70
     1
102
RTVSPropertyOp48
 70
     1
102
RTVSPropertyOp49
 70
     1
102
RTVSPropertyOp50
 70
     1
102
RTVSPropertyOp51
 70
     0
102
RTVSPropertyOp52
 70
     0
102
RTVSPropertyOp53
 70
     1
102
RTVSPropertyOp54
 70
     1
102
RTVSPropertyOp55
 70
     1
102
RTVSPropertyOp56
 70
     1
102
RTVSPropertyOp57
 70
     1
102
RTVSPropertyOp58
 70
     1
102
RTVSPropertyOp59
 70
     1
102
RTVSPropertyOp60
 70
     1
102
RTVSPropertyOp61
 70
     1
102
RTVSPropertyOp62
 70
     1
  0
XRECORD
  5
366
102
{ACAD_REACTORS
330
365
102
}
330
365
100
AcDbXrecord
280
     1
102
RTVSPost2010Prop28
280
     0
102
RTVSPost2010PropOp28
 70
     1
102
RTVSPost2010Prop29
280
     1
102
RTVSPost2010PropOp29
 70
     1
102
RTVSPost2010Prop30
280
     1
102
RTVSPost2010PropOp30
 70
     1
102
RTVSPost2010Prop31
280
     0
102
RTVSPost2010PropOp31
 70
     1
102
RTVSPost2010Prop32
280
     0
102
RTVSPost2010PropOp32
 70
     1
102
RTVSPost2010Prop33
280
     0
102
RTVSPost2010PropOp33
 70
     1
102
RTVSPost2010Prop34
280
     0
102
RTVSPost2010PropOp34
 70
     1
102
RTVSPost2010Prop35
280
     0
102
RTVSPost2010PropOp35
 70
     1
102
RTVSPost2010Prop36
280
     0
102
RTVSPost2010PropOp36
 70
     1
102
RTVSPost2010Prop37
 90
       50
102
RTVSPost2010PropOp37
 70
     1
102
RTVSPost2010Prop38
140
0.0
102
RTVSPost2010PropOp38
 70
     1
102
RTVSPost2010Prop39
140
1.0
102
RTVSPost2010PropOp39
 70
     1
102
RTVSPost2010Prop40
 90
        0
102
RTVSPost2010PropOp40
 70
     1
102
RTVSPost2010Prop41ColorIndex
 90
       18
102
RTVSPost2010Prop41ColorRGB
 90
        0
102
RTVSPost2010PropOp41
 70
     1
102
RTVSPost2010Prop42
 90
       50
102
RTVSPost2010PropOp42
 70
     1
102
RTVSPost2010Prop43
 90
        3
102
RTVSPost2010PropOp43
 70
     1
102
RTVSPost2010Prop44ColorIndex
 90
        5
102
RTVSPost2010Prop44ColorRGB
 90
      255
102
RTVSPost2010PropOp44
 70
     1
102
RTVSPost2010Prop45
280
     0
102
RTVSPost2010PropOp45
 70
     1
102
RTVSPost2010Prop46
 90
       50
102
RTVSPost2010PropOp46
 70
     1
102
RTVSPost2010Prop47
 90
       50
102
RTVSPost2010PropOp47
 70
     1
102
RTVSPost2010Prop48
 90
       50
102
RTVSPost2010PropOp48
 70
     1
102
RTVSPost2010Prop49
280
     0
102
RTVSPost2010PropOp49
 70
     1
102
RTVSPost2010Prop50
 90
       50
102
RTVSPost2010PropOp50
 70
     1
102
RTVSPost2010Prop51ColorIndex
 90
      256
102
RTVSPost2010Prop51ColorRGB
 90
-16777216
102
RTVSPost2010PropOp51
 70
     0
102
RTVSPost2010Prop52
140
1.0
102
RTVSPost2010PropOp52
 70
     0
102
RTVSPost2010Prop53
 90
        2
102
RTVSPost2010PropOp53
 70
     1
102
RTVSPost2010Prop54
  1
strokes_ogs.tif
102
RTVSPost2010PropOp54
 70
     1
102
RTVSPost2010Prop55
280
     0
102
RTVSPost2010PropOp55
 70
     1
102
RTVSPost2010Prop56
140
1.0
102
RTVSPost2010PropOp56
 70
     1
102
RTVSPost2010Prop57
140
1.0
102
RTVSPost2010PropOp57
 70
     1
102
RTVSPropertyOp0
 70
     1
102
RTVSPropertyOp1
 70
     1
102
RTVSPropertyOp2
 70
     1
102
RTVSPropertyOp3
 70
     1
102
RTVSPropertyOp4
 70
     1
102
RTVSPropertyOp5
 70
     1
102
RTVSPropertyOp6
 70
     1
102
RTVSPropertyOp7
 70
     1
102
RTVSPropertyOp8
 70
     1
102
RTVSPropertyOp9
 70
     1
102
RTVSPropertyOp10
 70
     1
102
RTVSPropertyOp11
 70
     1
102
RTVSPropertyOp12
 70
     1
102
RTVSPropertyOp13
 70
     1
102
RTVSPropertyOp14
 70
     1
102
RTVSPropertyOp15
 70
     1
102
RTVSPropertyOp16
 70
     1
102
RTVSPropertyOp17
 70
     1
102
RTVSPropertyOp18
 70
     1
102
RTVSPropertyOp19
 70
     1
102
RTVSPropertyOp20
 70
     1
102
RTVSPropertyOp21
 70
     1
102
RTVSPropertyOp22
 70
     1
102
RTVSPropertyOp23
 70
     1
102
RTVSPropertyOp24
 70
     1
102
RTVSPropertyOp25
 70
     1
102
RTVSPropertyOp26
 70
     1
102
RTVSPropertyOp27
 70
     1
102
RTVSPropertyOp28
 70
     1
102
RTVSPropertyOp29
 70
     1
102
RTVSPropertyOp30
 70
     1
102
RTVSPropertyOp31
 70
     1
102
RTVSPropertyOp32
 70
     1
102
RTVSPropertyOp33
 70
     1
102
RTVSPropertyOp34
 70
     1
102
RTVSPropertyOp35
 70
     1
102
RTVSPropertyOp36
 70
     1
102
RTVSPropertyOp37
 70
     1
102
RTVSPropertyOp38
 70
     1
102
RTVSPropertyOp39
 70
     1
102
RTVSPropertyOp40
 70
     1
102
RTVSPropertyOp41
 70
     1
102
RTVSPropertyOp42
 70
     1
102
RTVSPropertyOp43
 70
     1
102
RTVSPropertyOp44
 70
     1
102
RTVSPropertyOp45
 70
     1
102
RTVSPropertyOp46
 70
     1
102
RTVSPropertyOp47
 70
     1
102
RTVSPropertyOp48
 70
     1
102
RTVSPropertyOp49
 70
     1
102
RTVSPropertyOp50
 70
     1
102
RTVSPropertyOp51
 70
     0
102
RTVSPropertyOp52
 70
     0
102
RTVSPropertyOp53
 70
     1
102
RTVSPropertyOp54
 70
     1
102
RTVSPropertyOp55
 70
     1
102
RTVSPropertyOp56
 70
     1
102
RTVSPropertyOp57
 70
     1
102
RTVSPropertyOp58
 70
     1
102
RTVSPropertyOp59
 70
     1
102
RTVSPropertyOp60
 70
     1
102
RTVSPropertyOp61
 70
     1
102
RTVSPropertyOp62
 70
     1
  0
XRECORD
  5
358
102
{ACAD_REACTORS
330
357
102
}
330
357
100
AcDbXrecord
280
     1
102
RTVSPost2010Prop28
280
     0
102
RTVSPost2010PropOp28
 70
     1
102
RTVSPost2010Prop29
280
     1
102
RTVSPost2010PropOp29
 70
     1
102
RTVSPost2010Prop30
280
     1
102
RTVSPost2010PropOp30
 70
     1
102
RTVSPost2010Prop31
280
     0
102
RTVSPost2010PropOp31
 70
     1
102
RTVSPost2010Prop32
280
     0
102
RTVSPost2010PropOp32
 70
     1
102
RTVSPost2010Prop33
280
     0
102
RTVSPost2010PropOp33
 70
     1
102
RTVSPost2010Prop34
280
     0
102
RTVSPost2010PropOp34
 70
     1
102
RTVSPost2010Prop35
280
     0
102
RTVSPost2010PropOp35
 70
     1
102
RTVSPost2010Prop36
280
     0
102
RTVSPost2010PropOp36
 70
     1
102
RTVSPost2010Prop37
 90
       50
102
RTVSPost2010PropOp37
 70
     1
102
RTVSPost2010Prop38
140
0.0
102
RTVSPost2010PropOp38
 70
     1
102
RTVSPost2010Prop39
140
1.0
102
RTVSPost2010PropOp39
 70
     1
102
RTVSPost2010Prop40
 90
        0
102
RTVSPost2010PropOp40
 70
     1
102
RTVSPost2010Prop41ColorIndex
 90
       18
102
RTVSPost2010Prop41ColorRGB
 90
        0
102
RTVSPost2010PropOp41
 70
     1
102
RTVSPost2010Prop42
 90
       50
102
RTVSPost2010PropOp42
 70
     1
102
RTVSPost2010Prop43
 90
        3
102
RTVSPost2010PropOp43
 70
     1
102
RTVSPost2010Prop44ColorIndex
 90
        5
102
RTVSPost2010Prop44ColorRGB
 90
      255
102
RTVSPost2010PropOp44
 70
     1
102
RTVSPost2010Prop45
280
     0
102
RTVSPost2010PropOp45
 70
     1
102
RTVSPost2010Prop46
 90
       50
102
RTVSPost2010PropOp46
 70
     1
102
RTVSPost2010Prop47
 90
       50
102
RTVSPost2010PropOp47
 70
     1
102
RTVSPost2010Prop48
 90
       50
102
RTVSPost2010PropOp48
 70
     1
102
RTVSPost2010Prop49
280
     0
102
RTVSPost2010PropOp49
 70
     1
102
RTVSPost2010Prop50
 90
       50
102
RTVSPost2010PropOp50
 70
     1
102
RTVSPost2010Prop51ColorIndex
 90
      256
102
RTVSPost2010Prop51ColorRGB
 90
-16777216
102
RTVSPost2010PropOp51
 70
     0
102
RTVSPost2010Prop52
140
1.0
102
RTVSPost2010PropOp52
 70
     0
102
RTVSPost2010Prop53
 90
        2
102
RTVSPost2010PropOp53
 70
     1
102
RTVSPost2010Prop54
  1
strokes_ogs.tif
102
RTVSPost2010PropOp54
 70
     1
102
RTVSPost2010Prop55
280
     0
102
RTVSPost2010PropOp55
 70
     1
102
RTVSPost2010Prop56
140
1.0
102
RTVSPost2010PropOp56
 70
     1
102
RTVSPost2010Prop57
140
1.0
102
RTVSPost2010PropOp57
 70
     1
102
RTVSPropertyOp0
 70
     1
102
RTVSPropertyOp1
 70
     1
102
RTVSPropertyOp2
 70
     1
102
RTVSPropertyOp3
 70
     1
102
RTVSPropertyOp4
 70
     1
102
RTVSPropertyOp5
 70
     1
102
RTVSPropertyOp6
 70
     1
102
RTVSPropertyOp7
 70
     1
102
RTVSPropertyOp8
 70
     1
102
RTVSPropertyOp9
 70
     1
102
RTVSPropertyOp10
 70
     1
102
RTVSPropertyOp11
 70
     1
102
RTVSPropertyOp12
 70
     1
102
RTVSPropertyOp13
 70
     1
102
RTVSPropertyOp14
 70
     1
102
RTVSPropertyOp15
 70
     1
102
RTVSPropertyOp16
 70
     1
102
RTVSPropertyOp17
 70
     1
102
RTVSPropertyOp18
 70
     1
102
RTVSPropertyOp19
 70
     1
102
RTVSPropertyOp20
 70
     1
102
RTVSPropertyOp21
 70
     1
102
RTVSPropertyOp22
 70
     1
102
RTVSPropertyOp23
 70
     1
102
RTVSPropertyOp24
 70
     1
102
RTVSPropertyOp25
 70
     1
102
RTVSPropertyOp26
 70
     1
102
RTVSPropertyOp27
 70
     1
102
RTVSPropertyOp28
 70
     1
102
RTVSPropertyOp29
 70
     1
102
RTVSPropertyOp30
 70
     1
102
RTVSPropertyOp31
 70
     1
102
RTVSPropertyOp32
 70
     1
102
RTVSPropertyOp33
 70
     1
102
RTVSPropertyOp34
 70
     1
102
RTVSPropertyOp35
 70
     1
102
RTVSPropertyOp36
 70
     1
102
RTVSPropertyOp37
 70
     1
102
RTVSPropertyOp38
 70
     1
102
RTVSPropertyOp39
 70
     1
102
RTVSPropertyOp40
 70
     1
102
RTVSPropertyOp41
 70
     1
102
RTVSPropertyOp42
 70
     1
102
RTVSPropertyOp43
 70
     1
102
RTVSPropertyOp44
 70
     1
102
RTVSPropertyOp45
 70
     1
102
RTVSPropertyOp46
 70
     1
102
RTVSPropertyOp47
 70
     1
102
RTVSPropertyOp48
 70
     1
102
RTVSPropertyOp49
 70
     1
102
RTVSPropertyOp50
 70
     1
102
RTVSPropertyOp51
 70
     0
102
RTVSPropertyOp52
 70
     0
102
RTVSPropertyOp53
 70
     1
102
RTVSPropertyOp54
 70
     1
102
RTVSPropertyOp55
 70
     1
102
RTVSPropertyOp56
 70
     1
102
RTVSPropertyOp57
 70
     1
102
RTVSPropertyOp58
 70
     1
102
RTVSPropertyOp59
 70
     1
102
RTVSPropertyOp60
 70
     1
102
RTVSPropertyOp61
 70
     1
102
RTVSPropertyOp62
 70
     1
  0
XRECORD
  5
378
102
{ACAD_REACTORS
330
377
102
}
330
377
100
AcDbXrecord
280
     1
102
RTVSPost2010Prop28
280
     0
102
RTVSPost2010PropOp28
 70
     1
102
RTVSPost2010Prop29
280
     1
102
RTVSPost2010PropOp29
 70
     1
102
RTVSPost2010Prop30
280
     1
102
RTVSPost2010PropOp30
 70
     1
102
RTVSPost2010Prop31
280
     0
102
RTVSPost2010PropOp31
 70
     1
102
RTVSPost2010Prop32
280
     0
102
RTVSPost2010PropOp32
 70
     1
102
RTVSPost2010Prop33
280
     0
102
RTVSPost2010PropOp33
 70
     1
102
RTVSPost2010Prop34
280
     0
102
RTVSPost2010PropOp34
 70
     1
102
RTVSPost2010Prop35
280
     0
102
RTVSPost2010PropOp35
 70
     1
102
RTVSPost2010Prop36
280
     0
102
RTVSPost2010PropOp36
 70
     1
102
RTVSPost2010Prop37
 90
       50
102
RTVSPost2010PropOp37
 70
     1
102
RTVSPost2010Prop38
140
0.0
102
RTVSPost2010PropOp38
 70
     1
102
RTVSPost2010Prop39
140
1.0
102
RTVSPost2010PropOp39
 70
     1
102
RTVSPost2010Prop40
 90
        0
102
RTVSPost2010PropOp40
 70
     1
102
RTVSPost2010Prop41ColorIndex
 90
       18
102
RTVSPost2010Prop41ColorRGB
 90
        0
102
RTVSPost2010PropOp41
 70
     1
102
RTVSPost2010Prop42
 90
       50
102
RTVSPost2010PropOp42
 70
     1
102
RTVSPost2010Prop43
 90
        3
102
RTVSPost2010PropOp43
 70
     1
102
RTVSPost2010Prop44ColorIndex
 90
        5
102
RTVSPost2010Prop44ColorRGB
 90
      255
102
RTVSPost2010PropOp44
 70
     1
102
RTVSPost2010Prop45
280
     0
102
RTVSPost2010PropOp45
 70
     1
102
RTVSPost2010Prop46
 90
       50
102
RTVSPost2010PropOp46
 70
     1
102
RTVSPost2010Prop47
 90
       50
102
RTVSPost2010PropOp47
 70
     1
102
RTVSPost2010Prop48
 90
       50
102
RTVSPost2010PropOp48
 70
     1
102
RTVSPost2010Prop49
280
     0
102
RTVSPost2010PropOp49
 70
     1
102
RTVSPost2010Prop50
 90
       50
102
RTVSPost2010PropOp50
 70
     1
102
RTVSPost2010Prop51ColorIndex
 90
      256
102
RTVSPost2010Prop51ColorRGB
 90
-16777216
102
RTVSPost2010PropOp51
 70
     0
102
RTVSPost2010Prop52
140
1.0
102
RTVSPost2010PropOp52
 70
     0
102
RTVSPost2010Prop53
 90
        2
102
RTVSPost2010PropOp53
 70
     1
102
RTVSPost2010Prop54
  1
strokes_ogs.tif
102
RTVSPost2010PropOp54
 70
     1
102
RTVSPost2010Prop55
280
     0
102
RTVSPost2010PropOp55
 70
     1
102
RTVSPost2010Prop56
140
1.0
102
RTVSPost2010PropOp56
 70
     1
102
RTVSPost2010Prop57
140
1.0
102
RTVSPost2010PropOp57
 70
     1
102
RTVSPropertyOp0
 70
     1
102
RTVSPropertyOp1
 70
     1
102
RTVSPropertyOp2
 70
     1
102
RTVSPropertyOp3
 70
     1
102
RTVSPropertyOp4
 70
     1
102
RTVSPropertyOp5
 70
     1
102
RTVSPropertyOp6
 70
     1
102
RTVSPropertyOp7
 70
     1
102
RTVSPropertyOp8
 70
     1
102
RTVSPropertyOp9
 70
     1
102
RTVSPropertyOp10
 70
     1
102
RTVSPropertyOp11
 70
     1
102
RTVSPropertyOp12
 70
     1
102
RTVSPropertyOp13
 70
     1
102
RTVSPropertyOp14
 70
     1
102
RTVSPropertyOp15
 70
     1
102
RTVSPropertyOp16
 70
     1
102
RTVSPropertyOp17
 70
     1
102
RTVSPropertyOp18
 70
     1
102
RTVSPropertyOp19
 70
     1
102
RTVSPropertyOp20
 70
     1
102
RTVSPropertyOp21
 70
     1
102
RTVSPropertyOp22
 70
     1
102
RTVSPropertyOp23
 70
     1
102
RTVSPropertyOp24
 70
     1
102
RTVSPropertyOp25
 70
     1
102
RTVSPropertyOp26
 70
     1
102
RTVSPropertyOp27
 70
     1
102
RTVSPropertyOp28
 70
     1
102
RTVSPropertyOp29
 70
     1
102
RTVSPropertyOp30
 70
     1
102
RTVSPropertyOp31
 70
     1
102
RTVSPropertyOp32
 70
     1
102
RTVSPropertyOp33
 70
     1
102
RTVSPropertyOp34
 70
     1
102
RTVSPropertyOp35
 70
     1
102
RTVSPropertyOp36
 70
     1
102
RTVSPropertyOp37
 70
     1
102
RTVSPropertyOp38
 70
     1
102
RTVSPropertyOp39
 70
     1
102
RTVSPropertyOp40
 70
     1
102
RTVSPropertyOp41
 70
     1
102
RTVSPropertyOp42
 70
     1
102
RTVSPropertyOp43
 70
     1
102
RTVSPropertyOp44
 70
     1
102
RTVSPropertyOp45
 70
     1
102
RTVSPropertyOp46
 70
     1
102
RTVSPropertyOp47
 70
     1
102
RTVSPropertyOp48
 70
     1
102
RTVSPropertyOp49
 70
     1
102
RTVSPropertyOp50
 70
     1
102
RTVSPropertyOp51
 70
     0
102
RTVSPropertyOp52
 70
     0
102
RTVSPropertyOp53
 70
     1
102
RTVSPropertyOp54
 70
     1
102
RTVSPropertyOp55
 70
     1
102
RTVSPropertyOp56
 70
     1
102
RTVSPropertyOp57
 70
     1
102
RTVSPropertyOp58
 70
     1
102
RTVSPropertyOp59
 70
     1
102
RTVSPropertyOp60
 70
     1
102
RTVSPropertyOp61
 70
     1
102
RTVSPropertyOp62
 70
     1
  0
ENDSEC
  0
EOF
