  0
SECTION
  2
HEADER
  9
$ACADVER
  1
AC1018
  9
$ACADMAINTVER
 70
   104
  9
$DWGCODEPAGE
  3
ANSI_1250
  9
$LASTSAVEDBY
  1
hm1535
  9
$INSBASE
 10
0.0
 20
0.0
 30
0.0
  9
$EXTMIN
 10
274.8334133333333
 20
21.404126
 30
0.0
  9
$EXTMAX
 10
587.478648
 20
405.7652486666667
 30
0.0
  9
$LIMMIN
 10
-0.5
 20
-0.5
  9
$LIMMAX
 10
5.0
 20
5.0
  9
$ORTHOMODE
 70
     0
  9
$REGENMODE
 70
     1
  9
$FILLMODE
 70
     1
  9
$QTEXTMODE
 70
     0
  9
$MIRRTEXT
 70
     1
  9
$LTSCALE
 40
1.0
  9
$ATTMODE
 70
     1
  9
$TEXTSIZE
 40
0.2
  9
$TRACEWID
 40
0.05
  9
$TEXTSTYLE
  7
Standard
  9
$CLAYER
  8
0
  9
$CELTYPE
  6
ByLayer
  9
$CECOLOR
 62
   256
  9
$CELTSCALE
 40
1.0
  9
$DISPSILH
 70
     0
  9
$DIMSCALE
 40
1.0
  9
$DIMASZ
 40
0.18
  9
$DIMEXO
 40
0.0625
  9
$DIMDLI
 40
0.38
  9
$DIMRND
 40
0.0
  9
$DIMDLE
 40
0.0
  9
$DIMEXE
 40
0.18
  9
$DIMTP
 40
0.0
  9
$DIMTM
 40
0.0
  9
$DIMTXT
 40
0.18
  9
$DIMCEN
 40
0.09
  9
$DIMTSZ
 40
0.0
  9
$DIMTOL
 70
     0
  9
$DIMLIM
 70
     0
  9
$DIMTIH
 70
     1
  9
$DIMTOH
 70
     1
  9
$DIMSE1
 70
     0
  9
$DIMSE2
 70
     0
  9
$DIMTAD
 70
     0
  9
$DIMZIN
 70
     0
  9
$DIMBLK
  1

  9
$DIMASO
 70
     1
  9
$DIMSHO
 70
     1
  9
$DIMPOST
  1

  9
$DIMAPOST
  1

  9
$DIMALT
 70
     0
  9
$DIMALTD
 70
     2
  9
$DIMALTF
 40
25.4
  9
$DIMLFAC
 40
1.0
  9
$DIMTOFL
 70
     0
  9
$DIMTVP
 40
0.0
  9
$DIMTIX
 70
     0
  9
$DIMSOXD
 70
     0
  9
$DIMSAH
 70
     0
  9
$DIMBLK1
  1

  9
$DIMBLK2
  1

  9
$DIMSTYLE
  2
Standard
  9
$DIMCLRD
 70
     0
  9
$DIMCLRE
 70
     0
  9
$DIMCLRT
 70
     0
  9
$DIMTFAC
 40
1.0
  9
$DIMGAP
 40
0.09
  9
$DIMJUST
 70
     0
  9
$DIMSD1
 70
     0
  9
$DIMSD2
 70
     0
  9
$DIMTOLJ
 70
     1
  9
$DIMTZIN
 70
     0
  9
$DIMALTZ
 70
     0
  9
$DIMALTTZ
 70
     0
  9
$DIMUPT
 70
     0
  9
$DIMDEC
 70
     4
  9
$DIMTDEC
 70
     4
  9
$DIMALTU
 70
     2
  9
$DIMALTTD
 70
     2
  9
$DIMTXSTY
  7
Standard
  9
$DIMAUNIT
 70
     0
  9
$DIMADEC
 70
     0
  9
$DIMALTRND
 40
0.0
  9
$DIMAZIN
 70
     0
  9
$DIMDSEP
 70
    46
  9
$DIMATFIT
 70
     3
  9
$DIMFRAC
 70
     0
  9
$DIMLDRBLK
  1

  9
$DIMLUNIT
 70
     2
  9
$DIMLWD
 70
    -2
  9
$DIMLWE
 70
    -2
  9
$DIMTMOVE
 70
     0
  9
$LUNITS
 70
     2
  9
$LUPREC
 70
     2
  9
$SKETCHINC
 40
0.1
  9
$FILLETRAD
 40
0.5
  9
$AUNITS
 70
     0
  9
$AUPREC
 70
     0
  9
$MENU
  1
.
  9
$ELEVATION
 40
0.0
  9
$PELEVATION
 40
0.0
  9
$THICKNESS
 40
0.0
  9
$LIMCHECK
 70
     0
  9
$CHAMFERA
 40
0.0
  9
$CHAMFERB
 40
0.0
  9
$CHAMFERC
 40
0.0
  9
$CHAMFERD
 40
0.0
  9
$SKPOLY
 70
     0
  9
$TDCREATE
 40
2458877.559571760
  9
$TDUCREATE
 40
2458877.517916458
  9
$TDUPDATE
 40
2458877.559895833
  9
$TDUUPDATE
 40
2458877.518229167
  9
$TDINDWG
 40
0.0001389005
  9
$TDUSRTIMER
 40
0.0001389005
  9
$USRTIMER
 70
     1
  9
$ANGBASE
 50
0.0
  9
$ANGDIR
 70
     0
  9
$PDMODE
 70
     0
  9
$PDSIZE
 40
0.0
  9
$PLINEWID
 40
0.0
  9
$SPLFRAME
 70
     0
  9
$SPLINETYPE
 70
     6
  9
$SPLINESEGS
 70
     8
  9
$HANDSEED
  5
3A9
  9
$SURFTAB1
 70
     6
  9
$SURFTAB2
 70
     6
  9
$SURFTYPE
 70
     6
  9
$SURFU
 70
     6
  9
$SURFV
 70
     6
  9
$UCSBASE
  2

  9
$UCSNAME
  2

  9
$UCSORG
 10
322.174849
 20
366.008075
 30
0.0
  9
$UCSXDIR
 10
1.0
 20
0.0
 30
0.0
  9
$UCSYDIR
 10
0.0
 20
1.0
 30
0.0
  9
$UCSORTHOREF
  2

  9
$UCSORTHOVIEW
 70
     0
  9
$UCSORGTOP
 10
0.0
 20
0.0
 30
0.0
  9
$UCSORGBOTTOM
 10
0.0
 20
0.0
 30
0.0
  9
$UCSORGLEFT
 10
0.0
 20
0.0
 30
0.0
  9
$UCSORGRIGHT
 10
0.0
 20
0.0
 30
0.0
  9
$UCSORGFRONT
 10
0.0
 20
0.0
 30
0.0
  9
$UCSORGBACK
 10
0.0
 20
0.0
 30
0.0
  9
$PUCSBASE
  2

  9
$PUCSNAME
  2

  9
$PUCSORG
 10
0.0
 20
0.0
 30
0.0
  9
$PUCSXDIR
 10
1.0
 20
0.0
 30
0.0
  9
$PUCSYDIR
 10
0.0
 20
1.0
 30
0.0
  9
$PUCSORTHOREF
  2

  9
$PUCSORTHOVIEW
 70
     0
  9
$PUCSORGTOP
 10
0.0
 20
0.0
 30
0.0
  9
$PUCSORGBOTTOM
 10
0.0
 20
0.0
 30
0.0
  9
$PUCSORGLEFT
 10
0.0
 20
0.0
 30
0.0
  9
$PUCSORGRIGHT
 10
0.0
 20
0.0
 30
0.0
  9
$PUCSORGFRONT
 10
0.0
 20
0.0
 30
0.0
  9
$PUCSORGBACK
 10
0.0
 20
0.0
 30
0.0
  9
$USERI1
 70
     0
  9
$USERI2
 70
     0
  9
$USERI3
 70
     0
  9
$USERI4
 70
     0
  9
$USERI5
 70
     0
  9
$USERR1
 40
0.0
  9
$USERR2
 40
0.0
  9
$USERR3
 40
0.0
  9
$USERR4
 40
0.0
  9
$USERR5
 40
0.0
  9
$WORLDVIEW
 70
     1
  9
$SHADEDGE
 70
     3
  9
$SHADEDIF
 70
    70
  9
$TILEMODE
 70
     1
  9
$MAXACTVP
 70
    64
  9
$PINSBASE
 10
0.0
 20
0.0
 30
0.0
  9
$PLIMCHECK
 70
     0
  9
$PEXTMIN
 10
-0.5
 20
-0.5
 30
-0.5
  9
$PEXTMAX
 10
5.0
 20
5.0
 30
5.0
  9
$PLIMMIN
 10
-0.5
 20
-0.5
  9
$PLIMMAX
 10
5.0
 20
5.0
  9
$UNITMODE
 70
     0
  9
$VISRETAIN
 70
     1
  9
$PLINEGEN
 70
     0
  9
$PSLTSCALE
 70
     1
  9
$TREEDEPTH
 70
  3020
  9
$CMLSTYLE
  2
Standard
  9
$CMLJUST
 70
     0
  9
$CMLSCALE
 40
1.0
  9
$PROXYGRAPHICS
 70
     1
  9
$MEASUREMENT
 70
     1
  9
$CELWEIGHT
370
    13
  9
$ENDCAPS
280
     0
  9
$JOINSTYLE
280
     0
  9
$LWDISPLAY
290
     0
  9
$INSUNITS
 70
     4
  9
$HYPERLINKBASE
  1

  9
$STYLESHEET
  1

  9
$XEDIT
290
     1
  9
$CEPSNTYPE
380
     0
  9
$PSTYLEMODE
290
     1
  9
$FINGERPRINTGUID
  2
{68B647C0-939E-4EB3-A811-B4FC203D9671}
  9
$VERSIONGUID
  2
{A573E85E-40CF-2847-A127-BD7E602FA842}
  9
$EXTNAMES
290
     1
  9
$PSVPSCALE
 40
0.0
  9
$OLESTARTUP
290
     0
  9
$SORTENTS
280
   127
  9
$INDEXCTL
280
     0
  9
$HIDETEXT
280
     1
  9
$XCLIPFRAME
290
     0
  9
$HALOGAP
280
     0
  9
$OBSCOLOR
 70
   257
  9
$OBSLTYPE
280
     0
  9
$INTERSECTIONDISPLAY
280
     0
  9
$INTERSECTIONCOLOR
 70
   257
  9
$DIMASSOC
280
     2
  9
$PROJECTNAME
  1

  0
ENDSEC
  0
SECTION
  2
CLASSES
  0
CLASS
  1
ACDBDICTIONARYWDFLT
  2
AcDbDictionaryWithDefault
  3
ObjectDBX Classes
 90
        0
 91
        1
280
     0
281
     0
  0
CLASS
  1
VISUALSTYLE
  2
AcDbVisualStyle
  3
ObjectDBX Classes
 90
     4095
 91
       24
280
     0
281
     0
  0
CLASS
  1
MATERIAL
  2
AcDbMaterial
  3
ObjectDBX Classes
 90
     1153
 91
        3
280
     0
281
     0
  0
CLASS
  1
SCALE
  2
AcDbScale
  3
ObjectDBX Classes
 90
     1153
 91
       33
280
     0
281
     0
  0
CLASS
  1
TABLESTYLE
  2
AcDbTableStyle
  3
ObjectDBX Classes
 90
     4095
 91
        1
280
     0
281
     0
  0
CLASS
  1
MLEADERSTYLE
  2
AcDbMLeaderStyle
  3
ACDB_MLEADERSTYLE_CLASS
 90
     4095
 91
        1
280
     0
281
     0
  0
CLASS
  1
SUN
  2
AcDbSun
  3
SCENEOE
 90
     1153
 91
        0
280
     0
281
     0
  0
CLASS
  1
IMAGEDEF
  2
AcDbRasterImageDef
  3
ISM
 90
        0
 91
        1
280
     0
281
     0
  0
CLASS
  1
IMAGE
  2
AcDbRasterImage
  3
ISM
 90
     2175
 91
        1
280
     0
281
     1
  0
CLASS
  1
IMAGEDEF_REACTOR
  2
AcDbRasterImageDefReactor
  3
ISM
 90
        1
 91
        1
280
     0
281
     0
  0
CLASS
  1
DIMASSOC
  2
AcDbDimAssoc
  3
"AcDbDimAssoc|Product Desc:     AcDim ARX App For Dimension|Company:          Autodesk, Inc.|WEB Address:      www.autodesk.com"
 90
        0
 91
        6
280
     0
281
     0
  0
CLASS
  1
DICTIONARYVAR
  2
AcDbDictionaryVar
  3
ObjectDBX Classes
 90
        0
 91
        8
280
     0
281
     0
  0
CLASS
  1
CELLSTYLEMAP
  2
AcDbCellStyleMap
  3
ObjectDBX Classes
 90
     1152
 91
        2
280
     0
281
     0
  0
CLASS
  1
ACDBSECTIONVIEWSTYLE
  2
AcDbSectionViewStyle
  3
ObjectDBX Classes
 90
     1025
 91
        2
280
     0
281
     0
  0
CLASS
  1
ACDBDETAILVIEWSTYLE
  2
AcDbDetailViewStyle
  3
ObjectDBX Classes
 90
     1025
 91
        2
280
     0
281
     0
  0
CLASS
  1
RASTERVARIABLES
  2
AcDbRasterVariables
  3
ISM
 90
        0
 91
        1
280
     0
281
     0
  0
CLASS
  1
AMGSETTINGSOBJ
  2
AmgSettingsObj
  3
"AcadM|Product Description: AutoCAD Mechanical|Company: Autodesk, Inc."
 90
     1024
 91
        2
280
     0
281
     0
  0
CLASS
  1
ACME_DOCUMENT
  2
AcMeDbDoc
  3
AcMeServices
 90
     1024
 91
        1
280
     0
281
     0
  0
CLASS
  1
ACMESCOPE
  2
AcMeScope
  3
AcMeServices
 90
     1024
 91
        1
280
     0
281
     0
  0
CLASS
  1
ACMECOMMANDHISTORY
  2
AcMeCommandHistory
  3
AcMeServices
 90
     1024
 91
        1
280
     0
281
     0
  0
CLASS
  1
ACIMSYSVARMAN
  2
AcImSysVarManager
  3
AcMeServices
 90
     1024
 91
        3
280
     0
281
     0
  0
CLASS
  1
ACIMINTSYSVAR
  2
AcImIntSysVar
  3
AcMeServices
 90
     1024
 91
        2
280
     0
281
     0
  0
CLASS
  1
ACMESTATEMGR
  2
AcMeStateMgr
  3
AcMeServices
 90
     1024
 91
        1
280
     0
281
     0
  0
CLASS
  1
ACDBENTITYCACHE
  2
AcMeEntityCache
  3
AcMeServices
 90
     1024
 91
        1
280
     0
281
     0
  0
CLASS
  1
ACGREFMASTER
  2
AcGrefMaster
  3
AcAttribServices
 90
     1024
 91
        1
280
     0
281
     0
  0
CLASS
  1
ACME_DATABASE
  2
AcMeDbDatabase
  3
AcMeServices
 90
     1024
 91
        1
280
     0
281
     0
  0
CLASS
  1
ACRFINSADJUSTERMGR
  2
AcRfInsAdjusterMgr
  3
AcMeServices
 90
     1024
 91
        1
280
     0
281
     0
  0
CLASS
  1
ACGREFACADMASTER
  2
AcGrefacadMaster
  3
AcGrefServices
 90
     1024
 91
        1
280
     0
281
     0
  0
CLASS
  1
AMIMASTER
  2
AmiMaster
  3
AmiServices
 90
     1024
 91
        1
280
     0
281
     0
  0
CLASS
  1
AMDTMENUSTATEMGR
  2
AmdtMenuStateMgr
  3
McadcomServices
 90
     1024
 91
        1
280
     0
281
     0
  0
CLASS
  1
AMDTMCOMMENUSTATE
  2
AmdtMcomMenuState
  3
McadcomServices
 90
     1024
 91
        1
280
     0
281
     0
  0
CLASS
  1
MAPIAMMOUDLE
  2
MApiAmModule
  3
MApiAmServices
 90
     1024
 91
        1
280
     0
281
     0
  0
CLASS
  1
ACIMSTRSYSVAR
  2
AcImStrSysVar
  3
AcMeServices
 90
     1024
 91
        5
280
     0
281
     0
  0
CLASS
  1
AMDTAMMENUSTATE
  2
AmdtAmMenuState
  3
DesignerAssemblies_arx
 90
     1024
 91
        1
280
     0
281
     0
  0
CLASS
  1
ACAMPROJECT
  2
AcAmProject
  3
DesignerAssemblies
 90
     1024
 91
        1
280
     0
281
     0
  0
CLASS
  1
ACAMGRCOMPDEF
  2
AcAmGrCompDef
  3
DesignerAssemblies
 90
     1024
 91
        1
280
     0
281
     0
  0
CLASS
  1
ACAMCOMPDEF
  2
AcAmCompDef
  3
DesignerAssemblies
 90
     1024
 91
        1
280
     0
281
     0
  0
CLASS
  1
ACAMCOMPDEFMGR
  2
AcAmCompDefMgr
  3
DesignerAssemblies
 90
     1024
 91
        1
280
     0
281
     0
  0
CLASS
  1
AMCONTEXTMGR
  2
AcAmContextMgr
  3
DesignerAssemblies
 90
     1024
 91
        1
280
     0
281
     0
  0
CLASS
  1
ACAMCONTEXTMODELER
  2
AcAmContextModeler
  3
DesignerAssemblies
 90
     1024
 91
        1
280
     0
281
     0
  0
CLASS
  1
ACMDATADICTIONARY
  2
AcmDataDictionary
  3
"AcmSymBB|Product Description: AutoCAD Mechanical|Company: Autodesk, Inc."
 90
     1024
 91
        1
280
     0
281
     0
  0
CLASS
  1
ACAMGRCOMPDEFSET
  2
AcAmGrCompDefSet
  3
DesignerAssemblies
 90
     1024
 91
        1
280
     0
281
     0
  0
CLASS
  1
AMDTBROWSERDBTAB
  2
AmdtBrowserDbTab
  3
McadcomServices
 90
     1024
 91
        1
280
     0
281
     0
  0
CLASS
  1
CBROWSERAPPOBJECT
  2
CBrowserAppObject
  3
McadcomServices
 90
     1024
 91
        2
280
     0
281
     0
  0
CLASS
  1
DM_PLACEHOLDER
  2
AcDmSelsetPlaceholder
  3
McadcomServices
 90
     1024
 91
        1
280
     0
281
     0
  0
CLASS
  1
ACMSTANDARDISO
  2
AcmStandardISO
  3
"Amdt_StdImp|Product Description: AutoCAD Mechanical|Company: Autodesk, Inc."
 90
     1024
 91
        1
280
     0
281
     0
  0
CLASS
  1
AMDTEDGESTANDARDISO13715
  2
AmdtEdgeStdISO13715
  3
"Amdt_StdImp|Product Description: AutoCAD Mechanical|Company: Autodesk, Inc."
 90
     1024
 91
        1
280
     0
281
     0
  0
CLASS
  1
ACMSURFSTANDARDISO2002
  2
AcmSurfTextStdISO2002
  3
"Amdt_StdImp|Product Description: AutoCAD Mechanical|Company: Autodesk, Inc."
 90
     1024
 91
        1
280
     0
281
     0
  0
CLASS
  1
ACMFCFSTANDARDISO2012
  2
AcmFCFStdISO2012
  3
"Amdt_StdImp|Product Description: AutoCAD Mechanical|Company: Autodesk, Inc."
 90
     1024
 91
        1
280
     0
281
     0
  0
CLASS
  1
ACMWELDSTANDARDISO
  2
AcmWeldingStdISO
  3
"Amdt_StdImp|Product Description: AutoCAD Mechanical|Company: Autodesk, Inc."
 90
     1024
 91
        1
280
     0
281
     0
  0
CLASS
  1
ACMIDSTANDARDISO2012
  2
AcmIdStdISO2012
  3
"Amdt_StdImp|Product Description: AutoCAD Mechanical|Company: Autodesk, Inc."
 90
     1024
 91
        1
280
     0
281
     0
  0
CLASS
  1
ACMDATUMSTANDARDISO2012
  2
AcmDatumStdISO2012
  3
"Amdt_StdImp|Product Description: AutoCAD Mechanical|Company: Autodesk, Inc."
 90
     1024
 91
        1
280
     0
281
     0
  0
CLASS
  1
ACMBOMSTANDARDISO
  2
AcmBOMStdISO
  3
"Amdt_StdImp|Product Description: AutoCAD Mechanical|Company: Autodesk, Inc."
 90
     1024
 91
        1
280
     0
281
     0
  0
CLASS
  1
ACMDETAILSTANDARDISO
  2
AmdtDetailSymStdISO
  3
"Amdt_StdImp|Product Description: AutoCAD Mechanical|Company: Autodesk, Inc."
 90
     1024
 91
        1
280
     0
281
     0
  0
CLASS
  1
ACMSECTIONSTANDARDISO2001
  2
AmdtSectionSymStdISO2001
  3
"Amdt_StdImp|Product Description: AutoCAD Mechanical|Company: Autodesk, Inc."
 90
     1024
 91
        1
280
     0
281
     0
  0
CLASS
  1
ACMCENTERLINESTANDARDISO
  2
AmdtCenterLineStdISO
  3
"Amdt_StdImp|Product Description: AutoCAD Mechanical|Company: Autodesk, Inc."
 90
     1024
 91
        1
280
     0
281
     0
  0
CLASS
  1
ACMTHREADLINESTANDARDISO
  2
AmdtThreadLineStdISO
  3
"Amdt_StdImp|Product Description: AutoCAD Mechanical|Company: Autodesk, Inc."
 90
     1024
 91
        1
280
     0
281
     0
  0
CLASS
  1
ACMNOTESTANDARDISO
  2
AmdtNoteStdISO
  3
"Amdt_StdImp|Product Description: AutoCAD Mechanical|Company: Autodesk, Inc."
 90
     1024
 91
        1
280
     0
281
     0
  0
CLASS
  1
ACMTAPERSTANDARDISO
  2
AcmTaperStdISO
  3
"Amdt_StdImp|Product Description: AutoCAD Mechanical|Company: Autodesk, Inc."
 90
     1024
 91
        1
280
     0
281
     0
  0
CLASS
  1
ACMANOOTATIONVIEWSTANDARDISO
  2
AmdtAnViewStdISO
  3
"Amdt_StdImp|Product Description: AutoCAD Mechanical|Company: Autodesk, Inc."
 90
     1024
 91
        1
280
     0
281
     0
  0
CLASS
  1
ACAMGLAYSTD
  2
AcAmgLayStd
  3
"AmgLay|Product Description: AutoCAD Mechanical|Company: Autodesk, Inc."
 90
     1024
 91
        1
280
     0
281
     0
  0
CLASS
  1
ACAMGTITLESTD
  2
AcAmgTitleStd
  3
"AmgTitle|Product Description: AutoCAD Mechanical|Company: Autodesk, Inc."
 90
     1024
 91
        1
280
     0
281
     0
  0
CLASS
  1
ACAMGDIMSTD
  2
AcAmgDimStd
  3
"AmgDim|Product Description: AutoCAD Mechanical|Company: Autodesk, Inc."
 90
     1024
 91
        1
280
     0
281
     0
  0
CLASS
  1
AMGOBJPROPCFG
  2
AmgObjPropCfg
  3
"AmgLay|Product Description: AutoCAD Mechanical|Company: Autodesk, Inc."
 90
     1024
 91
        1
280
     0
281
     0
  0
CLASS
  1
ACAMGHOLECHARTSTDISO
  2
AcAmgHoleChartStdISO
  3
"AmgDim" "Product Description: AutoCAD Mechanical|Company: Autodesk, Inc."
 90
     1024
 91
        1
280
     0
281
     0
  0
CLASS
  1
ACMSECTIONSTANDARDCUSTOM
  2
AmdtSectionSymStdCustom
  3
"Amdt_StdImp|Product Description: AutoCAD Mechanical|Company: Autodesk, Inc."
 90
     1024
 91
        1
280
     0
281
     0
  0
CLASS
  1
ACMDETAILTANDARDCUSTOM
  2
AmdtDetailSymStdCustom
  3
"Amdt_StdImp|Product Description: AutoCAD Mechanical|Company: Autodesk, Inc."
 90
     1024
 91
        1
280
     0
281
     0
  0
CLASS
  1
FIELD
  2
AcDbField
  3
ObjectDBX Classes
 90
     1152
 91
        3
280
     0
281
     0
  0
CLASS
  1
FIELDLIST
  2
AcDbFieldList
  3
ObjectDBX Classes
 90
     1152
 91
        1
280
     0
281
     0
  0
CLASS
  1
AMDTNOTETEMPLATEDB
  2
AmdtNoteTemplateDB
  3
"AcmSymBB" "Product Description: AutoCAD Mechanical|Company: Autodesk, Inc."
 90
     1024
 91
        7
280
     0
281
     0
  0
CLASS
  1
ACAMGFILTERDAT
  2
AcAmgFilterDat
  3
"AcadM|Product Description: AutoCAD Mechanical|Company: Autodesk, Inc."
 90
     1024
 91
        6
280
     0
281
     0
  0
CLASS
  1
SORTENTSTABLE
  2
AcDbSortentsTable
  3
ObjectDBX Classes
 90
        0
 91
        1
280
     0
281
     0
  0
ENDSEC
  0
SECTION
  2
TABLES
  0
TABLE
  2
VPORT
  5
8
330
0
100
AcDbSymbolTable
 70
    16
  0
VPORT
  5
29
330
8
100
AcDbSymbolTableRecord
100
AcDbViewportTableRecord
  2
*Active
 70
     0
 10
0.0
 20
0.0
 11
1.0
 21
1.0
 12
597.4362697943663
 22
275.8419819852725
 13
0.0
 23
0.0
 14
0.5
 24
0.5
 15
0.5
 25
0.5
 16
0.0
 26
0.0
 36
1.0
 17
0.0
 27
0.0
 37
0.0
 40
322.9509096625011
 41
2.292712066905615
 42
50.0
 43
732.390874
 44
-732.390874
 50
0.0
 51
0.0
 71
     0
 72
   100
 73
     1
 74
     3
 75
     0
 76
     0
 77
     0
 78
     0
281
     0
 65
     0
110
0.0
120
0.0
130
0.0
111
1.0
121
0.0
131
0.0
112
0.0
122
1.0
132
0.0
 79
     0
146
0.0
1001
ACAD_NAV_VCDISPLAY
1070
     3
  0
VPORT
  5
234
330
8
100
AcDbSymbolTableRecord
100
AcDbViewportTableRecord
  2
L1
 70
     0
 10
0.0
 20
0.0
 11
1.0
 21
1.0
 12
430.9799400000001
 22
213.58927
 13
0.0
 23
0.0
 14
0.5
 24
0.5
 15
0.5
 25
0.5
 16
0.0
 26
0.0
 36
1.0
 17
0.0
 27
0.0
 37
0.0
 40
207.433333
 41
0.085602
 42
50.0
 43
732.390874
 44
-732.390874
 50
0.0
 51
0.0
 71
     0
 72
   100
 73
     1
 74
     3
 75
     0
 76
     0
 77
     0
 78
     0
281
     0
 65
     1
110
0.0
120
0.0
130
0.0
111
1.0
121
0.0
131
0.0
112
0.0
122
1.0
132
0.0
 79
     0
146
0.0
  0
VPORT
  5
235
330
8
100
AcDbSymbolTableRecord
100
AcDbViewportTableRecord
  2
L2
 70
     0
 10
0.0
 20
0.0
 11
0.5
 21
1.0
 12
0.0
 22
0.0
 13
0.0
 23
0.0
 14
0.5
 24
0.5
 15
0.5
 25
0.5
 16
0.0
 26
-1.0
 36
0.0
 17
0.0
 27
0.0
 37
0.0
 40
1478.660809
 41
0.012009
 42
50.0
 43
765.39502
 44
-765.39502
 50
0.0
 51
0.0
 71
     0
 72
   100
 73
     1
 74
     3
 75
     0
 76
     0
 77
     0
 78
     0
281
     0
 65
     1
110
0.0
120
0.0
130
0.0
111
1.0
121
0.0
131
0.0
112
0.0
122
1.0
132
0.0
 79
     0
146
0.0
  0
VPORT
  5
236
330
8
100
AcDbSymbolTableRecord
100
AcDbViewportTableRecord
  2
L2
 70
     0
 10
0.5
 20
0.0
 11
1.0
 21
1.0
 12
0.0
 22
0.0
 13
0.0
 23
0.0
 14
0.5
 24
0.5
 15
0.5
 25
0.5
 16
1.0
 26
0.0
 36
0.0
 17
0.0
 27
0.0
 37
0.0
 40
1478.660809
 41
0.012009
 42
50.0
 43
746.5698859999999
 44
-746.5698859999999
 50
0.0
 51
0.0
 71
     0
 72
   100
 73
     1
 74
     3
 75
     0
 76
     0
 77
     0
 78
     0
281
     0
 65
     1
110
0.0
120
0.0
130
0.0
111
1.0
121
0.0
131
0.0
112
0.0
122
1.0
132
0.0
 79
     0
146
0.0
  0
VPORT
  5
237
330
8
100
AcDbSymbolTableRecord
100
AcDbViewportTableRecord
  2
L3
 70
     0
 10
0.0
 20
0.5
 11
1.0
 21
1.0
 12
430.9799400000001
 22
213.58927
 13
0.0
 23
0.0
 14
0.5
 24
0.5
 15
0.5
 25
0.5
 16
0.0
 26
0.0
 36
1.0
 17
0.0
 27
0.0
 37
0.0
 40
207.433333
 41
0.085602
 42
50.0
 43
732.390874
 44
-732.390874
 50
0.0
 51
0.0
 71
     0
 72
   100
 73
     1
 74
     3
 75
     0
 76
     0
 77
     0
 78
     0
281
     0
 65
     1
110
0.0
120
0.0
130
0.0
111
1.0
121
0.0
131
0.0
112
0.0
122
1.0
132
0.0
 79
     0
146
0.0
  0
VPORT
  5
238
330
8
100
AcDbSymbolTableRecord
100
AcDbViewportTableRecord
  2
L3
 70
     0
 10
0.0
 20
0.0
 11
1.0
 21
0.5
 12
0.0
 22
0.0
 13
0.0
 23
0.0
 14
0.5
 24
0.5
 15
0.5
 25
0.5
 16
0.0
 26
-1.0
 36
0.0
 17
0.0
 27
0.0
 37
0.0
 40
1478.660809
 41
0.012009
 42
50.0
 43
765.39502
 44
-765.39502
 50
0.0
 51
0.0
 71
     0
 72
   100
 73
     1
 74
     3
 75
     0
 76
     0
 77
     0
 78
     0
281
     0
 65
     1
110
0.0
120
0.0
130
0.0
111
1.0
121
0.0
131
0.0
112
0.0
122
1.0
132
0.0
 79
     0
146
0.0
  0
VPORT
  5
239
330
8
100
AcDbSymbolTableRecord
100
AcDbViewportTableRecord
  2
L4
 70
     0
 10
0.0
 20
0.5
 11
0.5
 21
1.0
 12
430.9799400000001
 22
213.58927
 13
0.0
 23
0.0
 14
0.5
 24
0.5
 15
0.5
 25
0.5
 16
0.0
 26
0.0
 36
1.0
 17
0.0
 27
0.0
 37
0.0
 40
207.433333
 41
0.085602
 42
50.0
 43
732.390874
 44
-732.390874
 50
0.0
 51
0.0
 71
     0
 72
   100
 73
     1
 74
     3
 75
     0
 76
     0
 77
     0
 78
     0
281
     0
 65
     1
110
0.0
120
0.0
130
0.0
111
1.0
121
0.0
131
0.0
112
0.0
122
1.0
132
0.0
 79
     0
146
0.0
  0
VPORT
  5
23A
330
8
100
AcDbSymbolTableRecord
100
AcDbViewportTableRecord
  2
L4
 70
     0
 10
0.0
 20
0.0
 11
0.5
 21
0.5
 12
0.0
 22
0.0
 13
0.0
 23
0.0
 14
0.5
 24
0.5
 15
0.5
 25
0.5
 16
0.0
 26
-1.0
 36
0.0
 17
0.0
 27
0.0
 37
0.0
 40
1478.660809
 41
0.012009
 42
50.0
 43
765.39502
 44
-765.39502
 50
0.0
 51
0.0
 71
     0
 72
   100
 73
     1
 74
     3
 75
     0
 76
     0
 77
     0
 78
     0
281
     0
 65
     1
110
0.0
120
0.0
130
0.0
111
1.0
121
0.0
131
0.0
112
0.0
122
1.0
132
0.0
 79
     0
146
0.0
  0
VPORT
  5
23B
330
8
100
AcDbSymbolTableRecord
100
AcDbViewportTableRecord
  2
L4
 70
     0
 10
0.5
 20
0.0
 11
1.0
 21
0.5
 12
0.0
 22
0.0
 13
0.0
 23
0.0
 14
0.5
 24
0.5
 15
0.5
 25
0.5
 16
1.0
 26
0.0
 36
0.0
 17
0.0
 27
0.0
 37
0.0
 40
1478.660809
 41
0.012009
 42
50.0
 43
746.5698859999999
 44
-746.5698859999999
 50
0.0
 51
0.0
 71
     0
 72
   100
 73
     1
 74
     3
 75
     0
 76
     0
 77
     0
 78
     0
281
     0
 65
     1
110
0.0
120
0.0
130
0.0
111
1.0
121
0.0
131
0.0
112
0.0
122
1.0
132
0.0
 79
     0
146
0.0
  0
VPORT
  5
23C
330
8
100
AcDbSymbolTableRecord
100
AcDbViewportTableRecord
  2
L4
 70
     0
 10
0.5
 20
0.5
 11
1.0
 21
1.0
 12
0.0
 22
0.0
 13
0.0
 23
0.0
 14
0.5
 24
0.5
 15
0.5
 25
0.5
 16
0.5773502691896259
 26
-0.5773502691896259
 36
0.5773502691896259
 17
0.0
 27
0.0
 37
0.0
 40
1453.705292
 41
0.012215
 42
50.0
 43
757.5245879999999
 44
-757.5245879999999
 50
0.0
 51
0.0
 71
     0
 72
   100
 73
     1
 74
     3
 75
     0
 76
     0
 77
     0
 78
     0
281
     0
 65
     1
110
0.0
120
0.0
130
0.0
111
1.0
121
0.0
131
0.0
112
0.0
122
1.0
132
0.0
 79
     0
146
0.0
  0
VPORT
  5
23D
330
8
100
AcDbSymbolTableRecord
100
AcDbViewportTableRecord
  2
L6
 70
     0
 10
0.0
 20
0.5
 11
0.333333
 21
1.0
 12
0.0
 22
0.0
 13
0.0
 23
0.0
 14
0.5
 24
0.5
 15
0.5
 25
0.5
 16
0.7188730927569434
 26
-0.5850486126764433
 36
0.3754192287502549
 17
0.0
 27
0.0
 37
0.0
 40
1534.989881
 41
0.011568
 42
50.0
 43
794.5176169999999
 44
-794.5176169999999
 50
0.0
 51
0.0
 71
     0
 72
   100
 73
     1
 74
     3
 75
     0
 76
     0
 77
     0
 78
     0
281
     0
 65
     1
110
0.0
120
0.0
130
0.0
111
1.0
121
0.0
131
0.0
112
0.0
122
1.0
132
0.0
 79
     0
146
0.0
  0
VPORT
  5
23E
330
8
100
AcDbSymbolTableRecord
100
AcDbViewportTableRecord
  2
L6
 70
     0
 10
0.0
 20
0.0
 11
0.333333
 21
0.5
 12
0.0
 22
0.0
 13
0.0
 23
0.0
 14
0.5
 24
0.5
 15
0.5
 25
0.5
 16
-1.0
 26
0.0
 36
0.0
 17
0.0
 27
0.0
 37
0.0
 40
1478.660809
 41
0.012009
 42
50.0
 43
746.5698859999999
 44
-746.5698859999999
 50
0.0
 51
0.0
 71
     0
 72
   100
 73
     1
 74
     3
 75
     0
 76
     0
 77
     0
 78
     0
281
     0
 65
     1
110
0.0
120
0.0
130
0.0
111
1.0
121
0.0
131
0.0
112
0.0
122
1.0
132
0.0
 79
     0
146
0.0
  0
VPORT
  5
23F
330
8
100
AcDbSymbolTableRecord
100
AcDbViewportTableRecord
  2
L6
 70
     0
 10
0.333333
 20
0.5
 11
0.666667
 21
1.0
 12
430.9799400000001
 22
213.58927
 13
0.0
 23
0.0
 14
0.5
 24
0.5
 15
0.5
 25
0.5
 16
0.0
 26
0.0
 36
1.0
 17
0.0
 27
0.0
 37
0.0
 40
207.433333
 41
0.085602
 42
50.0
 43
732.390874
 44
-732.390874
 50
0.0
 51
0.0
 71
     0
 72
   100
 73
     1
 74
     3
 75
     0
 76
     0
 77
     0
 78
     0
281
     0
 65
     1
110
0.0
120
0.0
130
0.0
111
1.0
121
0.0
131
0.0
112
0.0
122
1.0
132
0.0
 79
     0
146
0.0
  0
VPORT
  5
240
330
8
100
AcDbSymbolTableRecord
100
AcDbViewportTableRecord
  2
L6
 70
     0
 10
0.333333
 20
0.0
 11
0.666667
 21
0.5
 12
0.0
 22
0.0
 13
0.0
 23
0.0
 14
0.5
 24
0.5
 15
0.5
 25
0.5
 16
0.0
 26
-1.0
 36
0.0
 17
0.0
 27
0.0
 37
0.0
 40
1478.660809
 41
0.012009
 42
50.0
 43
765.39502
 44
-765.39502
 50
0.0
 51
0.0
 71
     0
 72
   100
 73
     1
 74
     3
 75
     0
 76
     0
 77
     0
 78
     0
281
     0
 65
     1
110
0.0
120
0.0
130
0.0
111
1.0
121
0.0
131
0.0
112
0.0
122
1.0
132
0.0
 79
     0
146
0.0
  0
VPORT
  5
241
330
8
100
AcDbSymbolTableRecord
100
AcDbViewportTableRecord
  2
L6
 70
     0
 10
0.666667
 20
0.5
 11
1.0
 21
1.0
 12
0.0
 22
0.0
 13
0.0
 23
0.0
 14
0.5
 24
0.5
 15
0.5
 25
0.5
 16
0.5773502691896259
 26
-0.5773502691896259
 36
0.5773502691896259
 17
0.0
 27
0.0
 37
0.0
 40
1453.705292
 41
0.012215
 42
50.0
 43
757.5245879999999
 44
-757.5245879999999
 50
0.0
 51
0.0
 71
     0
 72
   100
 73
     1
 74
     3
 75
     0
 76
     0
 77
     0
 78
     0
281
     0
 65
     1
110
0.0
120
0.0
130
0.0
111
1.0
121
0.0
131
0.0
112
0.0
122
1.0
132
0.0
 79
     0
146
0.0
  0
VPORT
  5
242
330
8
100
AcDbSymbolTableRecord
100
AcDbViewportTableRecord
  2
L6
 70
     0
 10
0.666667
 20
0.0
 11
1.0
 21
0.5
 12
0.0
 22
0.0
 13
0.0
 23
0.0
 14
0.5
 24
0.5
 15
0.5
 25
0.5
 16
1.0
 26
0.0
 36
0.0
 17
0.0
 27
0.0
 37
0.0
 40
1478.660809
 41
0.012009
 42
50.0
 43
746.5698859999999
 44
-746.5698859999999
 50
0.0
 51
0.0
 71
     0
 72
   100
 73
     1
 74
     3
 75
     0
 76
     0
 77
     0
 78
     0
281
     0
 65
     1
110
0.0
120
0.0
130
0.0
111
1.0
121
0.0
131
0.0
112
0.0
122
1.0
132
0.0
 79
     0
146
0.0
  0
ENDTAB
  0
TABLE
  2
LTYPE
  5
5
330
0
100
AcDbSymbolTable
 70
    19
  0
LTYPE
  5
14
330
5
100
AcDbSymbolTableRecord
100
AcDbLinetypeTableRecord
  2
ByBlock
 70
     0
  3

 72
    65
 73
     0
 40
0.0
  0
LTYPE
  5
15
330
5
100
AcDbSymbolTableRecord
100
AcDbLinetypeTableRecord
  2
ByLayer
 70
     0
  3

 72
    65
 73
     0
 40
0.0
  0
LTYPE
  5
16
330
5
100
AcDbSymbolTableRecord
100
AcDbLinetypeTableRecord
  2
Continuous
 70
     0
  3
Solid line
 72
    65
 73
     0
 40
0.0
  0
LTYPE
  5
6E
330
5
100
AcDbSymbolTableRecord
100
AcDbLinetypeTableRecord
  2
CENTER
 70
     0
  3
____ _ ____ _ ____ _ ____
 72
    65
 73
     4
 40
47.4
 49
22.0
 74
     4
 75
     0
340
0
 46
0.0
 50
0.0
 44
0.0
 45
0.0
 49
-8.5
 74
     4
 75
     0
340
0
 46
0.0
 50
0.0
 44
0.0
 45
0.0
 49
8.5
 74
     4
 75
     0
340
0
 46
0.0
 50
0.0
 44
0.0
 45
0.0
 49
-8.5
 74
     4
 75
     0
340
0
 46
0.0
 50
0.0
 44
0.0
 45
0.0
  0
LTYPE
  5
6F
330
5
100
AcDbSymbolTableRecord
100
AcDbLinetypeTableRecord
  2
DASHDOT
 70
     0
  3
_._._._._._._._._._._._._._._._.
 72
    65
 73
     4
 40
70.0
 49
31.0
 74
     4
 75
     0
340
0
 46
0.0
 50
0.0
 44
0.0
 45
0.0
 49
-13.0
 74
     4
 75
     0
340
0
 46
0.0
 50
0.0
 44
0.0
 45
0.0
 49
13.0
 74
     4
 75
     0
340
0
 46
0.0
 50
0.0
 44
0.0
 45
0.0
 49
-13.0
 74
     4
 75
     0
340
0
 46
0.0
 50
0.0
 44
0.0
 45
0.0
  0
LTYPE
  5
70
330
5
100
AcDbSymbolTableRecord
100
AcDbLinetypeTableRecord
  2
DASHED
 70
     0
  3
__ __ __ __ __ __ __ __ __
 72
    65
 73
     2
 40
25.72
 49
12.86
 74
     4
 75
     0
340
0
 46
0.0
 50
0.0
 44
0.0
 45
0.0
 49
-12.86
 74
     4
 75
     0
340
0
 46
0.0
 50
0.0
 44
0.0
 45
0.0
  0
LTYPE
  5
71
330
5
100
AcDbSymbolTableRecord
100
AcDbLinetypeTableRecord
  2
DOT
 70
     0
  3
.........................
 72
    65
 73
     2
 40
10.0
 49
0.0
 74
     4
 75
     0
340
0
 46
0.0
 50
0.0
 44
0.0
 45
0.0
 49
-10.0
 74
     4
 75
     0
340
0
 46
0.0
 50
0.0
 44
0.0
 45
0.0
  0
LTYPE
  5
72
330
5
100
AcDbSymbolTableRecord
100
AcDbLinetypeTableRecord
  2
PHANTOM
 70
     0
  3
____ _ _ ____ _ _ _____ _ _ ____
 72
    65
 73
     6
 40
50.5
 49
18.0
 74
     4
 75
     0
340
0
 46
0.0
 50
0.0
 44
0.0
 45
0.0
 49
-6.5
 74
     4
 75
     0
340
0
 46
0.0
 50
0.0
 44
0.0
 45
0.0
 49
6.5
 74
     4
 75
     0
340
0
 46
0.0
 50
0.0
 44
0.0
 45
0.0
 49
-6.5
 74
     4
 75
     0
340
0
 46
0.0
 50
0.0
 44
0.0
 45
0.0
 49
6.5
 74
     4
 75
     0
340
0
 46
0.0
 50
0.0
 44
0.0
 45
0.0
 49
-6.5
 74
     4
 75
     0
340
0
 46
0.0
 50
0.0
 44
0.0
 45
0.0
  0
LTYPE
  5
2A2
330
5
100
AcDbSymbolTableRecord
100
AcDbLinetypeTableRecord
  2
HIDDEN
 70
     0
  3
Hidden __ __ __ __ __ __ __ __ __ __ __ __ __ _
 72
    65
 73
     2
 40
9.524999999999998
 49
6.349999999999999
 74
     0
 49
-3.174999999999999
 74
     0
  0
LTYPE
  5
2A3
330
5
100
AcDbSymbolTableRecord
100
AcDbLinetypeTableRecord
  2
PHANTOM2
 70
     0
  3
Phantom (.5x) ___ _ _ ___ _ _ ___ _ _ ___ _ _
 72
    65
 73
     6
 40
31.75
 49
15.875
 74
     0
 49
-3.174999999999999
 74
     0
 49
3.174999999999999
 74
     0
 49
-3.174999999999999
 74
     0
 49
3.174999999999999
 74
     0
 49
-3.174999999999999
 74
     0
  0
LTYPE
  5
2DE
330
5
100
AcDbSymbolTableRecord
100
AcDbLinetypeTableRecord
  2
AM_ISO02W050
 70
     0
  3
__ __ __ __ __ __ __ __ __ __ __ __ __ __ __
 72
    65
 73
     2
 40
7.5
 49
6.0
 74
     0
 49
-1.5
 74
     0
  0
LTYPE
  5
2DF
330
5
100
AcDbSymbolTableRecord
100
AcDbLinetypeTableRecord
  2
AM_ISO08W050
 70
     0
  3
____ . ____ . ____ . ____ . ____ . ____ . ____
 72
    65
 73
     4
 40
18.0
 49
12.0
 74
     0
 49
-1.5
 74
     0
 49
3.0
 74
     0
 49
-1.5
 74
     0
  0
LTYPE
  5
2E0
330
5
100
AcDbSymbolTableRecord
100
AcDbLinetypeTableRecord
  2
AM_ISO09W050
 70
     0
  3
_____ . . _____ . . _____ . . ____ .. ____
 72
    65
 73
     6
 40
22.5
 49
12.0
 74
     0
 49
-1.5
 74
     0
 49
3.0
 74
     0
 49
-1.5
 74
     0
 49
3.0
 74
     0
 49
-1.5
 74
     0
  0
LTYPE
  5
2E1
330
5
100
AcDbSymbolTableRecord
100
AcDbLinetypeTableRecord
  2
Amconstr
 70
     0
  3
_______________________
 72
    65
 73
     2
 40
9999.0
 49
9999.0
 74
     0
 49
0.0
 74
     0
  0
LTYPE
  5
2E2
330
5
100
AcDbSymbolTableRecord
100
AcDbLinetypeTableRecord
  2
AM_ISO08W050x2
 70
     0
  3
__ . __ . __ . __ . __ . __
 72
    65
 73
     4
 40
9.0
 49
6.0
 74
     0
 49
-0.75
 74
     0
 49
1.5
 74
     0
 49
-0.75
 74
     0
  0
LTYPE
  5
2E3
330
5
100
AcDbSymbolTableRecord
100
AcDbLinetypeTableRecord
  2
AM_ISO02W050x2
 70
     0
  3
 _ _ _ _ _ _ _ _ _ _ _ _
 72
    65
 73
     2
 40
3.75
 49
3.0
 74
     0
 49
-0.75
 74
     0
  0
LTYPE
  5
2E6
330
5
100
AcDbSymbolTableRecord
100
AcDbLinetypeTableRecord
  2
Amzigzag
 70
     0
  3
/\/-/\/-/\/-/\/-/\/-/\/
 72
    65
 73
     2
 40
11.0001
 49
0.0001
 74
     4
 75
   136
340
2E5
 46
0.04
 50
0.0
 44
0.0
 45
0.0
 49
-11.0
 74
     0
  0
LTYPE
  5
2F6
330
5
100
AcDbSymbolTableRecord
100
AcDbLinetypeTableRecord
  2
ACISOWELD
 70
     0
  3
_ _ _ _ _
 72
    65
 73
     2
 40
2.0
 49
2.0
 74
     0
 49
-1.0
 74
     0
  0
LTYPE
  5
2F7
330
5
100
AcDbSymbolTableRecord
100
AcDbLinetypeTableRecord
  2
ACISOTGL
 70
     0
  3
_ _ _ _ _
 72
    65
 73
     2
 40
3.0
 49
2.0
 74
     0
 49
-1.0
 74
     0
  0
LTYPE
  5
2F8
330
5
100
AcDbSymbolTableRecord
100
AcDbLinetypeTableRecord
  2
ACISOTGB
 70
     0
  3
__ . . __ . .
 72
    65
 73
     6
 40
9.0
 49
4.0
 74
     0
 49
-1.0
 74
     0
 49
1.0
 74
     0
 49
-1.0
 74
     0
 49
1.0
 74
     0
 49
-1.0
 74
     0
  0
LTYPE
  5
349
330
5
100
AcDbSymbolTableRecord
100
AcDbLinetypeTableRecord
  2
CENTER2
 70
     0
  3
Center (.5x) ___ _ ___ _ ___ _ ___ _ ___ _ ___
 72
    65
 73
     4
 40
1.125
 49
0.75
 74
     0
 49
-0.125
 74
     0
 49
0.125
 74
     0
 49
-0.125
 74
     0
  0
ENDTAB
  0
TABLE
  2
LAYER
  5
2
330
0
100
AcDbSymbolTable
 70
    23
  0
LAYER
  5
10
102
{ACAD_XDICTIONARY
360
354
102
}
330
2
100
AcDbSymbolTableRecord
100
AcDbLayerTableRecord
  2
0
 70
     0
 62
     7
  6
Continuous
370
    -3
390
F
  0
LAYER
  5
76
102
{ACAD_XDICTIONARY
360
356
102
}
330
2
100
AcDbSymbolTableRecord
100
AcDbLayerTableRecord
  2
96
 70
     0
 62
     7
420
 16777215
  6
Continuous
370
    -3
390
F
  0
LAYER
  5
1A6
330
2
100
AcDbSymbolTableRecord
100
AcDbLayerTableRecord
  2
Defpoints
 70
     0
 62
     7
  6
Continuous
290
     0
370
    -3
390
F
  0
LAYER
  5
346
102
{ACAD_XDICTIONARY
360
358
102
}
330
2
100
AcDbSymbolTableRecord
100
AcDbLayerTableRecord
  2
1
 70
     0
 62
     4
  6
Continuous
370
    -3
390
F
  0
LAYER
  5
347
102
{ACAD_XDICTIONARY
360
35A
102
}
330
2
100
AcDbSymbolTableRecord
100
AcDbLayerTableRecord
  2
2
 70
     0
 62
     7
  6
Continuous
370
    -3
390
F
  0
LAYER
  5
348
102
{ACAD_XDICTIONARY
360
35C
102
}
330
2
100
AcDbSymbolTableRecord
100
AcDbLayerTableRecord
  2
4
 70
     0
 62
     2
  6
CENTER2
370
    -3
390
F
  0
LAYER
  5
34A
102
{ACAD_XDICTIONARY
360
35E
102
}
330
2
100
AcDbSymbolTableRecord
100
AcDbLayerTableRecord
  2
SK1
 70
     0
 62
     4
  6
Continuous
370
    -3
390
F
  0
LAYER
  5
34B
102
{ACAD_XDICTIONARY
360
360
102
}
330
2
100
AcDbSymbolTableRecord
100
AcDbLayerTableRecord
  2
SK2
 70
     0
 62
     7
  6
Continuous
370
    -3
390
F
  0
LAYER
  5
34D
102
{ACAD_XDICTIONARY
360
362
102
}
330
2
100
AcDbSymbolTableRecord
100
AcDbLayerTableRecord
  2
SK4
 70
     0
 62
     2
  6
CENTER2
370
    -3
390
F
  0
LAYER
  5
34E
102
{ACAD_XDICTIONARY
360
364
102
}
330
2
100
AcDbSymbolTableRecord
100
AcDbLayerTableRecord
  2
SK6
 70
     0
 62
     5
  6
Continuous
370
    -3
390
F
  0
LAYER
  5
34F
102
{ACAD_XDICTIONARY
360
366
102
}
330
2
100
AcDbSymbolTableRecord
100
AcDbLayerTableRecord
  2
CUT
 70
     0
 62
     1
  6
Continuous
370
    -3
390
F
  0
LAYER
  5
350
102
{ACAD_XDICTIONARY
360
368
102
}
330
2
100
AcDbSymbolTableRecord
100
AcDbLayerTableRecord
  2
NOCUT
 70
     0
 62
     7
  6
Continuous
370
    -3
390
F
  0
LAYER
  5
351
102
{ACAD_XDICTIONARY
360
36A
102
}
330
2
100
AcDbSymbolTableRecord
100
AcDbLayerTableRecord
  2
80
 70
     0
 62
     6
  6
Continuous
370
    -3
390
F
  0
LAYER
  5
352
102
{ACAD_XDICTIONARY
360
36C
102
}
330
2
100
AcDbSymbolTableRecord
100
AcDbLayerTableRecord
  2
81
 70
     0
 62
     3
  6
Continuous
370
    -3
390
F
  0
ENDTAB
  0
TABLE
  2
STYLE
  5
3
330
0
100
AcDbSymbolTable
 70
     6
  0
STYLE
  5
11
330
3
100
AcDbSymbolTableRecord
100
AcDbTextStyleTableRecord
  2
Standard
 70
     0
 40
0.0
 41
1.0
 50
0.0
 71
     0
 42
0.2
  3
txt
  4

  0
STYLE
  5
19F
330
3
100
AcDbSymbolTableRecord
100
AcDbTextStyleTableRecord
  2
cesky
 70
     0
 40
0.0
 41
1.0
 50
0.0
 71
     0
 42
0.2
  3
simplex.shx
  4

  0
STYLE
  5
1A0
330
3
100
AcDbSymbolTableRecord
100
AcDbTextStyleTableRecord
  2
DWGDirectTextStyle
 70
     0
 40
0.0
 41
1.0
 50
0.0
 71
     0
 42
0.2
  3
simplex
  4

  0
STYLE
  5
2E5
330
3
100
AcDbSymbolTableRecord
100
AcDbTextStyleTableRecord
  2

 70
     1
 40
0.0
 41
1.0
 50
0.0
 71
     0
 42
0.2
  3
genltshp.shx
  4

  0
STYLE
  5
2F4
330
3
100
AcDbSymbolTableRecord
100
AcDbTextStyleTableRecord
  2
ACISOTS
 70
     0
 40
0.0
 41
1.0
 50
0.0
 71
     0
 42
0.2
  3
isocp.shx
  4

  0
STYLE
  5
2F5
330
3
100
AcDbSymbolTableRecord
100
AcDbTextStyleTableRecord
  2
ACISOGDT
 70
     0
 40
0.0
 41
1.0
 50
0.0
 71
     0
 42
0.2
  3
amgdt.shx
  4

  0
ENDTAB
  0
TABLE
  2
VIEW
  5
6
330
0
100
AcDbSymbolTable
 70
     0
  0
ENDTAB
  0
TABLE
  2
UCS
  5
7
330
0
100
AcDbSymbolTable
 70
     0
  0
ENDTAB
  0
TABLE
  2
APPID
  5
9
330
0
100
AcDbSymbolTable
 70
    13
  0
APPID
  5
12
330
9
100
AcDbSymbolTableRecord
100
AcDbRegAppTableRecord
  2
ACAD
 70
     0
  0
APPID
  5
1A2
330
9
100
AcDbSymbolTableRecord
100
AcDbRegAppTableRecord
  2
ACAD_DSTYLE_DIMBREAK
 70
     0
  0
APPID
  5
243
330
9
100
AcDbSymbolTableRecord
100
AcDbRegAppTableRecord
  2
ACAD_DSTYLE_DIM_LINETYPE
 70
     0
  0
APPID
  5
244
330
9
100
AcDbSymbolTableRecord
100
AcDbRegAppTableRecord
  2
ACAD_DSTYLE_DIM_EXT1_LINETYPE
 70
     0
  0
APPID
  5
245
330
9
100
AcDbSymbolTableRecord
100
AcDbRegAppTableRecord
  2
ACAD_DSTYLE_DIM_EXT2_LINETYPE
 70
     0
  0
APPID
  5
285
330
9
100
AcDbSymbolTableRecord
100
AcDbRegAppTableRecord
  2
ACAD_MLEADERVER
 70
     0
  0
APPID
  5
29B
330
9
100
AcDbSymbolTableRecord
100
AcDbRegAppTableRecord
  2
MCAD_NO_VIS
 70
     0
  0
APPID
  5
29C
330
9
100
AcDbSymbolTableRecord
100
AcDbRegAppTableRecord
  2
ACAD_TEMP_GRAPHIC
 70
     0
  0
APPID
  5
2A8
330
9
100
AcDbSymbolTableRecord
100
AcDbRegAppTableRecord
  2
ACATTRIBSERVICES
 70
     0
  0
APPID
  5
2C0
330
9
100
AcDbSymbolTableRecord
100
AcDbRegAppTableRecord
  2
DESIGNERASSEMBLIES
 70
     0
  0
APPID
  5
2DC
330
9
100
AcDbSymbolTableRecord
100
AcDbRegAppTableRecord
  2
ACAD_DSTYLE_DIMJAG
 70
     0
  0
APPID
  5
308
330
9
100
AcDbSymbolTableRecord
100
AcDbRegAppTableRecord
  2
ACAD_NAV_VCDISPLAY
 70
     0
  0
APPID
  5
3A8
330
9
100
AcDbSymbolTableRecord
100
AcDbRegAppTableRecord
  2
ACAD_DSTYLE_DIMARC_LENGTH_SYMBOL
 70
     0
  0
ENDTAB
  0
TABLE
  2
DIMSTYLE
  5
A
330
0
100
AcDbSymbolTable
 70
     8
100
AcDbDimStyleTable
 71
     0
  0
DIMSTYLE
105
27
330
A
100
AcDbSymbolTableRecord
100
AcDbDimStyleTableRecord
  2
Standard
 70
     0
340
11
1001
ACAD_DSTYLE_DIMBREAK
1070
   391
1040
6.349999999999999
  0
DIMSTYLE
105
2DB
102
{ACAD_REACTORS
330
2C9
102
}
330
A
100
AcDbSymbolTableRecord
100
AcDbDimStyleTableRecord
  2
AM_ISO
 70
     0
  4
"
 41
3.5
 42
1.0
 43
10.0
 44
1.0
 47
0.1
 48
0.1
 73
     0
 74
     0
 77
     1
 78
     8
 79
     2
140
3.5
141
0.0
143
0.0393701
146
0.71
147
1.5
172
     1
176
   256
177
   256
178
     2
271
     2
272
     3
274
     4
283
     0
284
     8
340
11
371
    -1
372
    -1
1001
ACAD_DSTYLE_DIMJAG
1070
   388
1040
1.5
1001
ACAD_DSTYLE_DIMBREAK
1070
   391
1040
3.75
1001
ACAD_DSTYLE_DIMARC_LENGTH_SYMBOL
1070
   379
1070
     1
1001
ACAD_DSTYLE_DIM_LINETYPE
1070
   380
1005
14
1001
ACAD_DSTYLE_DIM_EXT1_LINETYPE
1070
   381
1005
14
1001
ACAD_DSTYLE_DIM_EXT2_LINETYPE
1070
   382
1005
14
  0
DIMSTYLE
105
2E7
330
A
100
AcDbSymbolTableRecord
100
AcDbDimStyleTableRecord
  2
AM_ISO$3
 70
     0
  4
"
 41
3.5
 42
1.0
 43
10.0
 44
1.0
 47
0.1
 48
0.1
 73
     0
 77
     1
 78
     8
 79
     2
140
3.5
141
0.0
143
0.0393701
146
0.71
147
1.5
176
   256
177
   256
178
     2
271
     2
272
     3
274
     4
283
     0
284
     8
288
     1
289
     0
340
11
371
    -1
372
    -1
1001
ACAD_DSTYLE_DIMBREAK
1070
   391
1040
3.75
1001
ACAD_DSTYLE_DIMJAG
1070
   388
1040
1.5
1001
ACAD_DSTYLE_DIMARC_LENGTH_SYMBOL
1070
   379
1070
     1
1001
ACAD_DSTYLE_DIM_LINETYPE
1070
   380
1005
14
1001
ACAD_DSTYLE_DIM_EXT1_LINETYPE
1070
   381
1005
14
1001
ACAD_DSTYLE_DIM_EXT2_LINETYPE
1070
   382
1005
14
  0
DIMSTYLE
105
2E8
330
A
100
AcDbSymbolTableRecord
100
AcDbDimStyleTableRecord
  2
AM_ISO$4
 70
     0
  4
"
 41
3.5
 42
1.0
 43
10.0
 44
1.0
 47
0.1
 48
0.1
 73
     0
 77
     1
 78
     8
 79
     2
140
3.5
141
0.0
143
0.0393701
146
0.71
147
1.5
176
   256
177
   256
178
     2
271
     2
272
     3
274
     4
283
     0
284
     8
288
     1
289
     0
340
11
371
    -1
372
    -1
1001
ACAD_DSTYLE_DIMBREAK
1070
   391
1040
3.75
1001
ACAD_DSTYLE_DIMJAG
1070
   388
1040
1.5
1001
ACAD_DSTYLE_DIMARC_LENGTH_SYMBOL
1070
   379
1070
     1
1001
ACAD_DSTYLE_DIM_LINETYPE
1070
   380
1005
14
1001
ACAD_DSTYLE_DIM_EXT1_LINETYPE
1070
   381
1005
14
1001
ACAD_DSTYLE_DIM_EXT2_LINETYPE
1070
   382
1005
14
  0
DIMSTYLE
105
2E9
330
A
100
AcDbSymbolTableRecord
100
AcDbDimStyleTableRecord
  2
AM_ISO$6
 70
     0
  4
"
 41
3.5
 42
1.0
 43
10.0
 44
1.0
 47
0.1
 48
0.1
 73
     0
 74
     0
 78
     8
 79
     2
140
3.5
141
0.0
143
0.0393701
146
0.71
147
1.5
172
     1
176
   256
177
   256
178
     2
271
     2
272
     3
274
     4
283
     0
284
     8
340
11
371
    -1
372
    -1
1001
ACAD_DSTYLE_DIMBREAK
1070
   391
1040
3.75
1001
ACAD_DSTYLE_DIMJAG
1070
   388
1040
1.5
1001
ACAD_DSTYLE_DIMARC_LENGTH_SYMBOL
1070
   379
1070
     1
1001
ACAD_DSTYLE_DIM_LINETYPE
1070
   380
1005
14
1001
ACAD_DSTYLE_DIM_EXT1_LINETYPE
1070
   381
1005
14
1001
ACAD_DSTYLE_DIM_EXT2_LINETYPE
1070
   382
1005
14
  0
DIMSTYLE
105
2EA
330
A
100
AcDbSymbolTableRecord
100
AcDbDimStyleTableRecord
  2
AM_ISO$7
 70
     0
  4
"
 41
3.5
 42
1.0
 43
10.0
 44
1.0
 47
0.1
 48
0.1
 73
     0
 74
     0
 77
     1
 78
     8
 79
     2
140
3.5
141
0.0
143
0.0393701
146
0.71
147
1.5
172
     1
176
   256
177
   256
178
     2
271
     2
272
     3
274
     4
283
     0
284
     8
340
11
371
    -1
372
    -1
1001
ACAD_DSTYLE_DIMBREAK
1070
   391
1040
3.75
1001
ACAD_DSTYLE_DIMJAG
1070
   388
1040
1.5
1001
ACAD_DSTYLE_DIMARC_LENGTH_SYMBOL
1070
   379
1070
     1
1001
ACAD_DSTYLE_DIM_LINETYPE
1070
   380
1005
14
1001
ACAD_DSTYLE_DIM_EXT1_LINETYPE
1070
   381
1005
14
1001
ACAD_DSTYLE_DIM_EXT2_LINETYPE
1070
   382
1005
14
  0
DIMSTYLE
105
2EB
330
A
100
AcDbSymbolTableRecord
100
AcDbDimStyleTableRecord
  2
AM_ISO$SF
 70
     0
  4
"
 41
3.5
 42
1.0
 43
10.0
 44
1.0
 47
0.1
 48
0.1
 73
     0
 74
     0
 75
     1
 76
     1
 77
     1
 78
     8
 79
     2
140
3.5
141
0.0
143
0.0393701
146
0.71
147
1.5
172
     1
176
   256
177
   256
178
     2
271
     2
272
     3
274
     4
283
     0
284
     8
340
11
371
    -1
372
    -1
1001
ACAD_DSTYLE_DIMBREAK
1070
   391
1040
3.75
1001
ACAD_DSTYLE_DIMJAG
1070
   388
1040
1.5
1001
ACAD_DSTYLE_DIMARC_LENGTH_SYMBOL
1070
   379
1070
     1
1001
ACAD_DSTYLE_DIM_LINETYPE
1070
   380
1005
14
1001
ACAD_DSTYLE_DIM_EXT1_LINETYPE
1070
   381
1005
14
1001
ACAD_DSTYLE_DIM_EXT2_LINETYPE
1070
   382
1005
14
  0
DIMSTYLE
105
2F0
330
A
100
AcDbSymbolTableRecord
100
AcDbDimStyleTableRecord
  2
AM_ISO$SH
 70
     0
  4
"
 41
3.5
 42
1.0
 43
10.0
 44
1.0
 47
0.1
 48
0.1
 73
     0
 74
     0
 75
     1
 76
     1
 77
     1
 78
     8
 79
     2
140
3.5
141
0.0
143
0.0393701
144
2.0
146
0.71
147
1.5
172
     1
173
     1
176
   256
177
   256
178
     2
271
     2
272
     3
274
     4
283
     0
284
     8
340
11
343
2EC
371
    -1
372
    -1
1001
ACAD_DSTYLE_DIMBREAK
1070
   391
1040
3.75
1001
ACAD_DSTYLE_DIMJAG
1070
   388
1040
1.5
1001
ACAD_DSTYLE_DIMARC_LENGTH_SYMBOL
1070
   379
1070
     1
1001
ACAD_DSTYLE_DIM_LINETYPE
1070
   380
1005
14
1001
ACAD_DSTYLE_DIM_EXT1_LINETYPE
1070
   381
1005
14
1001
ACAD_DSTYLE_DIM_EXT2_LINETYPE
1070
   382
1005
14
  0
ENDTAB
  0
TABLE
  2
BLOCK_RECORD
  5
1
330
0
100
AcDbSymbolTable
 70
    16
  0
BLOCK_RECORD
  5
1F
102
{ACAD_XDICTIONARY
360
310
102
}
330
1
100
AcDbSymbolTableRecord
100
AcDbBlockTableRecord
  2
*Model_Space
340
22
  0
BLOCK_RECORD
  5
1B
330
1
100
AcDbSymbolTableRecord
100
AcDbBlockTableRecord
  2
*Paper_Space
340
1E
  0
BLOCK_RECORD
  5
23
330
1
100
AcDbSymbolTableRecord
100
AcDbBlockTableRecord
  2
*Paper_Space0
340
26
  0
BLOCK_RECORD
  5
199
330
1
100
AcDbSymbolTableRecord
100
AcDbBlockTableRecord
  2
ASSORTED_DRAFT1
340
0
  0
BLOCK_RECORD
  5
1A7
330
1
100
AcDbSymbolTableRecord
100
AcDbBlockTableRecord
  2
*D2
340
0
  0
BLOCK_RECORD
  5
1B3
330
1
100
AcDbSymbolTableRecord
100
AcDbBlockTableRecord
  2
_U0
340
0
  0
BLOCK_RECORD
  5
1BF
330
1
100
AcDbSymbolTableRecord
100
AcDbBlockTableRecord
  2
*D4
340
0
  0
BLOCK_RECORD
  5
1CB
330
1
100
AcDbSymbolTableRecord
100
AcDbBlockTableRecord
  2
_U1
340
0
  0
BLOCK_RECORD
  5
1D7
330
1
100
AcDbSymbolTableRecord
100
AcDbBlockTableRecord
  2
*D6
340
0
  0
BLOCK_RECORD
  5
1E3
330
1
100
AcDbSymbolTableRecord
100
AcDbBlockTableRecord
  2
_U2
340
0
  0
BLOCK_RECORD
  5
1EF
330
1
100
AcDbSymbolTableRecord
100
AcDbBlockTableRecord
  2
*D8
340
0
  0
BLOCK_RECORD
  5
1FB
330
1
100
AcDbSymbolTableRecord
100
AcDbBlockTableRecord
  2
_U3
340
0
  0
BLOCK_RECORD
  5
208
330
1
100
AcDbSymbolTableRecord
100
AcDbBlockTableRecord
  2
*D10
340
0
  0
BLOCK_RECORD
  5
213
330
1
100
AcDbSymbolTableRecord
100
AcDbBlockTableRecord
  2
_U4
340
0
  0
BLOCK_RECORD
  5
21E
330
1
100
AcDbSymbolTableRecord
100
AcDbBlockTableRecord
  2
*D12
340
0
  0
BLOCK_RECORD
  5
22B
330
1
100
AcDbSymbolTableRecord
100
AcDbBlockTableRecord
  2
_U5
340
0
  0
BLOCK_RECORD
  5
2EC
330
1
100
AcDbSymbolTableRecord
100
AcDbBlockTableRecord
  2
GENAXEH
340
0
  0
ENDTAB
  0
ENDSEC
  0
SECTION
  2
BLOCKS
  0
BLOCK
  5
20
330
1F
100
AcDbEntity
  8
0
100
AcDbBlockBegin
  2
*Model_Space
 70
     0
 10
0.0
 20
0.0
 30
0.0
  3
*Model_Space
  1

  0
ENDBLK
  5
21
330
1F
100
AcDbEntity
  8
0
100
AcDbBlockEnd
  0
BLOCK
  5
1C
330
1B
100
AcDbEntity
 67
     1
  8
0
100
AcDbBlockBegin
  2
*Paper_Space
 70
     0
 10
0.0
 20
0.0
 30
0.0
  3
*Paper_Space
  1

  0
ENDBLK
  5
1D
330
1B
100
AcDbEntity
 67
     1
  8
0
100
AcDbBlockEnd
  0
BLOCK
  5
24
330
23
100
AcDbEntity
 67
     1
  8
0
100
AcDbBlockBegin
  2
*Paper_Space0
 70
     0
 10
0.0
 20
0.0
 30
0.0
  3
*Paper_Space0
  1

  0
ENDBLK
  5
25
330
23
100
AcDbEntity
 67
     1
  8
0
100
AcDbBlockEnd
  0
BLOCK
  5
19C
330
199
100
AcDbEntity
  8
0
100
AcDbBlockBegin
  2
ASSORTED_DRAFT1
 70
     0
 10
0.0
 20
0.0
 30
0.0
  3
ASSORTED_DRAFT1
  1

  0
SOLID
  5
19A
330
199
100
AcDbEntity
  8
0
 62
   254
370
    13
100
AcDbTrace
 10
476.517572
 20
269.186216
 30
0.0
 11
481.517568
 21
270.29469
 31
0.0
 12
481.5175759999999
 22
268.077743
 32
0.0
 13
476.517572
 23
269.186216
 33
0.0
  0
ENDBLK
  5
19D
330
199
100
AcDbEntity
  8
0
100
AcDbBlockEnd
  0
BLOCK
  5
1A8
330
1A7
100
AcDbEntity
  8
0
100
AcDbBlockBegin
  2
*D2
 70
     1
 10
0.0
 20
0.0
 30
0.0
  3
*D2
  1

  0
LINE
  5
1AA
330
1A7
100
AcDbEntity
  8
0
 62
   254
370
    -2
100
AcDbLine
 10
367.174849
 20
383.508075
 30
0.0
 11
367.174849
 21
385.610012
 31
0.0
  0
LINE
  5
1AB
330
1A7
100
AcDbEntity
  8
0
 62
   254
370
    -2
100
AcDbLine
 10
338.396186
 20
381.148146
 30
0.0
 11
338.396186
 21
385.610012
 31
0.0
  0
LINE
  5
1AC
330
1A7
100
AcDbEntity
  8
0
 62
   254
370
    -2
100
AcDbLine
 10
363.674849
 20
384.610012
 30
0.0
 11
341.896186
 21
384.610012
 31
0.0
  0
SOLID
  5
1AD
330
1A7
100
AcDbEntity
  8
0
 62
   254
100
AcDbTrace
 10
363.674849
 20
384.026678
 30
0.0
 11
363.674849
 21
385.193345
 31
0.0
 12
367.174849
 22
384.610012
 32
0.0
 13
367.174849
 23
384.610012
 33
0.0
  0
SOLID
  5
1AE
330
1A7
100
AcDbEntity
  8
0
 62
   254
100
AcDbTrace
 10
341.896186
 20
385.193345
 30
0.0
 11
341.896186
 21
384.026678
 31
0.0
 12
338.396186
 22
384.610012
 32
0.0
 13
338.396186
 23
384.610012
 33
0.0
  0
MTEXT
  5
1AF
330
1A7
100
AcDbEntity
  8
0
 62
   254
370
    13
100
AcDbMText
 10
352.785517
 20
389.860012
 30
0.0
 40
3.5
 41
0.0
 71
     5
 72
     1
  1
\A1;28.78
  7
cesky
 73
     1
 44
1.0
  0
POINT
  5
1B0
330
1A7
100
AcDbEntity
  8
Defpoints
 62
     0
100
AcDbPoint
 10
367.174849
 20
383.508075
 30
0.0
  0
POINT
  5
1B1
330
1A7
100
AcDbEntity
  8
Defpoints
 62
     0
100
AcDbPoint
 10
338.396186
 20
381.148146
 30
0.0
  0
POINT
  5
1B2
330
1A7
100
AcDbEntity
  8
Defpoints
 62
     0
100
AcDbPoint
 10
338.396186
 20
384.610012
 30
0.0
  0
ENDBLK
  5
1A9
330
1A7
100
AcDbEntity
  8
0
100
AcDbBlockEnd
  0
BLOCK
  5
1BA
330
1B3
100
AcDbEntity
  8
0
100
AcDbBlockBegin
  2
_U0
 70
     0
 10
0.0
 20
0.0
 30
0.0
  3
_U0
  1

  0
ENDBLK
  5
1BB
330
1B3
100
AcDbEntity
  8
0
100
AcDbBlockEnd
  0
BLOCK
  5
1C0
330
1BF
100
AcDbEntity
  8
0
100
AcDbBlockBegin
  2
*D4
 70
     1
 10
0.0
 20
0.0
 30
0.0
  3
*D4
  1

  0
LINE
  5
1C2
330
1BF
100
AcDbEntity
  8
0
 62
    95
370
    -2
100
AcDbLine
 10
367.174849
 20
383.508075
 30
0.0
 11
367.174849
 21
402.2244149999999
 31
0.0
  0
LINE
  5
1C3
330
1BF
100
AcDbEntity
  8
0
 62
    95
370
    -2
100
AcDbLine
 10
298.174849
 20
372.008072
 30
0.0
 11
298.174849
 21
402.2244149999999
 31
0.0
  0
LINE
  5
1C4
330
1BF
100
AcDbEntity
  8
0
 62
    95
370
    -2
100
AcDbLine
 10
363.674849
 20
401.2244149999999
 30
0.0
 11
301.674849
 21
401.2244149999999
 31
0.0
  0
SOLID
  5
1C5
330
1BF
100
AcDbEntity
  8
0
 62
    95
100
AcDbTrace
 10
363.674849
 20
400.641082
 30
0.0
 11
363.674849
 21
401.807749
 31
0.0
 12
367.174849
 22
401.2244149999999
 32
0.0
 13
367.174849
 23
401.2244149999999
 33
0.0
  0
SOLID
  5
1C6
330
1BF
100
AcDbEntity
  8
0
 62
    95
100
AcDbTrace
 10
301.674849
 20
401.807749
 30
0.0
 11
301.674849
 21
400.641082
 31
0.0
 12
298.174849
 22
401.2244149999999
 32
0.0
 13
298.174849
 23
401.2244149999999
 33
0.0
  0
MTEXT
  5
1C7
330
1BF
100
AcDbEntity
  8
0
 62
    95
370
    13
100
AcDbMText
 10
332.674849
 20
406.474415
 30
0.0
 40
3.5
 41
0.0
 71
     5
 72
     1
  1
\A1;69
  7
cesky
 73
     1
 44
1.0
  0
POINT
  5
1C8
330
1BF
100
AcDbEntity
  8
Defpoints
 62
     0
100
AcDbPoint
 10
367.174849
 20
383.508075
 30
0.0
  0
POINT
  5
1C9
330
1BF
100
AcDbEntity
  8
Defpoints
 62
     0
100
AcDbPoint
 10
298.174849
 20
372.008072
 30
0.0
  0
POINT
  5
1CA
330
1BF
100
AcDbEntity
  8
Defpoints
 62
     0
100
AcDbPoint
 10
298.174849
 20
401.2244149999999
 30
0.0
  0
ENDBLK
  5
1C1
330
1BF
100
AcDbEntity
  8
0
100
AcDbBlockEnd
  0
BLOCK
  5
1D2
330
1CB
100
AcDbEntity
  8
0
100
AcDbBlockBegin
  2
_U1
 70
     0
 10
0.0
 20
0.0
 30
0.0
  3
_U1
  1

  0
MTEXT
  5
1CC
330
1CB
100
AcDbEntity
  8
96
  6
Continuous
 62
    95
440
 16777216
370
    13
100
AcDbMText
 10
330.860349
 20
401.098582
 30
0.0
 40
3.5
 41
0.0
 71
     7
 72
     5
  1
\W0.7259;69
  7
cesky
 73
     2
 44
0.8433729999999998
  0
LINE
  5
1CD
330
1CB
100
AcDbEntity
  8
96
 62
    95
440
 16777216
370
    13
100
AcDbLine
 10
367.174849
 20
383.508075
 30
0.0
 11
367.174849
 21
402.2244149999999
 31
0.0
  0
LINE
  5
1CE
330
1CB
100
AcDbEntity
  8
96
 62
    95
440
 16777216
370
    13
100
AcDbLine
 10
298.174849
 20
372.008072
 30
0.0
 11
298.174849
 21
402.2244149999999
 31
0.0
  0
LINE
  5
1CF
330
1CB
100
AcDbEntity
  8
96
 62
    95
440
 16777216
370
    13
100
AcDbLine
 10
367.174849
 20
401.2244149999999
 30
0.0
 11
298.174849
 21
401.2244149999999
 31
0.0
  0
SOLID
  5
1D0
330
1CB
100
AcDbEntity
  8
96
 62
    95
440
 16777216
370
    13
100
AcDbTrace
 10
367.174849
 20
401.2244149999999
 30
0.0
 11
363.674851
 21
400.6072709999999
 31
0.0
 12
363.674846
 22
401.8415599999999
 32
0.0
 13
363.674846
 23
401.8415599999999
 33
0.0
  0
SOLID
  5
1D1
330
1CB
100
AcDbEntity
  8
96
 62
    95
440
 16777216
370
    13
100
AcDbTrace
 10
298.174849
 20
401.2244149999999
 30
0.0
 11
301.674846
 21
401.8415599999999
 31
0.0
 12
301.674851
 22
400.6072709999999
 32
0.0
 13
301.674851
 23
400.6072709999999
 33
0.0
  0
ENDBLK
  5
1D3
330
1CB
100
AcDbEntity
  8
0
100
AcDbBlockEnd
  0
BLOCK
  5
1D8
330
1D7
100
AcDbEntity
  8
0
100
AcDbBlockBegin
  2
*D6
 70
     1
 10
0.0
 20
0.0
 30
0.0
  3
*D6
  1

  0
LINE
  5
1DA
330
1D7
100
AcDbEntity
  8
0
 62
   254
370
    -2
100
AcDbLine
 10
367.174849
 20
383.508075
 30
0.0
 11
367.174849
 21
392.801684
 31
0.0
  0
LINE
  5
1DB
330
1D7
100
AcDbEntity
  8
0
 62
   254
370
    -2
100
AcDbLine
 10
322.174849
 20
366.008075
 30
0.0
 11
322.174849
 21
392.801684
 31
0.0
  0
LINE
  5
1DC
330
1D7
100
AcDbEntity
  8
0
 62
   254
370
    -2
100
AcDbLine
 10
363.674849
 20
391.801684
 30
0.0
 11
325.674849
 21
391.801684
 31
0.0
  0
SOLID
  5
1DD
330
1D7
100
AcDbEntity
  8
0
 62
   254
100
AcDbTrace
 10
363.674849
 20
391.21835
 30
0.0
 11
363.674849
 21
392.385017
 31
0.0
 12
367.174849
 22
391.801684
 32
0.0
 13
367.174849
 23
391.801684
 33
0.0
  0
SOLID
  5
1DE
330
1D7
100
AcDbEntity
  8
0
 62
   254
100
AcDbTrace
 10
325.674849
 20
392.385017
 30
0.0
 11
325.674849
 21
391.21835
 31
0.0
 12
322.174849
 22
391.801684
 32
0.0
 13
322.174849
 23
391.801684
 33
0.0
  0
MTEXT
  5
1DF
330
1D7
100
AcDbEntity
  8
0
 62
   254
370
    13
100
AcDbMText
 10
344.674849
 20
397.051684
 30
0.0
 40
3.5
 41
0.0
 71
     5
 72
     1
  1
\A1;45
  7
cesky
 73
     1
 44
1.0
  0
POINT
  5
1E0
330
1D7
100
AcDbEntity
  8
Defpoints
 62
     0
100
AcDbPoint
 10
367.174849
 20
383.508075
 30
0.0
  0
POINT
  5
1E1
330
1D7
100
AcDbEntity
  8
Defpoints
 62
     0
100
AcDbPoint
 10
322.174849
 20
366.008075
 30
0.0
  0
POINT
  5
1E2
330
1D7
100
AcDbEntity
  8
Defpoints
 62
     0
100
AcDbPoint
 10
322.174849
 20
391.801684
 30
0.0
  0
ENDBLK
  5
1D9
330
1D7
100
AcDbEntity
  8
0
100
AcDbBlockEnd
  0
BLOCK
  5
1EA
330
1E3
100
AcDbEntity
  8
0
100
AcDbBlockBegin
  2
_U2
 70
     0
 10
0.0
 20
0.0
 30
0.0
  3
_U2
  1

  0
MTEXT
  5
1E4
330
1E3
100
AcDbEntity
  8
96
  6
Continuous
 62
   254
440
 16777216
370
    13
100
AcDbMText
 10
342.860349
 20
391.67585
 30
0.0
 40
3.5
 41
0.0
 71
     7
 72
     5
  1
\W0.7045;45
  7
cesky
 73
     2
 44
0.8433729999999998
  0
LINE
  5
1E5
330
1E3
100
AcDbEntity
  8
96
 62
   254
440
 16777216
370
    13
100
AcDbLine
 10
367.174849
 20
383.508075
 30
0.0
 11
367.174849
 21
392.801684
 31
0.0
  0
LINE
  5
1E6
330
1E3
100
AcDbEntity
  8
96
 62
   254
440
 16777216
370
    13
100
AcDbLine
 10
322.174849
 20
366.008075
 30
0.0
 11
322.174849
 21
392.801684
 31
0.0
  0
LINE
  5
1E7
330
1E3
100
AcDbEntity
  8
96
 62
   254
440
 16777216
370
    13
100
AcDbLine
 10
367.174849
 20
391.801684
 30
0.0
 11
322.174849
 21
391.801684
 31
0.0
  0
SOLID
  5
1E8
330
1E3
100
AcDbEntity
  8
96
 62
   254
440
 16777216
370
    13
100
AcDbTrace
 10
367.174849
 20
391.801684
 30
0.0
 11
363.674851
 21
391.184539
 31
0.0
 12
363.674846
 22
392.418828
 32
0.0
 13
363.674846
 23
392.418828
 33
0.0
  0
SOLID
  5
1E9
330
1E3
100
AcDbEntity
  8
96
 62
   254
440
 16777216
370
    13
100
AcDbTrace
 10
322.174849
 20
391.801684
 30
0.0
 11
325.674846
 21
392.418828
 31
0.0
 12
325.674851
 22
391.184539
 32
0.0
 13
325.674851
 23
391.184539
 33
0.0
  0
ENDBLK
  5
1EB
330
1E3
100
AcDbEntity
  8
0
100
AcDbBlockEnd
  0
BLOCK
  5
1F0
330
1EF
100
AcDbEntity
  8
0
100
AcDbBlockBegin
  2
*D8
 70
     1
 10
0.0
 20
0.0
 30
0.0
  3
*D8
  1

  0
LINE
  5
1F2
330
1EF
100
AcDbEntity
  8
0
 62
    95
370
    -2
100
AcDbLine
 10
305.721636
 20
374.008072
 30
0.0
 11
278.031247
 21
374.008072
 31
0.0
  0
LINE
  5
1F3
330
1EF
100
AcDbEntity
  8
0
 62
    95
370
    -2
100
AcDbLine
 10
305.721636
 20
358.008072
 30
0.0
 11
278.031247
 21
358.008072
 31
0.0
  0
LINE
  5
1F4
330
1EF
100
AcDbEntity
  8
0
 62
    95
370
    -2
100
AcDbLine
 10
279.031247
 20
370.508072
 30
0.0
 11
279.031247
 21
361.508072
 31
0.0
  0
SOLID
  5
1F5
330
1EF
100
AcDbEntity
  8
0
 62
    95
100
AcDbTrace
 10
279.61458
 20
370.508072
 30
0.0
 11
278.447914
 21
370.508072
 31
0.0
 12
279.031247
 22
374.008072
 32
0.0
 13
279.031247
 23
374.008072
 33
0.0
  0
SOLID
  5
1F6
330
1EF
100
AcDbEntity
  8
0
 62
    95
100
AcDbTrace
 10
278.447914
 20
361.508072
 30
0.0
 11
279.61458
 21
361.508072
 31
0.0
 12
279.031247
 22
358.008072
 32
0.0
 13
279.031247
 23
358.008072
 33
0.0
  0
MTEXT
  5
1F7
330
1EF
100
AcDbEntity
  8
0
 62
    95
370
    13
100
AcDbMText
 10
273.781247
 20
366.008072
 30
0.0
 40
3.5
 41
0.0
 71
     5
 72
     1
  1
\A1;16
  7
cesky
 11
0.0
 21
1.0
 31
0.0
 73
     1
 44
1.0
  0
POINT
  5
1F8
330
1EF
100
AcDbEntity
  8
Defpoints
 62
     0
100
AcDbPoint
 10
305.721636
 20
374.008072
 30
0.0
  0
POINT
  5
1F9
330
1EF
100
AcDbEntity
  8
Defpoints
 62
     0
100
AcDbPoint
 10
305.721636
 20
358.008072
 30
0.0
  0
POINT
  5
1FA
330
1EF
100
AcDbEntity
  8
Defpoints
 62
     0
100
AcDbPoint
 10
279.031247
 20
358.008072
 30
0.0
  0
ENDBLK
  5
1F1
330
1EF
100
AcDbEntity
  8
0
100
AcDbBlockEnd
  0
BLOCK
  5
203
330
1FB
100
AcDbEntity
  8
0
100
AcDbBlockBegin
  2
_U3
 70
     0
 10
0.0
 20
0.0
 30
0.0
  3
_U3
  1

  0
MTEXT
  5
1FC
330
1FB
100
AcDbEntity
  8
96
  6
Continuous
 62
    95
440
 16777216
370
    13
100
AcDbMText
 10
279.50008
 20
362.553072
 30
0.0
 40
3.5
 41
0.0
 71
     7
 72
     5
  1
\W0.5332;M
  7
cesky
 11
0.0000000000000001
 21
1.0
 31
0.0
 73
     2
 44
0.8433729999999998
  0
MTEXT
  5
1FD
330
1FB
100
AcDbEntity
  8
96
  6
Continuous
 62
    95
440
 16777216
370
    13
100
AcDbMText
 10
279.50008
 20
365.778072
 30
0.0
 40
3.5
 41
0.0
 71
     7
 72
     5
  1
\W0.8260;16
  7
cesky
 11
0.0000000000000001
 21
1.0
 31
0.0
 73
     2
 44
0.8433729999999998
  0
LINE
  5
1FE
330
1FB
100
AcDbEntity
  8
96
 62
    95
440
 16777216
370
    13
100
AcDbLine
 10
300.174849
 20
374.008072
 30
0.0
 11
278.031247
 21
374.008072
 31
0.0
  0
LINE
  5
1FF
330
1FB
100
AcDbEntity
  8
96
 62
    95
440
 16777216
370
    13
100
AcDbLine
 10
300.174849
 20
358.008072
 30
0.0
 11
278.031247
 21
358.008072
 31
0.0
  0
LINE
  5
200
330
1FB
100
AcDbEntity
  8
96
 62
    95
440
 16777216
370
    13
100
AcDbLine
 10
279.031247
 20
382.758072
 30
0.0
 11
279.031247
 21
349.258072
 31
0.0
  0
SOLID
  5
201
330
1FB
100
AcDbEntity
  8
96
 62
    95
440
 16777216
370
    13
100
AcDbTrace
 10
279.031247
 20
374.008072
 30
0.0
 11
278.414102
 21
377.50807
 31
0.0
 12
279.648391
 22
377.508074
 32
0.0
 13
279.648391
 23
377.508074
 33
0.0
  0
SOLID
  5
202
330
1FB
100
AcDbEntity
  8
96
 62
    95
440
 16777216
370
    13
100
AcDbTrace
 10
279.031247
 20
358.008072
 30
0.0
 11
279.648391
 21
354.508074
 31
0.0
 12
278.414102
 22
354.50807
 32
0.0
 13
278.414102
 23
354.50807
 33
0.0
  0
ENDBLK
  5
204
330
1FB
100
AcDbEntity
  8
0
100
AcDbBlockEnd
  0
BLOCK
  5
209
330
208
100
AcDbEntity
  8
0
100
AcDbBlockBegin
  2
*D10
 70
     1
 10
0.0
 20
0.0
 30
0.0
  3
*D10
  1

  0
LINE
  5
20B
330
208
100
AcDbEntity
  8
0
 62
   254
370
    -2
100
AcDbLine
 10
365.294849
 20
366.008072
 30
0.0
 11
383.508952
 21
366.008072
 31
0.0
  0
LINE
  5
20C
330
208
100
AcDbEntity
  8
0
 62
   254
370
    -2
100
AcDbLine
 10
368.674849
 20
382.008075
 30
0.0
 11
383.508952
 21
382.008075
 31
0.0
  0
LINE
  5
20D
330
208
100
AcDbEntity
  8
0
 62
   254
370
    -2
100
AcDbLine
 10
382.508952
 20
366.008072
 30
0.0
 11
382.508952
 21
382.008075
 31
0.0
  0
SOLID
  5
20E
330
208
100
AcDbEntity
  8
0
 62
   254
100
AcDbTrace
 10
383.092285
 20
378.508075
 30
0.0
 11
381.925619
 21
378.508075
 31
0.0
 12
382.508952
 22
382.008075
 32
0.0
 13
382.508952
 23
382.008075
 33
0.0
  0
MTEXT
  5
20F
330
208
100
AcDbEntity
  8
0
 62
   254
370
    13
100
AcDbMText
 10
377.258952
 20
356.174739
 30
0.0
 40
3.5
 41
0.0
 71
     5
 72
     1
  1
\A1;32
  7
cesky
 11
0.0
 21
1.0
 31
0.0
 73
     1
 44
1.0
  0
POINT
  5
210
330
208
100
AcDbEntity
  8
Defpoints
 62
     0
100
AcDbPoint
 10
365.294849
 20
366.008072
 30
0.0
  0
POINT
  5
211
330
208
100
AcDbEntity
  8
Defpoints
 62
     0
100
AcDbPoint
 10
368.674849
 20
382.008075
 30
0.0
  0
POINT
  5
212
330
208
100
AcDbEntity
  8
Defpoints
 62
     0
100
AcDbPoint
 10
382.508952
 20
382.008075
 30
0.0
  0
ENDBLK
  5
20A
330
208
100
AcDbEntity
  8
0
100
AcDbBlockEnd
  0
BLOCK
  5
219
330
213
100
AcDbEntity
  8
0
100
AcDbBlockBegin
  2
_U4
 70
     0
 10
0.0
 20
0.0
 30
0.0
  3
_U4
  1

  0
ENDBLK
  5
21A
330
213
100
AcDbEntity
  8
0
100
AcDbBlockEnd
  0
BLOCK
  5
21F
330
21E
100
AcDbEntity
  8
0
100
AcDbBlockBegin
  2
*D12
 70
     1
 10
0.0
 20
0.0
 30
0.0
  3
*D12
  1

  0
LINE
  5
221
330
21E
100
AcDbEntity
  8
0
 62
    95
370
    -2
100
AcDbLine
 10
319.7557339999999
 20
374.508072
 30
0.0
 11
320.986565
 21
374.508072
 31
0.0
  0
LINE
  5
222
330
21E
100
AcDbEntity
  8
0
 62
    95
370
    -2
100
AcDbLine
 10
319.471949
 20
357.508072
 30
0.0
 11
320.986565
 21
357.508072
 31
0.0
  0
LINE
  5
223
330
21E
100
AcDbEntity
  8
0
 62
    95
370
    -2
100
AcDbLine
 10
319.986565
 20
374.508072
 30
0.0
 11
319.986565
 21
391.926315
 31
0.0
  0
LINE
  5
224
330
21E
100
AcDbEntity
  8
0
 62
    95
370
    -2
100
AcDbLine
 10
319.986565
 20
371.008072
 30
0.0
 11
319.986565
 21
361.008072
 31
0.0
  0
SOLID
  5
225
330
21E
100
AcDbEntity
  8
0
 62
    95
100
AcDbTrace
 10
320.569898
 20
371.008072
 30
0.0
 11
319.403231
 21
371.008072
 31
0.0
 12
319.986565
 22
374.508072
 32
0.0
 13
319.986565
 23
374.508072
 33
0.0
  0
SOLID
  5
226
330
21E
100
AcDbEntity
  8
0
 62
    95
100
AcDbTrace
 10
319.403231
 20
361.008072
 30
0.0
 11
320.569898
 21
361.008072
 31
0.0
 12
319.986565
 22
357.508072
 32
0.0
 13
319.986565
 23
357.508072
 33
0.0
  0
MTEXT
  5
227
330
21E
100
AcDbEntity
  8
0
 62
    95
370
    13
100
AcDbMText
 10
314.736565
 20
385.926315
 30
0.0
 40
3.5
 41
0.0
 71
     5
 72
     1
  1
\A1;17
  7
cesky
 11
0.0
 21
1.0
 31
0.0
 73
     1
 44
1.0
  0
POINT
  5
228
330
21E
100
AcDbEntity
  8
Defpoints
 62
     0
100
AcDbPoint
 10
319.7557339999999
 20
374.508072
 30
0.0
  0
POINT
  5
229
330
21E
100
AcDbEntity
  8
Defpoints
 62
     0
100
AcDbPoint
 10
319.471949
 20
357.508072
 30
0.0
  0
POINT
  5
22A
330
21E
100
AcDbEntity
  8
Defpoints
 62
     0
100
AcDbPoint
 10
319.986565
 20
357.508072
 30
0.0
  0
ENDBLK
  5
220
330
21E
100
AcDbEntity
  8
0
100
AcDbBlockEnd
  0
BLOCK
  5
232
330
22B
100
AcDbEntity
  8
0
100
AcDbBlockBegin
  2
_U5
 70
     0
 10
0.0
 20
0.0
 30
0.0
  3
_U5
  1

  0
MTEXT
  5
22C
330
22B
100
AcDbEntity
  8
96
  6
Continuous
 62
    95
440
 16777216
370
    13
100
AcDbMText
 10
319.799148
 20
387.452565
 30
0.0
 40
3.5
 41
0.0
 71
     7
 72
     5
  1
\W0.7984;17
  7
cesky
 11
0.0000000000000001
 21
1.0
 31
0.0
 73
     2
 44
0.8433729999999998
  0
MTEXT
  5
22D
330
22B
100
AcDbEntity
  8
96
  6
Continuous
 62
    95
440
 16777216
370
    13
100
AcDbMText
 10
319.799148
 20
380.715065
 30
0.0
 40
3.5
 41
0.0
 71
     7
 72
     5
  1
\W3.0115;\H2.63;%%c\H3.50;
  7
cesky
 11
0.0000000000000001
 21
1.0
 31
0.0
 73
     2
 44
0.8433729999999998
  0
LINE
  5
22E
330
22B
100
AcDbEntity
  8
96
 62
    95
440
 16777216
370
    13
100
AcDbLine
 10
320.174849
 20
374.508072
 30
0.0
 11
320.986565
 21
374.508072
 31
0.0
  0
LINE
  5
22F
330
22B
100
AcDbEntity
  8
96
 62
    95
440
 16777216
370
    13
100
AcDbLine
 10
319.986565
 20
357.508072
 30
0.0
 11
319.986565
 21
391.2950649999999
 31
0.0
  0
SOLID
  5
230
330
22B
100
AcDbEntity
  8
96
 62
    95
440
 16777216
370
    13
100
AcDbTrace
 10
319.986565
 20
374.508072
 30
0.0
 11
320.603709
 21
371.008074
 31
0.0
 12
319.36942
 22
371.00807
 32
0.0
 13
319.36942
 23
371.00807
 33
0.0
  0
SOLID
  5
231
330
22B
100
AcDbEntity
  8
96
 62
    95
440
 16777216
370
    13
100
AcDbTrace
 10
319.986565
 20
357.508072
 30
0.0
 11
319.36942
 21
361.0080700000001
 31
0.0
 12
320.603709
 22
361.008074
 32
0.0
 13
320.603709
 23
361.008074
 33
0.0
  0
ENDBLK
  5
233
330
22B
100
AcDbEntity
  8
0
100
AcDbBlockEnd
  0
BLOCK
  5
2EE
330
2EC
100
AcDbEntity
  8
0
370
    13
100
AcDbBlockBegin
  2
GENAXEH
 70
     0
 10
0.0
 20
0.0
 30
0.0
  3
GENAXEH
  1

  0
LINE
  5
2ED
330
2EC
100
AcDbEntity
  8
0
100
AcDbLine
 10
-1.0
 20
0.0
 30
0.0
 11
1.0
 21
0.0
 31
0.0
  0
ENDBLK
  5
2EF
330
2EC
100
AcDbEntity
  8
0
370
    13
100
AcDbBlockEnd
  0
ENDSEC
  0
SECTION
  2
ENTITIES
  0
POINT
  5
73
102
{ACAD_REACTORS
330
353
102
}
330
1F
100
AcDbEntity
  8
80
100
AcDbPoint
 10
322.174849
 20
366.008075
 30
0.0
  0
POINT
  5
75
330
1F
100
AcDbEntity
  8
SK6
 60
     1
100
AcDbPoint
 10
298.174849
 20
366.008072
 30
0.0
  0
POINT
  5
77
330
1F
100
AcDbEntity
  8
SK6
 60
     1
100
AcDbPoint
 10
322.674849
 20
366.008072
 30
0.0
  0
POINT
  5
78
330
1F
100
AcDbEntity
  8
SK6
 60
     1
100
AcDbPoint
 10
322.174849
 20
366.008072
 30
0.0
  0
POINT
  5
79
330
1F
100
AcDbEntity
  8
SK6
 60
     1
100
AcDbPoint
 10
365.294849
 20
366.008072
 30
0.0
  0
LINE
  5
7A
330
1F
100
AcDbEntity
  8
1
100
AcDbLine
 10
365.033619
 20
365.484767
 30
0.0
 11
364.486902
 21
365.513053
 31
0.0
  0
LINE
  5
7C
330
1F
100
AcDbEntity
  8
1
100
AcDbLine
 10
328.174849
 20
355.040176
 30
0.0
 11
333.774849
 21
355.040176
 31
0.0
  0
LINE
  5
7E
330
1F
100
AcDbEntity
  8
1
100
AcDbLine
 10
328.174849
 20
351.508072
 30
0.0
 11
328.174849
 21
355.040176
 31
0.0
  0
LINE
  5
7F
330
1F
100
AcDbEntity
  8
1
100
AcDbLine
 10
328.174849
 20
380.508072
 30
0.0
 11
328.174849
 21
370.764311
 31
0.0
  0
LINE
  5
80
330
1F
100
AcDbEntity
  8
1
100
AcDbLine
 10
333.774849
 20
370.764311
 30
0.0
 11
328.174849
 21
370.764311
 31
0.0
  0
LINE
  5
81
330
1F
100
AcDbEntity
  8
1
100
AcDbLine
 10
334.174849
 20
355.538833
 30
0.0
 11
334.174849
 21
370.058599
 31
0.0
  0
LINE
  5
82
330
1F
100
AcDbEntity
  8
1
100
AcDbLine
 10
337.720681
 20
374.127903
 30
0.0
 11
337.720681
 21
351.564286
 31
0.0
  0
LINE
  5
83
330
1F
100
AcDbEntity
  8
1
100
AcDbLine
 10
328.174849
 20
351.508072
 30
0.0
 11
333.193763
 21
351.508072
 31
0.0
  0
LINE
  5
84
330
1F
100
AcDbEntity
  8
1
100
AcDbLine
 10
336.69365
 20
380.508072
 30
0.0
 11
332.795384
 21
380.508072
 31
0.0
  0
LINE
  5
85
330
1F
100
AcDbEntity
  8
1
100
AcDbLine
 10
331.313569
 20
380.508072
 30
0.0
 11
328.174849
 21
380.508072
 31
0.0
  0
LINE
  5
86
330
1F
100
AcDbEntity
  8
1
100
AcDbLine
 10
350.2465509999999
 20
360.114028
 30
0.0
 11
348.827898
 21
360.114028
 31
0.0
  0
LINE
  5
88
330
1F
100
AcDbEntity
  8
1
100
AcDbLine
 10
352.712171
 20
374.387743
 30
0.0
 11
352.379277
 21
374.387743
 31
0.0
  0
LINE
  5
89
330
1F
100
AcDbEntity
  8
1
100
AcDbLine
 10
335.947329
 20
351.02108
 30
0.0
 11
336.57734
 21
350.955327
 31
0.0
  0
LINE
  5
8A
330
1F
100
AcDbEntity
  8
1
100
AcDbLine
 10
350.890995
 20
350.305946
 30
0.0
 11
336.76567
 21
350.941403
 31
0.0
  0
LINE
  5
8B
330
1F
100
AcDbEntity
  8
1
100
AcDbLine
 10
349.863912
 20
351.280578
 30
0.0
 11
337.966928
 21
351.81579
 31
0.0
  0
LINE
  5
8C
330
1F
100
AcDbEntity
  8
1
100
AcDbLine
 10
349.476175
 20
373.535917
 30
0.0
 11
349.30826
 21
373.535917
 31
0.0
  0
LINE
  5
8D
330
1F
100
AcDbEntity
  8
1
100
AcDbLine
 10
356.909906
 20
366.326174
 30
0.0
 11
355.92666
 21
366.43928
 31
0.0
  0
LINE
  5
8E
330
1F
100
AcDbEntity
  8
SK1
100
AcDbLine
 10
312.835618
 20
358.8200720000001
 30
0.0
 11
315.5748490000001
 21
358.8200720000001
 31
0.0
  0
LINE
  5
8F
330
1F
100
AcDbEntity
  8
SK1
100
AcDbLine
 10
315.5748490000001
 20
373.196072
 30
0.0
 11
312.835618
 21
373.196072
 31
0.0
  0
LINE
  5
90
330
1F
100
AcDbEntity
  8
SK1
100
AcDbLine
 10
312.535618
 20
373.276457
 30
0.0
 11
311.268423
 21
374.008072
 31
0.0
  0
LINE
  5
91
330
1F
100
AcDbEntity
  8
SK1
100
AcDbLine
 10
311.268423
 20
358.008072
 30
0.0
 11
312.535618
 21
358.739687
 31
0.0
  0
LINE
  5
92
330
1F
100
AcDbEntity
  8
SK1
100
AcDbLine
 10
298.174849
 20
360.008072
 30
0.0
 11
298.174849
 21
371.98524
 31
0.0
  0
LINE
  5
93
330
1F
100
AcDbEntity
  8
SK1
100
AcDbLine
 10
298.174849
 20
371.98524
 30
0.0
 11
298.174849
 21
372.008072
 31
0.0
  0
LINE
  5
94
330
1F
100
AcDbEntity
  8
SK1
100
AcDbLine
 10
298.174849
 20
360.008072
 30
0.0
 11
300.174849
 21
358.008072
 31
0.0
  0
LINE
  5
95
330
1F
100
AcDbEntity
  8
SK1
100
AcDbLine
 10
300.174849
 20
374.008072
 30
0.0
 11
298.174849
 21
372.008072
 31
0.0
  0
LINE
  5
96
330
1F
100
AcDbEntity
  8
SK1
100
AcDbLine
 10
300.174849
 20
358.008072
 30
0.0
 11
300.174849
 21
373.97763
 31
0.0
  0
LINE
  5
97
330
1F
100
AcDbEntity
  8
SK1
100
AcDbLine
 10
300.174849
 20
373.97763
 30
0.0
 11
300.174849
 21
374.008072
 31
0.0
  0
LINE
  5
98
330
1F
100
AcDbEntity
  8
SK1
100
AcDbLine
 10
311.268423
 20
358.008072
 30
0.0
 11
311.268423
 21
373.97763
 31
0.0
  0
LINE
  5
99
330
1F
100
AcDbEntity
  8
SK1
100
AcDbLine
 10
311.268423
 20
373.97763
 30
0.0
 11
311.268423
 21
374.008072
 31
0.0
  0
LINE
  5
9A
330
1F
100
AcDbEntity
  8
SK1
100
AcDbLine
 10
300.174849
 20
358.008072
 30
0.0
 11
311.268423
 21
358.008072
 31
0.0
  0
LINE
  5
9B
330
1F
100
AcDbEntity
  8
SK1
100
AcDbLine
 10
311.268423
 20
374.008072
 30
0.0
 11
300.174849
 21
374.008072
 31
0.0
  0
LINE
  5
9C
330
1F
100
AcDbEntity
  8
SK1
100
AcDbLine
 10
321.00025
 20
357.708072
 30
0.0
 11
321.584628
 21
357.708072
 31
0.0
  0
LINE
  5
9D
330
1F
100
AcDbEntity
  8
SK1
100
AcDbLine
 10
321.584628
 20
374.308072
 30
0.0
 11
321.00025
 21
374.308072
 31
0.0
  0
LINE
  5
9E
330
1F
100
AcDbEntity
  8
SK1
100
AcDbLine
 10
320.844959
 20
374.328517
 30
0.0
 11
320.174849
 21
374.508072
 31
0.0
  0
LINE
  5
9F
330
1F
100
AcDbEntity
  8
SK1
100
AcDbLine
 10
320.174849
 20
357.508072
 30
0.0
 11
320.844959
 21
357.687628
 31
0.0
  0
LINE
  5
A0
330
1F
100
AcDbEntity
  8
SK1
100
AcDbLine
 10
320.174849
 20
357.508072
 30
0.0
 11
320.174849
 21
374.475727
 31
0.0
  0
LINE
  5
A1
330
1F
100
AcDbEntity
  8
SK1
100
AcDbLine
 10
320.174849
 20
374.475727
 30
0.0
 11
320.174849
 21
374.508072
 31
0.0
  0
LINE
  5
A2
330
1F
100
AcDbEntity
  8
SK1
100
AcDbLine
 10
317.174849
 20
357.508072
 30
0.0
 11
320.174849
 21
357.508072
 31
0.0
  0
LINE
  5
A3
330
1F
100
AcDbEntity
  8
SK1
100
AcDbLine
 10
320.174849
 20
374.508072
 30
0.0
 11
317.174849
 21
374.508072
 31
0.0
  0
LINE
  5
A4
330
1F
100
AcDbEntity
  8
SK1
100
AcDbLine
 10
317.174849
 20
357.508072
 30
0.0
 11
317.174849
 21
374.475727
 31
0.0
  0
LINE
  5
A5
330
1F
100
AcDbEntity
  8
SK1
100
AcDbLine
 10
317.174849
 20
374.475727
 30
0.0
 11
317.174849
 21
374.508072
 31
0.0
  0
LINE
  5
A6
330
1F
100
AcDbEntity
  8
1
100
AcDbLine
 10
352.097945
 20
375.268421
 30
0.0
 11
352.433987
 21
375.268421
 31
0.0
  0
LINE
  5
A7
330
1F
100
AcDbEntity
  8
1
100
AcDbLine
 10
351.51378
 20
372.942926
 30
0.0
 11
351.167248
 21
372.942926
 31
0.0
  0
LINE
  5
A8
330
1F
100
AcDbEntity
  8
1
100
AcDbLine
 10
350.816162
 20
370.902169
 30
0.0
 11
350.868638
 21
370.902169
 31
0.0
  0
LINE
  5
A9
330
1F
100
AcDbEntity
  8
1
100
AcDbLine
 10
350.868638
 20
377.902169
 30
0.0
 11
350.816162
 21
377.902169
 31
0.0
  0
LINE
  5
AA
330
1F
100
AcDbEntity
  8
1
100
AcDbLine
 10
350.049849
 20
375.861412
 30
0.0
 11
350.396382
 21
375.861412
 31
0.0
  0
LINE
  5
AB
330
1F
100
AcDbEntity
  8
1
100
AcDbLine
 10
337.971911
 20
376.121256
 30
0.0
 11
338.100619
 21
375.854147
 31
0.0
  0
LINE
  5
AC
330
1F
100
AcDbEntity
  8
1
100
AcDbLine
 10
337.0505720000001
 20
380.252913
 30
0.0
 11
336.994582
 21
380.136715
 31
0.0
  0
LINE
  5
B1
330
1F
100
AcDbEntity
  8
1
100
AcDbLine
 10
365.294849
 20
363.073792
 30
0.0
 11
365.294849
 21
364.957631
 31
0.0
  0
LINE
  5
B2
330
1F
100
AcDbEntity
  8
1
100
AcDbLine
 10
338.065833
 20
375.5799
 30
0.0
 11
337.991948
 21
376.079714
 31
0.0
  0
LINE
  5
B3
330
1F
100
AcDbEntity
  8
1
100
AcDbLine
 10
336.904893
 20
379.255823
 30
0.0
 11
337.475101
 21
375.398545
 31
0.0
  0
LINE
  5
B4
330
1F
100
AcDbEntity
  8
1
100
AcDbLine
 10
365.294849
 20
364.957633
 30
0.0
 11
365.294849
 21
365.490292
 31
0.0
  0
LINE
  5
B5
330
1F
100
AcDbEntity
  8
81
100
AcDbLine
 10
365.674849
 20
382.008075
 30
0.0
 11
368.674849
 21
382.008075
 31
0.0
  0
LINE
  5
B6
330
1F
100
AcDbEntity
  8
81
100
AcDbLine
 10
367.174849
 20
380.508075
 30
0.0
 11
367.174849
 21
383.508075
 31
0.0
  0
LINE
  5
B7
330
1F
100
AcDbEntity
  8
80
100
AcDbLine
 10
322.174849
 20
366.008075
 30
0.0
 11
323.174849
 21
366.008075
 31
0.0
  0
LINE
  5
B8
330
1F
100
AcDbEntity
  8
1
100
AcDbLine
 10
350.890988
 20
381.710251
 30
0.0
 11
338.396186
 21
381.148146
 31
0.0
  0
LINE
  5
B9
330
1F
100
AcDbEntity
  8
1
100
AcDbLine
 10
350.261913
 20
367.14436
 30
0.0
 11
364.31123
 21
365.528219
 31
0.0
  0
LINE
  5
BA
330
1F
100
AcDbEntity
  8
80
100
AcDbLine
 10
322.174849
 20
366.008075
 30
0.0
 11
322.174849
 21
365.008075
 31
0.0
  0
LINE
  5
BB
330
1F
100
AcDbEntity
  8
SK1
100
AcDbLine
 10
316.174849
 20
358.085422
 30
0.0
 11
316.174849
 21
373.900574
 31
0.0
  0
LINE
  5
BC
330
1F
100
AcDbEntity
  8
SK1
100
AcDbLine
 10
316.174849
 20
373.900574
 30
0.0
 11
316.174849
 21
373.930722
 31
0.0
  0
LINE
  5
BD
330
1F
100
AcDbEntity
  8
SK1
100
AcDbLine
 10
316.174849
 20
358.085422
 30
0.0
 11
317.174849
 21
357.508072
 31
0.0
  0
LINE
  5
BE
330
1F
100
AcDbEntity
  8
SK1
100
AcDbLine
 10
317.174849
 20
374.508072
 30
0.0
 11
316.174849
 21
373.930722
 31
0.0
  0
LINE
  5
BF
330
1F
100
AcDbEntity
  8
1
100
AcDbLine
 10
324.174849
 20
351.608072
 30
0.0
 11
328.174849
 21
351.508072
 31
0.0
  0
LINE
  5
C0
330
1F
100
AcDbEntity
  8
1
100
AcDbLine
 10
361.141915
 20
357.058846
 30
0.0
 11
362.626251
 21
361.828509
 31
0.0
  0
LINE
  5
C1
330
1F
100
AcDbEntity
  8
1
100
AcDbLine
 10
362.626251
 20
361.828509
 30
0.0
 11
363.78517
 21
361.667483
 31
0.0
  0
LINE
  5
C2
330
1F
100
AcDbEntity
  8
1
100
AcDbLine
 10
363.78517
 20
361.667483
 30
0.0
 11
364.829529
 21
361.795605
 31
0.0
  0
LINE
  5
C3
330
1F
100
AcDbEntity
  8
1
100
AcDbLine
 10
328.174849
 20
380.508072
 30
0.0
 11
324.174849
 21
380.408072
 31
0.0
  0
LINE
  5
C4
330
1F
100
AcDbEntity
  8
1
100
AcDbLine
 10
322.174849
 20
379.908072
 30
0.0
 11
322.174849
 21
379.855178
 31
0.0
  0
LINE
  5
C5
330
1F
100
AcDbEntity
  8
1
100
AcDbLine
 10
322.174849
 20
379.855178
 30
0.0
 11
322.174849
 21
352.108072
 31
0.0
  0
LINE
  5
C6
330
1F
100
AcDbEntity
  8
1
100
AcDbLine
 10
322.174849
 20
352.108072
 30
0.0
 11
322.674849
 21
351.608072
 31
0.0
  0
LINE
  5
C7
330
1F
100
AcDbEntity
  8
1
100
AcDbLine
 10
322.674849
 20
380.408072
 30
0.0
 11
322.174849
 21
379.908072
 31
0.0
  0
LINE
  5
C8
330
1F
100
AcDbEntity
  8
1
100
AcDbLine
 10
324.174849
 20
369.870455
 30
0.0
 11
324.174849
 21
355.726977
 31
0.0
  0
LINE
  5
C9
330
1F
100
AcDbEntity
  8
1
100
AcDbLine
 10
322.674849
 20
351.608072
 30
0.0
 11
322.674849
 21
380.353276
 31
0.0
  0
LINE
  5
CA
330
1F
100
AcDbEntity
  8
1
100
AcDbLine
 10
322.674849
 20
380.353276
 30
0.0
 11
322.674849
 21
380.408072
 31
0.0
  0
LINE
  5
CB
330
1F
100
AcDbEntity
  8
1
100
AcDbLine
 10
324.174849
 20
355.726977
 30
0.0
 11
324.174849
 21
351.608072
 31
0.0
  0
LINE
  5
CC
330
1F
100
AcDbEntity
  8
1
100
AcDbLine
 10
324.174849
 20
380.408072
 30
0.0
 11
324.174849
 21
369.870455
 31
0.0
  0
LINE
  5
CD
330
1F
100
AcDbEntity
  8
1
100
AcDbLine
 10
322.674849
 20
351.608072
 30
0.0
 11
324.174849
 21
351.608072
 31
0.0
  0
LINE
  5
CE
330
1F
100
AcDbEntity
  8
1
100
AcDbLine
 10
324.174849
 20
380.408072
 30
0.0
 11
322.674849
 21
380.408072
 31
0.0
  0
LINE
  5
CF
330
1F
100
AcDbEntity
  8
1
100
AcDbLine
 10
362.524018
 20
361.50019
 30
0.0
 11
362.870956
 21
361.42828
 31
0.0
  0
LINE
  5
D0
330
1F
100
AcDbEntity
  8
1
100
AcDbLine
 10
363.018547
 20
361.18036
 30
0.0
 11
361.642177
 21
356.757631
 31
0.0
  0
LINE
  5
D1
330
1F
100
AcDbEntity
  8
1
100
AcDbLine
 10
338.287953
 20
352.143829
 30
0.0
 11
349.854716
 21
351.623493
 31
0.0
  0
LINE
  5
D2
330
1F
100
AcDbEntity
  8
1
100
AcDbLine
 10
361.315551
 20
356.852301
 30
0.0
 11
362.596424
 21
360.968189
 31
0.0
  0
LINE
  5
D3
330
1F
100
AcDbEntity
  8
1
100
AcDbLine
 10
362.491478
 20
361.149365
 30
0.0
 11
362.419482
 21
361.164288
 31
0.0
  0
LINE
  5
D4
330
1F
100
AcDbEntity
  8
NOCUT
100
AcDbLine
 10
325.3295490000001
 20
366.008072
 30
0.0
 11
365.294849
 21
366.008072
 31
0.0
  0
LINE
  5
D6
330
1F
100
AcDbEntity
  8
NOCUT
100
AcDbLine
 10
325.3295490000001
 20
366.008072
 30
0.0
 11
324.174849
 21
368.008072
 31
0.0
  0
LINE
  5
D7
330
1F
100
AcDbEntity
  8
NOCUT
100
AcDbLine
 10
324.174849
 20
368.008072
 30
0.0
 11
299.906899
 21
368.008072
 31
0.0
  0
LINE
  5
D8
330
1F
100
AcDbEntity
  8
NOCUT
100
AcDbLine
 10
299.906899
 20
368.008072
 30
0.0
 11
298.174849
 21
369.008072
 31
0.0
  0
LINE
  5
D9
330
1F
100
AcDbEntity
  8
NOCUT
100
AcDbLine
 10
298.174849
 20
369.008072
 30
0.0
 11
298.174849
 21
372.008072
 31
0.0
  0
LINE
  5
DA
330
1F
100
AcDbEntity
  8
NOCUT
100
AcDbLine
 10
298.174849
 20
372.008072
 30
0.0
 11
300.174849
 21
374.008072
 31
0.0
  0
LINE
  5
DB
330
1F
100
AcDbEntity
  8
NOCUT
100
AcDbLine
 10
300.174849
 20
374.008072
 30
0.0
 11
311.268423
 21
374.008072
 31
0.0
  0
LINE
  5
DC
330
1F
100
AcDbEntity
  8
NOCUT
100
AcDbLine
 10
311.268423
 20
374.008072
 30
0.0
 11
312.535618
 21
373.276457
 31
0.0
  0
LINE
  5
DD
330
1F
100
AcDbEntity
  8
NOCUT
100
AcDbLine
 10
312.835618
 20
373.196072
 30
0.0
 11
315.5748490000001
 21
373.196072
 31
0.0
  0
LINE
  5
DE
330
1F
100
AcDbEntity
  8
NOCUT
100
AcDbLine
 10
316.174849
 20
373.796072
 30
0.0
 11
316.174849
 21
373.930722
 31
0.0
  0
LINE
  5
DF
330
1F
100
AcDbEntity
  8
NOCUT
100
AcDbLine
 10
316.174849
 20
373.930722
 30
0.0
 11
317.174849
 21
374.508072
 31
0.0
  0
LINE
  5
E0
330
1F
100
AcDbEntity
  8
NOCUT
100
AcDbLine
 10
317.174849
 20
374.508072
 30
0.0
 11
320.174849
 21
374.508072
 31
0.0
  0
LINE
  5
E1
330
1F
100
AcDbEntity
  8
NOCUT
100
AcDbLine
 10
320.174849
 20
374.508072
 30
0.0
 11
320.844959
 21
374.328517
 31
0.0
  0
LINE
  5
E2
330
1F
100
AcDbEntity
  8
NOCUT
100
AcDbLine
 10
321.00025
 20
374.308072
 30
0.0
 11
321.584628
 21
374.308072
 31
0.0
  0
LINE
  5
E3
330
1F
100
AcDbEntity
  8
NOCUT
100
AcDbLine
 10
322.178788
 20
374.9915759999999
 30
0.0
 11
322.174849
 21
375.019609
 31
0.0
  0
LINE
  5
E4
330
1F
100
AcDbEntity
  8
NOCUT
100
AcDbLine
 10
322.174849
 20
375.019609
 30
0.0
 11
322.174849
 21
379.908072
 31
0.0
  0
LINE
  5
E5
330
1F
100
AcDbEntity
  8
NOCUT
100
AcDbLine
 10
322.174849
 20
379.908072
 30
0.0
 11
322.674849
 21
380.408072
 31
0.0
  0
LINE
  5
E6
330
1F
100
AcDbEntity
  8
NOCUT
100
AcDbLine
 10
322.674849
 20
380.408072
 30
0.0
 11
324.174849
 21
380.408072
 31
0.0
  0
LINE
  5
E7
330
1F
100
AcDbEntity
  8
NOCUT
100
AcDbLine
 10
324.174849
 20
380.408072
 30
0.0
 11
328.174849
 21
380.508072
 31
0.0
  0
LINE
  5
E8
330
1F
100
AcDbEntity
  8
NOCUT
100
AcDbLine
 10
328.174849
 20
380.508072
 30
0.0
 11
337.720681
 21
380.508072
 31
0.0
  0
LINE
  5
E9
330
1F
100
AcDbEntity
  8
NOCUT
100
AcDbLine
 10
337.720681
 20
380.508072
 30
0.0
 11
338.65489
 21
379.573863
 31
0.0
  0
LINE
  5
EA
330
1F
100
AcDbEntity
  8
NOCUT
100
AcDbLine
 10
338.65489
 20
379.573863
 30
0.0
 11
349.957192
 21
380.463373
 31
0.0
  0
LINE
  5
EB
330
1F
100
AcDbEntity
  8
NOCUT
100
AcDbLine
 10
357.235327
 20
379.1436930000001
 30
0.0
 11
357.267317
 21
379.199101
 31
0.0
  0
LINE
  5
EC
330
1F
100
AcDbEntity
  8
NOCUT
100
AcDbLine
 10
357.267317
 20
379.199101
 30
0.0
 11
359.43238
 21
377.949101
 31
0.0
  0
LINE
  5
ED
330
1F
100
AcDbEntity
  8
NOCUT
100
AcDbLine
 10
359.43238
 20
377.949101
 30
0.0
 11
359.40039
 21
377.893693
 31
0.0
  0
LINE
  5
EE
330
1F
100
AcDbEntity
  8
NOCUT
100
AcDbLine
 10
365.294849
 20
368.942352
 30
0.0
 11
365.294849
 21
366.008072
 31
0.0
  0
ARC
  5
FC
330
1F
100
AcDbEntity
  8
SK1
100
AcDbCircle
 10
312.835618
 20
358.220072
 30
0.0
 40
0.6
100
AcDbArc
 50
90.0
 51
120.0
  0
ARC
  5
FD
330
1F
100
AcDbEntity
  8
SK1
100
AcDbCircle
 10
312.835618
 20
373.796072
 30
0.0
 40
0.6
100
AcDbArc
 50
240.0
 51
270.0
  0
ARC
  5
FE
330
1F
100
AcDbEntity
  8
SK1
100
AcDbCircle
 10
315.5748490000001
 20
373.796072
 30
0.0
 40
0.6
100
AcDbArc
 50
270.0
 51
0.0
  0
ARC
  5
FF
330
1F
100
AcDbEntity
  8
SK1
100
AcDbCircle
 10
315.5748490000001
 20
358.220072
 30
0.0
 40
0.6
100
AcDbArc
 50
0.0
 51
90.0
  0
ARC
  5
100
330
1F
100
AcDbEntity
  8
SK1
100
AcDbCircle
 10
321.00025
 20
357.108072
 30
0.0
 40
0.6
100
AcDbArc
 50
90.0
 51
105.0
  0
ARC
  5
101
330
1F
100
AcDbEntity
  8
SK1
100
AcDbCircle
 10
321.00025
 20
374.908072
 30
0.0
 40
0.6
100
AcDbArc
 50
255.0
 51
270.0
  0
ARC
  5
102
330
1F
100
AcDbEntity
  8
1
100
AcDbCircle
 10
351.094849
 20
366.008072
 30
0.0
 40
14.5
100
AcDbArc
 50
346.6240620000001
 51
348.324758
  0
ARC
  5
103
330
1F
100
AcDbEntity
  8
SK1
100
AcDbCircle
 10
321.584628
 20
357.108072
 30
0.0
 40
0.6
100
AcDbArc
 50
10.359821
 51
90.0
  0
ARC
  5
104
330
1F
100
AcDbEntity
  8
SK1
100
AcDbCircle
 10
321.584628
 20
374.908072
 30
0.0
 40
0.6
100
AcDbArc
 50
270.0
 51
349.640179
  0
ARC
  5
10F
330
1F
100
AcDbEntity
  8
NOCUT
100
AcDbCircle
 10
312.835618
 20
373.796072
 30
0.0
 40
0.6
100
AcDbArc
 50
240.0
 51
270.0
  0
ARC
  5
110
330
1F
100
AcDbEntity
  8
NOCUT
100
AcDbCircle
 10
315.5748490000001
 20
373.796072
 30
0.0
 40
0.6
100
AcDbArc
 50
270.0
 51
0.0
  0
ARC
  5
111
330
1F
100
AcDbEntity
  8
NOCUT
100
AcDbCircle
 10
321.00025
 20
374.908072
 30
0.0
 40
0.6
100
AcDbArc
 50
255.0
 51
270.0
  0
ARC
  5
112
330
1F
100
AcDbEntity
  8
NOCUT
100
AcDbCircle
 10
321.584628
 20
374.908072
 30
0.0
 40
0.6
100
AcDbArc
 50
270.0
 51
8.0
  0
ARC
  5
113
330
1F
100
AcDbEntity
  8
NOCUT
100
AcDbCircle
 10
351.094849
 20
366.008072
 30
0.0
 40
14.5
100
AcDbArc
 50
64.94543
 51
94.50000000000001
  0
ARC
  5
114
330
1F
100
AcDbEntity
  8
NOCUT
100
AcDbCircle
 10
351.094849
 20
366.008072
 30
0.0
 40
14.5
100
AcDbArc
 50
11.675242
 51
55.05456999999999
  0
ELLIPSE
  5
115
330
1F
100
AcDbEntity
  8
1
100
AcDbEllipse
 10
351.7154319999999
 20
367.558109
 30
0.0
 11
-7.441247045562399
 21
-15.41799620350305
 31
0.0
210
0.0
220
0.0
230
0.9999999999999998
 40
0.87482
 41
1.908242241271267
 42
1.940289484576015
  0
ELLIPSE
  5
116
330
1F
100
AcDbEntity
  8
1
100
AcDbEllipse
 10
365.33181
 20
367.625814
 30
0.0
 11
-0.953024091283363
 21
-1.974631179532221
 31
0.0
210
0.0
220
0.0
230
1.0
 40
0.87482
 41
0.352418628054973
 42
1.428263479849524
  0
ELLIPSE
  5
117
330
1F
100
AcDbEntity
  8
1
100
AcDbEllipse
 10
364.316953
 20
365.555445
 30
0.0
 11
-0.3045078164625454
 21
0.0347924548235179
 31
0.0
210
0.0
220
0.0
230
1.0
 40
0.090381
 41
1.562327812617894
 42
2.173193050816772
  0
ELLIPSE
  5
118
330
1F
100
AcDbEntity
  8
1
100
AcDbEllipse
 10
330.486656
 20
366.008073
 30
0.0
 11
-82.2335884225955
 21
0.0000000000000963
 31
0.0
210
0.0
220
0.0
230
1.0
 40
0.176327
 41
1.629067364740716
 42
1.658879411159559
  0
ELLIPSE
  5
119
330
1F
100
AcDbEntity
  8
1
100
AcDbEllipse
 10
324.59247
 20
366.008072
 30
0.0
 11
-70.65880745518177
 21
-0.0000001173649498
 31
0.0
210
0.0
220
0.0
230
1.0
 40
0.157789
 41
1.899141256429493
 42
1.902010603857324
  0
ELLIPSE
  5
11A
330
1F
100
AcDbEntity
  8
1
100
AcDbEllipse
 10
348.827898
 20
357.614028
 30
0.0
 11
0.0
 21
2.5
 31
0.0
210
0.0
220
0.0
230
1.0
 40
0.9848079999999999
 41
0.0
 42
6.283185307179585
  0
ELLIPSE
  5
11B
330
1F
100
AcDbEntity
  8
1
100
AcDbEllipse
 10
348.723709
 20
357.614028
 30
0.0
 11
0.0
 21
1.899999999999999
 31
0.0
210
0.0
220
0.0
230
0.9999999999999998
 40
0.9848079999999999
 41
0.0
 42
6.283185307179585
  0
ELLIPSE
  5
11C
330
1F
100
AcDbEntity
  8
1
100
AcDbEllipse
 10
349.198809
 20
374.519337
 30
0.0
 11
0.0
 21
-0.1027459371154612
 31
0.0
210
0.0
220
0.0
230
1.0
 40
0.9848079999999999
 41
6.275100133228678
 42
6.96625901773435
  0
ELLIPSE
  5
11D
330
1F
100
AcDbEntity
  8
1
100
AcDbEllipse
 10
348.80977
 20
375.00479
 30
0.0
 11
0.0
 21
-0.7286223111655374
 31
0.0
210
0.0
220
0.0
230
0.9999999999999998
 40
0.9848079999999999
 41
0.6830737105547621
 42
1.918749819534955
  0
ELLIPSE
  5
11E
330
1F
100
AcDbEntity
  8
1
100
AcDbEllipse
 10
349.3892
 20
375.218198
 30
0.0
 11
0.0
 21
-0.1027459371154633
 31
0.0
210
0.0
220
0.0
230
1.0
 40
0.9848079999999999
 41
1.918749819534965
 42
2.609908704040595
  0
ELLIPSE
  5
11F
330
1F
100
AcDbEntity
  8
1
100
AcDbEllipse
 10
349.491799
 20
375.395323
 30
0.0
 11
0.0
 21
-0.1027459371154634
 31
0.0
210
0.0
220
0.0
230
1.0
 40
0.9848079999999999
 41
4.536743697526434
 42
5.751501357630467
  0
ELLIPSE
  5
120
330
1F
100
AcDbEntity
  8
1
100
AcDbEllipse
 10
350.098683
 20
375.285955
 30
0.0
 11
0.0
 21
-0.7286223111655376
 31
0.0
210
0.0
220
0.0
230
1.0
 40
0.9848079999999999
 41
3.301067588546252
 42
4.536743697526446
  0
ELLIPSE
  5
121
330
1F
100
AcDbEntity
  8
1
100
AcDbEllipse
 10
350.000804
 20
375.903889
 30
0.0
 11
0.0
 21
-0.1027459371154613
 31
0.0
210
0.0
220
0.0
230
0.9999999999999998
 40
0.9848079999999999
 41
2.086309928442303
 42
3.301067588546288
  0
ELLIPSE
  5
122
330
1F
100
AcDbEntity
  8
1
100
AcDbEllipse
 10
350.176874
 20
376.005193
 30
0.0
 11
0.0
 21
-0.1027459371154612
 31
0.0
210
0.0
220
0.0
230
1.0
 40
0.9848079999999999
 41
5.227902582032096
 42
5.919061466537753
  0
ELLIPSE
  5
123
330
1F
100
AcDbEntity
  8
1
100
AcDbEllipse
 10
350.396382
 20
376.590034
 30
0.0
 11
0.0
 21
-0.7286223111655374
 31
0.0
210
0.0
220
0.0
230
0.9999999999999998
 40
0.9848079999999999
 41
5.919061466537757
 42
7.154737575517948
  0
ELLIPSE
  5
124
330
1F
100
AcDbEntity
  8
1
100
AcDbEllipse
 10
350.955081
 20
374.402169
 30
0.0
 11
0.0
 21
2.200000000000001
 31
0.0
210
0.0
220
0.0
230
1.0
 40
0.9848079999999999
 41
0.0
 42
6.283185307179585
  0
ELLIPSE
  5
125
330
1F
100
AcDbEntity
  8
1
100
AcDbEllipse
 10
336.402154
 20
353.14961
 30
0.0
 11
-2.096911366046894
 21
-1.038693080594079
 31
0.0
210
0.0
220
0.0
230
1.0
 40
0.893045
 41
0.3533283525470736
 42
0.954624964308131
  0
ELLIPSE
  5
126
330
1F
100
AcDbEntity
  8
1
100
AcDbEllipse
 10
336.69518
 20
350.97472
 30
0.0
 11
-0.3141224461966439
 21
0.0210794880128432
 31
0.0
210
0.0
220
0.0
230
1.0
 40
0.093103
 41
1.192504561238524
 42
1.803369799397563
  0
ELLIPSE
  5
127
330
1F
100
AcDbEntity
  8
1
100
AcDbEllipse
 10
364.452896
 20
360.684803
 30
0.0
 11
0.0
 21
1.60000000000001
 31
0.0
210
0.0
220
0.0
230
1.0
 40
0.9848079999999999
 41
4.325760237863693
 42
5.881117781578207
  0
ELLIPSE
  5
128
330
1F
100
AcDbEntity
  8
1
100
AcDbEllipse
 10
350.868638
 20
374.402169
 30
0.0
 11
0.0
 21
3.5
 31
0.0
210
0.0
220
0.0
230
1.0
 40
0.9848079999999999
 41
0.0
 42
6.283185307179585
  0
ELLIPSE
  5
129
330
1F
100
AcDbEntity
  8
1
100
AcDbEllipse
 10
350.868106
 20
376.187196
 30
0.0
 11
0.0
 21
-0.1027459371154633
 31
0.0
210
0.0
220
0.0
230
1.0
 40
0.9848079999999999
 41
0.8715522683383735
 42
1.562711152843974
  0
ELLIPSE
  5
12A
330
1F
100
AcDbEntity
  8
1
100
AcDbEllipse
 10
351.070469
 20
376.185534
 30
0.0
 11
0.0
 21
-0.1027459371154634
 31
0.0
210
0.0
220
0.0
230
1.0
 40
0.9848079999999999
 41
3.489546146329853
 42
4.7043038064338
  0
ELLIPSE
  5
12B
330
1F
100
AcDbEntity
  8
1
100
AcDbEllipse
 10
351.280635
 20
375.597165
 30
0.0
 11
0.0
 21
-0.7286223111655376
 31
0.0
210
0.0
220
0.0
230
1.0
 40
0.9848079999999999
 41
2.253870037349659
 42
3.489546146329861
  0
ELLIPSE
  5
12C
330
1F
100
AcDbEntity
  8
1
100
AcDbEllipse
 10
351.758712
 20
375.992206
 30
0.0
 11
0.0
 21
-0.1027459371154613
 31
0.0
210
0.0
220
0.0
230
0.9999999999999998
 40
0.9848079999999999
 41
1.039112377245705
 42
2.253870037349639
  0
ELLIPSE
  5
12D
330
1F
100
AcDbEntity
  8
1
100
AcDbEllipse
 10
351.933146
 20
375.888024
 30
0.0
 11
0.0
 21
-0.1027459371154612
 31
0.0
210
0.0
220
0.0
230
1.0
 40
0.9848079999999999
 41
4.180705030835526
 42
4.871863915341196
  0
ELLIPSE
  5
12E
330
1F
100
AcDbEntity
  8
1
100
AcDbEllipse
 10
352.541693
 20
375.987414
 30
0.0
 11
0.0
 21
-0.7286223111655374
 31
0.0
210
0.0
220
0.0
230
0.9999999999999998
 40
0.9848079999999999
 41
4.871863915341156
 42
6.107540024321355
  0
ELLIPSE
  5
12F
330
1F
100
AcDbEntity
  8
1
100
AcDbEllipse
 10
352.433987
 20
375.371167
 30
0.0
 11
0.0
 21
-0.1027459371154633
 31
0.0
210
0.0
220
0.0
230
1.0
 40
0.9848079999999999
 41
6.107540024321316
 42
6.798698908826955
  0
ELLIPSE
  5
130
330
1F
100
AcDbEntity
  8
1
100
AcDbEllipse
 10
352.533751
 20
375.192381
 30
0.0
 11
0.0
 21
-0.1027459371154634
 31
0.0
210
0.0
220
0.0
230
1.0
 40
0.9848079999999999
 41
2.442348595133275
 42
3.657106255237231
  0
ELLIPSE
  5
131
330
1F
100
AcDbEntity
  8
1
100
AcDbEllipse
 10
352.137033
 20
374.71338
 30
0.0
 11
0.0
 21
-0.7286223111655376
 31
0.0
210
0.0
220
0.0
230
1.0
 40
0.9848079999999999
 41
1.206672486153059
 42
2.442348595133255
  0
ELLIPSE
  5
132
330
1F
100
AcDbEntity
  8
1
100
AcDbEllipse
 10
352.712989
 20
374.490486
 30
0.0
 11
0.0
 21
-0.1027459371154613
 31
0.0
210
0.0
220
0.0
230
0.9999999999999998
 40
0.9848079999999999
 41
6.275100133228713
 42
7.489857793332669
  0
ELLIPSE
  5
133
330
1F
100
AcDbEntity
  8
1
100
AcDbEllipse
 10
352.711353
 20
374.285001
 30
0.0
 11
0.0
 21
-0.1027459371154612
 31
0.0
210
0.0
220
0.0
230
1.0
 40
0.9848079999999999
 41
3.133507479638851
 42
3.82466636414454
  0
ELLIPSE
  5
134
330
1F
100
AcDbEntity
  8
1
100
AcDbEllipse
 10
353.100392
 20
373.799548
 30
0.0
 11
0.0
 21
-0.7286223111655374
 31
0.0
210
0.0
220
0.0
230
0.9999999999999998
 40
0.9848079999999999
 41
3.824666364144556
 42
5.06034247312475
  0
ELLIPSE
  5
135
330
1F
100
AcDbEntity
  8
1
100
AcDbEllipse
 10
352.520962
 20
373.58614
 30
0.0
 11
0.0
 21
-0.1027459371154633
 31
0.0
210
0.0
220
0.0
230
1.0
 40
0.9848079999999999
 41
5.060342473124737
 42
5.751501357630397
  0
ELLIPSE
  5
136
330
1F
100
AcDbEntity
  8
1
100
AcDbEllipse
 10
352.418363
 20
373.409015
 30
0.0
 11
0.0
 21
-0.1027459371154634
 31
0.0
210
0.0
220
0.0
230
1.0
 40
0.9848079999999999
 41
1.395151043936665
 42
2.609908704040621
  0
ELLIPSE
  5
137
330
1F
100
AcDbEntity
  8
1
100
AcDbEllipse
 10
351.811478
 20
373.518383
 30
0.0
 11
0.0
 21
-0.7286223111655376
 31
0.0
210
0.0
220
0.0
230
1.0
 40
0.9848079999999999
 41
0.1594749349564654
 42
1.395151043936654
  0
ELLIPSE
  5
138
330
1F
100
AcDbEntity
  8
1
100
AcDbEllipse
 10
351.909358
 20
372.900449
 30
0.0
 11
0.0
 21
-0.1027459371154613
 31
0.0
210
0.0
220
0.0
230
0.9999999999999998
 40
0.9848079999999999
 41
5.227902582032077
 42
6.442660242136085
  0
ELLIPSE
  5
139
330
1F
100
AcDbEntity
  8
1
100
AcDbEllipse
 10
351.733288
 20
372.799145
 30
0.0
 11
0.0
 21
-0.1027459371154612
 31
0.0
210
0.0
220
0.0
230
1.0
 40
0.9848079999999999
 41
2.086309928442305
 42
2.777468812947961
  0
ELLIPSE
  5
13A
330
1F
100
AcDbEntity
  8
1
100
AcDbEllipse
 10
351.51378
 20
372.214304
 30
0.0
 11
0.0
 21
-0.7286223111655374
 31
0.0
210
0.0
220
0.0
230
0.9999999999999998
 40
0.9848079999999999
 41
2.777468812947947
 42
4.013144921928148
  0
ELLIPSE
  5
13B
330
1F
100
AcDbEntity
  8
1
100
AcDbEllipse
 10
351.042056
 20
372.617142
 30
0.0
 11
0.0
 21
-0.1027459371154633
 31
0.0
210
0.0
220
0.0
230
1.0
 40
0.9848079999999999
 41
4.013144921928115
 42
4.704303806433808
  0
ELLIPSE
  5
13C
330
1F
100
AcDbEntity
  8
1
100
AcDbEllipse
 10
350.839692
 20
372.618804
 30
0.0
 11
0.0
 21
-0.1027459371154634
 31
0.0
210
0.0
220
0.0
230
1.0
 40
0.9848079999999999
 41
0.347953492740088
 42
1.562711152844016
  0
ELLIPSE
  5
13D
330
1F
100
AcDbEntity
  8
1
100
AcDbEllipse
 10
350.629527
 20
373.207173
 30
0.0
 11
0.0
 21
-0.7286223111655376
 31
0.0
210
0.0
220
0.0
230
1.0
 40
0.9848079999999999
 41
5.395462690939452
 42
6.631138799919646
  0
ELLIPSE
  5
13E
330
1F
100
AcDbEntity
  8
1
100
AcDbEllipse
 10
350.151449
 20
372.812132
 30
0.0
 11
0.0
 21
-0.1027459371154613
 31
0.0
210
0.0
220
0.0
230
0.9999999999999998
 40
0.9848079999999999
 41
4.180705030835516
 42
5.395462690939461
  0
ELLIPSE
  5
13F
330
1F
100
AcDbEntity
  8
1
100
AcDbEllipse
 10
349.977016
 20
372.916314
 30
0.0
 11
0.0
 21
-0.1027459371154612
 31
0.0
210
0.0
220
0.0
230
1.0
 40
0.9848079999999999
 41
1.039112377245736
 42
1.730271261751385
  0
ELLIPSE
  5
140
330
1F
100
AcDbEntity
  8
1
100
AcDbEllipse
 10
349.368469
 20
372.816924
 30
0.0
 11
0.0
 21
-0.7286223111655374
 31
0.0
210
0.0
220
0.0
230
0.9999999999999998
 40
0.9848079999999999
 41
1.73027126175136
 42
2.965947370731548
  0
ELLIPSE
  5
141
330
1F
100
AcDbEntity
  8
1
100
AcDbEllipse
 10
349.476175
 20
373.433171
 30
0.0
 11
0.0
 21
-0.1027459371154633
 31
0.0
210
0.0
220
0.0
230
1.0
 40
0.9848079999999999
 41
2.965947370731558
 42
3.657106255237219
  0
ELLIPSE
  5
142
330
1F
100
AcDbEntity
  8
1
100
AcDbEllipse
 10
349.37641
 20
373.611957
 30
0.0
 11
0.0
 21
-0.1027459371154634
 31
0.0
210
0.0
220
0.0
230
1.0
 40
0.9848079999999999
 41
5.583941248723085
 42
6.798698908827008
  0
ELLIPSE
  5
143
330
1F
100
AcDbEntity
  8
1
100
AcDbEllipse
 10
349.773129
 20
374.090958
 30
0.0
 11
0.0
 21
-0.7286223111655376
 31
0.0
210
0.0
220
0.0
230
1.0
 40
0.9848079999999999
 41
4.348265139742855
 42
5.583941248723047
  0
ELLIPSE
  5
144
330
1F
100
AcDbEntity
  8
1
100
AcDbEllipse
 10
349.197173
 20
374.313852
 30
0.0
 11
0.0
 21
-0.1027459371154613
 31
0.0
210
0.0
220
0.0
230
0.9999999999999998
 40
0.9848079999999999
 41
3.133507479638921
 42
4.348265139742843
  0
ELLIPSE
  5
145
330
1F
100
AcDbEntity
  8
1
100
AcDbEllipse
 10
350.816162
 20
374.402169
 30
0.0
 11
-0.0000000000000002
 21
-3.5
 31
0.0
210
0.0
220
0.0
230
1.0
 40
0.9848079999999999
 41
3.141688793082168
 42
6.283185307179585
  0
ELLIPSE
  5
14D
330
1F
100
AcDbEntity
  8
1
100
AcDbEllipse
 10
356.372217
 20
370.300751
 30
0.0
 11
0.0
 21
4.0
 31
0.0
210
0.0
220
0.0
230
1.0
 40
0.9848079999999999
 41
3.266140370665993
 42
3.317237499833693
  0
ELLIPSE
  5
14E
330
1F
100
AcDbEntity
  8
1
100
AcDbEllipse
 10
350.857145
 20
364.646125
 30
0.0
 11
-14.216815364104
 21
2.481294082964208
 31
0.0
210
0.0
220
0.0
230
1.0
 40
0.1799109999999999
 41
2.984675863244811
 42
3.098702383119063
  0
ELLIPSE
  5
14F
330
1F
100
AcDbEntity
  8
1
100
AcDbEllipse
 10
351.454548
 20
366.008072
 30
0.0
 11
0.0
 21
14.35127864753449
 31
0.0
210
0.0
220
0.0
230
0.9999999999999998
 40
0.9848079999999999
 41
4.433507398675762
 42
4.475613042892363
  0
ELLIPSE
  5
150
330
1F
100
AcDbEntity
  8
1
100
AcDbEllipse
 10
349.973055
 20
358.059125
 30
0.0
 11
-0.0000000000000002
 21
-2.6
 31
0.0
210
0.0
220
0.0
230
1.0
 40
0.9848079999999999
 41
3.77285642734472
 42
3.831074127602001
  0
ELLIPSE
  5
151
330
1F
100
AcDbEntity
  8
1
100
AcDbEllipse
 10
356.370083
 20
370.413857
 30
0.0
 11
-0.0000000000000002
 21
-4.0
 31
0.0
210
0.0
220
0.0
230
1.0
 40
0.9848079999999999
 41
6.007253360567361
 42
6.170380378109034
  0
ELLIPSE
  5
152
330
1F
100
AcDbEntity
  8
1
100
AcDbEllipse
 10
351.687048
 20
382.784459
 30
0.0
 11
-0.000000000000001
 21
-15.60666262984765
 31
0.0
210
0.0
220
0.0
230
1.0
 40
0.9848079999999999
 41
5.587115850542542
 42
5.872806075930673
  0
ELLIPSE
  5
153
330
1F
100
AcDbEntity
  8
1
100
AcDbEllipse
 10
342.779699
 20
374.690913
 30
0.0
 11
0.0
 21
4.0
 31
0.0
210
0.0
220
0.0
230
1.0
 40
0.9848079999999999
 41
1.998953356117178
 42
2.898625927743979
  0
ELLIPSE
  5
154
330
1F
100
AcDbEntity
  8
1
100
AcDbEllipse
 10
340.539615
 20
375.865646
 30
0.0
 11
-0.0000000000000002
 21
-3.146651362267734
 31
0.0
210
0.0
220
0.0
230
1.0
 40
0.9848079999999999
 41
4.861383439113287
 42
5.834736059147406
  0
ELLIPSE
  5
155
330
1F
100
AcDbEntity
  8
1
100
AcDbEllipse
 10
357.353329
 20
370.300751
 30
0.0
 11
-0.0000000000000002
 21
-4.0
 31
0.0
210
0.0
220
0.0
230
1.0
 40
0.9848079999999999
 41
6.170380378109034
 42
6.333507438546982
  0
ELLIPSE
  5
156
330
1F
100
AcDbEntity
  8
1
100
AcDbEllipse
 10
351.576081
 20
366.008122
 30
0.0
 11
0.0
 21
15.71753173807485
 31
0.0
210
0.0
220
0.0
230
1.0
 40
0.9848079999999999
 41
4.948647410035441
 42
6.327460010788527
  0
ELLIPSE
  5
157
330
1F
100
AcDbEntity
  8
1
100
AcDbEllipse
 10
338.465927
 20
379.549714
 30
0.0
 11
0.0
 21
1.60000000000001
 31
0.0
210
0.0
220
0.0
230
1.0
 40
0.9848079999999999
 41
0.0442747036089437
 42
1.800345436636396
  0
ELLIPSE
  5
158
330
1F
100
AcDbEntity
  8
1
100
AcDbEllipse
 10
352.004292
 20
382.761995
 30
0.0
 11
0.0
 21
15.71753173807484
 31
0.0
210
0.0
220
0.0
230
1.0
 40
0.9848079999999999
 41
1.800345436636396
 42
3.028787724519246
  0
ELLIPSE
  5
159
330
1F
100
AcDbEntity
  8
1
100
AcDbEllipse
 10
349.799407
 20
358.059125
 30
0.0
 11
-0.0000000000000002
 21
-2.5
 31
0.0
210
0.0
220
0.0
230
1.0
 40
0.9848079999999999
 41
3.336766124748147
 42
3.783559371982191
  0
ELLIPSE
  5
15A
330
1F
100
AcDbEntity
  8
1
100
AcDbEllipse
 10
362.176351
 20
362.195652
 30
0.0
 11
-1.750603357653895
 21
-5.088451386620201
 31
0.0
210
0.0
220
0.0
230
1.0
 40
0.4924160000000001
 41
1.661019332579838
 42
2.307429644972669
  0
ELLIPSE
  5
15B
330
1F
100
AcDbEntity
  8
1
100
AcDbEllipse
 10
348.844342
 20
358.059125
 30
0.0
 11
-0.0000000000000002
 21
-3.0
 31
0.0
210
0.0
220
0.0
230
1.0
 40
0.9848079999999999
 41
3.239510662638446
 42
5.763945758829696
  0
ELLIPSE
  5
15C
330
1F
100
AcDbEntity
  8
1
100
AcDbEllipse
 10
362.284217
 20
360.903649
 30
0.0
 11
-0.304171653033446
 21
-0.1842032208421181
 31
0.0
210
0.0
220
0.0
230
1.0
 40
0.5601729999999999
 41
2.577386316441769
 42
3.683951440317879
  0
ELLIPSE
  5
15D
330
1F
100
AcDbEntity
  8
1
100
AcDbEllipse
 10
351.576089
 20
366.008075
 30
0.0
 11
0.0
 21
15.71753173807484
 31
0.0
210
0.0
220
0.0
230
1.0
 40
0.9848079999999999
 41
3.097317949980845
 42
4.325760237863696
  0
ELLIPSE
  5
15E
330
1F
100
AcDbEntity
  8
1
100
AcDbEllipse
 10
351.666708
 20
365.975659
 30
0.0
 11
-0.2287447896518548
 21
16.6334856223755
 31
0.0
210
0.0
220
0.0
230
1.0
 40
0.9231469999999999
 41
4.770555483444786
 42
4.902430916934005
  0
ELLIPSE
  5
15F
330
1F
100
AcDbEntity
  8
1
100
AcDbEllipse
 10
362.775561
 20
361.226248
 30
0.0
 11
-0.2503240093496154
 21
-0.0060763970467126
 31
0.0
210
0.0
220
0.0
230
0.9999999999999998
 40
0.795862
 41
2.878788681585459
 42
3.366642457953073
  0
ELLIPSE
  5
160
330
1F
100
AcDbEntity
  8
1
100
AcDbEllipse
 10
362.784605
 20
361.227488
 30
0.0
 11
-0.1984057718780178
 21
-0.1268823943367208
 31
0.0
210
0.0
220
0.0
230
0.9999999999999998
 40
0.813437
 41
3.123487885185205
 42
3.836307411053968
  0
ELLIPSE
  5
161
330
1F
100
AcDbEntity
  8
1
100
AcDbEllipse
 10
350.038265
 20
357.614028
 30
0.0
 11
0.0
 21
2.949999999999998
 31
0.0
210
0.0
220
0.0
230
1.0
 40
0.9848080000000001
 41
0.2195208556941311
 42
0.5782515728810378
  0
ELLIPSE
  5
162
330
1F
100
AcDbEntity
  8
1
100
AcDbEllipse
 10
350.477959
 20
365.908583
 30
0.0
 11
-0.0000000000000009
 21
-14.29910078293372
 31
0.0
210
0.0
220
0.0
230
1.0
 40
0.9848079999999999
 41
6.238912274160168
 42
7.14839517625052
  0
ELLIPSE
  5
163
330
1F
100
AcDbEntity
  8
1
100
AcDbEllipse
 10
350.972163
 20
374.402169
 30
0.0
 11
-0.0000000000000003
 21
-4.219085678285776
 31
0.0
210
0.0
220
0.0
230
1.0
 40
0.9848080000000001
 41
5.779742847861547
 42
6.015067806242556
  0
ELLIPSE
  5
164
330
1F
100
AcDbEntity
  8
1
100
AcDbEllipse
 10
350.972163
 20
374.402169
 30
0.0
 11
-0.0000000000000003
 21
-4.219085678285776
 31
0.0
210
0.0
220
0.0
230
1.0
 40
0.9848080000000001
 41
3.42629733040641
 42
3.645030626209263
  0
ELLIPSE
  5
165
330
1F
100
AcDbEntity
  8
1
100
AcDbEllipse
 10
351.123558
 20
374.402169
 30
0.0
 11
-0.0000000000000003
 21
-4.295362643243258
 31
0.0
210
0.0
220
0.0
230
1.0
 40
0.9848079999999999
 41
0.0
 42
6.283185307179585
  0
ELLIPSE
  5
166
330
1F
100
AcDbEntity
  8
1
100
AcDbEllipse
 10
351.123558
 20
374.402169
 30
0.0
 11
-0.0000000000000003
 21
-4.699999999999998
 31
0.0
210
0.0
220
0.0
230
1.0
 40
0.9848079999999999
 41
0.0
 42
6.283185307179585
  0
SPLINE
  5
167
330
1F
100
AcDbEntity
  8
1
100
AcDbSpline
210
0.0
220
0.0
230
1.0
 70
     8
 71
     3
 72
    32
 73
    28
 74
     0
 42
0.000000001
 43
0.0000000001
 40
0.0
 40
0.0
 40
0.0
 40
0.0
 40
0.1250000000000022
 40
0.1250000000000022
 40
0.2500000000000044
 40
0.2500000000000044
 40
0.3750000000000066
 40
0.3750000000000066
 40
0.4375000000000074
 40
0.4375000000000074
 40
0.5000000000000082
 40
0.5000000000000082
 40
0.5625000000000091
 40
0.5625000000000091
 40
0.62500000000001
 40
0.62500000000001
 40
0.7500000000000103
 40
0.7500000000000103
 40
0.8125000000000117
 40
0.8125000000000117
 40
0.8750000000000131
 40
0.8750000000000131
 40
0.9062500000000108
 40
0.9062500000000108
 40
0.9375000000000087
 40
0.9375000000000087
 40
1.0
 40
1.0
 40
1.0
 40
1.0
 10
334.1748486011854
 20
370.0585989527147
 30
0.0
 10
334.1748486011854
 20
370.0954110310525
 30
0.0
 10
334.1733757698973
 20
370.1319635298097
 30
0.0
 10
334.167377038605
 20
370.2045368792939
 30
0.0
 10
334.1628531693158
 20
370.2405580132987
 30
0.0
 10
334.1504285273076
 20
370.3120248306963
 30
0.0
 10
334.142533985264
 20
370.3474714009909
 30
0.0
 10
334.1276696740829
 20
370.4001413700877
 30
0.0
 10
334.1222081311485
 20
370.4176142788002
 30
0.0
 10
334.1101334010435
 20
370.4523731341652
 30
0.0
 10
334.1035455763768
 20
370.4695795578534
 30
0.0
 10
334.0892078428924
 20
370.5034210477052
 30
0.0
 10
334.0814493997349
 20
370.5200838302558
 30
0.0
 10
334.0645757930968
 20
370.5528207754755
 30
0.0
 10
334.0554279856086
 20
370.5689477786493
 30
0.0
 10
334.0258148264594
 20
370.6158749653192
 30
0.0
 10
334.0033628772954
 20
370.6451520113909
 30
0.0
 10
333.9637174786512
 20
370.68469645264
 30
0.0
 10
333.9494186632911
 20
370.6971657277975
 30
0.0
 10
333.9191577650452
 20
370.7194646857988
 30
0.0
 10
333.9031190675821
 20
370.729395183903
 30
0.0
 10
333.8773360949861
 20
370.7419824784297
 30
0.0
 10
333.8685107010942
 20
370.7457559971032
 30
0.0
 10
333.8506122963944
 20
370.7522964475609
 30
0.0
 10
333.8415046764448
 20
370.7550809380552
 30
0.0
 10
333.8136732553987
 20
370.7618761209275
 30
0.0
 10
333.7942779416776
 20
370.7643110412162
 30
0.0
 10
333.7748486011854
 20
370.7643110412162
 30
0.0
  0
SPLINE
  5
168
330
1F
100
AcDbEntity
  8
1
100
AcDbSpline
210
0.0
220
0.0
230
1.0
 70
     8
 71
     3
 72
    34
 73
    30
 74
     0
 42
0.000000001
 43
0.0000000001
 40
0.0
 40
0.0
 40
0.0
 40
0.0
 40
0.0624999999999868
 40
0.0624999999999868
 40
0.0937499999999835
 40
0.0937499999999835
 40
0.1249999999999802
 40
0.1249999999999802
 40
0.1874999999999786
 40
0.1874999999999786
 40
0.218749999999979
 40
0.218749999999979
 40
0.2499999999999793
 40
0.2499999999999793
 40
0.3124999999999789
 40
0.3124999999999789
 40
0.3749999999999783
 40
0.3749999999999783
 40
0.4999999999999809
 40
0.4999999999999809
 40
0.6249999999999836
 40
0.6249999999999836
 40
0.6874999999999867
 40
0.6874999999999867
 40
0.7499999999999898
 40
0.7499999999999898
 40
0.8749999999999948
 40
0.8749999999999948
 40
1.0
 40
1.0
 40
1.0
 40
1.0
 10
333.7748486011854
 20
355.0401763466422
 30
0.0
 10
333.7943156890003
 20
355.0401763466422
 30
0.0
 10
333.813261092891
 20
355.0418195596501
 30
0.0
 10
333.8409870583701
 20
355.0464683713681
 30
0.0
 10
333.8501129777796
 20
355.0483842947124
 30
0.0
 10
333.8681406507121
 20
355.052925145187
 30
0.0
 10
333.877018044645
 20
355.0555494458732
 30
0.0
 10
333.9026837034589
 20
355.0642084061419
 30
0.0
 10
333.9187521796067
 20
355.0710783331161
 30
0.0
 10
333.9415812543382
 20
355.0827367876893
 30
0.0
 10
333.9489983721182
 20
355.0868652708197
 30
0.0
 10
333.9632272723189
 20
355.0954136249979
 30
0.0
 10
333.9700641375999
 20
355.09984430192
 30
0.0
 10
333.9898420379262
 20
355.1135526136551
 30
0.0
 10
334.00205537479
 20
355.1232438099664
 30
0.0
 10
334.024895399332
 20
355.1435431154477
 30
0.0
 10
334.0355540030488
 20
355.1541919705296
 30
0.0
 10
334.065232513
 20
355.1870742321534
 30
0.0
 10
334.0817932274503
 20
355.2099544740003
 30
0.0
 10
334.1103058121898
 20
355.2571668572061
 30
0.0
 10
334.1222272556789
 20
355.2815070026909
 30
0.0
 10
334.1372463163807
 20
355.318964434554
 30
0.0
 10
334.141762576627
 20
355.3315960991035
 30
0.0
 10
334.1498323176456
 20
355.3569295664606
 30
0.0
 10
334.1533976978068
 20
355.3696605422064
 30
0.0
 10
334.1627994952962
 20
355.4080383333543
 30
0.0
 10
334.167349377354
 20
355.4338694010028
 30
0.0
 10
334.1733751276699
 20
355.4860004807595
 30
0.0
 10
334.1748486011854
 20
355.5123006626414
 30
0.0
 10
334.1748486011854
 20
355.5388331990617
 30
0.0
  0
SPLINE
  5
169
330
1F
100
AcDbEntity
  8
1
100
AcDbSpline
210
0.0
220
0.0
230
1.0
 70
    24
 71
     3
 72
     8
 73
     4
 74
     0
 42
0.000000001
 43
0.0000000001
 40
0.0
 40
0.0
 40
0.0
 40
0.0
 40
1.0
 40
1.0
 40
1.0
 40
1.0
 10
334.2262882508776
 20
351.5329993591758
 30
0.0
 10
334.5416212218937
 20
351.53299945476
 30
0.0
 10
334.8569541929098
 20
351.5329995503444
 30
0.0
 10
335.1722871639258
 20
351.532999645929
 30
0.0
  0
SPLINE
  5
16A
330
1F
100
AcDbEntity
  8
1
100
AcDbSpline
210
0.0
220
0.0
230
1.0
 70
     8
 71
     3
 72
     8
 73
     4
 74
     0
 42
0.000000001
 43
0.0000000001
 40
0.0
 40
0.0
 40
0.0
 40
0.0
 40
1.0
 40
1.0
 40
1.0
 40
1.0
 10
335.2757812521816
 20
351.5326826143048
 30
0.0
 10
335.2413946205552
 20
351.5328931842615
 30
0.0
 10
335.2068967172623
 20
351.53299965642
 30
0.0
 10
335.1722871639258
 20
351.532999645929
 30
0.0
  0
SPLINE
  5
16B
330
1F
100
AcDbEntity
  8
1
100
AcDbSpline
210
0.0
220
0.0
230
1.0
 70
     8
 71
     3
 72
    24
 73
    20
 74
     0
 42
0.000000001
 43
0.0000000001
 40
0.0
 40
0.0
 40
0.0
 40
0.0
 40
0.0220684356795386
 40
0.0220684356795386
 40
0.1382192094539283
 40
0.1382192094539283
 40
0.3705207570027106
 40
0.3705207570027106
 40
0.486671530777104
 40
0.486671530777104
 40
0.5447469176642984
 40
0.5447469176642984
 40
0.602822304551493
 40
0.602822304551493
 40
0.8351238521002693
 40
0.8351238521002693
 40
0.9512746258746577
 40
0.9512746258746577
 40
1.0
 40
1.0
 40
1.0
 40
1.0
 10
336.6902379638827
 20
380.508072028383
 30
0.0
 10
336.6923962615261
 20
380.5080715243219
 30
0.0
 10
336.6945965024811
 20
380.5080684154645
 30
0.0
 10
336.7086417677284
 20
380.5080328709093
 30
0.0
 10
336.7216815666125
 20
380.5079307530373
 30
0.0
 10
336.7636876118833
 20
380.5074409540982
 30
0.0
 10
336.7956509458809
 20
380.5068720345265
 30
0.0
 10
336.8496415194146
 20
380.5057888593382
 30
0.0
 10
336.8686517161033
 20
380.5053893876736
 30
0.0
 10
336.8987587135712
 20
380.5047491371794
 30
0.0
 10
336.9090601057797
 20
380.5045288835026
 30
0.0
 10
336.93021228423
 20
380.5040775510478
 30
0.0
 10
336.9410562461799
 20
380.5038466330227
 30
0.0
 10
336.9960345567858
 20
380.5026863381997
 30
0.0
 10
337.0429034014758
 20
380.5017305158714
 30
0.0
 10
337.1176031424828
 20
380.5004012947431
 30
0.0
 10
337.1432403190689
 20
380.4999754388653
 30
0.0
 10
337.1807300807831
 20
380.4994118322085
 30
0.0
 10
337.1919652599175
 20
380.4992501985278
 30
0.0
 10
337.2033018411887
 20
380.4990949366832
 30
0.0
  0
SPLINE
  5
16C
330
1F
100
AcDbEntity
  8
1
100
AcDbSpline
210
0.0
220
0.0
230
1.0
 70
     9
 71
     3
 72
   123
 73
   119
 74
     0
 42
0.000000001
 43
0.0000000001
 40
0.0
 40
0.0
 40
0.0
 40
0.0
 40
0.0312499999999997
 40
0.0312499999999997
 40
0.0390624999999996
 40
0.0390624999999996
 40
0.0468749999999995
 40
0.0468749999999995
 40
0.0624999999999993
 40
0.0624999999999993
 40
0.0937499999999986
 40
0.0937499999999986
 40
0.1015624999999985
 40
0.1015624999999985
 40
0.1093749999999984
 40
0.1249999999999983
 40
0.1406249999999981
 40
0.1406249999999981
 40
0.1484374999999981
 40
0.1484374999999981
 40
0.1562499999999981
 40
0.1562499999999981
 40
0.1874999999999982
 40
0.1874999999999982
 40
0.2031249999999983
 40
0.2031249999999983
 40
0.2187499999999982
 40
0.2343749999999982
 40
0.2343749999999982
 40
0.2421874999999981
 40
0.2421874999999981
 40
0.2499999999999979
 40
0.2499999999999979
 40
0.2812499999999966
 40
0.2812499999999966
 40
0.2968749999999957
 40
0.2968749999999957
 40
0.304687499999995
 40
0.304687499999995
 40
0.3124999999999943
 40
0.3124999999999943
 40
0.3437499999999916
 40
0.3437499999999916
 40
0.3515624999999907
 40
0.3515624999999907
 40
0.3593749999999898
 40
0.3593749999999898
 40
0.3749999999999888
 40
0.3749999999999888
 40
0.4062499999999871
 40
0.4062499999999871
 40
0.4218749999999862
 40
0.4218749999999862
 40
0.4374999999999855
 40
0.4374999999999855
 40
0.468749999999984
 40
0.468749999999984
 40
0.4765624999999837
 40
0.4765624999999837
 40
0.4843749999999833
 40
0.4999999999999833
 40
0.5156249999999835
 40
0.5156249999999835
 40
0.5234374999999836
 40
0.5234374999999836
 40
0.5312499999999837
 40
0.5312499999999837
 40
0.5624999999999841
 40
0.5624999999999841
 40
0.5781249999999844
 40
0.5781249999999844
 40
0.5859374999999848
 40
0.5859374999999848
 40
0.5937499999999849
 40
0.5937499999999849
 40
0.6249999999999855
 40
0.6249999999999855
 40
0.6328124999999857
 40
0.6328124999999857
 40
0.6406249999999857
 40
0.6562499999999858
 40
0.6718749999999859
 40
0.6718749999999859
 40
0.6874999999999862
 40
0.6874999999999862
 40
0.7187499999999864
 40
0.7187499999999864
 40
0.7265624999999867
 40
0.7265624999999867
 40
0.7343749999999869
 40
0.7343749999999869
 40
0.7499999999999876
 40
0.7499999999999876
 40
0.7812499999999887
 40
0.7812499999999887
 40
0.7890624999999889
 40
0.7890624999999889
 40
0.7968749999999892
 40
0.8124999999999896
 40
0.8281249999999904
 40
0.8281249999999904
 40
0.8359374999999909
 40
0.8359374999999909
 40
0.8437499999999914
 40
0.8437499999999914
 40
0.8749999999999939
 40
0.8749999999999939
 40
0.8906249999999948
 40
0.8906249999999948
 40
0.9062499999999955
 40
0.9062499999999955
 40
0.9374999999999975
 40
0.9374999999999975
 40
0.953124999999998
 40
0.953124999999998
 40
0.9687499999999987
 40
0.9687499999999987
 40
1.0
 40
1.0
 40
1.0
 40
1.0
 10
329.665129487453
 20
351.5498228049152
 30
0.0
 10
329.6941207375274
 20
351.5527747966812
 30
0.0
 10
329.7188141482215
 20
351.5560602986943
 30
0.0
 10
329.7443133122407
 20
351.5606586535723
 30
0.0
 10
329.7491422676403
 20
351.5616030442073
 30
0.0
 10
329.7582482526354
 20
351.5635437798816
 30
0.0
 10
329.7625340221594
 20
351.5645426875257
 30
0.0
 10
329.774429680026
 20
351.5675910500631
 30
0.0
 10
329.781114802025
 20
351.5696977395695
 30
0.0
 10
329.7975194501677
 20
351.5762495264318
 30
0.0
 10
329.8036255384866
 20
351.5809254538684
 30
0.0
 10
329.8049490347586
 20
351.5871943478368
 30
0.0
 10
329.8048925964762
 20
351.5884658700067
 30
0.0
 10
329.8041475847352
 20
351.5910216912915
 30
0.0
 10
329.802081181692
 20
351.5948842358062
 30
0.0
 10
329.7939926328964
 20
351.6014619929334
 30
0.0
 10
329.7826212854524
 20
351.6068632252581
 30
0.0
 10
329.7722197577789
 20
351.61096138964
 30
0.0
 10
329.7684273022634
 20
351.6123393424295
 30
0.0
 10
329.7602768010238
 20
351.6150860869367
 30
0.0
 10
329.7559214817757
 20
351.616454727011
 30
0.0
 10
329.7327773278335
 20
351.6232712688339
 30
0.0
 10
329.7099259730782
 20
351.6286412374193
 30
0.0
 10
329.6692677486609
 20
351.6364902853938
 30
0.0
 10
329.6545598648007
 20
351.6390840634623
 30
0.0
 10
329.6235558707102
 20
351.6440865346975
 30
0.0
 10
329.5909029762376
 20
351.6489206741986
 30
0.0
 10
329.5550588823946
 20
351.6533964753862
 30
0.0
 10
329.5269835883454
 20
351.6566071923283
 30
0.0
 10
329.5174260966267
 20
351.6576530372262
 30
0.0
 10
329.4979094163514
 20
351.6596934781537
 30
0.0
 10
329.4879249460924
 20
351.6606904367862
 30
0.0
 10
329.4373110137791
 20
351.6655091391369
 30
0.0
 10
329.3948736656777
 20
351.6688169418775
 30
0.0
 10
329.328442065522
 20
351.6729187692117
 30
0.0
 10
329.3058321569313
 20
351.6741420199584
 30
0.0
 10
329.2712061331493
 20
351.6757492133063
 30
0.0
 10
329.2595150302378
 20
351.6762480418445
 30
0.0
 10
329.2360830364685
 20
351.6771599870852
 30
0.0
 10
329.2243379739624
 20
351.6775735759968
 30
0.0
 10
329.165470203056
 20
351.6794315364351
 30
0.0
 10
329.1179239900595
 20
351.6802498809542
 30
0.0
 10
329.0579318485927
 20
351.6804282225671
 30
0.0
 10
329.0459052112806
 20
351.6804214163963
 30
0.0
 10
329.0217946806733
 20
351.680321609059
 30
0.0
 10
329.0096832223611
 20
351.6802282667667
 30
0.0
 10
328.9734652208944
 20
351.6798188997792
 30
0.0
 10
328.9495825395097
 20
351.6793758911721
 30
0.0
 10
328.8786998682223
 20
351.6775569745344
 30
0.0
 10
328.8324582658056
 20
351.6756941520468
 30
0.0
 10
328.7646546878847
 20
351.6719487153076
 30
0.0
 10
328.7422156764951
 20
351.6705326417778
 30
0.0
 10
328.6987492730705
 20
351.6674422709384
 30
0.0
 10
328.6776399629566
 20
351.6657650721497
 30
0.0
 10
328.616157848029
 20
351.660363320902
 30
0.0
 10
328.5776121116787
 20
351.6562712242756
 30
0.0
 10
328.5326653596655
 20
351.6505869015393
 30
0.0
 10
328.5238400565527
 20
351.6494210801722
 30
0.0
 10
328.506721076691
 20
351.6470607303817
 30
0.0
 10
328.481762998046
 20
351.6434671674842
 30
0.0
 10
328.4437119974608
 20
351.6372325499325
 30
0.0
 10
328.4170505314158
 20
351.6320156792746
 30
0.0
 10
328.39851300546
 20
351.6280262477961
 30
0.0
 10
328.392577374314
 20
351.6266836108851
 30
0.0
 10
328.3812059659632
 20
351.6239738538712
 30
0.0
 10
328.3757659789025
 20
351.622605098481
 30
0.0
 10
328.3501523855323
 20
351.6157858038464
 30
0.0
 10
328.3344144980285
 20
351.6103471309993
 30
0.0
 10
328.3178780149148
 20
351.6022763514669
 30
0.0
 10
328.3135527366176
 20
351.5996003388683
 30
0.0
 10
328.3089197959631
 20
351.5956131817424
 30
0.0
 10
328.3076926035827
 20
351.5942935016841
 30
0.0
 10
328.3058833739387
 20
351.5916938590696
 30
0.0
 10
328.3052974884616
 20
351.5904107191005
 30
0.0
 10
328.3039375682875
 20
351.5840776779782
 30
0.0
 10
328.3078253624374
 20
351.579275499658
 30
0.0
 10
328.3189932182684
 20
351.573593957651
 30
0.0
 10
328.3215541739639
 20
351.5724704947946
 30
0.0
 10
328.3272760520657
 20
351.5702740464561
 30
0.0
 10
328.3367511023193
 20
351.5670563128497
 30
0.0
 10
328.3568815101907
 20
351.5620600323563
 30
0.0
 10
328.3775090469435
 20
351.5584243041705
 30
0.0
 10
328.4004135015822
 20
351.5549573185015
 30
0.0
 10
328.4130800923979
 20
351.5533008835
 30
0.0
 10
328.4537716153147
 20
351.548659648264
 30
0.0
 10
328.4845554346639
 20
351.5459752352452
 30
0.0
 10
328.5274410632577
 20
351.5430324698546
 30
0.0
 10
328.5362405484105
 20
351.5424647577624
 30
0.0
 10
328.5542883351678
 20
351.5413692843532
 30
0.0
 10
328.5635620963617
 20
351.5408402080006
 30
0.0
 10
328.5918453768837
 20
351.539322337234
 30
0.0
 10
328.6113025715115
 20
351.5384024666773
 30
0.0
 10
328.6714086178856
 20
351.5358846568684
 30
0.0
 10
328.7137762100111
 20
351.5345258286043
 30
0.0
 10
328.7696259208185
 20
351.5331607547977
 30
0.0
 10
328.7809626892888
 20
351.5329042752389
 30
0.0
 10
328.8037068026618
 20
351.5324286858966
 30
0.0
 10
328.837998176835
 20
351.5317697608612
 30
0.0
 10
328.8960057638745
 20
351.5309273342193
 30
0.0
 10
328.9433077625604
 20
351.5305056650321
 30
0.0
 10
328.9791234186815
 20
351.530281052934
 30
0.0
 10
328.9911185926426
 20
351.5302215035252
 30
0.0
 10
329.0152239118746
 20
351.5301331410311
 30
0.0
 10
329.0273623199164
 20
351.5301043439295
 30
0.0
 10
329.0877877137229
 20
351.5300386012957
 30
0.0
 10
329.1355550258993
 20
351.5302301688037
 30
0.0
 10
329.2063699328911
 20
351.5308878461326
 30
0.0
 10
329.2298345994208
 20
351.5311695628949
 30
0.0
 10
329.2764754681816
 20
351.5318683459188
 30
0.0
 10
329.2996979944255
 20
351.532287237836
 30
0.0
 10
329.3674681905927
 20
351.533737639711
 30
0.0
 10
329.4106194491184
 20
351.5349656990592
 30
0.0
 10
329.4722891352654
 20
351.5372782384594
 30
0.0
 10
329.4923327511033
 20
351.5381281890845
 30
0.0
 10
329.5313464370529
 20
351.5400095299398
 30
0.0
 10
329.5500730643918
 20
351.5410296657195
 30
0.0
 10
329.6036815133471
 20
351.5443359706132
 30
0.0
 10
329.6361382373784
 20
351.5468708131489
 30
0.0
 10
329.6651294874529
 20
351.549822804915
 30
0.0
  0
SPLINE
  5
16D
330
1F
100
AcDbEntity
  8
1
100
AcDbSpline
210
0.0
220
0.0
230
1.0
 70
     8
 71
     3
 72
    63
 73
    59
 74
     0
 42
0.000000001
 43
0.0000000001
 40
0.0
 40
0.0
 40
0.0
 40
0.0
 40
0.0506630428804529
 40
0.0506630428804529
 40
0.081908463410195
 40
0.081908463410195
 40
0.1131538839399369
 40
0.1443993044696788
 40
0.1443993044696788
 40
0.1600220147345498
 40
0.1600220147345498
 40
0.1756447249994208
 40
0.1756447249994208
 40
0.238135566058907
 40
0.238135566058907
 40
0.2693809865886492
 40
0.2693809865886492
 40
0.3006264071183915
 40
0.3006264071183915
 40
0.3631172481778742
 40
0.3631172481778742
 40
0.3943626687076147
 40
0.3943626687076147
 40
0.425608089237355
 40
0.425608089237355
 40
0.4880989302968335
 40
0.4880989302968335
 40
0.5505897713563122
 40
0.5505897713563122
 40
0.5818351918860526
 40
0.5818351918860526
 40
0.5974579021509216
 40
0.5974579021509216
 40
0.6130806124157906
 40
0.6130806124157906
 40
0.6755714534752714
 40
0.6755714534752714
 40
0.7068168740050118
 40
0.7068168740050118
 40
0.7224395842698829
 40
0.7224395842698829
 40
0.738062294534754
 40
0.738062294534754
 40
0.8005531355942368
 40
0.8005531355942368
 40
0.8161758458591078
 40
0.8161758458591078
 40
0.8317985561239787
 40
0.8317985561239787
 40
0.8630439766537215
 40
0.8630439766537215
 40
0.9255348177132077
 40
0.9255348177132077
 40
0.9411575279780791
 40
0.9411575279780791
 40
0.9567802382429507
 40
0.9880256587726938
 40
1.0
 40
1.0
 40
1.0
 40
1.0
 10
331.3048456371085
 20
380.5080720767556
 30
0.0
 10
331.3048878110286
 20
380.5080697102401
 30
0.0
 10
331.3082201106103
 20
380.5079110340786
 30
0.0
 10
331.3189245018596
 20
380.5074095937584
 30
0.0
 10
331.3243122448323
 20
380.5071586743933
 30
0.0
 10
331.3374218272625
 20
380.5065577365547
 30
0.0
 10
331.3528583315794
 20
380.5058580532893
 30
0.0
 10
331.3728114040541
 20
380.5049869219719
 30
0.0
 10
331.38946932263
 20
380.5042788786201
 30
0.0
 10
331.3953046655058
 20
380.5040337477745
 30
0.0
 10
331.4075470132369
 20
380.5035268732286
 30
0.0
 10
331.4139725959701
 20
380.5032643932374
 30
0.0
 10
331.4472325711712
 20
380.5019275134967
 30
0.0
 10
331.4775100320473
 20
380.5007764752021
 30
0.0
 10
331.5281587336265
 20
380.4990301442222
 30
0.0
 10
331.5459204390695
 20
380.4984446296709
 30
0.0
 10
331.5832348225027
 20
380.4972837006563
 30
0.0
 10
331.6025784058577
 20
380.4967150350839
 30
0.0
 10
331.6622076509155
 20
380.495078147571
 30
0.0
 10
331.7042375259155
 20
380.4940739574992
 30
0.0
 10
331.7706751681732
 20
380.4927809680872
 30
0.0
 10
331.793476551768
 20
380.4923846162521
 30
0.0
 10
331.8393385160395
 20
380.4916896403099
 30
0.0
 10
331.8624898531878
 20
380.4913888982317
 30
0.0
 10
331.9325887715357
 20
380.4906358653325
 30
0.0
 10
331.9801752861911
 20
380.4903326703569
 30
0.0
 10
332.0771146621291
 20
380.4901711620635
 30
0.0
 10
332.1250296542459
 20
380.4903155939718
 30
0.0
 10
332.1959626232136
 20
380.4908453320056
 30
0.0
 10
332.2194572987882
 20
380.4910740982208
 30
0.0
 10
332.2544700766207
 20
380.4914923923514
 30
0.0
 10
332.2661027312396
 20
380.4916443467403
 30
0.0
 10
332.2892898621305
 20
380.4919727568059
 30
0.0
 10
332.3008382270824
 20
380.4921492104701
 30
0.0
 10
332.3577676306192
 20
380.4930803333054
 30
0.0
 10
332.4012294969406
 20
380.4939882265813
 30
0.0
 10
332.4633274371145
 20
380.4955174477166
 30
0.0
 10
332.4835074284648
 20
380.496055113468
 30
0.0
 10
332.5129679987601
 20
380.496893492047
 30
0.0
 10
332.5226783237964
 20
380.4971790496464
 30
0.0
 10
332.5416372946782
 20
380.4977533666332
 30
0.0
 10
332.5508983006681
 20
380.498042423704
 30
0.0
 10
332.5961253026166
 20
380.499491904833
 30
0.0
 10
332.6288884745633
 20
380.5006650134778
 30
0.0
 10
332.6654837431195
 20
380.5020647009375
 30
0.0
 10
332.6725828831324
 20
380.5023412890642
 30
0.0
 10
332.6863308631193
 20
380.5028855618232
 30
0.0
 10
332.6929980991773
 20
380.5031540035801
 30
0.0
 10
332.7121533145771
 20
380.5039363786512
 30
0.0
 10
332.7237743430512
 20
380.5044262824833
 30
0.0
 10
332.7552667644025
 20
380.5057816813834
 30
0.0
 10
332.7718017654585
 20
380.5065331680353
 30
0.0
 10
332.7866413707479
 20
380.5072179051503
 30
0.0
 10
332.7893208969921
 20
380.5073423725194
 30
0.0
 10
332.7940274799147
 20
380.5075618824784
 30
0.0
 10
332.8001233969437
 20
380.5078478399289
 30
0.0
 10
332.8042238056971
 20
380.5080424797609
 30
0.0
 10
332.8048572015348
 20
380.5080724922758
 30
0.0
 10
332.8048488385184
 20
380.5080720889596
 30
0.0
  0
SPLINE
  5
16E
330
1F
100
AcDbEntity
  8
1
100
AcDbSpline
210
0.0
220
0.0
230
1.0
 70
     8
 71
     3
 72
    93
 73
    89
 74
     0
 42
0.000000001
 43
0.0000000001
 40
0.0
 40
0.0
 40
0.0
 40
0.0
 40
0.0312500000000027
 40
0.0312500000000027
 40
0.0625000000000054
 40
0.0625000000000054
 40
0.0781250000000063
 40
0.0781250000000063
 40
0.0937500000000073
 40
0.0937500000000073
 40
0.1250000000000101
 40
0.156250000000013
 40
0.156250000000013
 40
0.1718750000000149
 40
0.1718750000000149
 40
0.1796875000000154
 40
0.1796875000000154
 40
0.1875000000000158
 40
0.1875000000000158
 40
0.2187500000000177
 40
0.2187500000000177
 40
0.2500000000000196
 40
0.2500000000000196
 40
0.26562500000002
 40
0.26562500000002
 40
0.2734375000000208
 40
0.2734375000000208
 40
0.2812500000000215
 40
0.2812500000000215
 40
0.3125000000000225
 40
0.3125000000000225
 40
0.3437500000000234
 40
0.3437500000000234
 40
0.3593750000000238
 40
0.3593750000000238
 40
0.3671875000000239
 40
0.3671875000000239
 40
0.375000000000024
 40
0.375000000000024
 40
0.4062500000000242
 40
0.4062500000000242
 40
0.4375000000000246
 40
0.4375000000000246
 40
0.4453125000000242
 40
0.4453125000000242
 40
0.4531250000000239
 40
0.4531250000000239
 40
0.4687500000000232
 40
0.4687500000000232
 40
0.5000000000000219
 40
0.5000000000000219
 40
0.5312500000000205
 40
0.5312500000000205
 40
0.5468750000000197
 40
0.5468750000000197
 40
0.5625000000000189
 40
0.5625000000000189
 40
0.5937500000000169
 40
0.5937500000000169
 40
0.6250000000000148
 40
0.6250000000000148
 40
0.6406250000000138
 40
0.6406250000000138
 40
0.6562500000000128
 40
0.6562500000000128
 40
0.6875000000000111
 40
0.6875000000000111
 40
0.7187500000000094
 40
0.7500000000000076
 40
0.7500000000000076
 40
0.7656250000000071
 40
0.7656250000000071
 40
0.7812500000000067
 40
0.7812500000000067
 40
0.8125000000000063
 40
0.843750000000006
 40
0.843750000000006
 40
0.8750000000000056
 40
0.8750000000000056
 40
0.8906250000000051
 40
0.8906250000000051
 40
0.9062500000000047
 40
0.9062500000000047
 40
0.9375000000000031
 40
0.9375000000000031
 40
0.9687500000000015
 40
0.9687500000000015
 40
1.0
 40
1.0
 40
1.0
 40
1.0
 10
349.9571917131316
 20
360.5239193947827
 30
0.0
 10
349.8635877287091
 20
360.5857829167524
 30
0.0
 10
349.7673921375501
 20
360.6425997392555
 30
0.0
 10
349.5698604258633
 20
360.7461396831789
 30
0.0
 10
349.4685247136657
 20
360.7928637565489
 30
0.0
 10
349.3125716597512
 20
360.8551411164278
 30
0.0
 10
349.2599277160051
 20
360.874596218125
 30
0.0
 10
349.1532870771067
 20
360.9108243180636
 30
0.0
 10
349.0992358763073
 20
360.9276127128812
 30
0.0
 10
348.9353240554596
 20
360.9737079977719
 30
0.0
 10
348.7155516129433
 20
361.0228603659402
 30
0.0
 10
348.4933631348862
 20
361.0478657896726
 30
0.0
 10
348.3257975638738
 20
361.057409872107
 30
0.0
 10
348.2697880293308
 20
361.0590528091577
 30
0.0
 10
348.1855369244805
 20
361.0591569622934
 30
0.0
 10
348.1574137334952
 20
361.0587980602062
 30
0.0
 10
348.1010872082916
 20
361.0572811320396
 30
0.0
 10
348.0728436020896
 20
361.0561207328273
 30
0.0
 10
347.9319022020404
 20
361.0483136459204
 30
0.0
 10
347.8208952045254
 20
361.0357400140947
 30
0.0
 10
347.6022847721878
 20
360.9983458150822
 30
0.0
 10
347.4946815660807
 20
360.9735241864813
 30
0.0
 10
347.335875647947
 20
360.9270566233736
 30
0.0
 10
347.2833746299237
 20
360.9100246792203
 30
0.0
 10
347.2052910688887
 20
360.8821231070342
 30
0.0
 10
347.1793746209772
 20
360.8724300666479
 30
0.0
 10
347.1277682773135
 20
360.8522493498027
 30
0.0
 10
347.1020773746533
 20
360.8417591416911
 30
0.0
 10
346.975107257928
 20
360.7876993683297
 30
0.0
 10
346.8775228839957
 20
360.7390371715573
 30
0.0
 10
346.6901047666108
 20
360.6314012187505
 30
0.0
 10
346.6002721665882
 20
360.5724254947493
 30
0.0
 10
346.4713876681829
 20
360.4763309316211
 30
0.0
 10
346.429405783482
 20
360.4430248429286
 30
0.0
 10
346.367928836196
 20
360.3911425409902
 30
0.0
 10
346.3476629705357
 20
360.3735056119568
 30
0.0
 10
346.3078911809788
 20
360.3378210130668
 30
0.0
 10
346.2883566087226
 20
360.3197504421376
 30
0.0
 10
346.1924121718255
 20
360.2282840377165
 30
0.0
 10
346.1211726738569
 20
360.1515578080097
 30
0.0
 10
345.9892584816387
 20
359.9915345946036
 30
0.0
 10
345.9285859682694
 20
359.9082357572569
 30
0.0
 10
345.8592700061518
 20
359.8001964798771
 30
0.0
 10
345.8457337971681
 20
359.7783923518143
 30
0.0
 10
345.8193162694068
 20
359.7343944945462
 30
0.0
 10
345.8064203854969
 20
359.7121732205173
 30
0.0
 10
345.7689195098721
 20
359.6452967904875
 30
0.0
 10
345.7454435578418
 20
359.6003419800234
 30
0.0
 10
345.6794046754365
 20
359.4644512711907
 30
0.0
 10
345.6412201671987
 20
359.3724927143041
 30
0.0
 10
345.575844684052
 20
359.186197488099
 30
0.0
 10
345.5486561407362
 20
359.0918598344726
 30
0.0
 10
345.5158396550089
 20
358.9487527195363
 30
0.0
 10
345.5062206838044
 20
358.9006957820649
 30
0.0
 10
345.4897505588162
 20
358.8049397619215
 30
0.0
 10
345.4828742179661
 20
358.7571526434967
 30
0.0
 10
345.466142948869
 20
358.6140772621632
 30
0.0
 10
345.4601766392926
 20
358.5190755548699
 30
0.0
 10
345.4579219181367
 20
358.3298903774129
 30
0.0
 10
345.4616354804679
 20
358.2357067601758
 30
0.0
 10
345.4741476151751
 20
358.0950728509446
 30
0.0
 10
345.4794850823862
 20
358.04824654169
 30
0.0
 10
345.4924114834017
 20
357.9550570795114
 30
0.0
 10
345.4999769483051
 20
357.9088400954378
 30
0.0
 10
345.5258444895838
 20
357.7712825184523
 30
0.0
 10
345.5473101609225
 20
357.6810337877295
 30
0.0
 10
345.5981637086479
 20
357.5032782360399
 30
0.0
 10
345.6569416582376
 20
357.328265112345
 30
0.0
 10
345.7309893900936
 20
357.1584856354206
 30
0.0
 10
345.7921884301923
 20
357.0330468977011
 30
0.0
 10
345.8135482900202
 20
356.9915308642123
 30
0.0
 10
345.8578544564949
 20
356.909670946898
 30
0.0
 10
345.8808334528003
 20
356.8692566393628
 30
0.0
 10
345.9522035687423
 20
356.7495120273521
 30
0.0
 10
346.0538402781899
 20
356.5938425458696
 30
0.0
 10
346.168251757081
 20
356.4457727597333
 30
0.0
 10
346.2891621840041
 20
356.3013971711439
 30
0.0
 10
346.3528654507792
 20
356.2310562054971
 30
0.0
 10
346.4535459378716
 20
356.1283007549213
 30
0.0
 10
346.4879622446142
 20
356.0945089668849
 30
0.0
 10
346.5585753302814
 20
356.0278523170063
 30
0.0
 10
346.5948083486186
 20
355.9949605054752
 30
0.0
 10
346.7054660875472
 20
355.8984057087987
 30
0.0
 10
346.7820794676784
 20
355.8366230498955
 30
0.0
 10
346.9413353964642
 20
355.7182578109068
 30
0.0
 10
347.0239751952269
 20
355.6616736653829
 30
0.0
 10
347.1959028777218
 20
355.5539233288395
 30
0.0
 10
347.2851852747493
 20
355.5027536903903
 30
0.0
 10
347.3782976477808
 20
355.4545341940811
 30
0.0
  0
SPLINE
  5
16F
330
1F
100
AcDbEntity
  8
1
100
AcDbSpline
210
0.0
220
0.0
230
1.0
 70
     8
 71
     3
 72
    18
 73
    14
 74
     0
 42
0.000000001
 43
0.0000000001
 40
0.0
 40
0.0
 40
0.0
 40
0.0
 40
0.2500000000000616
 40
0.2500000000000616
 40
0.3750000000000513
 40
0.3750000000000513
 40
0.5000000000000411
 40
0.5000000000000411
 40
0.6250000000000309
 40
0.6250000000000309
 40
0.7500000000000206
 40
0.7500000000000206
 40
1.0
 40
1.0
 40
1.0
 40
1.0
 10
352.4808078644602
 20
374.4538947420684
 30
0.0
 10
352.4767452333175
 20
374.4437671345741
 30
0.0
 10
352.47103267484
 20
374.4343767703467
 30
0.0
 10
352.4607061247132
 20
374.4221048614538
 30
0.0
 10
352.4569570607995
 20
374.4182858514238
 30
0.0
 10
352.4488434675691
 20
374.4111931207421
 30
0.0
 10
352.4444985765707
 20
374.407946799388
 30
0.0
 10
352.4355030416768
 20
374.4022072356017
 30
0.0
 10
352.430819052929
 20
374.3996837989683
 30
0.0
 10
352.4210855411197
 20
374.3953176550081
 30
0.0
 10
352.415993004841
 20
374.3934654032918
 30
0.0
 10
352.4005590306736
 20
374.3890839894747
 30
0.0
 10
352.390035547397
 20
374.3876601461143
 30
0.0
 10
352.3792770324835
 20
374.3877431473694
 30
0.0
  0
SPLINE
  5
170
330
1F
100
AcDbEntity
  8
1
100
AcDbSpline
210
0.0
220
0.0
230
1.0
 70
     8
 71
     3
 72
    10
 73
     6
 74
     0
 42
0.000000001
 43
0.0000000001
 40
0.0
 40
0.0
 40
0.0
 40
0.0
 40
0.5
 40
0.5
 40
1.0
 40
1.0
 40
1.0
 40
1.0
 10
352.3104638471754
 20
374.3646940491408
 30
0.0
 10
352.3203254683726
 20
374.3723596987223
 30
0.0
 10
352.3312235262378
 20
374.3781184504194
 30
0.0
 10
352.3547808974885
 20
374.3859470866018
 30
0.0
 10
352.3668739191693
 20
374.387838836596
 30
0.0
 10
352.3792770324835
 20
374.3877431473694
 30
0.0
  0
SPLINE
  5
171
330
1F
100
AcDbEntity
  8
1
100
AcDbSpline
210
0.0
220
0.0
230
1.0
 70
     8
 71
     3
 72
    27
 73
    23
 74
     0
 42
0.000000001
 43
0.0000000001
 40
0.0
 40
0.0
 40
0.0
 40
0.0
 40
0.1249999999999909
 40
0.1249999999999909
 40
0.1874999999999843
 40
0.1874999999999843
 40
0.2499999999999778
 40
0.2499999999999778
 40
0.3749999999999707
 40
0.3749999999999707
 40
0.4374999999999695
 40
0.4374999999999695
 40
0.4999999999999682
 40
0.4999999999999682
 40
0.6249999999999685
 40
0.6249999999999685
 40
0.6874999999999722
 40
0.6874999999999722
 40
0.7499999999999759
 40
0.7499999999999759
 40
0.8749999999999879
 40
1.0
 40
1.0
 40
1.0
 40
1.0
 10
352.2721457627913
 20
375.271015283014
 30
0.0
 10
352.3013919484207
 20
375.2468144807096
 30
0.0
 10
352.3284770831732
 20
375.2205802498136
 30
0.0
 10
352.3658990682603
 20
375.1782119334154
 30
0.0
 10
352.3778364323062
 20
375.1635841282002
 30
0.0
 10
352.4006148132627
 20
375.1332966484777
 30
0.0
 10
352.4113993223013
 20
375.1177037180988
 30
0.0
 10
352.4416482122376
 20
375.070069118953
 30
0.0
 10
352.4591598909816
 20
375.0369942964899
 30
0.0
 10
352.4814727937467
 20
374.9854169061862
 30
0.0
 10
352.4882484200172
 20
374.9678954788802
 30
0.0
 10
352.5004437899005
 20
374.9321787915061
 30
0.0
 10
352.5058676845494
 20
374.9139401719743
 30
0.0
 10
352.5198043094195
 20
374.8591716525951
 30
0.0
 10
352.5261127550191
 20
374.8222931539639
 30
0.0
 10
352.5312039406318
 20
374.7664391683908
 30
0.0
 10
352.5321690953932
 20
374.7477314001075
 30
0.0
 10
352.5326127094326
 20
374.7101336836154
 30
0.0
 10
352.5320839370568
 20
374.6911599027006
 30
0.0
 10
352.5282472646289
 20
374.6346444222443
 30
0.0
 10
352.517238979223
 20
374.5605863711465
 30
0.0
 10
352.4949009776037
 20
374.4890270278398
 30
0.0
 10
352.4808078644602
 20
374.4538947420684
 30
0.0
  0
SPLINE
  5
172
330
1F
100
AcDbEntity
  8
1
100
AcDbSpline
210
0.0
220
0.0
230
1.0
 70
     8
 71
     3
 72
    14
 73
    10
 74
     0
 42
0.000000001
 43
0.0000000001
 40
0.0
 40
0.0
 40
0.0
 40
0.0
 40
0.499999999999964
 40
0.499999999999964
 40
0.6249999999999778
 40
0.6249999999999778
 40
0.7499999999999917
 40
0.7499999999999917
 40
1.0
 40
1.0
 40
1.0
 40
1.0
 10
352.1367682482838
 20
373.4975778094992
 30
0.0
 10
352.1554780684899
 20
373.4871776334637
 30
0.0
 10
352.1708799669291
 20
373.4715741250233
 30
0.0
 10
352.1831388737866
 20
373.4480719744976
 30
0.0
 10
352.1852171774655
 20
373.4432258807249
 30
0.0
 10
352.1886217613456
 20
373.4332411134524
 30
0.0
 10
352.1899534080675
 20
373.4280711960112
 30
0.0
 10
352.1926962712998
 20
373.4123030821746
 30
0.0
 10
352.1928605408786
 20
373.4017191432067
 30
0.0
 10
352.1912589048741
 20
373.3910612934138
 30
0.0
  0
SPLINE
  5
173
330
1F
100
AcDbEntity
  8
1
100
AcDbSpline
210
0.0
220
0.0
230
1.0
 70
     8
 71
     3
 72
    10
 73
     6
 74
     0
 42
0.000000001
 43
0.0000000001
 40
0.0
 40
0.0
 40
0.0
 40
0.0
 40
0.5
 40
0.5
 40
1.0
 40
1.0
 40
1.0
 40
1.0
 10
352.1367682482838
 20
373.4975778094992
 30
0.0
 10
352.1259735937693
 20
373.5035782042629
 30
0.0
 10
352.1164418603746
 20
373.5111398387756
 30
0.0
 10
352.0999778752088
 20
373.5294398571386
 30
0.0
 10
352.093480142395
 20
373.5396890994468
 30
0.0
 10
352.0888172060934
 20
373.5511063772647
 30
0.0
  0
SPLINE
  5
174
330
1F
100
AcDbEntity
  8
1
100
AcDbSpline
210
0.0
220
0.0
230
1.0
 70
     8
 71
     3
 72
    11
 73
     7
 74
     0
 42
0.000000001
 43
0.0000000001
 40
0.0
 40
0.0
 40
0.0
 40
0.0
 40
0.0592480755534132
 40
0.3837444372704337
 40
0.7093979087888375
 40
1.0
 40
1.0
 40
1.0
 40
1.0
 10
348.9952344651731
 20
360.115229595609
 30
0.0
 10
349.0070072557582
 20
360.1228247382151
 30
0.0
 10
349.0835886772822
 20
360.1714339144369
 30
0.0
 10
349.2290118350252
 20
360.254248097248
 30
0.0
 10
349.4292740079631
 20
360.3476784846281
 30
0.0
 10
349.5642768477305
 20
360.3984044284764
 30
0.0
 10
349.628632443514
 20
360.4199572042045
 30
0.0
  0
SPLINE
  5
175
330
1F
100
AcDbEntity
  8
1
100
AcDbSpline
210
0.0
220
0.0
230
1.0
 70
     8
 71
     3
 72
     8
 73
     4
 74
     0
 42
0.000000001
 43
0.0000000001
 40
0.0
 40
0.0
 40
0.0
 40
0.0
 40
1.0
 40
1.0
 40
1.0
 40
1.0
 10
352.0979863714185
 20
375.2684088656142
 30
0.0
 10
352.0917631624862
 20
375.2684034437219
 30
0.0
 10
352.0855285959908
 20
375.2689293680378
 30
0.0
 10
352.0792820140115
 20
375.2700018317268
 30
0.0
  0
SPLINE
  5
176
330
1F
100
AcDbEntity
  8
1
100
AcDbSpline
210
0.0
220
0.0
230
1.0
 70
     8
 71
     3
 72
    29
 73
    25
 74
     0
 42
0.000000001
 43
0.0000000001
 40
0.0
 40
0.0
 40
0.0
 40
0.0
 40
0.1249999999999948
 40
0.1249999999999948
 40
0.1874999999999937
 40
0.1874999999999937
 40
0.2499999999999925
 40
0.2499999999999925
 40
0.3749999999999872
 40
0.3749999999999872
 40
0.4374999999999825
 40
0.46874999999998
 40
0.46874999999998
 40
0.4999999999999777
 40
0.4999999999999777
 40
0.6249999999999787
 40
0.6249999999999787
 40
0.6874999999999817
 40
0.6874999999999817
 40
0.7499999999999848
 40
0.7499999999999848
 40
0.8749999999999923
 40
0.8749999999999923
 40
1.0
 40
1.0
 40
1.0
 40
1.0
 10
352.0888172060934
 20
373.5511063772647
 30
0.0
 10
352.0746136007621
 20
373.5858841433753
 30
0.0
 10
352.0632320237398
 20
373.6214108375593
 30
0.0
 10
352.0504200308816
 20
373.6758666258539
 30
0.0
 10
352.0468627020326
 20
373.6942137603413
 30
0.0
 10
352.0412210834507
 20
373.7313172332031
 30
0.0
 10
352.039134413058
 20
373.7501068690012
 30
0.0
 10
352.0352156563873
 20
373.8069193751672
 30
0.0
 10
352.035753873537
 20
373.8446128603583
 30
0.0
 10
352.0412619514623
 20
373.9008974929376
 30
0.0
 10
352.0451963733687
 20
373.9289755001363
 30
0.0
 10
352.0509444803674
 20
373.9569563064871
 30
0.0
 10
352.0551879136032
 20
373.9755882050584
 30
0.0
 10
352.0575220221167
 20
373.9849162107444
 30
0.0
 10
352.070124003283
 20
374.0310800331481
 30
0.0
 10
352.0831902626837
 20
374.0666686765695
 30
0.0
 10
352.1070400477659
 20
374.118140248693
 30
0.0
 10
352.1157017435764
 20
374.1349773651627
 30
0.0
 10
352.1344495508685
 20
374.1680111719585
 30
0.0
 10
352.1445608349604
 20
374.1842445910565
 30
0.0
 10
352.1769080621505
 20
374.2317287198729
 30
0.0
 10
352.2007129924954
 20
374.2611689793648
 30
0.0
 10
352.2524724531652
 20
374.3159792387403
 30
0.0
 10
352.280428948807
 20
374.3413472787165
 30
0.0
 10
352.3104638471754
 20
374.3646940491408
 30
0.0
  0
SPLINE
  5
177
330
1F
100
AcDbEntity
  8
1
100
AcDbSpline
210
0.0
220
0.0
230
1.0
 70
     8
 71
     3
 72
    26
 73
    22
 74
     0
 42
0.000000001
 43
0.0000000001
 40
0.0
 40
0.0
 40
0.0
 40
0.0
 40
0.165638352166383
 40
0.165638352166383
 40
0.2484575282495704
 40
0.2484575282495704
 40
0.331276704332758
 40
0.331276704332758
 40
0.4969150564991362
 40
0.4969150564991362
 40
0.5797342325823283
 40
0.5797342325823283
 40
0.6625534086655204
 40
0.6625534086655204
 40
0.8281917608318964
 40
0.8281917608318964
 40
0.9110109369150855
 40
0.9110109369150855
 40
0.9938301129982745
 40
0.9938301129982745
 40
1.0
 40
1.0
 40
1.0
 40
1.0
 10
352.1912589048741
 20
373.3910612934138
 30
0.0
 10
352.1856953949614
 20
373.354039739949
 30
0.0
 10
352.1772595225655
 20
373.3178006763436
 30
0.0
 10
352.1603490871202
 20
373.2646107759285
 30
0.0
 10
352.1539997090716
 20
373.2470764183296
 30
0.0
 10
352.1398457467244
 20
373.2124084150179
 30
0.0
 10
352.1320689890358
 20
373.1953563098909
 30
0.0
 10
352.1069114673047
 20
373.1455437604966
 30
0.0
 10
352.0876301709554
 20
373.1139082322012
 30
0.0
 10
352.0549705048783
 20
373.0688015115887
 30
0.0
 10
352.043458239756
 20
373.0541587337136
 30
0.0
 10
352.0191522953065
 20
373.0256779470845
 30
0.0
 10
352.0063235018684
 20
373.0118142890606
 30
0.0
 10
351.9665804035996
 20
372.9721726150558
 30
0.0
 10
351.9382236098723
 20
372.9480829865665
 30
0.0
 10
351.8929599721611
 20
372.9153743909234
 30
0.0
 10
351.8774152688092
 20
372.905045087882
 30
0.0
 10
351.8453977951567
 20
372.885551105396
 30
0.0
 10
351.8288493914184
 20
372.8763499194024
 30
0.0
 10
351.8107739991411
 20
372.8672183160212
 30
0.0
 10
351.8095194240162
 20
372.8665891062419
 30
0.0
 10
351.8082634985353
 20
372.865963803199
 30
0.0
  0
SPLINE
  5
178
330
1F
100
AcDbEntity
  8
1
100
AcDbSpline
210
0.0
220
0.0
230
1.0
 70
     8
 71
     3
 72
    18
 73
    14
 74
     0
 42
0.000000001
 43
0.0000000001
 40
0.0
 40
0.0
 40
0.0
 40
0.0
 40
0.2499999999999813
 40
0.2499999999999813
 40
0.3749999999999843
 40
0.3749999999999843
 40
0.4999999999999873
 40
0.4999999999999873
 40
0.6249999999999904
 40
0.6249999999999904
 40
0.7499999999999936
 40
0.7499999999999936
 40
1.0
 40
1.0
 40
1.0
 40
1.0
 10
351.5104630395202
 20
376.0570570891139
 30
0.0
 10
351.5169383116102
 20
376.0486508498901
 30
0.0
 10
351.5219134626839
 20
376.0392441169341
 30
0.0
 10
351.5269004958077
 20
376.0245829918877
 30
0.0
 10
351.5281689773516
 20
376.0195773025911
 30
0.0
 10
351.529915288563
 20
376.0093287428881
 30
0.0
 10
351.5303801707537
 20
376.0041157793274
 30
0.0
 10
351.5305059915477
 20
375.9938129725134
 30
0.0
 10
351.5301749989405
 20
375.9886804857675
 30
0.0
 10
351.5287388265755
 20
375.9784535057757
 30
0.0
 10
351.5276189859849
 20
375.9733186910981
 30
0.0
 10
351.5231741124265
 20
375.9583727640298
 30
0.0
 10
351.5188097998818
 20
375.9489640104365
 30
0.0
 10
351.5130353243382
 20
375.9401151947912
 30
0.0
  0
SPLINE
  5
179
330
1F
100
AcDbEntity
  8
1
100
AcDbSpline
210
0.0
220
0.0
230
1.0
 70
     8
 71
     3
 72
    29
 73
    25
 74
     0
 42
0.000000001
 43
0.0000000001
 40
0.0
 40
0.0
 40
0.0
 40
0.0
 40
0.1250000000000132
 40
0.1250000000000132
 40
0.1875000000000199
 40
0.1875000000000199
 40
0.2500000000000265
 40
0.2500000000000265
 40
0.3750000000000324
 40
0.3750000000000324
 40
0.4375000000000306
 40
0.4687500000000275
 40
0.4687500000000275
 40
0.5000000000000244
 40
0.5000000000000244
 40
0.6250000000000233
 40
0.6250000000000233
 40
0.6875000000000196
 40
0.6875000000000196
 40
0.7500000000000158
 40
0.7500000000000158
 40
0.8750000000000078
 40
0.8750000000000078
 40
1.0
 40
1.0
 40
1.0
 40
1.0
 10
352.0792820140115
 20
375.2700018317268
 30
0.0
 10
352.0416285582533
 20
375.2764664813871
 30
0.0
 10
352.004825671497
 20
375.2856496970641
 30
0.0
 10
351.9508912216567
 20
375.3035185393669
 30
0.0
 10
351.9331256867476
 20
375.3101602969146
 30
0.0
 10
351.8980311959629
 20
375.324857556455
 30
0.0
 10
351.8806720542617
 20
375.3329284994265
 30
0.0
 10
351.8294722943511
 20
375.359273042291
 30
0.0
 10
351.7971918387023
 20
375.3793002846249
 30
0.0
 10
351.751534833695
 20
375.4130034629655
 30
0.0
 10
351.7294003095374
 20
375.4307747977315
 30
0.0
 10
351.7083320497414
 20
375.4499578453376
 30
0.0
 10
351.6945283810434
 20
375.4630666666502
 30
0.0
 10
351.6877312121608
 20
375.4697985038903
 30
0.0
 10
351.6546618906085
 20
375.5039603093203
 30
0.0
 10
351.6309841781569
 20
375.5329959496117
 30
0.0
 10
351.5994184520722
 20
375.5789875991819
 30
0.0
 10
351.5895580516992
 20
375.594726608726
 30
0.0
 10
351.5711591717971
 20
375.6270253297862
 30
0.0
 10
351.5626024986017
 20
375.6436246158478
 30
0.0
 10
351.5390663422623
 20
375.6944265272841
 30
0.0
 10
351.526493218545
 20
375.7289668388604
 30
0.0
 10
351.5070716474497
 20
375.79934759117
 30
0.0
 10
351.5002259573762
 20
375.835188596245
 30
0.0
 10
351.4962220112248
 20
375.8717084526764
 30
0.0
  0
SPLINE
  5
17A
330
1F
100
AcDbEntity
  8
1
100
AcDbSpline
210
0.0
220
0.0
230
1.0
 70
     8
 71
     3
 72
    10
 73
     6
 74
     0
 42
0.000000001
 43
0.0000000001
 40
0.0
 40
0.0
 40
0.0
 40
0.0
 40
0.5
 40
0.5
 40
1.0
 40
1.0
 40
1.0
 40
1.0
 10
351.4962220112248
 20
375.8717084526764
 30
0.0
 10
351.4949073263246
 20
375.8836996488597
 30
0.0
 10
351.4957713228406
 20
375.8955887985313
 30
0.0
 10
351.5015808527004
 20
375.9189743314483
 30
0.0
 10
351.5063782098971
 20
375.929913821875
 30
0.0
 10
351.5130353243382
 20
375.9401151947912
 30
0.0
  0
SPLINE
  5
17B
330
1F
100
AcDbEntity
  8
1
100
AcDbSpline
210
0.0
220
0.0
230
1.0
 70
     8
 71
     3
 72
    17
 73
    13
 74
     0
 42
0.000000001
 43
0.0000000001
 40
0.0
 40
0.0
 40
0.0
 40
0.0
 40
0.0315943767365607
 40
0.0315943767365607
 40
0.2736957825524141
 40
0.2736957825524141
 40
0.3947464854603431
 40
0.3947464854603431
 40
0.515797188368272
 40
0.515797188368272
 40
0.757898594184136
 40
1.0
 40
1.0
 40
1.0
 40
1.0
 10
351.1371857130088
 20
376.3030627775614
 30
0.0
 10
351.1419022853731
 20
376.3018392357545
 30
0.0
 10
351.1465988028909
 20
376.3005686357255
 30
0.0
 10
351.1870543086835
 20
376.2891678501365
 30
0.0
 10
351.2216027087309
 20
376.2763788938524
 30
0.0
 10
351.2716112034886
 20
376.2532335568337
 30
0.0
 10
351.2879769501911
 20
376.244855139587
 30
0.0
 10
351.3200910157524
 20
376.226751575822
 30
0.0
 10
351.3359066266976
 20
376.2169791533801
 30
0.0
 10
351.3818413489199
 20
376.1859587076726
 30
0.0
 10
351.4389274040487
 20
376.1402545844529
 30
0.0
 10
351.4880000696777
 20
376.0862186587819
 30
0.0
 10
351.5104630395202
 20
376.0570570891139
 30
0.0
  0
SPLINE
  5
17C
330
1F
100
AcDbEntity
  8
1
100
AcDbSpline
210
0.0
220
0.0
230
1.0
 70
     8
 71
     3
 72
    25
 73
    21
 74
     0
 42
0.000000001
 43
0.0000000001
 40
0.0
 40
0.0
 40
0.0
 40
0.0
 40
0.1777147121753162
 40
0.1777147121753162
 40
0.2665720682629742
 40
0.2665720682629742
 40
0.3554294243506324
 40
0.3554294243506324
 40
0.5331441365259617
 40
0.5331441365259617
 40
0.6220014926136252
 40
0.6664301706574653
 40
0.6664301706574653
 40
0.7108588487013053
 40
0.7108588487013053
 40
0.888573560876652
 40
0.888573560876652
 40
0.9774309169643171
 40
0.9774309169643171
 40
1.0
 40
1.0
 40
1.0
 40
1.0
 10
350.6275929593075
 20
372.6832735428412
 30
0.0
 10
350.6492616231804
 20
372.7115868256953
 30
0.0
 10
350.6730582938673
 20
372.7379305053976
 30
0.0
 10
350.7120116045179
 20
372.7745177638967
 30
0.0
 10
350.7255416193171
 20
372.7862232468476
 30
0.0
 10
350.7537362146521
 20
372.8086296687174
 30
0.0
 10
350.7684277466091
 20
372.819348669853
 30
0.0
 10
350.8141343427982
 20
372.8498161366882
 30
0.0
 10
350.8461487329752
 20
372.8674822151358
 30
0.0
 10
350.8964983876489
 20
372.8900636203232
 30
0.0
 10
350.9222575916053
 20
372.9003703179294
 30
0.0
 10
350.9489174077175
 20
372.9091681681544
 30
0.0
 10
350.9668950111085
 20
372.9146913202291
 30
0.0
 10
350.9760089923231
 20
372.9172874980118
 30
0.0
 10
351.0216822025632
 20
372.9292891074292
 30
0.0
 10
351.0587090260096
 20
372.9358419684279
 30
0.0
 10
351.1149401669662
 20
372.9413218427469
 30
0.0
 10
351.1337994930756
 20
372.9424199614836
 30
0.0
 10
351.1575929301082
 20
372.9428808973192
 30
0.0
 10
351.162422517044
 20
372.942926954591
 30
0.0
 10
351.1672600986841
 20
372.9429255914701
 30
0.0
  0
SPLINE
  5
17D
330
1F
100
AcDbEntity
  8
1
100
AcDbSpline
210
0.0
220
0.0
230
1.0
 70
     8
 71
     3
 72
    10
 73
     6
 74
     0
 42
0.000000001
 43
0.0000000001
 40
0.0
 40
0.0
 40
0.0
 40
0.0
 40
0.5
 40
0.5
 40
1.0
 40
1.0
 40
1.0
 40
1.0
 10
350.6079802204232
 20
372.6179729267231
 30
0.0
 10
350.6073264309391
 20
372.6298078660418
 30
0.0
 10
350.6086451436628
 20
372.641330307053
 30
0.0
 10
350.6153118944709
 20
372.6637112381596
 30
0.0
 10
350.6204791058484
 20
372.6739782514308
 30
0.0
 10
350.6275929593075
 20
372.6832735428412
 30
0.0
  0
SPLINE
  5
17E
330
1F
100
AcDbEntity
  8
1
100
AcDbSpline
210
0.0
220
0.0
230
1.0
 70
     8
 71
     3
 72
    14
 73
    10
 74
     0
 42
0.000000001
 43
0.0000000001
 40
0.0
 40
0.0
 40
0.0
 40
0.0
 40
0.4999999999999807
 40
0.4999999999999807
 40
0.6249999999999857
 40
0.6249999999999857
 40
0.7499999999999904
 40
0.7499999999999904
 40
1.0
 40
1.0
 40
1.0
 40
1.0
 10
350.6079802204232
 20
372.6179729267231
 30
0.0
 10
350.6091134142299
 20
372.5974597795129
 30
0.0
 10
350.6041469914288
 20
372.5772400666038
 30
0.0
 10
350.5909137809443
 20
372.5559075477922
 30
0.0
 10
350.5879489345693
 20
372.5518839987445
 30
0.0
 10
350.5813795293264
 20
372.5443268447094
 30
0.0
 10
350.577751987131
 20
372.540774274878
 30
0.0
 10
350.5659935431044
 20
372.5310386959015
 30
0.0
 10
350.5572211672592
 20
372.5259055826244
 30
0.0
 10
350.5474618766671
 20
372.5222150077031
 30
0.0
  0
SPLINE
  5
17F
330
1F
100
AcDbEntity
  8
1
100
AcDbSpline
210
0.0
220
0.0
230
1.0
 70
     8
 71
     3
 72
    12
 73
     8
 74
     0
 42
0.000000001
 43
0.0000000001
 40
0.0
 40
0.0
 40
0.0
 40
0.0
 40
0.1571854018399511
 40
0.1571854018399511
 40
0.5785927009199757
 40
0.5785927009199757
 40
1.0
 40
1.0
 40
1.0
 40
1.0
 10
350.0494885524288
 20
375.8614124032244
 30
0.0
 10
350.0359265562149
 20
375.8614164128202
 30
0.0
 10
350.0223662411177
 20
375.8618294988082
 30
0.0
 10
349.972656761821
 20
375.8648667110138
 30
0.0
 10
349.9375449471863
 20
375.8699668583878
 30
0.0
 10
349.8692532309886
 20
375.8855374150189
 30
0.0
 10
349.836074330799
 20
375.8960103465798
 30
0.0
 10
349.803815931275
 20
375.9091834008389
 30
0.0
  0
SPLINE
  5
180
330
1F
100
AcDbEntity
  8
1
100
AcDbSpline
210
0.0
220
0.0
230
1.0
 70
     8
 71
     3
 72
     8
 73
     4
 74
     0
 42
0.000000001
 43
0.0000000001
 40
0.0
 40
0.0
 40
0.0
 40
0.0
 40
1.0
 40
1.0
 40
1.0
 40
1.0
 10
349.803815931275
 20
375.9091834008389
 30
0.0
 10
349.793409936261
 20
375.9134327975528
 30
0.0
 10
349.7841745922436
 20
375.9194225746471
 30
0.0
 10
349.7761091267045
 20
375.9270079727553
 30
0.0
  0
SPLINE
  5
181
330
1F
100
AcDbEntity
  8
1
100
AcDbSpline
210
0.0
220
0.0
230
1.0
 70
     8
 71
     3
 72
     8
 73
     4
 74
     0
 42
0.000000001
 43
0.0000000001
 40
0.0
 40
0.0
 40
0.0
 40
0.0
 40
1.0
 40
1.0
 40
1.0
 40
1.0
 10
350.5474618766671
 20
372.5222150077031
 30
0.0
 10
350.5244249613852
 20
372.5135033640645
 30
0.0
 10
350.5010064616639
 20
372.5060918630209
 30
0.0
 10
350.4772120868539
 20
372.4999725099876
 30
0.0
  0
SPLINE
  5
182
330
1F
100
AcDbEntity
  8
1
100
AcDbSpline
210
0.0
220
0.0
230
1.0
 70
     8
 71
     3
 72
    32
 73
    28
 74
     0
 42
0.000000001
 43
0.0000000001
 40
0.0
 40
0.0
 40
0.0
 40
0.0
 40
0.0493327759562465
 40
0.0493327759562465
 40
0.0739991639343697
 40
0.0739991639343697
 40
0.0986655519124929
 40
0.0986655519124929
 40
0.1973311038249854
 40
0.1973311038249854
 40
0.2959966557374778
 40
0.2959966557374778
 40
0.3946622076499705
 40
0.3946622076499705
 40
0.4439949836062162
 40
0.4439949836062162
 40
0.4933277595624619
 40
0.4933277595624619
 40
0.5919933114749528
 40
0.5919933114749528
 40
0.6906588633874437
 40
0.6906588633874437
 40
0.7893244152999345
 40
0.7893244152999345
 40
0.9866555191249162
 40
0.9866555191249162
 40
1.0
 40
1.0
 40
1.0
 40
1.0
 10
336.9163009808559
 20
379.2109324856348
 30
0.0
 10
336.9322416682948
 20
379.1399932265286
 30
0.0
 10
336.9484141166808
 20
379.0702279678114
 30
0.0
 10
336.9729949067087
 20
378.9672115493593
 30
0.0
 10
336.9812422293325
 20
378.9331448559123
 30
0.0
 10
336.9978405093146
 20
378.8655363184184
 30
0.0
 10
337.0061930864488
 20
378.8319890893448
 30
0.0
 10
337.0480466319643
 20
378.6661417598093
 30
0.0
 10
337.0819454020155
 20
378.5389551807908
 30
0.0
 10
337.1504312449996
 20
378.2936620886673
 30
0.0
 10
337.1850189132491
 20
378.1755634446526
 30
0.0
 10
337.2547797506753
 20
377.9470827827069
 30
0.0
 10
337.289953263186
 20
377.8367053040455
 30
0.0
 10
337.3430945412285
 20
377.6761551043098
 30
0.0
 10
337.3608969897215
 20
377.623405358138
 30
0.0
 10
337.3964351427945
 20
377.5200107944968
 30
0.0
 10
337.4141840487791
 20
377.4693230135367
 30
0.0
 10
337.4673754257173
 20
377.3200346607199
 30
0.0
 10
337.502762740446
 20
377.2241999754838
 30
0.0
 10
337.5734122909636
 20
377.0388288028319
 30
0.0
 10
337.6086744610528
 20
376.9492955543313
 30
0.0
 10
337.6790905133205
 20
376.7757065640081
 30
0.0
 10
337.7142443542464
 20
376.6916528551486
 30
0.0
 10
337.8195632637142
 20
376.4467412962484
 30
0.0
 10
337.8895866000818
 20
376.2930896403543
 30
0.0
 10
337.9641845192277
 20
376.137311368233
 30
0.0
 10
337.9689089607945
 20
376.1274797832661
 30
0.0
 10
337.9736327182582
 20
376.1176833883071
 30
0.0
  0
SPLINE
  5
183
330
1F
100
AcDbEntity
  8
1
100
AcDbSpline
210
0.0
220
0.0
230
1.0
 70
     8
 71
     3
 72
    41
 73
    37
 74
     0
 42
0.000000001
 43
0.0000000001
 40
0.0
 40
0.0
 40
0.0
 40
0.0
 40
0.048297959523912
 40
0.048297959523912
 40
0.2386383676191363
 40
0.2386383676191363
 40
0.3338085716667485
 40
0.3338085716667485
 40
0.3813936736905539
 40
0.3813936736905539
 40
0.428978775714359
 40
0.428978775714359
 40
0.5241489797619679
 40
0.5241489797619679
 40
0.5717340817857716
 40
0.5717340817857716
 40
0.6193191838095756
 40
0.6193191838095756
 40
0.7144893878571824
 40
0.7144893878571824
 40
0.7620744898809865
 40
0.7620744898809865
 40
0.7858670408928881
 40
0.7858670408928881
 40
0.8096595919047896
 40
0.8334521429166914
 40
0.8334521429166914
 40
0.8572446939285928
 40
0.8572446939285928
 40
0.9048297959523964
 40
0.9048297959523964
 40
0.928622346964298
 40
0.928622346964298
 40
0.9524148979762003
 40
0.9524148979762003
 40
1.0
 40
1.0
 40
1.0
 40
1.0
 10
336.9959201127419
 20
380.1394894855885
 30
0.0
 10
336.9921879584128
 20
380.1317940129941
 30
0.0
 10
336.9884989225202
 20
380.1239208427424
 30
0.0
 10
336.9704930355758
 20
380.0840935324874
 30
0.0
 10
336.9568216545456
 20
380.0494450843601
 30
0.0
 10
336.9376712482323
 20
379.9914472762895
 30
0.0
 10
336.9315158786971
 20
379.9711006911432
 30
0.0
 10
336.9226985511937
 20
379.9386812691839
 30
0.0
 10
336.9198290417764
 20
379.9275566543283
 30
0.0
 10
336.9142467296187
 20
379.9045819543751
 30
0.0
 10
336.9115328839457
 20
379.8927245222872
 30
0.0
 10
336.9037101566066
 20
379.8561412467643
 30
0.0
 10
336.8988984314001
 20
379.8303548971761
 30
0.0
 10
336.8924751077598
 20
379.7888705991692
 30
0.0
 10
336.8904638182276
 20
379.7745423001635
 30
0.0
 10
336.8867747927612
 20
379.7449038741339
 30
0.0
 10
336.8850999750089
 20
379.7296249556652
 30
0.0
 10
336.8806706167533
 20
379.6821647055657
 30
0.0
 10
336.8784913278596
 20
379.6484153745939
 30
0.0
 10
336.8769735572097
 20
379.5929600557589
 30
0.0
 10
336.8767629656642
 20
379.573660014489
 30
0.0
 10
336.8770309210983
 20
379.5430918077382
 30
0.0
 10
336.8772195905518
 20
379.5326210737641
 30
0.0
 10
336.877812669617
 20
379.5114210870533
 30
0.0
 10
336.8786215437804
 20
379.4898823245418
 30
0.0
 10
336.8799060510093
 20
379.4675956731842
 30
0.0
 10
336.8814553375992
 20
379.4448921375184
 30
0.0
 10
336.8823668047602
 20
379.4332832076844
 30
0.0
 10
336.885518018873
 20
379.3980894418829
 30
0.0
 10
336.8881382016437
 20
379.3744942912701
 30
0.0
 10
336.8928934199649
 20
379.3388905315584
 30
0.0
 10
336.8946161569513
 20
379.3269873988734
 30
0.0
 10
336.8983469652492
 20
379.3031081435897
 30
0.0
 10
336.9003597957797
 20
379.2911165240212
 30
0.0
 10
336.906678006411
 20
379.2558868652383
 30
0.0
 10
336.9113050819358
 20
379.2330995566498
 30
0.0
 10
336.9163009808559
 20
379.2109324856345
 30
0.0
  0
SPLINE
  5
186
330
1F
100
AcDbEntity
  8
1
100
AcDbSpline
210
0.0
220
0.0
230
1.0
 70
     8
 71
     3
 72
    12
 73
     8
 74
     0
 42
0.000000001
 43
0.0000000001
 40
0.0
 40
0.0
 40
0.0
 40
0.0
 40
0.4154548646824927
 40
0.4154548646824927
 40
0.8309097293649852
 40
0.8309097293649852
 40
1.0
 40
1.0
 40
1.0
 40
1.0
 10
341.8319855602693
 20
370.8083993405391
 30
0.0
 10
341.8753608516884
 20
370.7850670020621
 30
0.0
 10
341.9144623377981
 20
370.766354107697
 30
0.0
 10
341.9860723352234
 20
370.7358877646556
 30
0.0
 10
342.0185656508416
 20
370.7241519939806
 30
0.0
 10
342.0604982390231
 20
370.7115402758043
 30
0.0
 10
342.0721811535446
 20
370.7083526843259
 30
0.0
 10
342.083445852898
 20
370.7055922069587
 30
0.0
  0
SPLINE
  5
187
330
1F
100
AcDbEntity
  8
1
100
AcDbSpline
210
0.0
220
0.0
230
1.0
 70
     8
 71
     3
 72
    36
 73
    32
 74
     0
 42
0.000000001
 43
0.0000000001
 40
0.0
 40
0.0
 40
0.0
 40
0.0
 40
0.015624999999999
 40
0.015624999999999
 40
0.031249999999998
 40
0.031249999999998
 40
0.0624999999999984
 40
0.0624999999999984
 40
0.1249999999999991
 40
0.1249999999999991
 40
0.1562499999999994
 40
0.1562499999999994
 40
0.1874999999999998
 40
0.1874999999999998
 40
0.2500000000000003
 40
0.2500000000000003
 40
0.2812500000000001
 40
0.2812500000000001
 40
0.3124999999999998
 40
0.3124999999999998
 40
0.3749999999999994
 40
0.3749999999999994
 40
0.4999999999999998
 40
0.4999999999999998
 40
0.6249999999999999
 40
0.6249999999999999
 40
0.7499999999999999
 40
0.7499999999999999
 40
0.8749999999999998
 40
0.8749999999999998
 40
1.0
 40
1.0
 40
1.0
 40
1.0
 10
338.065833383206
 20
375.5799001818413
 30
0.0
 10
338.0675002955471
 20
375.5686240342862
 30
0.0
 10
338.0692212643542
 20
375.5573183061519
 30
0.0
 10
338.0727729865526
 20
375.5346467739692
 30
0.0
 10
338.0746043139248
 20
375.5232797292915
 30
0.0
 10
338.0801998511191
 20
375.4894697411159
 30
0.0
 10
338.0840854093239
 20
375.4671886513002
 30
0.0
 10
338.0961749651167
 20
375.4010675073609
 30
0.0
 10
338.1048111220619
 20
375.3579483746154
 30
0.0
 10
338.1185126403378
 20
375.2945162808949
 30
0.0
 10
338.1231748786802
 20
375.273720800276
 30
0.0
 10
338.1325887869671
 20
375.2330823037461
 30
0.0
 10
338.1373531898523
 20
375.2131803510037
 30
0.0
 10
338.1517969897361
 20
375.1545683556387
 30
0.0
 10
338.1616260548121
 20
375.1169454703076
 30
0.0
 10
338.1766040863942
 20
375.0622140211229
 30
0.0
 10
338.1816360936208
 20
375.0442558897744
 30
0.0
 10
338.191770416966
 20
375.0088503360141
 30
0.0
 10
338.1968804107147
 20
374.9913783695504
 30
0.0
 10
338.2121828182445
 20
374.940055277453
 30
0.0
 10
338.2223840089713
 20
374.9071580299015
 30
0.0
 10
338.2529866239639
 20
374.8115117510514
 30
0.0
 10
338.2733871058314
 20
374.7517611276993
 30
0.0
 10
338.3141864372888
 20
374.6374532633345
 30
0.0
 10
338.3345852761162
 20
374.582930264797
 30
0.0
 10
338.3753817913865
 20
374.4775826014234
 30
0.0
 10
338.3957794636538
 20
374.4267712219157
 30
0.0
 10
338.4365739393272
 20
374.3279128997348
 30
0.0
 10
338.4568890825829
 20
374.2800688988173
 30
0.0
 10
338.4973447823283
 20
374.1868880548791
 30
0.0
 10
338.5174949970497
 20
374.1415319062208
 30
0.0
 10
338.5375846794369
 20
374.0971381237474
 30
0.0
  0
SPLINE
  5
188
330
1F
100
AcDbEntity
  8
1
100
AcDbSpline
210
0.0
220
0.0
230
1.0
 70
     8
 71
     3
 72
    12
 73
     8
 74
     0
 42
0.000000001
 43
0.0000000001
 40
0.0
 40
0.0
 40
0.0
 40
0.0
 40
0.2499999999999996
 40
0.2499999999999996
 40
0.4999999999999998
 40
0.4999999999999998
 40
1.0
 40
1.0
 40
1.0
 40
1.0
 10
338.5375846794369
 20
374.0971381237474
 30
0.0
 10
338.5803619586146
 20
374.0026097389771
 30
0.0
 10
338.6263326547778
 20
373.9097338019044
 30
0.0
 10
338.7243229531387
 20
373.7267879738972
 30
0.0
 10
338.7763449691622
 20
373.6367219143689
 30
0.0
 10
338.9412215258791
 20
373.3703507776142
 30
0.0
 10
339.0628525840676
 20
373.1978268233788
 30
0.0
 10
339.1960522144495
 20
373.0301337588282
 30
0.0
  0
SPLINE
  5
189
330
1F
100
AcDbEntity
  8
1
100
AcDbSpline
210
0.0
220
0.0
230
1.0
 70
     8
 71
     3
 72
     8
 73
     4
 74
     0
 42
0.000000001
 43
0.0000000001
 40
0.0
 40
0.0
 40
0.0
 40
0.0
 40
1.0
 40
1.0
 40
1.0
 40
1.0
 10
328.1748486011854
 20
355.0401763466422
 30
0.0
 10
326.974832141769
 20
355.0917996760099
 30
0.0
 10
325.774831809178
 20
355.1437703809016
 30
0.0
 10
324.5748486011854
 20
355.1961099535752
 30
0.0
  0
SPLINE
  5
18A
330
1F
100
AcDbEntity
  8
1
100
AcDbSpline
210
0.0
220
0.0
230
1.0
 70
     8
 71
     3
 72
     8
 73
     4
 74
     0
 42
0.000000001
 43
0.0000000001
 40
0.0
 40
0.0
 40
0.0
 40
0.0
 40
1.0
 40
1.0
 40
1.0
 40
1.0
 10
324.5748486011854
 20
370.6083774342832
 30
0.0
 10
325.774831809178
 20
370.6607170069567
 30
0.0
 10
326.974832141769
 20
370.7126877118486
 30
0.0
 10
328.1748486011854
 20
370.7643110412162
 30
0.0
  0
SPLINE
  5
18B
330
1F
100
AcDbEntity
  8
1
100
AcDbSpline
210
0.0
220
0.0
230
1.0
 70
     8
 71
     3
 72
    32
 73
    28
 74
     0
 42
0.000000001
 43
0.0000000001
 40
0.0
 40
0.0
 40
0.0
 40
0.0
 40
0.1250000000000038
 40
0.1250000000000038
 40
0.2500000000000078
 40
0.2500000000000078
 40
0.3125000000000089
 40
0.3125000000000089
 40
0.3750000000000101
 40
0.3750000000000101
 40
0.5000000000000106
 40
0.5000000000000106
 40
0.6250000000000111
 40
0.6250000000000111
 40
0.6875000000000103
 40
0.6875000000000103
 40
0.7500000000000095
 40
0.7500000000000095
 40
0.8125000000000087
 40
0.8125000000000087
 40
0.8750000000000078
 40
0.8750000000000078
 40
0.906250000000006
 40
0.906250000000006
 40
0.9375000000000044
 40
0.9375000000000044
 40
1.0
 40
1.0
 40
1.0
 40
1.0
 10
324.1748486011854
 20
369.8704550895093
 30
0.0
 10
324.1748486011854
 20
369.9079699777653
 30
0.0
 10
324.1763103680534
 20
369.9453382234722
 30
0.0
 10
324.1822936900573
 20
370.0197734118694
 30
0.0
 10
324.1868128388894
 20
370.0568405175478
 30
0.0
 10
324.1961565826956
 20
370.1121974428507
 30
0.0
 10
324.1997006106122
 20
370.1306089937773
 30
0.0
 10
324.2077239159793
 20
370.1673454475725
 30
0.0
 10
324.2122120349196
 20
370.1857033654559
 30
0.0
 10
324.2271757806843
 20
370.2404112799417
 30
0.0
 10
324.2390475828797
 20
370.2761159505703
 30
0.0
 10
324.267389808986
 20
370.345694744249
 30
0.0
 10
324.2838327473963
 20
370.3795792143016
 30
0.0
 10
324.3131991945651
 20
370.4285668503902
 30
0.0
 10
324.3238047287014
 20
370.4445990190147
 30
0.0
 10
324.3464975170075
 20
370.4752633314817
 30
0.0
 10
324.3586246808022
 20
370.4899743384549
 30
0.0
 10
324.3847794115039
 20
370.5178920157858
 30
0.0
 10
324.398844608759
 20
370.5311381046147
 30
0.0
 10
324.4292671589369
 20
370.5555336496652
 30
0.0
 10
324.4453180676373
 20
370.566443014209
 30
0.0
 10
324.4709272648622
 20
370.5804610399254
 30
0.0
 10
324.4797205791784
 20
370.5847405062014
 30
0.0
 10
324.4978929351875
 20
370.5924038717784
 30
0.0
 10
324.5072539571044
 20
370.5957701922796
 30
0.0
 10
324.5355465573681
 20
370.6041321208857
 30
0.0
 10
324.5549109871592
 20
370.6075078169492
 30
0.0
 10
324.5748486011854
 20
370.6083774342832
 30
0.0
  0
SPLINE
  5
18C
330
1F
100
AcDbEntity
  8
1
100
AcDbSpline
210
0.0
220
0.0
230
1.0
 70
     8
 71
     3
 72
    33
 73
    29
 74
     0
 42
0.000000001
 43
0.0000000001
 40
0.0
 40
0.0
 40
0.0
 40
0.0
 40
0.1249999999999952
 40
0.1249999999999952
 40
0.2499999999999905
 40
0.2499999999999905
 40
0.3124999999999901
 40
0.3124999999999901
 40
0.3749999999999897
 40
0.3749999999999897
 40
0.4999999999999889
 40
0.4999999999999889
 40
0.5624999999999887
 40
0.5624999999999887
 40
0.6249999999999886
 40
0.6249999999999886
 40
0.7499999999999912
 40
0.7499999999999912
 40
0.8124999999999923
 40
0.8124999999999923
 40
0.8749999999999936
 40
0.8749999999999936
 40
0.9062499999999952
 40
0.9062499999999952
 40
0.9374999999999968
 40
0.9687499999999984
 40
0.9687499999999984
 40
1.0
 40
1.0
 40
1.0
 40
1.0
 10
324.1748486011854
 20
355.7269770622672
 30
0.0
 10
324.1748486011854
 20
355.6997185931724
 30
0.0
 10
324.1763094456987
 20
355.6726130449807
 30
0.0
 10
324.1823005329703
 20
355.6187084075933
 30
0.0
 10
324.1868281938049
 20
355.5919092637529
 30
0.0
 10
324.1962036509099
 20
355.5519451985413
 30
0.0
 10
324.1997614549962
 20
355.5386630013224
 30
0.0
 10
324.2078217402501
 20
355.5121785120556
 30
0.0
 10
324.2123279157726
 20
355.4989734994344
 30
0.0
 10
324.2272777406928
 20
355.4598299912892
 30
0.0
 10
324.2391625480149
 20
355.4342467897606
 30
0.0
 10
324.260560307033
 20
355.3967673785314
 30
0.0
 10
324.2683045698953
 20
355.3844067025409
 30
0.0
 10
324.2851398157521
 20
355.3600988896779
 30
0.0
 10
324.2941679297426
 20
355.3482396149844
 30
0.0
 10
324.3233359651412
 20
355.3136465889078
 30
0.0
 10
324.3454756659529
 20
355.2918615851731
 30
0.0
 10
324.3847295807878
 20
355.2619301768207
 30
0.0
 10
324.3989692183355
 20
355.2523527349226
 30
0.0
 10
324.4292276107409
 20
355.2349702268929
 30
0.0
 10
324.445280812479
 20
355.2271116311247
 30
0.0
 10
324.4711229390115
 20
355.2168954857275
 30
0.0
 10
324.4800356762193
 20
355.2137597405575
 30
0.0
 10
324.4980825063454
 20
355.208221675825
 30
0.0
 10
324.5164495152648
 20
355.2033748512085
 30
0.0
 10
324.5355007525011
 20
355.2000016829592
 30
0.0
 10
324.5549247518716
 20
355.1974300736472
 30
0.0
 10
324.5648742551982
 20
355.1965450038352
 30
0.0
 10
324.5748486011854
 20
355.1961099535752
 30
0.0
  0
SPLINE
  5
18D
330
1F
100
AcDbEntity
  8
1
100
AcDbSpline
210
0.0
220
0.0
230
1.0
 70
     8
 71
     3
 72
     8
 73
     4
 74
     0
 42
0.000000001
 43
0.0000000001
 40
0.0
 40
0.0
 40
0.0
 40
0.0
 40
1.0
 40
1.0
 40
1.0
 40
1.0
 10
338.6548903771586
 20
352.5189551236283
 30
0.0
 10
338.3438842088432
 20
352.200325826655
 30
0.0
 10
338.0324558719128
 20
351.8821286330072
 30
0.0
 10
337.7206813101017
 20
351.5642858117997
 30
0.0
  0
SPLINE
  5
18E
330
1F
100
AcDbEntity
  8
1
100
AcDbSpline
210
0.0
220
0.0
230
1.0
 70
     8
 71
     3
 72
    10
 73
     6
 74
     0
 42
0.000000001
 43
0.0000000001
 40
0.0
 40
0.0
 40
0.0
 40
0.0
 40
0.5
 40
0.5
 40
1.0
 40
1.0
 40
1.0
 40
1.0
 10
361.5197728289119
 20
356.3986233608694
 30
0.0
 10
361.5300350431301
 20
356.4107204954396
 30
0.0
 10
361.5389540267565
 20
356.423620110263
 30
0.0
 10
361.5538288545062
 20
356.4511845739007
 30
0.0
 10
361.5598058821029
 20
356.4659767765379
 30
0.0
 10
361.5637637982122
 20
356.4813119325638
 30
0.0
  0
SPLINE
  5
18F
330
1F
100
AcDbEntity
  8
1
100
AcDbSpline
210
0.0
220
0.0
230
1.0
 70
     8
 71
     3
 72
     8
 73
     4
 74
     0
 42
0.000000001
 43
0.0000000001
 40
0.0
 40
0.0
 40
0.0
 40
0.0
 40
1.0
 40
1.0
 40
1.0
 40
1.0
 10
361.5197728289193
 20
356.398623360872
 30
0.0
 10
361.5178983937674
 20
356.3964137700572
 30
0.0
 10
361.5160243352598
 20
356.3942043506325
 30
0.0
 10
361.5141506536864
 20
356.3919951025072
 30
0.0
  0
SPLINE
  5
190
330
1F
100
AcDbEntity
  8
1
100
AcDbSpline
210
0.0
220
0.0
230
1.0
 70
    12
 71
     2
 72
     6
 73
     3
 74
     0
 42
0.000000001
 43
0.0000000001
 40
0.0
 40
0.0
 40
0.0
 40
1.0
 40
1.0
 40
1.0
 10
349.8727961831855
 20
351.280181092838
 30
0.0
 41
0.5000000127635336
 10
349.8683541891506
 20
351.2803780321692
 30
0.0
 41
0.4999999872364664
 10
349.8639121762254
 20
351.2805778658412
 30
0.0
 41
0.5000000127635336
  0
SPLINE
  5
191
330
1F
100
AcDbEntity
  8
1
100
AcDbSpline
210
0.0
220
0.0
230
1.0
 70
     8
 71
     3
 72
    31
 73
    27
 74
     0
 42
0.000000001
 43
0.0000000001
 40
0.0
 40
0.0
 40
0.0
 40
0.0
 40
0.1250000000000067
 40
0.1250000000000067
 40
0.2500000000000134
 40
0.2500000000000134
 40
0.3125000000000166
 40
0.3125000000000166
 40
0.3437500000000183
 40
0.3593750000000185
 40
0.3593750000000185
 40
0.3750000000000188
 40
0.3750000000000188
 40
0.5000000000000166
 40
0.5000000000000166
 40
0.6250000000000142
 40
0.6250000000000142
 40
0.6875000000000132
 40
0.6875000000000132
 40
0.7187500000000126
 40
0.7343750000000116
 40
0.7343750000000116
 40
0.7500000000000105
 40
0.7500000000000105
 40
0.8750000000000053
 40
1.0
 40
1.0
 40
1.0
 40
1.0
 10
361.5141506536864
 20
356.3919951025072
 30
0.0
 10
361.1547386873053
 20
355.968212619443
 30
0.0
 10
360.774979354336
 20
355.5690047900997
 30
0.0
 10
359.9761851479288
 20
354.8180244332542
 30
0.0
 10
359.5571461518899
 20
354.4662568847791
 30
0.0
 10
358.8990410340242
 20
353.9742907222221
 30
0.0
 10
358.6747367426877
 20
353.8162633948068
 30
0.0
 10
358.3307589046083
 20
353.5883064359946
 30
0.0
 10
358.1568884875234
 20
353.4766003509011
 30
0.0
 10
357.9801629605833
 20
353.3683425480888
 30
0.0
 10
357.8617070326744
 20
353.2969423283204
 30
0.0
 10
357.8021511689783
 20
353.2616241878344
 30
0.0
 10
357.2649974346562
 20
352.9482562473527
 30
0.0
 10
356.776346184836
 20
352.6997222702417
 30
0.0
 10
355.7774527507222
 20
352.2606136913946
 30
0.0
 10
355.2672083533149
 20
352.0700450304821
 30
0.0
 10
354.4855931417618
 20
351.8278103592066
 30
0.0
 10
354.2223403230297
 20
351.7543521336525
 30
0.0
 10
353.8233240558859
 20
351.6552704024953
 30
0.0
 10
353.6227810305909
 20
351.6085076351598
 30
0.0
 10
353.4206674381928
 20
351.5659609515972
 30
0.0
 10
353.2855735676812
 20
351.5385400089394
 30
0.0
 10
353.2178655330942
 20
351.5253050625531
 30
0.0
 10
352.6085715885543
 20
351.410762427352
 30
0.0
 10
351.5207092485937
 20
351.2707500709684
 30
0.0
 10
350.4236636115587
 20
351.2557579481788
 30
0.0
 10
349.8727961831854
 20
351.280181092838
 30
0.0
  0
SPLINE
  5
192
330
1F
100
AcDbEntity
  8
1
100
AcDbSpline
210
0.0
220
0.0
230
1.0
 70
     8
 71
     3
 72
    12
 73
     8
 74
     0
 42
0.000000001
 43
0.0000000001
 40
0.0
 40
0.0
 40
0.0
 40
0.0
 40
0.499999999999997
 40
0.499999999999997
 40
0.7499999999999984
 40
0.7499999999999984
 40
1.0
 40
1.0
 40
1.0
 40
1.0
 10
366.9825938616297
 20
367.1534329531707
 30
0.0
 10
366.9837525994854
 20
367.1362814282783
 30
0.0
 10
366.9841374433989
 20
367.1195109205947
 30
0.0
 10
366.9836020620565
 20
367.0949051340021
 30
0.0
 10
366.9832319810454
 20
367.0867527192736
 30
0.0
 10
366.9821211247217
 20
367.0709312506511
 30
0.0
 10
366.9813825213848
 20
367.063248681745
 30
0.0
 10
366.9804611135113
 20
367.0557951033643
 30
0.0
  0
SPLINE
  5
193
330
1F
100
AcDbEntity
  8
1
100
AcDbSpline
210
0.0
220
0.0
230
1.0
 70
     8
 71
     3
 72
    10
 73
     6
 74
     0
 42
0.000000001
 43
0.0000000001
 40
0.0
 40
0.0
 40
0.0
 40
0.0
 40
0.5
 40
0.5
 40
1.0
 40
1.0
 40
1.0
 40
1.0
 10
366.6248373668641
 20
369.6870715907409
 30
0.0
 10
366.6391025698477
 20
369.6269055031767
 30
0.0
 10
366.6526332013649
 20
369.566656637959
 30
0.0
 10
366.6783816172368
 20
369.4459952340289
 30
0.0
 10
366.690598212541
 20
369.3855826821133
 30
0.0
 10
366.702200940446
 20
369.3250888201476
 30
0.0
  0
SPLINE
  5
194
330
1F
100
AcDbEntity
  8
1
100
AcDbSpline
210
0.0
220
0.0
230
1.0
 70
     8
 71
     3
 72
     8
 73
     4
 74
     0
 42
0.000000001
 43
0.0000000001
 40
0.0
 40
0.0
 40
0.0
 40
0.0
 40
1.0
 40
1.0
 40
1.0
 40
1.0
 10
361.6421772203739
 20
356.7576310192418
 30
0.0
 10
361.6136210455222
 20
356.6658720201528
 30
0.0
 10
361.5875831329729
 20
356.5736012092768
 30
0.0
 10
361.5637637982129
 20
356.4813119325665
 30
0.0
  0
SPLINE
  5
195
330
1F
100
AcDbEntity
  8
1
100
AcDbSpline
210
0.0
220
0.0
230
1.0
 70
     8
 71
     3
 72
    10
 73
     6
 74
     0
 42
0.000000001
 43
0.0000000001
 40
0.0
 40
0.0
 40
0.0
 40
0.0
 40
0.5
 40
0.5
 40
1.0
 40
1.0
 40
1.0
 40
1.0
 10
363.018493429448
 20
361.2766291276457
 30
0.0
 10
363.0143372574474
 20
361.2898604946237
 30
0.0
 10
363.0094445619843
 20
361.3027377930554
 30
0.0
 10
362.9981970929875
 20
361.3277869905328
 30
0.0
 10
362.9917917083815
 20
361.3400161024224
 30
0.0
 10
362.9848469124878
 20
361.3514274527352
 30
0.0
  0
SPLINE
  5
196
330
1F
100
AcDbEntity
  8
1
100
AcDbSpline
210
0.0
220
0.0
230
1.0
 70
     8
 71
     3
 72
    10
 73
     6
 74
     0
 42
0.000000001
 43
0.0000000001
 40
0.0
 40
0.0
 40
0.0
 40
0.0
 40
0.5
 40
0.5
 40
1.0
 40
1.0
 40
1.0
 40
1.0
 10
361.1975167879688
 20
356.6358964793417
 30
0.0
 10
361.2240249572078
 20
356.6674959889428
 30
0.0
 10
361.2474093445076
 20
356.701786424928
 30
0.0
 10
361.2870147948406
 20
356.7743991751901
 30
0.0
 10
361.3032347178518
 20
356.8127195751806
 30
0.0
 10
361.3155507758416
 20
356.8523006052658
 30
0.0
  0
LINE
  5
197
330
1F
100
AcDbEntity
  8
SK4
100
AcDbLine
 10
296.174849
 20
366.008072
 30
0.0
 11
325.674849
 21
366.008072
 31
0.0
  0
LINE
  5
198
330
1F
100
AcDbEntity
  8
4
100
AcDbLine
 10
320.174849
 20
366.008072
 30
0.0
 11
373.294849
 21
366.008072
 31
0.0
  0
MTEXT
  5
1A1
330
1F
100
AcDbEntity
  8
SK6
100
AcDbMText
 10
306.93896
 20
338.718141
 30
0.0
 40
3.5
 41
0.0
 71
     7
 72
     5
  1
\W0.7294;32L2R045M16-SZP32-C
  7
cesky
 73
     2
 44
0.8433729999999998
  0
MTEXT
  5
312
330
1F
100
AcDbEntity
  8
2
100
AcDbMText
 10
348.446017
 20
384.484178
 30
0.0
 40
3.5
 41
0.0
 71
     7
 72
     5
  1
\W0.8594;27,9
  7
cesky
 73
     2
 44
0.8433729999999998
  0
LINE
  5
313
330
1F
100
AcDbEntity
  8
2
100
AcDbLine
 10
367.174849
 20
383.508075
 30
0.0
 11
367.174849
 21
385.610012
 31
0.0
  0
LINE
  5
314
330
1F
100
AcDbEntity
  8
2
100
AcDbLine
 10
338.396186
 20
381.148146
 30
0.0
 11
338.396186
 21
385.610012
 31
0.0
  0
LINE
  5
315
330
1F
100
AcDbEntity
  8
2
100
AcDbLine
 10
367.174849
 20
384.610012
 30
0.0
 11
338.396186
 21
384.610012
 31
0.0
  0
SOLID
  5
316
330
1F
100
AcDbEntity
  8
2
100
AcDbTrace
 10
367.174849
 20
384.610012
 30
0.0
 11
363.674851
 21
383.992867
 31
0.0
 12
363.674846
 22
385.227156
 32
0.0
 13
363.674846
 23
385.227156
 33
0.0
  0
SOLID
  5
317
330
1F
100
AcDbEntity
  8
2
100
AcDbTrace
 10
338.396186
 20
384.610012
 30
0.0
 11
341.896184
 21
385.227156
 31
0.0
 12
341.896188
 22
383.992867
 32
0.0
 13
341.896188
 23
383.992867
 33
0.0
  0
MTEXT
  5
318
330
1F
100
AcDbEntity
  8
2
100
AcDbMText
 10
342.860349
 20
391.67585
 30
0.0
 40
3.5
 41
0.0
 71
     7
 72
     5
  1
\W0.7045;45
  7
cesky
 73
     2
 44
0.8433729999999998
  0
LINE
  5
319
330
1F
100
AcDbEntity
  8
2
100
AcDbLine
 10
367.174849
 20
383.508075
 30
0.0
 11
367.174849
 21
392.801684
 31
0.0
  0
LINE
  5
31A
330
1F
100
AcDbEntity
  8
2
100
AcDbLine
 10
322.174849
 20
366.008075
 30
0.0
 11
322.174849
 21
392.801684
 31
0.0
  0
LINE
  5
31B
330
1F
100
AcDbEntity
  8
2
100
AcDbLine
 10
367.174849
 20
391.801684
 30
0.0
 11
322.174849
 21
391.801684
 31
0.0
  0
SOLID
  5
31C
330
1F
100
AcDbEntity
  8
2
100
AcDbTrace
 10
367.174849
 20
391.801684
 30
0.0
 11
363.674851
 21
391.184539
 31
0.0
 12
363.674846
 22
392.418828
 32
0.0
 13
363.674846
 23
392.418828
 33
0.0
  0
SOLID
  5
31D
330
1F
100
AcDbEntity
  8
2
100
AcDbTrace
 10
322.174849
 20
391.801684
 30
0.0
 11
325.674846
 21
392.418828
 31
0.0
 12
325.674851
 22
391.184539
 32
0.0
 13
325.674851
 23
391.184539
 33
0.0
  0
MTEXT
  5
31E
330
1F
100
AcDbEntity
  8
2
100
AcDbMText
 10
382.321535
 20
365.402358
 30
0.0
 40
3.5
 41
0.0
 71
     7
 72
     5
  1
\W0.7045;32
  7
cesky
 11
0.0000000000000001
 21
1.0
 31
0.0
 73
     2
 44
0.8433729999999998
  0
MTEXT
  5
31F
330
1F
100
AcDbEntity
  8
2
100
AcDbMText
 10
382.321535
 20
358.664858
 30
0.0
 40
3.5
 41
0.0
 71
     7
 72
     5
  1
\W3.0115;\H2.63;%%c\H3.50;
  7
cesky
 11
0.0000000000000001
 21
1.0
 31
0.0
 73
     2
 44
0.8433729999999998
  0
LINE
  5
320
330
1F
100
AcDbEntity
  8
2
100
AcDbLine
 10
368.674849
 20
382.008075
 30
0.0
 11
383.508952
 21
382.008075
 31
0.0
  0
LINE
  5
321
330
1F
100
AcDbEntity
  8
2
100
AcDbLine
 10
382.508952
 20
382.008075
 30
0.0
 11
382.508952
 21
358.507358
 31
0.0
  0
SOLID
  5
322
330
1F
100
AcDbEntity
  8
2
100
AcDbTrace
 10
382.508952
 20
382.008075
 30
0.0
 11
383.126096
 21
378.508077
 31
0.0
 12
381.891807
 22
378.508073
 32
0.0
 13
381.891807
 23
378.508073
 33
0.0
  0
MTEXT
  5
323
330
1F
100
AcDbEntity
  8
SK2
100
AcDbMText
 10
330.860349
 20
401.098582
 30
0.0
 40
3.5
 41
0.0
 71
     7
 72
     5
  1
\W0.7259;69
  7
cesky
 73
     2
 44
0.8433729999999998
  0
LINE
  5
324
330
1F
100
AcDbEntity
  8
SK2
100
AcDbLine
 10
367.174849
 20
383.508075
 30
0.0
 11
367.174849
 21
402.2244149999999
 31
0.0
  0
LINE
  5
325
330
1F
100
AcDbEntity
  8
SK2
100
AcDbLine
 10
298.174849
 20
372.008072
 30
0.0
 11
298.174849
 21
402.2244149999999
 31
0.0
  0
LINE
  5
326
330
1F
100
AcDbEntity
  8
SK2
100
AcDbLine
 10
367.174849
 20
401.2244149999999
 30
0.0
 11
298.174849
 21
401.2244149999999
 31
0.0
  0
SOLID
  5
327
330
1F
100
AcDbEntity
  8
SK2
100
AcDbTrace
 10
367.174849
 20
401.2244149999999
 30
0.0
 11
363.674851
 21
400.6072709999999
 31
0.0
 12
363.674846
 22
401.8415599999999
 32
0.0
 13
363.674846
 23
401.8415599999999
 33
0.0
  0
SOLID
  5
328
330
1F
100
AcDbEntity
  8
SK2
100
AcDbTrace
 10
298.174849
 20
401.2244149999999
 30
0.0
 11
301.674846
 21
401.8415599999999
 31
0.0
 12
301.674851
 22
400.6072709999999
 32
0.0
 13
301.674851
 23
400.6072709999999
 33
0.0
  0
MTEXT
  5
329
330
1F
100
AcDbEntity
  8
SK2
100
AcDbMText
 10
279.50008
 20
362.553072
 30
0.0
 40
3.5
 41
0.0
 71
     7
 72
     5
  1
\W0.5332;M
  7
cesky
 11
0.0000000000000001
 21
1.0
 31
0.0
 73
     2
 44
0.8433729999999998
  0
MTEXT
  5
32A
330
1F
100
AcDbEntity
  8
SK2
100
AcDbMText
 10
279.50008
 20
365.778072
 30
0.0
 40
3.5
 41
0.0
 71
     7
 72
     5
  1
\W0.8260;16
  7
cesky
 11
0.0000000000000001
 21
1.0
 31
0.0
 73
     2
 44
0.8433729999999998
  0
LINE
  5
32B
330
1F
100
AcDbEntity
  8
SK2
100
AcDbLine
 10
300.174849
 20
374.008072
 30
0.0
 11
278.031247
 21
374.008072
 31
0.0
  0
LINE
  5
32C
330
1F
100
AcDbEntity
  8
SK2
100
AcDbLine
 10
300.174849
 20
358.008072
 30
0.0
 11
278.031247
 21
358.008072
 31
0.0
  0
LINE
  5
32D
330
1F
100
AcDbEntity
  8
SK2
100
AcDbLine
 10
279.031247
 20
382.758072
 30
0.0
 11
279.031247
 21
349.258072
 31
0.0
  0
SOLID
  5
32E
330
1F
100
AcDbEntity
  8
SK2
100
AcDbTrace
 10
279.031247
 20
374.008072
 30
0.0
 11
278.414102
 21
377.50807
 31
0.0
 12
279.648391
 22
377.508074
 32
0.0
 13
279.648391
 23
377.508074
 33
0.0
  0
SOLID
  5
32F
330
1F
100
AcDbEntity
  8
SK2
100
AcDbTrace
 10
279.031247
 20
358.008072
 30
0.0
 11
279.648391
 21
354.508074
 31
0.0
 12
278.414102
 22
354.50807
 32
0.0
 13
278.414102
 23
354.50807
 33
0.0
  0
MTEXT
  5
330
330
1F
100
AcDbEntity
  8
SK2
100
AcDbMText
 10
319.799148
 20
387.452565
 30
0.0
 40
3.5
 41
0.0
 71
     7
 72
     5
  1
\W0.7984;17
  7
cesky
 11
0.0000000000000001
 21
1.0
 31
0.0
 73
     2
 44
0.8433729999999998
  0
MTEXT
  5
331
330
1F
100
AcDbEntity
  8
SK2
100
AcDbMText
 10
319.799148
 20
380.715065
 30
0.0
 40
3.5
 41
0.0
 71
     7
 72
     5
  1
\W3.0115;\H2.63;%%c\H3.50;
  7
cesky
 11
0.0000000000000001
 21
1.0
 31
0.0
 73
     2
 44
0.8433729999999998
  0
LINE
  5
332
330
1F
100
AcDbEntity
  8
SK2
100
AcDbLine
 10
320.174849
 20
374.508072
 30
0.0
 11
320.986565
 21
374.508072
 31
0.0
  0
LINE
  5
333
330
1F
100
AcDbEntity
  8
SK2
100
AcDbLine
 10
319.986565
 20
357.508072
 30
0.0
 11
319.986565
 21
391.2950649999999
 31
0.0
  0
SOLID
  5
334
330
1F
100
AcDbEntity
  8
SK2
100
AcDbTrace
 10
319.986565
 20
374.508072
 30
0.0
 11
320.603709
 21
371.008074
 31
0.0
 12
319.36942
 22
371.00807
 32
0.0
 13
319.36942
 23
371.00807
 33
0.0
  0
SOLID
  5
335
330
1F
100
AcDbEntity
  8
SK2
100
AcDbTrace
 10
319.986565
 20
357.508072
 30
0.0
 11
319.36942
 21
361.0080700000001
 31
0.0
 12
320.603709
 22
361.008074
 32
0.0
 13
320.603709
 23
361.008074
 33
0.0
  0
ELLIPSE
  5
338
330
1F
100
AcDbEntity
  8
CUT
100
AcDbEllipse
 10
352.004292
 20
382.761995
 30
0.0
 11
0.0
 21
15.71753173807484
 31
0.0
210
0.0
220
0.0
230
1.0
 40
0.9848079999999999
 41
1.800345436636396
 42
3.028787724519246
  0
ELLIPSE
  5
339
330
1F
100
AcDbEntity
  8
CUT
100
AcDbEllipse
 10
364.316953
 20
365.555445
 30
0.0
 11
-0.3045078164606834
 21
0.0347924548231711
 31
0.0
210
0.0
220
0.0
230
0.9999999999999998
 40
0.090381
 41
1.562327812612658
 42
2.173193050814756
  0
ELLIPSE
  5
33A
330
1F
100
AcDbEntity
  8
CUT
100
AcDbEllipse
 10
365.33181
 20
367.625814
 30
0.0
 11
-0.9530240912821344
 21
-1.9746311795334
 31
0.0
210
0.0
220
0.0
230
1.0
 40
0.87482
 41
0.3524186280543307
 42
1.428263479848689
  0
ELLIPSE
  5
33B
330
1F
100
AcDbEntity
  8
CUT
100
AcDbEllipse
 10
351.7154290000001
 20
367.558109
 30
0.0
 11
-7.441250473719892
 21
-15.41799614757404
 31
0.0
210
0.0
220
0.0
230
1.0
 40
0.87482
 41
1.908242425844354
 42
1.940289666741911
  0
ELLIPSE
  5
33C
330
1F
100
AcDbEntity
  8
CUT
100
AcDbEllipse
 10
351.666708
 20
365.975659
 30
0.0
 11
-0.228744778946003
 21
16.63348562909678
 31
0.0
210
0.0
220
0.0
230
1.0
 40
0.9231469999999999
 41
4.770555484125843
 42
4.902430917563802
  0
ELLIPSE
  5
33D
330
1F
100
AcDbEntity
  8
CUT
100
AcDbEllipse
 10
351.576081
 20
366.008122
 30
0.0
 11
0.0
 21
15.71753173807485
 31
0.0
210
0.0
220
0.0
230
1.0
 40
0.9848079999999999
 41
4.948647410035441
 42
6.327460010788527
  0
ELLIPSE
  5
33E
330
1F
100
AcDbEntity
  8
CUT
100
AcDbEllipse
 10
338.465927
 20
379.549714
 30
0.0
 11
0.0
 21
1.60000000000001
 31
0.0
210
0.0
220
0.0
230
1.0
 40
0.9848079999999999
 41
0.0442747036089437
 42
1.800345436636396
  0
LINE
  5
33F
330
1F
100
AcDbEntity
  8
CUT
100
AcDbLine
 10
350.261913
 20
367.14436
 30
0.0
 11
364.31123
 21
365.528219
 31
0.0
  0
LINE
  5
340
330
1F
100
AcDbEntity
  8
CUT
100
AcDbLine
 10
364.486902
 20
365.513053
 30
0.0
 11
365.033619
 21
365.484767
 31
0.0
  0
LINE
  5
341
330
1F
100
AcDbEntity
  8
CUT
100
AcDbLine
 10
350.890988
 20
381.710251
 30
0.0
 11
338.396186
 21
381.148146
 31
0.0
  0
ARC
  5
342
330
1F
100
AcDbEntity
  8
CUT
100
AcDbCircle
 10
366.5235106827017
 20
367.1114797918006
 30
0.0
 40
0.4603308383579651
100
AcDbArc
 50
353.0521049003829
 51
358.1737579529972
  0
ARC
  5
343
330
1F
100
AcDbEntity
  8
CUT
100
AcDbCircle
 10
366.425590334596
 20
367.115139070919
 30
0.0
 40
0.5583183236701476
100
AcDbArc
 50
358.1186661160684
 51
3.93288498664933
  0
LINE
  5
344
330
1F
100
AcDbEntity
  8
CUT
100
AcDbLine
 10
366.702200940446
 20
369.3250888201476
 30
0.0
 11
366.702200940446
 21
369.3250888201476
 31
0.0
  0
ARC
  5
345
330
1F
100
AcDbEntity
  8
CUT
100
AcDbCircle
 10
358.1910732683837
 20
367.695334656451
 30
0.0
 40
8.665759798438443
100
AcDbArc
 50
10.84007011020203
 51
13.28764324813166
  0
ENDSEC
  0
SECTION
  2
OBJECTS
  0
DICTIONARY
  5
C
330
0
100
AcDbDictionary
281
     1
  3
ACAD_CIP_PREVIOUS_PRODUCT_INFO
350
295
  3
ACAD_COLOR
350
28F
  3
ACAD_DETAILVIEWSTYLE
350
28B
  3
ACAD_FIELDLIST
350
2FF
  3
ACAD_GROUP
350
D
  3
ACAD_IMAGE_DICT
350
F7
  3
ACAD_IMAGE_VARS
350
294
  3
ACAD_LAYOUT
350
1A
  3
ACAD_MATERIAL
350
43
  3
ACAD_MLEADERSTYLE
350
6B
  3
ACAD_MLINESTYLE
350
17
  3
ACAD_PLOTSETTINGS
350
19
  3
ACAD_PLOTSTYLENAME
350
E
  3
ACAD_SCALELIST
350
47
  3
ACAD_SECTIONVIEWSTYLE
350
28C
  3
ACAD_TABLESTYLE
350
69
  3
ACAD_VISUALSTYLE
350
2A
  3
ACDB_RECOMPOSE_DATA
350
372
  3
AcDbVariableDictionary
350
248
  3
AcmDictionary
350
2C1
  3
AMG
350
296
  3
AMGSNAPSETTINGS
350
309
  0
DICTIONARY
  5
354
330
10
100
AcDbDictionary
280
     1
281
     1
  3
ADSK_XREC_LAYER_RECONCILED
360
355
  0
DICTIONARY
  5
356
330
76
100
AcDbDictionary
280
     1
281
     1
  3
ADSK_XREC_LAYER_RECONCILED
360
357
  0
DICTIONARY
  5
358
330
346
100
AcDbDictionary
280
     1
281
     1
  3
ADSK_XREC_LAYER_RECONCILED
360
359
  0
DICTIONARY
  5
35A
330
347
100
AcDbDictionary
280
     1
281
     1
  3
ADSK_XREC_LAYER_RECONCILED
360
35B
  0
DICTIONARY
  5
35C
330
348
100
AcDbDictionary
280
     1
281
     1
  3
ADSK_XREC_LAYER_RECONCILED
360
35D
  0
DICTIONARY
  5
35E
330
34A
100
AcDbDictionary
280
     1
281
     1
  3
ADSK_XREC_LAYER_RECONCILED
360
35F
  0
DICTIONARY
  5
360
330
34B
100
AcDbDictionary
280
     1
281
     1
  3
ADSK_XREC_LAYER_RECONCILED
360
361
  0
DICTIONARY
  5
362
330
34D
100
AcDbDictionary
280
     1
281
     1
  3
ADSK_XREC_LAYER_RECONCILED
360
363
  0
DICTIONARY
  5
364
330
34E
100
AcDbDictionary
280
     1
281
     1
  3
ADSK_XREC_LAYER_RECONCILED
360
365
  0
DICTIONARY
  5
366
330
34F
100
AcDbDictionary
280
     1
281
     1
  3
ADSK_XREC_LAYER_RECONCILED
360
367
  0
DICTIONARY
  5
368
330
350
100
AcDbDictionary
280
     1
281
     1
  3
ADSK_XREC_LAYER_RECONCILED
360
369
  0
DICTIONARY
  5
36A
330
351
100
AcDbDictionary
280
     1
281
     1
  3
ADSK_XREC_LAYER_RECONCILED
360
36B
  0
DICTIONARY
  5
36C
330
352
100
AcDbDictionary
280
     1
281
     1
  3
ADSK_XREC_LAYER_RECONCILED
360
36D
  0
DICTIONARY
  5
310
330
1F
100
AcDbDictionary
280
     1
281
     1
  3
ACAD_SORTENTS
360
311
  0
XRECORD
  5
295
102
{ACAD_REACTORS
330
C
102
}
330
C
100
AcDbXrecord
280
     1
300
AMECH_PP
300
2019
300
87089AMECH_PP_2019_0F
  0
DICTIONARY
  5
28F
102
{ACAD_REACTORS
330
C
102
}
330
C
100
AcDbDictionary
281
     1
  0
DICTIONARY
  5
28B
102
{ACAD_REACTORS
330
C
102
}
330
C
100
AcDbDictionary
281
     1
  3
Metric50
350
291
  0
FIELDLIST
  5
2FF
102
{ACAD_REACTORS
330
C
102
}
330
C
100
AcDbIdSet
 90
        3
330
2FD
330
2FE
330
300
100
AcDbFieldList
  0
DICTIONARY
  5
D
102
{ACAD_REACTORS
330
C
102
}
330
C
100
AcDbDictionary
281
     1
  3
NULOVY_BOD
350
353
  0
DICTIONARY
  5
F7
102
{ACAD_REACTORS
330
C
102
}
330
C
100
AcDbDictionary
281
     1
  3
32L2R045M16-SZP32-C_115009710ndi000_00-2D_DormerPramet_jpg
350
F8
  0
RASTERVARIABLES
  5
294
102
{ACAD_REACTORS
330
C
102
}
330
C
100
AcDbRasterVariables
 90
        0
 70
     1
 71
     1
 72
     1
  0
DICTIONARY
  5
1A
102
{ACAD_REACTORS
330
C
102
}
330
C
100
AcDbDictionary
281
     1
  3
Layout1
350
1E
  3
Layout2
350
26
  3
Model
350
22
  0
DICTIONARY
  5
43
102
{ACAD_REACTORS
330
C
102
}
330
C
100
AcDbDictionary
281
     1
  3
ByBlock
350
45
  3
ByLayer
350
44
  3
Global
350
46
  0
DICTIONARY
  5
6B
102
{ACAD_REACTORS
330
C
102
}
330
C
100
AcDbDictionary
281
     1
  3
Standard
350
6C
  0
DICTIONARY
  5
17
102
{ACAD_REACTORS
330
C
102
}
330
C
100
AcDbDictionary
281
     1
  3
Standard
350
18
  0
DICTIONARY
  5
19
102
{ACAD_REACTORS
330
C
102
}
330
C
100
AcDbDictionary
281
     1
  0
ACDBDICTIONARYWDFLT
  5
E
102
{ACAD_REACTORS
330
C
102
}
330
C
100
AcDbDictionary
281
     1
  3
Normal
350
F
100
AcDbDictionaryWithDefault
340
F
  0
DICTIONARY
  5
47
102
{ACAD_REACTORS
330
C
102
}
330
C
100
AcDbDictionary
281
     1
  3
A0
350
48
  3
A1
350
49
  3
A2
350
4A
  3
A3
350
4B
  3
A4
350
4C
  3
A5
350
4D
  3
A6
350
4E
  3
A7
350
4F
  3
A8
350
50
  3
A9
350
51
  3
B0
350
52
  3
B1
350
53
  3
B2
350
54
  3
B3
350
55
  3
B4
350
56
  3
B5
350
57
  3
B6
350
58
  3
B7
350
59
  3
B8
350
5A
  3
B9
350
5B
  3
C0
350
5C
  3
C1
350
5D
  3
C2
350
5E
  3
C3
350
5F
  3
C4
350
60
  3
C5
350
61
  3
C6
350
62
  3
C7
350
63
  3
C8
350
64
  3
C9
350
65
  3
D0
350
66
  3
D1
350
67
  3
D2
350
68
  0
DICTIONARY
  5
28C
102
{ACAD_REACTORS
330
C
102
}
330
C
100
AcDbDictionary
281
     1
  3
Metric50
350
290
  0
DICTIONARY
  5
69
102
{ACAD_REACTORS
330
C
102
}
330
C
100
AcDbDictionary
281
     1
  3
Standard
350
6A
  0
DICTIONARY
  5
2A
102
{ACAD_REACTORS
330
C
102
}
330
C
100
AcDbDictionary
281
     1
  3
2dWireframe
350
2F
  3
Basic
350
32
  3
Brighten
350
36
  3
ColorChange
350
3A
  3
Conceptual
350
34
  3
Dim
350
35
  3
EdgeColorOff
350
3D
  3
Facepattern
350
39
  3
Flat
350
2B
  3
FlatWithEdges
350
2C
  3
Gouraud
350
2D
  3
GouraudWithEdges
350
2E
  3
Hidden
350
31
  3
JitterOff
350
3B
  3
Linepattern
350
38
  3
OverhangOff
350
3C
  3
Realistic
350
33
  3
Shaded
350
42
  3
Shaded with edges
350
41
  3
Shades of Gray
350
3E
  3
Sketchy
350
3F
  3
Thicken
350
37
  3
Wireframe
350
30
  3
X-Ray
350
40
  0
XRECORD
  5
372
102
{ACAD_REACTORS
330
C
102
}
330
C
100
AcDbXrecord
280
     1
 90
        1
330
6A
  0
DICTIONARY
  5
248
102
{ACAD_REACTORS
330
C
102
}
330
C
100
AcDbDictionary
281
     1
  3
CANNOSCALE
350
249
  3
CMLEADERSTYLE
350
28A
  3
CTABLESTYLE
350
289
  3
CVIEWDETAILSTYLE
350
36E
  3
CVIEWSECTIONSTYLE
350
36F
  3
MSLTSCALE
350
24A
  3
XCLIPFRAME
350
370
  0
DICTIONARY
  5
2C1
102
{ACAD_REACTORS
330
C
102
}
330
C
100
AcDbDictionary
281
     1
  3
AcmStdDictionary
350
2C8
  0
DICTIONARY
  5
296
102
{ACAD_REACTORS
330
C
102
}
330
C
100
AcDbDictionary
281
     1
  0
DICTIONARY
  5
309
102
{ACAD_REACTORS
330
C
102
}
330
C
100
AcDbDictionary
281
     1
  0
XRECORD
  5
355
102
{ACAD_REACTORS
330
354
102
}
330
354
100
AcDbXrecord
280
     1
290
     1
  0
XRECORD
  5
357
102
{ACAD_REACTORS
330
356
102
}
330
356
100
AcDbXrecord
280
     1
290
     1
  0
XRECORD
  5
359
102
{ACAD_REACTORS
330
358
102
}
330
358
100
AcDbXrecord
280
     1
290
     1
  0
XRECORD
  5
35B
102
{ACAD_REACTORS
330
35A
102
}
330
35A
100
AcDbXrecord
280
     1
290
     1
  0
XRECORD
  5
35D
102
{ACAD_REACTORS
330
35C
102
}
330
35C
100
AcDbXrecord
280
     1
290
     1
  0
XRECORD
  5
35F
102
{ACAD_REACTORS
330
35E
102
}
330
35E
100
AcDbXrecord
280
     1
290
     1
  0
XRECORD
  5
361
102
{ACAD_REACTORS
330
360
102
}
330
360
100
AcDbXrecord
280
     1
290
     1
  0
XRECORD
  5
363
102
{ACAD_REACTORS
330
362
102
}
330
362
100
AcDbXrecord
280
     1
290
     1
  0
XRECORD
  5
365
102
{ACAD_REACTORS
330
364
102
}
330
364
100
AcDbXrecord
280
     1
290
     1
  0
XRECORD
  5
367
102
{ACAD_REACTORS
330
366
102
}
330
366
100
AcDbXrecord
280
     1
290
     1
  0
XRECORD
  5
369
102
{ACAD_REACTORS
330
368
102
}
330
368
100
AcDbXrecord
280
     1
290
     1
  0
XRECORD
  5
36B
102
{ACAD_REACTORS
330
36A
102
}
330
36A
100
AcDbXrecord
280
     1
290
     1
  0
XRECORD
  5
36D
102
{ACAD_REACTORS
330
36C
102
}
330
36C
100
AcDbXrecord
280
     1
290
     1
  0
SORTENTSTABLE
  5
311
102
{ACAD_REACTORS
330
310
102
}
330
310
100
AcDbSortentsTable
330
1F
331
312
  5
1BC
331
313
  5
1EC
331
314
  5
21B
331
315
  5
312
331
316
  5
313
331
317
  5
314
331
318
  5
31D
331
319
  5
31E
331
31A
  5
31F
331
31B
  5
320
331
31C
  5
321
331
31D
  5
323
331
31E
  5
32B
331
31F
  5
32C
331
320
  5
32D
331
321
  5
32E
331
322
  5
32F
331
323
  5
316
331
324
  5
317
331
325
  5
318
331
326
  5
319
331
327
  5
31A
331
328
  5
31B
331
329
  5
324
331
32A
  5
325
331
32B
  5
326
331
32C
  5
327
331
32D
  5
328
331
32E
  5
329
331
32F
  5
32A
331
33F
  5
343
331
340
  5
344
331
341
  5
345
331
342
  5
33F
331
343
  5
340
331
344
  5
341
331
345
  5
342
  0
ACDBDETAILVIEWSTYLE
  5
291
102
{ACAD_XDICTIONARY
360
3A6
102
}
102
{ACAD_REACTORS
330
28B
330
2F3
102
}
330
28B
100
AcDbModelDocViewStyle
 70
     0
  3
Metric50
290
     0
100
AcDbDetailViewStyle
 70
     0
 71
     0
 90
        3
 71
     1
340
11
 62
   256
 40
5.0
340
0
 62
   256
 40
5.0
300

 40
0.0
280
     1
 71
     2
340
16
 90
       25
 62
   256
 71
     3
340
11
 62
   256
 40
5.0
 90
        0
 40
15.0
 90
        1
300
%<\AcVar ViewDetailId>% (%<\AcVar ViewScale \f "%sn">%)
 71
     4
340
16
 90
       25
 62
   256
340
16
 90
       25
 62
   256
280
     0
  0
GROUP
  5
353
102
{ACAD_REACTORS
330
D
102
}
330
D
100
AcDbGroup
300

 70
     0
 71
     1
340
73
  0
IMAGEDEF
  5
F8
102
{ACAD_REACTORS
330
F7
330
FB
102
}
330
F7
100
AcDbRasterImageDef
 90
        0
  1
R:\Katalog\Data\ZP\32L2R045M16-SZP32-C\32L2R045M16-SZP32-C_115009710ndi000_00-2D_DormerPramet.jpg
 10
2089.0
 20
531.0
 11
0.0004786979415989
 21
0.0004786979415989
280
     1
281
     0
  0
LAYOUT
  5
1E
102
{ACAD_REACTORS
330
1A
102
}
330
1A
100
AcDbPlotSettings
  1

  2
none_device
  4

  6

 40
0.0
 41
0.0
 42
0.0
 43
0.0
 44
0.0
 45
0.0
 46
0.0
 47
0.0
 48
0.0
 49
0.0
140
0.0
141
0.0
142
1.0
143
1.0
 70
   688
 72
     0
 73
     0
 74
     5
  7

 75
    16
147
1.0
 76
     0
 77
     2
 78
   300
148
0.0
149
0.0
100
AcDbLayout
  1
Layout1
 70
     1
 71
     1
 10
-0.5
 20
-0.5
 11
5.0
 21
5.0
 12
0.0
 22
0.0
 32
0.0
 14
-0.5
 24
-0.5
 34
-0.5
 15
5.0
 25
5.0
 35
5.0
146
0.0
 13
0.0
 23
0.0
 33
0.0
 16
1.0
 26
0.0
 36
0.0
 17
0.0
 27
1.0
 37
0.0
 76
     0
330
1B
  0
LAYOUT
  5
26
102
{ACAD_REACTORS
330
1A
102
}
330
1A
100
AcDbPlotSettings
  1

  2
none_device
  4

  6

 40
0.0
 41
0.0
 42
0.0
 43
0.0
 44
0.0
 45
0.0
 46
0.0
 47
0.0
 48
0.0
 49
0.0
140
0.0
141
0.0
142
1.0
143
1.0
 70
   688
 72
     0
 73
     0
 74
     5
  7

 75
    16
147
1.0
 76
     0
 77
     2
 78
   300
148
0.0
149
0.0
100
AcDbLayout
  1
Layout2
 70
     1
 71
     2
 10
0.0
 20
0.0
 11
0.0
 21
0.0
 12
0.0
 22
0.0
 32
0.0
 14
0.0
 24
0.0
 34
0.0
 15
0.0
 25
0.0
 35
0.0
146
0.0
 13
0.0
 23
0.0
 33
0.0
 16
1.0
 26
0.0
 36
0.0
 17
0.0
 27
1.0
 37
0.0
 76
     0
330
23
  0
LAYOUT
  5
22
102
{ACAD_REACTORS
330
1A
102
}
330
1A
100
AcDbPlotSettings
  1

  2
none_device
  4
Letter_(8.50_x_11.00_Inches)
  6

 40
6.349999999999999
 41
6.349999999999999
 42
6.350005
 43
6.350005
 44
215.9
 45
279.4
 46
0.0
 47
0.0
 48
0.0
 49
0.0
140
0.0
141
0.0
142
1.0
143
1.0
 70
  1712
 72
     0
 73
     0
 74
     0
  7

 75
     0
147
1.0
 76
     0
 77
     2
 78
   300
148
0.0
149
0.0
100
AcDbLayout
  1
Model
 70
     1
 71
     0
 10
-0.5
 20
-0.5
 11
5.0
 21
5.0
 12
0.0
 22
0.0
 32
0.0
 14
-0.5
 24
-0.5
 34
-0.5
 15
5.0
 25
5.0
 35
5.0
146
0.0
 13
0.0
 23
0.0
 33
0.0
 16
1.0
 26
0.0
 36
0.0
 17
0.0
 27
1.0
 37
0.0
 76
     0
330
1F
331
29
  0
MATERIAL
  5
45
102
{ACAD_XDICTIONARY
360
27E
102
}
102
{ACAD_REACTORS
330
43
102
}
330
43
100
AcDbMaterial
  1
ByBlock
  0
MATERIAL
  5
44
102
{ACAD_XDICTIONARY
360
27C
102
}
102
{ACAD_REACTORS
330
43
102
}
330
43
100
AcDbMaterial
  1
ByLayer
  0
MATERIAL
  5
46
102
{ACAD_XDICTIONARY
360
280
102
}
102
{ACAD_REACTORS
330
43
102
}
330
43
100
AcDbMaterial
  1
Global
  0
MLEADERSTYLE
  5
6C
102
{ACAD_REACTORS
330
6B
102
}
330
6B
100
AcDbMLeaderStyle
170
     2
171
     1
172
     0
 90
        2
 40
0.0
 41
0.0
173
     1
 91
-1056964608
340
14
 92
       -2
290
     1
 42
0.09
291
     1
 43
0.36
  3
Standard
 44
0.18
300

342
11
174
     1
178
     6
175
     1
176
     0
 93
-1056964608
 45
0.18
292
     0
297
     0
 46
0.18
 94
-1056964608
 47
1.0
 49
1.0
140
1.0
293
     1
141
0.0
294
     1
177
     0
142
1.0
295
     0
296
     0
143
0.125
1001
ACAD_MLEADERVER
1070
     2
  0
MLINESTYLE
  5
18
102
{ACAD_REACTORS
330
17
102
}
330
17
100
AcDbMlineStyle
  2
STANDARD
 70
     0
  3

 62
   256
 51
90.0
 52
90.0
 71
     2
 49
0.5
 62
   256
  6
BYLAYER
 49
-0.5
 62
   256
  6
BYLAYER
  0
ACDBPLACEHOLDER
  5
F
102
{ACAD_REACTORS
330
E
102
}
330
E
  0
SCALE
  5
48
102
{ACAD_REACTORS
330
47
102
}
330
47
100
AcDbScale
 70
     0
300
1:1
140
1.0
141
1.0
290
     1
  0
SCALE
  5
49
102
{ACAD_REACTORS
330
47
102
}
330
47
100
AcDbScale
 70
     0
300
1:2
140
1.0
141
2.0
290
     0
  0
SCALE
  5
4A
102
{ACAD_REACTORS
330
47
102
}
330
47
100
AcDbScale
 70
     0
300
1:4
140
1.0
141
4.0
290
     0
  0
SCALE
  5
4B
102
{ACAD_REACTORS
330
47
102
}
330
47
100
AcDbScale
 70
     0
300
1:5
140
1.0
141
5.0
290
     0
  0
SCALE
  5
4C
102
{ACAD_REACTORS
330
47
102
}
330
47
100
AcDbScale
 70
     0
300
1:8
140
1.0
141
8.0
290
     0
  0
SCALE
  5
4D
102
{ACAD_REACTORS
330
47
102
}
330
47
100
AcDbScale
 70
     0
300
1:10
140
1.0
141
10.0
290
     0
  0
SCALE
  5
4E
102
{ACAD_REACTORS
330
47
102
}
330
47
100
AcDbScale
 70
     0
300
1:16
140
1.0
141
16.0
290
     0
  0
SCALE
  5
4F
102
{ACAD_REACTORS
330
47
102
}
330
47
100
AcDbScale
 70
     0
300
1:20
140
1.0
141
20.0
290
     0
  0
SCALE
  5
50
102
{ACAD_REACTORS
330
47
102
}
330
47
100
AcDbScale
 70
     0
300
1:30
140
1.0
141
30.0
290
     0
  0
SCALE
  5
51
102
{ACAD_REACTORS
330
47
102
}
330
47
100
AcDbScale
 70
     0
300
1:40
140
1.0
141
40.0
290
     0
  0
SCALE
  5
52
102
{ACAD_REACTORS
330
47
102
}
330
47
100
AcDbScale
 70
     0
300
1:50
140
1.0
141
50.0
290
     0
  0
SCALE
  5
53
102
{ACAD_REACTORS
330
47
102
}
330
47
100
AcDbScale
 70
     0
300
1:100
140
1.0
141
100.0
290
     0
  0
SCALE
  5
54
102
{ACAD_REACTORS
330
47
102
}
330
47
100
AcDbScale
 70
     0
300
2:1
140
2.0
141
1.0
290
     0
  0
SCALE
  5
55
102
{ACAD_REACTORS
330
47
102
}
330
47
100
AcDbScale
 70
     0
300
4:1
140
4.0
141
1.0
290
     0
  0
SCALE
  5
56
102
{ACAD_REACTORS
330
47
102
}
330
47
100
AcDbScale
 70
     0
300
8:1
140
8.0
141
1.0
290
     0
  0
SCALE
  5
57
102
{ACAD_REACTORS
330
47
102
}
330
47
100
AcDbScale
 70
     0
300
10:1
140
10.0
141
1.0
290
     0
  0
SCALE
  5
58
102
{ACAD_REACTORS
330
47
102
}
330
47
100
AcDbScale
 70
     0
300
100:1
140
100.0
141
1.0
290
     0
  0
SCALE
  5
59
102
{ACAD_REACTORS
330
47
102
}
330
47
100
AcDbScale
 70
     0
300
1/128" = 1'-0"
140
0.007812
141
12.0
290
     0
  0
SCALE
  5
5A
102
{ACAD_REACTORS
330
47
102
}
330
47
100
AcDbScale
 70
     0
300
1/64" = 1'-0"
140
0.015625
141
12.0
290
     0
  0
SCALE
  5
5B
102
{ACAD_REACTORS
330
47
102
}
330
47
100
AcDbScale
 70
     0
300
1/32" = 1'-0"
140
0.03125
141
12.0
290
     0
  0
SCALE
  5
5C
102
{ACAD_REACTORS
330
47
102
}
330
47
100
AcDbScale
 70
     0
300
1/16" = 1'-0"
140
0.0625
141
12.0
290
     0
  0
SCALE
  5
5D
102
{ACAD_REACTORS
330
47
102
}
330
47
100
AcDbScale
 70
     0
300
3/32" = 1'-0"
140
0.09375
141
12.0
290
     0
  0
SCALE
  5
5E
102
{ACAD_REACTORS
330
47
102
}
330
47
100
AcDbScale
 70
     0
300
1/8" = 1'-0"
140
0.125
141
12.0
290
     0
  0
SCALE
  5
5F
102
{ACAD_REACTORS
330
47
102
}
330
47
100
AcDbScale
 70
     0
300
3/16" = 1'-0"
140
0.1875
141
12.0
290
     0
  0
SCALE
  5
60
102
{ACAD_REACTORS
330
47
102
}
330
47
100
AcDbScale
 70
     0
300
1/4" = 1'-0"
140
0.25
141
12.0
290
     0
  0
SCALE
  5
61
102
{ACAD_REACTORS
330
47
102
}
330
47
100
AcDbScale
 70
     0
300
3/8" = 1'-0"
140
0.375
141
12.0
290
     0
  0
SCALE
  5
62
102
{ACAD_REACTORS
330
47
102
}
330
47
100
AcDbScale
 70
     0
300
1/2" = 1'-0"
140
0.5
141
12.0
290
     0
  0
SCALE
  5
63
102
{ACAD_REACTORS
330
47
102
}
330
47
100
AcDbScale
 70
     0
300
3/4" = 1'-0"
140
0.75
141
12.0
290
     0
  0
SCALE
  5
64
102
{ACAD_REACTORS
330
47
102
}
330
47
100
AcDbScale
 70
     0
300
1" = 1'-0"
140
1.0
141
12.0
290
     0
  0
SCALE
  5
65
102
{ACAD_REACTORS
330
47
102
}
330
47
100
AcDbScale
 70
     0
300
1-1/2" = 1'-0"
140
1.5
141
12.0
290
     0
  0
SCALE
  5
66
102
{ACAD_REACTORS
330
47
102
}
330
47
100
AcDbScale
 70
     0
300
3" = 1'-0"
140
3.0
141
12.0
290
     0
  0
SCALE
  5
67
102
{ACAD_REACTORS
330
47
102
}
330
47
100
AcDbScale
 70
     0
300
6" = 1'-0"
140
6.0
141
12.0
290
     0
  0
SCALE
  5
68
102
{ACAD_REACTORS
330
47
102
}
330
47
100
AcDbScale
 70
     0
300
1'-0" = 1'-0"
140
12.0
141
12.0
290
     0
  0
ACDBSECTIONVIEWSTYLE
  5
290
102
{ACAD_XDICTIONARY
360
3A4
102
}
102
{ACAD_REACTORS
330
28C
330
2F2
102
}
330
28C
100
AcDbModelDocViewStyle
 70
     0
  3
Metric50
290
     0
100
AcDbSectionViewStyle
 70
     0
 71
     0
 90
      102
 71
     1
340
11
 62
   256
 40
5.0
340
0
340
0
 62
   256
 40
5.0
300
I, O, Q, S, X, Z
 40
10.0
 90
        0
 40
2.5
 90
        0
 71
     2
340
16
 90
       25
 62
   256
340
16
 90
       50
 62
   256
 40
5.0
 40
2.5
 40
5.0
 71
     3
340
11
 62
   256
 40
5.0
 90
        0
 40
15.0
 90
        1
300
%<\AcVar ViewSectionStartId>%-%<\AcVar ViewSectionEndId>% (%<\AcVar ViewScale \f "%sn">%)
 71
     4
 62
   256
 62
   257
300
ANSI31
 40
1.0
 90
        0
290
     0
290
     0
 90
        6
 40
0.0
 40
1.570796326794896
 40
0.2617993877991494
 40
1.308996938995747
 40
-0.2617993877991494
 40
1.832595714594046
  0
TABLESTYLE
  5
6A
102
{ACAD_XDICTIONARY
360
282
102
}
102
{ACAD_REACTORS
330
69
102
}
330
69
100
AcDbTableStyle
  3
Standard
 70
     0
 71
     0
 40
0.06
 41
0.06
280
     0
281
     0
  7
Standard
140
0.18
170
     2
 62
     0
 63
     7
283
     0
274
    -2
284
     1
 64
     0
275
    -2
285
     1
 65
     0
276
    -2
286
     1
 66
     0
277
    -2
287
     1
 67
     0
278
    -2
288
     1
 68
     0
279
    -2
289
     1
 69
     0
  7
Standard
140
0.25
170
     5
 62
     0
 63
     7
283
     0
274
    -2
284
     1
 64
     0
275
    -2
285
     1
 65
     0
276
    -2
286
     1
 66
     0
277
    -2
287
     1
 67
     0
278
    -2
288
     1
 68
     0
279
    -2
289
     1
 69
     0
  7
Standard
140
0.18
170
     5
 62
     0
 63
     7
283
     0
274
    -2
284
     1
 64
     0
275
    -2
285
     1
 65
     0
276
    -2
286
     1
 66
     0
277
    -2
287
     1
 67
     0
278
    -2
288
     1
 68
     0
279
    -2
289
     1
 69
     0
  0
VISUALSTYLE
  5
2F
102
{ACAD_XDICTIONARY
360
37B
102
}
102
{ACAD_REACTORS
330
2A
102
}
330
2A
100
AcDbVisualStyle
  2

 70
     4
 71
     0
 72
     2
 73
     0
 90
        0
 40
-0.6
 41
-30.0
 62
     5
 63
     7
421
 16777215
 74
     1
 91
        4
 64
     7
 65
   257
 75
     1
175
     1
 42
1.0
 92
        0
 66
   257
 43
1.0
 76
     1
 77
     6
 78
     2
 67
     7
 79
     5
170
     0
171
     0
290
     0
174
     0
 93
        1
 44
0.0
173
     0
291
     0
 45
0.0
1001
ACAD
1000
AcDbSavedByObjectVersion
1070
     0
  0
VISUALSTYLE
  5
32
102
{ACAD_XDICTIONARY
360
381
102
}
102
{ACAD_REACTORS
330
2A
102
}
330
2A
100
AcDbVisualStyle
  2

 70
     7
 71
     1
 72
     0
 73
     1
 90
        0
 40
-0.6
 41
-30.0
 62
     5
 63
     7
421
 16777215
 74
     0
 91
        4
 64
     7
 65
   257
 75
     1
175
     1
 42
1.0
 92
        8
 66
     7
 43
1.0
 76
     1
 77
     6
 78
     2
 67
     7
 79
     5
170
     0
171
     0
290
     0
174
     0
 93
        1
 44
0.0
173
     0
291
     1
 45
0.0
1001
ACAD
1000
AcDbSavedByObjectVersion
1070
     0
  0
VISUALSTYLE
  5
36
102
{ACAD_XDICTIONARY
360
389
102
}
102
{ACAD_REACTORS
330
2A
102
}
330
2A
100
AcDbVisualStyle
  2

 70
    12
 71
     2
 72
     2
 73
     0
 90
        0
 40
-0.6
 41
-30.0
 62
     5
 63
     7
421
 16777215
 74
     1
 91
        4
 64
     7
 65
   257
 75
     1
175
     1
 42
1.0
 92
        8
 66
     7
 43
1.0
 76
     1
 77
     6
 78
     2
 67
     7
 79
     5
170
     0
171
     0
290
     0
174
     0
 93
        1
 44
50.0
173
     0
291
     1
 45
0.0
1001
ACAD
1000
AcDbSavedByObjectVersion
1070
     0
  0
VISUALSTYLE
  5
3A
102
{ACAD_XDICTIONARY
360
391
102
}
102
{ACAD_REACTORS
330
2A
102
}
330
2A
100
AcDbVisualStyle
  2

 70
    16
 71
     2
 72
     2
 73
     3
 90
        0
 40
-0.6
 41
-30.0
 62
     5
 63
     8
421
  8421504
 74
     1
 91
        4
 64
     7
 65
   257
 75
     1
175
     1
 42
1.0
 92
        8
 66
     8
424
  8421504
 43
1.0
 76
     1
 77
     6
 78
     2
 67
     7
 79
     5
170
     0
171
     0
290
     0
174
     0
 93
        1
 44
0.0
173
     0
291
     1
 45
0.0
1001
ACAD
1000
AcDbSavedByObjectVersion
1070
     0
  0
VISUALSTYLE
  5
34
102
{ACAD_XDICTIONARY
360
385
102
}
102
{ACAD_REACTORS
330
2A
102
}
330
2A
100
AcDbVisualStyle
  2

 70
     9
 71
     3
 72
     2
 73
     0
 90
        0
 40
-0.6
 41
-30.0
 62
     5
 63
     7
421
 16777215
 74
     2
 91
        2
 64
     7
 65
   257
 75
     1
175
     1
 42
179.0
 92
        8
 66
     7
 43
1.0
 76
     1
 77
     6
 78
     2
 67
     7
 79
     3
170
     0
171
     0
290
     0
174
     0
 93
        1
 44
0.0
173
     0
291
     0
 45
0.0
1001
ACAD
1000
AcDbSavedByObjectVersion
1070
     0
  0
VISUALSTYLE
  5
35
102
{ACAD_XDICTIONARY
360
387
102
}
102
{ACAD_REACTORS
330
2A
102
}
330
2A
100
AcDbVisualStyle
  2

 70
    11
 71
     2
 72
     2
 73
     0
 90
        0
 40
-0.6
 41
-30.0
 62
     5
 63
     7
421
 16777215
 74
     1
 91
        4
 64
     7
 65
   257
 75
     1
175
     1
 42
1.0
 92
        8
 66
     7
 43
1.0
 76
     1
 77
     6
 78
     2
 67
     7
 79
     5
170
     0
171
     0
290
     0
174
     0
 93
        1
 44
-50.0
173
     0
291
     1
 45
0.0
1001
ACAD
1000
AcDbSavedByObjectVersion
1070
     0
  0
VISUALSTYLE
  5
3D
102
{ACAD_XDICTIONARY
360
397
102
}
102
{ACAD_REACTORS
330
2A
102
}
330
2A
100
AcDbVisualStyle
  2

 70
    22
 71
     2
 72
     2
 73
     0
 90
        0
 40
-0.6
 41
-30.0
 62
     5
 63
     7
421
 16777215
 74
     1
 91
        4
 64
     7
 65
   257
 75
     1
175
     1
 42
1.0
 92
        8
 66
     7
 43
1.0
 76
     1
 77
     6
 78
     2
 67
     7
 79
     5
170
     0
171
     0
290
     0
174
     0
 93
        1
 44
0.0
173
     0
291
     1
 45
0.0
1001
ACAD
1000
AcDbSavedByObjectVersion
1070
     0
  0
VISUALSTYLE
  5
39
102
{ACAD_XDICTIONARY
360
38F
102
}
102
{ACAD_REACTORS
330
2A
102
}
330
2A
100
AcDbVisualStyle
  2

 70
    15
 71
     2
 72
     2
 73
     0
 90
        0
 40
-0.6
 41
-30.0
 62
     5
 63
     7
421
 16777215
 74
     1
 91
        4
 64
     7
 65
   257
 75
     1
175
     1
 42
1.0
 92
        8
 66
     7
 43
1.0
 76
     1
 77
     6
 78
     2
 67
     7
 79
     5
170
     0
171
     0
290
     0
174
     0
 93
        1
 44
0.0
173
     0
291
     1
 45
0.0
1001
ACAD
1000
AcDbSavedByObjectVersion
1070
     0
  0
VISUALSTYLE
  5
2B
102
{ACAD_XDICTIONARY
360
373
102
}
102
{ACAD_REACTORS
330
2A
102
}
330
2A
100
AcDbVisualStyle
  2

 70
     0
 71
     2
 72
     1
 73
     1
 90
        2
 40
-0.6
 41
30.0
 62
     5
 63
     7
421
 16777215
 74
     0
 91
        0
 64
     7
 65
   257
 75
     1
175
     1
 42
1.0
 92
        8
 66
     7
 43
1.0
 76
     1
 77
     6
 78
     2
 67
     7
 79
     5
170
     0
171
     0
290
     0
174
     0
 93
       13
 44
0.0
173
     0
291
     1
 45
0.0
1001
ACAD
1000
AcDbSavedByObjectVersion
1070
     0
  0
VISUALSTYLE
  5
2C
102
{ACAD_XDICTIONARY
360
375
102
}
102
{ACAD_REACTORS
330
2A
102
}
330
2A
100
AcDbVisualStyle
  2

 70
     1
 71
     2
 72
     1
 73
     1
 90
        2
 40
-0.6
 41
30.0
 62
     5
 63
     7
421
 16777215
 74
     1
 91
        0
 64
     7
 65
   257
 75
     1
175
     1
 42
1.0
 92
        0
 66
   257
 43
1.0
 76
     1
 77
     6
 78
     2
 67
     7
 79
     5
170
     0
171
     0
290
     0
174
     0
 93
       13
 44
0.0
173
     0
291
     1
 45
0.0
1001
ACAD
1000
AcDbSavedByObjectVersion
1070
     0
  0
VISUALSTYLE
  5
2D
102
{ACAD_XDICTIONARY
360
377
102
}
102
{ACAD_REACTORS
330
2A
102
}
330
2A
100
AcDbVisualStyle
  2

 70
     2
 71
     2
 72
     2
 73
     1
 90
        2
 40
-0.6
 41
30.0
 62
     5
 63
     7
421
 16777215
 74
     0
 91
        0
 64
     7
 65
   257
 75
     1
175
     1
 42
1.0
 92
        0
 66
     7
 43
1.0
 76
     1
 77
     6
 78
     2
 67
     7
 79
     5
170
     0
171
     0
290
     0
174
     0
 93
       13
 44
0.0
173
     0
291
     1
 45
0.0
1001
ACAD
1000
AcDbSavedByObjectVersion
1070
     0
  0
VISUALSTYLE
  5
2E
102
{ACAD_XDICTIONARY
360
379
102
}
102
{ACAD_REACTORS
330
2A
102
}
330
2A
100
AcDbVisualStyle
  2

 70
     3
 71
     2
 72
     2
 73
     1
 90
        2
 40
-0.6
 41
30.0
 62
     5
 63
     7
421
 16777215
 74
     1
 91
        0
 64
     7
 65
   257
 75
     1
175
     1
 42
1.0
 92
        0
 66
   257
 43
1.0
 76
     1
 77
     6
 78
     2
 67
     7
 79
     5
170
     0
171
     0
290
     0
174
     0
 93
       13
 44
0.0
173
     0
291
     1
 45
0.0
1001
ACAD
1000
AcDbSavedByObjectVersion
1070
     0
  0
VISUALSTYLE
  5
31
102
{ACAD_XDICTIONARY
360
37F
102
}
102
{ACAD_REACTORS
330
2A
102
}
330
2A
100
AcDbVisualStyle
  2

 70
     6
 71
     1
 72
     2
 73
     2
 90
        0
 40
-0.6
 41
-30.0
 62
     5
 63
     7
421
 16777215
 74
     2
 91
        2
 64
     7
 65
   257
 75
     2
175
     1
 42
40.0
 92
        0
 66
   257
 43
1.0
 76
     1
 77
     6
 78
     2
 67
     7
 79
     3
170
     0
171
     0
290
     0
174
     0
 93
        1
 44
0.0
173
     0
291
     0
 45
0.0
1001
ACAD
1000
AcDbSavedByObjectVersion
1070
     0
  0
VISUALSTYLE
  5
3B
102
{ACAD_XDICTIONARY
360
393
102
}
102
{ACAD_REACTORS
330
2A
102
}
330
2A
100
AcDbVisualStyle
  2

 70
    20
 71
     2
 72
     2
 73
     0
 90
        0
 40
-0.6
 41
-30.0
 62
     5
 63
     7
421
 16777215
 74
     1
 91
        4
 64
     7
 65
   257
 75
     1
175
     1
 42
1.0
 92
       10
 66
     7
 43
1.0
 76
     1
 77
     6
 78
     2
 67
     7
 79
     5
170
     0
171
     0
290
     0
174
     0
 93
        1
 44
0.0
173
     0
291
     1
 45
0.0
1001
ACAD
1000
AcDbSavedByObjectVersion
1070
     0
  0
VISUALSTYLE
  5
38
102
{ACAD_XDICTIONARY
360
38D
102
}
102
{ACAD_REACTORS
330
2A
102
}
330
2A
100
AcDbVisualStyle
  2

 70
    14
 71
     2
 72
     2
 73
     0
 90
        0
 40
-0.6
 41
-30.0
 62
     5
 63
     7
421
 16777215
 74
     1
 91
        4
 64
     7
 65
   257
 75
     7
175
     7
 42
1.0
 92
        8
 66
     7
 43
1.0
 76
     1
 77
     6
 78
     2
 67
     7
 79
     5
170
     0
171
     0
290
     0
174
     0
 93
        1
 44
0.0
173
     0
291
     1
 45
0.0
1001
ACAD
1000
AcDbSavedByObjectVersion
1070
     0
  0
VISUALSTYLE
  5
3C
102
{ACAD_XDICTIONARY
360
395
102
}
102
{ACAD_REACTORS
330
2A
102
}
330
2A
100
AcDbVisualStyle
  2

 70
    21
 71
     2
 72
     2
 73
     0
 90
        0
 40
-0.6
 41
-30.0
 62
     5
 63
     7
421
 16777215
 74
     1
 91
        4
 64
     7
 65
   257
 75
     1
175
     1
 42
1.0
 92
        9
 66
     7
 43
1.0
 76
     1
 77
     6
 78
     2
 67
     7
 79
     5
170
     0
171
     0
290
     0
174
     0
 93
        1
 44
0.0
173
     0
291
     1
 45
0.0
1001
ACAD
1000
AcDbSavedByObjectVersion
1070
     0
  0
VISUALSTYLE
  5
33
102
{ACAD_XDICTIONARY
360
383
102
}
102
{ACAD_REACTORS
330
2A
102
}
330
2A
100
AcDbVisualStyle
  2

 70
     8
 71
     2
 72
     3
 73
     0
 90
        2
 40
-0.6
 41
30.0
 62
     5
 63
     7
421
 16777215
 74
     0
 91
        0
 64
     7
 65
   257
 75
     1
175
     1
 42
1.0
 92
        8
 66
   257
 43
1.0
 76
     1
 77
     6
 78
     2
 67
     7
 79
     3
170
     0
171
     0
290
     0
174
     0
 93
       13
 44
0.0
173
     0
291
     0
 45
0.0
1001
ACAD
1000
AcDbSavedByObjectVersion
1070
     0
  0
VISUALSTYLE
  5
42
102
{ACAD_XDICTIONARY
360
3A1
102
}
102
{ACAD_REACTORS
330
2A
102
}
330
2A
100
AcDbVisualStyle
  2

 70
    27
 71
     2
 72
     2
 73
     1
 90
        2
 40
-0.6
 41
30.0
 62
     5
 63
     7
421
 16777215
 74
     0
 91
        4
 64
     7
 65
   257
 75
     1
175
     1
 42
1.0
 92
        8
 66
   257
 43
1.0
 76
     1
 77
     6
 78
     2
 67
     8
425
  7895160
 79
     3
170
     0
171
     0
290
     0
174
     0
 93
        5
 44
0.0
173
     0
291
     0
 45
0.0
1001
ACAD
1000
AcDbSavedByObjectVersion
1070
     0
  0
VISUALSTYLE
  5
41
102
{ACAD_XDICTIONARY
360
39F
102
}
102
{ACAD_REACTORS
330
2A
102
}
330
2A
100
AcDbVisualStyle
  2

 70
    26
 71
     2
 72
     2
 73
     1
 90
        2
 40
-0.6
 41
30.0
 62
     5
 63
     7
421
 16777215
 74
     1
 91
       10
 64
     7
 65
   257
 75
     2
175
     1
 42
1.0
 92
        8
 66
   257
 43
1.0
 76
     1
 77
     6
 78
     2
 67
     7
 79
     3
170
     0
171
     0
290
     0
174
     0
 93
        5
 44
0.0
173
     0
291
     0
 45
0.0
1001
ACAD
1000
AcDbSavedByObjectVersion
1070
     0
  0
VISUALSTYLE
  5
3E
102
{ACAD_XDICTIONARY
360
399
102
}
102
{ACAD_REACTORS
330
2A
102
}
330
2A
100
AcDbVisualStyle
  2

 70
    23
 71
     2
 72
     2
 73
     3
 90
        0
 40
-0.6
 41
-30.0
 62
     5
 63
     7
421
 16777215
 74
     2
 91
        2
 64
     7
 65
     7
 75
     1
175
     1
 42
40.0
 92
        8
 66
     7
 43
1.0
 76
     1
 77
     6
 78
     2
 67
     7
 79
     3
170
     0
171
     0
290
     0
174
     0
 93
        1
 44
0.0
173
     0
291
     0
 45
0.0
1001
ACAD
1000
AcDbSavedByObjectVersion
1070
     0
  0
VISUALSTYLE
  5
3F
102
{ACAD_XDICTIONARY
360
39B
102
}
102
{ACAD_REACTORS
330
2A
102
}
330
2A
100
AcDbVisualStyle
  2

 70
    24
 71
     1
 72
     2
 73
     2
 90
        0
 40
-0.6
 41
-30.0
 62
     5
 63
     7
421
 16777215
 74
     2
 91
        2
 64
     7
 65
     7
 75
     1
175
     1
 42
40.0
 92
       11
 66
     7
 43
1.0
 76
     1
 77
     6
 78
     2
 67
     7
 79
     6
170
     0
171
     0
290
     0
174
     0
 93
        1
 44
0.0
173
     0
291
     0
 45
0.0
1001
ACAD
1000
AcDbSavedByObjectVersion
1070
     0
  0
VISUALSTYLE
  5
37
102
{ACAD_XDICTIONARY
360
38B
102
}
102
{ACAD_REACTORS
330
2A
102
}
330
2A
100
AcDbVisualStyle
  2

 70
    13
 71
     2
 72
     2
 73
     0
 90
        0
 40
-0.6
 41
-30.0
 62
     5
 63
     7
421
 16777215
 74
     1
 91
        4
 64
     7
 65
   257
 75
     1
175
     1
 42
1.0
 92
       12
 66
     7
 43
1.0
 76
     1
 77
     6
 78
     2
 67
     7
 79
     5
170
     0
171
     0
290
     0
174
     0
 93
        1
 44
0.0
173
     0
291
     1
 45
0.0
1001
ACAD
1000
AcDbSavedByObjectVersion
1070
     0
  0
VISUALSTYLE
  5
30
102
{ACAD_XDICTIONARY
360
37D
102
}
102
{ACAD_REACTORS
330
2A
102
}
330
2A
100
AcDbVisualStyle
  2

 70
     5
 71
     0
 72
     2
 73
     0
 90
        0
 40
-0.6
 41
-30.0
 62
     5
 63
     7
421
 16777215
 74
     1
 91
        4
 64
     7
 65
   257
 75
     1
175
     1
 42
1.0
 92
        0
 66
   257
 43
1.0
 76
     1
 77
     6
 78
     2
 67
     7
 79
     3
170
     0
171
     0
290
     0
174
     0
 93
        1
 44
0.0
173
     0
291
     0
 45
0.0
1001
ACAD
1000
AcDbSavedByObjectVersion
1070
     0
  0
VISUALSTYLE
  5
40
102
{ACAD_XDICTIONARY
360
39D
102
}
102
{ACAD_REACTORS
330
2A
102
}
330
2A
100
AcDbVisualStyle
  2

 70
    25
 71
     2
 72
     2
 73
     1
 90
        1
 40
0.5
 41
-30.0
 62
     5
 63
     7
421
 16777215
 74
     1
 91
        0
 64
     7
 65
   257
 75
     1
175
     1
 42
1.0
 92
        8
 66
     7
 43
1.0
 76
     1
 77
     6
 78
     2
 67
     7
 79
     3
170
     0
171
     0
290
     0
174
     0
 93
       13
 44
0.0
173
     0
291
     0
 45
0.0
1001
ACAD
1000
AcDbSavedByObjectVersion
1070
     0
  0
DICTIONARYVAR
  5
249
102
{ACAD_REACTORS
330
248
102
}
330
248
100
DictionaryVariables
280
     0
  1
1:1
  0
DICTIONARYVAR
  5
28A
102
{ACAD_REACTORS
330
248
102
}
330
248
100
DictionaryVariables
280
     0
  1
STANDARD
  0
DICTIONARYVAR
  5
289
102
{ACAD_REACTORS
330
248
102
}
330
248
100
DictionaryVariables
280
     0
  1
STANDARD
  0
DICTIONARYVAR
  5
36E
102
{ACAD_REACTORS
330
248
102
}
330
248
100
DictionaryVariables
280
     0
  1
Metric50
  0
DICTIONARYVAR
  5
36F
102
{ACAD_REACTORS
330
248
102
}
330
248
100
DictionaryVariables
280
     0
  1
Metric50
  0
DICTIONARYVAR
  5
24A
102
{ACAD_REACTORS
330
248
102
}
330
248
100
DictionaryVariables
280
     0
  1
1
  0
DICTIONARYVAR
  5
370
102
{ACAD_REACTORS
330
248
102
}
330
248
100
DictionaryVariables
280
     0
  1
2
  0
DICTIONARY
  5
2C8
102
{ACAD_REACTORS
330
2C1
102
}
330
2C1
100
AcDbDictionary
281
     1
  0
DICTIONARY
  5
3A6
330
291
100
AcDbDictionary
280
     1
281
     1
  3
ACAD_XREC_ROUNDTRIP
360
3A7
  0
DICTIONARY
  5
27E
330
45
100
AcDbDictionary
280
     1
281
     1
  3
ACAD_XREC_ROUNDTRIP
360
27F
  0
DICTIONARY
  5
27C
330
44
100
AcDbDictionary
280
     1
281
     1
  3
ACAD_XREC_ROUNDTRIP
360
27D
  0
DICTIONARY
  5
280
330
46
100
AcDbDictionary
280
     1
281
     1
  3
ACAD_XREC_ROUNDTRIP
360
281
  0
DICTIONARY
  5
3A4
330
290
100
AcDbDictionary
280
     1
281
     1
  3
ACAD_XREC_ROUNDTRIP
360
3A5
  0
DICTIONARY
  5
282
330
6A
100
AcDbDictionary
280
     1
281
     1
  3
ACAD_ROUNDTRIP_2008_TABLESTYLE_CELLSTYLEMAP
360
371
  3
ACAD_XREC_ROUNDTRIP
360
3A3
  0
DICTIONARY
  5
37B
330
2F
100
AcDbDictionary
280
     1
281
     1
  3
ACAD_XREC_ROUNDTRIP
360
37C
  0
DICTIONARY
  5
381
330
32
100
AcDbDictionary
280
     1
281
     1
  3
ACAD_XREC_ROUNDTRIP
360
382
  0
DICTIONARY
  5
389
330
36
100
AcDbDictionary
280
     1
281
     1
  3
ACAD_XREC_ROUNDTRIP
360
38A
  0
DICTIONARY
  5
391
330
3A
100
AcDbDictionary
280
     1
281
     1
  3
ACAD_XREC_ROUNDTRIP
360
392
  0
DICTIONARY
  5
385
330
34
100
AcDbDictionary
280
     1
281
     1
  3
ACAD_XREC_ROUNDTRIP
360
386
  0
DICTIONARY
  5
387
330
35
100
AcDbDictionary
280
     1
281
     1
  3
ACAD_XREC_ROUNDTRIP
360
388
  0
DICTIONARY
  5
397
330
3D
100
AcDbDictionary
280
     1
281
     1
  3
ACAD_XREC_ROUNDTRIP
360
398
  0
DICTIONARY
  5
38F
330
39
100
AcDbDictionary
280
     1
281
     1
  3
ACAD_XREC_ROUNDTRIP
360
390
  0
DICTIONARY
  5
373
330
2B
100
AcDbDictionary
280
     1
281
     1
  3
ACAD_XREC_ROUNDTRIP
360
374
  0
DICTIONARY
  5
375
330
2C
100
AcDbDictionary
280
     1
281
     1
  3
ACAD_XREC_ROUNDTRIP
360
376
  0
DICTIONARY
  5
377
330
2D
100
AcDbDictionary
280
     1
281
     1
  3
ACAD_XREC_ROUNDTRIP
360
378
  0
DICTIONARY
  5
379
330
2E
100
AcDbDictionary
280
     1
281
     1
  3
ACAD_XREC_ROUNDTRIP
360
37A
  0
DICTIONARY
  5
37F
330
31
100
AcDbDictionary
280
     1
281
     1
  3
ACAD_XREC_ROUNDTRIP
360
380
  0
DICTIONARY
  5
393
330
3B
100
AcDbDictionary
280
     1
281
     1
  3
ACAD_XREC_ROUNDTRIP
360
394
  0
DICTIONARY
  5
38D
330
38
100
AcDbDictionary
280
     1
281
     1
  3
ACAD_XREC_ROUNDTRIP
360
38E
  0
DICTIONARY
  5
395
330
3C
100
AcDbDictionary
280
     1
281
     1
  3
ACAD_XREC_ROUNDTRIP
360
396
  0
DICTIONARY
  5
383
330
33
100
AcDbDictionary
280
     1
281
     1
  3
ACAD_XREC_ROUNDTRIP
360
384
  0
DICTIONARY
  5
3A1
330
42
100
AcDbDictionary
280
     1
281
     1
  3
ACAD_XREC_ROUNDTRIP
360
3A2
  0
DICTIONARY
  5
39F
330
41
100
AcDbDictionary
280
     1
281
     1
  3
ACAD_XREC_ROUNDTRIP
360
3A0
  0
DICTIONARY
  5
399
330
3E
100
AcDbDictionary
280
     1
281
     1
  3
ACAD_XREC_ROUNDTRIP
360
39A
  0
DICTIONARY
  5
39B
330
3F
100
AcDbDictionary
280
     1
281
     1
  3
ACAD_XREC_ROUNDTRIP
360
39C
  0
DICTIONARY
  5
38B
330
37
100
AcDbDictionary
280
     1
281
     1
  3
ACAD_XREC_ROUNDTRIP
360
38C
  0
DICTIONARY
  5
37D
330
30
100
AcDbDictionary
280
     1
281
     1
  3
ACAD_XREC_ROUNDTRIP
360
37E
  0
DICTIONARY
  5
39D
330
40
100
AcDbDictionary
280
     1
281
     1
  3
ACAD_XREC_ROUNDTRIP
360
39E
  0
XRECORD
  5
3A7
102
{ACAD_REACTORS
330
3A6
102
}
330
3A6
100
AcDbXrecord
280
     1
102
DISPLAYNAME
  1
Metric50
102
FLAGS
 90
        0
  0
XRECORD
  5
27F
102
{ACAD_REACTORS
330
27E
102
}
330
27E
100
AcDbXrecord
280
     1
102
MATERIAL
148
0.0
149
0.0
149
0.0
 93
        0
 94
      127
282
     0
 72
     1
 77
     1
171
     1
175
     1
179
     1
273
     0
  0
XRECORD
  5
27D
102
{ACAD_REACTORS
330
27C
102
}
330
27C
100
AcDbXrecord
280
     1
102
MATERIAL
148
0.0
149
0.0
149
0.0
 93
        0
 94
      127
282
     0
 72
     1
 77
     1
171
     1
175
     1
179
     1
273
     0
  0
XRECORD
  5
281
102
{ACAD_REACTORS
330
280
102
}
330
280
100
AcDbXrecord
280
     1
102
MATERIAL
148
0.0
149
0.0
149
0.0
 93
        0
 94
      127
282
     0
 72
     1
 77
     1
171
     1
175
     1
179
     1
273
     0
  0
XRECORD
  5
3A5
102
{ACAD_REACTORS
330
3A4
102
}
330
3A4
100
AcDbXrecord
280
     1
102
DISPLAYNAME
  1
Metric50
102
FLAGS
 90
        0
  0
CELLSTYLEMAP
  5
371
102
{ACAD_REACTORS
330
282
102
}
330
282
100
AcDbCellStyleMap
 90
        3
300
CELLSTYLE
  1
TABLEFORMAT_BEGIN
 90
        5
170
     1
 91
        0
 92
    32768
 62
   257
 93
        1
300
CONTENTFORMAT
  1
CONTENTFORMAT_BEGIN
 90
        0
 91
        0
 92
        4
 93
        0
300

 40
0.0
140
1.0
 94
        5
 62
     0
340
11
144
0.25
309
CONTENTFORMAT_END
171
     1
301
MARGIN
  1
CELLMARGIN_BEGIN
 40
0.06
 40
0.06
 40
0.06
 40
0.06
 40
0.18
 40
0.18
309
CELLMARGIN_END
 94
        6
 95
        1
302
GRIDFORMAT
  1
GRIDFORMAT_BEGIN
 90
        0
 91
        1
 62
     0
 92
       -2
340
14
 93
        0
 40
0.045
309
GRIDFORMAT_END
 95
        2
302
GRIDFORMAT
  1
GRIDFORMAT_BEGIN
 90
        0
 91
        1
 62
     0
 92
       -2
340
14
 93
        0
 40
0.045
309
GRIDFORMAT_END
 95
        4
302
GRIDFORMAT
  1
GRIDFORMAT_BEGIN
 90
        0
 91
        1
 62
     0
 92
       -2
340
14
 93
        0
 40
0.045
309
GRIDFORMAT_END
 95
        8
302
GRIDFORMAT
  1
GRIDFORMAT_BEGIN
 90
        0
 91
        1
 62
     0
 92
       -2
340
14
 93
        0
 40
0.045
309
GRIDFORMAT_END
 95
       16
302
GRIDFORMAT
  1
GRIDFORMAT_BEGIN
 90
        0
 91
        1
 62
     0
 92
       -2
340
14
 93
        0
 40
0.045
309
GRIDFORMAT_END
 95
       32
302
GRIDFORMAT
  1
GRIDFORMAT_BEGIN
 90
        0
 91
        1
 62
     0
 92
       -2
340
14
 93
        0
 40
0.045
309
GRIDFORMAT_END
309
TABLEFORMAT_END
  1
CELLSTYLE_BEGIN
 90
        1
 91
        1
300
_TITLE
309
CELLSTYLE_END
300
CELLSTYLE
  1
TABLEFORMAT_BEGIN
 90
        5
170
     1
 91
        0
 92
        0
 62
   257
 93
        1
300
CONTENTFORMAT
  1
CONTENTFORMAT_BEGIN
 90
        0
 91
        0
 92
        4
 93
        0
300

 40
0.0
140
1.0
 94
        5
 62
     0
340
11
144
0.18
309
CONTENTFORMAT_END
171
     1
301
MARGIN
  1
CELLMARGIN_BEGIN
 40
0.06
 40
0.06
 40
0.06
 40
0.06
 40
0.18
 40
0.18
309
CELLMARGIN_END
 94
        6
 95
        1
302
GRIDFORMAT
  1
GRIDFORMAT_BEGIN
 90
        0
 91
        1
 62
     0
 92
       -2
340
14
 93
        0
 40
0.045
309
GRIDFORMAT_END
 95
        2
302
GRIDFORMAT
  1
GRIDFORMAT_BEGIN
 90
        0
 91
        1
 62
     0
 92
       -2
340
14
 93
        0
 40
0.045
309
GRIDFORMAT_END
 95
        4
302
GRIDFORMAT
  1
GRIDFORMAT_BEGIN
 90
        0
 91
        1
 62
     0
 92
       -2
340
14
 93
        0
 40
0.045
309
GRIDFORMAT_END
 95
        8
302
GRIDFORMAT
  1
GRIDFORMAT_BEGIN
 90
        0
 91
        1
 62
     0
 92
       -2
340
14
 93
        0
 40
0.045
309
GRIDFORMAT_END
 95
       16
302
GRIDFORMAT
  1
GRIDFORMAT_BEGIN
 90
        0
 91
        1
 62
     0
 92
       -2
340
14
 93
        0
 40
0.045
309
GRIDFORMAT_END
 95
       32
302
GRIDFORMAT
  1
GRIDFORMAT_BEGIN
 90
        0
 91
        1
 62
     0
 92
       -2
340
14
 93
        0
 40
0.045
309
GRIDFORMAT_END
309
TABLEFORMAT_END
  1
CELLSTYLE_BEGIN
 90
        2
 91
        1
300
_HEADER
309
CELLSTYLE_END
300
CELLSTYLE
  1
TABLEFORMAT_BEGIN
 90
        5
170
     1
 91
        0
 92
        0
 62
   257
 93
        1
300
CONTENTFORMAT
  1
CONTENTFORMAT_BEGIN
 90
        0
 91
        0
 92
        4
 93
        0
300

 40
0.0
140
1.0
 94
        2
 62
     0
340
11
144
0.18
309
CONTENTFORMAT_END
171
     1
301
MARGIN
  1
CELLMARGIN_BEGIN
 40
0.06
 40
0.06
 40
0.06
 40
0.06
 40
0.18
 40
0.18
309
CELLMARGIN_END
 94
        6
 95
        1
302
GRIDFORMAT
  1
GRIDFORMAT_BEGIN
 90
        0
 91
        1
 62
     0
 92
       -2
340
14
 93
        0
 40
0.045
309
GRIDFORMAT_END
 95
        2
302
GRIDFORMAT
  1
GRIDFORMAT_BEGIN
 90
        0
 91
        1
 62
     0
 92
       -2
340
14
 93
        0
 40
0.045
309
GRIDFORMAT_END
 95
        4
302
GRIDFORMAT
  1
GRIDFORMAT_BEGIN
 90
        0
 91
        1
 62
     0
 92
       -2
340
14
 93
        0
 40
0.045
309
GRIDFORMAT_END
 95
        8
302
GRIDFORMAT
  1
GRIDFORMAT_BEGIN
 90
        0
 91
        1
 62
     0
 92
       -2
340
14
 93
        0
 40
0.045
309
GRIDFORMAT_END
 95
       16
302
GRIDFORMAT
  1
GRIDFORMAT_BEGIN
 90
        0
 91
        1
 62
     0
 92
       -2
340
14
 93
        0
 40
0.045
309
GRIDFORMAT_END
 95
       32
302
GRIDFORMAT
  1
GRIDFORMAT_BEGIN
 90
        0
 91
        1
 62
     0
 92
       -2
340
14
 93
        0
 40
0.045
309
GRIDFORMAT_END
309
TABLEFORMAT_END
  1
CELLSTYLE_BEGIN
 90
        3
 91
        2
300
_DATA
309
CELLSTYLE_END
  0
XRECORD
  5
3A3
102
{ACAD_REACTORS
330
282
102
}
330
282
100
AcDbXrecord
280
     1
102
ACAD_ROUNDTRIP_PRE2007_TABLESTYLE
 90
        4
 91
        0
  1

 92
        4
 93
        0
  2

 94
        4
 95
        0
  3

  0
XRECORD
  5
37C
102
{ACAD_REACTORS
330
37B
102
}
330
37B
100
AcDbXrecord
280
     1
102
RTVSPost2010Prop28
280
     1
102
RTVSPost2010PropOp28
 70
     1
102
RTVSPost2010Prop29
280
     1
102
RTVSPost2010PropOp29
 70
     1
102
RTVSPost2010Prop30
280
     0
102
RTVSPost2010PropOp30
 70
     1
102
RTVSPost2010Prop31
280
     0
102
RTVSPost2010PropOp31
 70
     1
102
RTVSPost2010Prop32
280
     0
102
RTVSPost2010PropOp32
 70
     1
102
RTVSPost2010Prop33
280
     0
102
RTVSPost2010PropOp33
 70
     1
102
RTVSPost2010Prop34
280
     0
102
RTVSPost2010PropOp34
 70
     1
102
RTVSPost2010Prop35
280
     0
102
RTVSPost2010PropOp35
 70
     1
102
RTVSPost2010Prop36
280
     0
102
RTVSPost2010PropOp36
 70
     1
102
RTVSPost2010Prop37
 90
       50
102
RTVSPost2010PropOp37
 70
     1
102
RTVSPost2010Prop38
140
0.0
102
RTVSPost2010PropOp38
 70
     1
102
RTVSPost2010Prop39
140
1.0
102
RTVSPost2010PropOp39
 70
     1
102
RTVSPost2010Prop40
 90
        0
102
RTVSPost2010PropOp40
 70
     1
102
RTVSPost2010Prop41ColorIndex
 90
       18
102
RTVSPost2010Prop41ColorRGB
 90
        0
102
RTVSPost2010PropOp41
 70
     1
102
RTVSPost2010Prop42
 90
       50
102
RTVSPost2010PropOp42
 70
     1
102
RTVSPost2010Prop43
 90
        3
102
RTVSPost2010PropOp43
 70
     1
102
RTVSPost2010Prop44ColorIndex
 90
        5
102
RTVSPost2010Prop44ColorRGB
 90
      255
102
RTVSPost2010PropOp44
 70
     1
102
RTVSPost2010Prop45
280
     0
102
RTVSPost2010PropOp45
 70
     1
102
RTVSPost2010Prop46
 90
       50
102
RTVSPost2010PropOp46
 70
     1
102
RTVSPost2010Prop47
 90
       50
102
RTVSPost2010PropOp47
 70
     1
102
RTVSPost2010Prop48
 90
       50
102
RTVSPost2010PropOp48
 70
     1
102
RTVSPost2010Prop49
280
     0
102
RTVSPost2010PropOp49
 70
     1
102
RTVSPost2010Prop50
 90
       50
102
RTVSPost2010PropOp50
 70
     1
102
RTVSPost2010Prop51ColorIndex
 90
      256
102
RTVSPost2010Prop51ColorRGB
 90
-16777216
102
RTVSPost2010PropOp51
 70
     0
102
RTVSPost2010Prop52
140
1.0
102
RTVSPost2010PropOp52
 70
     0
102
RTVSPost2010Prop53
 90
        2
102
RTVSPost2010PropOp53
 70
     1
102
RTVSPost2010Prop54
  1
strokes_ogs.tif
102
RTVSPost2010PropOp54
 70
     1
102
RTVSPost2010Prop55
280
     0
102
RTVSPost2010PropOp55
 70
     1
102
RTVSPost2010Prop56
140
1.0
102
RTVSPost2010PropOp56
 70
     1
102
RTVSPost2010Prop57
140
1.0
102
RTVSPost2010PropOp57
 70
     1
102
RTVSPropertyOp0
 70
     1
102
RTVSPropertyOp1
 70
     1
102
RTVSPropertyOp2
 70
     1
102
RTVSPropertyOp3
 70
     1
102
RTVSPropertyOp4
 70
     1
102
RTVSPropertyOp5
 70
     1
102
RTVSPropertyOp6
 70
     1
102
RTVSPropertyOp7
 70
     1
102
RTVSPropertyOp8
 70
     1
102
RTVSPropertyOp9
 70
     1
102
RTVSPropertyOp10
 70
     1
102
RTVSPropertyOp11
 70
     1
102
RTVSPropertyOp12
 70
     1
102
RTVSPropertyOp13
 70
     1
102
RTVSPropertyOp14
 70
     1
102
RTVSPropertyOp15
 70
     1
102
RTVSPropertyOp16
 70
     1
102
RTVSPropertyOp17
 70
     1
102
RTVSPropertyOp18
 70
     1
102
RTVSPropertyOp19
 70
     1
102
RTVSPropertyOp20
 70
     1
102
RTVSPropertyOp21
 70
     1
102
RTVSPropertyOp22
 70
     1
102
RTVSPropertyOp23
 70
     1
102
RTVSPropertyOp24
 70
     1
102
RTVSPropertyOp25
 70
     1
102
RTVSPropertyOp26
 70
     1
102
RTVSPropertyOp27
 70
     1
102
RTVSPropertyOp28
 70
     1
102
RTVSPropertyOp29
 70
     1
102
RTVSPropertyOp30
 70
     1
102
RTVSPropertyOp31
 70
     1
102
RTVSPropertyOp32
 70
     1
102
RTVSPropertyOp33
 70
     1
102
RTVSPropertyOp34
 70
     1
102
RTVSPropertyOp35
 70
     1
102
RTVSPropertyOp36
 70
     1
102
RTVSPropertyOp37
 70
     1
102
RTVSPropertyOp38
 70
     1
102
RTVSPropertyOp39
 70
     1
102
RTVSPropertyOp40
 70
     1
102
RTVSPropertyOp41
 70
     1
102
RTVSPropertyOp42
 70
     1
102
RTVSPropertyOp43
 70
     1
102
RTVSPropertyOp44
 70
     1
102
RTVSPropertyOp45
 70
     1
102
RTVSPropertyOp46
 70
     1
102
RTVSPropertyOp47
 70
     1
102
RTVSPropertyOp48
 70
     1
102
RTVSPropertyOp49
 70
     1
102
RTVSPropertyOp50
 70
     1
102
RTVSPropertyOp51
 70
     0
102
RTVSPropertyOp52
 70
     0
102
RTVSPropertyOp53
 70
     1
102
RTVSPropertyOp54
 70
     1
102
RTVSPropertyOp55
 70
     1
102
RTVSPropertyOp56
 70
     1
102
RTVSPropertyOp57
 70
     1
102
RTVSPropertyOp58
 70
     1
102
RTVSPropertyOp59
 70
     1
102
RTVSPropertyOp60
 70
     1
102
RTVSPropertyOp61
 70
     1
102
RTVSPropertyOp62
 70
     1
  0
XRECORD
  5
382
102
{ACAD_REACTORS
330
381
102
}
330
381
100
AcDbXrecord
280
     1
102
RTVSPost2010Prop28
280
     0
102
RTVSPost2010PropOp28
 70
     1
102
RTVSPost2010Prop29
280
     1
102
RTVSPost2010PropOp29
 70
     1
102
RTVSPost2010Prop30
280
     1
102
RTVSPost2010PropOp30
 70
     1
102
RTVSPost2010Prop31
280
     0
102
RTVSPost2010PropOp31
 70
     1
102
RTVSPost2010Prop32
280
     0
102
RTVSPost2010PropOp32
 70
     1
102
RTVSPost2010Prop33
280
     0
102
RTVSPost2010PropOp33
 70
     1
102
RTVSPost2010Prop34
280
     0
102
RTVSPost2010PropOp34
 70
     1
102
RTVSPost2010Prop35
280
     0
102
RTVSPost2010PropOp35
 70
     1
102
RTVSPost2010Prop36
280
     0
102
RTVSPost2010PropOp36
 70
     1
102
RTVSPost2010Prop37
 90
       50
102
RTVSPost2010PropOp37
 70
     1
102
RTVSPost2010Prop38
140
0.0
102
RTVSPost2010PropOp38
 70
     1
102
RTVSPost2010Prop39
140
1.0
102
RTVSPost2010PropOp39
 70
     1
102
RTVSPost2010Prop40
 90
        0
102
RTVSPost2010PropOp40
 70
     1
102
RTVSPost2010Prop41ColorIndex
 90
       18
102
RTVSPost2010Prop41ColorRGB
 90
        0
102
RTVSPost2010PropOp41
 70
     1
102
RTVSPost2010Prop42
 90
       50
102
RTVSPost2010PropOp42
 70
     1
102
RTVSPost2010Prop43
 90
        3
102
RTVSPost2010PropOp43
 70
     1
102
RTVSPost2010Prop44ColorIndex
 90
        5
102
RTVSPost2010Prop44ColorRGB
 90
      255
102
RTVSPost2010PropOp44
 70
     1
102
RTVSPost2010Prop45
280
     0
102
RTVSPost2010PropOp45
 70
     1
102
RTVSPost2010Prop46
 90
       50
102
RTVSPost2010PropOp46
 70
     1
102
RTVSPost2010Prop47
 90
       50
102
RTVSPost2010PropOp47
 70
     1
102
RTVSPost2010Prop48
 90
       50
102
RTVSPost2010PropOp48
 70
     1
102
RTVSPost2010Prop49
280
     0
102
RTVSPost2010PropOp49
 70
     1
102
RTVSPost2010Prop50
 90
       50
102
RTVSPost2010PropOp50
 70
     1
102
RTVSPost2010Prop51ColorIndex
 90
      256
102
RTVSPost2010Prop51ColorRGB
 90
-16777216
102
RTVSPost2010PropOp51
 70
     0
102
RTVSPost2010Prop52
140
1.0
102
RTVSPost2010PropOp52
 70
     0
102
RTVSPost2010Prop53
 90
        2
102
RTVSPost2010PropOp53
 70
     1
102
RTVSPost2010Prop54
  1
strokes_ogs.tif
102
RTVSPost2010PropOp54
 70
     1
102
RTVSPost2010Prop55
280
     0
102
RTVSPost2010PropOp55
 70
     1
102
RTVSPost2010Prop56
140
1.0
102
RTVSPost2010PropOp56
 70
     1
102
RTVSPost2010Prop57
140
1.0
102
RTVSPost2010PropOp57
 70
     1
102
RTVSPropertyOp0
 70
     1
102
RTVSPropertyOp1
 70
     1
102
RTVSPropertyOp2
 70
     1
102
RTVSPropertyOp3
 70
     1
102
RTVSPropertyOp4
 70
     1
102
RTVSPropertyOp5
 70
     1
102
RTVSPropertyOp6
 70
     1
102
RTVSPropertyOp7
 70
     1
102
RTVSPropertyOp8
 70
     1
102
RTVSPropertyOp9
 70
     1
102
RTVSPropertyOp10
 70
     1
102
RTVSPropertyOp11
 70
     1
102
RTVSPropertyOp12
 70
     1
102
RTVSPropertyOp13
 70
     1
102
RTVSPropertyOp14
 70
     1
102
RTVSPropertyOp15
 70
     1
102
RTVSPropertyOp16
 70
     1
102
RTVSPropertyOp17
 70
     1
102
RTVSPropertyOp18
 70
     1
102
RTVSPropertyOp19
 70
     1
102
RTVSPropertyOp20
 70
     1
102
RTVSPropertyOp21
 70
     1
102
RTVSPropertyOp22
 70
     1
102
RTVSPropertyOp23
 70
     1
102
RTVSPropertyOp24
 70
     1
102
RTVSPropertyOp25
 70
     1
102
RTVSPropertyOp26
 70
     1
102
RTVSPropertyOp27
 70
     1
102
RTVSPropertyOp28
 70
     1
102
RTVSPropertyOp29
 70
     1
102
RTVSPropertyOp30
 70
     1
102
RTVSPropertyOp31
 70
     1
102
RTVSPropertyOp32
 70
     1
102
RTVSPropertyOp33
 70
     1
102
RTVSPropertyOp34
 70
     1
102
RTVSPropertyOp35
 70
     1
102
RTVSPropertyOp36
 70
     1
102
RTVSPropertyOp37
 70
     1
102
RTVSPropertyOp38
 70
     1
102
RTVSPropertyOp39
 70
     1
102
RTVSPropertyOp40
 70
     1
102
RTVSPropertyOp41
 70
     1
102
RTVSPropertyOp42
 70
     1
102
RTVSPropertyOp43
 70
     1
102
RTVSPropertyOp44
 70
     1
102
RTVSPropertyOp45
 70
     1
102
RTVSPropertyOp46
 70
     1
102
RTVSPropertyOp47
 70
     1
102
RTVSPropertyOp48
 70
     1
102
RTVSPropertyOp49
 70
     1
102
RTVSPropertyOp50
 70
     1
102
RTVSPropertyOp51
 70
     0
102
RTVSPropertyOp52
 70
     0
102
RTVSPropertyOp53
 70
     1
102
RTVSPropertyOp54
 70
     1
102
RTVSPropertyOp55
 70
     1
102
RTVSPropertyOp56
 70
     1
102
RTVSPropertyOp57
 70
     1
102
RTVSPropertyOp58
 70
     1
102
RTVSPropertyOp59
 70
     1
102
RTVSPropertyOp60
 70
     1
102
RTVSPropertyOp61
 70
     1
102
RTVSPropertyOp62
 70
     1
  0
XRECORD
  5
38A
102
{ACAD_REACTORS
330
389
102
}
330
389
100
AcDbXrecord
280
     1
102
RTVSPost2010Prop28
280
     0
102
RTVSPost2010PropOp28
 70
     1
102
RTVSPost2010Prop29
280
     1
102
RTVSPost2010PropOp29
 70
     1
102
RTVSPost2010Prop30
280
     1
102
RTVSPost2010PropOp30
 70
     1
102
RTVSPost2010Prop31
280
     0
102
RTVSPost2010PropOp31
 70
     1
102
RTVSPost2010Prop32
280
     0
102
RTVSPost2010PropOp32
 70
     1
102
RTVSPost2010Prop33
280
     0
102
RTVSPost2010PropOp33
 70
     1
102
RTVSPost2010Prop34
280
     0
102
RTVSPost2010PropOp34
 70
     1
102
RTVSPost2010Prop35
280
     0
102
RTVSPost2010PropOp35
 70
     1
102
RTVSPost2010Prop36
280
     0
102
RTVSPost2010PropOp36
 70
     1
102
RTVSPost2010Prop37
 90
       50
102
RTVSPost2010PropOp37
 70
     1
102
RTVSPost2010Prop38
140
0.0
102
RTVSPost2010PropOp38
 70
     1
102
RTVSPost2010Prop39
140
1.0
102
RTVSPost2010PropOp39
 70
     1
102
RTVSPost2010Prop40
 90
        0
102
RTVSPost2010PropOp40
 70
     1
102
RTVSPost2010Prop41ColorIndex
 90
       18
102
RTVSPost2010Prop41ColorRGB
 90
        0
102
RTVSPost2010PropOp41
 70
     1
102
RTVSPost2010Prop42
 90
       50
102
RTVSPost2010PropOp42
 70
     1
102
RTVSPost2010Prop43
 90
        3
102
RTVSPost2010PropOp43
 70
     1
102
RTVSPost2010Prop44ColorIndex
 90
        5
102
RTVSPost2010Prop44ColorRGB
 90
      255
102
RTVSPost2010PropOp44
 70
     1
102
RTVSPost2010Prop45
280
     0
102
RTVSPost2010PropOp45
 70
     1
102
RTVSPost2010Prop46
 90
       50
102
RTVSPost2010PropOp46
 70
     1
102
RTVSPost2010Prop47
 90
       50
102
RTVSPost2010PropOp47
 70
     1
102
RTVSPost2010Prop48
 90
       50
102
RTVSPost2010PropOp48
 70
     1
102
RTVSPost2010Prop49
280
     0
102
RTVSPost2010PropOp49
 70
     1
102
RTVSPost2010Prop50
 90
       50
102
RTVSPost2010PropOp50
 70
     1
102
RTVSPost2010Prop51ColorIndex
 90
      256
102
RTVSPost2010Prop51ColorRGB
 90
-16777216
102
RTVSPost2010PropOp51
 70
     0
102
RTVSPost2010Prop52
140
1.0
102
RTVSPost2010PropOp52
 70
     0
102
RTVSPost2010Prop53
 90
        2
102
RTVSPost2010PropOp53
 70
     1
102
RTVSPost2010Prop54
  1
strokes_ogs.tif
102
RTVSPost2010PropOp54
 70
     1
102
RTVSPost2010Prop55
280
     0
102
RTVSPost2010PropOp55
 70
     1
102
RTVSPost2010Prop56
140
1.0
102
RTVSPost2010PropOp56
 70
     1
102
RTVSPost2010Prop57
140
1.0
102
RTVSPost2010PropOp57
 70
     1
102
RTVSPropertyOp0
 70
     1
102
RTVSPropertyOp1
 70
     1
102
RTVSPropertyOp2
 70
     1
102
RTVSPropertyOp3
 70
     1
102
RTVSPropertyOp4
 70
     1
102
RTVSPropertyOp5
 70
     1
102
RTVSPropertyOp6
 70
     1
102
RTVSPropertyOp7
 70
     1
102
RTVSPropertyOp8
 70
     1
102
RTVSPropertyOp9
 70
     1
102
RTVSPropertyOp10
 70
     1
102
RTVSPropertyOp11
 70
     1
102
RTVSPropertyOp12
 70
     1
102
RTVSPropertyOp13
 70
     1
102
RTVSPropertyOp14
 70
     1
102
RTVSPropertyOp15
 70
     1
102
RTVSPropertyOp16
 70
     1
102
RTVSPropertyOp17
 70
     1
102
RTVSPropertyOp18
 70
     1
102
RTVSPropertyOp19
 70
     1
102
RTVSPropertyOp20
 70
     1
102
RTVSPropertyOp21
 70
     1
102
RTVSPropertyOp22
 70
     1
102
RTVSPropertyOp23
 70
     1
102
RTVSPropertyOp24
 70
     1
102
RTVSPropertyOp25
 70
     1
102
RTVSPropertyOp26
 70
     1
102
RTVSPropertyOp27
 70
     1
102
RTVSPropertyOp28
 70
     1
102
RTVSPropertyOp29
 70
     1
102
RTVSPropertyOp30
 70
     1
102
RTVSPropertyOp31
 70
     1
102
RTVSPropertyOp32
 70
     1
102
RTVSPropertyOp33
 70
     1
102
RTVSPropertyOp34
 70
     1
102
RTVSPropertyOp35
 70
     1
102
RTVSPropertyOp36
 70
     1
102
RTVSPropertyOp37
 70
     1
102
RTVSPropertyOp38
 70
     1
102
RTVSPropertyOp39
 70
     1
102
RTVSPropertyOp40
 70
     1
102
RTVSPropertyOp41
 70
     1
102
RTVSPropertyOp42
 70
     1
102
RTVSPropertyOp43
 70
     1
102
RTVSPropertyOp44
 70
     1
102
RTVSPropertyOp45
 70
     1
102
RTVSPropertyOp46
 70
     1
102
RTVSPropertyOp47
 70
     1
102
RTVSPropertyOp48
 70
     1
102
RTVSPropertyOp49
 70
     1
102
RTVSPropertyOp50
 70
     1
102
RTVSPropertyOp51
 70
     0
102
RTVSPropertyOp52
 70
     0
102
RTVSPropertyOp53
 70
     1
102
RTVSPropertyOp54
 70
     1
102
RTVSPropertyOp55
 70
     1
102
RTVSPropertyOp56
 70
     1
102
RTVSPropertyOp57
 70
     1
102
RTVSPropertyOp58
 70
     1
102
RTVSPropertyOp59
 70
     1
102
RTVSPropertyOp60
 70
     1
102
RTVSPropertyOp61
 70
     1
102
RTVSPropertyOp62
 70
     1
  0
XRECORD
  5
392
102
{ACAD_REACTORS
330
391
102
}
330
391
100
AcDbXrecord
280
     1
102
RTVSPost2010Prop28
280
     0
102
RTVSPost2010PropOp28
 70
     1
102
RTVSPost2010Prop29
280
     1
102
RTVSPost2010PropOp29
 70
     1
102
RTVSPost2010Prop30
280
     1
102
RTVSPost2010PropOp30
 70
     1
102
RTVSPost2010Prop31
280
     0
102
RTVSPost2010PropOp31
 70
     1
102
RTVSPost2010Prop32
280
     0
102
RTVSPost2010PropOp32
 70
     1
102
RTVSPost2010Prop33
280
     0
102
RTVSPost2010PropOp33
 70
     1
102
RTVSPost2010Prop34
280
     0
102
RTVSPost2010PropOp34
 70
     1
102
RTVSPost2010Prop35
280
     0
102
RTVSPost2010PropOp35
 70
     1
102
RTVSPost2010Prop36
280
     0
102
RTVSPost2010PropOp36
 70
     1
102
RTVSPost2010Prop37
 90
       50
102
RTVSPost2010PropOp37
 70
     1
102
RTVSPost2010Prop38
140
0.0
102
RTVSPost2010PropOp38
 70
     1
102
RTVSPost2010Prop39
140
1.0
102
RTVSPost2010PropOp39
 70
     1
102
RTVSPost2010Prop40
 90
        0
102
RTVSPost2010PropOp40
 70
     1
102
RTVSPost2010Prop41ColorIndex
 90
       18
102
RTVSPost2010Prop41ColorRGB
 90
        0
102
RTVSPost2010PropOp41
 70
     1
102
RTVSPost2010Prop42
 90
       50
102
RTVSPost2010PropOp42
 70
     1
102
RTVSPost2010Prop43
 90
        3
102
RTVSPost2010PropOp43
 70
     1
102
RTVSPost2010Prop44ColorIndex
 90
        5
102
RTVSPost2010Prop44ColorRGB
 90
      255
102
RTVSPost2010PropOp44
 70
     1
102
RTVSPost2010Prop45
280
     0
102
RTVSPost2010PropOp45
 70
     1
102
RTVSPost2010Prop46
 90
       50
102
RTVSPost2010PropOp46
 70
     1
102
RTVSPost2010Prop47
 90
       50
102
RTVSPost2010PropOp47
 70
     1
102
RTVSPost2010Prop48
 90
       50
102
RTVSPost2010PropOp48
 70
     1
102
RTVSPost2010Prop49
280
     0
102
RTVSPost2010PropOp49
 70
     1
102
RTVSPost2010Prop50
 90
       50
102
RTVSPost2010PropOp50
 70
     1
102
RTVSPost2010Prop51ColorIndex
 90
      256
102
RTVSPost2010Prop51ColorRGB
 90
-16777216
102
RTVSPost2010PropOp51
 70
     0
102
RTVSPost2010Prop52
140
1.0
102
RTVSPost2010PropOp52
 70
     0
102
RTVSPost2010Prop53
 90
        2
102
RTVSPost2010PropOp53
 70
     1
102
RTVSPost2010Prop54
  1
strokes_ogs.tif
102
RTVSPost2010PropOp54
 70
     1
102
RTVSPost2010Prop55
280
     0
102
RTVSPost2010PropOp55
 70
     1
102
RTVSPost2010Prop56
140
1.0
102
RTVSPost2010PropOp56
 70
     1
102
RTVSPost2010Prop57
140
1.0
102
RTVSPost2010PropOp57
 70
     1
102
RTVSPropertyOp0
 70
     1
102
RTVSPropertyOp1
 70
     1
102
RTVSPropertyOp2
 70
     1
102
RTVSPropertyOp3
 70
     1
102
RTVSPropertyOp4
 70
     1
102
RTVSPropertyOp5
 70
     1
102
RTVSPropertyOp6
 70
     1
102
RTVSPropertyOp7
 70
     1
102
RTVSPropertyOp8
 70
     1
102
RTVSPropertyOp9
 70
     1
102
RTVSPropertyOp10
 70
     1
102
RTVSPropertyOp11
 70
     1
102
RTVSPropertyOp12
 70
     1
102
RTVSPropertyOp13
 70
     1
102
RTVSPropertyOp14
 70
     1
102
RTVSPropertyOp15
 70
     1
102
RTVSPropertyOp16
 70
     1
102
RTVSPropertyOp17
 70
     1
102
RTVSPropertyOp18
 70
     1
102
RTVSPropertyOp19
 70
     1
102
RTVSPropertyOp20
 70
     1
102
RTVSPropertyOp21
 70
     1
102
RTVSPropertyOp22
 70
     1
102
RTVSPropertyOp23
 70
     1
102
RTVSPropertyOp24
 70
     1
102
RTVSPropertyOp25
 70
     1
102
RTVSPropertyOp26
 70
     1
102
RTVSPropertyOp27
 70
     1
102
RTVSPropertyOp28
 70
     1
102
RTVSPropertyOp29
 70
     1
102
RTVSPropertyOp30
 70
     1
102
RTVSPropertyOp31
 70
     1
102
RTVSPropertyOp32
 70
     1
102
RTVSPropertyOp33
 70
     1
102
RTVSPropertyOp34
 70
     1
102
RTVSPropertyOp35
 70
     1
102
RTVSPropertyOp36
 70
     1
102
RTVSPropertyOp37
 70
     1
102
RTVSPropertyOp38
 70
     1
102
RTVSPropertyOp39
 70
     1
102
RTVSPropertyOp40
 70
     1
102
RTVSPropertyOp41
 70
     1
102
RTVSPropertyOp42
 70
     1
102
RTVSPropertyOp43
 70
     1
102
RTVSPropertyOp44
 70
     1
102
RTVSPropertyOp45
 70
     1
102
RTVSPropertyOp46
 70
     1
102
RTVSPropertyOp47
 70
     1
102
RTVSPropertyOp48
 70
     1
102
RTVSPropertyOp49
 70
     1
102
RTVSPropertyOp50
 70
     1
102
RTVSPropertyOp51
 70
     0
102
RTVSPropertyOp52
 70
     0
102
RTVSPropertyOp53
 70
     1
102
RTVSPropertyOp54
 70
     1
102
RTVSPropertyOp55
 70
     1
102
RTVSPropertyOp56
 70
     1
102
RTVSPropertyOp57
 70
     1
102
RTVSPropertyOp58
 70
     1
102
RTVSPropertyOp59
 70
     1
102
RTVSPropertyOp60
 70
     1
102
RTVSPropertyOp61
 70
     1
102
RTVSPropertyOp62
 70
     1
  0
XRECORD
  5
386
102
{ACAD_REACTORS
330
385
102
}
330
385
100
AcDbXrecord
280
     1
102
RTVSPost2010Prop28
280
     0
102
RTVSPost2010PropOp28
 70
     1
102
RTVSPost2010Prop29
280
     1
102
RTVSPost2010PropOp29
 70
     1
102
RTVSPost2010Prop30
280
     1
102
RTVSPost2010PropOp30
 70
     1
102
RTVSPost2010Prop31
280
     0
102
RTVSPost2010PropOp31
 70
     1
102
RTVSPost2010Prop32
280
     0
102
RTVSPost2010PropOp32
 70
     1
102
RTVSPost2010Prop33
280
     0
102
RTVSPost2010PropOp33
 70
     1
102
RTVSPost2010Prop34
280
     0
102
RTVSPost2010PropOp34
 70
     1
102
RTVSPost2010Prop35
280
     0
102
RTVSPost2010PropOp35
 70
     1
102
RTVSPost2010Prop36
280
     0
102
RTVSPost2010PropOp36
 70
     1
102
RTVSPost2010Prop37
 90
       50
102
RTVSPost2010PropOp37
 70
     1
102
RTVSPost2010Prop38
140
0.0
102
RTVSPost2010PropOp38
 70
     1
102
RTVSPost2010Prop39
140
1.0
102
RTVSPost2010PropOp39
 70
     1
102
RTVSPost2010Prop40
 90
        0
102
RTVSPost2010PropOp40
 70
     1
102
RTVSPost2010Prop41ColorIndex
 90
       18
102
RTVSPost2010Prop41ColorRGB
 90
        0
102
RTVSPost2010PropOp41
 70
     1
102
RTVSPost2010Prop42
 90
       50
102
RTVSPost2010PropOp42
 70
     1
102
RTVSPost2010Prop43
 90
        3
102
RTVSPost2010PropOp43
 70
     1
102
RTVSPost2010Prop44ColorIndex
 90
        5
102
RTVSPost2010Prop44ColorRGB
 90
      255
102
RTVSPost2010PropOp44
 70
     1
102
RTVSPost2010Prop45
280
     0
102
RTVSPost2010PropOp45
 70
     1
102
RTVSPost2010Prop46
 90
       50
102
RTVSPost2010PropOp46
 70
     1
102
RTVSPost2010Prop47
 90
       50
102
RTVSPost2010PropOp47
 70
     1
102
RTVSPost2010Prop48
 90
       50
102
RTVSPost2010PropOp48
 70
     1
102
RTVSPost2010Prop49
280
     0
102
RTVSPost2010PropOp49
 70
     1
102
RTVSPost2010Prop50
 90
       50
102
RTVSPost2010PropOp50
 70
     1
102
RTVSPost2010Prop51ColorIndex
 90
      256
102
RTVSPost2010Prop51ColorRGB
 90
-16777216
102
RTVSPost2010PropOp51
 70
     0
102
RTVSPost2010Prop52
140
1.0
102
RTVSPost2010PropOp52
 70
     0
102
RTVSPost2010Prop53
 90
        2
102
RTVSPost2010PropOp53
 70
     1
102
RTVSPost2010Prop54
  1
strokes_ogs.tif
102
RTVSPost2010PropOp54
 70
     1
102
RTVSPost2010Prop55
280
     0
102
RTVSPost2010PropOp55
 70
     1
102
RTVSPost2010Prop56
140
1.0
102
RTVSPost2010PropOp56
 70
     1
102
RTVSPost2010Prop57
140
1.0
102
RTVSPost2010PropOp57
 70
     1
102
RTVSPropertyOp0
 70
     1
102
RTVSPropertyOp1
 70
     1
102
RTVSPropertyOp2
 70
     1
102
RTVSPropertyOp3
 70
     1
102
RTVSPropertyOp4
 70
     1
102
RTVSPropertyOp5
 70
     1
102
RTVSPropertyOp6
 70
     1
102
RTVSPropertyOp7
 70
     1
102
RTVSPropertyOp8
 70
     1
102
RTVSPropertyOp9
 70
     1
102
RTVSPropertyOp10
 70
     1
102
RTVSPropertyOp11
 70
     1
102
RTVSPropertyOp12
 70
     1
102
RTVSPropertyOp13
 70
     1
102
RTVSPropertyOp14
 70
     1
102
RTVSPropertyOp15
 70
     1
102
RTVSPropertyOp16
 70
     1
102
RTVSPropertyOp17
 70
     1
102
RTVSPropertyOp18
 70
     1
102
RTVSPropertyOp19
 70
     1
102
RTVSPropertyOp20
 70
     1
102
RTVSPropertyOp21
 70
     1
102
RTVSPropertyOp22
 70
     1
102
RTVSPropertyOp23
 70
     1
102
RTVSPropertyOp24
 70
     1
102
RTVSPropertyOp25
 70
     1
102
RTVSPropertyOp26
 70
     1
102
RTVSPropertyOp27
 70
     1
102
RTVSPropertyOp28
 70
     1
102
RTVSPropertyOp29
 70
     1
102
RTVSPropertyOp30
 70
     1
102
RTVSPropertyOp31
 70
     1
102
RTVSPropertyOp32
 70
     1
102
RTVSPropertyOp33
 70
     1
102
RTVSPropertyOp34
 70
     1
102
RTVSPropertyOp35
 70
     1
102
RTVSPropertyOp36
 70
     1
102
RTVSPropertyOp37
 70
     1
102
RTVSPropertyOp38
 70
     1
102
RTVSPropertyOp39
 70
     1
102
RTVSPropertyOp40
 70
     1
102
RTVSPropertyOp41
 70
     1
102
RTVSPropertyOp42
 70
     1
102
RTVSPropertyOp43
 70
     1
102
RTVSPropertyOp44
 70
     1
102
RTVSPropertyOp45
 70
     1
102
RTVSPropertyOp46
 70
     1
102
RTVSPropertyOp47
 70
     1
102
RTVSPropertyOp48
 70
     1
102
RTVSPropertyOp49
 70
     1
102
RTVSPropertyOp50
 70
     1
102
RTVSPropertyOp51
 70
     0
102
RTVSPropertyOp52
 70
     0
102
RTVSPropertyOp53
 70
     1
102
RTVSPropertyOp54
 70
     1
102
RTVSPropertyOp55
 70
     1
102
RTVSPropertyOp56
 70
     1
102
RTVSPropertyOp57
 70
     1
102
RTVSPropertyOp58
 70
     1
102
RTVSPropertyOp59
 70
     1
102
RTVSPropertyOp60
 70
     1
102
RTVSPropertyOp61
 70
     1
102
RTVSPropertyOp62
 70
     1
  0
XRECORD
  5
388
102
{ACAD_REACTORS
330
387
102
}
330
387
100
AcDbXrecord
280
     1
102
RTVSPost2010Prop28
280
     0
102
RTVSPost2010PropOp28
 70
     1
102
RTVSPost2010Prop29
280
     1
102
RTVSPost2010PropOp29
 70
     1
102
RTVSPost2010Prop30
280
     1
102
RTVSPost2010PropOp30
 70
     1
102
RTVSPost2010Prop31
280
     0
102
RTVSPost2010PropOp31
 70
     1
102
RTVSPost2010Prop32
280
     0
102
RTVSPost2010PropOp32
 70
     1
102
RTVSPost2010Prop33
280
     0
102
RTVSPost2010PropOp33
 70
     1
102
RTVSPost2010Prop34
280
     0
102
RTVSPost2010PropOp34
 70
     1
102
RTVSPost2010Prop35
280
     0
102
RTVSPost2010PropOp35
 70
     1
102
RTVSPost2010Prop36
280
     0
102
RTVSPost2010PropOp36
 70
     1
102
RTVSPost2010Prop37
 90
       50
102
RTVSPost2010PropOp37
 70
     1
102
RTVSPost2010Prop38
140
0.0
102
RTVSPost2010PropOp38
 70
     1
102
RTVSPost2010Prop39
140
1.0
102
RTVSPost2010PropOp39
 70
     1
102
RTVSPost2010Prop40
 90
        0
102
RTVSPost2010PropOp40
 70
     1
102
RTVSPost2010Prop41ColorIndex
 90
       18
102
RTVSPost2010Prop41ColorRGB
 90
        0
102
RTVSPost2010PropOp41
 70
     1
102
RTVSPost2010Prop42
 90
       50
102
RTVSPost2010PropOp42
 70
     1
102
RTVSPost2010Prop43
 90
        3
102
RTVSPost2010PropOp43
 70
     1
102
RTVSPost2010Prop44ColorIndex
 90
        5
102
RTVSPost2010Prop44ColorRGB
 90
      255
102
RTVSPost2010PropOp44
 70
     1
102
RTVSPost2010Prop45
280
     0
102
RTVSPost2010PropOp45
 70
     1
102
RTVSPost2010Prop46
 90
       50
102
RTVSPost2010PropOp46
 70
     1
102
RTVSPost2010Prop47
 90
       50
102
RTVSPost2010PropOp47
 70
     1
102
RTVSPost2010Prop48
 90
       50
102
RTVSPost2010PropOp48
 70
     1
102
RTVSPost2010Prop49
280
     0
102
RTVSPost2010PropOp49
 70
     1
102
RTVSPost2010Prop50
 90
       50
102
RTVSPost2010PropOp50
 70
     1
102
RTVSPost2010Prop51ColorIndex
 90
      256
102
RTVSPost2010Prop51ColorRGB
 90
-16777216
102
RTVSPost2010PropOp51
 70
     0
102
RTVSPost2010Prop52
140
1.0
102
RTVSPost2010PropOp52
 70
     0
102
RTVSPost2010Prop53
 90
        2
102
RTVSPost2010PropOp53
 70
     1
102
RTVSPost2010Prop54
  1
strokes_ogs.tif
102
RTVSPost2010PropOp54
 70
     1
102
RTVSPost2010Prop55
280
     0
102
RTVSPost2010PropOp55
 70
     1
102
RTVSPost2010Prop56
140
1.0
102
RTVSPost2010PropOp56
 70
     1
102
RTVSPost2010Prop57
140
1.0
102
RTVSPost2010PropOp57
 70
     1
102
RTVSPropertyOp0
 70
     1
102
RTVSPropertyOp1
 70
     1
102
RTVSPropertyOp2
 70
     1
102
RTVSPropertyOp3
 70
     1
102
RTVSPropertyOp4
 70
     1
102
RTVSPropertyOp5
 70
     1
102
RTVSPropertyOp6
 70
     1
102
RTVSPropertyOp7
 70
     1
102
RTVSPropertyOp8
 70
     1
102
RTVSPropertyOp9
 70
     1
102
RTVSPropertyOp10
 70
     1
102
RTVSPropertyOp11
 70
     1
102
RTVSPropertyOp12
 70
     1
102
RTVSPropertyOp13
 70
     1
102
RTVSPropertyOp14
 70
     1
102
RTVSPropertyOp15
 70
     1
102
RTVSPropertyOp16
 70
     1
102
RTVSPropertyOp17
 70
     1
102
RTVSPropertyOp18
 70
     1
102
RTVSPropertyOp19
 70
     1
102
RTVSPropertyOp20
 70
     1
102
RTVSPropertyOp21
 70
     1
102
RTVSPropertyOp22
 70
     1
102
RTVSPropertyOp23
 70
     1
102
RTVSPropertyOp24
 70
     1
102
RTVSPropertyOp25
 70
     1
102
RTVSPropertyOp26
 70
     1
102
RTVSPropertyOp27
 70
     1
102
RTVSPropertyOp28
 70
     1
102
RTVSPropertyOp29
 70
     1
102
RTVSPropertyOp30
 70
     1
102
RTVSPropertyOp31
 70
     1
102
RTVSPropertyOp32
 70
     1
102
RTVSPropertyOp33
 70
     1
102
RTVSPropertyOp34
 70
     1
102
RTVSPropertyOp35
 70
     1
102
RTVSPropertyOp36
 70
     1
102
RTVSPropertyOp37
 70
     1
102
RTVSPropertyOp38
 70
     1
102
RTVSPropertyOp39
 70
     1
102
RTVSPropertyOp40
 70
     1
102
RTVSPropertyOp41
 70
     1
102
RTVSPropertyOp42
 70
     1
102
RTVSPropertyOp43
 70
     1
102
RTVSPropertyOp44
 70
     1
102
RTVSPropertyOp45
 70
     1
102
RTVSPropertyOp46
 70
     1
102
RTVSPropertyOp47
 70
     1
102
RTVSPropertyOp48
 70
     1
102
RTVSPropertyOp49
 70
     1
102
RTVSPropertyOp50
 70
     1
102
RTVSPropertyOp51
 70
     0
102
RTVSPropertyOp52
 70
     0
102
RTVSPropertyOp53
 70
     1
102
RTVSPropertyOp54
 70
     1
102
RTVSPropertyOp55
 70
     1
102
RTVSPropertyOp56
 70
     1
102
RTVSPropertyOp57
 70
     1
102
RTVSPropertyOp58
 70
     1
102
RTVSPropertyOp59
 70
     1
102
RTVSPropertyOp60
 70
     1
102
RTVSPropertyOp61
 70
     1
102
RTVSPropertyOp62
 70
     1
  0
XRECORD
  5
398
102
{ACAD_REACTORS
330
397
102
}
330
397
100
AcDbXrecord
280
     1
102
RTVSPost2010Prop28
280
     0
102
RTVSPost2010PropOp28
 70
     0
102
RTVSPost2010Prop29
280
     1
102
RTVSPost2010PropOp29
 70
     0
102
RTVSPost2010Prop30
280
     1
102
RTVSPost2010PropOp30
 70
     0
102
RTVSPost2010Prop31
280
     0
102
RTVSPost2010PropOp31
 70
     0
102
RTVSPost2010Prop32
280
     0
102
RTVSPost2010PropOp32
 70
     0
102
RTVSPost2010Prop33
280
     0
102
RTVSPost2010PropOp33
 70
     0
102
RTVSPost2010Prop34
280
     0
102
RTVSPost2010PropOp34
 70
     0
102
RTVSPost2010Prop35
280
     0
102
RTVSPost2010PropOp35
 70
     0
102
RTVSPost2010Prop36
280
     0
102
RTVSPost2010PropOp36
 70
     0
102
RTVSPost2010Prop37
 90
       50
102
RTVSPost2010PropOp37
 70
     0
102
RTVSPost2010Prop38
140
0.0
102
RTVSPost2010PropOp38
 70
     0
102
RTVSPost2010Prop39
140
1.0
102
RTVSPost2010PropOp39
 70
     0
102
RTVSPost2010Prop40
 90
        0
102
RTVSPost2010PropOp40
 70
     0
102
RTVSPost2010Prop41ColorIndex
 90
       18
102
RTVSPost2010Prop41ColorRGB
 90
        0
102
RTVSPost2010PropOp41
 70
     0
102
RTVSPost2010Prop42
 90
       50
102
RTVSPost2010PropOp42
 70
     0
102
RTVSPost2010Prop43
 90
        3
102
RTVSPost2010PropOp43
 70
     0
102
RTVSPost2010Prop44ColorIndex
 90
        5
102
RTVSPost2010Prop44ColorRGB
 90
      255
102
RTVSPost2010PropOp44
 70
     0
102
RTVSPost2010Prop45
280
     0
102
RTVSPost2010PropOp45
 70
     0
102
RTVSPost2010Prop46
 90
       50
102
RTVSPost2010PropOp46
 70
     0
102
RTVSPost2010Prop47
 90
       50
102
RTVSPost2010PropOp47
 70
     0
102
RTVSPost2010Prop48
 90
       50
102
RTVSPost2010PropOp48
 70
     0
102
RTVSPost2010Prop49
280
     0
102
RTVSPost2010PropOp49
 70
     0
102
RTVSPost2010Prop50
 90
       50
102
RTVSPost2010PropOp50
 70
     0
102
RTVSPost2010Prop51ColorIndex
 90
      256
102
RTVSPost2010Prop51ColorRGB
 90
-16777216
102
RTVSPost2010PropOp51
 70
     0
102
RTVSPost2010Prop52
140
1.0
102
RTVSPost2010PropOp52
 70
     0
102
RTVSPost2010Prop53
 90
        2
102
RTVSPost2010PropOp53
 70
     0
102
RTVSPost2010Prop54
  1
strokes_ogs.tif
102
RTVSPost2010PropOp54
 70
     0
102
RTVSPost2010Prop55
280
     0
102
RTVSPost2010PropOp55
 70
     0
102
RTVSPost2010Prop56
140
1.0
102
RTVSPost2010PropOp56
 70
     0
102
RTVSPost2010Prop57
140
1.0
102
RTVSPost2010PropOp57
 70
     0
102
RTVSPropertyOp0
 70
     0
102
RTVSPropertyOp1
 70
     0
102
RTVSPropertyOp2
 70
     0
102
RTVSPropertyOp3
 70
     0
102
RTVSPropertyOp4
 70
     0
102
RTVSPropertyOp5
 70
     0
102
RTVSPropertyOp6
 70
     0
102
RTVSPropertyOp7
 70
     0
102
RTVSPropertyOp8
 70
     0
102
RTVSPropertyOp9
 70
     0
102
RTVSPropertyOp10
 70
     0
102
RTVSPropertyOp11
 70
     0
102
RTVSPropertyOp12
 70
     0
102
RTVSPropertyOp13
 70
     0
102
RTVSPropertyOp14
 70
     2
102
RTVSPropertyOp15
 70
     0
102
RTVSPropertyOp16
 70
     0
102
RTVSPropertyOp17
 70
     0
102
RTVSPropertyOp18
 70
     0
102
RTVSPropertyOp19
 70
     0
102
RTVSPropertyOp20
 70
     0
102
RTVSPropertyOp21
 70
     0
102
RTVSPropertyOp22
 70
     0
102
RTVSPropertyOp23
 70
     0
102
RTVSPropertyOp24
 70
     0
102
RTVSPropertyOp25
 70
     0
102
RTVSPropertyOp26
 70
     0
102
RTVSPropertyOp27
 70
     0
102
RTVSPropertyOp28
 70
     0
102
RTVSPropertyOp29
 70
     0
102
RTVSPropertyOp30
 70
     0
102
RTVSPropertyOp31
 70
     0
102
RTVSPropertyOp32
 70
     0
102
RTVSPropertyOp33
 70
     0
102
RTVSPropertyOp34
 70
     0
102
RTVSPropertyOp35
 70
     0
102
RTVSPropertyOp36
 70
     0
102
RTVSPropertyOp37
 70
     0
102
RTVSPropertyOp38
 70
     0
102
RTVSPropertyOp39
 70
     0
102
RTVSPropertyOp40
 70
     0
102
RTVSPropertyOp41
 70
     0
102
RTVSPropertyOp42
 70
     0
102
RTVSPropertyOp43
 70
     0
102
RTVSPropertyOp44
 70
     0
102
RTVSPropertyOp45
 70
     0
102
RTVSPropertyOp46
 70
     0
102
RTVSPropertyOp47
 70
     0
102
RTVSPropertyOp48
 70
     0
102
RTVSPropertyOp49
 70
     0
102
RTVSPropertyOp50
 70
     0
102
RTVSPropertyOp51
 70
     0
102
RTVSPropertyOp52
 70
     0
102
RTVSPropertyOp53
 70
     0
102
RTVSPropertyOp54
 70
     0
102
RTVSPropertyOp55
 70
     0
102
RTVSPropertyOp56
 70
     0
102
RTVSPropertyOp57
 70
     0
102
RTVSPropertyOp58
 70
     1
102
RTVSPropertyOp59
 70
     1
102
RTVSPropertyOp60
 70
     1
102
RTVSPropertyOp61
 70
     1
102
RTVSPropertyOp62
 70
     1
  0
XRECORD
  5
390
102
{ACAD_REACTORS
330
38F
102
}
330
38F
100
AcDbXrecord
280
     1
102
RTVSPost2010Prop28
280
     0
102
RTVSPost2010PropOp28
 70
     1
102
RTVSPost2010Prop29
280
     1
102
RTVSPost2010PropOp29
 70
     1
102
RTVSPost2010Prop30
280
     1
102
RTVSPost2010PropOp30
 70
     1
102
RTVSPost2010Prop31
280
     0
102
RTVSPost2010PropOp31
 70
     1
102
RTVSPost2010Prop32
280
     0
102
RTVSPost2010PropOp32
 70
     1
102
RTVSPost2010Prop33
280
     0
102
RTVSPost2010PropOp33
 70
     1
102
RTVSPost2010Prop34
280
     0
102
RTVSPost2010PropOp34
 70
     1
102
RTVSPost2010Prop35
280
     0
102
RTVSPost2010PropOp35
 70
     1
102
RTVSPost2010Prop36
280
     0
102
RTVSPost2010PropOp36
 70
     1
102
RTVSPost2010Prop37
 90
       50
102
RTVSPost2010PropOp37
 70
     1
102
RTVSPost2010Prop38
140
0.0
102
RTVSPost2010PropOp38
 70
     1
102
RTVSPost2010Prop39
140
1.0
102
RTVSPost2010PropOp39
 70
     1
102
RTVSPost2010Prop40
 90
        0
102
RTVSPost2010PropOp40
 70
     1
102
RTVSPost2010Prop41ColorIndex
 90
       18
102
RTVSPost2010Prop41ColorRGB
 90
        0
102
RTVSPost2010PropOp41
 70
     1
102
RTVSPost2010Prop42
 90
       50
102
RTVSPost2010PropOp42
 70
     1
102
RTVSPost2010Prop43
 90
        3
102
RTVSPost2010PropOp43
 70
     1
102
RTVSPost2010Prop44ColorIndex
 90
        5
102
RTVSPost2010Prop44ColorRGB
 90
      255
102
RTVSPost2010PropOp44
 70
     1
102
RTVSPost2010Prop45
280
     0
102
RTVSPost2010PropOp45
 70
     1
102
RTVSPost2010Prop46
 90
       50
102
RTVSPost2010PropOp46
 70
     1
102
RTVSPost2010Prop47
 90
       50
102
RTVSPost2010PropOp47
 70
     1
102
RTVSPost2010Prop48
 90
       50
102
RTVSPost2010PropOp48
 70
     1
102
RTVSPost2010Prop49
280
     0
102
RTVSPost2010PropOp49
 70
     1
102
RTVSPost2010Prop50
 90
       50
102
RTVSPost2010PropOp50
 70
     1
102
RTVSPost2010Prop51ColorIndex
 90
      256
102
RTVSPost2010Prop51ColorRGB
 90
-16777216
102
RTVSPost2010PropOp51
 70
     0
102
RTVSPost2010Prop52
140
1.0
102
RTVSPost2010PropOp52
 70
     0
102
RTVSPost2010Prop53
 90
        2
102
RTVSPost2010PropOp53
 70
     1
102
RTVSPost2010Prop54
  1
strokes_ogs.tif
102
RTVSPost2010PropOp54
 70
     1
102
RTVSPost2010Prop55
280
     0
102
RTVSPost2010PropOp55
 70
     1
102
RTVSPost2010Prop56
140
1.0
102
RTVSPost2010PropOp56
 70
     1
102
RTVSPost2010Prop57
140
1.0
102
RTVSPost2010PropOp57
 70
     1
102
RTVSPropertyOp0
 70
     1
102
RTVSPropertyOp1
 70
     1
102
RTVSPropertyOp2
 70
     1
102
RTVSPropertyOp3
 70
     1
102
RTVSPropertyOp4
 70
     1
102
RTVSPropertyOp5
 70
     1
102
RTVSPropertyOp6
 70
     1
102
RTVSPropertyOp7
 70
     1
102
RTVSPropertyOp8
 70
     1
102
RTVSPropertyOp9
 70
     1
102
RTVSPropertyOp10
 70
     1
102
RTVSPropertyOp11
 70
     1
102
RTVSPropertyOp12
 70
     1
102
RTVSPropertyOp13
 70
     1
102
RTVSPropertyOp14
 70
     1
102
RTVSPropertyOp15
 70
     1
102
RTVSPropertyOp16
 70
     1
102
RTVSPropertyOp17
 70
     1
102
RTVSPropertyOp18
 70
     1
102
RTVSPropertyOp19
 70
     1
102
RTVSPropertyOp20
 70
     1
102
RTVSPropertyOp21
 70
     1
102
RTVSPropertyOp22
 70
     1
102
RTVSPropertyOp23
 70
     1
102
RTVSPropertyOp24
 70
     1
102
RTVSPropertyOp25
 70
     1
102
RTVSPropertyOp26
 70
     1
102
RTVSPropertyOp27
 70
     1
102
RTVSPropertyOp28
 70
     1
102
RTVSPropertyOp29
 70
     1
102
RTVSPropertyOp30
 70
     1
102
RTVSPropertyOp31
 70
     1
102
RTVSPropertyOp32
 70
     1
102
RTVSPropertyOp33
 70
     1
102
RTVSPropertyOp34
 70
     1
102
RTVSPropertyOp35
 70
     1
102
RTVSPropertyOp36
 70
     1
102
RTVSPropertyOp37
 70
     1
102
RTVSPropertyOp38
 70
     1
102
RTVSPropertyOp39
 70
     1
102
RTVSPropertyOp40
 70
     1
102
RTVSPropertyOp41
 70
     1
102
RTVSPropertyOp42
 70
     1
102
RTVSPropertyOp43
 70
     1
102
RTVSPropertyOp44
 70
     1
102
RTVSPropertyOp45
 70
     1
102
RTVSPropertyOp46
 70
     1
102
RTVSPropertyOp47
 70
     1
102
RTVSPropertyOp48
 70
     1
102
RTVSPropertyOp49
 70
     1
102
RTVSPropertyOp50
 70
     1
102
RTVSPropertyOp51
 70
     0
102
RTVSPropertyOp52
 70
     0
102
RTVSPropertyOp53
 70
     1
102
RTVSPropertyOp54
 70
     1
102
RTVSPropertyOp55
 70
     1
102
RTVSPropertyOp56
 70
     1
102
RTVSPropertyOp57
 70
     1
102
RTVSPropertyOp58
 70
     1
102
RTVSPropertyOp59
 70
     1
102
RTVSPropertyOp60
 70
     1
102
RTVSPropertyOp61
 70
     1
102
RTVSPropertyOp62
 70
     1
  0
XRECORD
  5
374
102
{ACAD_REACTORS
330
373
102
}
330
373
100
AcDbXrecord
280
     1
102
RTVSPost2010Prop28
280
     0
102
RTVSPost2010PropOp28
 70
     1
102
RTVSPost2010Prop29
280
     1
102
RTVSPost2010PropOp29
 70
     1
102
RTVSPost2010Prop30
280
     1
102
RTVSPost2010PropOp30
 70
     1
102
RTVSPost2010Prop31
280
     0
102
RTVSPost2010PropOp31
 70
     1
102
RTVSPost2010Prop32
280
     0
102
RTVSPost2010PropOp32
 70
     1
102
RTVSPost2010Prop33
280
     0
102
RTVSPost2010PropOp33
 70
     1
102
RTVSPost2010Prop34
280
     0
102
RTVSPost2010PropOp34
 70
     1
102
RTVSPost2010Prop35
280
     0
102
RTVSPost2010PropOp35
 70
     1
102
RTVSPost2010Prop36
280
     0
102
RTVSPost2010PropOp36
 70
     1
102
RTVSPost2010Prop37
 90
       50
102
RTVSPost2010PropOp37
 70
     1
102
RTVSPost2010Prop38
140
0.0
102
RTVSPost2010PropOp38
 70
     1
102
RTVSPost2010Prop39
140
1.0
102
RTVSPost2010PropOp39
 70
     1
102
RTVSPost2010Prop40
 90
        0
102
RTVSPost2010PropOp40
 70
     1
102
RTVSPost2010Prop41ColorIndex
 90
       18
102
RTVSPost2010Prop41ColorRGB
 90
        0
102
RTVSPost2010PropOp41
 70
     1
102
RTVSPost2010Prop42
 90
       50
102
RTVSPost2010PropOp42
 70
     1
102
RTVSPost2010Prop43
 90
        3
102
RTVSPost2010PropOp43
 70
     1
102
RTVSPost2010Prop44ColorIndex
 90
        5
102
RTVSPost2010Prop44ColorRGB
 90
      255
102
RTVSPost2010PropOp44
 70
     1
102
RTVSPost2010Prop45
280
     0
102
RTVSPost2010PropOp45
 70
     1
102
RTVSPost2010Prop46
 90
       50
102
RTVSPost2010PropOp46
 70
     1
102
RTVSPost2010Prop47
 90
       50
102
RTVSPost2010PropOp47
 70
     1
102
RTVSPost2010Prop48
 90
       50
102
RTVSPost2010PropOp48
 70
     1
102
RTVSPost2010Prop49
280
     0
102
RTVSPost2010PropOp49
 70
     1
102
RTVSPost2010Prop50
 90
       50
102
RTVSPost2010PropOp50
 70
     1
102
RTVSPost2010Prop51ColorIndex
 90
      256
102
RTVSPost2010Prop51ColorRGB
 90
-16777216
102
RTVSPost2010PropOp51
 70
     0
102
RTVSPost2010Prop52
140
1.0
102
RTVSPost2010PropOp52
 70
     0
102
RTVSPost2010Prop53
 90
        2
102
RTVSPost2010PropOp53
 70
     1
102
RTVSPost2010Prop54
  1
strokes_ogs.tif
102
RTVSPost2010PropOp54
 70
     1
102
RTVSPost2010Prop55
280
     0
102
RTVSPost2010PropOp55
 70
     1
102
RTVSPost2010Prop56
140
1.0
102
RTVSPost2010PropOp56
 70
     1
102
RTVSPost2010Prop57
140
1.0
102
RTVSPost2010PropOp57
 70
     1
102
RTVSPropertyOp0
 70
     1
102
RTVSPropertyOp1
 70
     1
102
RTVSPropertyOp2
 70
     1
102
RTVSPropertyOp3
 70
     1
102
RTVSPropertyOp4
 70
     1
102
RTVSPropertyOp5
 70
     1
102
RTVSPropertyOp6
 70
     1
102
RTVSPropertyOp7
 70
     1
102
RTVSPropertyOp8
 70
     1
102
RTVSPropertyOp9
 70
     1
102
RTVSPropertyOp10
 70
     1
102
RTVSPropertyOp11
 70
     1
102
RTVSPropertyOp12
 70
     1
102
RTVSPropertyOp13
 70
     1
102
RTVSPropertyOp14
 70
     1
102
RTVSPropertyOp15
 70
     1
102
RTVSPropertyOp16
 70
     1
102
RTVSPropertyOp17
 70
     1
102
RTVSPropertyOp18
 70
     1
102
RTVSPropertyOp19
 70
     1
102
RTVSPropertyOp20
 70
     1
102
RTVSPropertyOp21
 70
     1
102
RTVSPropertyOp22
 70
     1
102
RTVSPropertyOp23
 70
     1
102
RTVSPropertyOp24
 70
     1
102
RTVSPropertyOp25
 70
     1
102
RTVSPropertyOp26
 70
     1
102
RTVSPropertyOp27
 70
     1
102
RTVSPropertyOp28
 70
     1
102
RTVSPropertyOp29
 70
     1
102
RTVSPropertyOp30
 70
     1
102
RTVSPropertyOp31
 70
     1
102
RTVSPropertyOp32
 70
     1
102
RTVSPropertyOp33
 70
     1
102
RTVSPropertyOp34
 70
     1
102
RTVSPropertyOp35
 70
     1
102
RTVSPropertyOp36
 70
     1
102
RTVSPropertyOp37
 70
     1
102
RTVSPropertyOp38
 70
     1
102
RTVSPropertyOp39
 70
     1
102
RTVSPropertyOp40
 70
     1
102
RTVSPropertyOp41
 70
     1
102
RTVSPropertyOp42
 70
     1
102
RTVSPropertyOp43
 70
     1
102
RTVSPropertyOp44
 70
     1
102
RTVSPropertyOp45
 70
     1
102
RTVSPropertyOp46
 70
     1
102
RTVSPropertyOp47
 70
     1
102
RTVSPropertyOp48
 70
     1
102
RTVSPropertyOp49
 70
     1
102
RTVSPropertyOp50
 70
     1
102
RTVSPropertyOp51
 70
     0
102
RTVSPropertyOp52
 70
     0
102
RTVSPropertyOp53
 70
     1
102
RTVSPropertyOp54
 70
     1
102
RTVSPropertyOp55
 70
     1
102
RTVSPropertyOp56
 70
     1
102
RTVSPropertyOp57
 70
     1
102
RTVSPropertyOp58
 70
     1
102
RTVSPropertyOp59
 70
     1
102
RTVSPropertyOp60
 70
     1
102
RTVSPropertyOp61
 70
     1
102
RTVSPropertyOp62
 70
     1
  0
XRECORD
  5
376
102
{ACAD_REACTORS
330
375
102
}
330
375
100
AcDbXrecord
280
     1
102
RTVSPost2010Prop28
280
     0
102
RTVSPost2010PropOp28
 70
     1
102
RTVSPost2010Prop29
280
     1
102
RTVSPost2010PropOp29
 70
     1
102
RTVSPost2010Prop30
280
     1
102
RTVSPost2010PropOp30
 70
     1
102
RTVSPost2010Prop31
280
     0
102
RTVSPost2010PropOp31
 70
     1
102
RTVSPost2010Prop32
280
     0
102
RTVSPost2010PropOp32
 70
     1
102
RTVSPost2010Prop33
280
     0
102
RTVSPost2010PropOp33
 70
     1
102
RTVSPost2010Prop34
280
     0
102
RTVSPost2010PropOp34
 70
     1
102
RTVSPost2010Prop35
280
     0
102
RTVSPost2010PropOp35
 70
     1
102
RTVSPost2010Prop36
280
     0
102
RTVSPost2010PropOp36
 70
     1
102
RTVSPost2010Prop37
 90
       50
102
RTVSPost2010PropOp37
 70
     1
102
RTVSPost2010Prop38
140
0.0
102
RTVSPost2010PropOp38
 70
     1
102
RTVSPost2010Prop39
140
1.0
102
RTVSPost2010PropOp39
 70
     1
102
RTVSPost2010Prop40
 90
        0
102
RTVSPost2010PropOp40
 70
     1
102
RTVSPost2010Prop41ColorIndex
 90
       18
102
RTVSPost2010Prop41ColorRGB
 90
        0
102
RTVSPost2010PropOp41
 70
     1
102
RTVSPost2010Prop42
 90
       50
102
RTVSPost2010PropOp42
 70
     1
102
RTVSPost2010Prop43
 90
        3
102
RTVSPost2010PropOp43
 70
     1
102
RTVSPost2010Prop44ColorIndex
 90
        5
102
RTVSPost2010Prop44ColorRGB
 90
      255
102
RTVSPost2010PropOp44
 70
     1
102
RTVSPost2010Prop45
280
     0
102
RTVSPost2010PropOp45
 70
     1
102
RTVSPost2010Prop46
 90
       50
102
RTVSPost2010PropOp46
 70
     1
102
RTVSPost2010Prop47
 90
       50
102
RTVSPost2010PropOp47
 70
     1
102
RTVSPost2010Prop48
 90
       50
102
RTVSPost2010PropOp48
 70
     1
102
RTVSPost2010Prop49
280
     0
102
RTVSPost2010PropOp49
 70
     1
102
RTVSPost2010Prop50
 90
       50
102
RTVSPost2010PropOp50
 70
     1
102
RTVSPost2010Prop51ColorIndex
 90
      256
102
RTVSPost2010Prop51ColorRGB
 90
-16777216
102
RTVSPost2010PropOp51
 70
     0
102
RTVSPost2010Prop52
140
1.0
102
RTVSPost2010PropOp52
 70
     0
102
RTVSPost2010Prop53
 90
        2
102
RTVSPost2010PropOp53
 70
     1
102
RTVSPost2010Prop54
  1
strokes_ogs.tif
102
RTVSPost2010PropOp54
 70
     1
102
RTVSPost2010Prop55
280
     0
102
RTVSPost2010PropOp55
 70
     1
102
RTVSPost2010Prop56
140
1.0
102
RTVSPost2010PropOp56
 70
     1
102
RTVSPost2010Prop57
140
1.0
102
RTVSPost2010PropOp57
 70
     1
102
RTVSPropertyOp0
 70
     1
102
RTVSPropertyOp1
 70
     1
102
RTVSPropertyOp2
 70
     1
102
RTVSPropertyOp3
 70
     1
102
RTVSPropertyOp4
 70
     1
102
RTVSPropertyOp5
 70
     1
102
RTVSPropertyOp6
 70
     1
102
RTVSPropertyOp7
 70
     1
102
RTVSPropertyOp8
 70
     1
102
RTVSPropertyOp9
 70
     1
102
RTVSPropertyOp10
 70
     1
102
RTVSPropertyOp11
 70
     1
102
RTVSPropertyOp12
 70
     1
102
RTVSPropertyOp13
 70
     1
102
RTVSPropertyOp14
 70
     1
102
RTVSPropertyOp15
 70
     1
102
RTVSPropertyOp16
 70
     1
102
RTVSPropertyOp17
 70
     1
102
RTVSPropertyOp18
 70
     1
102
RTVSPropertyOp19
 70
     1
102
RTVSPropertyOp20
 70
     1
102
RTVSPropertyOp21
 70
     1
102
RTVSPropertyOp22
 70
     1
102
RTVSPropertyOp23
 70
     1
102
RTVSPropertyOp24
 70
     1
102
RTVSPropertyOp25
 70
     1
102
RTVSPropertyOp26
 70
     1
102
RTVSPropertyOp27
 70
     1
102
RTVSPropertyOp28
 70
     1
102
RTVSPropertyOp29
 70
     1
102
RTVSPropertyOp30
 70
     1
102
RTVSPropertyOp31
 70
     1
102
RTVSPropertyOp32
 70
     1
102
RTVSPropertyOp33
 70
     1
102
RTVSPropertyOp34
 70
     1
102
RTVSPropertyOp35
 70
     1
102
RTVSPropertyOp36
 70
     1
102
RTVSPropertyOp37
 70
     1
102
RTVSPropertyOp38
 70
     1
102
RTVSPropertyOp39
 70
     1
102
RTVSPropertyOp40
 70
     1
102
RTVSPropertyOp41
 70
     1
102
RTVSPropertyOp42
 70
     1
102
RTVSPropertyOp43
 70
     1
102
RTVSPropertyOp44
 70
     1
102
RTVSPropertyOp45
 70
     1
102
RTVSPropertyOp46
 70
     1
102
RTVSPropertyOp47
 70
     1
102
RTVSPropertyOp48
 70
     1
102
RTVSPropertyOp49
 70
     1
102
RTVSPropertyOp50
 70
     1
102
RTVSPropertyOp51
 70
     0
102
RTVSPropertyOp52
 70
     0
102
RTVSPropertyOp53
 70
     1
102
RTVSPropertyOp54
 70
     1
102
RTVSPropertyOp55
 70
     1
102
RTVSPropertyOp56
 70
     1
102
RTVSPropertyOp57
 70
     1
102
RTVSPropertyOp58
 70
     1
102
RTVSPropertyOp59
 70
     1
102
RTVSPropertyOp60
 70
     1
102
RTVSPropertyOp61
 70
     1
102
RTVSPropertyOp62
 70
     1
  0
XRECORD
  5
378
102
{ACAD_REACTORS
330
377
102
}
330
377
100
AcDbXrecord
280
     1
102
RTVSPost2010Prop28
280
     0
102
RTVSPost2010PropOp28
 70
     1
102
RTVSPost2010Prop29
280
     1
102
RTVSPost2010PropOp29
 70
     1
102
RTVSPost2010Prop30
280
     1
102
RTVSPost2010PropOp30
 70
     1
102
RTVSPost2010Prop31
280
     0
102
RTVSPost2010PropOp31
 70
     1
102
RTVSPost2010Prop32
280
     0
102
RTVSPost2010PropOp32
 70
     1
102
RTVSPost2010Prop33
280
     0
102
RTVSPost2010PropOp33
 70
     1
102
RTVSPost2010Prop34
280
     0
102
RTVSPost2010PropOp34
 70
     1
102
RTVSPost2010Prop35
280
     0
102
RTVSPost2010PropOp35
 70
     1
102
RTVSPost2010Prop36
280
     0
102
RTVSPost2010PropOp36
 70
     1
102
RTVSPost2010Prop37
 90
       50
102
RTVSPost2010PropOp37
 70
     1
102
RTVSPost2010Prop38
140
0.0
102
RTVSPost2010PropOp38
 70
     1
102
RTVSPost2010Prop39
140
1.0
102
RTVSPost2010PropOp39
 70
     1
102
RTVSPost2010Prop40
 90
        0
102
RTVSPost2010PropOp40
 70
     1
102
RTVSPost2010Prop41ColorIndex
 90
       18
102
RTVSPost2010Prop41ColorRGB
 90
        0
102
RTVSPost2010PropOp41
 70
     1
102
RTVSPost2010Prop42
 90
       50
102
RTVSPost2010PropOp42
 70
     1
102
RTVSPost2010Prop43
 90
        3
102
RTVSPost2010PropOp43
 70
     1
102
RTVSPost2010Prop44ColorIndex
 90
        5
102
RTVSPost2010Prop44ColorRGB
 90
      255
102
RTVSPost2010PropOp44
 70
     1
102
RTVSPost2010Prop45
280
     0
102
RTVSPost2010PropOp45
 70
     1
102
RTVSPost2010Prop46
 90
       50
102
RTVSPost2010PropOp46
 70
     1
102
RTVSPost2010Prop47
 90
       50
102
RTVSPost2010PropOp47
 70
     1
102
RTVSPost2010Prop48
 90
       50
102
RTVSPost2010PropOp48
 70
     1
102
RTVSPost2010Prop49
280
     0
102
RTVSPost2010PropOp49
 70
     1
102
RTVSPost2010Prop50
 90
       50
102
RTVSPost2010PropOp50
 70
     1
102
RTVSPost2010Prop51ColorIndex
 90
      256
102
RTVSPost2010Prop51ColorRGB
 90
-16777216
102
RTVSPost2010PropOp51
 70
     0
102
RTVSPost2010Prop52
140
1.0
102
RTVSPost2010PropOp52
 70
     0
102
RTVSPost2010Prop53
 90
        2
102
RTVSPost2010PropOp53
 70
     1
102
RTVSPost2010Prop54
  1
strokes_ogs.tif
102
RTVSPost2010PropOp54
 70
     1
102
RTVSPost2010Prop55
280
     0
102
RTVSPost2010PropOp55
 70
     1
102
RTVSPost2010Prop56
140
1.0
102
RTVSPost2010PropOp56
 70
     1
102
RTVSPost2010Prop57
140
1.0
102
RTVSPost2010PropOp57
 70
     1
102
RTVSPropertyOp0
 70
     1
102
RTVSPropertyOp1
 70
     1
102
RTVSPropertyOp2
 70
     1
102
RTVSPropertyOp3
 70
     1
102
RTVSPropertyOp4
 70
     1
102
RTVSPropertyOp5
 70
     1
102
RTVSPropertyOp6
 70
     1
102
RTVSPropertyOp7
 70
     1
102
RTVSPropertyOp8
 70
     1
102
RTVSPropertyOp9
 70
     1
102
RTVSPropertyOp10
 70
     1
102
RTVSPropertyOp11
 70
     1
102
RTVSPropertyOp12
 70
     1
102
RTVSPropertyOp13
 70
     1
102
RTVSPropertyOp14
 70
     1
102
RTVSPropertyOp15
 70
     1
102
RTVSPropertyOp16
 70
     1
102
RTVSPropertyOp17
 70
     1
102
RTVSPropertyOp18
 70
     1
102
RTVSPropertyOp19
 70
     1
102
RTVSPropertyOp20
 70
     1
102
RTVSPropertyOp21
 70
     1
102
RTVSPropertyOp22
 70
     1
102
RTVSPropertyOp23
 70
     1
102
RTVSPropertyOp24
 70
     1
102
RTVSPropertyOp25
 70
     1
102
RTVSPropertyOp26
 70
     1
102
RTVSPropertyOp27
 70
     1
102
RTVSPropertyOp28
 70
     1
102
RTVSPropertyOp29
 70
     1
102
RTVSPropertyOp30
 70
     1
102
RTVSPropertyOp31
 70
     1
102
RTVSPropertyOp32
 70
     1
102
RTVSPropertyOp33
 70
     1
102
RTVSPropertyOp34
 70
     1
102
RTVSPropertyOp35
 70
     1
102
RTVSPropertyOp36
 70
     1
102
RTVSPropertyOp37
 70
     1
102
RTVSPropertyOp38
 70
     1
102
RTVSPropertyOp39
 70
     1
102
RTVSPropertyOp40
 70
     1
102
RTVSPropertyOp41
 70
     1
102
RTVSPropertyOp42
 70
     1
102
RTVSPropertyOp43
 70
     1
102
RTVSPropertyOp44
 70
     1
102
RTVSPropertyOp45
 70
     1
102
RTVSPropertyOp46
 70
     1
102
RTVSPropertyOp47
 70
     1
102
RTVSPropertyOp48
 70
     1
102
RTVSPropertyOp49
 70
     1
102
RTVSPropertyOp50
 70
     1
102
RTVSPropertyOp51
 70
     0
102
RTVSPropertyOp52
 70
     0
102
RTVSPropertyOp53
 70
     1
102
RTVSPropertyOp54
 70
     1
102
RTVSPropertyOp55
 70
     1
102
RTVSPropertyOp56
 70
     1
102
RTVSPropertyOp57
 70
     1
102
RTVSPropertyOp58
 70
     1
102
RTVSPropertyOp59
 70
     1
102
RTVSPropertyOp60
 70
     1
102
RTVSPropertyOp61
 70
     1
102
RTVSPropertyOp62
 70
     1
  0
XRECORD
  5
37A
102
{ACAD_REACTORS
330
379
102
}
330
379
100
AcDbXrecord
280
     1
102
RTVSPost2010Prop28
280
     0
102
RTVSPost2010PropOp28
 70
     1
102
RTVSPost2010Prop29
280
     1
102
RTVSPost2010PropOp29
 70
     1
102
RTVSPost2010Prop30
280
     1
102
RTVSPost2010PropOp30
 70
     1
102
RTVSPost2010Prop31
280
     0
102
RTVSPost2010PropOp31
 70
     1
102
RTVSPost2010Prop32
280
     0
102
RTVSPost2010PropOp32
 70
     1
102
RTVSPost2010Prop33
280
     0
102
RTVSPost2010PropOp33
 70
     1
102
RTVSPost2010Prop34
280
     0
102
RTVSPost2010PropOp34
 70
     1
102
RTVSPost2010Prop35
280
     0
102
RTVSPost2010PropOp35
 70
     1
102
RTVSPost2010Prop36
280
     0
102
RTVSPost2010PropOp36
 70
     1
102
RTVSPost2010Prop37
 90
       50
102
RTVSPost2010PropOp37
 70
     1
102
RTVSPost2010Prop38
140
0.0
102
RTVSPost2010PropOp38
 70
     1
102
RTVSPost2010Prop39
140
1.0
102
RTVSPost2010PropOp39
 70
     1
102
RTVSPost2010Prop40
 90
        0
102
RTVSPost2010PropOp40
 70
     1
102
RTVSPost2010Prop41ColorIndex
 90
       18
102
RTVSPost2010Prop41ColorRGB
 90
        0
102
RTVSPost2010PropOp41
 70
     1
102
RTVSPost2010Prop42
 90
       50
102
RTVSPost2010PropOp42
 70
     1
102
RTVSPost2010Prop43
 90
        3
102
RTVSPost2010PropOp43
 70
     1
102
RTVSPost2010Prop44ColorIndex
 90
        5
102
RTVSPost2010Prop44ColorRGB
 90
      255
102
RTVSPost2010PropOp44
 70
     1
102
RTVSPost2010Prop45
280
     0
102
RTVSPost2010PropOp45
 70
     1
102
RTVSPost2010Prop46
 90
       50
102
RTVSPost2010PropOp46
 70
     1
102
RTVSPost2010Prop47
 90
       50
102
RTVSPost2010PropOp47
 70
     1
102
RTVSPost2010Prop48
 90
       50
102
RTVSPost2010PropOp48
 70
     1
102
RTVSPost2010Prop49
280
     0
102
RTVSPost2010PropOp49
 70
     1
102
RTVSPost2010Prop50
 90
       50
102
RTVSPost2010PropOp50
 70
     1
102
RTVSPost2010Prop51ColorIndex
 90
      256
102
RTVSPost2010Prop51ColorRGB
 90
-16777216
102
RTVSPost2010PropOp51
 70
     0
102
RTVSPost2010Prop52
140
1.0
102
RTVSPost2010PropOp52
 70
     0
102
RTVSPost2010Prop53
 90
        2
102
RTVSPost2010PropOp53
 70
     1
102
RTVSPost2010Prop54
  1
strokes_ogs.tif
102
RTVSPost2010PropOp54
 70
     1
102
RTVSPost2010Prop55
280
     0
102
RTVSPost2010PropOp55
 70
     1
102
RTVSPost2010Prop56
140
1.0
102
RTVSPost2010PropOp56
 70
     1
102
RTVSPost2010Prop57
140
1.0
102
RTVSPost2010PropOp57
 70
     1
102
RTVSPropertyOp0
 70
     1
102
RTVSPropertyOp1
 70
     1
102
RTVSPropertyOp2
 70
     1
102
RTVSPropertyOp3
 70
     1
102
RTVSPropertyOp4
 70
     1
102
RTVSPropertyOp5
 70
     1
102
RTVSPropertyOp6
 70
     1
102
RTVSPropertyOp7
 70
     1
102
RTVSPropertyOp8
 70
     1
102
RTVSPropertyOp9
 70
     1
102
RTVSPropertyOp10
 70
     1
102
RTVSPropertyOp11
 70
     1
102
RTVSPropertyOp12
 70
     1
102
RTVSPropertyOp13
 70
     1
102
RTVSPropertyOp14
 70
     1
102
RTVSPropertyOp15
 70
     1
102
RTVSPropertyOp16
 70
     1
102
RTVSPropertyOp17
 70
     1
102
RTVSPropertyOp18
 70
     1
102
RTVSPropertyOp19
 70
     1
102
RTVSPropertyOp20
 70
     1
102
RTVSPropertyOp21
 70
     1
102
RTVSPropertyOp22
 70
     1
102
RTVSPropertyOp23
 70
     1
102
RTVSPropertyOp24
 70
     1
102
RTVSPropertyOp25
 70
     1
102
RTVSPropertyOp26
 70
     1
102
RTVSPropertyOp27
 70
     1
102
RTVSPropertyOp28
 70
     1
102
RTVSPropertyOp29
 70
     1
102
RTVSPropertyOp30
 70
     1
102
RTVSPropertyOp31
 70
     1
102
RTVSPropertyOp32
 70
     1
102
RTVSPropertyOp33
 70
     1
102
RTVSPropertyOp34
 70
     1
102
RTVSPropertyOp35
 70
     1
102
RTVSPropertyOp36
 70
     1
102
RTVSPropertyOp37
 70
     1
102
RTVSPropertyOp38
 70
     1
102
RTVSPropertyOp39
 70
     1
102
RTVSPropertyOp40
 70
     1
102
RTVSPropertyOp41
 70
     1
102
RTVSPropertyOp42
 70
     1
102
RTVSPropertyOp43
 70
     1
102
RTVSPropertyOp44
 70
     1
102
RTVSPropertyOp45
 70
     1
102
RTVSPropertyOp46
 70
     1
102
RTVSPropertyOp47
 70
     1
102
RTVSPropertyOp48
 70
     1
102
RTVSPropertyOp49
 70
     1
102
RTVSPropertyOp50
 70
     1
102
RTVSPropertyOp51
 70
     0
102
RTVSPropertyOp52
 70
     0
102
RTVSPropertyOp53
 70
     1
102
RTVSPropertyOp54
 70
     1
102
RTVSPropertyOp55
 70
     1
102
RTVSPropertyOp56
 70
     1
102
RTVSPropertyOp57
 70
     1
102
RTVSPropertyOp58
 70
     1
102
RTVSPropertyOp59
 70
     1
102
RTVSPropertyOp60
 70
     1
102
RTVSPropertyOp61
 70
     1
102
RTVSPropertyOp62
 70
     1
  0
XRECORD
  5
380
102
{ACAD_REACTORS
330
37F
102
}
330
37F
100
AcDbXrecord
280
     1
102
RTVSPost2010Prop28
280
     0
102
RTVSPost2010PropOp28
 70
     1
102
RTVSPost2010Prop29
280
     1
102
RTVSPost2010PropOp29
 70
     1
102
RTVSPost2010Prop30
280
     1
102
RTVSPost2010PropOp30
 70
     1
102
RTVSPost2010Prop31
280
     0
102
RTVSPost2010PropOp31
 70
     1
102
RTVSPost2010Prop32
280
     0
102
RTVSPost2010PropOp32
 70
     1
102
RTVSPost2010Prop33
280
     0
102
RTVSPost2010PropOp33
 70
     1
102
RTVSPost2010Prop34
280
     0
102
RTVSPost2010PropOp34
 70
     1
102
RTVSPost2010Prop35
280
     0
102
RTVSPost2010PropOp35
 70
     1
102
RTVSPost2010Prop36
280
     0
102
RTVSPost2010PropOp36
 70
     1
102
RTVSPost2010Prop37
 90
       50
102
RTVSPost2010PropOp37
 70
     1
102
RTVSPost2010Prop38
140
0.0
102
RTVSPost2010PropOp38
 70
     1
102
RTVSPost2010Prop39
140
1.0
102
RTVSPost2010PropOp39
 70
     1
102
RTVSPost2010Prop40
 90
        0
102
RTVSPost2010PropOp40
 70
     1
102
RTVSPost2010Prop41ColorIndex
 90
       18
102
RTVSPost2010Prop41ColorRGB
 90
        0
102
RTVSPost2010PropOp41
 70
     1
102
RTVSPost2010Prop42
 90
       50
102
RTVSPost2010PropOp42
 70
     1
102
RTVSPost2010Prop43
 90
        3
102
RTVSPost2010PropOp43
 70
     1
102
RTVSPost2010Prop44ColorIndex
 90
        5
102
RTVSPost2010Prop44ColorRGB
 90
      255
102
RTVSPost2010PropOp44
 70
     1
102
RTVSPost2010Prop45
280
     0
102
RTVSPost2010PropOp45
 70
     1
102
RTVSPost2010Prop46
 90
       50
102
RTVSPost2010PropOp46
 70
     1
102
RTVSPost2010Prop47
 90
       50
102
RTVSPost2010PropOp47
 70
     1
102
RTVSPost2010Prop48
 90
       50
102
RTVSPost2010PropOp48
 70
     1
102
RTVSPost2010Prop49
280
     0
102
RTVSPost2010PropOp49
 70
     1
102
RTVSPost2010Prop50
 90
       50
102
RTVSPost2010PropOp50
 70
     1
102
RTVSPost2010Prop51ColorIndex
 90
      256
102
RTVSPost2010Prop51ColorRGB
 90
-16777216
102
RTVSPost2010PropOp51
 70
     0
102
RTVSPost2010Prop52
140
1.0
102
RTVSPost2010PropOp52
 70
     0
102
RTVSPost2010Prop53
 90
        2
102
RTVSPost2010PropOp53
 70
     1
102
RTVSPost2010Prop54
  1
strokes_ogs.tif
102
RTVSPost2010PropOp54
 70
     1
102
RTVSPost2010Prop55
280
     0
102
RTVSPost2010PropOp55
 70
     1
102
RTVSPost2010Prop56
140
1.0
102
RTVSPost2010PropOp56
 70
     1
102
RTVSPost2010Prop57
140
1.0
102
RTVSPost2010PropOp57
 70
     1
102
RTVSPropertyOp0
 70
     1
102
RTVSPropertyOp1
 70
     1
102
RTVSPropertyOp2
 70
     1
102
RTVSPropertyOp3
 70
     1
102
RTVSPropertyOp4
 70
     1
102
RTVSPropertyOp5
 70
     1
102
RTVSPropertyOp6
 70
     1
102
RTVSPropertyOp7
 70
     1
102
RTVSPropertyOp8
 70
     1
102
RTVSPropertyOp9
 70
     1
102
RTVSPropertyOp10
 70
     1
102
RTVSPropertyOp11
 70
     1
102
RTVSPropertyOp12
 70
     1
102
RTVSPropertyOp13
 70
     1
102
RTVSPropertyOp14
 70
     1
102
RTVSPropertyOp15
 70
     1
102
RTVSPropertyOp16
 70
     1
102
RTVSPropertyOp17
 70
     1
102
RTVSPropertyOp18
 70
     1
102
RTVSPropertyOp19
 70
     1
102
RTVSPropertyOp20
 70
     1
102
RTVSPropertyOp21
 70
     1
102
RTVSPropertyOp22
 70
     1
102
RTVSPropertyOp23
 70
     1
102
RTVSPropertyOp24
 70
     1
102
RTVSPropertyOp25
 70
     1
102
RTVSPropertyOp26
 70
     1
102
RTVSPropertyOp27
 70
     1
102
RTVSPropertyOp28
 70
     1
102
RTVSPropertyOp29
 70
     1
102
RTVSPropertyOp30
 70
     1
102
RTVSPropertyOp31
 70
     1
102
RTVSPropertyOp32
 70
     1
102
RTVSPropertyOp33
 70
     1
102
RTVSPropertyOp34
 70
     1
102
RTVSPropertyOp35
 70
     1
102
RTVSPropertyOp36
 70
     1
102
RTVSPropertyOp37
 70
     1
102
RTVSPropertyOp38
 70
     1
102
RTVSPropertyOp39
 70
     1
102
RTVSPropertyOp40
 70
     1
102
RTVSPropertyOp41
 70
     1
102
RTVSPropertyOp42
 70
     1
102
RTVSPropertyOp43
 70
     1
102
RTVSPropertyOp44
 70
     1
102
RTVSPropertyOp45
 70
     1
102
RTVSPropertyOp46
 70
     1
102
RTVSPropertyOp47
 70
     1
102
RTVSPropertyOp48
 70
     1
102
RTVSPropertyOp49
 70
     1
102
RTVSPropertyOp50
 70
     1
102
RTVSPropertyOp51
 70
     0
102
RTVSPropertyOp52
 70
     0
102
RTVSPropertyOp53
 70
     1
102
RTVSPropertyOp54
 70
     1
102
RTVSPropertyOp55
 70
     1
102
RTVSPropertyOp56
 70
     1
102
RTVSPropertyOp57
 70
     1
102
RTVSPropertyOp58
 70
     1
102
RTVSPropertyOp59
 70
     1
102
RTVSPropertyOp60
 70
     1
102
RTVSPropertyOp61
 70
     1
102
RTVSPropertyOp62
 70
     1
  0
XRECORD
  5
394
102
{ACAD_REACTORS
330
393
102
}
330
393
100
AcDbXrecord
280
     1
102
RTVSPost2010Prop28
280
     0
102
RTVSPost2010PropOp28
 70
     0
102
RTVSPost2010Prop29
280
     1
102
RTVSPost2010PropOp29
 70
     0
102
RTVSPost2010Prop30
280
     1
102
RTVSPost2010PropOp30
 70
     0
102
RTVSPost2010Prop31
280
     0
102
RTVSPost2010PropOp31
 70
     0
102
RTVSPost2010Prop32
280
     0
102
RTVSPost2010PropOp32
 70
     0
102
RTVSPost2010Prop33
280
     0
102
RTVSPost2010PropOp33
 70
     0
102
RTVSPost2010Prop34
280
     0
102
RTVSPost2010PropOp34
 70
     0
102
RTVSPost2010Prop35
280
     0
102
RTVSPost2010PropOp35
 70
     0
102
RTVSPost2010Prop36
280
     0
102
RTVSPost2010PropOp36
 70
     0
102
RTVSPost2010Prop37
 90
       50
102
RTVSPost2010PropOp37
 70
     0
102
RTVSPost2010Prop38
140
0.0
102
RTVSPost2010PropOp38
 70
     0
102
RTVSPost2010Prop39
140
1.0
102
RTVSPost2010PropOp39
 70
     0
102
RTVSPost2010Prop40
 90
        0
102
RTVSPost2010PropOp40
 70
     0
102
RTVSPost2010Prop41ColorIndex
 90
       18
102
RTVSPost2010Prop41ColorRGB
 90
        0
102
RTVSPost2010PropOp41
 70
     0
102
RTVSPost2010Prop42
 90
       50
102
RTVSPost2010PropOp42
 70
     0
102
RTVSPost2010Prop43
 90
        3
102
RTVSPost2010PropOp43
 70
     0
102
RTVSPost2010Prop44ColorIndex
 90
        5
102
RTVSPost2010Prop44ColorRGB
 90
      255
102
RTVSPost2010PropOp44
 70
     0
102
RTVSPost2010Prop45
280
     0
102
RTVSPost2010PropOp45
 70
     0
102
RTVSPost2010Prop46
 90
       50
102
RTVSPost2010PropOp46
 70
     0
102
RTVSPost2010Prop47
 90
       50
102
RTVSPost2010PropOp47
 70
     0
102
RTVSPost2010Prop48
 90
       50
102
RTVSPost2010PropOp48
 70
     0
102
RTVSPost2010Prop49
280
     0
102
RTVSPost2010PropOp49
 70
     0
102
RTVSPost2010Prop50
 90
       50
102
RTVSPost2010PropOp50
 70
     0
102
RTVSPost2010Prop51ColorIndex
 90
      256
102
RTVSPost2010Prop51ColorRGB
 90
-16777216
102
RTVSPost2010PropOp51
 70
     0
102
RTVSPost2010Prop52
140
1.0
102
RTVSPost2010PropOp52
 70
     0
102
RTVSPost2010Prop53
 90
        2
102
RTVSPost2010PropOp53
 70
     0
102
RTVSPost2010Prop54
  1
strokes_ogs.tif
102
RTVSPost2010PropOp54
 70
     0
102
RTVSPost2010Prop55
280
     0
102
RTVSPost2010PropOp55
 70
     0
102
RTVSPost2010Prop56
140
1.0
102
RTVSPost2010PropOp56
 70
     0
102
RTVSPost2010Prop57
140
1.0
102
RTVSPost2010PropOp57
 70
     0
102
RTVSPropertyOp0
 70
     0
102
RTVSPropertyOp1
 70
     0
102
RTVSPropertyOp2
 70
     0
102
RTVSPropertyOp3
 70
     0
102
RTVSPropertyOp4
 70
     0
102
RTVSPropertyOp5
 70
     0
102
RTVSPropertyOp6
 70
     0
102
RTVSPropertyOp7
 70
     0
102
RTVSPropertyOp8
 70
     0
102
RTVSPropertyOp9
 70
     0
102
RTVSPropertyOp10
 70
     0
102
RTVSPropertyOp11
 70
     0
102
RTVSPropertyOp12
 70
     0
102
RTVSPropertyOp13
 70
     0
102
RTVSPropertyOp14
 70
     2
102
RTVSPropertyOp15
 70
     0
102
RTVSPropertyOp16
 70
     0
102
RTVSPropertyOp17
 70
     0
102
RTVSPropertyOp18
 70
     0
102
RTVSPropertyOp19
 70
     0
102
RTVSPropertyOp20
 70
     0
102
RTVSPropertyOp21
 70
     0
102
RTVSPropertyOp22
 70
     0
102
RTVSPropertyOp23
 70
     0
102
RTVSPropertyOp24
 70
     0
102
RTVSPropertyOp25
 70
     0
102
RTVSPropertyOp26
 70
     0
102
RTVSPropertyOp27
 70
     0
102
RTVSPropertyOp28
 70
     0
102
RTVSPropertyOp29
 70
     0
102
RTVSPropertyOp30
 70
     0
102
RTVSPropertyOp31
 70
     0
102
RTVSPropertyOp32
 70
     0
102
RTVSPropertyOp33
 70
     0
102
RTVSPropertyOp34
 70
     0
102
RTVSPropertyOp35
 70
     0
102
RTVSPropertyOp36
 70
     0
102
RTVSPropertyOp37
 70
     0
102
RTVSPropertyOp38
 70
     0
102
RTVSPropertyOp39
 70
     0
102
RTVSPropertyOp40
 70
     0
102
RTVSPropertyOp41
 70
     0
102
RTVSPropertyOp42
 70
     0
102
RTVSPropertyOp43
 70
     0
102
RTVSPropertyOp44
 70
     0
102
RTVSPropertyOp45
 70
     0
102
RTVSPropertyOp46
 70
     0
102
RTVSPropertyOp47
 70
     0
102
RTVSPropertyOp48
 70
     0
102
RTVSPropertyOp49
 70
     0
102
RTVSPropertyOp50
 70
     0
102
RTVSPropertyOp51
 70
     0
102
RTVSPropertyOp52
 70
     0
102
RTVSPropertyOp53
 70
     0
102
RTVSPropertyOp54
 70
     0
102
RTVSPropertyOp55
 70
     0
102
RTVSPropertyOp56
 70
     0
102
RTVSPropertyOp57
 70
     0
102
RTVSPropertyOp58
 70
     1
102
RTVSPropertyOp59
 70
     1
102
RTVSPropertyOp60
 70
     1
102
RTVSPropertyOp61
 70
     1
102
RTVSPropertyOp62
 70
     1
  0
XRECORD
  5
38E
102
{ACAD_REACTORS
330
38D
102
}
330
38D
100
AcDbXrecord
280
     1
102
RTVSPost2010Prop28
280
     0
102
RTVSPost2010PropOp28
 70
     1
102
RTVSPost2010Prop29
280
     1
102
RTVSPost2010PropOp29
 70
     1
102
RTVSPost2010Prop30
280
     1
102
RTVSPost2010PropOp30
 70
     1
102
RTVSPost2010Prop31
280
     0
102
RTVSPost2010PropOp31
 70
     1
102
RTVSPost2010Prop32
280
     0
102
RTVSPost2010PropOp32
 70
     1
102
RTVSPost2010Prop33
280
     0
102
RTVSPost2010PropOp33
 70
     1
102
RTVSPost2010Prop34
280
     0
102
RTVSPost2010PropOp34
 70
     1
102
RTVSPost2010Prop35
280
     0
102
RTVSPost2010PropOp35
 70
     1
102
RTVSPost2010Prop36
280
     0
102
RTVSPost2010PropOp36
 70
     1
102
RTVSPost2010Prop37
 90
       50
102
RTVSPost2010PropOp37
 70
     1
102
RTVSPost2010Prop38
140
0.0
102
RTVSPost2010PropOp38
 70
     1
102
RTVSPost2010Prop39
140
1.0
102
RTVSPost2010PropOp39
 70
     1
102
RTVSPost2010Prop40
 90
        0
102
RTVSPost2010PropOp40
 70
     1
102
RTVSPost2010Prop41ColorIndex
 90
       18
102
RTVSPost2010Prop41ColorRGB
 90
        0
102
RTVSPost2010PropOp41
 70
     1
102
RTVSPost2010Prop42
 90
       50
102
RTVSPost2010PropOp42
 70
     1
102
RTVSPost2010Prop43
 90
        3
102
RTVSPost2010PropOp43
 70
     1
102
RTVSPost2010Prop44ColorIndex
 90
        5
102
RTVSPost2010Prop44ColorRGB
 90
      255
102
RTVSPost2010PropOp44
 70
     1
102
RTVSPost2010Prop45
280
     0
102
RTVSPost2010PropOp45
 70
     1
102
RTVSPost2010Prop46
 90
       50
102
RTVSPost2010PropOp46
 70
     1
102
RTVSPost2010Prop47
 90
       50
102
RTVSPost2010PropOp47
 70
     1
102
RTVSPost2010Prop48
 90
       50
102
RTVSPost2010PropOp48
 70
     1
102
RTVSPost2010Prop49
280
     0
102
RTVSPost2010PropOp49
 70
     1
102
RTVSPost2010Prop50
 90
       50
102
RTVSPost2010PropOp50
 70
     1
102
RTVSPost2010Prop51ColorIndex
 90
      256
102
RTVSPost2010Prop51ColorRGB
 90
-16777216
102
RTVSPost2010PropOp51
 70
     0
102
RTVSPost2010Prop52
140
1.0
102
RTVSPost2010PropOp52
 70
     0
102
RTVSPost2010Prop53
 90
        2
102
RTVSPost2010PropOp53
 70
     1
102
RTVSPost2010Prop54
  1
strokes_ogs.tif
102
RTVSPost2010PropOp54
 70
     1
102
RTVSPost2010Prop55
280
     0
102
RTVSPost2010PropOp55
 70
     1
102
RTVSPost2010Prop56
140
1.0
102
RTVSPost2010PropOp56
 70
     1
102
RTVSPost2010Prop57
140
1.0
102
RTVSPost2010PropOp57
 70
     1
102
RTVSPropertyOp0
 70
     1
102
RTVSPropertyOp1
 70
     1
102
RTVSPropertyOp2
 70
     1
102
RTVSPropertyOp3
 70
     1
102
RTVSPropertyOp4
 70
     1
102
RTVSPropertyOp5
 70
     1
102
RTVSPropertyOp6
 70
     1
102
RTVSPropertyOp7
 70
     1
102
RTVSPropertyOp8
 70
     1
102
RTVSPropertyOp9
 70
     1
102
RTVSPropertyOp10
 70
     1
102
RTVSPropertyOp11
 70
     1
102
RTVSPropertyOp12
 70
     1
102
RTVSPropertyOp13
 70
     1
102
RTVSPropertyOp14
 70
     1
102
RTVSPropertyOp15
 70
     1
102
RTVSPropertyOp16
 70
     1
102
RTVSPropertyOp17
 70
     1
102
RTVSPropertyOp18
 70
     1
102
RTVSPropertyOp19
 70
     1
102
RTVSPropertyOp20
 70
     1
102
RTVSPropertyOp21
 70
     1
102
RTVSPropertyOp22
 70
     1
102
RTVSPropertyOp23
 70
     1
102
RTVSPropertyOp24
 70
     1
102
RTVSPropertyOp25
 70
     1
102
RTVSPropertyOp26
 70
     1
102
RTVSPropertyOp27
 70
     1
102
RTVSPropertyOp28
 70
     1
102
RTVSPropertyOp29
 70
     1
102
RTVSPropertyOp30
 70
     1
102
RTVSPropertyOp31
 70
     1
102
RTVSPropertyOp32
 70
     1
102
RTVSPropertyOp33
 70
     1
102
RTVSPropertyOp34
 70
     1
102
RTVSPropertyOp35
 70
     1
102
RTVSPropertyOp36
 70
     1
102
RTVSPropertyOp37
 70
     1
102
RTVSPropertyOp38
 70
     1
102
RTVSPropertyOp39
 70
     1
102
RTVSPropertyOp40
 70
     1
102
RTVSPropertyOp41
 70
     1
102
RTVSPropertyOp42
 70
     1
102
RTVSPropertyOp43
 70
     1
102
RTVSPropertyOp44
 70
     1
102
RTVSPropertyOp45
 70
     1
102
RTVSPropertyOp46
 70
     1
102
RTVSPropertyOp47
 70
     1
102
RTVSPropertyOp48
 70
     1
102
RTVSPropertyOp49
 70
     1
102
RTVSPropertyOp50
 70
     1
102
RTVSPropertyOp51
 70
     0
102
RTVSPropertyOp52
 70
     0
102
RTVSPropertyOp53
 70
     1
102
RTVSPropertyOp54
 70
     1
102
RTVSPropertyOp55
 70
     1
102
RTVSPropertyOp56
 70
     1
102
RTVSPropertyOp57
 70
     1
102
RTVSPropertyOp58
 70
     1
102
RTVSPropertyOp59
 70
     1
102
RTVSPropertyOp60
 70
     1
102
RTVSPropertyOp61
 70
     1
102
RTVSPropertyOp62
 70
     1
  0
XRECORD
  5
396
102
{ACAD_REACTORS
330
395
102
}
330
395
100
AcDbXrecord
280
     1
102
RTVSPost2010Prop28
280
     0
102
RTVSPost2010PropOp28
 70
     0
102
RTVSPost2010Prop29
280
     1
102
RTVSPost2010PropOp29
 70
     0
102
RTVSPost2010Prop30
280
     1
102
RTVSPost2010PropOp30
 70
     0
102
RTVSPost2010Prop31
280
     0
102
RTVSPost2010PropOp31
 70
     0
102
RTVSPost2010Prop32
280
     0
102
RTVSPost2010PropOp32
 70
     0
102
RTVSPost2010Prop33
280
     0
102
RTVSPost2010PropOp33
 70
     0
102
RTVSPost2010Prop34
280
     0
102
RTVSPost2010PropOp34
 70
     0
102
RTVSPost2010Prop35
280
     0
102
RTVSPost2010PropOp35
 70
     0
102
RTVSPost2010Prop36
280
     0
102
RTVSPost2010PropOp36
 70
     0
102
RTVSPost2010Prop37
 90
       50
102
RTVSPost2010PropOp37
 70
     0
102
RTVSPost2010Prop38
140
0.0
102
RTVSPost2010PropOp38
 70
     0
102
RTVSPost2010Prop39
140
1.0
102
RTVSPost2010PropOp39
 70
     0
102
RTVSPost2010Prop40
 90
        0
102
RTVSPost2010PropOp40
 70
     0
102
RTVSPost2010Prop41ColorIndex
 90
       18
102
RTVSPost2010Prop41ColorRGB
 90
        0
102
RTVSPost2010PropOp41
 70
     0
102
RTVSPost2010Prop42
 90
       50
102
RTVSPost2010PropOp42
 70
     0
102
RTVSPost2010Prop43
 90
        3
102
RTVSPost2010PropOp43
 70
     0
102
RTVSPost2010Prop44ColorIndex
 90
        5
102
RTVSPost2010Prop44ColorRGB
 90
      255
102
RTVSPost2010PropOp44
 70
     0
102
RTVSPost2010Prop45
280
     0
102
RTVSPost2010PropOp45
 70
     0
102
RTVSPost2010Prop46
 90
       50
102
RTVSPost2010PropOp46
 70
     0
102
RTVSPost2010Prop47
 90
       50
102
RTVSPost2010PropOp47
 70
     0
102
RTVSPost2010Prop48
 90
       50
102
RTVSPost2010PropOp48
 70
     0
102
RTVSPost2010Prop49
280
     0
102
RTVSPost2010PropOp49
 70
     0
102
RTVSPost2010Prop50
 90
       50
102
RTVSPost2010PropOp50
 70
     0
102
RTVSPost2010Prop51ColorIndex
 90
      256
102
RTVSPost2010Prop51ColorRGB
 90
-16777216
102
RTVSPost2010PropOp51
 70
     0
102
RTVSPost2010Prop52
140
1.0
102
RTVSPost2010PropOp52
 70
     0
102
RTVSPost2010Prop53
 90
        2
102
RTVSPost2010PropOp53
 70
     0
102
RTVSPost2010Prop54
  1
strokes_ogs.tif
102
RTVSPost2010PropOp54
 70
     0
102
RTVSPost2010Prop55
280
     0
102
RTVSPost2010PropOp55
 70
     0
102
RTVSPost2010Prop56
140
1.0
102
RTVSPost2010PropOp56
 70
     0
102
RTVSPost2010Prop57
140
1.0
102
RTVSPost2010PropOp57
 70
     0
102
RTVSPropertyOp0
 70
     0
102
RTVSPropertyOp1
 70
     0
102
RTVSPropertyOp2
 70
     0
102
RTVSPropertyOp3
 70
     0
102
RTVSPropertyOp4
 70
     0
102
RTVSPropertyOp5
 70
     0
102
RTVSPropertyOp6
 70
     0
102
RTVSPropertyOp7
 70
     0
102
RTVSPropertyOp8
 70
     0
102
RTVSPropertyOp9
 70
     0
102
RTVSPropertyOp10
 70
     0
102
RTVSPropertyOp11
 70
     0
102
RTVSPropertyOp12
 70
     0
102
RTVSPropertyOp13
 70
     0
102
RTVSPropertyOp14
 70
     2
102
RTVSPropertyOp15
 70
     0
102
RTVSPropertyOp16
 70
     0
102
RTVSPropertyOp17
 70
     0
102
RTVSPropertyOp18
 70
     0
102
RTVSPropertyOp19
 70
     0
102
RTVSPropertyOp20
 70
     0
102
RTVSPropertyOp21
 70
     0
102
RTVSPropertyOp22
 70
     0
102
RTVSPropertyOp23
 70
     0
102
RTVSPropertyOp24
 70
     0
102
RTVSPropertyOp25
 70
     0
102
RTVSPropertyOp26
 70
     0
102
RTVSPropertyOp27
 70
     0
102
RTVSPropertyOp28
 70
     0
102
RTVSPropertyOp29
 70
     0
102
RTVSPropertyOp30
 70
     0
102
RTVSPropertyOp31
 70
     0
102
RTVSPropertyOp32
 70
     0
102
RTVSPropertyOp33
 70
     0
102
RTVSPropertyOp34
 70
     0
102
RTVSPropertyOp35
 70
     0
102
RTVSPropertyOp36
 70
     0
102
RTVSPropertyOp37
 70
     0
102
RTVSPropertyOp38
 70
     0
102
RTVSPropertyOp39
 70
     0
102
RTVSPropertyOp40
 70
     0
102
RTVSPropertyOp41
 70
     0
102
RTVSPropertyOp42
 70
     0
102
RTVSPropertyOp43
 70
     0
102
RTVSPropertyOp44
 70
     0
102
RTVSPropertyOp45
 70
     0
102
RTVSPropertyOp46
 70
     0
102
RTVSPropertyOp47
 70
     0
102
RTVSPropertyOp48
 70
     0
102
RTVSPropertyOp49
 70
     0
102
RTVSPropertyOp50
 70
     0
102
RTVSPropertyOp51
 70
     0
102
RTVSPropertyOp52
 70
     0
102
RTVSPropertyOp53
 70
     0
102
RTVSPropertyOp54
 70
     0
102
RTVSPropertyOp55
 70
     0
102
RTVSPropertyOp56
 70
     0
102
RTVSPropertyOp57
 70
     0
102
RTVSPropertyOp58
 70
     1
102
RTVSPropertyOp59
 70
     1
102
RTVSPropertyOp60
 70
     1
102
RTVSPropertyOp61
 70
     1
102
RTVSPropertyOp62
 70
     1
  0
XRECORD
  5
384
102
{ACAD_REACTORS
330
383
102
}
330
383
100
AcDbXrecord
280
     1
102
RTVSPost2010Prop28
280
     0
102
RTVSPost2010PropOp28
 70
     1
102
RTVSPost2010Prop29
280
     1
102
RTVSPost2010PropOp29
 70
     1
102
RTVSPost2010Prop30
280
     1
102
RTVSPost2010PropOp30
 70
     1
102
RTVSPost2010Prop31
280
     0
102
RTVSPost2010PropOp31
 70
     1
102
RTVSPost2010Prop32
280
     0
102
RTVSPost2010PropOp32
 70
     1
102
RTVSPost2010Prop33
280
     0
102
RTVSPost2010PropOp33
 70
     1
102
RTVSPost2010Prop34
280
     0
102
RTVSPost2010PropOp34
 70
     1
102
RTVSPost2010Prop35
280
     0
102
RTVSPost2010PropOp35
 70
     1
102
RTVSPost2010Prop36
280
     0
102
RTVSPost2010PropOp36
 70
     1
102
RTVSPost2010Prop37
 90
       50
102
RTVSPost2010PropOp37
 70
     1
102
RTVSPost2010Prop38
140
0.0
102
RTVSPost2010PropOp38
 70
     1
102
RTVSPost2010Prop39
140
1.0
102
RTVSPost2010PropOp39
 70
     1
102
RTVSPost2010Prop40
 90
        0
102
RTVSPost2010PropOp40
 70
     1
102
RTVSPost2010Prop41ColorIndex
 90
       18
102
RTVSPost2010Prop41ColorRGB
 90
        0
102
RTVSPost2010PropOp41
 70
     1
102
RTVSPost2010Prop42
 90
       50
102
RTVSPost2010PropOp42
 70
     1
102
RTVSPost2010Prop43
 90
        3
102
RTVSPost2010PropOp43
 70
     1
102
RTVSPost2010Prop44ColorIndex
 90
        5
102
RTVSPost2010Prop44ColorRGB
 90
      255
102
RTVSPost2010PropOp44
 70
     1
102
RTVSPost2010Prop45
280
     0
102
RTVSPost2010PropOp45
 70
     1
102
RTVSPost2010Prop46
 90
       50
102
RTVSPost2010PropOp46
 70
     1
102
RTVSPost2010Prop47
 90
       50
102
RTVSPost2010PropOp47
 70
     1
102
RTVSPost2010Prop48
 90
       50
102
RTVSPost2010PropOp48
 70
     1
102
RTVSPost2010Prop49
280
     0
102
RTVSPost2010PropOp49
 70
     1
102
RTVSPost2010Prop50
 90
       50
102
RTVSPost2010PropOp50
 70
     1
102
RTVSPost2010Prop51ColorIndex
 90
      256
102
RTVSPost2010Prop51ColorRGB
 90
-16777216
102
RTVSPost2010PropOp51
 70
     0
102
RTVSPost2010Prop52
140
1.0
102
RTVSPost2010PropOp52
 70
     0
102
RTVSPost2010Prop53
 90
        2
102
RTVSPost2010PropOp53
 70
     1
102
RTVSPost2010Prop54
  1
strokes_ogs.tif
102
RTVSPost2010PropOp54
 70
     1
102
RTVSPost2010Prop55
280
     0
102
RTVSPost2010PropOp55
 70
     1
102
RTVSPost2010Prop56
140
1.0
102
RTVSPost2010PropOp56
 70
     1
102
RTVSPost2010Prop57
140
1.0
102
RTVSPost2010PropOp57
 70
     1
102
RTVSPropertyOp0
 70
     1
102
RTVSPropertyOp1
 70
     1
102
RTVSPropertyOp2
 70
     1
102
RTVSPropertyOp3
 70
     1
102
RTVSPropertyOp4
 70
     1
102
RTVSPropertyOp5
 70
     1
102
RTVSPropertyOp6
 70
     1
102
RTVSPropertyOp7
 70
     1
102
RTVSPropertyOp8
 70
     1
102
RTVSPropertyOp9
 70
     1
102
RTVSPropertyOp10
 70
     1
102
RTVSPropertyOp11
 70
     1
102
RTVSPropertyOp12
 70
     1
102
RTVSPropertyOp13
 70
     1
102
RTVSPropertyOp14
 70
     1
102
RTVSPropertyOp15
 70
     1
102
RTVSPropertyOp16
 70
     1
102
RTVSPropertyOp17
 70
     1
102
RTVSPropertyOp18
 70
     1
102
RTVSPropertyOp19
 70
     1
102
RTVSPropertyOp20
 70
     1
102
RTVSPropertyOp21
 70
     1
102
RTVSPropertyOp22
 70
     1
102
RTVSPropertyOp23
 70
     1
102
RTVSPropertyOp24
 70
     1
102
RTVSPropertyOp25
 70
     1
102
RTVSPropertyOp26
 70
     1
102
RTVSPropertyOp27
 70
     1
102
RTVSPropertyOp28
 70
     1
102
RTVSPropertyOp29
 70
     1
102
RTVSPropertyOp30
 70
     1
102
RTVSPropertyOp31
 70
     1
102
RTVSPropertyOp32
 70
     1
102
RTVSPropertyOp33
 70
     1
102
RTVSPropertyOp34
 70
     1
102
RTVSPropertyOp35
 70
     1
102
RTVSPropertyOp36
 70
     1
102
RTVSPropertyOp37
 70
     1
102
RTVSPropertyOp38
 70
     1
102
RTVSPropertyOp39
 70
     1
102
RTVSPropertyOp40
 70
     1
102
RTVSPropertyOp41
 70
     1
102
RTVSPropertyOp42
 70
     1
102
RTVSPropertyOp43
 70
     1
102
RTVSPropertyOp44
 70
     1
102
RTVSPropertyOp45
 70
     1
102
RTVSPropertyOp46
 70
     1
102
RTVSPropertyOp47
 70
     1
102
RTVSPropertyOp48
 70
     1
102
RTVSPropertyOp49
 70
     1
102
RTVSPropertyOp50
 70
     1
102
RTVSPropertyOp51
 70
     0
102
RTVSPropertyOp52
 70
     0
102
RTVSPropertyOp53
 70
     1
102
RTVSPropertyOp54
 70
     1
102
RTVSPropertyOp55
 70
     1
102
RTVSPropertyOp56
 70
     1
102
RTVSPropertyOp57
 70
     1
102
RTVSPropertyOp58
 70
     1
102
RTVSPropertyOp59
 70
     1
102
RTVSPropertyOp60
 70
     1
102
RTVSPropertyOp61
 70
     1
102
RTVSPropertyOp62
 70
     1
  0
XRECORD
  5
3A2
102
{ACAD_REACTORS
330
3A1
102
}
330
3A1
100
AcDbXrecord
280
     1
102
RTVSPost2010Prop28
280
     0
102
RTVSPost2010PropOp28
 70
     1
102
RTVSPost2010Prop29
280
     1
102
RTVSPost2010PropOp29
 70
     1
102
RTVSPost2010Prop30
280
     1
102
RTVSPost2010PropOp30
 70
     1
102
RTVSPost2010Prop31
280
     0
102
RTVSPost2010PropOp31
 70
     1
102
RTVSPost2010Prop32
280
     0
102
RTVSPost2010PropOp32
 70
     1
102
RTVSPost2010Prop33
280
     0
102
RTVSPost2010PropOp33
 70
     1
102
RTVSPost2010Prop34
280
     0
102
RTVSPost2010PropOp34
 70
     1
102
RTVSPost2010Prop35
280
     0
102
RTVSPost2010PropOp35
 70
     1
102
RTVSPost2010Prop36
280
     0
102
RTVSPost2010PropOp36
 70
     1
102
RTVSPost2010Prop37
 90
       50
102
RTVSPost2010PropOp37
 70
     1
102
RTVSPost2010Prop38
140
0.0
102
RTVSPost2010PropOp38
 70
     1
102
RTVSPost2010Prop39
140
1.0
102
RTVSPost2010PropOp39
 70
     1
102
RTVSPost2010Prop40
 90
        0
102
RTVSPost2010PropOp40
 70
     1
102
RTVSPost2010Prop41ColorIndex
 90
       18
102
RTVSPost2010Prop41ColorRGB
 90
        0
102
RTVSPost2010PropOp41
 70
     1
102
RTVSPost2010Prop42
 90
       50
102
RTVSPost2010PropOp42
 70
     1
102
RTVSPost2010Prop43
 90
        3
102
RTVSPost2010PropOp43
 70
     1
102
RTVSPost2010Prop44ColorIndex
 90
        5
102
RTVSPost2010Prop44ColorRGB
 90
      255
102
RTVSPost2010PropOp44
 70
     1
102
RTVSPost2010Prop45
280
     0
102
RTVSPost2010PropOp45
 70
     1
102
RTVSPost2010Prop46
 90
       50
102
RTVSPost2010PropOp46
 70
     1
102
RTVSPost2010Prop47
 90
       50
102
RTVSPost2010PropOp47
 70
     1
102
RTVSPost2010Prop48
 90
       50
102
RTVSPost2010PropOp48
 70
     1
102
RTVSPost2010Prop49
280
     0
102
RTVSPost2010PropOp49
 70
     1
102
RTVSPost2010Prop50
 90
       50
102
RTVSPost2010PropOp50
 70
     1
102
RTVSPost2010Prop51ColorIndex
 90
      256
102
RTVSPost2010Prop51ColorRGB
 90
-16777216
102
RTVSPost2010PropOp51
 70
     0
102
RTVSPost2010Prop52
140
1.0
102
RTVSPost2010PropOp52
 70
     0
102
RTVSPost2010Prop53
 90
        2
102
RTVSPost2010PropOp53
 70
     1
102
RTVSPost2010Prop54
  1
strokes_ogs.tif
102
RTVSPost2010PropOp54
 70
     1
102
RTVSPost2010Prop55
280
     0
102
RTVSPost2010PropOp55
 70
     1
102
RTVSPost2010Prop56
140
1.0
102
RTVSPost2010PropOp56
 70
     1
102
RTVSPost2010Prop57
140
1.0
102
RTVSPost2010PropOp57
 70
     1
102
RTVSPropertyOp0
 70
     1
102
RTVSPropertyOp1
 70
     1
102
RTVSPropertyOp2
 70
     1
102
RTVSPropertyOp3
 70
     1
102
RTVSPropertyOp4
 70
     1
102
RTVSPropertyOp5
 70
     1
102
RTVSPropertyOp6
 70
     1
102
RTVSPropertyOp7
 70
     1
102
RTVSPropertyOp8
 70
     1
102
RTVSPropertyOp9
 70
     1
102
RTVSPropertyOp10
 70
     1
102
RTVSPropertyOp11
 70
     1
102
RTVSPropertyOp12
 70
     1
102
RTVSPropertyOp13
 70
     1
102
RTVSPropertyOp14
 70
     1
102
RTVSPropertyOp15
 70
     1
102
RTVSPropertyOp16
 70
     1
102
RTVSPropertyOp17
 70
     1
102
RTVSPropertyOp18
 70
     1
102
RTVSPropertyOp19
 70
     1
102
RTVSPropertyOp20
 70
     1
102
RTVSPropertyOp21
 70
     1
102
RTVSPropertyOp22
 70
     1
102
RTVSPropertyOp23
 70
     1
102
RTVSPropertyOp24
 70
     1
102
RTVSPropertyOp25
 70
     1
102
RTVSPropertyOp26
 70
     1
102
RTVSPropertyOp27
 70
     1
102
RTVSPropertyOp28
 70
     1
102
RTVSPropertyOp29
 70
     1
102
RTVSPropertyOp30
 70
     1
102
RTVSPropertyOp31
 70
     1
102
RTVSPropertyOp32
 70
     1
102
RTVSPropertyOp33
 70
     1
102
RTVSPropertyOp34
 70
     1
102
RTVSPropertyOp35
 70
     1
102
RTVSPropertyOp36
 70
     1
102
RTVSPropertyOp37
 70
     1
102
RTVSPropertyOp38
 70
     1
102
RTVSPropertyOp39
 70
     1
102
RTVSPropertyOp40
 70
     1
102
RTVSPropertyOp41
 70
     1
102
RTVSPropertyOp42
 70
     1
102
RTVSPropertyOp43
 70
     1
102
RTVSPropertyOp44
 70
     1
102
RTVSPropertyOp45
 70
     1
102
RTVSPropertyOp46
 70
     1
102
RTVSPropertyOp47
 70
     1
102
RTVSPropertyOp48
 70
     1
102
RTVSPropertyOp49
 70
     1
102
RTVSPropertyOp50
 70
     1
102
RTVSPropertyOp51
 70
     0
102
RTVSPropertyOp52
 70
     0
102
RTVSPropertyOp53
 70
     1
102
RTVSPropertyOp54
 70
     1
102
RTVSPropertyOp55
 70
     1
102
RTVSPropertyOp56
 70
     1
102
RTVSPropertyOp57
 70
     1
102
RTVSPropertyOp58
 70
     1
102
RTVSPropertyOp59
 70
     1
102
RTVSPropertyOp60
 70
     1
102
RTVSPropertyOp61
 70
     1
102
RTVSPropertyOp62
 70
     1
  0
XRECORD
  5
3A0
102
{ACAD_REACTORS
330
39F
102
}
330
39F
100
AcDbXrecord
280
     1
102
RTVSPost2010Prop28
280
     0
102
RTVSPost2010PropOp28
 70
     1
102
RTVSPost2010Prop29
280
     1
102
RTVSPost2010PropOp29
 70
     1
102
RTVSPost2010Prop30
280
     1
102
RTVSPost2010PropOp30
 70
     1
102
RTVSPost2010Prop31
280
     0
102
RTVSPost2010PropOp31
 70
     1
102
RTVSPost2010Prop32
280
     0
102
RTVSPost2010PropOp32
 70
     1
102
RTVSPost2010Prop33
280
     0
102
RTVSPost2010PropOp33
 70
     1
102
RTVSPost2010Prop34
280
     0
102
RTVSPost2010PropOp34
 70
     1
102
RTVSPost2010Prop35
280
     0
102
RTVSPost2010PropOp35
 70
     1
102
RTVSPost2010Prop36
280
     0
102
RTVSPost2010PropOp36
 70
     1
102
RTVSPost2010Prop37
 90
       50
102
RTVSPost2010PropOp37
 70
     1
102
RTVSPost2010Prop38
140
0.0
102
RTVSPost2010PropOp38
 70
     1
102
RTVSPost2010Prop39
140
1.0
102
RTVSPost2010PropOp39
 70
     1
102
RTVSPost2010Prop40
 90
        0
102
RTVSPost2010PropOp40
 70
     1
102
RTVSPost2010Prop41ColorIndex
 90
       18
102
RTVSPost2010Prop41ColorRGB
 90
        0
102
RTVSPost2010PropOp41
 70
     1
102
RTVSPost2010Prop42
 90
       50
102
RTVSPost2010PropOp42
 70
     1
102
RTVSPost2010Prop43
 90
        3
102
RTVSPost2010PropOp43
 70
     1
102
RTVSPost2010Prop44ColorIndex
 90
        5
102
RTVSPost2010Prop44ColorRGB
 90
      255
102
RTVSPost2010PropOp44
 70
     1
102
RTVSPost2010Prop45
280
     0
102
RTVSPost2010PropOp45
 70
     1
102
RTVSPost2010Prop46
 90
       50
102
RTVSPost2010PropOp46
 70
     1
102
RTVSPost2010Prop47
 90
       50
102
RTVSPost2010PropOp47
 70
     1
102
RTVSPost2010Prop48
 90
       50
102
RTVSPost2010PropOp48
 70
     1
102
RTVSPost2010Prop49
280
     0
102
RTVSPost2010PropOp49
 70
     1
102
RTVSPost2010Prop50
 90
       50
102
RTVSPost2010PropOp50
 70
     1
102
RTVSPost2010Prop51ColorIndex
 90
      256
102
RTVSPost2010Prop51ColorRGB
 90
-16777216
102
RTVSPost2010PropOp51
 70
     0
102
RTVSPost2010Prop52
140
1.0
102
RTVSPost2010PropOp52
 70
     0
102
RTVSPost2010Prop53
 90
        2
102
RTVSPost2010PropOp53
 70
     1
102
RTVSPost2010Prop54
  1
strokes_ogs.tif
102
RTVSPost2010PropOp54
 70
     1
102
RTVSPost2010Prop55
280
     0
102
RTVSPost2010PropOp55
 70
     1
102
RTVSPost2010Prop56
140
1.0
102
RTVSPost2010PropOp56
 70
     1
102
RTVSPost2010Prop57
140
1.0
102
RTVSPost2010PropOp57
 70
     1
102
RTVSPropertyOp0
 70
     1
102
RTVSPropertyOp1
 70
     1
102
RTVSPropertyOp2
 70
     1
102
RTVSPropertyOp3
 70
     1
102
RTVSPropertyOp4
 70
     1
102
RTVSPropertyOp5
 70
     1
102
RTVSPropertyOp6
 70
     1
102
RTVSPropertyOp7
 70
     1
102
RTVSPropertyOp8
 70
     1
102
RTVSPropertyOp9
 70
     1
102
RTVSPropertyOp10
 70
     1
102
RTVSPropertyOp11
 70
     1
102
RTVSPropertyOp12
 70
     1
102
RTVSPropertyOp13
 70
     1
102
RTVSPropertyOp14
 70
     1
102
RTVSPropertyOp15
 70
     1
102
RTVSPropertyOp16
 70
     1
102
RTVSPropertyOp17
 70
     1
102
RTVSPropertyOp18
 70
     1
102
RTVSPropertyOp19
 70
     1
102
RTVSPropertyOp20
 70
     1
102
RTVSPropertyOp21
 70
     1
102
RTVSPropertyOp22
 70
     1
102
RTVSPropertyOp23
 70
     1
102
RTVSPropertyOp24
 70
     1
102
RTVSPropertyOp25
 70
     1
102
RTVSPropertyOp26
 70
     1
102
RTVSPropertyOp27
 70
     1
102
RTVSPropertyOp28
 70
     1
102
RTVSPropertyOp29
 70
     1
102
RTVSPropertyOp30
 70
     1
102
RTVSPropertyOp31
 70
     1
102
RTVSPropertyOp32
 70
     1
102
RTVSPropertyOp33
 70
     1
102
RTVSPropertyOp34
 70
     1
102
RTVSPropertyOp35
 70
     1
102
RTVSPropertyOp36
 70
     1
102
RTVSPropertyOp37
 70
     1
102
RTVSPropertyOp38
 70
     1
102
RTVSPropertyOp39
 70
     1
102
RTVSPropertyOp40
 70
     1
102
RTVSPropertyOp41
 70
     1
102
RTVSPropertyOp42
 70
     1
102
RTVSPropertyOp43
 70
     1
102
RTVSPropertyOp44
 70
     1
102
RTVSPropertyOp45
 70
     1
102
RTVSPropertyOp46
 70
     1
102
RTVSPropertyOp47
 70
     1
102
RTVSPropertyOp48
 70
     1
102
RTVSPropertyOp49
 70
     1
102
RTVSPropertyOp50
 70
     1
102
RTVSPropertyOp51
 70
     0
102
RTVSPropertyOp52
 70
     0
102
RTVSPropertyOp53
 70
     1
102
RTVSPropertyOp54
 70
     1
102
RTVSPropertyOp55
 70
     1
102
RTVSPropertyOp56
 70
     1
102
RTVSPropertyOp57
 70
     1
102
RTVSPropertyOp58
 70
     1
102
RTVSPropertyOp59
 70
     1
102
RTVSPropertyOp60
 70
     1
102
RTVSPropertyOp61
 70
     1
102
RTVSPropertyOp62
 70
     1
  0
XRECORD
  5
39A
102
{ACAD_REACTORS
330
399
102
}
330
399
100
AcDbXrecord
280
     1
102
RTVSPost2010Prop28
280
     0
102
RTVSPost2010PropOp28
 70
     1
102
RTVSPost2010Prop29
280
     1
102
RTVSPost2010PropOp29
 70
     1
102
RTVSPost2010Prop30
280
     1
102
RTVSPost2010PropOp30
 70
     1
102
RTVSPost2010Prop31
280
     0
102
RTVSPost2010PropOp31
 70
     1
102
RTVSPost2010Prop32
280
     0
102
RTVSPost2010PropOp32
 70
     1
102
RTVSPost2010Prop33
280
     0
102
RTVSPost2010PropOp33
 70
     1
102
RTVSPost2010Prop34
280
     0
102
RTVSPost2010PropOp34
 70
     1
102
RTVSPost2010Prop35
280
     0
102
RTVSPost2010PropOp35
 70
     1
102
RTVSPost2010Prop36
280
     0
102
RTVSPost2010PropOp36
 70
     1
102
RTVSPost2010Prop37
 90
       50
102
RTVSPost2010PropOp37
 70
     1
102
RTVSPost2010Prop38
140
0.0
102
RTVSPost2010PropOp38
 70
     1
102
RTVSPost2010Prop39
140
1.0
102
RTVSPost2010PropOp39
 70
     1
102
RTVSPost2010Prop40
 90
        0
102
RTVSPost2010PropOp40
 70
     1
102
RTVSPost2010Prop41ColorIndex
 90
       18
102
RTVSPost2010Prop41ColorRGB
 90
        0
102
RTVSPost2010PropOp41
 70
     1
102
RTVSPost2010Prop42
 90
       50
102
RTVSPost2010PropOp42
 70
     1
102
RTVSPost2010Prop43
 90
        3
102
RTVSPost2010PropOp43
 70
     1
102
RTVSPost2010Prop44ColorIndex
 90
        5
102
RTVSPost2010Prop44ColorRGB
 90
      255
102
RTVSPost2010PropOp44
 70
     1
102
RTVSPost2010Prop45
280
     0
102
RTVSPost2010PropOp45
 70
     1
102
RTVSPost2010Prop46
 90
       50
102
RTVSPost2010PropOp46
 70
     1
102
RTVSPost2010Prop47
 90
       50
102
RTVSPost2010PropOp47
 70
     1
102
RTVSPost2010Prop48
 90
       50
102
RTVSPost2010PropOp48
 70
     1
102
RTVSPost2010Prop49
280
     0
102
RTVSPost2010PropOp49
 70
     1
102
RTVSPost2010Prop50
 90
       50
102
RTVSPost2010PropOp50
 70
     1
102
RTVSPost2010Prop51ColorIndex
 90
      256
102
RTVSPost2010Prop51ColorRGB
 90
-16777216
102
RTVSPost2010PropOp51
 70
     0
102
RTVSPost2010Prop52
140
1.0
102
RTVSPost2010PropOp52
 70
     0
102
RTVSPost2010Prop53
 90
        2
102
RTVSPost2010PropOp53
 70
     1
102
RTVSPost2010Prop54
  1
strokes_ogs.tif
102
RTVSPost2010PropOp54
 70
     1
102
RTVSPost2010Prop55
280
     0
102
RTVSPost2010PropOp55
 70
     1
102
RTVSPost2010Prop56
140
1.0
102
RTVSPost2010PropOp56
 70
     1
102
RTVSPost2010Prop57
140
1.0
102
RTVSPost2010PropOp57
 70
     1
102
RTVSPropertyOp0
 70
     1
102
RTVSPropertyOp1
 70
     1
102
RTVSPropertyOp2
 70
     1
102
RTVSPropertyOp3
 70
     1
102
RTVSPropertyOp4
 70
     1
102
RTVSPropertyOp5
 70
     1
102
RTVSPropertyOp6
 70
     1
102
RTVSPropertyOp7
 70
     1
102
RTVSPropertyOp8
 70
     1
102
RTVSPropertyOp9
 70
     1
102
RTVSPropertyOp10
 70
     1
102
RTVSPropertyOp11
 70
     1
102
RTVSPropertyOp12
 70
     1
102
RTVSPropertyOp13
 70
     1
102
RTVSPropertyOp14
 70
     1
102
RTVSPropertyOp15
 70
     1
102
RTVSPropertyOp16
 70
     1
102
RTVSPropertyOp17
 70
     1
102
RTVSPropertyOp18
 70
     1
102
RTVSPropertyOp19
 70
     1
102
RTVSPropertyOp20
 70
     1
102
RTVSPropertyOp21
 70
     1
102
RTVSPropertyOp22
 70
     1
102
RTVSPropertyOp23
 70
     1
102
RTVSPropertyOp24
 70
     1
102
RTVSPropertyOp25
 70
     1
102
RTVSPropertyOp26
 70
     1
102
RTVSPropertyOp27
 70
     1
102
RTVSPropertyOp28
 70
     1
102
RTVSPropertyOp29
 70
     1
102
RTVSPropertyOp30
 70
     1
102
RTVSPropertyOp31
 70
     1
102
RTVSPropertyOp32
 70
     1
102
RTVSPropertyOp33
 70
     1
102
RTVSPropertyOp34
 70
     1
102
RTVSPropertyOp35
 70
     1
102
RTVSPropertyOp36
 70
     1
102
RTVSPropertyOp37
 70
     1
102
RTVSPropertyOp38
 70
     1
102
RTVSPropertyOp39
 70
     1
102
RTVSPropertyOp40
 70
     1
102
RTVSPropertyOp41
 70
     1
102
RTVSPropertyOp42
 70
     1
102
RTVSPropertyOp43
 70
     1
102
RTVSPropertyOp44
 70
     1
102
RTVSPropertyOp45
 70
     1
102
RTVSPropertyOp46
 70
     1
102
RTVSPropertyOp47
 70
     1
102
RTVSPropertyOp48
 70
     1
102
RTVSPropertyOp49
 70
     1
102
RTVSPropertyOp50
 70
     1
102
RTVSPropertyOp51
 70
     0
102
RTVSPropertyOp52
 70
     0
102
RTVSPropertyOp53
 70
     1
102
RTVSPropertyOp54
 70
     1
102
RTVSPropertyOp55
 70
     1
102
RTVSPropertyOp56
 70
     1
102
RTVSPropertyOp57
 70
     1
102
RTVSPropertyOp58
 70
     1
102
RTVSPropertyOp59
 70
     1
102
RTVSPropertyOp60
 70
     1
102
RTVSPropertyOp61
 70
     1
102
RTVSPropertyOp62
 70
     1
  0
XRECORD
  5
39C
102
{ACAD_REACTORS
330
39B
102
}
330
39B
100
AcDbXrecord
280
     1
102
RTVSPost2010Prop28
280
     0
102
RTVSPost2010PropOp28
 70
     1
102
RTVSPost2010Prop29
280
     1
102
RTVSPost2010PropOp29
 70
     1
102
RTVSPost2010Prop30
280
     1
102
RTVSPost2010PropOp30
 70
     1
102
RTVSPost2010Prop31
280
     0
102
RTVSPost2010PropOp31
 70
     1
102
RTVSPost2010Prop32
280
     0
102
RTVSPost2010PropOp32
 70
     1
102
RTVSPost2010Prop33
280
     0
102
RTVSPost2010PropOp33
 70
     1
102
RTVSPost2010Prop34
280
     0
102
RTVSPost2010PropOp34
 70
     1
102
RTVSPost2010Prop35
280
     0
102
RTVSPost2010PropOp35
 70
     1
102
RTVSPost2010Prop36
280
     0
102
RTVSPost2010PropOp36
 70
     1
102
RTVSPost2010Prop37
 90
       50
102
RTVSPost2010PropOp37
 70
     1
102
RTVSPost2010Prop38
140
0.0
102
RTVSPost2010PropOp38
 70
     1
102
RTVSPost2010Prop39
140
1.0
102
RTVSPost2010PropOp39
 70
     1
102
RTVSPost2010Prop40
 90
        0
102
RTVSPost2010PropOp40
 70
     1
102
RTVSPost2010Prop41ColorIndex
 90
       18
102
RTVSPost2010Prop41ColorRGB
 90
        0
102
RTVSPost2010PropOp41
 70
     1
102
RTVSPost2010Prop42
 90
       50
102
RTVSPost2010PropOp42
 70
     1
102
RTVSPost2010Prop43
 90
        3
102
RTVSPost2010PropOp43
 70
     1
102
RTVSPost2010Prop44ColorIndex
 90
        5
102
RTVSPost2010Prop44ColorRGB
 90
      255
102
RTVSPost2010PropOp44
 70
     1
102
RTVSPost2010Prop45
280
     0
102
RTVSPost2010PropOp45
 70
     1
102
RTVSPost2010Prop46
 90
       50
102
RTVSPost2010PropOp46
 70
     1
102
RTVSPost2010Prop47
 90
       50
102
RTVSPost2010PropOp47
 70
     1
102
RTVSPost2010Prop48
 90
       50
102
RTVSPost2010PropOp48
 70
     1
102
RTVSPost2010Prop49
280
     0
102
RTVSPost2010PropOp49
 70
     1
102
RTVSPost2010Prop50
 90
       50
102
RTVSPost2010PropOp50
 70
     1
102
RTVSPost2010Prop51ColorIndex
 90
      256
102
RTVSPost2010Prop51ColorRGB
 90
-16777216
102
RTVSPost2010PropOp51
 70
     0
102
RTVSPost2010Prop52
140
1.0
102
RTVSPost2010PropOp52
 70
     0
102
RTVSPost2010Prop53
 90
        2
102
RTVSPost2010PropOp53
 70
     1
102
RTVSPost2010Prop54
  1
strokes_ogs.tif
102
RTVSPost2010PropOp54
 70
     1
102
RTVSPost2010Prop55
280
     0
102
RTVSPost2010PropOp55
 70
     1
102
RTVSPost2010Prop56
140
1.0
102
RTVSPost2010PropOp56
 70
     1
102
RTVSPost2010Prop57
140
1.0
102
RTVSPost2010PropOp57
 70
     1
102
RTVSPropertyOp0
 70
     1
102
RTVSPropertyOp1
 70
     1
102
RTVSPropertyOp2
 70
     1
102
RTVSPropertyOp3
 70
     1
102
RTVSPropertyOp4
 70
     1
102
RTVSPropertyOp5
 70
     1
102
RTVSPropertyOp6
 70
     1
102
RTVSPropertyOp7
 70
     1
102
RTVSPropertyOp8
 70
     1
102
RTVSPropertyOp9
 70
     1
102
RTVSPropertyOp10
 70
     1
102
RTVSPropertyOp11
 70
     1
102
RTVSPropertyOp12
 70
     1
102
RTVSPropertyOp13
 70
     1
102
RTVSPropertyOp14
 70
     1
102
RTVSPropertyOp15
 70
     1
102
RTVSPropertyOp16
 70
     1
102
RTVSPropertyOp17
 70
     1
102
RTVSPropertyOp18
 70
     1
102
RTVSPropertyOp19
 70
     1
102
RTVSPropertyOp20
 70
     1
102
RTVSPropertyOp21
 70
     1
102
RTVSPropertyOp22
 70
     1
102
RTVSPropertyOp23
 70
     1
102
RTVSPropertyOp24
 70
     1
102
RTVSPropertyOp25
 70
     1
102
RTVSPropertyOp26
 70
     1
102
RTVSPropertyOp27
 70
     1
102
RTVSPropertyOp28
 70
     1
102
RTVSPropertyOp29
 70
     1
102
RTVSPropertyOp30
 70
     1
102
RTVSPropertyOp31
 70
     1
102
RTVSPropertyOp32
 70
     1
102
RTVSPropertyOp33
 70
     1
102
RTVSPropertyOp34
 70
     1
102
RTVSPropertyOp35
 70
     1
102
RTVSPropertyOp36
 70
     1
102
RTVSPropertyOp37
 70
     1
102
RTVSPropertyOp38
 70
     1
102
RTVSPropertyOp39
 70
     1
102
RTVSPropertyOp40
 70
     1
102
RTVSPropertyOp41
 70
     1
102
RTVSPropertyOp42
 70
     1
102
RTVSPropertyOp43
 70
     1
102
RTVSPropertyOp44
 70
     1
102
RTVSPropertyOp45
 70
     1
102
RTVSPropertyOp46
 70
     1
102
RTVSPropertyOp47
 70
     1
102
RTVSPropertyOp48
 70
     1
102
RTVSPropertyOp49
 70
     1
102
RTVSPropertyOp50
 70
     1
102
RTVSPropertyOp51
 70
     0
102
RTVSPropertyOp52
 70
     0
102
RTVSPropertyOp53
 70
     1
102
RTVSPropertyOp54
 70
     1
102
RTVSPropertyOp55
 70
     1
102
RTVSPropertyOp56
 70
     1
102
RTVSPropertyOp57
 70
     1
102
RTVSPropertyOp58
 70
     1
102
RTVSPropertyOp59
 70
     1
102
RTVSPropertyOp60
 70
     1
102
RTVSPropertyOp61
 70
     1
102
RTVSPropertyOp62
 70
     1
  0
XRECORD
  5
38C
102
{ACAD_REACTORS
330
38B
102
}
330
38B
100
AcDbXrecord
280
     1
102
RTVSPost2010Prop28
280
     0
102
RTVSPost2010PropOp28
 70
     1
102
RTVSPost2010Prop29
280
     1
102
RTVSPost2010PropOp29
 70
     1
102
RTVSPost2010Prop30
280
     1
102
RTVSPost2010PropOp30
 70
     1
102
RTVSPost2010Prop31
280
     0
102
RTVSPost2010PropOp31
 70
     1
102
RTVSPost2010Prop32
280
     0
102
RTVSPost2010PropOp32
 70
     1
102
RTVSPost2010Prop33
280
     0
102
RTVSPost2010PropOp33
 70
     1
102
RTVSPost2010Prop34
280
     0
102
RTVSPost2010PropOp34
 70
     1
102
RTVSPost2010Prop35
280
     0
102
RTVSPost2010PropOp35
 70
     1
102
RTVSPost2010Prop36
280
     0
102
RTVSPost2010PropOp36
 70
     1
102
RTVSPost2010Prop37
 90
       50
102
RTVSPost2010PropOp37
 70
     1
102
RTVSPost2010Prop38
140
0.0
102
RTVSPost2010PropOp38
 70
     1
102
RTVSPost2010Prop39
140
1.0
102
RTVSPost2010PropOp39
 70
     1
102
RTVSPost2010Prop40
 90
        0
102
RTVSPost2010PropOp40
 70
     1
102
RTVSPost2010Prop41ColorIndex
 90
       18
102
RTVSPost2010Prop41ColorRGB
 90
        0
102
RTVSPost2010PropOp41
 70
     1
102
RTVSPost2010Prop42
 90
       50
102
RTVSPost2010PropOp42
 70
     1
102
RTVSPost2010Prop43
 90
        3
102
RTVSPost2010PropOp43
 70
     1
102
RTVSPost2010Prop44ColorIndex
 90
        5
102
RTVSPost2010Prop44ColorRGB
 90
      255
102
RTVSPost2010PropOp44
 70
     1
102
RTVSPost2010Prop45
280
     0
102
RTVSPost2010PropOp45
 70
     1
102
RTVSPost2010Prop46
 90
       50
102
RTVSPost2010PropOp46
 70
     1
102
RTVSPost2010Prop47
 90
       50
102
RTVSPost2010PropOp47
 70
     1
102
RTVSPost2010Prop48
 90
       50
102
RTVSPost2010PropOp48
 70
     1
102
RTVSPost2010Prop49
280
     0
102
RTVSPost2010PropOp49
 70
     1
102
RTVSPost2010Prop50
 90
       50
102
RTVSPost2010PropOp50
 70
     1
102
RTVSPost2010Prop51ColorIndex
 90
      256
102
RTVSPost2010Prop51ColorRGB
 90
-16777216
102
RTVSPost2010PropOp51
 70
     0
102
RTVSPost2010Prop52
140
1.0
102
RTVSPost2010PropOp52
 70
     0
102
RTVSPost2010Prop53
 90
        2
102
RTVSPost2010PropOp53
 70
     1
102
RTVSPost2010Prop54
  1
strokes_ogs.tif
102
RTVSPost2010PropOp54
 70
     1
102
RTVSPost2010Prop55
280
     0
102
RTVSPost2010PropOp55
 70
     1
102
RTVSPost2010Prop56
140
1.0
102
RTVSPost2010PropOp56
 70
     1
102
RTVSPost2010Prop57
140
1.0
102
RTVSPost2010PropOp57
 70
     1
102
RTVSPropertyOp0
 70
     1
102
RTVSPropertyOp1
 70
     1
102
RTVSPropertyOp2
 70
     1
102
RTVSPropertyOp3
 70
     1
102
RTVSPropertyOp4
 70
     1
102
RTVSPropertyOp5
 70
     1
102
RTVSPropertyOp6
 70
     1
102
RTVSPropertyOp7
 70
     1
102
RTVSPropertyOp8
 70
     1
102
RTVSPropertyOp9
 70
     1
102
RTVSPropertyOp10
 70
     1
102
RTVSPropertyOp11
 70
     1
102
RTVSPropertyOp12
 70
     1
102
RTVSPropertyOp13
 70
     1
102
RTVSPropertyOp14
 70
     1
102
RTVSPropertyOp15
 70
     1
102
RTVSPropertyOp16
 70
     1
102
RTVSPropertyOp17
 70
     1
102
RTVSPropertyOp18
 70
     1
102
RTVSPropertyOp19
 70
     1
102
RTVSPropertyOp20
 70
     1
102
RTVSPropertyOp21
 70
     1
102
RTVSPropertyOp22
 70
     1
102
RTVSPropertyOp23
 70
     1
102
RTVSPropertyOp24
 70
     1
102
RTVSPropertyOp25
 70
     1
102
RTVSPropertyOp26
 70
     1
102
RTVSPropertyOp27
 70
     1
102
RTVSPropertyOp28
 70
     1
102
RTVSPropertyOp29
 70
     1
102
RTVSPropertyOp30
 70
     1
102
RTVSPropertyOp31
 70
     1
102
RTVSPropertyOp32
 70
     1
102
RTVSPropertyOp33
 70
     1
102
RTVSPropertyOp34
 70
     1
102
RTVSPropertyOp35
 70
     1
102
RTVSPropertyOp36
 70
     1
102
RTVSPropertyOp37
 70
     1
102
RTVSPropertyOp38
 70
     1
102
RTVSPropertyOp39
 70
     1
102
RTVSPropertyOp40
 70
     1
102
RTVSPropertyOp41
 70
     1
102
RTVSPropertyOp42
 70
     1
102
RTVSPropertyOp43
 70
     1
102
RTVSPropertyOp44
 70
     1
102
RTVSPropertyOp45
 70
     1
102
RTVSPropertyOp46
 70
     1
102
RTVSPropertyOp47
 70
     1
102
RTVSPropertyOp48
 70
     1
102
RTVSPropertyOp49
 70
     1
102
RTVSPropertyOp50
 70
     1
102
RTVSPropertyOp51
 70
     0
102
RTVSPropertyOp52
 70
     0
102
RTVSPropertyOp53
 70
     1
102
RTVSPropertyOp54
 70
     1
102
RTVSPropertyOp55
 70
     1
102
RTVSPropertyOp56
 70
     1
102
RTVSPropertyOp57
 70
     1
102
RTVSPropertyOp58
 70
     1
102
RTVSPropertyOp59
 70
     1
102
RTVSPropertyOp60
 70
     1
102
RTVSPropertyOp61
 70
     1
102
RTVSPropertyOp62
 70
     1
  0
XRECORD
  5
37E
102
{ACAD_REACTORS
330
37D
102
}
330
37D
100
AcDbXrecord
280
     1
102
RTVSPost2010Prop28
280
     0
102
RTVSPost2010PropOp28
 70
     1
102
RTVSPost2010Prop29
280
     1
102
RTVSPost2010PropOp29
 70
     1
102
RTVSPost2010Prop30
280
     1
102
RTVSPost2010PropOp30
 70
     1
102
RTVSPost2010Prop31
280
     0
102
RTVSPost2010PropOp31
 70
     1
102
RTVSPost2010Prop32
280
     0
102
RTVSPost2010PropOp32
 70
     1
102
RTVSPost2010Prop33
280
     0
102
RTVSPost2010PropOp33
 70
     1
102
RTVSPost2010Prop34
280
     0
102
RTVSPost2010PropOp34
 70
     1
102
RTVSPost2010Prop35
280
     0
102
RTVSPost2010PropOp35
 70
     1
102
RTVSPost2010Prop36
280
     0
102
RTVSPost2010PropOp36
 70
     1
102
RTVSPost2010Prop37
 90
       50
102
RTVSPost2010PropOp37
 70
     1
102
RTVSPost2010Prop38
140
0.0
102
RTVSPost2010PropOp38
 70
     1
102
RTVSPost2010Prop39
140
1.0
102
RTVSPost2010PropOp39
 70
     1
102
RTVSPost2010Prop40
 90
        0
102
RTVSPost2010PropOp40
 70
     1
102
RTVSPost2010Prop41ColorIndex
 90
       18
102
RTVSPost2010Prop41ColorRGB
 90
        0
102
RTVSPost2010PropOp41
 70
     1
102
RTVSPost2010Prop42
 90
       50
102
RTVSPost2010PropOp42
 70
     1
102
RTVSPost2010Prop43
 90
        3
102
RTVSPost2010PropOp43
 70
     1
102
RTVSPost2010Prop44ColorIndex
 90
        5
102
RTVSPost2010Prop44ColorRGB
 90
      255
102
RTVSPost2010PropOp44
 70
     1
102
RTVSPost2010Prop45
280
     0
102
RTVSPost2010PropOp45
 70
     1
102
RTVSPost2010Prop46
 90
       50
102
RTVSPost2010PropOp46
 70
     1
102
RTVSPost2010Prop47
 90
       50
102
RTVSPost2010PropOp47
 70
     1
102
RTVSPost2010Prop48
 90
       50
102
RTVSPost2010PropOp48
 70
     1
102
RTVSPost2010Prop49
280
     0
102
RTVSPost2010PropOp49
 70
     1
102
RTVSPost2010Prop50
 90
       50
102
RTVSPost2010PropOp50
 70
     1
102
RTVSPost2010Prop51ColorIndex
 90
      256
102
RTVSPost2010Prop51ColorRGB
 90
-16777216
102
RTVSPost2010PropOp51
 70
     0
102
RTVSPost2010Prop52
140
1.0
102
RTVSPost2010PropOp52
 70
     0
102
RTVSPost2010Prop53
 90
        2
102
RTVSPost2010PropOp53
 70
     1
102
RTVSPost2010Prop54
  1
strokes_ogs.tif
102
RTVSPost2010PropOp54
 70
     1
102
RTVSPost2010Prop55
280
     0
102
RTVSPost2010PropOp55
 70
     1
102
RTVSPost2010Prop56
140
1.0
102
RTVSPost2010PropOp56
 70
     1
102
RTVSPost2010Prop57
140
1.0
102
RTVSPost2010PropOp57
 70
     1
102
RTVSPropertyOp0
 70
     1
102
RTVSPropertyOp1
 70
     1
102
RTVSPropertyOp2
 70
     1
102
RTVSPropertyOp3
 70
     1
102
RTVSPropertyOp4
 70
     1
102
RTVSPropertyOp5
 70
     1
102
RTVSPropertyOp6
 70
     1
102
RTVSPropertyOp7
 70
     1
102
RTVSPropertyOp8
 70
     1
102
RTVSPropertyOp9
 70
     1
102
RTVSPropertyOp10
 70
     1
102
RTVSPropertyOp11
 70
     1
102
RTVSPropertyOp12
 70
     1
102
RTVSPropertyOp13
 70
     1
102
RTVSPropertyOp14
 70
     1
102
RTVSPropertyOp15
 70
     1
102
RTVSPropertyOp16
 70
     1
102
RTVSPropertyOp17
 70
     1
102
RTVSPropertyOp18
 70
     1
102
RTVSPropertyOp19
 70
     1
102
RTVSPropertyOp20
 70
     1
102
RTVSPropertyOp21
 70
     1
102
RTVSPropertyOp22
 70
     1
102
RTVSPropertyOp23
 70
     1
102
RTVSPropertyOp24
 70
     1
102
RTVSPropertyOp25
 70
     1
102
RTVSPropertyOp26
 70
     1
102
RTVSPropertyOp27
 70
     1
102
RTVSPropertyOp28
 70
     1
102
RTVSPropertyOp29
 70
     1
102
RTVSPropertyOp30
 70
     1
102
RTVSPropertyOp31
 70
     1
102
RTVSPropertyOp32
 70
     1
102
RTVSPropertyOp33
 70
     1
102
RTVSPropertyOp34
 70
     1
102
RTVSPropertyOp35
 70
     1
102
RTVSPropertyOp36
 70
     1
102
RTVSPropertyOp37
 70
     1
102
RTVSPropertyOp38
 70
     1
102
RTVSPropertyOp39
 70
     1
102
RTVSPropertyOp40
 70
     1
102
RTVSPropertyOp41
 70
     1
102
RTVSPropertyOp42
 70
     1
102
RTVSPropertyOp43
 70
     1
102
RTVSPropertyOp44
 70
     1
102
RTVSPropertyOp45
 70
     1
102
RTVSPropertyOp46
 70
     1
102
RTVSPropertyOp47
 70
     1
102
RTVSPropertyOp48
 70
     1
102
RTVSPropertyOp49
 70
     1
102
RTVSPropertyOp50
 70
     1
102
RTVSPropertyOp51
 70
     0
102
RTVSPropertyOp52
 70
     0
102
RTVSPropertyOp53
 70
     1
102
RTVSPropertyOp54
 70
     1
102
RTVSPropertyOp55
 70
     1
102
RTVSPropertyOp56
 70
     1
102
RTVSPropertyOp57
 70
     1
102
RTVSPropertyOp58
 70
     1
102
RTVSPropertyOp59
 70
     1
102
RTVSPropertyOp60
 70
     1
102
RTVSPropertyOp61
 70
     1
102
RTVSPropertyOp62
 70
     1
  0
XRECORD
  5
39E
102
{ACAD_REACTORS
330
39D
102
}
330
39D
100
AcDbXrecord
280
     1
102
RTVSPost2010Prop28
280
     0
102
RTVSPost2010PropOp28
 70
     1
102
RTVSPost2010Prop29
280
     1
102
RTVSPost2010PropOp29
 70
     1
102
RTVSPost2010Prop30
280
     1
102
RTVSPost2010PropOp30
 70
     1
102
RTVSPost2010Prop31
280
     0
102
RTVSPost2010PropOp31
 70
     1
102
RTVSPost2010Prop32
280
     0
102
RTVSPost2010PropOp32
 70
     1
102
RTVSPost2010Prop33
280
     0
102
RTVSPost2010PropOp33
 70
     1
102
RTVSPost2010Prop34
280
     0
102
RTVSPost2010PropOp34
 70
     1
102
RTVSPost2010Prop35
280
     0
102
RTVSPost2010PropOp35
 70
     1
102
RTVSPost2010Prop36
280
     0
102
RTVSPost2010PropOp36
 70
     1
102
RTVSPost2010Prop37
 90
       50
102
RTVSPost2010PropOp37
 70
     1
102
RTVSPost2010Prop38
140
0.0
102
RTVSPost2010PropOp38
 70
     1
102
RTVSPost2010Prop39
140
1.0
102
RTVSPost2010PropOp39
 70
     1
102
RTVSPost2010Prop40
 90
        0
102
RTVSPost2010PropOp40
 70
     1
102
RTVSPost2010Prop41ColorIndex
 90
       18
102
RTVSPost2010Prop41ColorRGB
 90
        0
102
RTVSPost2010PropOp41
 70
     1
102
RTVSPost2010Prop42
 90
       50
102
RTVSPost2010PropOp42
 70
     1
102
RTVSPost2010Prop43
 90
        3
102
RTVSPost2010PropOp43
 70
     1
102
RTVSPost2010Prop44ColorIndex
 90
        5
102
RTVSPost2010Prop44ColorRGB
 90
      255
102
RTVSPost2010PropOp44
 70
     1
102
RTVSPost2010Prop45
280
     0
102
RTVSPost2010PropOp45
 70
     1
102
RTVSPost2010Prop46
 90
       50
102
RTVSPost2010PropOp46
 70
     1
102
RTVSPost2010Prop47
 90
       50
102
RTVSPost2010PropOp47
 70
     1
102
RTVSPost2010Prop48
 90
       50
102
RTVSPost2010PropOp48
 70
     1
102
RTVSPost2010Prop49
280
     0
102
RTVSPost2010PropOp49
 70
     1
102
RTVSPost2010Prop50
 90
       50
102
RTVSPost2010PropOp50
 70
     1
102
RTVSPost2010Prop51ColorIndex
 90
      256
102
RTVSPost2010Prop51ColorRGB
 90
-16777216
102
RTVSPost2010PropOp51
 70
     0
102
RTVSPost2010Prop52
140
1.0
102
RTVSPost2010PropOp52
 70
     0
102
RTVSPost2010Prop53
 90
        2
102
RTVSPost2010PropOp53
 70
     1
102
RTVSPost2010Prop54
  1
strokes_ogs.tif
102
RTVSPost2010PropOp54
 70
     1
102
RTVSPost2010Prop55
280
     0
102
RTVSPost2010PropOp55
 70
     1
102
RTVSPost2010Prop56
140
1.0
102
RTVSPost2010PropOp56
 70
     1
102
RTVSPost2010Prop57
140
1.0
102
RTVSPost2010PropOp57
 70
     1
102
RTVSPropertyOp0
 70
     1
102
RTVSPropertyOp1
 70
     1
102
RTVSPropertyOp2
 70
     1
102
RTVSPropertyOp3
 70
     1
102
RTVSPropertyOp4
 70
     1
102
RTVSPropertyOp5
 70
     1
102
RTVSPropertyOp6
 70
     1
102
RTVSPropertyOp7
 70
     1
102
RTVSPropertyOp8
 70
     1
102
RTVSPropertyOp9
 70
     1
102
RTVSPropertyOp10
 70
     1
102
RTVSPropertyOp11
 70
     1
102
RTVSPropertyOp12
 70
     1
102
RTVSPropertyOp13
 70
     1
102
RTVSPropertyOp14
 70
     1
102
RTVSPropertyOp15
 70
     1
102
RTVSPropertyOp16
 70
     1
102
RTVSPropertyOp17
 70
     1
102
RTVSPropertyOp18
 70
     1
102
RTVSPropertyOp19
 70
     1
102
RTVSPropertyOp20
 70
     1
102
RTVSPropertyOp21
 70
     1
102
RTVSPropertyOp22
 70
     1
102
RTVSPropertyOp23
 70
     1
102
RTVSPropertyOp24
 70
     1
102
RTVSPropertyOp25
 70
     1
102
RTVSPropertyOp26
 70
     1
102
RTVSPropertyOp27
 70
     1
102
RTVSPropertyOp28
 70
     1
102
RTVSPropertyOp29
 70
     1
102
RTVSPropertyOp30
 70
     1
102
RTVSPropertyOp31
 70
     1
102
RTVSPropertyOp32
 70
     1
102
RTVSPropertyOp33
 70
     1
102
RTVSPropertyOp34
 70
     1
102
RTVSPropertyOp35
 70
     1
102
RTVSPropertyOp36
 70
     1
102
RTVSPropertyOp37
 70
     1
102
RTVSPropertyOp38
 70
     1
102
RTVSPropertyOp39
 70
     1
102
RTVSPropertyOp40
 70
     1
102
RTVSPropertyOp41
 70
     1
102
RTVSPropertyOp42
 70
     1
102
RTVSPropertyOp43
 70
     1
102
RTVSPropertyOp44
 70
     1
102
RTVSPropertyOp45
 70
     1
102
RTVSPropertyOp46
 70
     1
102
RTVSPropertyOp47
 70
     1
102
RTVSPropertyOp48
 70
     1
102
RTVSPropertyOp49
 70
     1
102
RTVSPropertyOp50
 70
     1
102
RTVSPropertyOp51
 70
     0
102
RTVSPropertyOp52
 70
     0
102
RTVSPropertyOp53
 70
     1
102
RTVSPropertyOp54
 70
     1
102
RTVSPropertyOp55
 70
     1
102
RTVSPropertyOp56
 70
     1
102
RTVSPropertyOp57
 70
     1
102
RTVSPropertyOp58
 70
     1
102
RTVSPropertyOp59
 70
     1
102
RTVSPropertyOp60
 70
     1
102
RTVSPropertyOp61
 70
     1
102
RTVSPropertyOp62
 70
     1
  0
ENDSEC
  0
EOF
