  0
SECTION
  2
HEADER
  9
$ACADVER
  1
AC1018
  9
$ACADMAINTVER
 70
   104
  9
$DWGCODEPAGE
  3
ANSI_1250
  9
$LASTSAVEDBY
  1
hc7230
  9
$INSBASE
 10
0.0
 20
0.0
 30
0.0
  9
$EXTMIN
 10
192.5073163333334
 20
213.1691216666665
 30
0.0
  9
$EXTMAX
 10
290.809021
 20
277.7075986666667
 30
0.0
  9
$LIMMIN
 10
-0.5
 20
-0.5
  9
$LIMMAX
 10
5.0
 20
5.0
  9
$ORTHOMODE
 70
     0
  9
$REGENMODE
 70
     1
  9
$FILLMODE
 70
     1
  9
$QTEXTMODE
 70
     0
  9
$MIRRTEXT
 70
     1
  9
$LTSCALE
 40
1.0
  9
$ATTMODE
 70
     1
  9
$TEXTSIZE
 40
0.2
  9
$TRACEWID
 40
0.05
  9
$TEXTSTYLE
  7
Standard
  9
$CLAYER
  8
0
  9
$CELTYPE
  6
ByLayer
  9
$CECOLOR
 62
   256
  9
$CELTSCALE
 40
1.0
  9
$DISPSILH
 70
     0
  9
$DIMSCALE
 40
1.0
  9
$DIMASZ
 40
0.18
  9
$DIMEXO
 40
0.0625
  9
$DIMDLI
 40
0.38
  9
$DIMRND
 40
0.0
  9
$DIMDLE
 40
0.0
  9
$DIMEXE
 40
0.18
  9
$DIMTP
 40
0.0
  9
$DIMTM
 40
0.0
  9
$DIMTXT
 40
0.18
  9
$DIMCEN
 40
0.09
  9
$DIMTSZ
 40
0.0
  9
$DIMTOL
 70
     0
  9
$DIMLIM
 70
     0
  9
$DIMTIH
 70
     1
  9
$DIMTOH
 70
     1
  9
$DIMSE1
 70
     0
  9
$DIMSE2
 70
     0
  9
$DIMTAD
 70
     0
  9
$DIMZIN
 70
     0
  9
$DIMBLK
  1

  9
$DIMASO
 70
     1
  9
$DIMSHO
 70
     1
  9
$DIMPOST
  1

  9
$DIMAPOST
  1

  9
$DIMALT
 70
     0
  9
$DIMALTD
 70
     2
  9
$DIMALTF
 40
25.4
  9
$DIMLFAC
 40
1.0
  9
$DIMTOFL
 70
     0
  9
$DIMTVP
 40
0.0
  9
$DIMTIX
 70
     0
  9
$DIMSOXD
 70
     0
  9
$DIMSAH
 70
     0
  9
$DIMBLK1
  1

  9
$DIMBLK2
  1

  9
$DIMSTYLE
  2
Standard
  9
$DIMCLRD
 70
     0
  9
$DIMCLRE
 70
     0
  9
$DIMCLRT
 70
     0
  9
$DIMTFAC
 40
1.0
  9
$DIMGAP
 40
0.09
  9
$DIMJUST
 70
     0
  9
$DIMSD1
 70
     0
  9
$DIMSD2
 70
     0
  9
$DIMTOLJ
 70
     1
  9
$DIMTZIN
 70
     0
  9
$DIMALTZ
 70
     0
  9
$DIMALTTZ
 70
     0
  9
$DIMUPT
 70
     0
  9
$DIMDEC
 70
     4
  9
$DIMTDEC
 70
     4
  9
$DIMALTU
 70
     2
  9
$DIMALTTD
 70
     2
  9
$DIMTXSTY
  7
Standard
  9
$DIMAUNIT
 70
     0
  9
$DIMADEC
 70
     0
  9
$DIMALTRND
 40
0.0
  9
$DIMAZIN
 70
     0
  9
$DIMDSEP
 70
    46
  9
$DIMATFIT
 70
     3
  9
$DIMFRAC
 70
     0
  9
$DIMLDRBLK
  1

  9
$DIMLUNIT
 70
     2
  9
$DIMLWD
 70
    -2
  9
$DIMLWE
 70
    -2
  9
$DIMTMOVE
 70
     0
  9
$LUNITS
 70
     2
  9
$LUPREC
 70
     4
  9
$SKETCHINC
 40
0.1
  9
$FILLETRAD
 40
0.5
  9
$AUNITS
 70
     0
  9
$AUPREC
 70
     0
  9
$MENU
  1
.
  9
$ELEVATION
 40
0.0
  9
$PELEVATION
 40
0.0
  9
$THICKNESS
 40
0.0
  9
$LIMCHECK
 70
     0
  9
$CHAMFERA
 40
0.0
  9
$CHAMFERB
 40
0.0
  9
$CHAMFERC
 40
0.0
  9
$CHAMFERD
 40
0.0
  9
$SKPOLY
 70
     0
  9
$TDCREATE
 40
2458837.310057871
  9
$TDUCREATE
 40
2458837.268391250
  9
$TDUPDATE
 40
2458837.311759259
  9
$TDUUPDATE
 40
2458837.270092593
  9
$TDINDWG
 40
0.0005439931
  9
$TDUSRTIMER
 40
0.0005439931
  9
$USRTIMER
 70
     1
  9
$ANGBASE
 50
0.0
  9
$ANGDIR
 70
     0
  9
$PDMODE
 70
     0
  9
$PDSIZE
 40
0.0
  9
$PLINEWID
 40
0.0
  9
$SPLFRAME
 70
     0
  9
$SPLINETYPE
 70
     6
  9
$SPLINESEGS
 70
     8
  9
$HANDSEED
  5
3CD
  9
$SURFTAB1
 70
     6
  9
$SURFTAB2
 70
     6
  9
$SURFTYPE
 70
     6
  9
$SURFU
 70
     6
  9
$SURFV
 70
     6
  9
$UCSBASE
  2

  9
$UCSNAME
  2

  9
$UCSORG
 10
237.144248
 20
243.731161
 30
0.0
  9
$UCSXDIR
 10
1.0
 20
0.0
 30
0.0
  9
$UCSYDIR
 10
0.0
 20
1.0
 30
0.0
  9
$UCSORTHOREF
  2

  9
$UCSORTHOVIEW
 70
     0
  9
$UCSORGTOP
 10
0.0
 20
0.0
 30
0.0
  9
$UCSORGBOTTOM
 10
0.0
 20
0.0
 30
0.0
  9
$UCSORGLEFT
 10
0.0
 20
0.0
 30
0.0
  9
$UCSORGRIGHT
 10
0.0
 20
0.0
 30
0.0
  9
$UCSORGFRONT
 10
0.0
 20
0.0
 30
0.0
  9
$UCSORGBACK
 10
0.0
 20
0.0
 30
0.0
  9
$PUCSBASE
  2

  9
$PUCSNAME
  2

  9
$PUCSORG
 10
0.0
 20
0.0
 30
0.0
  9
$PUCSXDIR
 10
1.0
 20
0.0
 30
0.0
  9
$PUCSYDIR
 10
0.0
 20
1.0
 30
0.0
  9
$PUCSORTHOREF
  2

  9
$PUCSORTHOVIEW
 70
     0
  9
$PUCSORGTOP
 10
0.0
 20
0.0
 30
0.0
  9
$PUCSORGBOTTOM
 10
0.0
 20
0.0
 30
0.0
  9
$PUCSORGLEFT
 10
0.0
 20
0.0
 30
0.0
  9
$PUCSORGRIGHT
 10
0.0
 20
0.0
 30
0.0
  9
$PUCSORGFRONT
 10
0.0
 20
0.0
 30
0.0
  9
$PUCSORGBACK
 10
0.0
 20
0.0
 30
0.0
  9
$USERI1
 70
     0
  9
$USERI2
 70
     0
  9
$USERI3
 70
     0
  9
$USERI4
 70
     0
  9
$USERI5
 70
     0
  9
$USERR1
 40
0.0
  9
$USERR2
 40
0.0
  9
$USERR3
 40
0.0
  9
$USERR4
 40
0.0
  9
$USERR5
 40
0.0
  9
$WORLDVIEW
 70
     1
  9
$SHADEDGE
 70
     3
  9
$SHADEDIF
 70
    70
  9
$TILEMODE
 70
     1
  9
$MAXACTVP
 70
    64
  9
$PINSBASE
 10
0.0
 20
0.0
 30
0.0
  9
$PLIMCHECK
 70
     0
  9
$PEXTMIN
 10
-0.5
 20
-0.5
 30
-0.5
  9
$PEXTMAX
 10
5.0
 20
5.0
 30
5.0
  9
$PLIMMIN
 10
-0.5
 20
-0.5
  9
$PLIMMAX
 10
5.0
 20
5.0
  9
$UNITMODE
 70
     0
  9
$VISRETAIN
 70
     1
  9
$PLINEGEN
 70
     0
  9
$PSLTSCALE
 70
     1
  9
$TREEDEPTH
 70
  3020
  9
$CMLSTYLE
  2
Standard
  9
$CMLJUST
 70
     0
  9
$CMLSCALE
 40
1.0
  9
$PROXYGRAPHICS
 70
     1
  9
$MEASUREMENT
 70
     1
  9
$CELWEIGHT
370
    13
  9
$ENDCAPS
280
     0
  9
$JOINSTYLE
280
     0
  9
$LWDISPLAY
290
     0
  9
$INSUNITS
 70
     4
  9
$HYPERLINKBASE
  1

  9
$STYLESHEET
  1

  9
$XEDIT
290
     1
  9
$CEPSNTYPE
380
     0
  9
$PSTYLEMODE
290
     1
  9
$FINGERPRINTGUID
  2
{7F51CFF0-E94E-48C0-8620-925582EEAE48}
  9
$VERSIONGUID
  2
{D0A248B1-8FA5-6D43-A412-296A66D69C38}
  9
$EXTNAMES
290
     1
  9
$PSVPSCALE
 40
0.0
  9
$OLESTARTUP
290
     0
  9
$SORTENTS
280
   127
  9
$INDEXCTL
280
     0
  9
$HIDETEXT
280
     1
  9
$XCLIPFRAME
290
     0
  9
$HALOGAP
280
     0
  9
$OBSCOLOR
 70
   257
  9
$OBSLTYPE
280
     0
  9
$INTERSECTIONDISPLAY
280
     0
  9
$INTERSECTIONCOLOR
 70
   257
  9
$DIMASSOC
280
     2
  9
$PROJECTNAME
  1

  0
ENDSEC
  0
SECTION
  2
CLASSES
  0
CLASS
  1
ACDBDICTIONARYWDFLT
  2
AcDbDictionaryWithDefault
  3
ObjectDBX Classes
 90
        0
 91
        1
280
     0
281
     0
  0
CLASS
  1
VISUALSTYLE
  2
AcDbVisualStyle
  3
ObjectDBX Classes
 90
     4095
 91
       24
280
     0
281
     0
  0
CLASS
  1
MATERIAL
  2
AcDbMaterial
  3
ObjectDBX Classes
 90
     1153
 91
        3
280
     0
281
     0
  0
CLASS
  1
SCALE
  2
AcDbScale
  3
ObjectDBX Classes
 90
     1153
 91
       33
280
     0
281
     0
  0
CLASS
  1
TABLESTYLE
  2
AcDbTableStyle
  3
ObjectDBX Classes
 90
     4095
 91
        1
280
     0
281
     0
  0
CLASS
  1
MLEADERSTYLE
  2
AcDbMLeaderStyle
  3
ACDB_MLEADERSTYLE_CLASS
 90
     4095
 91
        1
280
     0
281
     0
  0
CLASS
  1
SUN
  2
AcDbSun
  3
SCENEOE
 90
     1153
 91
        0
280
     0
281
     0
  0
CLASS
  1
DIMASSOC
  2
AcDbDimAssoc
  3
"AcDbDimAssoc|Product Desc:     AcDim ARX App For Dimension|Company:          Autodesk, Inc.|WEB Address:      www.autodesk.com"
 90
        0
 91
        5
280
     0
281
     0
  0
CLASS
  1
DICTIONARYVAR
  2
AcDbDictionaryVar
  3
ObjectDBX Classes
 90
        0
 91
        8
280
     0
281
     0
  0
CLASS
  1
CELLSTYLEMAP
  2
AcDbCellStyleMap
  3
ObjectDBX Classes
 90
     1152
 91
        2
280
     0
281
     0
  0
CLASS
  1
ACDBSECTIONVIEWSTYLE
  2
AcDbSectionViewStyle
  3
ObjectDBX Classes
 90
     1025
 91
        1
280
     0
281
     0
  0
CLASS
  1
ACDBDETAILVIEWSTYLE
  2
AcDbDetailViewStyle
  3
ObjectDBX Classes
 90
     1025
 91
        1
280
     0
281
     0
  0
CLASS
  1
SORTENTSTABLE
  2
AcDbSortentsTable
  3
ObjectDBX Classes
 90
        0
 91
        1
280
     0
281
     0
  0
ENDSEC
  0
SECTION
  2
TABLES
  0
TABLE
  2
VPORT
  5
8
330
0
100
AcDbSymbolTable
 70
    16
  0
VPORT
  5
29
330
8
100
AcDbSymbolTableRecord
100
AcDbViewportTableRecord
  2
*Active
 70
     0
 10
0.0
 20
0.0
 11
1.0
 21
1.0
 12
275.8342373482453
 22
238.9304485731552
 13
0.0
 23
0.0
 14
0.5
 24
0.5
 15
0.5
 25
0.5
 16
0.0
 26
0.0
 36
1.0
 17
0.0
 27
0.0
 37
0.0
 40
202.0293632308336
 41
2.283154121863799
 42
50.0
 43
174.163229
 44
-174.163229
 50
0.0
 51
0.0
 71
     0
 72
   100
 73
     1
 74
     3
 75
     0
 76
     0
 77
     0
 78
     0
281
     0
 65
     1
110
237.144248
120
243.731161
130
0.0
111
1.0
121
0.0
131
0.0
112
0.0
122
1.0
132
0.0
 79
     0
146
0.0
1001
ACAD_NAV_VCDISPLAY
1070
     3
  0
VPORT
  5
296
330
8
100
AcDbSymbolTableRecord
100
AcDbViewportTableRecord
  2
L1
 70
     0
 10
0.0
 20
0.0
 11
1.0
 21
1.0
 12
241.153961
 22
245.447525
 13
0.0
 23
0.0
 14
0.5
 24
0.5
 15
0.5
 25
0.5
 16
0.0
 26
0.0
 36
1.0
 17
0.0
 27
0.0
 37
0.0
 40
209.020833
 41
0.084952
 42
50.0
 43
174.163229
 44
-174.163229
 50
0.0
 51
0.0
 71
     0
 72
   100
 73
     1
 74
     3
 75
     0
 76
     0
 77
     0
 78
     0
281
     0
 65
     1
110
0.0
120
0.0
130
0.0
111
1.0
121
0.0
131
0.0
112
0.0
122
1.0
132
0.0
 79
     0
146
0.0
  0
VPORT
  5
297
330
8
100
AcDbSymbolTableRecord
100
AcDbViewportTableRecord
  2
L2
 70
     0
 10
0.0
 20
0.0
 11
0.5
 21
1.0
 12
0.0
 22
0.0
 13
0.0
 23
0.0
 14
0.5
 24
0.5
 15
0.5
 25
0.5
 16
0.0
 26
-1.0
 36
0.0
 17
0.0
 27
0.0
 37
0.0
 40
1496.710499
 41
0.011864
 42
50.0
 43
774.8657309999999
 44
-774.8657309999999
 50
0.0
 51
0.0
 71
     0
 72
   100
 73
     1
 74
     3
 75
     0
 76
     0
 77
     0
 78
     0
281
     0
 65
     1
110
0.0
120
0.0
130
0.0
111
1.0
121
0.0
131
0.0
112
0.0
122
1.0
132
0.0
 79
     0
146
0.0
  0
VPORT
  5
298
330
8
100
AcDbSymbolTableRecord
100
AcDbViewportTableRecord
  2
L2
 70
     0
 10
0.5
 20
0.0
 11
1.0
 21
1.0
 12
0.0
 22
0.0
 13
0.0
 23
0.0
 14
0.5
 24
0.5
 15
0.5
 25
0.5
 16
1.0
 26
0.0
 36
0.0
 17
0.0
 27
0.0
 37
0.0
 40
1496.710499
 41
0.011864
 42
50.0
 43
755.6176329999999
 44
-755.6176329999999
 50
0.0
 51
0.0
 71
     0
 72
   100
 73
     1
 74
     3
 75
     0
 76
     0
 77
     0
 78
     0
281
     0
 65
     1
110
0.0
120
0.0
130
0.0
111
1.0
121
0.0
131
0.0
112
0.0
122
1.0
132
0.0
 79
     0
146
0.0
  0
VPORT
  5
299
330
8
100
AcDbSymbolTableRecord
100
AcDbViewportTableRecord
  2
L3
 70
     0
 10
0.0
 20
0.5
 11
1.0
 21
1.0
 12
241.153961
 22
245.447525
 13
0.0
 23
0.0
 14
0.5
 24
0.5
 15
0.5
 25
0.5
 16
0.0
 26
0.0
 36
1.0
 17
0.0
 27
0.0
 37
0.0
 40
209.020833
 41
0.084952
 42
50.0
 43
174.163229
 44
-174.163229
 50
0.0
 51
0.0
 71
     0
 72
   100
 73
     1
 74
     3
 75
     0
 76
     0
 77
     0
 78
     0
281
     0
 65
     1
110
0.0
120
0.0
130
0.0
111
1.0
121
0.0
131
0.0
112
0.0
122
1.0
132
0.0
 79
     0
146
0.0
  0
VPORT
  5
29A
330
8
100
AcDbSymbolTableRecord
100
AcDbViewportTableRecord
  2
L3
 70
     0
 10
0.0
 20
0.0
 11
1.0
 21
0.5
 12
0.0
 22
0.0
 13
0.0
 23
0.0
 14
0.5
 24
0.5
 15
0.5
 25
0.5
 16
0.0
 26
-1.0
 36
0.0
 17
0.0
 27
0.0
 37
0.0
 40
1496.710499
 41
0.011864
 42
50.0
 43
774.8657309999999
 44
-774.8657309999999
 50
0.0
 51
0.0
 71
     0
 72
   100
 73
     1
 74
     3
 75
     0
 76
     0
 77
     0
 78
     0
281
     0
 65
     1
110
0.0
120
0.0
130
0.0
111
1.0
121
0.0
131
0.0
112
0.0
122
1.0
132
0.0
 79
     0
146
0.0
  0
VPORT
  5
29B
330
8
100
AcDbSymbolTableRecord
100
AcDbViewportTableRecord
  2
L4
 70
     0
 10
0.0
 20
0.5
 11
0.5
 21
1.0
 12
241.153961
 22
245.447525
 13
0.0
 23
0.0
 14
0.5
 24
0.5
 15
0.5
 25
0.5
 16
0.0
 26
0.0
 36
1.0
 17
0.0
 27
0.0
 37
0.0
 40
209.020833
 41
0.084952
 42
50.0
 43
174.163229
 44
-174.163229
 50
0.0
 51
0.0
 71
     0
 72
   100
 73
     1
 74
     3
 75
     0
 76
     0
 77
     0
 78
     0
281
     0
 65
     1
110
0.0
120
0.0
130
0.0
111
1.0
121
0.0
131
0.0
112
0.0
122
1.0
132
0.0
 79
     0
146
0.0
  0
VPORT
  5
29C
330
8
100
AcDbSymbolTableRecord
100
AcDbViewportTableRecord
  2
L4
 70
     0
 10
0.0
 20
0.0
 11
0.5
 21
0.5
 12
0.0
 22
0.0
 13
0.0
 23
0.0
 14
0.5
 24
0.5
 15
0.5
 25
0.5
 16
0.0
 26
-1.0
 36
0.0
 17
0.0
 27
0.0
 37
0.0
 40
1496.710499
 41
0.011864
 42
50.0
 43
774.8657309999999
 44
-774.8657309999999
 50
0.0
 51
0.0
 71
     0
 72
   100
 73
     1
 74
     3
 75
     0
 76
     0
 77
     0
 78
     0
281
     0
 65
     1
110
0.0
120
0.0
130
0.0
111
1.0
121
0.0
131
0.0
112
0.0
122
1.0
132
0.0
 79
     0
146
0.0
  0
VPORT
  5
29D
330
8
100
AcDbSymbolTableRecord
100
AcDbViewportTableRecord
  2
L4
 70
     0
 10
0.5
 20
0.0
 11
1.0
 21
0.5
 12
0.0
 22
0.0
 13
0.0
 23
0.0
 14
0.5
 24
0.5
 15
0.5
 25
0.5
 16
1.0
 26
0.0
 36
0.0
 17
0.0
 27
0.0
 37
0.0
 40
1496.710499
 41
0.011864
 42
50.0
 43
755.6176329999999
 44
-755.6176329999999
 50
0.0
 51
0.0
 71
     0
 72
   100
 73
     1
 74
     3
 75
     0
 76
     0
 77
     0
 78
     0
281
     0
 65
     1
110
0.0
120
0.0
130
0.0
111
1.0
121
0.0
131
0.0
112
0.0
122
1.0
132
0.0
 79
     0
146
0.0
  0
VPORT
  5
29E
330
8
100
AcDbSymbolTableRecord
100
AcDbViewportTableRecord
  2
L4
 70
     0
 10
0.5
 20
0.5
 11
1.0
 21
1.0
 12
0.0
 22
0.0
 13
0.0
 23
0.0
 14
0.5
 24
0.5
 15
0.5
 25
0.5
 16
0.5773502691896259
 26
-0.5773502691896259
 36
0.5773502691896259
 17
0.0
 27
0.0
 37
0.0
 40
1471.467242
 41
0.012067
 42
50.0
 43
766.783745
 44
-766.783745
 50
0.0
 51
0.0
 71
     0
 72
   100
 73
     1
 74
     3
 75
     0
 76
     0
 77
     0
 78
     0
281
     0
 65
     1
110
0.0
120
0.0
130
0.0
111
1.0
121
0.0
131
0.0
112
0.0
122
1.0
132
0.0
 79
     0
146
0.0
  0
VPORT
  5
29F
330
8
100
AcDbSymbolTableRecord
100
AcDbViewportTableRecord
  2
L6
 70
     0
 10
0.0
 20
0.5
 11
0.333333
 21
1.0
 12
0.0
 22
0.0
 13
0.0
 23
0.0
 14
0.5
 24
0.5
 15
0.5
 25
0.5
 16
0.7188730927569434
 26
-0.5850486126764433
 36
0.3754192287502549
 17
0.0
 27
0.0
 37
0.0
 40
1553.790414
 41
0.011428
 42
50.0
 43
804.2324119999999
 44
-804.2324119999999
 50
0.0
 51
0.0
 71
     0
 72
   100
 73
     1
 74
     3
 75
     0
 76
     0
 77
     0
 78
     0
281
     0
 65
     1
110
0.0
120
0.0
130
0.0
111
1.0
121
0.0
131
0.0
112
0.0
122
1.0
132
0.0
 79
     0
146
0.0
  0
VPORT
  5
2A0
330
8
100
AcDbSymbolTableRecord
100
AcDbViewportTableRecord
  2
L6
 70
     0
 10
0.0
 20
0.0
 11
0.333333
 21
0.5
 12
0.0
 22
0.0
 13
0.0
 23
0.0
 14
0.5
 24
0.5
 15
0.5
 25
0.5
 16
-1.0
 26
0.0
 36
0.0
 17
0.0
 27
0.0
 37
0.0
 40
1496.710499
 41
0.011864
 42
50.0
 43
755.6176329999999
 44
-755.6176329999999
 50
0.0
 51
0.0
 71
     0
 72
   100
 73
     1
 74
     3
 75
     0
 76
     0
 77
     0
 78
     0
281
     0
 65
     1
110
0.0
120
0.0
130
0.0
111
1.0
121
0.0
131
0.0
112
0.0
122
1.0
132
0.0
 79
     0
146
0.0
  0
VPORT
  5
2A1
330
8
100
AcDbSymbolTableRecord
100
AcDbViewportTableRecord
  2
L6
 70
     0
 10
0.333333
 20
0.5
 11
0.666667
 21
1.0
 12
241.153961
 22
245.447525
 13
0.0
 23
0.0
 14
0.5
 24
0.5
 15
0.5
 25
0.5
 16
0.0
 26
0.0
 36
1.0
 17
0.0
 27
0.0
 37
0.0
 40
209.020833
 41
0.084952
 42
50.0
 43
174.163229
 44
-174.163229
 50
0.0
 51
0.0
 71
     0
 72
   100
 73
     1
 74
     3
 75
     0
 76
     0
 77
     0
 78
     0
281
     0
 65
     1
110
0.0
120
0.0
130
0.0
111
1.0
121
0.0
131
0.0
112
0.0
122
1.0
132
0.0
 79
     0
146
0.0
  0
VPORT
  5
2A2
330
8
100
AcDbSymbolTableRecord
100
AcDbViewportTableRecord
  2
L6
 70
     0
 10
0.333333
 20
0.0
 11
0.666667
 21
0.5
 12
0.0
 22
0.0
 13
0.0
 23
0.0
 14
0.5
 24
0.5
 15
0.5
 25
0.5
 16
0.0
 26
-1.0
 36
0.0
 17
0.0
 27
0.0
 37
0.0
 40
1496.710499
 41
0.011864
 42
50.0
 43
774.8657309999999
 44
-774.8657309999999
 50
0.0
 51
0.0
 71
     0
 72
   100
 73
     1
 74
     3
 75
     0
 76
     0
 77
     0
 78
     0
281
     0
 65
     1
110
0.0
120
0.0
130
0.0
111
1.0
121
0.0
131
0.0
112
0.0
122
1.0
132
0.0
 79
     0
146
0.0
  0
VPORT
  5
2A3
330
8
100
AcDbSymbolTableRecord
100
AcDbViewportTableRecord
  2
L6
 70
     0
 10
0.666667
 20
0.5
 11
1.0
 21
1.0
 12
0.0
 22
0.0
 13
0.0
 23
0.0
 14
0.5
 24
0.5
 15
0.5
 25
0.5
 16
0.5773502691896259
 26
-0.5773502691896259
 36
0.5773502691896259
 17
0.0
 27
0.0
 37
0.0
 40
1471.467242
 41
0.012067
 42
50.0
 43
766.783745
 44
-766.783745
 50
0.0
 51
0.0
 71
     0
 72
   100
 73
     1
 74
     3
 75
     0
 76
     0
 77
     0
 78
     0
281
     0
 65
     1
110
0.0
120
0.0
130
0.0
111
1.0
121
0.0
131
0.0
112
0.0
122
1.0
132
0.0
 79
     0
146
0.0
  0
VPORT
  5
2A4
330
8
100
AcDbSymbolTableRecord
100
AcDbViewportTableRecord
  2
L6
 70
     0
 10
0.666667
 20
0.0
 11
1.0
 21
0.5
 12
0.0
 22
0.0
 13
0.0
 23
0.0
 14
0.5
 24
0.5
 15
0.5
 25
0.5
 16
1.0
 26
0.0
 36
0.0
 17
0.0
 27
0.0
 37
0.0
 40
1496.710499
 41
0.011864
 42
50.0
 43
755.6176329999999
 44
-755.6176329999999
 50
0.0
 51
0.0
 71
     0
 72
   100
 73
     1
 74
     3
 75
     0
 76
     0
 77
     0
 78
     0
281
     0
 65
     1
110
0.0
120
0.0
130
0.0
111
1.0
121
0.0
131
0.0
112
0.0
122
1.0
132
0.0
 79
     0
146
0.0
  0
ENDTAB
  0
TABLE
  2
LTYPE
  5
5
330
0
100
AcDbSymbolTable
 70
     7
  0
LTYPE
  5
14
330
5
100
AcDbSymbolTableRecord
100
AcDbLinetypeTableRecord
  2
ByBlock
 70
     0
  3

 72
    65
 73
     0
 40
0.0
  0
LTYPE
  5
15
330
5
100
AcDbSymbolTableRecord
100
AcDbLinetypeTableRecord
  2
ByLayer
 70
     0
  3

 72
    65
 73
     0
 40
0.0
  0
LTYPE
  5
16
330
5
100
AcDbSymbolTableRecord
100
AcDbLinetypeTableRecord
  2
Continuous
 70
     0
  3
Solid line
 72
    65
 73
     0
 40
0.0
  0
LTYPE
  5
6E
330
5
100
AcDbSymbolTableRecord
100
AcDbLinetypeTableRecord
  2
CENTER
 70
     0
  3
____ _ ____ _ ____ _ ____
 72
    65
 73
     4
 40
47.4
 49
22.0
 74
     4
 75
     0
340
0
 46
0.0
 50
0.0
 44
0.0
 45
0.0
 49
-8.5
 74
     4
 75
     0
340
0
 46
0.0
 50
0.0
 44
0.0
 45
0.0
 49
8.5
 74
     4
 75
     0
340
0
 46
0.0
 50
0.0
 44
0.0
 45
0.0
 49
-8.5
 74
     4
 75
     0
340
0
 46
0.0
 50
0.0
 44
0.0
 45
0.0
  0
LTYPE
  5
6F
330
5
100
AcDbSymbolTableRecord
100
AcDbLinetypeTableRecord
  2
DASHDOT
 70
     0
  3
_._._._._._._._._._._._._._._._.
 72
    65
 73
     4
 40
70.0
 49
31.0
 74
     4
 75
     0
340
0
 46
0.0
 50
0.0
 44
0.0
 45
0.0
 49
-13.0
 74
     4
 75
     0
340
0
 46
0.0
 50
0.0
 44
0.0
 45
0.0
 49
13.0
 74
     4
 75
     0
340
0
 46
0.0
 50
0.0
 44
0.0
 45
0.0
 49
-13.0
 74
     4
 75
     0
340
0
 46
0.0
 50
0.0
 44
0.0
 45
0.0
  0
LTYPE
  5
70
330
5
100
AcDbSymbolTableRecord
100
AcDbLinetypeTableRecord
  2
DASHED
 70
     0
  3
__ __ __ __ __ __ __ __ __
 72
    65
 73
     2
 40
25.72
 49
12.86
 74
     4
 75
     0
340
0
 46
0.0
 50
0.0
 44
0.0
 45
0.0
 49
-12.86
 74
     4
 75
     0
340
0
 46
0.0
 50
0.0
 44
0.0
 45
0.0
  0
LTYPE
  5
71
330
5
100
AcDbSymbolTableRecord
100
AcDbLinetypeTableRecord
  2
DOT
 70
     0
  3
.........................
 72
    65
 73
     2
 40
10.0
 49
0.0
 74
     4
 75
     0
340
0
 46
0.0
 50
0.0
 44
0.0
 45
0.0
 49
-10.0
 74
     4
 75
     0
340
0
 46
0.0
 50
0.0
 44
0.0
 45
0.0
  0
LTYPE
  5
72
330
5
100
AcDbSymbolTableRecord
100
AcDbLinetypeTableRecord
  2
PHANTOM
 70
     0
  3
____ _ _ ____ _ _ _____ _ _ ____
 72
    65
 73
     6
 40
50.5
 49
18.0
 74
     4
 75
     0
340
0
 46
0.0
 50
0.0
 44
0.0
 45
0.0
 49
-6.5
 74
     4
 75
     0
340
0
 46
0.0
 50
0.0
 44
0.0
 45
0.0
 49
6.5
 74
     4
 75
     0
340
0
 46
0.0
 50
0.0
 44
0.0
 45
0.0
 49
-6.5
 74
     4
 75
     0
340
0
 46
0.0
 50
0.0
 44
0.0
 45
0.0
 49
6.5
 74
     4
 75
     0
340
0
 46
0.0
 50
0.0
 44
0.0
 45
0.0
 49
-6.5
 74
     4
 75
     0
340
0
 46
0.0
 50
0.0
 44
0.0
 45
0.0
  0
LTYPE
  5
36F
330
5
100
AcDbSymbolTableRecord
100
AcDbLinetypeTableRecord
  2
CENTER2
 70
     0
  3
Center (.5x) ___ _ ___ _ ___ _ ___ _ ___ _ ___
 72
    65
 73
     4
 40
1.125
 49
0.75
 74
     0
 49
-0.125
 74
     0
 49
0.125
 74
     0
 49
-0.125
 74
     0
  0
ENDTAB
  0
TABLE
  2
LAYER
  5
2
330
0
100
AcDbSymbolTable
 70
    21
  0
LAYER
  5
10
102
{ACAD_XDICTIONARY
360
37A
102
}
330
2
100
AcDbSymbolTableRecord
100
AcDbLayerTableRecord
  2
0
 70
     0
 62
     7
  6
Continuous
370
    -3
390
F
  0
LAYER
  5
21D
330
2
100
AcDbSymbolTableRecord
100
AcDbLayerTableRecord
  2
Defpoints
 70
     0
 62
     7
  6
Continuous
290
     0
370
    -3
390
F
  0
LAYER
  5
36C
102
{ACAD_XDICTIONARY
360
37C
102
}
330
2
100
AcDbSymbolTableRecord
100
AcDbLayerTableRecord
  2
1
 70
     0
 62
     4
  6
Continuous
370
    -3
390
F
  0
LAYER
  5
36D
102
{ACAD_XDICTIONARY
360
37E
102
}
330
2
100
AcDbSymbolTableRecord
100
AcDbLayerTableRecord
  2
2
 70
     0
 62
     7
  6
Continuous
370
    -3
390
F
  0
LAYER
  5
36E
102
{ACAD_XDICTIONARY
360
380
102
}
330
2
100
AcDbSymbolTableRecord
100
AcDbLayerTableRecord
  2
4
 70
     0
 62
     2
  6
CENTER2
370
    -3
390
F
  0
LAYER
  5
370
102
{ACAD_XDICTIONARY
360
382
102
}
330
2
100
AcDbSymbolTableRecord
100
AcDbLayerTableRecord
  2
SK1
 70
     0
 62
     4
  6
Continuous
370
    -3
390
F
  0
LAYER
  5
371
102
{ACAD_XDICTIONARY
360
384
102
}
330
2
100
AcDbSymbolTableRecord
100
AcDbLayerTableRecord
  2
SK2
 70
     0
 62
     7
  6
Continuous
370
    -3
390
F
  0
LAYER
  5
373
102
{ACAD_XDICTIONARY
360
386
102
}
330
2
100
AcDbSymbolTableRecord
100
AcDbLayerTableRecord
  2
SK4
 70
     0
 62
     2
  6
CENTER2
370
    -3
390
F
  0
LAYER
  5
374
102
{ACAD_XDICTIONARY
360
388
102
}
330
2
100
AcDbSymbolTableRecord
100
AcDbLayerTableRecord
  2
SK6
 70
     0
 62
     5
  6
Continuous
370
    -3
390
F
  0
LAYER
  5
375
102
{ACAD_XDICTIONARY
360
38A
102
}
330
2
100
AcDbSymbolTableRecord
100
AcDbLayerTableRecord
  2
CUT
 70
     0
 62
     1
  6
Continuous
370
    -3
390
F
  0
LAYER
  5
376
102
{ACAD_XDICTIONARY
360
38C
102
}
330
2
100
AcDbSymbolTableRecord
100
AcDbLayerTableRecord
  2
NOCUT
 70
     0
 62
     7
  6
Continuous
370
    -3
390
F
  0
LAYER
  5
377
102
{ACAD_XDICTIONARY
360
38E
102
}
330
2
100
AcDbSymbolTableRecord
100
AcDbLayerTableRecord
  2
80
 70
     0
 62
     6
  6
Continuous
370
    -3
390
F
  0
LAYER
  5
378
102
{ACAD_XDICTIONARY
360
390
102
}
330
2
100
AcDbSymbolTableRecord
100
AcDbLayerTableRecord
  2
81
 70
     0
 62
     3
  6
Continuous
370
    -3
390
F
  0
ENDTAB
  0
TABLE
  2
STYLE
  5
3
330
0
100
AcDbSymbolTable
 70
     3
  0
STYLE
  5
11
330
3
100
AcDbSymbolTableRecord
100
AcDbTextStyleTableRecord
  2
Standard
 70
     0
 40
0.0
 41
1.0
 50
0.0
 71
     0
 42
0.2
  3
txt
  4

  0
STYLE
  5
217
330
3
100
AcDbSymbolTableRecord
100
AcDbTextStyleTableRecord
  2
cesky
 70
     0
 40
0.0
 41
1.0
 50
0.0
 71
     0
 42
0.2
  3
simplex.shx
  4

  0
STYLE
  5
218
330
3
100
AcDbSymbolTableRecord
100
AcDbTextStyleTableRecord
  2
DWGDirectTextStyle
 70
     0
 40
0.0
 41
1.0
 50
0.0
 71
     0
 42
0.2
  3
simplex
  4

  0
ENDTAB
  0
TABLE
  2
VIEW
  5
6
330
0
100
AcDbSymbolTable
 70
     0
  0
ENDTAB
  0
TABLE
  2
UCS
  5
7
330
0
100
AcDbSymbolTable
 70
     0
  0
ENDTAB
  0
TABLE
  2
APPID
  5
9
330
0
100
AcDbSymbolTable
 70
     7
  0
APPID
  5
12
330
9
100
AcDbSymbolTableRecord
100
AcDbRegAppTableRecord
  2
ACAD
 70
     0
  0
APPID
  5
219
330
9
100
AcDbSymbolTableRecord
100
AcDbRegAppTableRecord
  2
ACAD_DSTYLE_DIMBREAK
 70
     0
  0
APPID
  5
2A5
330
9
100
AcDbSymbolTableRecord
100
AcDbRegAppTableRecord
  2
ACAD_DSTYLE_DIM_LINETYPE
 70
     0
  0
APPID
  5
2A6
330
9
100
AcDbSymbolTableRecord
100
AcDbRegAppTableRecord
  2
ACAD_DSTYLE_DIM_EXT1_LINETYPE
 70
     0
  0
APPID
  5
2A7
330
9
100
AcDbSymbolTableRecord
100
AcDbRegAppTableRecord
  2
ACAD_DSTYLE_DIM_EXT2_LINETYPE
 70
     0
  0
APPID
  5
2E7
330
9
100
AcDbSymbolTableRecord
100
AcDbRegAppTableRecord
  2
ACAD_MLEADERVER
 70
     0
  0
APPID
  5
395
330
9
100
AcDbSymbolTableRecord
100
AcDbRegAppTableRecord
  2
ACAD_NAV_VCDISPLAY
 70
     0
  0
ENDTAB
  0
TABLE
  2
DIMSTYLE
  5
A
330
0
100
AcDbSymbolTable
 70
     1
100
AcDbDimStyleTable
 71
     0
  0
DIMSTYLE
105
27
330
A
100
AcDbSymbolTableRecord
100
AcDbDimStyleTableRecord
  2
Standard
 70
     0
340
11
1001
ACAD_DSTYLE_DIMBREAK
1070
   391
1040
6.349999999999999
  0
ENDTAB
  0
TABLE
  2
BLOCK_RECORD
  5
1
330
0
100
AcDbSymbolTable
 70
    11
  0
BLOCK_RECORD
  5
1F
102
{ACAD_XDICTIONARY
360
2F7
102
}
330
1
100
AcDbSymbolTableRecord
100
AcDbBlockTableRecord
  2
*Model_Space
340
22
  0
BLOCK_RECORD
  5
1B
330
1
100
AcDbSymbolTableRecord
100
AcDbBlockTableRecord
  2
*Paper_Space
340
1E
  0
BLOCK_RECORD
  5
23
330
1
100
AcDbSymbolTableRecord
100
AcDbBlockTableRecord
  2
*Paper_Space0
340
26
  0
BLOCK_RECORD
  5
21E
330
1
100
AcDbSymbolTableRecord
100
AcDbBlockTableRecord
  2
*D1
340
0
  0
BLOCK_RECORD
  5
22A
330
1
100
AcDbSymbolTableRecord
100
AcDbBlockTableRecord
  2
_U0
340
0
  0
BLOCK_RECORD
  5
236
330
1
100
AcDbSymbolTableRecord
100
AcDbBlockTableRecord
  2
*D3
340
0
  0
BLOCK_RECORD
  5
244
330
1
100
AcDbSymbolTableRecord
100
AcDbBlockTableRecord
  2
_U1
340
0
  0
BLOCK_RECORD
  5
250
330
1
100
AcDbSymbolTableRecord
100
AcDbBlockTableRecord
  2
*D5
340
0
  0
BLOCK_RECORD
  5
25C
330
1
100
AcDbSymbolTableRecord
100
AcDbBlockTableRecord
  2
_U2
340
0
  0
BLOCK_RECORD
  5
269
330
1
100
AcDbSymbolTableRecord
100
AcDbBlockTableRecord
  2
*D7
340
0
  0
BLOCK_RECORD
  5
274
330
1
100
AcDbSymbolTableRecord
100
AcDbBlockTableRecord
  2
_U3
340
0
  0
BLOCK_RECORD
  5
27F
330
1
100
AcDbSymbolTableRecord
100
AcDbBlockTableRecord
  2
*D9
340
0
  0
BLOCK_RECORD
  5
28B
330
1
100
AcDbSymbolTableRecord
100
AcDbBlockTableRecord
  2
_U4
340
0
  0
ENDTAB
  0
ENDSEC
  0
SECTION
  2
BLOCKS
  0
BLOCK
  5
20
330
1F
100
AcDbEntity
  8
0
100
AcDbBlockBegin
  2
*Model_Space
 70
     0
 10
0.0
 20
0.0
 30
0.0
  3
*Model_Space
  1

  0
ENDBLK
  5
21
330
1F
100
AcDbEntity
  8
0
100
AcDbBlockEnd
  0
BLOCK
  5
1C
330
1B
100
AcDbEntity
 67
     1
  8
0
100
AcDbBlockBegin
  2
*Paper_Space
 70
     0
 10
0.0
 20
0.0
 30
0.0
  3
*Paper_Space
  1

  0
ENDBLK
  5
1D
330
1B
100
AcDbEntity
 67
     1
  8
0
100
AcDbBlockEnd
  0
BLOCK
  5
24
330
23
100
AcDbEntity
 67
     1
  8
0
100
AcDbBlockBegin
  2
*Paper_Space0
 70
     0
 10
0.0
 20
0.0
 30
0.0
  3
*Paper_Space0
  1

  0
ENDBLK
  5
25
330
23
100
AcDbEntity
 67
     1
  8
0
100
AcDbBlockEnd
  0
BLOCK
  5
21F
330
21E
100
AcDbEntity
  8
0
100
AcDbBlockBegin
  2
*D1
 70
     1
 10
0.0
 20
0.0
 30
0.0
  3
*D1
  1

  0
LINE
  5
221
330
21E
100
AcDbEntity
  8
0
 62
   254
370
    -2
100
AcDbLine
 10
277.144248
 20
261.731161
 30
0.0
 11
277.144248
 21
274.166765
 31
0.0
  0
LINE
  5
222
330
21E
100
AcDbEntity
  8
0
 62
   254
370
    -2
100
AcDbLine
 10
237.144248
 20
242.731588
 30
0.0
 11
237.144248
 21
274.166765
 31
0.0
  0
LINE
  5
223
330
21E
100
AcDbEntity
  8
0
 62
   254
370
    -2
100
AcDbLine
 10
273.644248
 20
273.166765
 30
0.0
 11
240.644248
 21
273.166765
 31
0.0
  0
SOLID
  5
224
330
21E
100
AcDbEntity
  8
0
 62
   254
100
AcDbTrace
 10
273.644248
 20
272.583432
 30
0.0
 11
273.644248
 21
273.750098
 31
0.0
 12
277.144248
 22
273.166765
 32
0.0
 13
277.144248
 23
273.166765
 33
0.0
  0
SOLID
  5
225
330
21E
100
AcDbEntity
  8
0
 62
   254
100
AcDbTrace
 10
240.644248
 20
273.750098
 30
0.0
 11
240.644248
 21
272.583432
 31
0.0
 12
237.144248
 22
273.166765
 32
0.0
 13
237.144248
 23
273.166765
 33
0.0
  0
MTEXT
  5
226
330
21E
100
AcDbEntity
  8
0
 62
   254
370
    13
100
AcDbMText
 10
257.144248
 20
278.416765
 30
0.0
 40
3.5
 41
0.0
 71
     5
 72
     1
  1
\A1;40
  7
cesky
 73
     1
 44
1.0
  0
POINT
  5
227
330
21E
100
AcDbEntity
  8
Defpoints
 62
     0
100
AcDbPoint
 10
277.144248
 20
261.731161
 30
0.0
  0
POINT
  5
228
330
21E
100
AcDbEntity
  8
Defpoints
 62
     0
100
AcDbPoint
 10
237.144248
 20
242.731588
 30
0.0
  0
POINT
  5
229
330
21E
100
AcDbEntity
  8
Defpoints
 62
     0
100
AcDbPoint
 10
237.144248
 20
273.166765
 30
0.0
  0
ENDBLK
  5
220
330
21E
100
AcDbEntity
  8
0
100
AcDbBlockEnd
  0
BLOCK
  5
231
330
22A
100
AcDbEntity
  8
0
100
AcDbBlockBegin
  2
_U0
 70
     0
 10
0.0
 20
0.0
 30
0.0
  3
_U0
  1

  0
ENDBLK
  5
232
330
22A
100
AcDbEntity
  8
0
100
AcDbBlockEnd
  0
BLOCK
  5
237
330
236
100
AcDbEntity
  8
0
100
AcDbBlockBegin
  2
*D3
 70
     1
 10
0.0
 20
0.0
 30
0.0
  3
*D3
  1

  0
LINE
  5
239
330
236
100
AcDbEntity
  8
0
 62
   254
370
    -2
100
AcDbLine
 10
277.144248
 20
257.731161
 30
0.0
 11
277.144248
 21
265.86418
 31
0.0
  0
LINE
  5
23A
330
236
100
AcDbEntity
  8
0
 62
   254
370
    -2
100
AcDbLine
 10
276.190571
 20
259.001405
 30
0.0
 11
276.190571
 21
265.86418
 31
0.0
  0
LINE
  5
23B
330
236
100
AcDbEntity
  8
0
 62
   254
370
    -2
100
AcDbLine
 10
276.190571
 20
264.86418
 30
0.0
 11
261.357238
 21
264.86418
 31
0.0
  0
LINE
  5
23C
330
236
100
AcDbEntity
  8
0
 62
   254
370
    -2
100
AcDbLine
 10
280.644248
 20
264.86418
 30
0.0
 11
284.144248
 21
264.86418
 31
0.0
  0
LINE
  5
23D
330
236
100
AcDbEntity
  8
0
 62
   254
370
    -2
100
AcDbLine
 10
272.690571
 20
264.86418
 30
0.0
 11
269.190571
 21
264.86418
 31
0.0
  0
SOLID
  5
23E
330
236
100
AcDbEntity
  8
0
 62
   254
100
AcDbTrace
 10
280.644248
 20
265.447513
 30
0.0
 11
280.644248
 21
264.280847
 31
0.0
 12
277.144248
 22
264.86418
 32
0.0
 13
277.144248
 23
264.86418
 33
0.0
  0
SOLID
  5
23F
330
236
100
AcDbEntity
  8
0
 62
   254
100
AcDbTrace
 10
272.690571
 20
264.280847
 30
0.0
 11
272.690571
 21
265.447513
 31
0.0
 12
276.190571
 22
264.86418
 32
0.0
 13
276.190571
 23
264.86418
 33
0.0
  0
MTEXT
  5
240
330
236
100
AcDbEntity
  8
0
 62
   254
370
    13
100
AcDbMText
 10
265.273904
 20
270.11418
 30
0.0
 40
3.5
 41
0.0
 71
     5
 72
     1
  1
\A1;1
  7
cesky
 73
     1
 44
1.0
  0
POINT
  5
241
330
236
100
AcDbEntity
  8
Defpoints
 62
     0
100
AcDbPoint
 10
277.144248
 20
257.731161
 30
0.0
  0
POINT
  5
242
330
236
100
AcDbEntity
  8
Defpoints
 62
     0
100
AcDbPoint
 10
276.190571
 20
259.001405
 30
0.0
  0
POINT
  5
243
330
236
100
AcDbEntity
  8
Defpoints
 62
     0
100
AcDbPoint
 10
276.190571
 20
264.86418
 30
0.0
  0
ENDBLK
  5
238
330
236
100
AcDbEntity
  8
0
100
AcDbBlockEnd
  0
BLOCK
  5
24B
330
244
100
AcDbEntity
  8
0
100
AcDbBlockBegin
  2
_U1
 70
     0
 10
0.0
 20
0.0
 30
0.0
  3
_U1
  1

  0
ENDBLK
  5
24C
330
244
100
AcDbEntity
  8
0
100
AcDbBlockEnd
  0
BLOCK
  5
251
330
250
100
AcDbEntity
  8
0
100
AcDbBlockBegin
  2
*D5
 70
     1
 10
0.0
 20
0.0
 30
0.0
  3
*D5
  1

  0
LINE
  5
253
330
250
100
AcDbEntity
  8
0
 62
    95
370
    -2
100
AcDbLine
 10
215.144248
 20
251.731161
 30
0.0
 11
206.937334
 21
251.731161
 31
0.0
  0
LINE
  5
254
330
250
100
AcDbEntity
  8
0
 62
    95
370
    -2
100
AcDbLine
 10
215.144248
 20
235.731161
 30
0.0
 11
206.937334
 21
235.731161
 31
0.0
  0
LINE
  5
255
330
250
100
AcDbEntity
  8
0
 62
    95
370
    -2
100
AcDbLine
 10
207.937334
 20
248.231161
 30
0.0
 11
207.937334
 21
239.231161
 31
0.0
  0
SOLID
  5
256
330
250
100
AcDbEntity
  8
0
 62
    95
100
AcDbTrace
 10
208.520667
 20
248.231161
 30
0.0
 11
207.354001
 21
248.231161
 31
0.0
 12
207.937334
 22
251.731161
 32
0.0
 13
207.937334
 23
251.731161
 33
0.0
  0
SOLID
  5
257
330
250
100
AcDbEntity
  8
0
 62
    95
100
AcDbTrace
 10
207.354001
 20
239.231161
 30
0.0
 11
208.520667
 21
239.231161
 31
0.0
 12
207.937334
 22
235.731161
 32
0.0
 13
207.937334
 23
235.731161
 33
0.0
  0
MTEXT
  5
258
330
250
100
AcDbEntity
  8
0
 62
    95
370
    13
100
AcDbMText
 10
202.687334
 20
243.731161
 30
0.0
 40
3.5
 41
0.0
 71
     5
 72
     1
  1
\A1;16
  7
cesky
 11
0.0
 21
1.0
 31
0.0
 73
     1
 44
1.0
  0
POINT
  5
259
330
250
100
AcDbEntity
  8
Defpoints
 62
     0
100
AcDbPoint
 10
215.144248
 20
251.731161
 30
0.0
  0
POINT
  5
25A
330
250
100
AcDbEntity
  8
Defpoints
 62
     0
100
AcDbPoint
 10
215.144248
 20
235.731161
 30
0.0
  0
POINT
  5
25B
330
250
100
AcDbEntity
  8
Defpoints
 62
     0
100
AcDbPoint
 10
207.937334
 20
235.731161
 30
0.0
  0
ENDBLK
  5
252
330
250
100
AcDbEntity
  8
0
100
AcDbBlockEnd
  0
BLOCK
  5
264
330
25C
100
AcDbEntity
  8
0
100
AcDbBlockBegin
  2
_U2
 70
     0
 10
0.0
 20
0.0
 30
0.0
  3
_U2
  1

  0
ENDBLK
  5
265
330
25C
100
AcDbEntity
  8
0
100
AcDbBlockEnd
  0
BLOCK
  5
26A
330
269
100
AcDbEntity
  8
0
100
AcDbBlockBegin
  2
*D7
 70
     1
 10
0.0
 20
0.0
 30
0.0
  3
*D7
  1

  0
LINE
  5
26C
330
269
100
AcDbEntity
  8
0
 62
   254
370
    -2
100
AcDbLine
 10
268.614213
 20
243.731161
 30
0.0
 11
290.809021
 21
243.731161
 31
0.0
  0
LINE
  5
26D
330
269
100
AcDbEntity
  8
0
 62
   254
370
    -2
100
AcDbLine
 10
279.144248
 20
259.731161
 30
0.0
 11
290.809021
 21
259.731161
 31
0.0
  0
LINE
  5
26E
330
269
100
AcDbEntity
  8
0
 62
   254
370
    -2
100
AcDbLine
 10
289.809021
 20
243.731161
 30
0.0
 11
289.809021
 21
259.731161
 31
0.0
  0
SOLID
  5
26F
330
269
100
AcDbEntity
  8
0
 62
   254
100
AcDbTrace
 10
290.392354
 20
256.231161
 30
0.0
 11
289.225687
 21
256.231161
 31
0.0
 12
289.809021
 22
259.731161
 32
0.0
 13
289.809021
 23
259.731161
 33
0.0
  0
MTEXT
  5
270
330
269
100
AcDbEntity
  8
0
 62
   254
370
    13
100
AcDbMText
 10
284.559021
 20
233.897828
 30
0.0
 40
3.5
 41
0.0
 71
     5
 72
     1
  1
\A1;32
  7
cesky
 11
0.0
 21
1.0
 31
0.0
 73
     1
 44
1.0
  0
POINT
  5
271
330
269
100
AcDbEntity
  8
Defpoints
 62
     0
100
AcDbPoint
 10
268.614213
 20
243.731161
 30
0.0
  0
POINT
  5
272
330
269
100
AcDbEntity
  8
Defpoints
 62
     0
100
AcDbPoint
 10
279.144248
 20
259.731161
 30
0.0
  0
POINT
  5
273
330
269
100
AcDbEntity
  8
Defpoints
 62
     0
100
AcDbPoint
 10
289.809021
 20
259.731161
 30
0.0
  0
ENDBLK
  5
26B
330
269
100
AcDbEntity
  8
0
100
AcDbBlockEnd
  0
BLOCK
  5
27A
330
274
100
AcDbEntity
  8
0
100
AcDbBlockBegin
  2
_U3
 70
     0
 10
0.0
 20
0.0
 30
0.0
  3
_U3
  1

  0
ENDBLK
  5
27B
330
274
100
AcDbEntity
  8
0
100
AcDbBlockEnd
  0
BLOCK
  5
280
330
27F
100
AcDbEntity
  8
0
100
AcDbBlockBegin
  2
*D9
 70
     1
 10
0.0
 20
0.0
 30
0.0
  3
*D9
  1

  0
LINE
  5
282
330
27F
100
AcDbEntity
  8
0
 62
    95
370
    -2
100
AcDbLine
 10
238.894248
 20
258.231161
 30
0.0
 11
196.3614
 21
258.231161
 31
0.0
  0
LINE
  5
283
330
27F
100
AcDbEntity
  8
0
 62
    95
370
    -2
100
AcDbLine
 10
238.894248
 20
229.231161
 30
0.0
 11
196.3614
 21
229.231161
 31
0.0
  0
LINE
  5
284
330
27F
100
AcDbEntity
  8
0
 62
    95
370
    -2
100
AcDbLine
 10
197.3614
 20
254.731161
 30
0.0
 11
197.3614
 21
232.731161
 31
0.0
  0
SOLID
  5
285
330
27F
100
AcDbEntity
  8
0
 62
    95
100
AcDbTrace
 10
197.944733
 20
254.731161
 30
0.0
 11
196.778067
 21
254.731161
 31
0.0
 12
197.3614
 22
258.231161
 32
0.0
 13
197.3614
 23
258.231161
 33
0.0
  0
SOLID
  5
286
330
27F
100
AcDbEntity
  8
0
 62
    95
100
AcDbTrace
 10
196.778067
 20
232.731161
 30
0.0
 11
197.944733
 21
232.731161
 31
0.0
 12
197.3614
 22
229.231161
 32
0.0
 13
197.3614
 23
229.231161
 33
0.0
  0
MTEXT
  5
287
330
27F
100
AcDbEntity
  8
0
 62
    95
370
    13
100
AcDbMText
 10
192.1114
 20
243.731161
 30
0.0
 40
3.5
 41
0.0
 71
     5
 72
     1
  1
\A1;29
  7
cesky
 11
0.0
 21
1.0
 31
0.0
 73
     1
 44
1.0
  0
POINT
  5
288
330
27F
100
AcDbEntity
  8
Defpoints
 62
     0
100
AcDbPoint
 10
238.894248
 20
258.231161
 30
0.0
  0
POINT
  5
289
330
27F
100
AcDbEntity
  8
Defpoints
 62
     0
100
AcDbPoint
 10
238.894248
 20
229.231161
 30
0.0
  0
POINT
  5
28A
330
27F
100
AcDbEntity
  8
Defpoints
 62
     0
100
AcDbPoint
 10
197.3614
 20
229.231161
 30
0.0
  0
ENDBLK
  5
281
330
27F
100
AcDbEntity
  8
0
100
AcDbBlockEnd
  0
BLOCK
  5
293
330
28B
100
AcDbEntity
  8
0
100
AcDbBlockBegin
  2
_U4
 70
     0
 10
0.0
 20
0.0
 30
0.0
  3
_U4
  1

  0
ENDBLK
  5
294
330
28B
100
AcDbEntity
  8
0
100
AcDbBlockEnd
  0
ENDSEC
  0
SECTION
  2
ENTITIES
  0
POINT
  5
73
102
{ACAD_REACTORS
330
379
102
}
330
1F
100
AcDbEntity
  8
80
100
AcDbPoint
 10
237.144248
 20
243.731161
 30
0.0
  0
POINT
  5
75
330
1F
100
AcDbEntity
  8
SK6
 60
     1
100
AcDbPoint
 10
257.160388
 20
243.731161
 30
0.0
  0
POINT
  5
77
330
1F
100
AcDbEntity
  8
SK6
 60
     1
100
AcDbPoint
 10
268.614213
 20
243.731161
 30
0.0
  0
LINE
  5
78
330
1F
100
AcDbEntity
  8
1
100
AcDbLine
 10
276.784813
 20
251.827177
 30
0.0
 11
276.969277
 21
251.77558
 31
0.0
  0
LINE
  5
7A
330
1F
100
AcDbEntity
  8
1
100
AcDbLine
 10
276.763819
 20
251.527225
 30
0.0
 11
276.677285
 21
251.697199
 31
0.0
  0
LINE
  5
7B
330
1F
100
AcDbEntity
  8
1
100
AcDbLine
 10
277.144248
 20
239.611092
 30
0.0
 11
277.125011
 21
239.434891
 31
0.0
  0
LINE
  5
7C
330
1F
100
AcDbEntity
  8
1
100
AcDbLine
 10
276.162645
 20
233.497363
 30
0.0
 11
276.096728
 21
233.362974
 31
0.0
  0
LINE
  5
7D
330
1F
100
AcDbEntity
  8
1
100
AcDbLine
 10
276.024325
 20
233.352435
 30
0.0
 11
276.096728
 21
233.362974
 31
0.0
  0
LINE
  5
7E
330
1F
100
AcDbEntity
  8
1
100
AcDbLine
 10
276.096728
 20
233.362974
 30
0.0
 11
276.067859
 21
236.144009
 31
0.0
  0
LINE
  5
7F
330
1F
100
AcDbEntity
  8
1
100
AcDbLine
 10
267.930312
 20
256.926292
 30
0.0
 11
268.098342
 21
256.93529
 31
0.0
  0
LINE
  5
80
330
1F
100
AcDbEntity
  8
1
100
AcDbLine
 10
268.101887
 20
253.842871
 30
0.0
 11
268.268665
 21
253.87436
 31
0.0
  0
LINE
  5
81
330
1F
100
AcDbEntity
  8
1
100
AcDbLine
 10
271.478833
 20
259.451888
 30
0.0
 11
271.488565
 21
259.2791430000001
 31
0.0
  0
LINE
  5
82
330
1F
100
AcDbEntity
  8
1
100
AcDbLine
 10
274.535755
 20
259.681161
 30
0.0
 11
274.523189
 21
259.506743
 31
0.0
  0
LINE
  5
83
330
1F
100
AcDbEntity
  8
1
100
AcDbLine
 10
275.745207
 20
259.359016
 30
0.0
 11
275.804141
 21
259.527752
 31
0.0
  0
LINE
  5
84
330
1F
100
AcDbEntity
  8
1
100
AcDbLine
 10
276.046381
 20
259.324741
 30
0.0
 11
275.871985
 21
259.252769
 31
0.0
  0
LINE
  5
85
330
1F
100
AcDbEntity
  8
1
100
AcDbLine
 10
276.32377
 20
258.682284
 30
0.0
 11
276.145925
 21
258.6180950000001
 31
0.0
  0
LINE
  5
86
330
1F
100
AcDbEntity
  8
1
100
AcDbLine
 10
276.972673
 20
256.142897
 30
0.0
 11
276.782983
 21
256.125066
 31
0.0
  0
LINE
  5
87
330
1F
100
AcDbEntity
  8
1
100
AcDbLine
 10
276.122504
 20
251.235392
 30
0.0
 11
276.043733
 21
251.408989
 31
0.0
  0
LINE
  5
88
330
1F
100
AcDbEntity
  8
1
100
AcDbLine
 10
277.144248
 20
253.059476
 30
0.0
 11
276.953306
 21
253.064135
 31
0.0
  0
LINE
  5
89
330
1F
100
AcDbEntity
  8
1
100
AcDbLine
 10
257.160388
 20
256.274028
 30
0.0
 11
257.160388
 21
240.136128
 31
0.0
  0
LINE
  5
8B
330
1F
100
AcDbEntity
  8
1
100
AcDbLine
 10
270.646225
 20
253.186269
 30
0.0
 11
270.646225
 21
241.196543
 31
0.0
  0
LINE
  5
8C
330
1F
100
AcDbEntity
  8
1
100
AcDbLine
 10
268.614213
 20
238.792859
 30
0.0
 11
268.614213
 21
253.240698
 31
0.0
  0
LINE
  5
8D
330
1F
100
AcDbEntity
  8
1
100
AcDbLine
 10
270.21428
 20
241.269485
 30
0.0
 11
270.21428
 21
253.20006
 31
0.0
  0
LINE
  5
8E
330
1F
100
AcDbEntity
  8
1
100
AcDbLine
 10
268.646493
 20
253.239894
 30
0.0
 11
268.646493
 21
238.836736
 31
0.0
  0
LINE
  5
8F
330
1F
100
AcDbEntity
  8
1
100
AcDbLine
 10
268.310732
 20
258.458549
 30
0.0
 11
268.374363
 21
258.3022259999999
 31
0.0
  0
LINE
  5
90
330
1F
100
AcDbEntity
  8
1
100
AcDbLine
 10
268.266835
 20
258.172248
 30
0.0
 11
268.105273
 21
258.210194
 31
0.0
  0
LINE
  5
91
330
1F
100
AcDbEntity
  8
1
100
AcDbLine
 10
268.952056
 20
258.750376
 30
0.0
 11
269.007915
 21
258.590437
 31
0.0
  0
LINE
  5
92
330
1F
100
AcDbEntity
  8
1
100
AcDbLine
 10
237.644248
 20
258.231161
 30
0.0
 11
237.144248
 21
257.731161
 31
0.0
  0
LINE
  5
93
330
1F
100
AcDbEntity
  8
1
100
AcDbLine
 10
240.144248
 20
255.181161
 30
0.0
 11
240.144248
 21
258.231161
 31
0.0
  0
LINE
  5
94
330
1F
100
AcDbEntity
  8
1
100
AcDbLine
 10
252.144248
 20
258.231161
 30
0.0
 11
252.144248
 21
255.181161
 31
0.0
  0
LINE
  5
95
330
1F
100
AcDbEntity
  8
1
100
AcDbLine
 10
251.644248
 20
254.681161
 30
0.0
 11
240.644248
 21
254.681161
 31
0.0
  0
LINE
  5
96
330
1F
100
AcDbEntity
  8
1
100
AcDbLine
 10
237.644248
 20
229.231161
 30
0.0
 11
237.644248
 21
258.231161
 31
0.0
  0
LINE
  5
97
330
1F
100
AcDbEntity
  8
1
100
AcDbLine
 10
251.644248
 20
232.781161
 30
0.0
 11
240.644248
 21
232.781161
 31
0.0
  0
LINE
  5
98
330
1F
100
AcDbEntity
  8
1
100
AcDbLine
 10
252.144248
 20
229.231161
 30
0.0
 11
252.144248
 21
232.281161
 31
0.0
  0
LINE
  5
99
330
1F
100
AcDbEntity
  8
1
100
AcDbLine
 10
240.144248
 20
232.281161
 30
0.0
 11
240.144248
 21
229.231161
 31
0.0
  0
LINE
  5
9A
330
1F
100
AcDbEntity
  8
1
100
AcDbLine
 10
257.128108
 20
229.231161
 30
0.0
 11
257.128108
 21
231.182822
 31
0.0
  0
LINE
  5
9B
330
1F
100
AcDbEntity
  8
1
100
AcDbLine
 10
237.644248
 20
229.231161
 30
0.0
 11
240.144248
 21
229.231161
 31
0.0
  0
LINE
  5
9C
330
1F
100
AcDbEntity
  8
1
100
AcDbLine
 10
252.144248
 20
229.231161
 30
0.0
 11
257.128108
 21
229.231161
 31
0.0
  0
LINE
  5
9D
330
1F
100
AcDbEntity
  8
1
100
AcDbLine
 10
255.134243
 20
258.231161
 30
0.0
 11
252.144248
 21
258.231161
 31
0.0
  0
LINE
  5
9E
330
1F
100
AcDbEntity
  8
1
100
AcDbLine
 10
240.144248
 20
258.231161
 30
0.0
 11
237.644248
 21
258.231161
 31
0.0
  0
LINE
  5
9F
330
1F
100
AcDbEntity
  8
1
100
AcDbLine
 10
257.128108
 20
240.138702
 30
0.0
 11
257.128108
 21
256.297539
 31
0.0
  0
LINE
  5
A0
330
1F
100
AcDbEntity
  8
1
100
AcDbLine
 10
275.545945
 20
248.640948
 30
0.0
 11
275.545945
 21
252.9979069999999
 31
0.0
  0
LINE
  5
A1
330
1F
100
AcDbEntity
  8
1
100
AcDbLine
 10
275.545945
 20
240.423577
 30
0.0
 11
275.545945
 21
246.634839
 31
0.0
  0
LINE
  5
A2
330
1F
100
AcDbEntity
  8
SK1
100
AcDbLine
 10
230.644248
 20
235.731161
 30
0.0
 11
231.144248
 21
235.231161
 31
0.0
  0
LINE
  5
A3
330
1F
100
AcDbEntity
  8
SK1
100
AcDbLine
 10
231.144248
 20
252.231161
 30
0.0
 11
230.644248
 21
251.731161
 31
0.0
  0
LINE
  5
A4
330
1F
100
AcDbEntity
  8
SK1
100
AcDbLine
 10
231.144248
 20
235.231161
 30
0.0
 11
231.144248
 21
252.231161
 31
0.0
  0
LINE
  5
A5
330
1F
100
AcDbEntity
  8
SK1
100
AcDbLine
 10
235.644248
 20
235.231161
 30
0.0
 11
235.644248
 21
252.231161
 31
0.0
  0
LINE
  5
A6
330
1F
100
AcDbEntity
  8
SK1
100
AcDbLine
 10
231.144248
 20
235.231161
 30
0.0
 11
235.644248
 21
235.231161
 31
0.0
  0
LINE
  5
A7
330
1F
100
AcDbEntity
  8
SK1
100
AcDbLine
 10
235.644248
 20
252.231161
 30
0.0
 11
231.144248
 21
252.231161
 31
0.0
  0
LINE
  5
A8
330
1F
100
AcDbEntity
  8
SK1
100
AcDbLine
 10
236.944248
 20
235.481161
 30
0.0
 11
236.944248
 21
251.981161
 31
0.0
  0
LINE
  5
A9
330
1F
100
AcDbEntity
  8
1
100
AcDbLine
 10
267.944429
 20
238.006964
 30
0.0
 11
266.456108
 21
229.475604
 31
0.0
  0
LINE
  5
AA
330
1F
100
AcDbEntity
  8
1
100
AcDbLine
 10
275.209801
 20
245.101098
 30
0.0
 11
275.64974
 21
247.392961
 31
0.0
  0
LINE
  5
AB
330
1F
100
AcDbEntity
  8
1
100
AcDbLine
 10
276.024338
 20
252.834388
 30
0.0
 11
276.024338
 21
240.548558
 31
0.0
  0
LINE
  5
AC
330
1F
100
AcDbEntity
  8
1
100
AcDbLine
 10
275.222236
 20
244.426503
 30
0.0
 11
275.209801
 21
245.101098
 31
0.0
  0
LINE
  5
AD
330
1F
100
AcDbEntity
  8
1
100
AcDbLine
 10
237.144248
 20
229.731161
 30
0.0
 11
237.144248
 21
257.731161
 31
0.0
  0
LINE
  5
AE
330
1F
100
AcDbEntity
  8
1
100
AcDbLine
 10
237.144248
 20
229.731161
 30
0.0
 11
237.644248
 21
229.231161
 31
0.0
  0
LINE
  5
AF
330
1F
100
AcDbEntity
  8
1
100
AcDbLine
 10
269.467483
 20
236.979281
 30
0.0
 11
275.962246
 21
235.788153
 31
0.0
  0
LINE
  5
B0
330
1F
100
AcDbEntity
  8
1
100
AcDbLine
 10
269.514706
 20
237.270497
 30
0.0
 11
269.467483
 21
236.979281
 31
0.0
  0
LINE
  5
B1
330
1F
100
AcDbEntity
  8
1
100
AcDbLine
 10
266.124669
 20
238.498047
 30
0.0
 11
267.886348
 21
238.004028
 31
0.0
  0
LINE
  5
B2
330
1F
100
AcDbEntity
  8
1
100
AcDbLine
 10
266.124669
 20
238.498047
 30
0.0
 11
265.177492
 21
237.765202
 31
0.0
  0
LINE
  5
B3
330
1F
100
AcDbEntity
  8
SK1
100
AcDbLine
 10
214.144248
 20
236.731161
 30
0.0
 11
214.144248
 21
250.731161
 31
0.0
  0
LINE
  5
B4
330
1F
100
AcDbEntity
  8
SK1
100
AcDbLine
 10
214.144248
 20
236.731161
 30
0.0
 11
215.144248
 21
235.731161
 31
0.0
  0
LINE
  5
B5
330
1F
100
AcDbEntity
  8
SK1
100
AcDbLine
 10
215.144248
 20
251.731161
 30
0.0
 11
214.144248
 21
250.731161
 31
0.0
  0
LINE
  5
B6
330
1F
100
AcDbEntity
  8
SK1
100
AcDbLine
 10
215.144248
 20
235.731161
 30
0.0
 11
215.144248
 21
251.731161
 31
0.0
  0
LINE
  5
B7
330
1F
100
AcDbEntity
  8
SK1
100
AcDbLine
 10
215.144248
 20
235.731161
 30
0.0
 11
230.644248
 21
235.731161
 31
0.0
  0
LINE
  5
B8
330
1F
100
AcDbEntity
  8
SK1
100
AcDbLine
 10
230.644248
 20
251.731161
 30
0.0
 11
215.144248
 21
251.731161
 31
0.0
  0
LINE
  5
B9
330
1F
100
AcDbEntity
  8
1
100
AcDbLine
 10
268.614213
 20
229.454295
 30
0.0
 11
268.614213
 21
229.194137
 31
0.0
  0
LINE
  5
BA
330
1F
100
AcDbEntity
  8
1
100
AcDbLine
 10
257.160388
 20
229.231109
 30
0.0
 11
257.160388
 21
231.159251
 31
0.0
  0
LINE
  5
BB
330
1F
100
AcDbEntity
  8
1
100
AcDbLine
 10
257.160388
 20
229.231109
 30
0.0
 11
268.614213
 21
229.194137
 31
0.0
  0
LINE
  5
BC
330
1F
100
AcDbEntity
  8
SK1
100
AcDbLine
 10
236.015058
 20
235.481161
 30
0.0
 11
236.944248
 21
235.481161
 31
0.0
  0
LINE
  5
BD
330
1F
100
AcDbEntity
  8
SK1
100
AcDbLine
 10
236.944248
 20
251.981161
 30
0.0
 11
236.015058
 21
251.981161
 31
0.0
  0
LINE
  5
BE
330
1F
100
AcDbEntity
  8
SK1
100
AcDbLine
 10
236.015058
 20
235.481161
 30
0.0
 11
236.015058
 21
251.981161
 31
0.0
  0
LINE
  5
BF
330
1F
100
AcDbEntity
  8
SK1
100
AcDbLine
 10
230.644248
 20
235.731161
 30
0.0
 11
230.644248
 21
251.731161
 31
0.0
  0
LINE
  5
C0
330
1F
100
AcDbEntity
  8
1
100
AcDbLine
 10
270.218529
 20
240.981632
 30
0.0
 11
270.361833
 21
241.213389
 31
0.0
  0
LINE
  5
C1
330
1F
100
AcDbEntity
  8
1
100
AcDbLine
 10
270.361365
 20
241.244694
 30
0.0
 11
270.361833
 21
241.213389
 31
0.0
  0
LINE
  5
C2
330
1F
100
AcDbEntity
  8
1
100
AcDbLine
 10
270.646225
 20
229.203418
 30
0.0
 11
275.545945
 21
229.415256
 31
0.0
  0
LINE
  5
C3
330
1F
100
AcDbEntity
  8
1
100
AcDbLine
 10
270.646225
 20
229.203418
 30
0.0
 11
270.646225
 21
229.451529
 31
0.0
  0
LINE
  5
C4
330
1F
100
AcDbEntity
  8
1
100
AcDbLine
 10
275.545945
 20
229.415256
 30
0.0
 11
275.545945
 21
229.647687
 31
0.0
  0
LINE
  5
C5
330
1F
100
AcDbEntity
  8
1
100
AcDbLine
 10
276.024348
 20
229.91479
 30
0.0
 11
276.024348
 21
230.179787
 31
0.0
  0
LINE
  5
C6
330
1F
100
AcDbEntity
  8
1
100
AcDbLine
 10
276.024348
 20
230.222194
 30
0.0
 11
276.024348
 21
233.678652
 31
0.0
  0
LINE
  5
C7
330
1F
100
AcDbEntity
  8
1
100
AcDbLine
 10
270.21428
 20
229.44423
 30
0.0
 11
270.21428
 21
229.194084
 31
0.0
  0
LINE
  5
C8
330
1F
100
AcDbEntity
  8
1
100
AcDbLine
 10
268.646493
 20
229.194084
 30
0.0
 11
270.21428
 21
229.194084
 31
0.0
  0
LINE
  5
C9
330
1F
100
AcDbEntity
  8
1
100
AcDbLine
 10
268.646493
 20
229.194084
 30
0.0
 11
268.646493
 21
229.454035
 31
0.0
  0
LINE
  5
CA
330
1F
100
AcDbEntity
  8
1
100
AcDbLine
 10
276.024338
 20
230.179793
 30
0.0
 11
276.024338
 21
233.681694
 31
0.0
  0
LINE
  5
CB
330
1F
100
AcDbEntity
  8
1
100
AcDbLine
 10
275.996048
 20
236.09745
 30
0.0
 11
275.996048
 21
235.332127
 31
0.0
  0
LINE
  5
CC
330
1F
100
AcDbEntity
  8
1
100
AcDbLine
 10
276.125877
 20
242.505039
 30
0.0
 11
276.061254
 21
242.683175
 31
0.0
  0
LINE
  5
CD
330
1F
100
AcDbEntity
  8
1
100
AcDbLine
 10
276.972673
 20
237.288068
 30
0.0
 11
276.867809
 21
238.408477
 31
0.0
  0
LINE
  5
CE
330
1F
100
AcDbEntity
  8
1
100
AcDbLine
 10
274.535755
 20
236.213125
 30
0.0
 11
274.571847
 21
236.425986
 31
0.0
  0
LINE
  5
CF
330
1F
100
AcDbEntity
  8
1
100
AcDbLine
 10
276.32377
 20
236.348607
 30
0.0
 11
276.112891
 21
239.221229
 31
0.0
  0
LINE
  5
D0
330
1F
100
AcDbEntity
  8
1
100
AcDbLine
 10
276.096728
 20
240.309306
 30
0.0
 11
276.061254
 21
242.683175
 31
0.0
  0
LINE
  5
D1
330
1F
100
AcDbEntity
  8
1
100
AcDbLine
 10
276.061254
 20
242.683175
 30
0.0
 11
276.024336
 21
242.688995
 31
0.0
  0
LINE
  5
D2
330
1F
100
AcDbEntity
  8
1
100
AcDbLine
 10
268.952056
 20
237.446446
 30
0.0
 11
269.748587
 21
240.334036
 31
0.0
  0
LINE
  5
D3
330
1F
100
AcDbEntity
  8
1
100
AcDbLine
 10
271.478833
 20
236.773696
 30
0.0
 11
271.71811
 21
237.950887
 31
0.0
  0
LINE
  5
D4
330
1F
100
AcDbEntity
  8
1
100
AcDbLine
 10
276.162645
 20
240.044566
 30
0.0
 11
276.096728
 21
240.309306
 31
0.0
  0
LINE
  5
D5
330
1F
100
AcDbEntity
  8
1
100
AcDbLine
 10
270.361833
 20
241.213389
 30
0.0
 11
276.096728
 21
240.309306
 31
0.0
  0
LINE
  5
D6
330
1F
100
AcDbEntity
  8
1
100
AcDbLine
 10
277.140283
 20
238.593427
 30
0.0
 11
277.119748
 21
238.805058
 31
0.0
  0
LINE
  5
D7
330
1F
100
AcDbEntity
  8
1
100
AcDbLine
 10
277.144248
 20
238.522916
 30
0.0
 11
277.125011
 21
238.721509
 31
0.0
  0
LINE
  5
D8
330
1F
100
AcDbEntity
  8
1
100
AcDbLine
 10
267.930312
 20
238.348479
 30
0.0
 11
267.951828
 21
238.390768
 31
0.0
  0
LINE
  5
D9
330
1F
100
AcDbEntity
  8
1
100
AcDbLine
 10
273.112285
 20
255.823371
 30
0.0
 11
273.362514
 21
255.674216
 31
0.0
  0
LINE
  5
DB
330
1F
100
AcDbEntity
  8
1
100
AcDbLine
 10
272.353089
 20
253.801212
 30
0.0
 11
272.093428
 21
253.95599
 31
0.0
  0
LINE
  5
DC
330
1F
100
AcDbEntity
  8
1
100
AcDbLine
 10
272.225275
 20
253.845032
 30
0.0
 11
272.480184
 21
253.693087
 31
0.0
  0
LINE
  5
DD
330
1F
100
AcDbEntity
  8
1
100
AcDbLine
 10
272.247838
 20
253.766842
 30
0.0
 11
272.474244
 21
253.631887
 31
0.0
  0
LINE
  5
DE
330
1F
100
AcDbEntity
  8
1
100
AcDbLine
 10
273.234027
 20
255.852905
 30
0.0
 11
273.307813
 21
255.808922
 31
0.0
  0
LINE
  5
DF
330
1F
100
AcDbEntity
  8
1
100
AcDbLine
 10
273.498453
 20
254.777504
 30
0.0
 11
273.610362
 21
254.710797
 31
0.0
  0
LINE
  5
E0
330
1F
100
AcDbEntity
  8
1
100
AcDbLine
 10
273.328515
 20
254.199889
 30
0.0
 11
273.294373
 21
254.220241
 31
0.0
  0
LINE
  5
E1
330
1F
100
AcDbEntity
  8
1
100
AcDbLine
 10
273.535644
 20
254.764711
 30
0.0
 11
273.601778
 21
254.72529
 31
0.0
  0
LINE
  5
E2
330
1F
100
AcDbEntity
  8
1
100
AcDbLine
 10
273.674517
 20
256.597678
 30
0.0
 11
273.674348
 21
256.597779
 31
0.0
  0
LINE
  5
E3
330
1F
100
AcDbEntity
  8
1
100
AcDbLine
 10
273.674517
 20
256.597678
 30
0.0
 11
273.516004
 21
256.692163
 31
0.0
  0
LINE
  5
E4
330
1F
100
AcDbEntity
  8
1
100
AcDbLine
 10
273.304016
 20
254.213666
 30
0.0
 11
273.32403
 21
254.201736
 31
0.0
  0
LINE
  5
E5
330
1F
100
AcDbEntity
  8
SK1
100
AcDbLine
 10
214.144248
 20
250.629661
 30
0.0
 11
230.644248
 21
250.629661
 31
0.0
  0
LINE
  5
E6
330
1F
100
AcDbEntity
  8
1
100
AcDbLine
 10
271.389877
 20
255.595653
 30
0.0
 11
271.633787
 21
255.450265
 31
0.0
  0
LINE
  5
E7
330
1F
100
AcDbEntity
  8
1
100
AcDbLine
 10
271.524203
 20
255.59392
 30
0.0
 11
271.7751629999999
 21
255.444328
 31
0.0
  0
LINE
  5
E8
330
1F
100
AcDbEntity
  8
1
100
AcDbLine
 10
271.198644
 20
255.140707
 30
0.0
 11
271.442553
 21
254.995318
 31
0.0
  0
LINE
  5
E9
330
1F
100
AcDbEntity
  8
1
100
AcDbLine
 10
271.572794
 20
254.886046
 30
0.0
 11
271.320123
 21
255.036657
 31
0.0
  0
LINE
  5
EA
330
1F
100
AcDbEntity
  8
1
100
AcDbLine
 10
271.985929
 20
255.96574
 30
0.0
 11
272.236158
 21
255.816585
 31
0.0
  0
LINE
  5
EB
330
1F
100
AcDbEntity
  8
1
100
AcDbLine
 10
271.59326
 20
255.582365
 30
0.0
 11
271.848169
 21
255.43042
 31
0.0
  0
LINE
  5
EC
330
1F
100
AcDbEntity
  8
1
100
AcDbLine
 10
271.982426
 20
255.883914
 30
0.0
 11
272.237335
 21
255.731968
 31
0.0
  0
LINE
  5
ED
330
1F
100
AcDbEntity
  8
1
100
AcDbLine
 10
271.351308
 20
255.006758
 30
0.0
 11
271.606217
 21
254.854813
 31
0.0
  0
LINE
  5
EE
330
1F
100
AcDbEntity
  8
1
100
AcDbLine
 10
271.35311
 20
254.460256
 30
0.0
 11
271.603338
 21
254.311101
 31
0.0
  0
LINE
  5
EF
330
1F
100
AcDbEntity
  8
1
100
AcDbLine
 10
271.409248
 20
254.520317
 30
0.0
 11
271.664157
 21
254.368372
 31
0.0
  0
LINE
  5
F0
330
1F
100
AcDbEntity
  8
1
100
AcDbLine
 10
272.023383
 20
256.086531
 30
0.0
 11
272.267292
 21
255.941143
 31
0.0
  0
LINE
  5
F1
330
1F
100
AcDbEntity
  8
1
100
AcDbLine
 10
272.506204
 20
256.153883
 30
0.0
 11
272.540599
 21
256.133381
 31
0.0
  0
LINE
  5
F2
330
1F
100
AcDbEntity
  8
1
100
AcDbLine
 10
271.292961
 20
254.34885
 30
0.0
 11
271.53687
 21
254.203462
 31
0.0
  0
LINE
  5
F3
330
1F
100
AcDbEntity
  8
1
100
AcDbLine
 10
272.725148
 20
255.858171
 30
0.0
 11
272.984809
 21
255.703393
 31
0.0
  0
LINE
  5
F4
330
1F
100
AcDbEntity
  8
1
100
AcDbLine
 10
273.040405
 20
255.784236
 30
0.0
 11
273.295315
 21
255.632291
 31
0.0
  0
LINE
  5
F5
330
1F
100
AcDbEntity
  8
SK1
100
AcDbLine
 10
214.144248
 20
236.832661
 30
0.0
 11
230.644248
 21
236.832661
 31
0.0
  0
LINE
  5
F6
330
1F
100
AcDbEntity
  8
80
100
AcDbLine
 10
236.144675
 20
243.731161
 30
0.0
 11
238.143822
 21
243.731161
 31
0.0
  0
LINE
  5
F7
330
1F
100
AcDbEntity
  8
80
100
AcDbLine
 10
237.144248
 20
242.731588
 30
0.0
 11
237.144248
 21
244.730735
 31
0.0
  0
LINE
  5
F8
330
1F
100
AcDbEntity
  8
81
100
AcDbLine
 10
277.144248
 20
257.731161
 30
0.0
 11
277.144248
 21
261.731161
 31
0.0
  0
LINE
  5
F9
330
1F
100
AcDbEntity
  8
81
100
AcDbLine
 10
275.144248
 20
259.731161
 30
0.0
 11
279.144248
 21
259.731161
 31
0.0
  0
LINE
  5
FA
330
1F
100
AcDbEntity
  8
NOCUT
100
AcDbLine
 10
216.144248
 20
246.231161
 30
0.0
 11
214.144248
 21
247.385862
 31
0.0
  0
LINE
  5
FC
330
1F
100
AcDbEntity
  8
NOCUT
100
AcDbLine
 10
214.144248
 20
247.385862
 30
0.0
 11
214.144248
 21
250.731161
 31
0.0
  0
LINE
  5
FD
330
1F
100
AcDbEntity
  8
NOCUT
100
AcDbLine
 10
214.144248
 20
250.731161
 30
0.0
 11
215.144248
 21
251.731161
 31
0.0
  0
LINE
  5
FE
330
1F
100
AcDbEntity
  8
NOCUT
100
AcDbLine
 10
215.144248
 20
251.731161
 30
0.0
 11
230.644248
 21
251.731161
 31
0.0
  0
LINE
  5
FF
330
1F
100
AcDbEntity
  8
NOCUT
100
AcDbLine
 10
230.644248
 20
251.731161
 30
0.0
 11
231.144248
 21
252.231161
 31
0.0
  0
LINE
  5
100
330
1F
100
AcDbEntity
  8
NOCUT
100
AcDbLine
 10
231.144248
 20
252.231161
 30
0.0
 11
235.644248
 21
252.231161
 31
0.0
  0
LINE
  5
101
330
1F
100
AcDbEntity
  8
NOCUT
100
AcDbLine
 10
236.015058
 20
251.981161
 30
0.0
 11
236.944248
 21
251.981161
 31
0.0
  0
LINE
  5
102
330
1F
100
AcDbEntity
  8
NOCUT
100
AcDbLine
 10
237.330619
 20
252.484689
 30
0.0
 11
237.144248
 21
253.180232
 31
0.0
  0
LINE
  5
103
330
1F
100
AcDbEntity
  8
NOCUT
100
AcDbLine
 10
237.144248
 20
253.180232
 30
0.0
 11
237.144248
 21
257.731161
 31
0.0
  0
LINE
  5
104
330
1F
100
AcDbEntity
  8
NOCUT
100
AcDbLine
 10
237.144248
 20
257.731161
 30
0.0
 11
237.644248
 21
258.231161
 31
0.0
  0
LINE
  5
105
330
1F
100
AcDbEntity
  8
NOCUT
100
AcDbLine
 10
237.644248
 20
258.231161
 30
0.0
 11
240.144248
 21
258.231161
 31
0.0
  0
LINE
  5
106
330
1F
100
AcDbEntity
  8
NOCUT
100
AcDbLine
 10
240.144248
 20
258.231161
 30
0.0
 11
240.144248
 21
255.181161
 31
0.0
  0
LINE
  5
107
330
1F
100
AcDbEntity
  8
NOCUT
100
AcDbLine
 10
240.644248
 20
254.681161
 30
0.0
 11
251.644248
 21
254.681161
 31
0.0
  0
LINE
  5
108
330
1F
100
AcDbEntity
  8
1
100
AcDbLine
 10
214.144248
 20
250.629661
 30
0.0
 11
230.644248
 21
250.629661
 31
0.0
  0
LINE
  5
109
330
1F
100
AcDbEntity
  8
NOCUT
100
AcDbLine
 10
258.587624
 20
243.731161
 30
0.0
 11
274.492734
 21
243.731161
 31
0.0
  0
LINE
  5
10A
330
1F
100
AcDbEntity
  8
NOCUT
100
AcDbLine
 10
252.144248
 20
255.181161
 30
0.0
 11
252.144248
 21
258.231161
 31
0.0
  0
LINE
  5
10B
330
1F
100
AcDbEntity
  8
NOCUT
100
AcDbLine
 10
252.144248
 20
258.231161
 30
0.0
 11
257.128108
 21
258.231161
 31
0.0
  0
LINE
  5
10C
330
1F
100
AcDbEntity
  8
NOCUT
100
AcDbLine
 10
257.160388
 20
258.231213
 30
0.0
 11
268.614213
 21
258.268186
 31
0.0
  0
LINE
  5
10D
330
1F
100
AcDbEntity
  8
NOCUT
100
AcDbLine
 10
268.646493
 20
258.268238
 30
0.0
 11
270.21428
 21
258.268238
 31
0.0
  0
LINE
  5
10E
330
1F
100
AcDbEntity
  8
NOCUT
100
AcDbLine
 10
270.646225
 20
258.258905
 30
0.0
 11
275.545945
 21
258.047066
 31
0.0
  0
LINE
  5
10F
330
1F
100
AcDbEntity
  8
NOCUT
100
AcDbLine
 10
276.024338
 20
257.544402
 30
0.0
 11
275.996048
 21
253.025852
 31
0.0
  0
LINE
  5
110
330
1F
100
AcDbEntity
  8
NOCUT
100
AcDbLine
 10
275.728138
 20
252.038374
 30
0.0
 11
274.760683
 21
250.362694
 31
0.0
  0
LINE
  5
111
330
1F
100
AcDbEntity
  8
NOCUT
100
AcDbLine
 10
274.492734
 20
249.362694
 30
0.0
 11
274.492734
 21
243.731161
 31
0.0
  0
LINE
  5
112
330
1F
100
AcDbEntity
  8
NOCUT
100
AcDbLine
 10
258.587624
 20
243.731161
 30
0.0
 11
257.144248
 21
246.231161
 31
0.0
  0
LINE
  5
113
330
1F
100
AcDbEntity
  8
NOCUT
100
AcDbLine
 10
257.144248
 20
246.231161
 30
0.0
 11
216.144248
 21
246.231161
 31
0.0
  0
LINE
  5
114
102
{ACAD_REACTORS
330
295
102
}
330
1F
100
AcDbEntity
  8
SK4
100
AcDbLine
 10
212.644248
 20
243.731161
 30
0.0
 11
242.144248
 21
243.731161
 31
0.0
  0
ARC
  5
115
330
1F
100
AcDbEntity
  8
SK1
100
AcDbCircle
 10
236.944248
 20
235.081161
 30
0.0
 40
0.4000000000000005
100
AcDbArc
 50
59.99907
 51
90.0
  0
ARC
  5
116
330
1F
100
AcDbEntity
  8
SK1
100
AcDbCircle
 10
236.944248
 20
252.381161
 30
0.0
 40
0.4000000000000005
100
AcDbArc
 50
270.0
 51
300.00093
  0
ARC
  5
117
330
1F
100
AcDbEntity
  8
1
100
AcDbCircle
 10
257.128108
 20
219.231161
 30
0.0
 40
10.0
100
AcDbArc
 50
89.815052
 51
90.0
  0
ARC
  5
118
330
1F
100
AcDbEntity
  8
SK1
100
AcDbCircle
 10
236.015058
 20
235.081161
 30
0.0
 40
0.4
100
AcDbArc
 50
90.0
 51
157.975687
  0
ARC
  5
119
330
1F
100
AcDbEntity
  8
SK1
100
AcDbCircle
 10
236.015058
 20
252.381161
 30
0.0
 40
0.4
100
AcDbArc
 50
202.024313
 51
270.0
  0
ARC
  5
11A
330
1F
100
AcDbEntity
  8
1
100
AcDbCircle
 10
270.21428
 20
239.194084
 30
0.0
 40
10.0
100
AcDbArc
 50
270.0
 51
272.475633
  0
ARC
  5
11B
330
1F
100
AcDbEntity
  8
1
100
AcDbCircle
 10
275.524348
 20
229.91479
 30
0.0
 40
0.5
100
AcDbArc
 50
272.475633
 51
0.0
  0
ARC
  5
11C
330
1F
100
AcDbEntity
  8
1
100
AcDbCircle
 10
268.646493
 20
239.194084
 30
0.0
 40
10.0
100
AcDbArc
 50
269.815052
 51
270.0
  0
ARC
  5
11D
330
1F
100
AcDbEntity
  8
NOCUT
100
AcDbCircle
 10
236.015058
 20
252.381161
 30
0.0
 40
0.4
100
AcDbArc
 50
202.024313
 51
270.0
  0
ARC
  5
11E
330
1F
100
AcDbEntity
  8
NOCUT
100
AcDbCircle
 10
236.944248
 20
252.381161
 30
0.0
 40
0.4000000000000005
100
AcDbArc
 50
270.0
 51
15.0
  0
ARC
  5
11F
330
1F
100
AcDbEntity
  8
NOCUT
100
AcDbCircle
 10
240.644248
 20
255.181161
 30
0.0
 40
0.4999999999999973
100
AcDbArc
 50
180.0
 51
270.0
  0
ARC
  5
120
330
1F
100
AcDbEntity
  8
NOCUT
100
AcDbCircle
 10
251.644248
 20
255.181161
 30
0.0
 40
0.5000000000000036
100
AcDbArc
 50
270.0
 51
0.0
  0
ARC
  5
121
330
1F
100
AcDbEntity
  8
NOCUT
100
AcDbCircle
 10
257.128108
 20
268.231161
 30
0.0
 40
10.0
100
AcDbArc
 50
270.0
 51
270.184948
  0
ARC
  5
122
330
1F
100
AcDbEntity
  8
NOCUT
100
AcDbCircle
 10
268.646493
 20
248.268238
 30
0.0
 40
10.0
100
AcDbArc
 50
90.0
 51
90.18494799999999
  0
ARC
  5
123
330
1F
100
AcDbEntity
  8
NOCUT
100
AcDbCircle
 10
270.21428
 20
248.268238
 30
0.0
 40
10.0
100
AcDbArc
 50
87.524367
 51
90.0
  0
ARC
  5
124
330
1F
100
AcDbEntity
  8
NOCUT
100
AcDbCircle
 10
275.524348
 20
257.547533
 30
0.0
 40
0.5
100
AcDbArc
 50
359.641273
 51
87.524367
  0
ARC
  5
125
330
1F
100
AcDbEntity
  8
NOCUT
100
AcDbCircle
 10
273.996087
 20
253.038374
 30
0.0
 40
2.0
100
AcDbArc
 50
330.0
 51
359.641273
  0
ARC
  5
126
330
1F
100
AcDbEntity
  8
NOCUT
100
AcDbCircle
 10
276.492734
 20
249.362694
 30
0.0
 40
2.0
100
AcDbArc
 50
150.0
 51
180.0
  0
ELLIPSE
  5
127
330
1F
100
AcDbEntity
  8
1
100
AcDbEllipse
 10
274.493944
 20
254.732593
 30
0.0
 11
-2.457672198125096
 21
-4.123087116053084
 31
0.0
210
0.0
220
0.0
230
1.0
 40
0.9795739999999998
 41
3.420393430233731
 42
3.682056754838149
  0
ELLIPSE
  5
128
330
1F
100
AcDbEntity
  8
1
100
AcDbEllipse
 10
274.372093
 20
234.840303
 30
0.0
 11
-12.69797302364634
 21
-21.30261676627428
 31
0.0
210
0.0
220
0.0
230
0.9999999999999996
 40
0.9795739999999998
 41
3.682056754838146
 42
3.806563740780695
  0
ELLIPSE
  5
129
330
1F
100
AcDbEntity
  8
1
100
AcDbEllipse
 10
272.628024
 20
249.621859
 30
0.0
 11
-5.017747404505408
 21
-8.417969528608384
 31
0.0
210
0.0
220
0.0
230
1.0
 40
0.9795739999999998
 41
3.806563740780708
 42
4.072677525547508
  0
ELLIPSE
  5
12A
330
1F
100
AcDbEntity
  8
1
100
AcDbEllipse
 10
274.475018
 20
245.046054
 30
0.0
 11
-7.577822610885718
 21
-12.71285194116368
 31
0.0
210
0.0
220
0.0
230
0.9999999999999998
 40
0.9795739999999998
 41
4.072677525547508
 42
4.120031414934458
  0
ELLIPSE
  5
12B
330
1F
100
AcDbEntity
  8
1
100
AcDbEllipse
 10
268.456805
 20
258.123089
 30
0.0
 11
0.1024030082552102
 21
0.1717952965022132
 31
0.0
210
0.0
220
0.0
230
0.9999999999999998
 40
0.9795739999999998
 41
0.9784387613447007
 42
1.849597103438851
  0
ELLIPSE
  5
12C
330
1F
100
AcDbEntity
  8
1
100
AcDbEllipse
 10
272.826107
 20
256.992423
 30
0.0
 11
-2.457672198125096
 21
-4.123087116053084
 31
0.0
210
0.0
220
0.0
230
1.0
 40
0.9795739999999998
 41
4.991189757028626
 42
5.252853081633042
  0
ELLIPSE
  5
12D
330
1F
100
AcDbEntity
  8
1
100
AcDbEllipse
 10
292.525131
 20
257.230478
 30
0.0
 11
-12.69797302364634
 21
-21.30261676627428
 31
0.0
210
0.0
220
0.0
230
0.9999999999999996
 40
0.9795739999999998
 41
5.252853081633042
 42
5.377360067575591
  0
ELLIPSE
  5
12E
330
1F
100
AcDbEntity
  8
1
100
AcDbEllipse
 10
277.853882
 20
255.200568
 30
0.0
 11
-5.017747404505408
 21
-8.417969528608384
 31
0.0
210
0.0
220
0.0
230
1.0
 40
0.9795739999999998
 41
5.377360067575608
 42
5.442682657418965
  0
ELLIPSE
  5
12F
330
1F
100
AcDbEntity
  8
1
100
AcDbEllipse
 10
272.423624
 20
260.377566
 30
0.0
 11
-5.017747404505408
 21
-8.417969528608384
 31
0.0
210
0.0
220
0.0
230
1.0
 40
0.9795739999999998
 41
0.9289143352584801
 42
0.9310848719577171
  0
ELLIPSE
  5
130
330
1F
100
AcDbEntity
  8
1
100
AcDbEllipse
 10
272.525824
 20
254.999713
 30
0.0
 11
-1.202876748612518
 21
-2.017993135206412
 31
0.0
210
0.0
220
0.0
230
0.9999999999999998
 40
0.9795739999999998
 41
3.682056583958757
 42
6.140647404341156
  0
ELLIPSE
  5
131
330
1F
100
AcDbEntity
  8
1
100
AcDbEllipse
 10
272.525824
 20
254.999713
 30
0.0
 11
-1.202876748612518
 21
-2.017993135206412
 31
0.0
210
0.0
220
0.0
230
0.9999999999999998
 40
0.9795739999999998
 41
1.118320690098127
 42
3.682056583958752
  0
ELLIPSE
  5
132
330
1F
100
AcDbEntity
  8
1
100
AcDbEllipse
 10
276.594843
 20
251.876336
 30
0.0
 11
0.1024030082552102
 21
0.1717952965022132
 31
0.0
210
0.0
220
0.0
230
0.9999999999999998
 40
0.9795739999999998
 41
4.120031414934464
 42
4.991189757028611
  0
ELLIPSE
  5
133
330
1F
100
AcDbEntity
  8
1
100
AcDbEllipse
 10
252.537973
 20
236.029369
 30
0.0
 11
24.41524718086412
 21
5.292204294770562
 31
0.0
210
0.0
220
0.0
230
1.0
 40
0.578951
 41
6.111339390971741
 42
6.164531137162454
  0
ELLIPSE
  5
134
330
1F
100
AcDbEntity
  8
1
100
AcDbEllipse
 10
272.236997
 20
238.896786
 30
0.0
 11
4.869154593689776
 21
1.055429038327468
 31
0.0
210
0.0
220
0.0
230
1.0
 40
0.578951
 41
6.164531137162451
 42
6.424390072696362
  0
ELLIPSE
  5
135
330
1F
100
AcDbEntity
  8
1
100
AcDbEllipse
 10
273.156035
 20
226.344825
 30
0.0
 11
-3.705053146763122
 21
-11.8679730782206
 31
0.0
210
0.0
220
0.0
230
0.9999999999999998
 40
0.0758
 41
2.241094489027173
 42
2.672794970676948
  0
ELLIPSE
  5
136
330
1F
100
AcDbEntity
  8
1
100
AcDbEllipse
 10
267.397037
 20
210.114579
 30
0.0
 11
-9.453624075307237
 21
-30.2817129938402
 31
0.0
210
0.0
220
0.0
230
1.0
 40
0.0758
 41
2.672794970682785
 42
2.696163169210313
  0
ELLIPSE
  5
137
330
1F
100
AcDbEntity
  8
1
100
AcDbEllipse
 10
267.397037
 20
210.114579
 30
0.0
 11
-9.453624075307237
 21
-30.2817129938402
 31
0.0
210
0.0
220
0.0
230
1.0
 40
0.0758
 41
2.847413270672203
 42
2.911512667847656
  0
ELLIPSE
  5
138
330
1F
100
AcDbEntity
  8
1
100
AcDbEllipse
 10
275.202613
 20
233.640744
 30
0.0
 11
-1.868182148798661
 21
-5.984134253662315
 31
0.0
210
0.0
220
0.0
230
1.0
 40
0.0758
 41
2.911512667845408
 42
3.292711787804672
  0
ELLIPSE
  5
139
330
1F
100
AcDbEntity
  8
1
100
AcDbEllipse
 10
292.536587
 20
257.22365
 30
0.0
 11
12.79127655547683
 21
21.45914642481359
 31
0.0
210
0.0
220
0.0
230
0.9999999999999998
 40
0.9795739999999998
 41
2.111260428043253
 42
2.235767413985804
  0
ELLIPSE
  5
13A
330
1F
100
AcDbEntity
  8
1
100
AcDbEllipse
 10
277.865338
 20
255.193739
 30
0.0
 11
5.111050936336068
 21
8.574499187147596
 31
0.0
210
0.0
220
0.0
230
1.0
 40
0.979574
 41
2.235767413985819
 42
2.296220978066458
  0
ELLIPSE
  5
13B
330
1F
100
AcDbEntity
  8
1
100
AcDbEllipse
 10
274.38355
 20
234.833474
 30
0.0
 11
12.79127655547683
 21
21.45914642481359
 31
0.0
210
0.0
220
0.0
230
0.9999999999999998
 40
0.9795739999999998
 41
0.5404641012483587
 42
0.664971087190907
  0
ELLIPSE
  5
13C
330
1F
100
AcDbEntity
  8
1
100
AcDbEllipse
 10
274.5054
 20
254.725765
 30
0.0
 11
2.550975729955809
 21
4.279616774592265
 31
0.0
210
0.0
220
0.0
230
0.9999999999999998
 40
0.9795739999999998
 41
0.2806051657135482
 42
0.5404641012483595
  0
ELLIPSE
  5
13D
330
1F
100
AcDbEntity
  8
1
100
AcDbEllipse
 10
262.643835
 20
252.843439
 30
0.0
 11
7.67112614271632
 21
12.86938159970293
 31
0.0
210
0.0
220
0.0
230
0.9999999999999998
 40
0.9795739999999998
 41
5.643473852342412
 42
5.690260327009867
  0
ELLIPSE
  5
13E
330
1F
100
AcDbEntity
  8
1
100
AcDbEllipse
 10
272.721867
 20
254.882856
 30
0.0
 11
-1.152033842871138
 21
-1.932697085649883
 31
0.0
210
0.0
220
0.0
230
0.9999999999999998
 40
0.9795739999999998
 41
2.747727280739555
 42
4.258833567851855
  0
ELLIPSE
  5
13F
330
1F
100
AcDbEntity
  8
1
100
AcDbEllipse
 10
267.209223
 20
254.792029
 30
0.0
 11
5.111050936336068
 21
8.574499187147596
 31
0.0
210
0.0
220
0.0
230
1.0
 40
0.979574
 41
5.377360067575613
 42
5.643473852342412
  0
ELLIPSE
  5
140
330
1F
100
AcDbEntity
  8
1
100
AcDbEllipse
 10
252.537973
 20
252.762118
 30
0.0
 11
12.79127655547683
 21
21.45914642481359
 31
0.0
210
0.0
220
0.0
230
0.9999999999999998
 40
0.9795739999999998
 41
5.252853081633046
 42
5.377360067575597
  0
ELLIPSE
  5
141
330
1F
100
AcDbEntity
  8
1
100
AcDbEllipse
 10
272.435081
 20
260.370738
 30
0.0
 11
5.111050936336068
 21
8.574499187147596
 31
0.0
210
0.0
220
0.0
230
1.0
 40
0.979574
 41
4.061929013498841
 42
4.072677525547513
  0
ELLIPSE
  5
142
330
1F
100
AcDbEntity
  8
1
100
AcDbEllipse
 10
270.588086
 20
264.946543
 30
0.0
 11
7.67112614271632
 21
12.86938159970293
 31
0.0
210
0.0
220
0.0
230
0.9999999999999998
 40
0.9795739999999998
 41
4.072677525547515
 42
4.119464000215311
  0
ELLIPSE
  5
143
330
1F
100
AcDbEntity
  8
1
100
AcDbEllipse
 10
272.236997
 20
253.000173
 30
0.0
 11
2.550975729955809
 21
4.279616774592265
 31
0.0
210
0.0
220
0.0
230
0.9999999999999998
 40
0.9795739999999998
 41
4.992994146099137
 42
5.252853081633048
  0
ELLIPSE
  5
144
330
1F
100
AcDbEntity
  8
1
100
AcDbEllipse
 10
270.57663
 20
264.953371
 30
0.0
 11
-7.577822610885718
 21
-12.71285194116368
 31
0.0
210
0.0
220
0.0
230
0.9999999999999998
 40
0.9795739999999998
 41
0.9310848719577178
 42
0.9784387613446684
  0
ELLIPSE
  5
145
330
1F
100
AcDbEntity
  8
1
100
AcDbEllipse
 10
272.225541
 20
253.007002
 30
0.0
 11
-2.457672198125096
 21
-4.123087116053084
 31
0.0
210
0.0
220
0.0
230
1.0
 40
0.9795739999999998
 41
1.849597103438836
 42
2.111260428043251
  0
ELLIPSE
  5
146
330
1F
100
AcDbEntity
  8
1
100
AcDbEllipse
 10
252.526517
 20
252.768947
 30
0.0
 11
-12.69797302364634
 21
-21.30261676627428
 31
0.0
210
0.0
220
0.0
230
0.9999999999999996
 40
0.9795739999999998
 41
2.11126042804325
 42
2.235767413985799
  0
ELLIPSE
  5
147
330
1F
100
AcDbEntity
  8
1
100
AcDbEllipse
 10
267.197766
 20
254.798858
 30
0.0
 11
-5.017747404505408
 21
-8.417969528608384
 31
0.0
210
0.0
220
0.0
230
1.0
 40
0.9795739999999998
 41
2.235767413985816
 42
2.501881198752614
  0
ELLIPSE
  5
148
330
1F
100
AcDbEntity
  8
1
100
AcDbEllipse
 10
262.632379
 20
252.850267
 30
0.0
 11
-7.577822610885718
 21
-12.71285194116368
 31
0.0
210
0.0
220
0.0
230
0.9999999999999998
 40
0.9795739999999998
 41
2.501881198752613
 42
2.549235088139564
  0
ELLIPSE
  5
149
330
1F
100
AcDbEntity
  8
1
100
AcDbEllipse
 10
275.693072
 20
259.166248
 30
0.0
 11
0.1024030082552102
 21
0.1717952965022132
 31
0.0
210
0.0
220
0.0
230
0.9999999999999998
 40
0.9795739999999998
 41
5.690827741729403
 42
6.561986083823512
  0
ELLIPSE
  5
14A
330
1F
100
AcDbEntity
  8
1
100
AcDbEllipse
 10
258.087562
 20
243.462806
 30
0.0
 11
-85.6249222309939
 21
14.10320084343597
 31
0.0
210
0.0
220
0.0
230
1.0
 40
0.03949
 41
1.568379487536656
 42
1.694515042764938
  0
ELLIPSE
  5
14B
330
1F
100
AcDbEntity
  8
1
100
AcDbEllipse
 10
267.785475
 20
243.760767
 30
0.0
 11
-9.658579005693484
 21
-14.40031153934167
 31
0.0
210
0.0
220
0.0
230
0.9999999999999998
 40
0.203891
 41
1.330874957276207
 42
1.357870647902971
  0
ELLIPSE
  5
14C
330
1F
100
AcDbEntity
  8
1
100
AcDbEllipse
 10
524.260173
 20
242.161731
 30
0.0
 11
-505.0412965259134
 21
14.78054914951482
 31
0.0
210
0.0
220
0.0
230
0.9999999999999998
 40
0.008253
 41
5.243389684600528
 42
5.248351723463478
  0
ELLIPSE
  5
14D
330
1F
100
AcDbEntity
  8
1
100
AcDbEllipse
 10
470.4932209999999
 20
243.738232
 30
0.0
 11
-477.6732229606226
 21
13.97828260519251
 31
0.0
210
0.0
220
0.0
230
0.9999999999999998
 40
0.008298
 41
5.145284139405042
 42
5.148902423731266
  0
ELLIPSE
  5
14E
330
1F
100
AcDbEntity
  8
1
100
AcDbEllipse
 10
267.762841
 20
243.731161
 30
0.0
 11
-9.66038933981822
 21
-14.40301995964702
 31
0.0
210
0.0
220
0.0
230
1.0
 40
0.203892
 41
1.363312678396156
 42
1.47540183671296
  0
ELLIPSE
  5
14F
330
1F
100
AcDbEntity
  8
1
100
AcDbEllipse
 10
269.179929
 20
243.731163
 30
0.0
 11
-2.29662579757241
 21
-14.53601965981765
 31
0.0
210
0.0
220
0.0
230
1.0
 40
0.076508
 41
1.351577910813311
 42
1.395384615431069
  0
ELLIPSE
  5
150
330
1F
100
AcDbEntity
  8
1
100
AcDbEllipse
 10
274.4864740000001
 20
245.039225
 30
0.0
 11
7.67112614271632
 21
12.86938159970293
 31
0.0
210
0.0
220
0.0
230
0.9999999999999998
 40
0.9795739999999998
 41
0.931084871957722
 42
0.9778713466251476
  0
ELLIPSE
  5
151
330
1F
100
AcDbEntity
  8
1
100
AcDbEllipse
 10
272.837563
 20
256.985595
 30
0.0
 11
2.550975729955809
 21
4.279616774592265
 31
0.0
210
0.0
220
0.0
230
0.9999999999999998
 40
0.9795739999999998
 41
1.851401492507986
 42
2.111260428043253
  0
ELLIPSE
  5
152
330
1F
100
AcDbEntity
  8
1
100
AcDbEllipse
 10
272.63948
 20
249.61503
 30
0.0
 11
5.111050936336068
 21
8.574499187147596
 31
0.0
210
0.0
220
0.0
230
1.0
 40
0.979574
 41
0.6649710871909216
 42
0.9310848719577228
  0
ELLIPSE
  5
153
330
1F
100
AcDbEntity
  8
1
100
AcDbEllipse
 10
270.166994
 20
247.007948
 30
0.0
 11
-82.95803450586252
 21
13.35209506106978
 31
0.0
210
0.0
220
0.0
230
1.0
 40
0.067386
 41
1.587418235924919
 42
1.646522880791073
  0
ELLIPSE
  5
154
330
1F
100
AcDbEntity
  8
1
100
AcDbEllipse
 10
273.971639
 20
243.633495
 30
0.0
 11
-2.272449310080953
 21
-14.38283646165725
 31
0.0
210
0.0
220
0.0
230
1.0
 40
0.076507
 41
1.638043249069479
 42
1.793088347874736
  0
ELLIPSE
  5
155
330
1F
100
AcDbEntity
  8
1
100
AcDbEllipse
 10
292.974662
 20
246.785849
 30
0.0
 11
-77.33518628579428
 21
12.44709775120389
 31
0.0
210
0.0
220
0.0
230
1.0
 40
0.067386
 41
1.310575646862915
 42
1.350038533330906
  0
ELLIPSE
  5
156
330
1F
100
AcDbEntity
  8
1
100
AcDbEllipse
 10
270.925597
 20
243.632601
 30
0.0
 11
-2.293255150163317
 21
-14.51452124719842
 31
0.0
210
0.0
220
0.0
230
0.9999999999999996
 40
0.076507
 41
1.673940135205803
 42
1.857036145775071
  0
ELLIPSE
  5
157
330
1F
100
AcDbEntity
  8
1
100
AcDbEllipse
 10
268.534135
 20
265.054218
 30
0.0
 11
12.8100316819414
 21
7.804043074436314
 31
0.0
210
0.0
220
0.0
230
1.0
 40
0.9470860000000001
 41
3.081824711975886
 42
3.084107899165899
  0
ELLIPSE
  5
158
330
1F
100
AcDbEntity
  8
1
100
AcDbEllipse
 10
267.746785
 20
230.593676
 30
0.0
 11
-15.29636980264486
 21
-0.9872751931929936
 31
0.0
210
0.0
220
0.0
230
1.0
 40
0.4822460000000001
 41
4.672153756886508
 42
4.849958447934752
  0
ELLIPSE
  5
159
330
1F
100
AcDbEntity
  8
1
100
AcDbEllipse
 10
208.049218
 20
-111.586189
 30
0.0
 11
-74.28852144523941
 21
-501.5834404609213
 31
0.0
210
0.0
220
0.0
230
1.0
 40
0.014676
 41
2.343471750272962
 42
2.346387784170287
  0
ELLIPSE
  5
15A
330
1F
100
AcDbEntity
  8
1
100
AcDbEllipse
 10
268.534135
 20
235.106926
 30
0.0
 11
-14.77682753053545
 21
2.577861154680276
 31
0.0
210
0.0
220
0.0
230
1.0
 40
0.236149
 41
5.244829794786578
 42
5.860807923575529
  0
ELLIPSE
  5
15B
330
1F
100
AcDbEntity
  8
1
100
AcDbEllipse
 10
273.732389
 20
245.333122
 30
0.0
 11
-1.473105510728561
 21
0.2827722657212611
 31
0.0
210
0.0
220
0.0
230
1.0
 40
0.4006230000000001
 41
3.225978051422231
 42
5.925784185123237
  0
ELLIPSE
  5
15C
330
1F
100
AcDbEntity
  8
1
100
AcDbEllipse
 10
273.732389
 20
245.333122
 30
0.0
 11
1.227587925607136
 21
-0.2356435547677179
 31
0.0
210
0.0
220
0.0
230
1.0
 40
0.4006230000000001
 41
0.0
 42
6.283185307179585
  0
ELLIPSE
  5
15D
330
1F
100
AcDbEntity
  8
1
100
AcDbEllipse
 10
470.66125
 20
243.732447
 30
0.0
 11
-477.9081850235571
 21
-3.558253638035088
 31
0.0
210
0.0
220
0.0
230
1.0
 40
0.029496
 41
1.134147376219355
 42
1.137764149328126
  0
ELLIPSE
  5
15E
330
1F
100
AcDbEntity
  8
1
100
AcDbEllipse
 10
272.375267
 20
253.511589
 30
0.0
 11
-2.903837615955146
 21
-16.533015714114
 31
0.0
210
0.0
220
0.0
230
0.9999999999999998
 40
0.178253
 41
6.071024213737719
 42
6.281845300504159
  0
ELLIPSE
  5
15F
330
1F
100
AcDbEntity
  8
1
100
AcDbEllipse
 10
267.277597
 20
239.479974
 30
0.0
 11
-2.69191906466372
 21
0.3132477151506994
 31
0.0
210
0.0
220
0.0
230
1.0
 40
0.537439
 41
1.883078044817081
 42
1.904243854661604
  0
ELLIPSE
  5
160
330
1F
100
AcDbEntity
  8
1
100
AcDbEllipse
 10
266.082387
 20
239.815141
 30
0.0
 11
-0.4050145540450412
 21
-1.444286402003328
 31
0.0
210
0.0
220
0.0
230
1.0
 40
0.484003
 41
0.5774850809614609
 42
0.7869902572181048
  0
ELLIPSE
  5
161
330
1F
100
AcDbEntity
  8
1
100
AcDbEllipse
 10
524.2318759999999
 20
244.129773
 30
0.0
 11
-505.0062813882948
 21
-3.759471963087725
 31
0.0
210
0.0
220
0.0
230
1.0
 40
0.029328
 41
1.034880782514309
 42
1.039843094758313
  0
ELLIPSE
  5
162
330
1F
100
AcDbEntity
  8
1
100
AcDbEllipse
 10
275.096754
 20
251.854133
 30
0.0
 11
-2.256810511005125
 21
-14.50141631876506
 31
0.0
210
0.0
220
0.0
230
1.0
 40
0.344971
 41
5.612087287566264
 42
6.043787769218174
  0
ELLIPSE
  5
163
330
1F
100
AcDbEntity
  8
1
100
AcDbEllipse
 10
280.338886
 20
273.425699
 30
0.0
 11
-5.758362251679346
 21
-37.00107205176112
 31
0.0
210
0.0
220
0.0
230
1.0
 40
0.344971
 41
6.043787769223327
 42
6.282505466387514
  0
ELLIPSE
  5
164
330
1F
100
AcDbEntity
  8
1
100
AcDbEllipse
 10
275.711503
 20
243.737701
 30
0.0
 11
-1.137941331166095
 21
-7.311983398262843
 31
0.0
210
0.0
220
0.0
230
0.9999999999999998
 40
0.344971
 41
6.282505466387116
 42
6.729144046286758
  0
ELLIPSE
  5
165
330
1F
100
AcDbEntity
  8
1
100
AcDbEllipse
 10
264.099706
 20
238.395523
 30
0.0
 11
-22.27629952060996
 21
-29.82557037964375
 31
0.0
210
0.0
220
0.0
230
1.0
 40
0.091221
 41
1.671909898155704
 42
1.703712728796
  0
ELLIPSE
  5
166
330
1F
100
AcDbEntity
  8
1
100
AcDbEllipse
 10
266.089212
 20
239.078257
 30
0.0
 11
-14.4307089478956
 21
-19.32116828283307
 31
0.0
210
0.0
220
0.0
230
0.9999999999999998
 40
0.09122
 41
1.703712691035237
 42
1.737265995333625
  0
ELLIPSE
  5
167
330
1F
100
AcDbEntity
  8
1
100
AcDbEllipse
 10
268.548472
 20
250.885011
 30
0.0
 11
-0.3335827229749725
 21
-8.307067700831607
 31
0.0
210
0.0
220
0.0
230
1.0
 40
0.177554
 41
3.710582527240537
 42
4.42775167655817
  0
ELLIPSE
  5
168
330
1F
100
AcDbEntity
  8
1
100
AcDbEllipse
 10
258.087562
 20
243.808007
 30
0.0
 11
-85.62409542827861
 21
-4.141388160555476
 31
0.0
210
0.0
220
0.0
230
1.0
 40
0.162298
 41
4.587579122271675
 42
4.71346043319501
  0
ELLIPSE
  5
169
330
1F
100
AcDbEntity
  8
1
100
AcDbEllipse
 10
268.801329
 20
264.615628
 30
0.0
 11
-11.44362830253431
 21
-6.971611813163106
 31
0.0
210
0.0
220
0.0
230
1.0
 40
0.9470860000000001
 41
6.278009420483477
 42
6.583548716728471
  0
ELLIPSE
  5
16A
330
1F
100
AcDbEntity
  8
1
100
AcDbEllipse
 10
267.397037
 20
271.725317
 30
0.0
 11
-9.634520812522726
 21
33.42154226132265
 31
0.0
210
0.0
220
0.0
230
1.0
 40
0.040318
 41
3.049947916707756
 42
3.288665613876613
  0
ELLIPSE
  5
16B
330
1F
100
AcDbEntity
  8
1
100
AcDbEllipse
 10
275.202613
 20
245.243571
 30
0.0
 11
-1.903930138409029
 21
6.60461301830569
 31
0.0
210
0.0
220
0.0
230
1.0
 40
0.040318
 41
3.288665613878156
 42
3.735304193777484
  0
ELLIPSE
  5
16C
330
1F
100
AcDbEntity
  8
1
100
AcDbEllipse
 10
278.943696
 20
227.894512
 30
0.0
 11
-10.07762835577567
 21
34.95865615004137
 31
0.0
210
0.0
220
0.0
230
0.9999999999999996
 40
0.040318
 41
5.078429296096033
 42
5.110232116515843
  0
ELLIPSE
  5
16D
330
1F
100
AcDbEntity
  8
1
100
AcDbEllipse
 10
278.026231
 20
232.796573
 30
0.0
 11
-6.528346474639909
 21
22.64642211679297
 31
0.0
210
0.0
220
0.0
230
1.0
 40
0.040318
 41
5.110232223795632
 42
5.143785500087119
  0
ELLIPSE
  5
16E
330
1F
100
AcDbEntity
  8
1
100
AcDbEllipse
 10
267.209223
 20
239.331456
 30
0.0
 11
-9.803250156046038
 21
1.881798172546676
 31
0.0
210
0.0
220
0.0
230
0.9999999999999998
 40
0.4006230000000001
 41
2.833908657433701
 42
3.100022442200499
  0
ELLIPSE
  5
16F
330
1F
100
AcDbEntity
  8
1
100
AcDbEllipse
 10
273.156035
 20
251.465973
 30
0.0
 11
-3.775949981793048
 21
13.0985312449727
 31
0.0
210
0.0
220
0.0
230
1.0
 40
0.040318
 41
2.618247435057067
 42
3.049947916707973
  0
ELLIPSE
  5
170
330
1F
100
AcDbEntity
  8
1
100
AcDbEllipse
 10
274.5054
 20
238.244404
 30
0.0
 11
-4.892898453617485
 21
0.9392239534758031
 31
0.0
210
0.0
220
0.0
230
0.9999999999999996
 40
0.4006230000000001
 41
1.653733101348167
 42
1.913592036882979
  0
ELLIPSE
  5
171
330
1F
100
AcDbEntity
  8
1
100
AcDbEllipse
 10
274.38355
 20
246.398502
 30
0.0
 11
-24.53430526333168
 21
4.709520829759295
 31
0.0
210
0.0
220
0.0
230
0.9999999999999998
 40
0.4006230000000001
 41
1.529226115405621
 42
1.653733101348169
  0
ELLIPSE
  5
172
330
1F
100
AcDbEntity
  8
1
100
AcDbEllipse
 10
274.4864740000001
 20
242.208866
 30
0.0
 11
-14.71360185847458
 21
2.824372391617549
 31
0.0
210
0.0
220
0.0
230
1.0
 40
0.4006230000000001
 41
1.21632585597138
 42
1.263112330638805
  0
ELLIPSE
  5
173
330
1F
100
AcDbEntity
  8
1
100
AcDbEllipse
 10
262.643835
 20
240.825536
 30
0.0
 11
-14.71360185847458
 21
2.824372391617549
 31
0.0
210
0.0
220
0.0
230
1.0
 40
0.4006230000000001
 41
2.787122182766248
 42
2.833908657433703
  0
ELLIPSE
  5
174
330
1F
100
AcDbEntity
  8
1
100
AcDbEllipse
 10
272.63948
 20
240.61951
 30
0.0
 11
-9.803250156046038
 21
1.881798172546676
 31
0.0
210
0.0
220
0.0
230
0.9999999999999998
 40
0.4006230000000001
 41
1.263112330638805
 42
1.529226115405606
  0
ELLIPSE
  5
175
330
1F
100
AcDbEntity
  8
1
100
AcDbEllipse
 10
261.686226
 20
231.655812
 30
0.0
 11
-6.023194122108758
 21
-38.70278721387107
 31
0.0
210
0.0
220
0.0
230
0.9999999999999998
 40
0.344971
 41
1.789083619837008
 42
1.820886460284936
  0
ELLIPSE
  5
176
330
1F
100
AcDbEntity
  8
1
100
AcDbEllipse
 10
266.767212
 20
234.320307
 30
0.0
 11
-3.901860852645058
 21
-25.07189000730608
 31
0.0
210
0.0
220
0.0
230
1.0
 40
0.344971
 41
1.820886508042578
 42
1.854439806903303
  0
ELLIPSE
  5
177
330
1F
100
AcDbEntity
  8
1
100
AcDbEllipse
 10
272.15043
 20
253.779154
 30
0.0
 11
0.0511532244653641
 21
0.0858166523992167
 31
0.0
210
0.0
220
0.0
230
0.9999999999999998
 40
0.9795739999999998
 41
5.116670292681194
 42
5.96560544509208
  0
ELLIPSE
  5
178
330
1F
100
AcDbEntity
  8
1
100
AcDbEllipse
 10
271.808763
 20
253.478424
 30
0.0
 11
0.2846651922511066
 21
0.4775654733185064
 31
0.0
210
0.0
220
0.0
230
1.0
 40
0.9795739999999998
 41
5.965605445092027
 42
6.885729018261861
  0
ELLIPSE
  5
179
330
1F
100
AcDbEntity
  8
1
100
AcDbEllipse
 10
271.783667
 20
253.9308220000001
 30
0.0
 11
0.0511532244653641
 21
0.0858166523992167
 31
0.0
210
0.0
220
0.0
230
1.0
 40
0.9795739999999998
 41
0.6025437110822307
 42
1.451478863493125
  0
ELLIPSE
  5
17A
330
1F
100
AcDbEntity
  8
1
100
AcDbEllipse
 10
271.628913
 20
254.050757
 30
0.0
 11
0.0511532244653642
 21
0.0858166523992168
 31
0.0
210
0.0
220
0.0
230
0.9999999999999998
 40
0.979574
 41
3.220537589073805
 42
4.593071517082998
  0
ELLIPSE
  5
17B
330
1F
100
AcDbEntity
  8
1
100
AcDbEllipse
 10
271.831435
 20
254.459325
 30
0.0
 11
0.2846651922511068
 21
0.4775654733185065
 31
0.0
210
0.0
220
0.0
230
0.9999999999999998
 40
0.9795739999999998
 41
2.300414015903923
 42
3.22053758907379
  0
ELLIPSE
  5
17C
330
1F
100
AcDbEntity
  8
1
100
AcDbEllipse
 10
271.389723
 20
254.368702
 30
0.0
 11
0.0511532244653641
 21
0.0858166523992167
 31
0.0
210
0.0
220
0.0
230
1.0
 40
0.9795739999999998
 41
0.9278800878948095
 42
2.300414015903936
  0
ELLIPSE
  5
17D
330
1F
100
AcDbEntity
  8
1
100
AcDbEllipse
 10
271.316498
 20
254.55181
 30
0.0
 11
0.0511532244653641
 21
0.0858166523992167
 31
0.0
210
0.0
220
0.0
230
0.9999999999999998
 40
0.9795739999999998
 41
4.069472741484603
 42
4.918407893895486
  0
ELLIPSE
  5
17E
330
1F
100
AcDbEntity
  8
1
100
AcDbEllipse
 10
270.893097
 20
254.695578
 30
0.0
 11
0.2846651922511066
 21
0.4775654733185064
 31
0.0
210
0.0
220
0.0
230
1.0
 40
0.9795739999999998
 41
4.918407893895428
 42
5.838531467065282
  0
ELLIPSE
  5
17F
330
1F
100
AcDbEntity
  8
1
100
AcDbEllipse
 10
271.26897
 20
254.95084
 30
0.0
 11
0.0511532244653641
 21
0.0858166523992167
 31
0.0
210
0.0
220
0.0
230
1.0
 40
0.9795739999999998
 41
5.838531467065304
 42
6.687466619476082
  0
ELLIPSE
  5
180
330
1F
100
AcDbEntity
  8
1
100
AcDbEllipse
 10
271.296894
 20
255.148058
 30
0.0
 11
0.0511532244653642
 21
0.0858166523992168
 31
0.0
210
0.0
220
0.0
230
0.9999999999999998
 40
0.979574
 41
2.17334003787718
 42
3.54587396588631
  0
ELLIPSE
  5
181
330
1F
100
AcDbEntity
  8
1
100
AcDbEllipse
 10
271.7454029999999
 20
255.181618
 30
0.0
 11
0.2846651922511068
 21
0.4775654733185065
 31
0.0
210
0.0
220
0.0
230
0.9999999999999998
 40
0.9795739999999998
 41
1.253216464707336
 42
2.173340037877191
  0
ELLIPSE
  5
182
330
1F
100
AcDbEntity
  8
1
100
AcDbEllipse
 10
271.453764
 20
255.521253
 30
0.0
 11
0.0511532244653641
 21
0.0858166523992167
 31
0.0
210
0.0
220
0.0
230
1.0
 40
0.9795739999999998
 41
6.163867843877822
 42
7.536401771886942
  0
ELLIPSE
  5
183
330
1F
100
AcDbEntity
  8
1
100
AcDbEllipse
 10
271.575356
 20
255.679736
 30
0.0
 11
0.0511532244653641
 21
0.0858166523992167
 31
0.0
210
0.0
220
0.0
230
0.9999999999999998
 40
0.9795739999999998
 41
3.022275190287949
 42
3.871210342698752
  0
ELLIPSE
  5
184
330
1F
100
AcDbEntity
  8
1
100
AcDbEllipse
 10
271.493623
 20
256.124234
 30
0.0
 11
0.2846651922511066
 21
0.4775654733185064
 31
0.0
210
0.0
220
0.0
230
1.0
 40
0.9795739999999998
 41
3.871210342698841
 42
4.791333915868703
  0
ELLIPSE
  5
185
330
1F
100
AcDbEntity
  8
1
100
AcDbEllipse
 10
271.89459
 20
255.927098
 30
0.0
 11
0.0511532244653641
 21
0.0858166523992167
 31
0.0
210
0.0
220
0.0
230
1.0
 40
0.9795739999999998
 41
4.791333915868706
 42
5.640269068279494
  0
ELLIPSE
  5
186
330
1F
100
AcDbEntity
  8
1
100
AcDbEllipse
 10
272.077269
 20
256.004382
 30
0.0
 11
0.0511532244653642
 21
0.0858166523992168
 31
0.0
210
0.0
220
0.0
230
0.9999999999999998
 40
0.979574
 41
1.126142486680596
 42
2.498676414689743
  0
ELLIPSE
  5
187
330
1F
100
AcDbEntity
  8
1
100
AcDbEllipse
 10
272.323256
 20
255.629374
 30
0.0
 11
0.2846651922511068
 21
0.4775654733185065
 31
0.0
210
0.0
220
0.0
230
0.9999999999999998
 40
0.9795739999999998
 41
0.2060189135107346
 42
1.126142486680587
  0
ELLIPSE
  5
188
330
1F
100
AcDbEntity
  8
1
100
AcDbEllipse
 10
272.473329
 20
256.059631
 30
0.0
 11
0.0511532244653641
 21
0.0858166523992167
 31
0.0
210
0.0
220
0.0
230
1.0
 40
0.9795739999999998
 41
5.116670292681205
 42
6.489204220690375
  0
ELLIPSE
  5
189
330
1F
100
AcDbEntity
  8
1
100
AcDbEllipse
 10
272.668146
 20
256.035006
 30
0.0
 11
0.0511532244653641
 21
0.0858166523992167
 31
0.0
210
0.0
220
0.0
230
0.9999999999999998
 40
0.9795739999999998
 41
1.975077639091401
 42
2.824012791502243
  0
ELLIPSE
  5
18A
330
1F
100
AcDbEntity
  8
1
100
AcDbEllipse
 10
273.009813
 20
256.335736
 30
0.0
 11
0.2846651922511066
 21
0.4775654733185064
 31
0.0
210
0.0
220
0.0
230
1.0
 40
0.9795739999999998
 41
2.824012791502218
 42
3.744136364672086
  0
ELLIPSE
  5
18B
330
1F
100
AcDbEntity
  8
1
100
AcDbEllipse
 10
272.409288
 20
254.90708
 30
0.0
 11
-0.8448248181055021
 21
-1.417311196143248
 31
0.0
210
0.0
220
0.0
230
1.0
 40
0.979574
 41
0.0
 42
6.283185307179585
  0
ELLIPSE
  5
18C
330
1F
100
AcDbEntity
  8
1
100
AcDbEllipse
 10
272.236997
 20
239.296525
 30
0.0
 11
-4.892898453617485
 21
0.9392239534758031
 31
0.0
210
0.0
220
0.0
230
0.9999999999999996
 40
0.4006230000000001
 41
3.224529428143064
 42
3.259025671692711
  0
ELLIPSE
  5
18D
330
1F
100
AcDbEntity
  8
1
100
AcDbEllipse
 10
252.537973
 20
242.401996
 30
0.0
 11
-24.53430526333168
 21
4.709520829759295
 31
0.0
210
0.0
220
0.0
230
0.9999999999999998
 40
0.4006230000000001
 41
3.100022442200517
 42
3.224529428143066
  0
ELLIPSE
  5
18E
330
1F
100
AcDbEntity
  8
1
100
AcDbEllipse
 10
292.536587
 20
234.469398
 30
0.0
 11
-24.53430526333168
 21
4.709520829759295
 31
0.0
210
0.0
220
0.0
230
0.9999999999999998
 40
0.4006230000000001
 41
0.0784351087898578
 42
0.0829367745532741
  0
ELLIPSE
  5
18F
330
1F
100
AcDbEntity
  8
1
100
AcDbEllipse
 10
272.837563
 20
237.57487
 30
0.0
 11
-4.892898453617485
 21
0.9392239534758031
 31
0.0
210
0.0
220
0.0
230
0.9999999999999996
 40
0.4006230000000001
 41
0.0829367745532734
 42
0.3427957100885397
  0
ELLIPSE
  5
190
330
1F
100
AcDbEntity
  8
1
100
AcDbEllipse
 10
272.599286
 20
254.793827
 30
0.0
 11
1.075231586679708
 21
1.803850613273239
 31
0.0
210
0.0
220
0.0
230
1.0
 40
0.9795739999999998
 41
4.264218564716213
 42
5.902068402437476
  0
ELLIPSE
  5
191
330
1F
100
AcDbEntity
  8
1
100
AcDbEllipse
 10
272.599286
 20
254.793827
 30
0.0
 11
1.075231586679708
 21
1.803850613273239
 31
0.0
210
0.0
220
0.0
230
1.0
 40
0.9795739999999998
 41
5.902068402437482
 42
6.283185307179585
  0
ELLIPSE
  5
192
330
1F
100
AcDbEntity
  8
1
100
AcDbEllipse
 10
272.440773
 20
254.888313
 30
0.0
 11
-1.075231586679729
 21
-1.803850613273225
 31
0.0
210
0.0
220
0.0
230
0.9999999999999998
 40
0.9795739999999998
 41
2.760476009406095
 42
6.218584303289897
  0
ELLIPSE
  5
193
330
1F
100
AcDbEntity
  8
1
100
AcDbEllipse
 10
272.440773
 20
254.888313
 30
0.0
 11
-1.075231586679729
 21
-1.803850613273225
 31
0.0
210
0.0
220
0.0
230
0.9999999999999998
 40
0.9795739999999998
 41
1.046049962373725
 42
2.760476009406093
  0
ELLIPSE
  5
194
330
1F
100
AcDbEntity
  8
1
100
AcDbEllipse
 10
273.034908
 20
255.883338
 30
0.0
 11
0.0511532244653641
 21
0.0858166523992167
 31
0.0
210
0.0
220
0.0
230
1.0
 40
0.9795739999999998
 41
3.744136364672103
 42
4.593071517082879
  0
ELLIPSE
  5
195
330
1F
100
AcDbEntity
  8
1
100
AcDbEllipse
 10
273.189662
 20
255.763404
 30
0.0
 11
0.0511532244653642
 21
0.0858166523992168
 31
0.0
210
0.0
220
0.0
230
0.9999999999999998
 40
0.979574
 41
0.0789449354840086
 42
1.451478863493193
  0
ELLIPSE
  5
196
330
1F
100
AcDbEntity
  8
1
100
AcDbEllipse
 10
272.987141
 20
255.354836
 30
0.0
 11
0.2846651922511068
 21
0.4775654733185065
 31
0.0
210
0.0
220
0.0
230
0.9999999999999998
 40
0.9795739999999998
 41
5.442006669493729
 42
6.362130242663567
  0
ELLIPSE
  5
197
330
1F
100
AcDbEntity
  8
1
100
AcDbEllipse
 10
273.428853
 20
255.445458
 30
0.0
 11
0.0511532244653641
 21
0.0858166523992167
 31
0.0
210
0.0
220
0.0
230
1.0
 40
0.9795739999999998
 41
4.069472741484718
 42
5.442006669493653
  0
ELLIPSE
  5
198
330
1F
100
AcDbEntity
  8
1
100
AcDbEllipse
 10
273.502078
 20
255.26235
 30
0.0
 11
0.0511532244653641
 21
0.0858166523992167
 31
0.0
210
0.0
220
0.0
230
0.9999999999999998
 40
0.9795739999999998
 41
0.9278800878949034
 42
1.776815240305642
  0
ELLIPSE
  5
199
330
1F
100
AcDbEntity
  8
1
100
AcDbEllipse
 10
273.925478
 20
255.118583
 30
0.0
 11
0.2846651922511066
 21
0.4775654733185064
 31
0.0
210
0.0
220
0.0
230
1.0
 40
0.9795739999999998
 41
1.776815240305641
 42
2.696938813475489
  0
ELLIPSE
  5
19A
330
1F
100
AcDbEntity
  8
1
100
AcDbEllipse
 10
273.549606
 20
254.86332
 30
0.0
 11
0.0511532244653641
 21
0.0858166523992167
 31
0.0
210
0.0
220
0.0
230
1.0
 40
0.9795739999999998
 41
2.696938813475528
 42
3.545873965886304
  0
ELLIPSE
  5
19B
330
1F
100
AcDbEntity
  8
1
100
AcDbEllipse
 10
273.521681
 20
254.666102
 30
0.0
 11
0.0511532244653642
 21
0.0858166523992168
 31
0.0
210
0.0
220
0.0
230
0.9999999999999998
 40
0.979574
 41
5.314932691466954
 42
6.687466619476231
  0
ELLIPSE
  5
19C
330
1F
100
AcDbEntity
  8
1
100
AcDbEllipse
 10
273.073173
 20
254.632542
 30
0.0
 11
0.2846651922511068
 21
0.4775654733185065
 31
0.0
210
0.0
220
0.0
230
0.9999999999999998
 40
0.9795739999999998
 41
4.394809118297133
 42
5.314932691466973
  0
ELLIPSE
  5
19D
330
1F
100
AcDbEntity
  8
1
100
AcDbEllipse
 10
273.364812
 20
254.292908
 30
0.0
 11
0.0511532244653641
 21
0.0858166523992167
 31
0.0
210
0.0
220
0.0
230
1.0
 40
0.9795739999999998
 41
3.022275190288062
 42
4.394809118297036
  0
ELLIPSE
  5
19E
330
1F
100
AcDbEntity
  8
1
100
AcDbEllipse
 10
273.24322
 20
254.134424
 30
0.0
 11
0.0511532244653641
 21
0.0858166523992167
 31
0.0
210
0.0
220
0.0
230
0.9999999999999998
 40
0.9795739999999998
 41
6.163867843877811
 42
7.012802996288572
  0
ELLIPSE
  5
19F
330
1F
100
AcDbEntity
  8
1
100
AcDbEllipse
 10
273.324953
 20
253.689927
 30
0.0
 11
0.2846651922511066
 21
0.4775654733185064
 31
0.0
210
0.0
220
0.0
230
1.0
 40
0.9795739999999998
 41
0.7296176891090353
 42
1.649741262278896
  0
ELLIPSE
  5
1A0
330
1F
100
AcDbEntity
  8
1
100
AcDbEllipse
 10
272.923986
 20
253.887062
 30
0.0
 11
0.0511532244653641
 21
0.0858166523992167
 31
0.0
210
0.0
220
0.0
230
1.0
 40
0.9795739999999998
 41
1.649741262278912
 42
2.498676414689801
  0
ELLIPSE
  5
1A1
330
1F
100
AcDbEntity
  8
1
100
AcDbEllipse
 10
272.741307
 20
253.809779
 30
0.0
 11
0.0511532244653642
 21
0.0858166523992168
 31
0.0
210
0.0
220
0.0
230
0.9999999999999998
 40
0.979574
 41
4.267735140270422
 42
5.640269068279536
  0
ELLIPSE
  5
1A2
330
1F
100
AcDbEntity
  8
1
100
AcDbEllipse
 10
272.495319
 20
254.184787
 30
0.0
 11
0.2846651922511068
 21
0.4775654733185065
 31
0.0
210
0.0
220
0.0
230
0.9999999999999998
 40
0.9795739999999998
 41
3.347611567100524
 42
4.267735140270374
  0
ELLIPSE
  5
1A3
330
1F
100
AcDbEntity
  8
1
100
AcDbEllipse
 10
272.345247
 20
253.75453
 30
0.0
 11
0.0511532244653641
 21
0.0858166523992167
 31
0.0
210
0.0
220
0.0
230
1.0
 40
0.9795739999999998
 41
1.975077639091393
 42
3.347611567100582
  0
SPLINE
  5
1A6
330
1F
100
AcDbEntity
  8
1
100
AcDbSpline
210
0.0
220
0.0
230
1.0
 70
     8
 71
     3
 72
    18
 73
    14
 74
     0
 42
0.000000001
 43
0.0000000001
 40
0.0
 40
0.0
 40
0.0
 40
0.0
 40
0.2499999999999786
 40
0.2499999999999786
 40
0.3749999999999679
 40
0.3749999999999679
 40
0.4999999999999573
 40
0.4999999999999573
 40
0.7499999999999759
 40
0.7499999999999759
 40
0.87499999999999
 40
0.87499999999999
 40
1.0
 40
1.0
 40
1.0
 40
1.0
 10
276.9692774083109
 20
251.7755798666882
 30
0.0
 10
276.9614740774523
 20
251.7488491524878
 30
0.0
 10
276.9510832030395
 20
251.7233491782455
 30
0.0
 10
276.931763084402
 20
251.6868752190332
 30
0.0
 10
276.9246956617279
 20
251.6750156498484
 30
0.0
 10
276.9092690486164
 20
251.6519109508918
 30
0.0
 10
276.9009299891238
 20
251.6407127388337
 30
0.0
 10
276.8745537136498
 20
251.6088108817985
 30
0.0
 10
276.8550056713234
 20
251.589523645337
 30
0.0
 10
276.822713613898
 20
251.5635882487103
 30
0.0
 10
276.8114108991387
 20
251.5554262999478
 30
0.0
 10
276.7881553697906
 20
251.5403998895111
 30
0.0
 10
276.7761681572097
 20
251.5335021564996
 30
0.0
 10
276.7638188265135
 20
251.527224506641
 30
0.0
  0
SPLINE
  5
1A7
330
1F
100
AcDbEntity
  8
1
100
AcDbSpline
210
0.0
220
0.0
230
1.0
 70
     8
 71
     3
 72
     8
 73
     4
 74
     0
 42
0.000000001
 43
0.0000000001
 40
0.0
 40
0.0
 40
0.0
 40
0.0
 40
1.0
 40
1.0
 40
1.0
 40
1.0
 10
276.7562513026772
 20
240.4596551104967
 30
0.0
 10
276.7587869399934
 20
240.459318615954
 30
0.0
 10
276.7613097034566
 20
240.4589735514016
 30
0.0
 10
276.7638188265134
 20
240.458620047444
 30
0.0
  0
SPLINE
  5
1A8
330
1F
100
AcDbEntity
  8
1
100
AcDbSpline
210
0.0
220
0.0
230
1.0
 70
     8
 71
     3
 72
    10
 73
     6
 74
     0
 42
0.000000001
 43
0.0000000001
 40
0.0
 40
0.0
 40
0.0
 40
0.0
 40
0.3601065784737263
 40
0.7159894226563375
 40
1.0
 40
1.0
 40
1.0
 40
1.0
 10
276.9716939752908
 20
240.3384453290635
 30
0.0
 10
276.968234697934
 20
240.2686504048737
 30
0.0
 10
276.9613567175094
 20
240.1298791897328
 30
0.0
 10
276.9515380039756
 20
239.9360565774968
 30
0.0
 10
276.9451708352085
 20
239.8120289064875
 30
0.0
 10
276.942320730722
 20
239.7569799021918
 30
0.0
  0
SPLINE
  5
1A9
330
1F
100
AcDbEntity
  8
1
100
AcDbSpline
210
0.0
220
0.0
230
1.0
 70
     8
 71
     3
 72
     8
 73
     4
 74
     0
 42
0.000000001
 43
0.0000000001
 40
0.0
 40
0.0
 40
0.0
 40
0.0
 40
1.0
 40
1.0
 40
1.0
 40
1.0
 10
276.9692774083109
 20
240.3432108876424
 30
0.0
 10
276.9701157436306
 20
240.3416234203382
 30
0.0
 10
276.9709232388243
 20
240.3400347205532
 30
0.0
 10
276.9716995301646
 20
240.3384453491952
 30
0.0
  0
SPLINE
  5
1AA
330
1F
100
AcDbEntity
  8
1
100
AcDbSpline
210
0.0
220
0.0
230
1.0
 70
     8
 71
     3
 72
    18
 73
    14
 74
     0
 42
0.000000001
 43
0.0000000001
 40
0.0
 40
0.0
 40
0.0
 40
0.0
 40
0.2500000000000288
 40
0.2500000000000288
 40
0.3750000000000402
 40
0.3750000000000402
 40
0.5000000000000516
 40
0.5000000000000516
 40
0.7500000000000277
 40
0.7500000000000277
 40
0.8750000000000138
 40
0.8750000000000138
 40
1.0
 40
1.0
 40
1.0
 40
1.0
 10
276.9692774083109
 20
240.3432108876424
 30
0.0
 10
276.9614740774523
 20
240.3579872334678
 30
0.0
 10
276.9510832030395
 20
240.3715972339087
 30
0.0
 10
276.931763084402
 20
240.3903310308137
 30
0.0
 10
276.9246956617279
 20
240.3962931273316
 30
0.0
 10
276.9092690486164
 20
240.4076358281328
 30
0.0
 10
276.9009299891238
 20
240.4129915593315
 30
0.0
 10
276.8745537136498
 20
240.4278185327844
 30
0.0
 10
276.8550056713234
 20
240.4361906752706
 30
0.0
 10
276.822713613898
 20
240.4464609458495
 30
0.0
 10
276.8114108991387
 20
240.4495054941267
 30
0.0
 10
276.7881553697906
 20
240.4547079462233
 30
0.0
 10
276.7761681572097
 20
240.4568801816918
 30
0.0
 10
276.7638188265135
 20
240.458620047444
 30
0.0
  0
SPLINE
  5
1AB
330
1F
100
AcDbEntity
  8
1
100
AcDbSpline
210
0.0
220
0.0
230
1.0
 70
     8
 71
     3
 72
     8
 73
     4
 74
     0
 42
0.000000001
 43
0.0000000001
 40
0.0
 40
0.0
 40
0.0
 40
0.0
 40
1.0
 40
1.0
 40
1.0
 40
1.0
 10
276.755464440743
 20
240.4456647963259
 30
0.0
 10
276.755726459648
 20
240.4503281071983
 30
0.0
 10
276.7559884670428
 20
240.45499141951
 30
0.0
 10
276.7562504744376
 20
240.4596547318218
 30
0.0
  0
SPLINE
  5
1AC
330
1F
100
AcDbEntity
  8
1
100
AcDbSpline
210
0.0
220
0.0
230
1.0
 70
     8
 71
     3
 72
     8
 73
     4
 74
     0
 42
0.000000001
 43
0.0000000001
 40
0.0
 40
0.0
 40
0.0
 40
0.0
 40
1.0
 40
1.0
 40
1.0
 40
1.0
 10
275.8041409861028
 20
259.527751573955
 30
0.0
 10
275.8013134187387
 20
259.5285404318806
 30
0.0
 10
275.7984752567885
 20
259.5293008286475
 30
0.0
 10
275.795627478213
 20
259.5300324236994
 30
0.0
  0
SPLINE
  5
1AD
330
1F
100
AcDbEntity
  8
1
100
AcDbSpline
210
0.0
220
0.0
230
1.0
 70
     8
 71
     3
 72
    18
 73
    14
 74
     0
 42
0.000000001
 43
0.0000000001
 40
0.0
 40
0.0
 40
0.0
 40
0.0
 40
0.2500000000000062
 40
0.2500000000000062
 40
0.3750000000000092
 40
0.3750000000000092
 40
0.5000000000000124
 40
0.5000000000000124
 40
0.7500000000000183
 40
0.7500000000000183
 40
0.8750000000000092
 40
0.8750000000000092
 40
1.0
 40
1.0
 40
1.0
 40
1.0
 10
275.8041409861028
 20
259.527751573955
 30
0.0
 10
275.8304603396516
 20
259.5204087849173
 30
0.0
 10
275.8555171510315
 20
259.5104163115255
 30
0.0
 10
275.8912803341536
 20
259.4916047109613
 30
0.0
 10
275.9028952444106
 20
259.4846918214587
 30
0.0
 10
275.9254946887896
 20
259.4695435017317
 30
0.0
 10
275.936433137931
 20
259.4613274838467
 30
0.0
 10
275.9675497548537
 20
259.4352657947587
 30
0.0
 10
275.9863000812817
 20
259.4158585538192
 30
0.0
 10
276.0114098623934
 20
259.3836733010091
 30
0.0
 10
276.0192923117123
 20
259.3723885244768
 30
0.0
 10
276.0337619530084
 20
259.3491323114218
 30
0.0
 10
276.0403814784037
 20
259.3371267106934
 30
0.0
 10
276.0463811122426
 20
259.324740757286
 30
0.0
  0
SPLINE
  5
1AE
330
1F
100
AcDbEntity
  8
1
100
AcDbSpline
210
0.0
220
0.0
230
1.0
 70
     8
 71
     3
 72
     8
 73
     4
 74
     0
 42
0.000000001
 43
0.0000000001
 40
0.0
 40
0.0
 40
0.0
 40
0.0
 40
1.0
 40
1.0
 40
1.0
 40
1.0
 10
276.0499599167529
 20
259.3171572536199
 30
0.0
 10
276.0487931942165
 20
259.3196961007873
 30
0.0
 10
276.0476001110676
 20
259.3222241932661
 30
0.0
 10
276.0463811122426
 20
259.3247407572859
 30
0.0
  0
SPLINE
  5
1AF
330
1F
100
AcDbEntity
  8
1
100
AcDbSpline
210
0.0
220
0.0
230
1.0
 70
     8
 71
     3
 72
     8
 73
     4
 74
     0
 42
0.000000001
 43
0.0000000001
 40
0.0
 40
0.0
 40
0.0
 40
0.0
 40
1.0
 40
1.0
 40
1.0
 40
1.0
 10
276.7562513026772
 20
251.5234742759587
 30
0.0
 10
276.7587869399934
 20
251.524698790152
 30
0.0
 10
276.7613097034565
 20
251.525949020836
 30
0.0
 10
276.7638188265134
 20
251.5272245066409
 30
0.0
  0
SPLINE
  5
1B0
330
1F
100
AcDbEntity
  8
1
100
AcDbSpline
210
0.0
220
0.0
230
1.0
 70
     8
 71
     3
 72
     8
 73
     4
 74
     0
 42
0.000000001
 43
0.0000000001
 40
0.0
 40
0.0
 40
0.0
 40
0.0
 40
1.0
 40
1.0
 40
1.0
 40
1.0
 10
276.9692774083109
 20
251.7755798666882
 30
0.0
 10
276.9701157436306
 20
251.7784516277657
 30
0.0
 10
276.9709232388243
 20
251.781332821788
 30
0.0
 10
276.9716995301646
 20
251.7842224525079
 30
0.0
  0
SPLINE
  5
1B1
330
1F
100
AcDbEntity
  8
1
100
AcDbSpline
210
0.0
220
0.0
230
1.0
 70
     8
 71
     3
 72
    71
 73
    67
 74
     0
 42
0.000000001
 43
0.0000000001
 40
0.0
 40
0.0
 40
0.0
 40
0.0
 40
0.06250000000002
 40
0.06250000000002
 40
0.0937500000000302
 40
0.0937500000000302
 40
0.1093750000000351
 40
0.1093750000000351
 40
0.1250000000000401
 40
0.1250000000000401
 40
0.1875000000000593
 40
0.1875000000000593
 40
0.203125000000063
 40
0.203125000000063
 40
0.2187500000000667
 40
0.2187500000000667
 40
0.2500000000000701
 40
0.2812500000000736
 40
0.2812500000000736
 40
0.2968750000000753
 40
0.2968750000000753
 40
0.3046875000000761
 40
0.3046875000000761
 40
0.3125000000000769
 40
0.3125000000000769
 40
0.3750000000000789
 40
0.3750000000000789
 40
0.390625000000077
 40
0.390625000000077
 40
0.4062500000000753
 40
0.4062500000000753
 40
0.4375000000000757
 40
0.4375000000000757
 40
0.4531250000000758
 40
0.4531250000000758
 40
0.4687500000000758
 40
0.4687500000000758
 40
0.5000000000000764
 40
0.5000000000000764
 40
0.5625000000000773
 40
0.5625000000000773
 40
0.5781250000000771
 40
0.5781250000000771
 40
0.5937500000000769
 40
0.5937500000000769
 40
0.6250000000000733
 40
0.6250000000000733
 40
0.6875000000000627
 40
0.6875000000000627
 40
0.7187500000000574
 40
0.7187500000000574
 40
0.734375000000055
 40
0.734375000000055
 40
0.7500000000000525
 40
0.7500000000000525
 40
0.8125000000000394
 40
0.8125000000000394
 40
0.8750000000000264
 40
0.8750000000000264
 40
0.9375000000000135
 40
0.9375000000000135
 40
0.9531250000000104
 40
0.9531250000000104
 40
0.9687500000000072
 40
0.9687500000000072
 40
1.0
 40
1.0
 40
1.0
 40
1.0
 10
275.545945395704
 20
248.6409479114076
 30
0.0
 10
275.5133559982351
 20
248.7264002183357
 30
0.0
 10
275.4745792542752
 20
248.8085289278887
 30
0.0
 10
275.4057152011707
 20
248.9261423821503
 30
0.0
 10
275.3809690626596
 20
248.9644129665423
 30
0.0
 10
275.3408765962881
 20
249.0202919398279
 30
0.0
 10
275.3270159582028
 20
249.0386633342947
 30
0.0
 10
275.29824015319
 20
249.0748686665433
 30
0.0
 10
275.2833231246428
 20
249.0926979437195
 30
0.0
 10
275.2068101478015
 20
249.179474417228
 30
0.0
 10
275.1388843684541
 20
249.2421674377336
 30
0.0
 10
275.0444068845937
 20
249.3111178179377
 30
0.0
 10
275.0250285297056
 20
249.3244328566192
 30
0.0
 10
274.9852561856542
 20
249.3500677464679
 30
0.0
 10
274.9648944023305
 20
249.3623595028546
 30
0.0
 10
274.9031533592376
 20
249.3971764463709
 30
0.0
 10
274.8185284979444
 20
249.4384890251787
 30
0.0
 10
274.729282944357
 20
249.4695968854971
 30
0.0
 10
274.6605583983471
 20
249.48898731373
 30
0.0
 10
274.6373512548875
 20
249.4947927631324
 30
0.0
 10
274.6020792097511
 20
249.5024868194264
 30
0.0
 10
274.5902273164379
 20
249.5048851036053
 30
0.0
 10
274.5665475856339
 20
249.509306266829
 30
0.0
 10
274.5547016410217
 20
249.5113336448731
 30
0.0
 10
274.4480344158751
 20
249.5279590954157
 30
0.0
 10
274.3528416852452
 20
249.5313360790263
 30
0.0
 10
274.2334073808337
 20
249.5221456429773
 30
0.0
 10
274.2094378971834
 20
249.5196188246329
 30
0.0
 10
274.1620154392883
 20
249.5132904794374
 30
0.0
 10
274.1385073517658
 20
249.5094881552644
 30
0.0
 10
274.0685652307525
 20
249.4962492318053
 30
0.0
 10
274.0227118442818
 20
249.4849855806431
 30
0.0
 10
273.9550167305751
 20
249.4646589074539
 30
0.0
 10
273.9326329214321
 20
249.4573101713761
 30
0.0
 10
273.888219154355
 20
249.4414899717873
 30
0.0
 10
273.8661430745618
 20
249.4329991052455
 30
0.0
 10
273.8007643112124
 20
249.4060034210641
 30
0.0
 10
273.7585664863333
 20
249.3860999198236
 30
0.0
 10
273.6357048406509
 20
249.3212227286742
 30
0.0
 10
273.5587459726354
 20
249.2711194615396
 30
0.0
 10
273.4679010859896
 20
249.2009329856295
 30
0.0
 10
273.4500021034229
 20
249.1865146355624
 30
0.0
 10
273.4147315009623
 20
249.1569296825429
 30
0.0
 10
273.3973739436537
 20
249.1417719514688
 30
0.0
 10
273.3464886055453
 20
249.0955886066281
 30
0.0
 10
273.3139968471742
 20
249.0637320754863
 30
0.0
 10
273.2204189585226
 20
248.9652179676238
 30
0.0
 10
273.1632082513945
 20
248.8956313323854
 30
0.0
 10
273.0841234206515
 20
248.7860255560374
 30
0.0
 10
273.0588900339163
 20
248.7486148662201
 30
0.0
 10
273.022649327258
 20
248.6912333213777
 30
0.0
 10
273.0108375812506
 20
248.6718950364124
 30
0.0
 10
272.9877400890331
 20
248.6328021689431
 30
0.0
 10
272.9764516766453
 20
248.6130404110874
 30
0.0
 10
272.9216158082708
 20
248.5137951837125
 30
0.0
 10
272.8825802594177
 20
248.4325485090362
 30
0.0
 10
272.8128793304082
 20
248.266734254736
 30
0.0
 10
272.7822217267455
 20
248.1821642243502
 30
0.0
 10
272.7285022053691
 20
248.0099149391346
 30
0.0
 10
272.7054437498225
 20
247.9222346304221
 30
0.0
 10
272.681093229669
 20
247.8107544995883
 30
0.0
 10
272.6764474700686
 20
247.7883642472231
 30
0.0
 10
272.6676004341656
 20
247.7433959817566
 30
0.0
 10
272.6633967409277
 20
247.720801717559
 30
0.0
 10
272.6514951348717
 20
247.6530231450399
 30
0.0
 10
272.6444883578956
 20
247.6077605865627
 30
0.0
 10
272.6383677019001
 20
247.56242218166
 30
0.0
  0
SPLINE
  5
1B2
330
1F
100
AcDbEntity
  8
1
100
AcDbSpline
210
0.0
220
0.0
230
1.0
 70
     8
 71
     3
 72
     8
 73
     4
 74
     0
 42
0.000000001
 43
0.0000000001
 40
0.0
 40
0.0
 40
0.0
 40
0.0
 40
1.0
 40
1.0
 40
1.0
 40
1.0
 10
257.3236795454687
 20
240.115531628005
 30
0.0
 10
257.2695956251771
 20
240.1244450419397
 30
0.0
 10
257.2151677134261
 20
240.1313264420034
 30
0.0
 10
257.1603880157094
 20
240.1361275933948
 30
0.0
  0
SPLINE
  5
1B3
330
1F
100
AcDbEntity
  8
1
100
AcDbSpline
210
0.0
220
0.0
230
1.0
 70
     8
 71
     3
 72
    12
 73
     8
 74
     0
 42
0.000000001
 43
0.0000000001
 40
0.0
 40
0.0
 40
0.0
 40
0.0
 40
0.4999999999999988
 40
0.4999999999999988
 40
0.7499999999999993
 40
0.7499999999999993
 40
1.0
 40
1.0
 40
1.0
 40
1.0
 10
268.3423432007168
 20
238.4259804914312
 30
0.0
 10
268.3016030842914
 20
238.4193022741526
 30
0.0
 10
268.2611385598569
 20
238.4110535509071
 30
0.0
 10
268.2008608330722
 20
238.3962977729433
 30
0.0
 10
268.180838190008
 20
238.390981577941
 30
0.0
 10
268.1409348360858
 20
238.379543380669
 30
0.0
 10
268.1210085611104
 20
238.3734058945942
 30
0.0
 10
268.1012780891957
 20
238.3668996348137
 30
0.0
  0
SPLINE
  5
1B4
330
1F
100
AcDbEntity
  8
1
100
AcDbSpline
210
0.0
220
0.0
230
1.0
 70
     8
 71
     3
 72
    34
 73
    30
 74
     0
 42
0.000000001
 43
0.0000000001
 40
0.0
 40
0.0
 40
0.0
 40
0.0
 40
0.1249999999999987
 40
0.1249999999999987
 40
0.2499999999999974
 40
0.2499999999999974
 40
0.2656249999999974
 40
0.2656249999999974
 40
0.2812499999999975
 40
0.3124999999999977
 40
0.3124999999999977
 40
0.3749999999999983
 40
0.3749999999999983
 40
0.4999999999999992
 40
0.4999999999999992
 40
0.5624999999999995
 40
0.5624999999999995
 40
0.6249999999999997
 40
0.6249999999999997
 40
0.6562500000000002
 40
0.6562500000000002
 40
0.6718750000000004
 40
0.6718750000000004
 40
0.6875000000000004
 40
0.75
 40
0.75
 40
0.875
 40
0.875
 40
1.0
 40
1.0
 40
1.0
 40
1.0
 10
266.4561076049894
 20
253.2933304091025
 30
0.0
 10
266.0065952842085
 20
253.3042808139636
 30
0.0
 10
265.5587726728725
 20
253.3316442887949
 30
0.0
 10
264.6666146224572
 20
253.4195140794279
 30
0.0
 10
264.2222779630623
 20
253.4800165857962
 30
0.0
 10
263.7245079640937
 20
253.5671982063882
 30
0.0
 10
263.6692365562066
 20
253.5771502559059
 30
0.0
 10
263.5590889410691
 20
253.5975240203124
 30
0.0
 10
263.3943347152799
 20
253.628810846347
 30
0.0
 10
263.2309810038768
 20
253.6622544986572
 30
0.0
 10
262.906142429285
 20
253.7319619707216
 30
0.0
 10
262.6920736574063
 20
253.7821932683455
 30
0.0
 10
262.0574055235996
 20
253.9437460831758
 30
0.0
 10
261.6443188722408
 20
254.0659237567464
 30
0.0
 10
261.040442617719
 20
254.2693389405718
 30
0.0
 10
260.8417823664824
 20
254.3405032561735
 30
0.0
 10
260.4499253596873
 20
254.4892906269625
 30
0.0
 10
260.256728332665
 20
254.5669140926444
 30
0.0
 10
259.9712260922828
 20
254.6879893467695
 30
0.0
 10
259.8767747341813
 20
254.7291209687392
 30
0.0
 10
259.7362011934163
 20
254.7919508925533
 30
0.0
 10
259.6895165865467
 20
254.8130885013121
 30
0.0
 10
259.5968999298401
 20
254.8555598740938
 30
0.0
 10
259.3670022424964
 20
254.9623338255402
 30
0.0
 10
259.145302098545
 20
255.0719404026862
 30
0.0
 10
258.6289066686787
 20
255.3393058915227
 30
0.0
 10
258.3055285643429
 20
255.5233162552356
 30
0.0
 10
257.7009753333749
 20
255.8965449850795
 30
0.0
 10
257.4198007612631
 20
256.0857860943583
 30
0.0
 10
257.1603880157085
 20
256.2740280193247
 30
0.0
  0
SPLINE
  5
1B5
330
1F
100
AcDbEntity
  8
1
100
AcDbSpline
210
0.0
220
0.0
230
1.0
 70
     8
 71
     3
 72
     8
 73
     4
 74
     0
 42
0.000000001
 43
0.0000000001
 40
0.0
 40
0.0
 40
0.0
 40
0.0
 40
1.0
 40
1.0
 40
1.0
 40
1.0
 10
270.6462248739083
 20
253.1862692042101
 30
0.0
 10
270.5022766410341
 20
253.1918017043263
 30
0.0
 10
270.35829497491
 20
253.1963986015966
 30
0.0
 10
270.2142798902277
 20
253.2000603071477
 30
0.0
  0
SPLINE
  5
1B6
330
1F
100
AcDbEntity
  8
1
100
AcDbSpline
210
0.0
220
0.0
230
1.0
 70
     8
 71
     3
 72
     8
 73
     4
 74
     0
 42
0.000000001
 43
0.0000000001
 40
0.0
 40
0.0
 40
0.0
 40
0.0
 40
1.0
 40
1.0
 40
1.0
 40
1.0
 10
270.2210633443398
 20
241.2683578093117
 30
0.0
 10
270.2188076421438
 20
241.2687593806632
 30
0.0
 10
270.2165464968163
 20
241.2691352003622
 30
0.0
 10
270.2142798902278
 20
241.2694851830406
 30
0.0
  0
SPLINE
  5
1B7
330
1F
100
AcDbEntity
  8
1
100
AcDbSpline
210
0.0
220
0.0
230
1.0
 70
     8
 71
     3
 72
     8
 73
     4
 74
     0
 42
0.000000001
 43
0.0000000001
 40
0.0
 40
0.0
 40
0.0
 40
0.0
 40
1.0
 40
1.0
 40
1.0
 40
1.0
 10
270.2210633443398
 20
241.2683578093115
 30
0.0
 10
270.3627168344241
 20
241.243139948749
 30
0.0
 10
270.5044373050314
 20
241.2192009976712
 30
0.0
 10
270.6462248739083
 20
241.1965432042988
 30
0.0
  0
SPLINE
  5
1B8
330
1F
100
AcDbEntity
  8
1
100
AcDbSpline
210
0.0
220
0.0
230
1.0
 70
     8
 71
     3
 72
     8
 73
     4
 74
     0
 42
0.000000001
 43
0.0000000001
 40
0.0
 40
0.0
 40
0.0
 40
0.0
 40
1.0
 40
1.0
 40
1.0
 40
1.0
 10
268.64649302942
 20
253.2398940133454
 30
0.0
 10
268.6357328920604
 20
253.2401672060034
 30
0.0
 10
268.6249730094256
 20
253.2404351552366
 30
0.0
 10
268.6142134839011
 20
253.2406978587484
 30
0.0
  0
SPLINE
  5
1B9
330
1F
100
AcDbEntity
  8
1
100
AcDbSpline
210
0.0
220
0.0
230
1.0
 70
     8
 71
     3
 72
     8
 73
     4
 74
     0
 42
0.000000001
 43
0.0000000001
 40
0.0
 40
0.0
 40
0.0
 40
0.0
 40
1.0
 40
1.0
 40
1.0
 40
1.0
 10
268.64649302942
 20
238.8367355454085
 30
0.0
 10
268.6357348931064
 20
238.8220945486624
 30
0.0
 10
268.6249749906569
 20
238.8074688924351
 30
0.0
 10
268.6142134839011
 20
238.7928587988684
 30
0.0
  0
SPLINE
  5
1BA
330
1F
100
AcDbEntity
  8
1
100
AcDbSpline
210
0.0
220
0.0
230
1.0
 70
     8
 71
     3
 72
    28
 73
    24
 74
     0
 42
0.000000001
 43
0.0000000001
 40
0.0
 40
0.0
 40
0.0
 40
0.0
 40
0.125000000000024
 40
0.125000000000024
 40
0.1875000000000359
 40
0.1875000000000359
 40
0.2500000000000478
 40
0.2500000000000478
 40
0.3750000000000709
 40
0.3750000000000709
 40
0.4375000000000632
 40
0.4375000000000632
 40
0.5000000000000552
 40
0.5000000000000552
 40
0.6250000000000407
 40
0.6250000000000407
 40
0.7500000000000262
 40
0.7500000000000262
 40
0.8125000000000191
 40
0.8125000000000191
 40
0.8750000000000122
 40
0.8750000000000122
 40
1.0
 40
1.0
 40
1.0
 40
1.0
 10
270.2142798902277
 20
241.2694851830401
 30
0.0
 10
270.1947782891399
 20
241.2724963904618
 30
0.0
 10
270.1753040722965
 20
241.2735233392913
 30
0.0
 10
270.1461322842393
 20
241.272198577578
 30
0.0
 10
270.136414992393
 20
241.2712759959392
 30
0.0
 10
270.1169940027353
 20
241.26844582329
 30
0.0
 10
270.1072848899978
 20
241.2665296883285
 30
0.0
 10
270.0788350237787
 20
241.2594314885914
 30
0.0
 10
270.0605408872667
 20
241.2528874618258
 30
0.0
 10
270.0340949345319
 20
241.2403916347447
 30
0.0
 10
270.0254010913289
 20
241.2357477133829
 30
0.0
 10
270.0086149464753
 20
241.2256870689414
 30
0.0
 10
270.0005306866008
 20
241.2202829438874
 30
0.0
 10
269.9771732978988
 20
241.2029874450189
 30
0.0
 10
269.9627873655455
 20
241.1900228409259
 30
0.0
 10
269.936427069888
 20
241.161180502138
 30
0.0
 10
269.924811688992
 20
241.1456827427923
 30
0.0
 10
269.909742093701
 20
241.1210742623949
 30
0.0
 10
269.9051059105786
 20
241.1126338608805
 30
0.0
 10
269.8966167852092
 20
241.0952726890319
 30
0.0
 10
269.8927530292194
 20
241.0863161622181
 30
0.0
 10
269.8825339520625
 20
241.0591387861238
 30
0.0
 10
269.8774800227202
 20
241.0405258969843
 30
0.0
 10
269.8741946965807
 20
241.0214166772642
 30
0.0
  0
SPLINE
  5
1BB
330
1F
100
AcDbEntity
  8
1
100
AcDbSpline
210
0.0
220
0.0
230
1.0
 70
     8
 71
     3
 72
    18
 73
    14
 74
     0
 42
0.000000001
 43
0.0000000001
 40
0.0
 40
0.0
 40
0.0
 40
0.0
 40
0.2500000000000043
 40
0.2500000000000043
 40
0.3749999999999994
 40
0.3749999999999994
 40
0.4999999999999948
 40
0.4999999999999948
 40
0.7499999999999849
 40
0.7499999999999849
 40
0.8749999999999925
 40
0.8749999999999925
 40
1.0
 40
1.0
 40
1.0
 40
1.0
 10
268.1052728264268
 20
258.2101941430376
 30
0.0
 10
268.1130099348269
 20
258.2369643308389
 30
0.0
 10
268.1233517101845
 20
258.2624935718367
 30
0.0
 10
268.1426221640606
 20
258.2989971350083
 30
0.0
 10
268.1496770671649
 20
258.3108641668049
 30
0.0
 10
268.1650868806885
 20
258.3339788795884
 30
0.0
 10
268.1734217452312
 20
258.3451795921542
 30
0.0
 10
268.1997980216491
 20
258.3770814486267
 30
0.0
 10
268.2193624749939
 20
258.3963589028784
 30
0.0
 10
268.2517041682482
 20
258.4222647127918
 30
0.0
 10
268.2630277428707
 20
258.4304142274959
 30
0.0
 10
268.2863330128408
 20
258.4454109887546
 30
0.0
 10
268.2983491373524
 20
258.4522914880657
 30
0.0
 10
268.3107315178045
 20
258.4585494377666
 30
0.0
  0
SPLINE
  5
1BC
330
1F
100
AcDbEntity
  8
1
100
AcDbSpline
210
0.0
220
0.0
230
1.0
 70
     8
 71
     3
 72
     8
 73
     4
 74
     0
 42
0.000000001
 43
0.0000000001
 40
0.0
 40
0.0
 40
0.0
 40
0.0
 40
1.0
 40
1.0
 40
1.0
 40
1.0
 10
268.3183091309944
 20
258.4622936544365
 30
0.0
 10
268.3157734857154
 20
258.4610691449875
 30
0.0
 10
268.3132473558755
 20
258.4598209209168
 30
0.0
 10
268.3107315178046
 20
258.4585494377666
 30
0.0
  0
SPLINE
  5
1BD
330
1F
100
AcDbEntity
  8
1
100
AcDbSpline
210
0.0
220
0.0
230
1.0
 70
     8
 71
     3
 72
     8
 73
     4
 74
     0
 42
0.000000001
 43
0.0000000001
 40
0.0
 40
0.0
 40
0.0
 40
0.0
 40
1.0
 40
1.0
 40
1.0
 40
1.0
 10
268.1052728264268
 20
258.2101941430376
 30
0.0
 10
268.1044416055855
 20
258.2073181411939
 30
0.0
 10
268.103637687849
 20
258.2044348147379
 30
0.0
 10
268.1028614261423
 20
258.2015451663558
 30
0.0
  0
SPLINE
  5
1BE
330
1F
100
AcDbEntity
  8
1
100
AcDbSpline
210
0.0
220
0.0
230
1.0
 70
     8
 71
     3
 72
    30
 73
    26
 74
     0
 42
0.000000001
 43
0.0000000001
 40
0.0
 40
0.0
 40
0.0
 40
0.0
 40
0.1249999999999985
 40
0.1249999999999985
 40
0.2499999999999969
 40
0.2499999999999969
 40
0.3749999999999954
 40
0.3749999999999954
 40
0.4374999999999955
 40
0.4374999999999955
 40
0.4999999999999957
 40
0.4999999999999957
 40
0.5624999999999956
 40
0.5624999999999956
 40
0.6249999999999956
 40
0.6249999999999956
 40
0.7500000000000013
 40
0.7500000000000013
 40
0.812500000000001
 40
0.812500000000001
 40
0.8750000000000007
 40
0.8750000000000007
 40
0.9375000000000003
 40
0.9375000000000003
 40
1.0
 40
1.0
 40
1.0
 40
1.0
 10
252.1442482849923
 20
255.181161310191
 30
0.0
 10
252.1442482849923
 20
255.15483149582
 30
0.0
 10
252.1421810638254
 20
255.1285721482339
 30
0.0
 10
252.1338293431856
 20
255.0762181844034
 30
0.0
 10
252.1275473647832
 20
255.0501232342836
 30
0.0
 10
252.110358302015
 20
254.998157403415
 30
0.0
 10
252.0994602879759
 20
254.9722854486341
 30
0.0
 10
252.0789781355557
 20
254.9337310567265
 30
0.0
 10
252.0714241090189
 20
254.9208766224064
 30
0.0
 10
252.0549654716806
 20
254.8956114968715
 30
0.0
 10
252.0460560163434
 20
254.8831802990992
 30
0.0
 10
252.0267491851624
 20
254.8587714882147
 30
0.0
 10
252.016352667781
 20
254.8467935666279
 30
0.0
 10
251.9938829922271
 20
254.8233638379768
 30
0.0
 10
251.9817800514641
 20
254.8118849113395
 30
0.0
 10
251.9427301047741
 20
254.7785701878788
 30
0.0
 10
251.9136282262058
 20
254.7582602349046
 30
0.0
 10
251.8639735912806
 20
254.7316354401588
 30
0.0
 10
251.8462649489675
 20
254.7233625244203
 30
0.0
 10
251.8095067596057
 20
254.7088477519003
 30
0.0
 10
251.790395219721
 20
254.7025533276509
 30
0.0
 10
251.7505215032493
 20
254.6921515653361
 30
0.0
 10
251.7295836055348
 20
254.6880377459265
 30
0.0
 10
251.6873702408018
 20
254.6825698306287
 30
0.0
 10
251.6659667365632
 20
254.681161310191
 30
0.0
 10
251.6442482849923
 20
254.681161310191
 30
0.0
  0
SPLINE
  5
1BF
330
1F
100
AcDbEntity
  8
1
100
AcDbSpline
210
0.0
220
0.0
230
1.0
 70
     8
 71
     3
 72
    32
 73
    28
 74
     0
 42
0.000000001
 43
0.0000000001
 40
0.0
 40
0.0
 40
0.0
 40
0.0
 40
0.0625000000000014
 40
0.0625000000000014
 40
0.1250000000000028
 40
0.1250000000000028
 40
0.1875000000000042
 40
0.1875000000000042
 40
0.2500000000000056
 40
0.2500000000000056
 40
0.3750000000000108
 40
0.3750000000000108
 40
0.4062500000000109
 40
0.4062500000000109
 40
0.4375000000000108
 40
0.4375000000000108
 40
0.5000000000000073
 40
0.5000000000000073
 40
0.6250000000000029
 40
0.6250000000000029
 40
0.6875000000000022
 40
0.6875000000000022
 40
0.7500000000000015
 40
0.7500000000000015
 40
0.8750000000000007
 40
0.8750000000000007
 40
1.0
 40
1.0
 40
1.0
 40
1.0
 10
240.6442482849923
 20
254.681161310191
 30
0.0
 10
240.6225458089613
 20
254.681161310191
 30
0.0
 10
240.6012578744558
 20
254.6825670813631
 30
0.0
 10
240.5594429057291
 20
254.6879550368462
 30
0.0
 10
240.5388990244787
 20
254.6919431262601
 30
0.0
 10
240.4986185220218
 20
254.7023869684426
 30
0.0
 10
240.4794580866003
 20
254.7086869723263
 30
0.0
 10
240.4428086789784
 20
254.7231112097045
 30
0.0
 10
240.4252895528985
 20
254.7312552170445
 30
0.0
 10
240.3751974984417
 20
254.7580238026377
 30
0.0
 10
240.3461715826781
 20
254.7782952106908
 30
0.0
 10
240.3138687065886
 20
254.8057665045687
 30
0.0
 10
240.3076121292165
 20
254.8113702561838
 30
0.0
 10
240.2954864269263
 20
254.822783728083
 30
0.0
 10
240.2896038593947
 20
254.8286078822553
 30
0.0
 10
240.2726304145392
 20
254.8462486186036
 30
0.0
 10
240.2622103997456
 20
254.8582249896107
 30
0.0
 10
240.233274027152
 20
254.8946941898307
 30
0.0
 10
240.2170596214777
 20
254.919721057864
 30
0.0
 10
240.1965372130753
 20
254.9580804144918
 30
0.0
 10
240.1903363012542
 20
254.9710052436744
 30
0.0
 10
240.1791401300615
 20
254.997106792475
 30
0.0
 10
240.1741618641966
 20
255.0102518871907
 30
0.0
 10
240.1610686160817
 20
255.0496223308078
 30
0.0
 10
240.154726383613
 20
255.07590985753
 30
0.0
 10
240.1463144484473
 20
255.1285167032421
 30
0.0
 10
240.1442482849923
 20
255.1548363383474
 30
0.0
 10
240.1442482849923
 20
255.181161310191
 30
0.0
  0
SPLINE
  5
1C0
330
1F
100
AcDbEntity
  8
1
100
AcDbSpline
210
0.0
220
0.0
230
1.0
 70
     8
 71
     3
 72
    32
 73
    28
 74
     0
 42
0.000000001
 43
0.0000000001
 40
0.0
 40
0.0
 40
0.0
 40
0.0
 40
0.0624999999999928
 40
0.0624999999999928
 40
0.1249999999999856
 40
0.1249999999999856
 40
0.1874999999999784
 40
0.1874999999999784
 40
0.2499999999999711
 40
0.2499999999999711
 40
0.3749999999999601
 40
0.3749999999999601
 40
0.4062499999999591
 40
0.4062499999999591
 40
0.437499999999958
 40
0.437499999999958
 40
0.49999999999996
 40
0.49999999999996
 40
0.6249999999999672
 40
0.6249999999999672
 40
0.6874999999999723
 40
0.6874999999999723
 40
0.7499999999999774
 40
0.7499999999999774
 40
0.8749999999999886
 40
0.8749999999999886
 40
1.0
 40
1.0
 40
1.0
 40
1.0
 10
240.6442482849923
 20
232.781161310191
 30
0.0
 10
240.6225458089613
 20
232.781161310191
 30
0.0
 10
240.6012578744557
 20
232.7797555390189
 30
0.0
 10
240.5594429057291
 20
232.7743675835357
 30
0.0
 10
240.5388990244787
 20
232.7703794941219
 30
0.0
 10
240.4986185220218
 20
232.7599356519393
 30
0.0
 10
240.4794580866003
 20
232.7536356480556
 30
0.0
 10
240.4428086789784
 20
232.7392114106774
 30
0.0
 10
240.4252895528985
 20
232.7310674033374
 30
0.0
 10
240.3751974984417
 20
232.7042988177443
 30
0.0
 10
240.3461715826781
 20
232.6840274096911
 30
0.0
 10
240.3138687065886
 20
232.6565561158132
 30
0.0
 10
240.3076121292165
 20
232.6509523641981
 30
0.0
 10
240.2954864269263
 20
232.639538892299
 30
0.0
 10
240.2896038593947
 20
232.6337147381267
 30
0.0
 10
240.2726304145392
 20
232.6160740017783
 30
0.0
 10
240.2622103997456
 20
232.6040976307713
 30
0.0
 10
240.233274027152
 20
232.5676284305512
 30
0.0
 10
240.2170596214777
 20
232.5426015625179
 30
0.0
 10
240.1965372130753
 20
232.5042422058901
 30
0.0
 10
240.1903363012542
 20
232.4913173767076
 30
0.0
 10
240.1791401300615
 20
232.465215827907
 30
0.0
 10
240.1741618641966
 20
232.4520707331912
 30
0.0
 10
240.1610686160817
 20
232.4127002895741
 30
0.0
 10
240.154726383613
 20
232.386412762852
 30
0.0
 10
240.1463144484473
 20
232.3338059171398
 30
0.0
 10
240.1442482849923
 20
232.3074862820345
 30
0.0
 10
240.1442482849923
 20
232.281161310191
 30
0.0
  0
SPLINE
  5
1C1
330
1F
100
AcDbEntity
  8
1
100
AcDbSpline
210
0.0
220
0.0
230
1.0
 70
     8
 71
     3
 72
    30
 73
    26
 74
     0
 42
0.000000001
 43
0.0000000001
 40
0.0
 40
0.0
 40
0.0
 40
0.0
 40
0.1249999999999995
 40
0.1249999999999995
 40
0.2499999999999989
 40
0.2499999999999989
 40
0.3749999999999984
 40
0.3749999999999984
 40
0.4374999999999983
 40
0.4374999999999983
 40
0.4999999999999979
 40
0.4999999999999979
 40
0.5624999999999977
 40
0.5624999999999977
 40
0.6249999999999974
 40
0.6249999999999974
 40
0.7499999999999999
 40
0.7499999999999999
 40
0.8124999999999998
 40
0.8124999999999998
 40
0.875
 40
0.875
 40
0.9375
 40
0.9375
 40
1.0
 40
1.0
 40
1.0
 40
1.0
 10
252.1442482849923
 20
232.281161310191
 30
0.0
 10
252.1442482849923
 20
232.3074911245619
 30
0.0
 10
252.1421810638254
 20
232.333750472148
 30
0.0
 10
252.1338293431856
 20
232.3861044359785
 30
0.0
 10
252.1275473647832
 20
232.4121993860984
 30
0.0
 10
252.110358302015
 20
232.464165216967
 30
0.0
 10
252.0994602879759
 20
232.4900371717478
 30
0.0
 10
252.0789781355557
 20
232.5285915636555
 30
0.0
 10
252.0714241090189
 20
232.5414459979755
 30
0.0
 10
252.0549654716806
 20
232.5667111235105
 30
0.0
 10
252.0460560163434
 20
232.5791423212828
 30
0.0
 10
252.0267491851624
 20
232.6035511321672
 30
0.0
 10
252.016352667781
 20
232.6155290537541
 30
0.0
 10
251.9938829922271
 20
232.6389587824052
 30
0.0
 10
251.9817800514641
 20
232.6504377090424
 30
0.0
 10
251.9427301047741
 20
232.6837524325031
 30
0.0
 10
251.9136282262058
 20
232.7040623854774
 30
0.0
 10
251.8639735912806
 20
232.7306871802232
 30
0.0
 10
251.8462649489675
 20
232.7389600959616
 30
0.0
 10
251.8095067596057
 20
232.7534748684816
 30
0.0
 10
251.790395219721
 20
232.7597692927311
 30
0.0
 10
251.7505215032493
 20
232.7701710550458
 30
0.0
 10
251.7295836055348
 20
232.7742848744554
 30
0.0
 10
251.6873702408018
 20
232.7797527897533
 30
0.0
 10
251.6659667365632
 20
232.781161310191
 30
0.0
 10
251.6442482849923
 20
232.781161310191
 30
0.0
  0
SPLINE
  5
1C2
330
1F
100
AcDbEntity
  8
1
100
AcDbSpline
210
0.0
220
0.0
230
1.0
 70
     8
 71
     3
 72
    31
 73
    27
 74
     0
 42
0.000000001
 43
0.0000000001
 40
0.0
 40
0.0
 40
0.0
 40
0.0
 40
0.1249999999999983
 40
0.1249999999999983
 40
0.2499999999999966
 40
0.2499999999999966
 40
0.3124999999999958
 40
0.3124999999999958
 40
0.3281249999999957
 40
0.3281249999999957
 40
0.3437499999999957
 40
0.3749999999999958
 40
0.3749999999999958
 40
0.4999999999999972
 40
0.4999999999999972
 40
0.6249999999999984
 40
0.6249999999999984
 40
0.656249999999999
 40
0.656249999999999
 40
0.6874999999999993
 40
0.6874999999999993
 40
0.7499999999999996
 40
0.7499999999999996
 40
0.8749999999999998
 40
0.8749999999999998
 40
1.0
 40
1.0
 40
1.0
 40
1.0
 10
257.1281084701899
 20
231.1828219198743
 30
0.0
 10
256.8759422178299
 20
231.3679730552636
 30
0.0
 10
256.651787483487
 20
231.5711817106285
 30
0.0
 10
256.2538520597561
 20
232.0166789755449
 30
0.0
 10
256.0800815773449
 20
232.2589572741861
 30
0.0
 10
255.8539151450014
 20
232.6542292457206
 30
0.0
 10
255.7842832158048
 20
232.7913000479236
 30
0.0
 10
255.7041575075202
 20
232.969591578704
 30
0.0
 10
255.6884633074511
 20
233.0056341210523
 30
0.0
 10
255.6578614751014
 20
233.0781790082123
 30
0.0
 10
255.6131221880119
 20
233.1877151709146
 30
0.0
 10
255.5717830254089
 20
233.2994038011289
 30
0.0
 10
255.4411716568779
 20
233.6764700280565
 30
0.0
 10
255.3595701897488
 20
233.9933646021276
 30
0.0
 10
255.2345175490083
 20
234.6577077057577
 30
0.0
 10
255.1910855465926
 20
235.0051517802955
 30
0.0
 10
255.1573752924845
 20
235.4590326611678
 30
0.0
 10
255.1516627719541
 20
235.5509182495202
 30
0.0
 10
255.1422883161561
 20
235.7356321707288
 30
0.0
 10
255.1386172639093
 20
235.8285407925813
 30
0.0
 10
255.1304902661363
 20
236.1089101551283
 30
0.0
 10
255.1289150292627
 20
236.2980135715431
 30
0.0
 10
255.1346328985715
 20
236.8718340014823
 30
0.0
 10
255.1523009453279
 20
237.2630488418613
 30
0.0
 10
255.2114601640784
 20
238.0627939804776
 30
0.0
 10
255.2529624435748
 20
238.4713239503672
 30
0.0
 10
255.3054884003608
 20
238.8887018690716
 30
0.0
  0
SPLINE
  5
1C3
330
1F
100
AcDbEntity
  8
1
100
AcDbSpline
210
0.0
220
0.0
230
1.0
 70
     8
 71
     3
 72
    38
 73
    34
 74
     0
 42
0.000000001
 43
0.0000000001
 40
0.0
 40
0.0
 40
0.0
 40
0.0
 40
0.1250000000000056
 40
0.1250000000000056
 40
0.2500000000000113
 40
0.2500000000000113
 40
0.2812500000000106
 40
0.2812500000000106
 40
0.31250000000001
 40
0.3750000000000087
 40
0.3750000000000087
 40
0.5000000000000059
 40
0.5000000000000059
 40
0.5312500000000055
 40
0.5312500000000055
 40
0.5625000000000055
 40
0.5625000000000055
 40
0.6250000000000019
 40
0.6250000000000019
 40
0.7499999999999952
 40
0.7499999999999952
 40
0.7656249999999958
 40
0.7656249999999958
 40
0.7812499999999963
 40
0.7812499999999963
 40
0.8124999999999973
 40
0.8124999999999973
 40
0.8749999999999975
 40
0.937499999999998
 40
0.937499999999998
 40
0.9687499999999987
 40
0.9687499999999987
 40
1.0
 40
1.0
 40
1.0
 40
1.0
 10
257.1281084701899
 20
240.1387021412574
 30
0.0
 10
257.024252592909
 20
240.1461678373293
 30
0.0
 10
256.9210941563784
 20
240.1460607978854
 30
0.0
 10
256.7161734940648
 20
240.1306870890058
 30
0.0
 10
256.6144102240999
 20
240.1154314628724
 30
0.0
 10
256.4881581284435
 20
240.0860508117505
 30
0.0
 10
256.46290317106
 20
240.0796389463693
 30
0.0
 10
256.4129481759049
 20
240.0658701263075
 30
0.0
 10
256.3387269144822
 20
240.043776303711
 30
0.0
 10
256.2666315454931
 20
240.0173817427345
 30
0.0
 10
256.1253186408046
 20
239.9587880721353
 30
0.0
 10
256.0349166399805
 20
239.9120459298054
 30
0.0
 10
255.9272117820324
 20
239.8430093845205
 30
0.0
 10
255.905938114032
 20
239.8286668927575
 30
0.0
 10
255.8639499160787
 20
239.7988647154808
 30
0.0
 10
255.8433438229
 20
239.7834783992062
 30
0.0
 10
255.783106933152
 20
239.7361749961009
 30
0.0
 10
255.7448793692619
 20
239.7029931397595
 30
0.0
 10
255.6360368648178
 20
239.5984982527654
 30
0.0
 10
255.5711964313612
 20
239.5222905534425
 30
0.0
 10
255.5078658844265
 20
239.4285077217987
 30
0.0
 10
255.500964096446
 20
239.4179744492743
 30
0.0
 10
255.4874362272936
 20
239.3966774417611
 30
0.0
 10
255.4808023108992
 20
239.3858995179114
 30
0.0
 10
255.4614574148357
 20
239.3534425491064
 30
0.0
 10
255.449261411145
 20
239.3315784328754
 30
0.0
 10
255.4147464848582
 20
239.2653210039335
 30
0.0
 10
255.3742452131207
 20
239.1752074872548
 30
0.0
 10
255.3447146218406
 20
239.0816133528975
 30
0.0
 10
255.3267727670887
 20
239.0100953432504
 30
0.0
 10
255.3214944104781
 20
238.9860351898129
 30
0.0
 10
255.3123733623164
 20
238.9374651246598
 30
0.0
 10
255.30855083334
 20
238.9130363501786
 30
0.0
 10
255.3054884003608
 20
238.8887018690717
 30
0.0
  0
SPLINE
  5
1C4
330
1F
100
AcDbEntity
  8
1
100
AcDbSpline
210
0.0
220
0.0
230
1.0
 70
     8
 71
     3
 72
    27
 73
    23
 74
     0
 42
0.000000001
 43
0.0000000001
 40
0.0
 40
0.0
 40
0.0
 40
0.0
 40
0.1668691960989791
 40
0.1668691960989791
 40
0.3337383921979581
 40
0.3337383921979581
 40
0.4171729902474475
 40
0.4171729902474475
 40
0.4380316397598195
 40
0.4380316397598195
 40
0.4588902892721915
 40
0.5006075882969356
 40
0.5006075882969356
 40
0.6674767843959116
 40
0.6674767843959116
 40
0.8343459804948874
 40
0.8343459804948874
 40
0.8760632795196315
 40
0.8760632795196315
 40
0.9177805785443755
 40
0.9177805785443755
 40
1.0
 40
1.0
 40
1.0
 40
1.0
 10
257.1281084701894
 20
256.2975391955695
 30
0.0
 10
256.8759422178294
 20
256.4818941443721
 30
0.0
 10
256.6517874834869
 20
256.6598116224197
 30
0.0
 10
256.2538520597561
 20
256.9965842000785
 30
0.0
 10
256.0800815773449
 20
257.1554560924733
 30
0.0
 10
255.8539151450014
 20
257.3749363306888
 30
0.0
 10
255.7842832158048
 20
257.4449578397908
 30
0.0
 10
255.7041575075202
 20
257.528067800725
 30
0.0
 10
255.6884633074511
 20
257.5444847228474
 30
0.0
 10
255.6578614751014
 20
257.57675672208
 30
0.0
 10
255.6131221880119
 20
257.6243381894089
 30
0.0
 10
255.5717830254089
 20
257.6694269809004
 30
0.0
 10
255.4411716568778
 20
257.8141240146351
 30
0.0
 10
255.3595701897488
 20
257.9119796163437
 30
0.0
 10
255.2345175490083
 20
258.0701682811508
 30
0.0
 10
255.1910855465926
 20
258.1305120472189
 30
0.0
 10
255.1573752924845
 20
258.1810841015188
 30
0.0
 10
255.1516627719542
 20
258.1899618434119
 30
0.0
 10
255.1422883161561
 20
258.2051094406768
 30
0.0
 10
255.1386172639093
 20
258.21139214705
 30
0.0
 10
255.1305691761465
 20
258.2262589043477
 30
0.0
 10
255.1289617292238
 20
258.231157401925
 30
0.0
 10
255.1307399246782
 20
258.2311613095915
 30
0.0
  0
SPLINE
  5
1C5
330
1F
100
AcDbEntity
  8
1
100
AcDbSpline
210
0.0
220
0.0
230
1.0
 70
     8
 71
     3
 72
    10
 73
     6
 74
     0
 42
0.000000001
 43
0.0000000001
 40
0.0
 40
0.0
 40
0.0
 40
0.0
 40
0.3098112371376862
 40
0.3098112371376862
 40
1.0
 40
1.0
 40
1.0
 40
1.0
 10
255.1494237031935
 20
258.2123768817559
 30
0.0
 10
255.1577253128922
 20
258.2023147981598
 30
0.0
 10
255.1686028894212
 20
258.1882167325357
 30
0.0
 10
255.2114601640784
 20
258.1297340946853
 30
0.0
 10
255.2529624435748
 20
258.0694162337016
 30
0.0
 10
255.3054884003608
 20
257.9887941972888
 30
0.0
  0
SPLINE
  5
1C6
330
1F
100
AcDbEntity
  8
1
100
AcDbSpline
210
0.0
220
0.0
230
1.0
 70
     8
 71
     3
 72
    38
 73
    34
 74
     0
 42
0.000000001
 43
0.0000000001
 40
0.0
 40
0.0
 40
0.0
 40
0.0
 40
0.1250000000000019
 40
0.1250000000000019
 40
0.2500000000000038
 40
0.2500000000000038
 40
0.2812500000000053
 40
0.2812500000000053
 40
0.3125000000000067
 40
0.3750000000000098
 40
0.3750000000000098
 40
0.5000000000000157
 40
0.5000000000000157
 40
0.5312500000000173
 40
0.5312500000000173
 40
0.5625000000000189
 40
0.5625000000000189
 40
0.6250000000000187
 40
0.6250000000000187
 40
0.7500000000000182
 40
0.7500000000000182
 40
0.7656250000000166
 40
0.7656250000000166
 40
0.7812500000000151
 40
0.7812500000000151
 40
0.812500000000012
 40
0.812500000000012
 40
0.8750000000000083
 40
0.9375000000000046
 40
0.9375000000000046
 40
0.9687500000000024
 40
0.9687500000000024
 40
1.0
 40
1.0
 40
1.0
 40
1.0
 10
257.1281084701899
 20
257.6932520577509
 30
0.0
 10
257.024252592909
 20
257.6911726196923
 30
0.0
 10
256.9210941563784
 20
257.6912025958039
 30
0.0
 10
256.7161734940648
 20
257.6954843400554
 30
0.0
 10
256.6144102240999
 20
257.6997340855908
 30
0.0
 10
256.4881581284434
 20
257.7078271697456
 30
0.0
 10
256.46290317106
 20
257.7095899475548
 30
0.0
 10
256.4129481759049
 20
257.7133652630754
 30
0.0
 10
256.3387269144822
 20
257.7194090873423
 30
0.0
 10
256.2666315454931
 20
257.7265719019564
 30
0.0
 10
256.1253186408046
 20
257.7423479609791
 30
0.0
 10
256.0349166399805
 20
257.7547906474254
 30
0.0
 10
255.9272117820324
 20
257.7727312253421
 30
0.0
 10
255.905938114032
 20
257.7764393868743
 30
0.0
 10
255.8639499160786
 20
257.7840983565202
 30
0.0
 10
255.8433438229
 20
257.7880301698742
 30
0.0
 10
255.7831069331519
 20
257.8000408566043
 30
0.0
 10
255.7448793692619
 20
257.8083661921325
 30
0.0
 10
255.6360368648178
 20
257.8341980315121
 30
0.0
 10
255.5711964313612
 20
257.8525541970857
 30
0.0
 10
255.5078658844265
 20
257.8742756413753
 30
0.0
 10
255.500964096446
 20
257.8767041387496
 30
0.0
 10
255.4874362272936
 20
257.8815906558936
 30
0.0
 10
255.4808023108992
 20
257.884051863965
 30
0.0
 10
255.4614574148356
 20
257.8914270335288
 30
0.0
 10
255.449261411145
 20
257.8963468595105
 30
0.0
 10
255.4147464848582
 20
257.9111026881351
 30
0.0
 10
255.3742453683899
 20
257.9307667326443
 30
0.0
 10
255.3447146218406
 20
257.9502903652178
 30
0.0
 10
255.3267727670887
 20
257.9648416569952
 30
0.0
 10
255.3214944104781
 20
257.9696769052426
 30
0.0
 10
255.3123733623164
 20
257.9793111729712
 30
0.0
 10
255.30855083334
 20
257.9840936720958
 30
0.0
 10
255.3054884003608
 20
257.9887941972888
 30
0.0
  0
SPLINE
  5
1C7
330
1F
100
AcDbEntity
  8
1
100
AcDbSpline
210
0.0
220
0.0
230
1.0
 70
     8
 71
     3
 72
     8
 73
     4
 74
     0
 42
0.000000001
 43
0.0000000001
 40
0.0
 40
0.0
 40
0.0
 40
0.0
 40
1.0
 40
1.0
 40
1.0
 40
1.0
 10
257.1281084701899
 20
240.1387021412574
 30
0.0
 10
257.1388751052718
 20
240.1379281800013
 30
0.0
 10
257.149634958275
 20
240.1370700421267
 30
0.0
 10
257.1603880157094
 20
240.1361275933945
 30
0.0
  0
SPLINE
  5
1C8
330
1F
100
AcDbEntity
  8
1
100
AcDbSpline
210
0.0
220
0.0
230
1.0
 70
     8
 71
     3
 72
     8
 73
     4
 74
     0
 42
0.000000001
 43
0.0000000001
 40
0.0
 40
0.0
 40
0.0
 40
0.0
 40
1.0
 40
1.0
 40
1.0
 40
1.0
 10
257.1281084701895
 20
256.2975391955695
 30
0.0
 10
257.1388331121067
 20
256.2896985714057
 30
0.0
 10
257.1495930188518
 20
256.2818613699335
 30
0.0
 10
257.1603880157085
 20
256.2740280193247
 30
0.0
  0
SPLINE
  5
1C9
330
1F
100
AcDbEntity
  8
1
100
AcDbSpline
210
0.0
220
0.0
230
1.0
 70
     8
 71
     3
 72
     8
 73
     4
 74
     0
 42
0.000000001
 43
0.0000000001
 40
0.0
 40
0.0
 40
0.0
 40
0.0
 40
1.0
 40
1.0
 40
1.0
 40
1.0
 10
275.545945395704
 20
252.9979072933088
 30
0.0
 10
273.9127071413782
 20
253.0607101399956
 30
0.0
 10
272.2794669415247
 20
253.1234972496793
 30
0.0
 10
270.6462248739083
 20
253.1862692042101
 30
0.0
  0
SPLINE
  5
1CA
330
1F
100
AcDbEntity
  8
1
100
AcDbSpline
210
0.0
220
0.0
230
1.0
 70
     8
 71
     3
 72
     8
 73
     4
 74
     0
 42
0.000000001
 43
0.0000000001
 40
0.0
 40
0.0
 40
0.0
 40
0.0
 40
1.0
 40
1.0
 40
1.0
 40
1.0
 10
267.9444285227657
 20
238.0069636901049
 30
0.0
 10
267.9250722874172
 20
238.005879493563
 30
0.0
 10
267.9057120219277
 20
238.0049009415719
 30
0.0
 10
267.8863477276244
 20
238.0040281369709
 30
0.0
  0
SPLINE
  5
1CB
330
1F
100
AcDbEntity
  8
1
100
AcDbSpline
210
0.0
220
0.0
230
1.0
 70
     8
 71
     3
 72
     8
 73
     4
 74
     0
 42
0.000000001
 43
0.0000000001
 40
0.0
 40
0.0
 40
0.0
 40
0.0
 40
1.0
 40
1.0
 40
1.0
 40
1.0
 10
257.1281084701895
 20
231.1828219198746
 30
0.0
 10
257.138834461976
 20
231.1749464427286
 30
0.0
 10
257.1495943729549
 20
231.1670898009573
 30
0.0
 10
257.1603880157085
 20
231.1592514511034
 30
0.0
  0
SPLINE
  5
1CC
330
1F
100
AcDbEntity
  8
1
100
AcDbSpline
210
0.0
220
0.0
230
1.0
 70
     8
 71
     3
 72
    33
 73
    29
 74
     0
 42
0.000000001
 43
0.0000000001
 40
0.0
 40
0.0
 40
0.0
 40
0.0
 40
0.1249999999999983
 40
0.1249999999999983
 40
0.2499999999999965
 40
0.2499999999999965
 40
0.2656249999999971
 40
0.2656249999999971
 40
0.2812499999999976
 40
0.3124999999999978
 40
0.3749999999999974
 40
0.3749999999999974
 40
0.4999999999999975
 40
0.4999999999999975
 40
0.5624999999999972
 40
0.5624999999999972
 40
0.6249999999999966
 40
0.6249999999999966
 40
0.656249999999996
 40
0.656249999999996
 40
0.671874999999996
 40
0.671874999999996
 40
0.6874999999999961
 40
0.7499999999999968
 40
0.7499999999999968
 40
0.8749999999999984
 40
0.8749999999999984
 40
1.0
 40
1.0
 40
1.0
 40
1.0
 10
266.4561076049897
 20
229.47560370117
 30
0.0
 10
266.0065952842087
 20
229.4800862761599
 30
0.0
 10
265.5587726728727
 20
229.4887499792972
 30
0.0
 10
264.6666146224574
 20
229.5157180012905
 30
0.0
 10
264.2222779630625
 20
229.5340081513783
 30
0.0
 10
263.7245079640938
 20
229.5616973292629
 30
0.0
 10
263.6692365562067
 20
229.5648738322236
 30
0.0
 10
263.5590889410692
 20
229.5714145026904
 30
0.0
 10
263.3943347152801
 20
229.5815139594124
 30
0.0
 10
263.0131768152245
 20
229.6071603190039
 30
0.0
 10
262.6920736574064
 20
229.6329331844019
 30
0.0
 10
262.0574055235998
 20
229.6902652217468
 30
0.0
 10
261.6443188722408
 20
229.7361373319696
 30
0.0
 10
261.0404426177191
 20
229.8203965151054
 30
0.0
 10
260.8417823664825
 20
229.8510731525648
 30
0.0
 10
260.4499253596873
 20
229.9184829899278
 30
0.0
 10
260.256728332665
 20
229.9552149236795
 30
0.0
 10
259.9712260922828
 20
230.0156466493034
 30
0.0
 10
259.8767747341814
 20
230.0366810602236
 30
0.0
 10
259.7362011934164
 20
230.0696829701028
 30
0.0
 10
259.6895165865467
 20
230.0809288046351
 30
0.0
 10
259.5968999298401
 20
230.1038280357023
 30
0.0
 10
259.3670022424964
 20
230.1621504590914
 30
0.0
 10
259.145302098545
 20
230.2259816579064
 30
0.0
 10
258.6289066686787
 20
230.3909458163448
 30
0.0
 10
258.3055285643429
 20
230.5165624611627
 30
0.0
 10
257.7009753333749
 20
230.806534728951
 30
0.0
 10
257.4198007612631
 20
230.9708657593928
 30
0.0
 10
257.1603880157085
 20
231.1592514511034
 30
0.0
  0
SPLINE
  5
1CD
330
1F
100
AcDbEntity
  8
1
100
AcDbSpline
210
0.0
220
0.0
230
1.0
 70
     8
 71
     3
 72
    29
 73
    25
 74
     0
 42
0.000000001
 43
0.0000000001
 40
0.0
 40
0.0
 40
0.0
 40
0.0
 40
0.1250000000000101
 40
0.1250000000000101
 40
0.1875000000000161
 40
0.1875000000000161
 40
0.250000000000022
 40
0.250000000000022
 40
0.3750000000000339
 40
0.3750000000000339
 40
0.4375000000000306
 40
0.4375000000000306
 40
0.5000000000000274
 40
0.5000000000000274
 40
0.6250000000000209
 40
0.6250000000000209
 40
0.6875000000000177
 40
0.6875000000000177
 40
0.7500000000000143
 40
0.812500000000011
 40
0.812500000000011
 40
0.8750000000000078
 40
0.8750000000000078
 40
1.0
 40
1.0
 40
1.0
 40
1.0
 10
275.545945395704
 20
240.4235770133673
 30
0.0
 10
275.5778986109511
 20
240.4186016057424
 30
0.0
 10
275.6093059848423
 20
240.4149720450243
 30
0.0
 10
275.6556174811421
 20
240.411499140238
 30
0.0
 10
275.6709204799626
 20
240.4106723115389
 30
0.0
 10
275.7012501420127
 20
240.4096999975307
 30
0.0
 10
275.716323695337
 20
240.4095586771321
 30
0.0
 10
275.760148317143
 20
240.4101823933559
 30
0.0
 10
275.7878225739069
 20
240.4119665543533
 30
0.0
 10
275.8270259659798
 20
240.4166906685082
 30
0.0
 10
275.839738163548
 20
240.4186149404982
 30
0.0
 10
275.8642196092622
 20
240.4231539060604
 30
0.0
 10
275.8758479763666
 20
240.4257401708849
 30
0.0
 10
275.9089562582594
 20
240.4344181442574
 30
0.0
 10
275.9286754308486
 20
240.4414207146847
 30
0.0
 10
275.9546625710148
 20
240.45378257576
 30
0.0
 10
275.9627089792554
 20
240.4582174992151
 30
0.0
 10
275.9772434581136
 20
240.4675137874499
 30
0.0
 10
275.9903222773447
 20
240.4772814533522
 30
0.0
 10
276.0005511138449
 20
240.4879720123454
 30
0.0
 10
276.0093462937127
 20
240.4991268239061
 30
0.0
 10
276.013040657668
 20
240.5049686852793
 30
0.0
 10
276.0217839437141
 20
240.5229481858298
 30
0.0
 10
276.0245355340246
 20
240.535487863854
 30
0.0
 10
276.0243383466408
 20
240.5485577816564
 30
0.0
  0
SPLINE
  5
1CE
330
1F
100
AcDbEntity
  8
1
100
AcDbSpline
210
0.0
220
0.0
230
1.0
 70
     8
 71
     3
 72
    32
 73
    28
 74
     0
 42
0.000000001
 43
0.0000000001
 40
0.0
 40
0.0
 40
0.0
 40
0.0
 40
0.062499999999999
 40
0.062499999999999
 40
0.124999999999998
 40
0.124999999999998
 40
0.2500000000000063
 40
0.2500000000000063
 40
0.3125000000000104
 40
0.3125000000000104
 40
0.3750000000000145
 40
0.3750000000000145
 40
0.5000000000000103
 40
0.5000000000000103
 40
0.5625000000000097
 40
0.5625000000000097
 40
0.5937500000000102
 40
0.5937500000000102
 40
0.6250000000000105
 40
0.6250000000000105
 40
0.7500000000000071
 40
0.7500000000000071
 40
0.8125000000000053
 40
0.8125000000000053
 40
0.8750000000000035
 40
0.8750000000000035
 40
1.0
 40
1.0
 40
1.0
 40
1.0
 10
276.0243383466408
 20
252.8343876722505
 30
0.0
 10
276.0244329083772
 20
252.8389500105381
 30
0.0
 10
276.0238449637418
 20
252.8435444055668
 30
0.0
 10
276.0212588383093
 20
252.8527994332119
 30
0.0
 10
276.0192549845689
 20
252.857451757088
 30
0.0
 10
276.0112204737244
 20
252.8712475831212
 30
0.0
 10
276.0031656297533
 20
252.8803165763781
 30
0.0
 10
275.9869520949291
 20
252.8937237618138
 30
0.0
 10
275.9808549719205
 20
252.8981599129863
 30
0.0
 10
275.9672062741694
 20
252.9069631045191
 30
0.0
 10
275.9596313457274
 20
252.9113371427578
 30
0.0
 10
275.9351505916929
 20
252.9240678105972
 30
0.0
 10
275.9163731680058
 20
252.9321314842258
 30
0.0
 10
275.88439160724
 20
252.9435694248727
 30
0.0
 10
275.8730912224641
 20
252.9472717942482
 30
0.0
 10
275.8551223964844
 20
252.9526498581301
 30
0.0
 10
275.8489423908541
 20
252.9544186599356
 30
0.0
 10
275.8363453102195
 20
252.9578636950805
 30
0.0
 10
275.8299317977222
 20
252.9595395856595
 30
0.0
 10
275.7972942757629
 20
252.9676878913618
 30
0.0
 10
275.7693770869646
 20
252.9734736372237
 30
0.0
 10
275.7246863900972
 20
252.9810106671436
 30
0.0
 10
275.7092783408805
 20
252.9833365906939
 30
0.0
 10
275.677618853112
 20
252.9875580816179
 30
0.0
 10
275.6616003811055
 20
252.9894238330616
 30
0.0
 10
275.6129911701379
 20
252.9943021884382
 30
0.0
 10
275.579852469615
 20
252.9966034659224
 30
0.0
 10
275.545945395704
 20
252.9979072933088
 30
0.0
  0
SPLINE
  5
1CF
330
1F
100
AcDbEntity
  8
1
100
AcDbSpline
210
0.0
220
0.0
230
1.0
 70
     8
 71
     3
 72
    20
 73
    16
 74
     0
 42
0.000000001
 43
0.0000000001
 40
0.0
 40
0.0
 40
0.0
 40
0.0
 40
0.2499999999999997
 40
0.2499999999999997
 40
0.3749999999999997
 40
0.3749999999999997
 40
0.4999999999999999
 40
0.4999999999999999
 40
0.6249999999999999
 40
0.6249999999999999
 40
0.7499999999999999
 40
0.7499999999999999
 40
0.8749999999999998
 40
0.8749999999999998
 40
1.0
 40
1.0
 40
1.0
 40
1.0
 10
275.6497395659464
 20
247.3929607146513
 30
0.0
 10
275.6636153999558
 20
247.496920050733
 30
0.0
 10
275.6724217883043
 20
247.6013895271614
 30
0.0
 10
275.6777097333668
 20
247.7592815867248
 30
0.0
 10
275.6781510545979
 20
247.8121359569155
 30
0.0
 10
275.6762786180366
 20
247.9181384219734
 30
0.0
 10
275.6739731288937
 20
247.9709641331077
 30
0.0
 10
275.6665332143451
 20
248.0762248918816
 30
0.0
 10
275.6614006710291
 20
248.1286603544026
 30
0.0
 10
275.6480830614419
 20
248.2330428445182
 30
0.0
 10
275.6399015520747
 20
248.2849909807971
 30
0.0
 10
275.6200504175073
 20
248.3882217960387
 30
0.0
 10
275.6083890884721
 20
248.4395074371715
 30
0.0
 10
275.580768766199
 20
248.5411019472464
 30
0.0
 10
275.5648341162237
 20
248.5914200014529
 30
0.0
 10
275.545945395704
 20
248.6409479114076
 30
0.0
  0
SPLINE
  5
1D0
330
1F
100
AcDbEntity
  8
1
100
AcDbSpline
210
0.0
220
0.0
230
1.0
 70
     8
 71
     3
 72
     8
 73
     4
 74
     0
 42
0.000000001
 43
0.0000000001
 40
0.0
 40
0.0
 40
0.0
 40
0.0
 40
1.0
 40
1.0
 40
1.0
 40
1.0
 10
275.5459453957042
 20
246.6348391347103
 30
0.0
 10
275.5817749515672
 20
246.8901785210165
 30
0.0
 10
275.616356400045
 20
247.142850215993
 30
0.0
 10
275.6497395659463
 20
247.3929607146513
 30
0.0
  0
SPLINE
  5
1D1
330
1F
100
AcDbEntity
  8
1
100
AcDbSpline
210
0.0
220
0.0
230
1.0
 70
     8
 71
     3
 72
     8
 73
     4
 74
     0
 42
0.000000001
 43
0.0000000001
 40
0.0
 40
0.0
 40
0.0
 40
0.0
 40
1.0
 40
1.0
 40
1.0
 40
1.0
 10
270.6462248739083
 20
229.4515289262815
 30
0.0
 10
270.5022766410341
 20
229.4457708514324
 30
0.0
 10
270.35829497491
 20
229.4433382430257
 30
0.0
 10
270.2142798902277
 20
229.4442296397709
 30
0.0
  0
SPLINE
  5
1D2
330
1F
100
AcDbEntity
  8
1
100
AcDbSpline
210
0.0
220
0.0
230
1.0
 70
     8
 71
     3
 72
     8
 73
     4
 74
     0
 42
0.000000001
 43
0.0000000001
 40
0.0
 40
0.0
 40
0.0
 40
0.0
 40
1.0
 40
1.0
 40
1.0
 40
1.0
 10
275.545945395704
 20
229.6476869860005
 30
0.0
 10
273.9127071413782
 20
229.5822455889271
 30
0.0
 10
272.2794669415247
 20
229.5168602602209
 30
0.0
 10
270.6462248739083
 20
229.4515289262815
 30
0.0
  0
SPLINE
  5
1D3
330
1F
100
AcDbEntity
  8
1
100
AcDbSpline
210
0.0
220
0.0
230
1.0
 70
     8
 71
     3
 72
    32
 73
    28
 74
     0
 42
0.000000001
 43
0.0000000001
 40
0.0
 40
0.0
 40
0.0
 40
0.0
 40
0.062499999999994
 40
0.062499999999994
 40
0.124999999999988
 40
0.124999999999988
 40
0.2499999999999867
 40
0.2499999999999867
 40
0.3124999999999889
 40
0.3124999999999889
 40
0.3749999999999911
 40
0.3749999999999911
 40
0.5000000000000028
 40
0.5000000000000028
 40
0.5625000000000111
 40
0.5625000000000111
 40
0.5937500000000129
 40
0.5937500000000129
 40
0.6250000000000147
 40
0.6250000000000147
 40
0.7500000000000098
 40
0.7500000000000098
 40
0.8125000000000072
 40
0.8125000000000072
 40
0.8750000000000049
 40
0.8750000000000049
 40
1.0
 40
1.0
 40
1.0
 40
1.0
 10
276.0243383466408
 20
230.18217763858
 30
0.0
 10
276.0244329083771
 20
230.1659680656452
 30
0.0
 10
276.0238449637418
 20
230.1497105065781
 30
0.0
 10
276.0212588383093
 20
230.11709623658
 30
0.0
 10
276.0192549845689
 20
230.1007695765278
 30
0.0
 10
276.0112204737244
 20
230.0525569728169
 30
0.0
 10
276.0031656297533
 20
230.0211308859082
 30
0.0
 10
275.9869520949291
 20
229.9750873769202
 30
0.0
 10
275.9808549719205
 20
229.9599232226216
 30
0.0
 10
275.9672062741693
 20
229.9299806377475
 30
0.0
 10
275.9596313457274
 20
229.9151796113752
 30
0.0
 10
275.9351505916929
 20
229.8723359308554
 30
0.0
 10
275.9163731680058
 20
229.8455140983057
 30
0.0
 10
275.88439160724
 20
229.8079844114806
 30
0.0
 10
275.8730912224641
 20
229.7959278319154
 30
0.0
 10
275.8551223964844
 20
229.7785643473441
 30
0.0
 10
275.8489423908541
 20
229.7728797051782
 30
0.0
 10
275.8363453102195
 20
229.7618619942334
 30
0.0
 10
275.8299317977222
 20
229.756529798875
 30
0.0
 10
275.7972942757629
 20
229.7307445913825
 30
0.0
 10
275.7693770869646
 20
229.7128932282273
 30
0.0
 10
275.7246863900973
 20
229.6904414295677
 30
0.0
 10
275.7092783408805
 20
229.6836687693155
 30
0.0
 10
275.677618853112
 20
229.6717329701796
 30
0.0
 10
275.6616003811055
 20
229.6666532296356
 30
0.0
 10
275.6129911701379
 20
229.6540201801787
 30
0.0
 10
275.5798524696151
 20
229.6490455913856
 30
0.0
 10
275.545945395704
 20
229.6476869860005
 30
0.0
  0
SPLINE
  5
1D4
330
1F
100
AcDbEntity
  8
1
100
AcDbSpline
210
0.0
220
0.0
230
1.0
 70
     8
 71
     3
 72
     8
 73
     4
 74
     0
 42
0.000000001
 43
0.0000000001
 40
0.0
 40
0.0
 40
0.0
 40
0.0
 40
1.0
 40
1.0
 40
1.0
 40
1.0
 10
275.9960475024063
 20
235.336239906475
 30
0.0
 10
276.0045978880019
 20
233.6182080622362
 30
0.0
 10
276.0143159777115
 20
231.9001909331747
 30
0.0
 10
276.0243383466408
 20
230.18217763858
 30
0.0
  0
SPLINE
  5
1D5
330
1F
100
AcDbEntity
  8
1
100
AcDbSpline
210
0.0
220
0.0
230
1.0
 70
     8
 71
     3
 72
    12
 73
     8
 74
     0
 42
0.000000001
 43
0.0000000001
 40
0.0
 40
0.0
 40
0.0
 40
0.0
 40
0.4999999999999993
 40
0.4999999999999993
 40
0.7499999999999997
 40
0.7499999999999997
 40
1.0
 40
1.0
 40
1.0
 40
1.0
 10
275.9622462577926
 20
235.7881528815649
 30
0.0
 10
275.9729189050047
 20
235.7138201560908
 30
0.0
 10
275.9811703428685
 20
235.6389631956836
 30
0.0
 10
275.9897071059707
 20
235.5258462414607
 30
0.0
 10
275.9919117133847
 20
235.4880018064085
 30
0.0
 10
275.9949919607649
 20
235.4120251911896
 30
0.0
 10
275.9958591473754
 20
235.3740861459836
 30
0.0
 10
275.9960475024063
 20
235.336239906475
 30
0.0
  0
SPLINE
  5
1D6
330
1F
100
AcDbEntity
  8
1
100
AcDbSpline
210
0.0
220
0.0
230
1.0
 70
     8
 71
     3
 72
    24
 73
    20
 74
     0
 42
0.000000001
 43
0.0000000001
 40
0.0
 40
0.0
 40
0.0
 40
0.0
 40
0.2499999999999963
 40
0.2499999999999963
 40
0.4999999999999928
 40
0.4999999999999928
 40
0.6249999999999937
 40
0.6249999999999937
 40
0.7499999999999948
 40
0.7499999999999948
 40
0.8124999999999982
 40
0.8124999999999982
 40
0.8750000000000015
 40
0.8750000000000015
 40
0.9375000000000051
 40
0.9375000000000051
 40
0.9687500000000024
 40
0.9687500000000024
 40
1.0
 40
1.0
 40
1.0
 40
1.0
 10
276.0251044982422
 20
238.0086119158661
 30
0.0
 10
276.0180814145389
 20
237.9187874182156
 30
0.0
 10
276.0093396898106
 20
237.8291586854227
 30
0.0
 10
275.9872766532375
 20
237.6504228662236
 30
0.0
 10
275.9739907535603
 20
237.5612292827265
 30
0.0
 10
275.948838261944
 20
237.4285883816112
 30
0.0
 10
275.9395715987888
 20
237.3845558680439
 30
0.0
 10
275.9185682362811
 20
237.2969977799148
 30
0.0
 10
275.9068354511268
 20
237.2534118993297
 30
0.0
 10
275.8864689411476
 20
237.1891198068493
 30
0.0
 10
275.87921022288
 20
237.1678585880479
 30
0.0
 10
275.863412107682
 20
237.1257980705408
 30
0.0
 10
275.8548816600897
 20
237.1049955439478
 30
0.0
 10
275.8359143544242
 20
237.0640781021947
 30
0.0
 10
275.8254954739873
 20
237.0439765547852
 30
0.0
 10
275.8078250056004
 20
237.0153492718096
 30
0.0
 10
275.8015810067823
 20
237.0060446772662
 30
0.0
 10
275.7880953257143
 20
236.988106074758
 30
0.0
 10
275.7808625893108
 20
236.9794660538993
 30
0.0
 10
275.772853422091
 20
236.9713479060801
 30
0.0
  0
SPLINE
  5
1D7
330
1F
100
AcDbEntity
  8
1
100
AcDbSpline
210
0.0
220
0.0
230
1.0
 70
     8
 71
     3
 72
    14
 73
    10
 74
     0
 42
0.000000001
 43
0.0000000001
 40
0.0
 40
0.0
 40
0.0
 40
0.0
 40
0.373082358491799
 40
0.373082358491799
 40
0.746164716983598
 40
0.746164716983598
 40
0.9327058962294977
 40
0.9327058962294977
 40
1.0
 40
1.0
 40
1.0
 40
1.0
 10
269.0550723060232
 20
239.384420313685
 30
0.0
 10
269.0036506603376
 20
239.3142270015196
 30
0.0
 10
268.9521759136114
 20
239.2446846601266
 30
0.0
 10
268.8490849080401
 20
239.1073346013065
 30
0.0
 10
268.7974231534374
 20
239.0394471757564
 30
0.0
 10
268.7200823997496
 20
238.9400403444213
 30
0.0
 10
268.6943204192305
 20
238.9073037926761
 30
0.0
 10
268.6592996837907
 20
238.8635175688476
 30
0.0
 10
268.6500143015029
 20
238.8519756541737
 30
0.0
 10
268.6407392098158
 20
238.8405282899635
 30
0.0
  0
SPLINE
  5
1D8
330
1F
100
AcDbEntity
  8
1
100
AcDbSpline
210
0.0
220
0.0
230
1.0
 70
     8
 71
     3
 72
     8
 73
     4
 74
     0
 42
0.000000001
 43
0.0000000001
 40
0.0
 40
0.0
 40
0.0
 40
0.0
 40
1.0
 40
1.0
 40
1.0
 40
1.0
 10
257.3236795454688
 20
257.700206119104
 30
0.0
 10
257.2696738914918
 20
257.6975846095207
 30
0.0
 10
257.2152478103387
 20
257.6955122337387
 30
0.0
 10
257.1603880157097
 20
257.6940155078352
 30
0.0
  0
SPLINE
  5
1D9
330
1F
100
AcDbEntity
  8
1
100
AcDbSpline
210
0.0
220
0.0
230
1.0
 70
     8
 71
     3
 72
     8
 73
     4
 74
     0
 42
0.000000001
 43
0.0000000001
 40
0.0
 40
0.0
 40
0.0
 40
0.0
 40
1.0
 40
1.0
 40
1.0
 40
1.0
 10
257.1281084701899
 20
257.6932520577509
 30
0.0
 10
257.1388751052718
 20
257.6934676310178
 30
0.0
 10
257.149634958275
 20
257.6937221348888
 30
0.0
 10
257.1603880157094
 20
257.6940155078355
 30
0.0
  0
SPLINE
  5
1DA
330
1F
100
AcDbEntity
  8
1
100
AcDbSpline
210
0.0
220
0.0
230
1.0
 70
     8
 71
     3
 72
     8
 73
     4
 74
     0
 42
0.000000001
 43
0.0000000001
 40
0.0
 40
0.0
 40
0.0
 40
0.0
 40
1.0
 40
1.0
 40
1.0
 40
1.0
 10
276.0243383466408
 20
233.6816942218848
 30
0.0
 10
276.0158667296141
 20
234.4899879450023
 30
0.0
 10
276.0074309634689
 20
235.2982868867122
 30
0.0
 10
275.999113302667
 20
236.1066030202912
 30
0.0
  0
SPLINE
  5
1DB
330
1F
100
AcDbEntity
  8
1
100
AcDbSpline
210
0.0
220
0.0
230
1.0
 70
     8
 71
     3
 72
     8
 73
     4
 74
     0
 42
0.000000001
 43
0.0000000001
 40
0.0
 40
0.0
 40
0.0
 40
0.0
 40
1.0
 40
1.0
 40
1.0
 40
1.0
 10
275.898194248698
 20
236.0869367936625
 30
0.0
 10
275.9248576232859
 20
235.9887748052199
 30
0.0
 10
275.9462602744275
 20
235.8891941854139
 30
0.0
 10
275.9622462577926
 20
235.7881528815649
 30
0.0
  0
SPLINE
  5
1DC
330
1F
100
AcDbEntity
  8
1
100
AcDbSpline
210
0.0
220
0.0
230
1.0
 70
     8
 71
     3
 72
     8
 73
     4
 74
     0
 42
0.000000001
 43
0.0000000001
 40
0.0
 40
0.0
 40
0.0
 40
0.0
 40
1.0
 40
1.0
 40
1.0
 40
1.0
 10
268.64649302942
 20
229.4540351910275
 30
0.0
 10
268.6357328920604
 20
229.4541031873815
 30
0.0
 10
268.6249730094256
 20
229.4541897780877
 30
0.0
 10
268.6142134839011
 20
229.4542949614234
 30
0.0
  0
SPLINE
  5
1DD
330
1F
100
AcDbEntity
  8
1
100
AcDbSpline
210
0.0
220
0.0
230
1.0
 70
     8
 71
     3
 72
    18
 73
    14
 74
     0
 42
0.000000001
 43
0.0000000001
 40
0.0
 40
0.0
 40
0.0
 40
0.0
 40
0.2500000000000192
 40
0.2500000000000192
 40
0.3750000000000153
 40
0.3750000000000153
 40
0.5000000000000115
 40
0.5000000000000115
 40
0.7499999999999935
 40
0.7499999999999935
 40
0.8749999999999968
 40
0.8749999999999968
 40
1.0
 40
1.0
 40
1.0
 40
1.0
 10
268.1052728264268
 20
237.796649339008
 30
0.0
 10
268.1130099348269
 20
237.784349983942
 30
0.0
 10
268.1233517101845
 20
237.7722042280239
 30
0.0
 10
268.1426221640606
 20
237.7542053365463
 30
0.0
 10
268.1496770671649
 20
237.74824264303
 30
0.0
 10
268.1650868806885
 20
237.7363931272189
 30
0.0
 10
268.1734217452312
 20
237.7305287927177
 30
0.0
 10
268.1997980216491
 20
237.7134539140519
 30
0.0
 10
268.2193624749939
 20
237.7026243134732
 30
0.0
 10
268.2517041682482
 20
237.6872177658712
 30
0.0
 10
268.2630277428707
 20
237.6822090350937
 30
0.0
 10
268.2863330128408
 20
237.672644201121
 30
0.0
 10
268.2983491373524
 20
237.668069320628
 30
0.0
 10
268.3107315178045
 20
237.6637037096223
 30
0.0
  0
SPLINE
  5
1DE
330
1F
100
AcDbEntity
  8
1
100
AcDbSpline
210
0.0
220
0.0
230
1.0
 70
     8
 71
     3
 72
    24
 73
    20
 74
     0
 42
0.000000001
 43
0.0000000001
 40
0.0
 40
0.0
 40
0.0
 40
0.0
 40
0.2499999999999954
 40
0.2499999999999954
 40
0.499999999999991
 40
0.499999999999991
 40
0.6249999999999906
 40
0.6249999999999906
 40
0.7499999999999904
 40
0.7499999999999904
 40
0.8124999999999927
 40
0.8124999999999927
 40
0.874999999999995
 40
0.874999999999995
 40
0.9374999999999975
 40
0.9374999999999975
 40
0.9687499999999987
 40
0.9687499999999987
 40
1.0
 40
1.0
 40
1.0
 40
1.0
 10
276.6528113548467
 20
240.7862802831148
 30
0.0
 10
276.6761036369343
 20
240.7099333381479
 30
0.0
 10
276.6994257653132
 20
240.6328142765133
 30
0.0
 10
276.7461495711225
 20
240.4765187319363
 30
0.0
 10
276.769571713131
 20
240.3972915568863
 30
0.0
 10
276.8046538910787
 20
240.276551830927
 30
0.0
 10
276.8163426715089
 20
240.235973877972
 30
0.0
 10
276.8397054572001
 20
240.153890475841
 30
0.0
 10
276.8513946991413
 20
240.1123384398138
 30
0.0
 10
276.8687793717485
 20
240.0493902364666
 30
0.0
 10
276.8745527769131
 20
240.0282900536779
 30
0.0
 10
276.8860410271095
 20
239.9857695785697
 30
0.0
 10
276.8917562813779
 20
239.9643515231639
 30
0.0
 10
276.9030996177182
 20
239.9210388992464
 30
0.0
 10
276.9087234461987
 20
239.8991648575212
 30
0.0
 10
276.9168642193176
 20
239.8664801508886
 30
0.0
 10
276.9195334533694
 20
239.8555858125958
 30
0.0
 10
276.9247468539405
 20
239.8337987260155
 30
0.0
 10
276.9272921418886
 20
239.82290596347
 30
0.0
 10
276.929740098079
 20
239.8120144383209
 30
0.0
  0
SPLINE
  5
1DF
330
1F
100
AcDbEntity
  8
1
100
AcDbSpline
210
0.0
220
0.0
230
1.0
 70
     8
 71
     3
 72
     8
 73
     4
 74
     0
 42
0.000000001
 43
0.0000000001
 40
0.0
 40
0.0
 40
0.0
 40
0.0
 40
1.0
 40
1.0
 40
1.0
 40
1.0
 10
275.8041409861028
 20
236.0821533438258
 30
0.0
 10
275.8013134187388
 20
236.0822807063651
 30
0.0
 10
275.7984752567885
 20
236.082412274692
 30
0.0
 10
275.795627478213
 20
236.0825480111023
 30
0.0
  0
SPLINE
  5
1E0
330
1F
100
AcDbEntity
  8
1
100
AcDbSpline
210
0.0
220
0.0
230
1.0
 70
     8
 71
     3
 72
    18
 73
    14
 74
     0
 42
0.000000001
 43
0.0000000001
 40
0.0
 40
0.0
 40
0.0
 40
0.0
 40
0.2499999999999967
 40
0.2499999999999967
 40
0.3749999999999989
 40
0.3749999999999989
 40
0.5000000000000013
 40
0.5000000000000013
 40
0.7500000000000057
 40
0.7500000000000057
 40
0.8750000000000028
 40
0.8750000000000028
 40
1.0
 40
1.0
 40
1.0
 40
1.0
 10
275.8041409861028
 20
236.0821533438258
 30
0.0
 10
275.8304603396516
 20
236.0809678372505
 30
0.0
 10
275.8555171510316
 20
236.0811026080962
 30
0.0
 10
275.8912803341537
 20
236.0832078499129
 30
0.0
 10
275.9028952444106
 20
236.0842293837262
 30
0.0
 10
275.9254946887896
 20
236.0869306877074
 30
0.0
 10
275.936433137931
 20
236.0886097737263
 30
0.0
 10
275.9675497548537
 20
236.0945167883673
 30
0.0
 10
275.9863000812817
 20
236.0996326609279
 30
0.0
 10
276.0114098623934
 20
236.1090883648416
 30
0.0
 10
276.0192923117123
 20
236.1125532857758
 30
0.0
 10
276.0337619530084
 20
236.1199822735604
 30
0.0
 10
276.0403814784037
 20
236.1239554551321
 30
0.0
 10
276.0463811122426
 20
236.1281894415187
 30
0.0
  0
SPLINE
  5
1E1
330
1F
100
AcDbEntity
  8
1
100
AcDbSpline
210
0.0
220
0.0
230
1.0
 70
     8
 71
     3
 72
     8
 73
     4
 74
     0
 42
0.000000001
 43
0.0000000001
 40
0.0
 40
0.0
 40
0.0
 40
0.0
 40
1.0
 40
1.0
 40
1.0
 40
1.0
 10
276.0499599167529
 20
236.1307702449087
 30
0.0
 10
276.0487931942166
 20
236.129910057063
 30
0.0
 10
276.0476001110677
 20
236.1290496980892
 30
0.0
 10
276.0463811122426
 20
236.1281894415187
 30
0.0
  0
SPLINE
  5
1E2
330
1F
100
AcDbEntity
  8
1
100
AcDbSpline
210
0.0
220
0.0
230
1.0
 70
     8
 71
     3
 72
    11
 73
     7
 74
     0
 42
0.000000001
 43
0.0000000001
 40
0.0
 40
0.0
 40
0.0
 40
0.0
 40
0.254477177901283
 40
0.5059695618021812
 40
0.7544771588832579
 40
1.0
 40
1.0
 40
1.0
 40
1.0
 10
275.7956256671999
 20
236.0825485976716
 30
0.0
 10
275.7937113679615
 20
236.1579294318338
 30
0.0
 10
275.7899052225352
 20
236.3078069491181
 30
0.0
 10
275.7841877267844
 20
236.5313415686127
 30
0.0
 10
275.778510279443
 20
236.7522532755305
 30
0.0
 10
275.7747197173041
 20
236.8986738515397
 30
0.0
 10
275.772835886848
 20
236.9714418290572
 30
0.0
  0
SPLINE
  5
1E3
330
1F
100
AcDbEntity
  8
1
100
AcDbSpline
210
0.0
220
0.0
230
1.0
 70
     8
 71
     3
 72
    15
 73
    11
 74
     0
 42
0.000000001
 43
0.0000000001
 40
0.0
 40
0.0
 40
0.0
 40
0.0
 40
0.1209042852890011
 40
0.2429782547956132
 40
0.3662221795009453
 40
0.490636321322394
 40
0.6162209334627034
 40
0.7429762607432542
 40
0.8709025399224517
 40
1.0
 40
1.0
 40
1.0
 40
1.0
 10
269.055099644653
 20
239.38444786879
 30
0.0
 10
269.0251400800507
 20
239.3151078348185
 30
0.0
 10
268.9649311081017
 20
239.1757569391775
 30
0.0
 10
268.8744684281782
 20
238.9655992360456
 30
0.0
 10
268.7833424925389
 20
238.7533385820676
 30
0.0
 10
268.691573557883
 20
238.5389658048776
 30
0.0
 10
268.5991533938183
 20
238.322484214508
 30
0.0
 10
268.5060871070156
 20
238.1038913290895
 30
0.0
 10
268.4123552487987
 20
237.8831952443115
 30
0.0
 10
268.3497533630543
 20
237.7353170289761
 30
0.0
 10
268.3183097910751
 20
237.6610410027389
 30
0.0
  0
SPLINE
  5
1E4
330
1F
100
AcDbEntity
  8
1
100
AcDbSpline
210
0.0
220
0.0
230
1.0
 70
     8
 71
     3
 72
    15
 73
    11
 74
     0
 42
0.000000001
 43
0.0000000001
 40
0.0
 40
0.0
 40
0.0
 40
0.0
 40
0.120904285099121
 40
0.2429782544700807
 40
0.3662221790939997
 40
0.4906363208882877
 40
0.6162209330556994
 40
0.7429762604176299
 40
0.870902539732493
 40
1.0
 40
1.0
 40
1.0
 40
1.0
 10
276.0251021581029
 20
238.0086501254743
 30
0.0
 10
276.0260604104195
 20
237.93291334846
 30
0.0
 10
276.0279861856311
 20
237.7807070816347
 30
0.0
 10
276.0309354146888
 20
237.5513575281836
 30
0.0
 10
276.0339462103895
 20
237.3198523340845
 30
0.0
 10
276.0370219457528
 20
237.0861954370774
 30
0.0
 10
276.0401613465366
 20
236.8503848986632
 30
0.0
 10
276.0433653348903
 20
236.6124215801316
 30
0.0
 10
276.0466307953637
 20
236.3723011153719
 30
0.0
 10
276.0488460503852
 20
236.2115247695919
 30
0.0
 10
276.0499587250261
 20
236.1307702916397
 30
0.0
  0
SPLINE
  5
1E5
330
1F
100
AcDbEntity
  8
1
100
AcDbSpline
210
0.0
220
0.0
230
1.0
 70
     8
 71
     3
 72
     8
 73
     4
 74
     0
 42
0.000000001
 43
0.0000000001
 40
0.0
 40
0.0
 40
0.0
 40
0.0
 40
1.0
 40
1.0
 40
1.0
 40
1.0
 10
268.3183091309944
 20
237.6610411025681
 30
0.0
 10
268.3157734857154
 20
237.6619290807474
 30
0.0
 10
268.3132473558755
 20
237.6628167097103
 30
0.0
 10
268.3107315178046
 20
237.6637037096223
 30
0.0
  0
SPLINE
  5
1E6
330
1F
100
AcDbEntity
  8
1
100
AcDbSpline
210
0.0
220
0.0
230
1.0
 70
     8
 71
     3
 72
    11
 73
     7
 74
     0
 42
0.000000001
 43
0.0000000001
 40
0.0
 40
0.0
 40
0.0
 40
0.0
 40
0.3037514998419296
 40
0.6039402611265336
 40
0.9005662924247403
 40
1.0
 40
1.0
 40
1.0
 40
1.0
 10
268.1028662901911
 20
237.800580211736
 30
0.0
 10
268.1317967990771
 20
237.8703817107053
 30
0.0
 10
268.1893184873662
 20
238.0091659983103
 30
0.0
 10
268.2752995463629
 20
238.2160426275939
 30
0.0
 10
268.3418833974252
 20
238.3759454958085
 30
0.0
 10
268.3798242067724
 20
238.4668833911033
 30
0.0
 10
268.3893522202263
 20
238.4897130779474
 30
0.0
  0
SPLINE
  5
1E7
330
1F
100
AcDbEntity
  8
1
100
AcDbSpline
210
0.0
220
0.0
230
1.0
 70
     8
 71
     3
 72
     8
 73
     4
 74
     0
 42
0.000000001
 43
0.0000000001
 40
0.0
 40
0.0
 40
0.0
 40
0.0
 40
1.0
 40
1.0
 40
1.0
 40
1.0
 10
268.1052728264268
 20
237.796649339008
 30
0.0
 10
268.1044416055856
 20
237.7979706957392
 30
0.0
 10
268.103637687849
 20
237.7992818267796
 30
0.0
 10
268.1028614261423
 20
237.8005822405154
 30
0.0
  0
SPLINE
  5
1E8
330
1F
100
AcDbEntity
  8
1
100
AcDbSpline
210
0.0
220
0.0
230
1.0
 70
     8
 71
     3
 72
    14
 73
    10
 74
     0
 42
0.000000001
 43
0.0000000001
 40
0.0
 40
0.0
 40
0.0
 40
0.0
 40
0.2705191389922076
 40
0.2705191389922076
 40
0.5410382779844153
 40
0.5410382779844153
 40
0.8115574169766228
 40
0.8115574169766228
 40
1.0
 40
1.0
 40
1.0
 40
1.0
 10
273.3625135320337
 20
255.6742159387156
 30
0.0
 10
273.3655792326354
 20
255.6788826916541
 30
0.0
 10
273.3690028638249
 20
255.6832472562889
 30
0.0
 10
273.3764255337185
 20
255.6912393078373
 30
0.0
 10
273.3804387400885
 20
255.6948899692775
 30
0.0
 10
273.3890851557087
 20
255.7014800356176
 30
0.0
 10
273.393722683972
 20
255.704409117945
 30
0.0
 10
273.4018598499287
 20
255.7085836069189
 30
0.0
 10
273.4052956532586
 20
255.7100854222012
 30
0.0
 10
273.4088287474293
 20
255.7113684658922
 30
0.0
  0
SPLINE
  5
1E9
330
1F
100
AcDbEntity
  8
1
100
AcDbSpline
210
0.0
220
0.0
230
1.0
 70
     8
 71
     3
 72
    12
 73
     8
 74
     0
 42
0.000000001
 43
0.0000000001
 40
0.0
 40
0.0
 40
0.0
 40
0.0
 40
0.0961286475459837
 40
0.0961286475459837
 40
0.2769029180368041
 40
0.2769029180368041
 40
1.0
 40
1.0
 40
1.0
 40
1.0
 10
272.3534118007074
 20
253.8010188819929
 30
0.0
 10
272.3581669794821
 20
253.7981815527424
 30
0.0
 10
272.3628719408736
 20
253.7952708049847
 30
0.0
 10
272.3762295678993
 20
253.7867040525352
 30
0.0
 10
272.3846955685345
 20
253.7809003926972
 30
0.0
 10
272.4258020312769
 20
253.7508574352256
 30
0.0
 10
272.4548202985315
 20
253.7235886059427
 30
0.0
 10
272.480184365109
 20
253.6930871216062
 30
0.0
  0
SPLINE
  5
1EA
330
1F
100
AcDbEntity
  8
1
100
AcDbSpline
210
0.0
220
0.0
230
1.0
 70
     8
 71
     3
 72
    12
 73
     8
 74
     0
 42
0.000000001
 43
0.0000000001
 40
0.0
 40
0.0
 40
0.0
 40
0.0
 40
0.3626280444561262
 40
0.3626280444561262
 40
0.7252560889122525
 40
0.7252560889122525
 40
1.0
 40
1.0
 40
1.0
 40
1.0
 10
272.480184365109
 20
253.6930871216062
 30
0.0
 10
272.4845589951246
 20
253.6878264230313
 30
0.0
 10
272.4882571600382
 20
253.6820913243553
 30
0.0
 10
272.4941390181288
 20
253.6701439485832
 30
0.0
 10
272.4963471554423
 20
253.6639244414262
 30
0.0
 10
272.4989837947728
 20
253.652569785223
 30
0.0
 10
272.4997005357807
 20
253.6475375818595
 30
0.0
 10
272.4999944159899
 20
253.6424975865856
 30
0.0
  0
SPLINE
  5
1EB
330
1F
100
AcDbEntity
  8
1
100
AcDbSpline
210
0.0
220
0.0
230
1.0
 70
     8
 71
     3
 72
    21
 73
    17
 74
     0
 42
0.000000001
 43
0.0000000001
 40
0.0
 40
0.0
 40
0.0
 40
0.0
 40
0.249999999999984
 40
0.249999999999984
 40
0.3124999999999833
 40
0.3124999999999833
 40
0.3749999999999827
 40
0.3749999999999827
 40
0.4999999999999813
 40
0.62499999999998
 40
0.62499999999998
 40
0.6874999999999794
 40
0.6874999999999794
 40
0.7499999999999787
 40
0.7499999999999787
 40
1.0
 40
1.0
 40
1.0
 40
1.0
 10
271.442553153903
 20
254.9953182898012
 30
0.0
 10
271.4394960365636
 20
255.0382545407585
 30
0.0
 10
271.4414596051789
 20
255.0808855151701
 30
0.0
 10
271.4501772727549
 20
255.1337952001313
 30
0.0
 10
271.4522443736529
 20
255.1443797993317
 30
0.0
 10
271.4569689096926
 20
255.165272730182
 30
0.0
 10
271.4596291978617
 20
255.1756065527715
 30
0.0
 10
271.468487701623
 20
255.2062763327692
 30
0.0
 10
271.4826337142209
 20
255.2462870339143
 30
0.0
 10
271.5014168191412
 20
255.2845453915401
 30
0.0
 10
271.5173014663598
 20
255.3125599023264
 30
0.0
 10
271.5228882952151
 20
255.3217649001369
 30
0.0
 10
271.5345142316738
 20
255.3397079223952
 30
0.0
 10
271.5405697033688
 20
255.3484755532662
 30
0.0
 10
271.5720380521342
 20
255.3913123048451
 30
0.0
 10
271.6009766998444
 20
255.4224170303781
 30
0.0
 10
271.6337865835106
 20
255.4502646743034
 30
0.0
  0
SPLINE
  5
1EC
330
1F
100
AcDbEntity
  8
1
100
AcDbSpline
210
0.0
220
0.0
230
1.0
 70
     8
 71
     3
 72
    20
 73
    16
 74
     0
 42
0.000000001
 43
0.0000000001
 40
0.0
 40
0.0
 40
0.0
 40
0.0
 40
0.1370940560629347
 40
0.1370940560629347
 40
0.2741881121258695
 40
0.2741881121258695
 40
0.4112821681888044
 40
0.4112821681888044
 40
0.5483762242517391
 40
0.5483762242517391
 40
0.685470280314674
 40
0.685470280314674
 40
0.8225643363776086
 40
0.8225643363776086
 40
1.0
 40
1.0
 40
1.0
 40
1.0
 10
271.6337865835106
 20
255.4502646743034
 30
0.0
 10
271.6383534661005
 20
255.4541408514184
 30
0.0
 10
271.6432097634925
 20
255.4575373361235
 30
0.0
 10
271.6534699572279
 20
255.4634222755415
 30
0.0
 10
271.6589314939533
 20
255.4659281124545
 30
0.0
 10
271.6701070575627
 20
255.469894591881
 30
0.0
 10
271.6758013981446
 20
255.4713622686001
 30
0.0
 10
271.6873921403469
 20
255.4733172601851
 30
0.0
 10
271.6933429911131
 20
255.4738026645856
 30
0.0
 10
271.7051793078567
 20
255.4737618316111
 30
0.0
 10
271.7110226558912
 20
255.4732464492688
 30
0.0
 10
271.7225667887555
 20
255.471277151904
 30
0.0
 10
271.7282954893431
 20
255.469813151207
 30
0.0
 10
271.7411285866556
 20
255.4653921366994
 30
0.0
 10
271.7479951873513
 20
255.4621994627941
 30
0.0
 10
271.7544913823446
 20
255.4583135921935
 30
0.0
  0
SPLINE
  5
1ED
330
1F
100
AcDbEntity
  8
1
100
AcDbSpline
210
0.0
220
0.0
230
1.0
 70
     8
 71
     3
 72
    14
 73
    10
 74
     0
 42
0.000000001
 43
0.0000000001
 40
0.0
 40
0.0
 40
0.0
 40
0.0
 40
0.291052921963379
 40
0.291052921963379
 40
0.582105843926758
 40
0.582105843926758
 40
0.873158765890137
 40
0.873158765890137
 40
1.0
 40
1.0
 40
1.0
 40
1.0
 10
271.8481694928651
 20
255.4304195095521
 30
0.0
 10
271.840809052513
 20
255.4291435613088
 30
0.0
 10
271.8333091738224
 20
255.4286894657258
 30
0.0
 10
271.818585060308
 20
255.4293373995894
 30
0.0
 10
271.8113405001741
 20
255.4304215540594
 30
0.0
 10
271.7970774458527
 20
255.4340625343219
 30
0.0
 10
271.7900730383115
 20
255.4366387776399
 30
0.0
 10
271.7806272662335
 20
255.4412243595216
 30
0.0
 10
271.777824770924
 20
255.4427368045659
 30
0.0
 10
271.775087699368
 20
255.4443715625901
 30
0.0
  0
SPLINE
  5
1EE
330
1F
100
AcDbEntity
  8
1
100
AcDbSpline
210
0.0
220
0.0
230
1.0
 70
     8
 71
     3
 72
    12
 73
     8
 74
     0
 42
0.000000001
 43
0.0000000001
 40
0.0
 40
0.0
 40
0.0
 40
0.0
 40
0.1387585338275222
 40
0.1387585338275222
 40
0.5693792669137611
 40
0.5693792669137611
 40
1.0
 40
1.0
 40
1.0
 40
1.0
 10
271.4539286758425
 20
254.9559014741534
 30
0.0
 10
271.453035798686
 20
254.9575873312724
 30
0.0
 10
271.452188011654
 20
254.9593025366903
 30
0.0
 10
271.4488975884141
 20
254.9664632570514
 30
0.0
 10
271.4468959619159
 20
254.9720871623846
 30
0.0
 10
271.4439448579451
 20
254.9835124833099
 30
0.0
 10
271.4429781535898
 20
254.9893493029472
 30
0.0
 10
271.442553153903
 20
254.9953182898012
 30
0.0
  0
SPLINE
  5
1EF
330
1F
100
AcDbEntity
  8
1
100
AcDbSpline
210
0.0
220
0.0
230
1.0
 70
     8
 71
     3
 72
    12
 73
     8
 74
     0
 42
0.000000001
 43
0.0000000001
 40
0.0
 40
0.0
 40
0.0
 40
0.0
 40
0.0370673402124324
 40
0.0370673402124324
 40
0.5185336701062163
 40
0.5185336701062163
 40
1.0
 40
1.0
 40
1.0
 40
1.0
 10
271.5728454841142
 20
254.8860150386788
 30
0.0
 10
271.5733312938145
 20
254.885725191377
 30
0.0
 10
271.5738151789518
 20
254.8854314174901
 30
0.0
 10
271.580557288323
 20
254.8812668485693
 30
0.0
 10
271.5865066988973
 20
254.8766996506508
 30
0.0
 10
271.5971862545762
 20
254.8665760039518
 30
0.0
 10
271.6019920291938
 20
254.8609833780554
 30
0.0
 10
271.6062174028856
 20
254.8548128868773
 30
0.0
  0
SPLINE
  5
1F0
330
1F
100
AcDbEntity
  8
1
100
AcDbSpline
210
0.0
220
0.0
230
1.0
 70
     8
 71
     3
 72
    22
 73
    18
 74
     0
 42
0.000000001
 43
0.0000000001
 40
0.0
 40
0.0
 40
0.0
 40
0.0
 40
0.125
 40
0.125
 40
0.25
 40
0.25
 40
0.375
 40
0.375
 40
0.5
 40
0.5
 40
0.625
 40
0.625
 40
0.75
 40
0.75
 40
0.875
 40
0.875
 40
1.0
 40
1.0
 40
1.0
 40
1.0
 10
272.2361576966438
 20
255.816584945124
 30
0.0
 10
272.2337455643736
 20
255.8219440872722
 30
0.0
 10
272.231777259665
 20
255.8274682525287
 30
0.0
 10
272.2287690551219
 20
255.8386462122289
 30
0.0
 10
272.2277166687685
 20
255.8443255902067
 30
0.0
 10
272.2265414286384
 20
255.8558696919751
 30
0.0
 10
272.226429668329
 20
255.8617323412902
 30
0.0
 10
272.2271726300958
 20
255.8732425541137
 30
0.0
 10
272.2280195227198
 20
255.8789409605164
 30
0.0
 10
272.2307053415472
 20
255.8902180799779
 30
0.0
 10
272.2325488830495
 20
255.8957702416666
 30
0.0
 10
272.2371301270508
 20
255.9063480488124
 30
0.0
 10
272.2398776851829
 20
255.9114241734443
 30
0.0
 10
272.2463386751898
 20
255.9211250058019
 30
0.0
 10
272.2500083923654
 20
255.9256705535459
 30
0.0
 10
272.258067697286
 20
255.9339667185583
 30
0.0
 10
272.2624776290953
 20
255.937749432382
 30
0.0
 10
272.267292079806
 20
255.9411428593074
 30
0.0
  0
SPLINE
  5
1F1
330
1F
100
AcDbEntity
  8
1
100
AcDbSpline
210
0.0
220
0.0
230
1.0
 70
     8
 71
     3
 72
    14
 73
    10
 74
     0
 42
0.000000001
 43
0.0000000001
 40
0.0
 40
0.0
 40
0.0
 40
0.0
 40
0.2499999999999989
 40
0.2499999999999989
 40
0.4999999999999992
 40
0.4999999999999992
 40
0.7499999999999996
 40
0.7499999999999996
 40
1.0
 40
1.0
 40
1.0
 40
1.0
 10
272.2361576966438
 20
255.8165849451234
 30
0.0
 10
272.2391752932461
 20
255.8098806157892
 30
0.0
 10
272.2415088351438
 20
255.8028948910397
 30
0.0
 10
272.244711756425
 20
255.7886876579793
 30
0.0
 10
272.2455808464176
 20
255.7815195941144
 30
0.0
 10
272.2458368737165
 20
255.7670511889596
 30
0.0
 10
272.2451998238166
 20
255.7597194145525
 30
0.0
 10
272.2424167519179
 20
255.7455723958566
 30
0.0
 10
272.2402813007404
 20
255.7386752583868
 30
0.0
 10
272.23733508806
 20
255.7319684339931
 30
0.0
  0
SPLINE
  5
1F2
330
1F
100
AcDbEntity
  8
1
100
AcDbSpline
210
0.0
220
0.0
230
1.0
 70
     8
 71
     3
 72
    21
 73
    17
 74
     0
 42
0.000000001
 43
0.0000000001
 40
0.0
 40
0.0
 40
0.0
 40
0.0
 40
0.2499999999999458
 40
0.2499999999999458
 40
0.3124999999999345
 40
0.3124999999999345
 40
0.3749999999999232
 40
0.3749999999999232
 40
0.4999999999999075
 40
0.6249999999998917
 40
0.6249999999998917
 40
0.6874999999999036
 40
0.6874999999999036
 40
0.7499999999999155
 40
0.7499999999999155
 40
1.0
 40
1.0
 40
1.0
 40
1.0
 10
272.23733508806
 20
255.7319684339931
 30
0.0
 10
272.220240921648
 20
255.6930548915164
 30
0.0
 10
272.1988093747419
 20
255.6567846380734
 30
0.0
 10
272.1663518897474
 20
255.6148063410064
 30
0.0
 10
272.1595734167705
 20
255.6065808796238
 30
0.0
 10
272.1454212802777
 20
255.5904811725527
 30
0.0
 10
272.1380274313103
 20
255.5825900214559
 30
0.0
 10
272.1152675017883
 20
255.559803719129
 30
0.0
 10
272.0832030817469
 20
255.5315583292974
 30
0.0
 10
272.0477722734161
 20
255.5074942845301
 30
0.0
 10
272.0199175950652
 20
255.4910400335996
 30
0.0
 10
272.0103834732145
 20
255.485804196538
 30
0.0
 10
271.9910624950136
 20
255.4759688959551
 30
0.0
 10
271.9812956381331
 20
255.4713762387248
 30
0.0
 10
271.9319474586297
 20
255.4499807768201
 30
0.0
 10
271.8908456853189
 20
255.4378175197509
 30
0.0
 10
271.8481694928652
 20
255.4304195095521
 30
0.0
  0
SPLINE
  5
1F3
330
1F
100
AcDbEntity
  8
1
100
AcDbSpline
210
0.0
220
0.0
230
1.0
 70
     8
 71
     3
 72
    20
 73
    16
 74
     0
 42
0.000000001
 43
0.0000000001
 40
0.0
 40
0.0
 40
0.0
 40
0.0
 40
0.125
 40
0.125
 40
0.25
 40
0.25
 40
0.375
 40
0.375
 40
0.5
 40
0.5
 40
0.625
 40
0.625
 40
0.75
 40
0.75
 40
1.0
 40
1.0
 40
1.0
 40
1.0
 10
271.5368704373639
 20
254.2034619210264
 30
0.0
 10
271.5358984613011
 20
254.2092186588342
 30
0.0
 10
271.5354863757105
 20
254.2149631969637
 30
0.0
 10
271.5357219671045
 20
254.2264280986199
 30
0.0
 10
271.5363844057628
 20
254.2322047263902
 30
0.0
 10
271.5387347803041
 20
254.2434194915418
 30
0.0
 10
271.5404065534509
 20
254.2488451581973
 30
0.0
 10
271.5446940535137
 20
254.2593492004764
 30
0.0
 10
271.5473394260621
 20
254.2644711169906
 30
0.0
 10
271.5534633244018
 20
254.2741311970324
 30
0.0
 10
271.5569108775834
 20
254.2786405797745
 30
0.0
 10
271.5645367551299
 20
254.2870495618527
 30
0.0
 10
271.5687380788506
 20
254.2909666991631
 30
0.0
 10
271.5823234995859
 20
254.301655155266
 30
0.0
 10
271.5923516340506
 20
254.3071735739657
 30
0.0
 10
271.6033384852886
 20
254.3111012394743
 30
0.0
  0
SPLINE
  5
1F4
330
1F
100
AcDbEntity
  8
1
100
AcDbSpline
210
0.0
220
0.0
230
1.0
 70
     8
 71
     3
 72
    21
 73
    17
 74
     0
 42
0.000000001
 43
0.0000000001
 40
0.0
 40
0.0
 40
0.0
 40
0.0
 40
0.2499999999999933
 40
0.2499999999999933
 40
0.3124999999999953
 40
0.3124999999999953
 40
0.3749999999999973
 40
0.3749999999999973
 40
0.4999999999999917
 40
0.624999999999986
 40
0.624999999999986
 40
0.6874999999999833
 40
0.6874999999999833
 40
0.7499999999999805
 40
0.7499999999999805
 40
1.0
 40
1.0
 40
1.0
 40
1.0
 10
271.6062174028856
 20
254.8548128868773
 30
0.0
 10
271.6307324750421
 20
254.8190124944138
 30
0.0
 10
271.6507524944013
 20
254.7811002730243
 30
0.0
 10
271.6699868371142
 20
254.7309932238664
 30
0.0
 10
271.6735404294413
 20
254.7208342155515
 30
0.0
 10
271.6800409228573
 20
254.7002316247702
 30
0.0
 10
271.6829919321843
 20
254.6897620255624
 30
0.0
 10
271.6907882993698
 20
254.6583875210583
 30
0.0
 10
271.6984717350937
 20
254.6163748704105
 30
0.0
 10
271.7008456500129
 20
254.5740155026104
 30
0.0
 10
271.7006031057709
 20
254.5421117151344
 30
0.0
 10
271.7001810734122
 20
254.5314163400927
 30
0.0
 10
271.6986623699865
 20
254.5101800156343
 30
0.0
 10
271.6975701656123
 20
254.4996592790345
 30
0.0
 10
271.6905029240081
 20
254.4475205981257
 30
0.0
 10
271.6797749010117
 20
254.4072805541383
 30
0.0
 10
271.6641569818946
 20
254.3683715586407
 30
0.0
  0
SPLINE
  5
1F5
330
1F
100
AcDbEntity
  8
1
100
AcDbSpline
210
0.0
220
0.0
230
1.0
 70
     8
 71
     3
 72
    14
 73
    10
 74
     0
 42
0.000000001
 43
0.0000000001
 40
0.0
 40
0.0
 40
0.0
 40
0.0
 40
0.25
 40
0.25
 40
0.5
 40
0.5
 40
0.75
 40
0.75
 40
1.0
 40
1.0
 40
1.0
 40
1.0
 10
271.6641569818946
 20
254.3683715586407
 30
0.0
 10
271.6614633455235
 20
254.3616608896554
 30
0.0
 10
271.6579939451882
 20
254.3552735609575
 30
0.0
 10
271.6498638814359
 20
254.343550273251
 30
0.0
 10
271.6452080785785
 20
254.3381881601958
 30
0.0
 10
271.6347511435789
 20
254.3284276844761
 30
0.0
 10
271.628940620438
 20
254.3240511142162
 30
0.0
 10
271.6166994841296
 20
254.3166466143116
 30
0.0
 10
271.6102096653408
 20
254.3135576026588
 30
0.0
 10
271.6033384852886
 20
254.3111012394743
 30
0.0
  0
SPLINE
  5
1F6
330
1F
100
AcDbEntity
  8
1
100
AcDbSpline
210
0.0
220
0.0
230
1.0
 70
     8
 71
     3
 72
    17
 73
    13
 74
     0
 42
0.000000001
 43
0.0000000001
 40
0.0
 40
0.0
 40
0.0
 40
0.0
 40
0.3903204942765723
 40
0.3903204942765723
 40
0.4879006178456893
 40
0.4879006178456893
 40
0.5854807414148063
 40
0.5854807414148063
 40
0.7806409885530364
 40
0.9758012356912663
 40
0.9758012356912663
 40
1.0
 40
1.0
 40
1.0
 40
1.0
 10
272.267292079806
 20
255.9411428593074
 30
0.0
 10
272.3019213410434
 20
255.9655510160322
 30
0.0
 10
272.3389034129564
 20
255.9855144962867
 30
0.0
 10
272.3880548558352
 20
256.0049182072028
 30
0.0
 10
272.3980551128773
 20
256.0085235527925
 30
0.0
 10
272.418128370241
 20
256.0150889304039
 30
0.0
 10
272.4282242521895
 20
256.0180594306077
 30
0.0
 10
272.458686224453
 20
256.0260514853222
 30
0.0
 10
272.4997658835163
 20
256.0342616467824
 30
0.0
 10
272.5417658029224
 20
256.0376135036955
 30
0.0
 10
272.5656371148415
 20
256.038086357661
 30
0.0
 10
272.5682728993273
 20
256.0381189993039
 30
0.0
 10
272.5709092701915
 20
256.0381322017176
 30
0.0
  0
SPLINE
  5
1F7
330
1F
100
AcDbEntity
  8
1
100
AcDbSpline
210
0.0
220
0.0
230
1.0
 70
     8
 71
     3
 72
    15
 73
    11
 74
     0
 42
0.000000001
 43
0.0000000001
 40
0.0
 40
0.0
 40
0.0
 40
0.0
 40
0.1006440019382386
 40
0.3254830014536715
 40
0.3254830014536715
 40
0.437902501211388
 40
0.437902501211388
 40
0.5503220009691044
 40
0.5503220009691044
 40
1.0
 40
1.0
 40
1.0
 40
1.0
 10
271.6523221380503
 20
253.9537989796788
 30
0.0
 10
271.6463197382064
 20
253.9609626157418
 30
0.0
 10
271.6275400912682
 20
253.9846176768463
 30
0.0
 10
271.6107983782099
 20
254.0098457490382
 30
0.0
 10
271.5949586959359
 20
254.0371498657972
 30
0.0
 10
271.5899431961831
 20
254.0464289323145
 30
0.0
 10
271.580545463812
 20
254.0651314344216
 30
0.0
 10
271.5761462518616
 20
254.0745834046736
 30
0.0
 10
271.5556219257408
 20
254.1223373328398
 30
0.0
 10
271.5438535943195
 20
254.1621026682594
 30
0.0
 10
271.5368704373639
 20
254.2034619210264
 30
0.0
  0
SPLINE
  5
1F8
330
1F
100
AcDbEntity
  8
1
100
AcDbSpline
210
0.0
220
0.0
230
1.0
 70
     8
 71
     3
 72
    17
 73
    13
 74
     0
 42
0.000000001
 43
0.0000000001
 40
0.0
 40
0.0
 40
0.0
 40
0.0
 40
0.382108127800148
 40
0.382108127800148
 40
0.477635159750199
 40
0.477635159750199
 40
0.5731621917002502
 40
0.5731621917002502
 40
0.7642162556003522
 40
0.9552703195004539
 40
0.9552703195004539
 40
1.0
 40
1.0
 40
1.0
 40
1.0
 10
273.2953145612541
 20
255.6322906196335
 30
0.0
 10
273.2553998782651
 20
255.6281673962663
 30
0.0
 10
273.2153025273553
 20
255.6290020053701
 30
0.0
 10
273.1647837984515
 20
255.636431458243
 30
0.0
 10
273.1546601242361
 20
255.6382407865931
 30
0.0
 10
273.134368474055
 20
255.6425285194762
 30
0.0
 10
273.1241764065846
 20
255.6450158941408
 30
0.0
 10
273.0939849845295
 20
255.6533865435892
 30
0.0
 10
273.054479902137
 20
255.6670090343085
 30
0.0
 10
273.0164330761023
 20
255.6854486756067
 30
0.0
 10
272.993416337414
 20
255.6983380306917
 30
0.0
 10
272.9890632724474
 20
255.7008551904332
 30
0.0
 10
272.9847360474623
 20
255.7034370830869
 30
0.0
  0
SPLINE
  5
1F9
330
1F
100
AcDbEntity
  8
1
100
AcDbSpline
210
0.0
220
0.0
230
1.0
 70
     8
 71
     3
 72
    14
 73
    10
 74
     0
 42
0.000000001
 43
0.0000000001
 40
0.0
 40
0.0
 40
0.0
 40
0.0
 40
0.25
 40
0.25
 40
0.5
 40
0.5
 40
0.75
 40
0.75
 40
1.0
 40
1.0
 40
1.0
 40
1.0
 10
273.3625135320325
 20
255.674215938715
 30
0.0
 10
273.3586783108299
 20
255.6683777855018
 30
0.0
 10
273.3542701610112
 20
255.6629927380806
 30
0.0
 10
273.3445198801711
 20
255.6533686383262
 30
0.0
 10
273.3392206912439
 20
255.649155992474
 30
0.0
 10
273.3277611944368
 20
255.6419418528429
 30
0.0
 10
273.321563196606
 20
255.6389456405036
 30
0.0
 10
273.308809542742
 20
255.6344996664171
 30
0.0
 10
273.3021937747312
 20
255.6330012486961
 30
0.0
 10
273.2953145612541
 20
255.6322906196335
 30
0.0
  0
LINE
  5
215
330
1F
100
AcDbEntity
  8
4
100
AcDbLine
 10
238.160388
 20
243.731161
 30
0.0
 11
279.114213
 21
243.731161
 31
0.0
  0
MTEXT
  5
216
330
1F
100
AcDbEntity
  8
SK6
100
AcDbMText
 10
192.513213
 20
212.002455
 30
0.0
 40
3.5
 41
0.0
 71
     7
 72
     5
  1
\W0.7256;32E3R040M16-SZD09-C
  7
cesky
 73
     2
 44
0.8433729999999998
  0
MTEXT
  5
2F9
330
1F
100
AcDbEntity
  8
2
100
AcDbMText
 10
255.329748
 20
273.040932
 30
0.0
 40
3.5
 41
0.0
 71
     7
 72
     5
  1
\W0.7045;40
  7
cesky
 73
     2
 44
0.8433729999999998
  0
LINE
  5
2FA
330
1F
100
AcDbEntity
  8
2
100
AcDbLine
 10
277.144248
 20
261.731161
 30
0.0
 11
277.144248
 21
274.166765
 31
0.0
  0
LINE
  5
2FB
330
1F
100
AcDbEntity
  8
2
100
AcDbLine
 10
237.144248
 20
244.730735
 30
0.0
 11
237.144248
 21
274.166765
 31
0.0
  0
LINE
  5
2FC
330
1F
100
AcDbEntity
  8
2
100
AcDbLine
 10
277.144248
 20
273.166765
 30
0.0
 11
237.144248
 21
273.166765
 31
0.0
  0
SOLID
  5
2FD
330
1F
100
AcDbEntity
  8
2
100
AcDbTrace
 10
277.144248
 20
273.166765
 30
0.0
 11
273.644251
 21
272.549621
 31
0.0
 12
273.644246
 22
273.78391
 32
0.0
 13
273.644246
 23
273.78391
 33
0.0
  0
SOLID
  5
2FE
330
1F
100
AcDbEntity
  8
2
100
AcDbTrace
 10
237.144248
 20
273.166765
 30
0.0
 11
240.644246
 21
273.78391
 31
0.0
 12
240.644251
 22
272.549621
 32
0.0
 13
240.644251
 23
272.549621
 33
0.0
  0
MTEXT
  5
2FF
330
1F
100
AcDbEntity
  8
2
100
AcDbMText
 10
268.401071
 20
264.738347
 30
0.0
 40
3.5
 41
0.0
 71
     7
 72
     5
  1
\W1.7063;1
  7
cesky
 73
     2
 44
0.8433729999999998
  0
LINE
  5
300
330
1F
100
AcDbEntity
  8
2
100
AcDbLine
 10
277.144248
 20
261.731161
 30
0.0
 11
277.144248
 21
265.86418
 31
0.0
  0
LINE
  5
301
330
1F
100
AcDbEntity
  8
2
100
AcDbLine
 10
276.190571
 20
259.001405
 30
0.0
 11
276.190571
 21
265.86418
 31
0.0
  0
LINE
  5
302
330
1F
100
AcDbEntity
  8
2
100
AcDbLine
 10
268.215571
 20
264.86418
 30
0.0
 11
285.894248
 21
264.86418
 31
0.0
  0
SOLID
  5
303
330
1F
100
AcDbEntity
  8
2
100
AcDbTrace
 10
277.144248
 20
264.86418
 30
0.0
 11
280.644246
 21
265.481324
 31
0.0
 12
280.644251
 22
264.247036
 32
0.0
 13
280.644251
 23
264.247036
 33
0.0
  0
SOLID
  5
304
330
1F
100
AcDbEntity
  8
2
100
AcDbTrace
 10
276.190571
 20
264.86418
 30
0.0
 11
272.690573
 21
264.247036
 31
0.0
 12
272.690569
 22
265.481324
 32
0.0
 13
272.690569
 23
265.481324
 33
0.0
  0
MTEXT
  5
305
330
1F
100
AcDbEntity
  8
2
100
AcDbMText
 10
289.621604
 20
242.556934
 30
0.0
 40
3.5
 41
0.0
 71
     7
 72
     5
  1
\W0.7045;32
  7
cesky
 11
0.0000000000000001
 21
1.0
 31
0.0
 73
     2
 44
0.8433729999999998
  0
MTEXT
  5
306
330
1F
100
AcDbEntity
  8
2
100
AcDbMText
 10
289.621604
 20
235.819434
 30
0.0
 40
3.5
 41
0.0
 71
     7
 72
     5
  1
\W3.0115;\H2.63;%%c\H3.50;
  7
cesky
 11
0.0000000000000001
 21
1.0
 31
0.0
 73
     2
 44
0.8433729999999998
  0
LINE
  5
307
330
1F
100
AcDbEntity
  8
2
100
AcDbLine
 10
279.144248
 20
259.731161
 30
0.0
 11
290.809021
 21
259.731161
 31
0.0
  0
LINE
  5
308
330
1F
100
AcDbEntity
  8
2
100
AcDbLine
 10
289.809021
 20
259.731161
 30
0.0
 11
289.809021
 21
235.661934
 31
0.0
  0
SOLID
  5
309
330
1F
100
AcDbEntity
  8
2
100
AcDbTrace
 10
289.809021
 20
259.731161
 30
0.0
 11
290.426165
 21
256.231164
 31
0.0
 12
289.191876
 22
256.231159
 32
0.0
 13
289.191876
 23
256.231159
 33
0.0
  0
MTEXT
  5
30A
330
1F
100
AcDbEntity
  8
SK2
100
AcDbMText
 10
207.706167
 20
240.276161
 30
0.0
 40
3.5
 41
0.0
 71
     7
 72
     5
  1
\W0.5332;M
  7
cesky
 11
0.0000000000000001
 21
1.0
 31
0.0
 73
     2
 44
0.8433729999999998
  0
MTEXT
  5
30B
330
1F
100
AcDbEntity
  8
SK2
100
AcDbMText
 10
207.706167
 20
243.501161
 30
0.0
 40
3.5
 41
0.0
 71
     7
 72
     5
  1
\W0.8260;16
  7
cesky
 11
0.0000000000000001
 21
1.0
 31
0.0
 73
     2
 44
0.8433729999999998
  0
LINE
  5
30C
330
1F
100
AcDbEntity
  8
SK2
100
AcDbLine
 10
215.144248
 20
251.731161
 30
0.0
 11
206.937334
 21
251.731161
 31
0.0
  0
LINE
  5
30D
330
1F
100
AcDbEntity
  8
SK2
100
AcDbLine
 10
215.144248
 20
235.731161
 30
0.0
 11
206.937334
 21
235.731161
 31
0.0
  0
LINE
  5
30E
330
1F
100
AcDbEntity
  8
SK2
100
AcDbLine
 10
207.937334
 20
251.731161
 30
0.0
 11
207.937334
 21
235.731161
 31
0.0
  0
SOLID
  5
30F
330
1F
100
AcDbEntity
  8
SK2
100
AcDbTrace
 10
207.937334
 20
251.731161
 30
0.0
 11
208.554479
 21
248.231164
 31
0.0
 12
207.32019
 22
248.231159
 32
0.0
 13
207.32019
 23
248.231159
 33
0.0
  0
SOLID
  5
310
330
1F
100
AcDbEntity
  8
SK2
100
AcDbTrace
 10
207.937334
 20
235.731161
 30
0.0
 11
207.32019
 21
239.231159
 31
0.0
 12
208.554479
 22
239.231164
 32
0.0
 13
208.554479
 23
239.231164
 33
0.0
  0
MTEXT
  5
311
330
1F
100
AcDbEntity
  8
SK2
100
AcDbMText
 10
197.173983
 20
245.257411
 30
0.0
 40
3.5
 41
0.0
 71
     7
 72
     5
  1
\W0.7259;29
  7
cesky
 11
0.0000000000000001
 21
1.0
 31
0.0
 73
     2
 44
0.8433729999999998
  0
MTEXT
  5
312
330
1F
100
AcDbEntity
  8
SK2
100
AcDbMText
 10
197.173983
 20
238.519911
 30
0.0
 40
3.5
 41
0.0
 71
     7
 72
     5
  1
\W3.0115;\H2.63;%%c\H3.50;
  7
cesky
 11
0.0000000000000001
 21
1.0
 31
0.0
 73
     2
 44
0.8433729999999998
  0
LINE
  5
313
330
1F
100
AcDbEntity
  8
SK2
100
AcDbLine
 10
237.644248
 20
258.231161
 30
0.0
 11
196.3614
 21
258.231161
 31
0.0
  0
LINE
  5
314
330
1F
100
AcDbEntity
  8
SK2
100
AcDbLine
 10
237.644248
 20
229.231161
 30
0.0
 11
196.3614
 21
229.231161
 31
0.0
  0
LINE
  5
315
330
1F
100
AcDbEntity
  8
SK2
100
AcDbLine
 10
197.3614
 20
258.231161
 30
0.0
 11
197.3614
 21
229.231161
 31
0.0
  0
SOLID
  5
316
330
1F
100
AcDbEntity
  8
SK2
100
AcDbTrace
 10
197.3614
 20
258.231161
 30
0.0
 11
197.978545
 21
254.731164
 31
0.0
 12
196.744256
 22
254.731159
 32
0.0
 13
196.744256
 23
254.731159
 33
0.0
  0
SOLID
  5
317
330
1F
100
AcDbEntity
  8
SK2
100
AcDbTrace
 10
197.3614
 20
229.231161
 30
0.0
 11
196.744256
 21
232.731159
 31
0.0
 12
197.978545
 22
232.731164
 32
0.0
 13
197.978545
 23
232.731164
 33
0.0
  0
LINE
  5
334
330
1F
100
AcDbEntity
  8
CUT
100
AcDbLine
 10
269.2704092486349
 20
250.4756032347497
 30
0.0
 11
269.2704092486349
 21
250.4756032347497
 31
0.0
  0
ARC
  5
335
330
1F
100
AcDbEntity
  8
CUT
100
AcDbCircle
 10
269.3830089488632
 20
250.8523842271738
 30
0.0
 40
0.3932462444113185
100
AcDbArc
 50
205.5333345349572
 51
253.3614059473237
  0
LINE
  5
336
330
1F
100
AcDbEntity
  8
CUT
100
AcDbLine
 10
268.3183096802301
 20
258.5380448118777
 30
0.0
 11
268.3183096802301
 21
258.5380448118777
 31
0.0
  0
ARC
  5
337
330
1F
100
AcDbEntity
  8
CUT
100
AcDbCircle
 10
274.6718011388741
 20
244.9545546576936
 30
0.0
 40
14.99593473191579
100
AcDbArc
 50
112.4216508520749
 51
115.0671986232836
  0
LINE
  5
338
330
1F
100
AcDbEntity
  8
CUT
100
AcDbLine
 10
276.9692774083109
 20
251.8088496536154
 30
0.0
 11
276.9692774083109
 21
251.8088496536154
 31
0.0
  0
ARC
  5
339
330
1F
100
AcDbEntity
  8
CUT
100
AcDbCircle
 10
276.5720730688048
 20
251.9284543218069
 30
0.0
 40
0.41482112286584
100
AcDbArc
 50
297.5315649378647
 51
343.2420999184014
  0
LINE
  5
33A
330
1F
100
AcDbEntity
  8
CUT
100
AcDbLine
 10
269.2789333237509
 20
250.4731986586731
 30
0.0
 11
269.2789333237509
 21
250.4731986586731
 31
0.0
  0
ARC
  5
33B
330
1F
100
AcDbEntity
  8
CUT
100
AcDbCircle
 10
269.3899724559882
 20
250.883136541256
 30
0.0
 40
0.4247102029202225
100
AcDbArc
 50
253.6492259509394
 51
254.8440713107575
  0
LINE
  5
33C
330
1F
100
AcDbEntity
  8
CUT
100
AcDbLine
 10
268.7507903062871
 20
251.332818863115
 30
0.0
 11
268.7507903062871
 21
251.332818863115
 31
0.0
  0
ARC
  5
33D
330
1F
100
AcDbEntity
  8
CUT
100
AcDbCircle
 10
278.1190110532296
 20
255.0677418325901
 30
0.0
 40
10.08529670120604
100
AcDbArc
 50
186.665669398838
 51
201.736184989312
  0
LINE
  5
33E
330
1F
100
AcDbEntity
  8
CUT
100
AcDbLine
 10
273.5957274539808
 20
250.5391572009378
 30
0.0
 11
273.5957274539808
 21
250.5391572009378
 31
0.0
  0
ARC
  5
33F
330
1F
100
AcDbEntity
  8
CUT
100
AcDbCircle
 10
270.403717500806
 20
272.5425547358665
 30
0.0
 40
22.23372282415329
100
AcDbArc
 50
270.3481205058709
 51
278.2542568349454
  0
LINE
  5
340
330
1F
100
AcDbEntity
  8
CUT
100
AcDbLine
 10
276.7638188265134
 20
251.5606090712239
 30
0.0
 11
276.7638188265134
 21
251.5606090712239
 31
0.0
  0
ARC
  5
341
330
1F
100
AcDbEntity
  8
CUT
100
AcDbCircle
 10
276.5739341049807
 20
251.9270118268174
 30
0.0
 40
0.4126829131161737
100
AcDbArc
 50
296.2178386336236
 51
297.3950168393913
  0
LINE
  5
342
330
1F
100
AcDbEntity
  8
CUT
100
AcDbLine
 10
269.0281692320754
 20
250.6828808816799
 30
0.0
 11
269.0281692320754
 21
250.6828808816799
 31
0.0
  0
ARC
  5
343
330
1F
100
AcDbEntity
  8
CUT
100
AcDbCircle
 10
269.4458782206453
 20
250.8819228848484
 30
0.0
 40
0.4627078107806343
100
AcDbArc
 50
204.4307776452811
 51
205.4782099182077
  0
LINE
  5
344
330
1F
100
AcDbEntity
  8
CUT
100
AcDbLine
 10
276.0499586566808
 20
259.3187433795974
 30
0.0
 11
276.0499586566808
 21
259.3187433795974
 31
0.0
  0
ARC
  5
345
330
1F
100
AcDbEntity
  8
CUT
100
AcDbCircle
 10
262.5282421732366
 20
253.1210692546039
 30
0.0
 40
14.87440691988292
100
AcDbArc
 50
21.95658843111066
 51
24.62433773806043
  0
LINE
  5
346
330
1F
100
AcDbEntity
  8
CUT
100
AcDbLine
 10
275.8041409861069
 20
259.5303740358005
 30
0.0
 11
275.8041409861069
 21
259.5303740358005
 31
0.0
  0
ARC
  5
347
330
1F
100
AcDbEntity
  8
CUT
100
AcDbCircle
 10
275.6966172335869
 20
259.1568932857776
 30
0.0
 40
0.3886505216690411
100
AcDbArc
 50
25.84923404505919
 51
73.93908236660847
  0
LINE
  5
348
330
1F
100
AcDbEntity
  8
CUT
100
AcDbLine
 10
276.0463811122426
 20
259.326346692888
 30
0.0
 11
276.0463811122426
 21
259.326346692888
 31
0.0
  0
ARC
  5
349
330
1F
100
AcDbEntity
  8
CUT
100
AcDbCircle
 10
275.6734585920673
 20
259.1461587236221
 30
0.0
 40
0.4141725610443626
100
AcDbArc
 50
24.62634735901954
 51
25.78881298056313
  0
LINE
  5
34A
330
1F
100
AcDbEntity
  8
CUT
100
AcDbLine
 10
275.795627478213
 20
259.5326868969132
 30
0.0
 11
275.795627478213
 21
259.5326868969132
 31
0.0
  0
ARC
  5
34B
330
1F
100
AcDbEntity
  8
CUT
100
AcDbCircle
 10
275.6881897690616
 20
259.1203896122443
 30
0.0
 40
0.4260656197031374
100
AcDbArc
 50
74.20811063877278
 51
75.39449393696687
  0
ARC
  5
34C
330
1F
100
AcDbEntity
  8
CUT
100
AcDbCircle
 10
268.4892964949652
 20
258.1766592262707
 30
0.0
 40
0.3999493465353554
100
AcDbArc
 50
119.4658253475608
 51
163.7768253616278
  0
ARC
  5
34D
330
1F
100
AcDbEntity
  8
CUT
100
AcDbCircle
 10
268.4794746813365
 20
258.1908563071082
 30
0.0
 40
0.3827604866564993
100
AcDbArc
 50
116.158661229865
 51
119.2311468580719
  0
LINE
  5
34E
330
1F
100
AcDbEntity
  8
CUT
100
AcDbLine
 10
268.1028614261423
 20
258.2797475608151
 30
0.0
 11
268.1028614261423
 21
258.2797475608151
 31
0.0
  0
ARC
  5
34F
330
1F
100
AcDbEntity
  8
CUT
100
AcDbCircle
 10
268.554435758051
 20
258.1585109045666
 30
0.0
 40
0.4675657216446833
100
AcDbArc
 50
163.8715376604098
 51
164.9718671318862
  0
LINE
  5
350
330
1F
100
AcDbEntity
  8
CUT
100
AcDbLine
 10
268.101887142868
 20
253.8970847026756
 30
0.0
 11
268.101887142868
 21
253.8970847026756
 31
0.0
  0
ARC
  5
351
330
1F
100
AcDbEntity
  8
CUT
100
AcDbCircle
 10
293.2881500008219
 20
256.8459884637032
 30
0.0
 40
25.3583096862104
100
AcDbArc
 50
179.6505416715963
 51
186.6780038479323
  0
LINE
  5
352
330
1F
100
AcDbEntity
  8
CUT
100
AcDbLine
 10
276.7562506769178
 20
251.5567866450277
 30
0.0
 11
276.7562506769178
 21
251.5567866450277
 31
0.0
  0
ARC
  5
353
330
1F
100
AcDbEntity
  8
CUT
100
AcDbCircle
 10
270.0449032279753
 20
265.1857476083829
 30
0.0
 40
15.19179915352643
100
AcDbArc
 50
293.5818054977186
 51
296.2171476165977
  0
LINE
  5
354
330
1F
100
AcDbEntity
  8
CUT
100
AcDbLine
 10
268.3107315178046
 20
258.5344131945472
 30
0.0
 11
268.3107315178046
 21
258.5344131945472
 31
0.0
  0
ARC
  5
355
330
1F
100
AcDbEntity
  8
CUT
100
AcDbCircle
 10
268.5057340700682
 20
258.137378246346
 30
0.0
 40
0.4423378182819801
100
AcDbArc
 50
115.0693213414784
 51
116.1578276298771
  0
LINE
  5
356
330
1F
100
AcDbEntity
  8
CUT
100
AcDbLine
 10
270.5388054127106
 20
250.3092422998544
 30
0.0
 11
270.5388054127106
 21
250.3092422998544
 31
0.0
  0
ARC
  5
357
330
1F
100
AcDbEntity
  8
CUT
100
AcDbCircle
 10
270.5122659261439
 20
255.0276779996492
 30
0.0
 40
4.718510336689411
100
AcDbArc
 50
254.8479504465434
 51
270.3222645453397
  0
LINE
  5
358
330
1F
100
AcDbEntity
  8
CUT
100
AcDbLine
 10
274.5357548527992
 20
259.6898868624368
 30
0.0
 11
274.5357548527992
 21
259.6898868624368
 31
0.0
  0
ARC
  5
359
330
1F
100
AcDbEntity
  8
CUT
100
AcDbCircle
 10
274.5670039042302
 20
254.8133004825705
 30
0.0
 40
4.876686500433781
100
AcDbArc
 50
75.40778525447892
 51
90.36714498944389
  0
LINE
  5
35A
330
1F
100
AcDbEntity
  8
CUT
100
AcDbLine
 10
276.3237699592226
 20
258.6826692334182
 30
0.0
 11
276.3237699592226
 21
258.6826692334182
 31
0.0
  0
ARC
  5
35B
330
1F
100
AcDbEntity
  8
CUT
100
AcDbCircle
 10
267.1473909148954
 20
254.9839720597803
 30
0.0
 40
9.893750206440689
100
AcDbArc
 50
6.744530917604059
 51
21.95274575869979
  0
LINE
  5
35C
330
1F
100
AcDbEntity
  8
CUT
100
AcDbLine
 10
271.478832811529
 20
259.486421405078
 30
0.0
 11
271.478832811529
 21
259.486421405078
 31
0.0
  0
ARC
  5
35D
330
1F
100
AcDbEntity
  8
CUT
100
AcDbCircle
 10
274.6952673262119
 20
234.2275673982155
 30
0.0
 40
25.46281910408268
100
AcDbArc
 50
90.35893320563101
 51
97.25692518500004
  0
LINE
  5
35E
330
1F
100
AcDbEntity
  8
CUT
100
AcDbLine
 10
276.9726731226419
 20
256.1459198579133
 30
0.0
 11
276.9726731226419
 21
256.1459198579133
 31
0.0
  0
ARC
  5
35F
330
1F
100
AcDbEntity
  8
CUT
100
AcDbCircle
 10
252.3488619665815
 20
253.2301898432776
 30
0.0
 40
24.79583750083014
100
AcDbArc
 50
359.6543592153333
 51
6.753005824677625
  0
LINE
  5
360
330
1F
100
AcDbEntity
  8
CUT
100
AcDbLine
 10
269.0246016562207
 20
250.690550430155
 30
0.0
 11
269.0246016562207
 21
250.690550430155
 31
0.0
  0
ARC
  5
361
330
1F
100
AcDbEntity
  8
CUT
100
AcDbCircle
 10
282.6237368349691
 20
256.8676222824985
 30
0.0
 40
14.93628783462904
100
AcDbArc
 50
201.7502101091654
 51
204.4287525355062
  0
LINE
  5
362
330
1F
100
AcDbEntity
  8
CUT
100
AcDbLine
 10
276.1225042834342
 20
251.262618400774
 30
0.0
 11
276.1225042834342
 21
251.262618400774
 31
0.0
  0
ARC
  5
363
330
1F
100
AcDbEntity
  8
CUT
100
AcDbCircle
 10
272.1703139711593
 20
260.2918576763009
 30
0.0
 40
9.85631625705855
100
AcDbArc
 50
278.315233882538
 51
293.6394866293677
  0
LINE
  5
364
330
1F
100
AcDbEntity
  8
CUT
100
AcDbLine
 10
277.1442482849922
 20
253.0806081320123
 30
0.0
 11
277.1442482849922
 21
253.0806081320123
 31
0.0
  0
ARC
  5
365
330
1F
100
AcDbEntity
  8
CUT
100
AcDbCircle
 10
272.2027764214526
 20
253.1122361660101
 30
0.0
 40
4.941573080577392
100
AcDbArc
 50
344.8096435831951
 51
359.6332817089721
  0
LINE
  5
366
330
1F
100
AcDbEntity
  8
CUT
100
AcDbLine
 10
268.9520559820756
 20
258.8168262545552
 30
0.0
 11
268.9520559820756
 21
258.8168262545552
 31
0.0
  0
ARC
  5
367
330
1F
100
AcDbEntity
  8
CUT
100
AcDbCircle
 10
272.7308747755394
 20
249.6594236665781
 30
0.0
 40
9.906436979667631
100
AcDbArc
 50
97.26084350399894
 51
112.4235805559148
  0
LINE
  5
368
330
1F
100
AcDbEntity
  8
CUT
100
AcDbLine
 10
276.9716995301646
 20
251.8174102371432
 30
0.0
 11
276.9716995301646
 21
251.8174102371432
 31
0.0
  0
ARC
  5
369
330
1F
100
AcDbEntity
  8
CUT
100
AcDbCircle
 10
276.5785607742956
 20
251.9240215255969
 30
0.0
 40
0.4073377568946511
100
AcDbArc
 50
343.5760200622767
 51
344.8274391730233
  0
LINE
  5
36A
330
1F
100
AcDbEntity
  8
CUT
100
AcDbLine
 10
267.9303119805175
 20
257.0006528673783
 30
0.0
 11
267.9303119805175
 21
257.0006528673783
 31
0.0
  0
ARC
  5
36B
330
1F
100
AcDbEntity
  8
CUT
100
AcDbCircle
 10
272.9845485546908
 20
256.9700037401116
 30
0.0
 40
5.054329502190474
100
AcDbArc
 50
164.9813898084292
 51
179.6525599686958
  0
ENDSEC
  0
SECTION
  2
OBJECTS
  0
DICTIONARY
  5
C
330
0
100
AcDbDictionary
281
     1
  3
ACAD_CIP_PREVIOUS_PRODUCT_INFO
350
2F6
  3
ACAD_COLOR
350
2F1
  3
ACAD_DETAILVIEWSTYLE
350
2ED
  3
ACAD_GROUP
350
D
  3
ACAD_LAYOUT
350
1A
  3
ACAD_MATERIAL
350
43
  3
ACAD_MLEADERSTYLE
350
6B
  3
ACAD_MLINESTYLE
350
17
  3
ACAD_PLOTSETTINGS
350
19
  3
ACAD_PLOTSTYLENAME
350
E
  3
ACAD_SCALELIST
350
47
  3
ACAD_SECTIONVIEWSTYLE
350
2EE
  3
ACAD_TABLESTYLE
350
69
  3
ACAD_VISUALSTYLE
350
2A
  3
ACDB_RECOMPOSE_DATA
350
397
  3
AcDbVariableDictionary
350
2AA
  0
DICTIONARY
  5
37A
330
10
100
AcDbDictionary
280
     1
281
     1
  3
ADSK_XREC_LAYER_RECONCILED
360
37B
  0
DICTIONARY
  5
37C
330
36C
100
AcDbDictionary
280
     1
281
     1
  3
ADSK_XREC_LAYER_RECONCILED
360
37D
  0
DICTIONARY
  5
37E
330
36D
100
AcDbDictionary
280
     1
281
     1
  3
ADSK_XREC_LAYER_RECONCILED
360
37F
  0
DICTIONARY
  5
380
330
36E
100
AcDbDictionary
280
     1
281
     1
  3
ADSK_XREC_LAYER_RECONCILED
360
381
  0
DICTIONARY
  5
382
330
370
100
AcDbDictionary
280
     1
281
     1
  3
ADSK_XREC_LAYER_RECONCILED
360
383
  0
DICTIONARY
  5
384
330
371
100
AcDbDictionary
280
     1
281
     1
  3
ADSK_XREC_LAYER_RECONCILED
360
385
  0
DICTIONARY
  5
386
330
373
100
AcDbDictionary
280
     1
281
     1
  3
ADSK_XREC_LAYER_RECONCILED
360
387
  0
DICTIONARY
  5
388
330
374
100
AcDbDictionary
280
     1
281
     1
  3
ADSK_XREC_LAYER_RECONCILED
360
389
  0
DICTIONARY
  5
38A
330
375
100
AcDbDictionary
280
     1
281
     1
  3
ADSK_XREC_LAYER_RECONCILED
360
38B
  0
DICTIONARY
  5
38C
330
376
100
AcDbDictionary
280
     1
281
     1
  3
ADSK_XREC_LAYER_RECONCILED
360
38D
  0
DICTIONARY
  5
38E
330
377
100
AcDbDictionary
280
     1
281
     1
  3
ADSK_XREC_LAYER_RECONCILED
360
38F
  0
DICTIONARY
  5
390
330
378
100
AcDbDictionary
280
     1
281
     1
  3
ADSK_XREC_LAYER_RECONCILED
360
391
  0
DICTIONARY
  5
2F7
330
1F
100
AcDbDictionary
280
     1
281
     1
  3
ACAD_SORTENTS
360
2F8
  0
XRECORD
  5
2F6
102
{ACAD_REACTORS
330
C
102
}
330
C
100
AcDbXrecord
280
     1
300
ACD
300
2019
300
87084ACD_2019_0F
  0
DICTIONARY
  5
2F1
102
{ACAD_REACTORS
330
C
102
}
330
C
100
AcDbDictionary
281
     1
  0
DICTIONARY
  5
2ED
102
{ACAD_REACTORS
330
C
102
}
330
C
100
AcDbDictionary
281
     1
  3
Metric50
350
2F3
  0
DICTIONARY
  5
D
102
{ACAD_REACTORS
330
C
102
}
330
C
100
AcDbDictionary
281
     1
  3
CENTERLINE
350
295
  3
NULOVY_BOD
350
379
  0
DICTIONARY
  5
1A
102
{ACAD_REACTORS
330
C
102
}
330
C
100
AcDbDictionary
281
     1
  3
Layout1
350
1E
  3
Layout2
350
26
  3
Model
350
22
  0
DICTIONARY
  5
43
102
{ACAD_REACTORS
330
C
102
}
330
C
100
AcDbDictionary
281
     1
  3
ByBlock
350
45
  3
ByLayer
350
44
  3
Global
350
46
  0
DICTIONARY
  5
6B
102
{ACAD_REACTORS
330
C
102
}
330
C
100
AcDbDictionary
281
     1
  3
Standard
350
6C
  0
DICTIONARY
  5
17
102
{ACAD_REACTORS
330
C
102
}
330
C
100
AcDbDictionary
281
     1
  3
Standard
350
18
  0
DICTIONARY
  5
19
102
{ACAD_REACTORS
330
C
102
}
330
C
100
AcDbDictionary
281
     1
  0
ACDBDICTIONARYWDFLT
  5
E
102
{ACAD_REACTORS
330
C
102
}
330
C
100
AcDbDictionary
281
     1
  3
Normal
350
F
100
AcDbDictionaryWithDefault
340
F
  0
DICTIONARY
  5
47
102
{ACAD_REACTORS
330
C
102
}
330
C
100
AcDbDictionary
281
     1
  3
A0
350
48
  3
A1
350
49
  3
A2
350
4A
  3
A3
350
4B
  3
A4
350
4C
  3
A5
350
4D
  3
A6
350
4E
  3
A7
350
4F
  3
A8
350
50
  3
A9
350
51
  3
B0
350
52
  3
B1
350
53
  3
B2
350
54
  3
B3
350
55
  3
B4
350
56
  3
B5
350
57
  3
B6
350
58
  3
B7
350
59
  3
B8
350
5A
  3
B9
350
5B
  3
C0
350
5C
  3
C1
350
5D
  3
C2
350
5E
  3
C3
350
5F
  3
C4
350
60
  3
C5
350
61
  3
C6
350
62
  3
C7
350
63
  3
C8
350
64
  3
C9
350
65
  3
D0
350
66
  3
D1
350
67
  3
D2
350
68
  0
DICTIONARY
  5
2EE
102
{ACAD_REACTORS
330
C
102
}
330
C
100
AcDbDictionary
281
     1
  3
Metric50
350
2F2
  0
DICTIONARY
  5
69
102
{ACAD_REACTORS
330
C
102
}
330
C
100
AcDbDictionary
281
     1
  3
Standard
350
6A
  0
DICTIONARY
  5
2A
102
{ACAD_REACTORS
330
C
102
}
330
C
100
AcDbDictionary
281
     1
  3
2dWireframe
350
2F
  3
Basic
350
32
  3
Brighten
350
36
  3
ColorChange
350
3A
  3
Conceptual
350
34
  3
Dim
350
35
  3
EdgeColorOff
350
3D
  3
Facepattern
350
39
  3
Flat
350
2B
  3
FlatWithEdges
350
2C
  3
Gouraud
350
2D
  3
GouraudWithEdges
350
2E
  3
Hidden
350
31
  3
JitterOff
350
3B
  3
Linepattern
350
38
  3
OverhangOff
350
3C
  3
Realistic
350
33
  3
Shaded
350
42
  3
Shaded with edges
350
41
  3
Shades of Gray
350
3E
  3
Sketchy
350
3F
  3
Thicken
350
37
  3
Wireframe
350
30
  3
X-Ray
350
40
  0
XRECORD
  5
397
102
{ACAD_REACTORS
330
C
102
}
330
C
100
AcDbXrecord
280
     1
 90
        1
330
6A
  0
DICTIONARY
  5
2AA
102
{ACAD_REACTORS
330
C
102
}
330
C
100
AcDbDictionary
281
     1
  3
CANNOSCALE
350
2AB
  3
CMLEADERSTYLE
350
2EC
  3
CTABLESTYLE
350
2EB
  3
CVIEWDETAILSTYLE
350
392
  3
CVIEWSECTIONSTYLE
350
393
  3
MSLTSCALE
350
2AC
  3
XCLIPFRAME
350
394
  0
XRECORD
  5
37B
102
{ACAD_REACTORS
330
37A
102
}
330
37A
100
AcDbXrecord
280
     1
290
     1
  0
XRECORD
  5
37D
102
{ACAD_REACTORS
330
37C
102
}
330
37C
100
AcDbXrecord
280
     1
290
     1
  0
XRECORD
  5
37F
102
{ACAD_REACTORS
330
37E
102
}
330
37E
100
AcDbXrecord
280
     1
290
     1
  0
XRECORD
  5
381
102
{ACAD_REACTORS
330
380
102
}
330
380
100
AcDbXrecord
280
     1
290
     1
  0
XRECORD
  5
383
102
{ACAD_REACTORS
330
382
102
}
330
382
100
AcDbXrecord
280
     1
290
     1
  0
XRECORD
  5
385
102
{ACAD_REACTORS
330
384
102
}
330
384
100
AcDbXrecord
280
     1
290
     1
  0
XRECORD
  5
387
102
{ACAD_REACTORS
330
386
102
}
330
386
100
AcDbXrecord
280
     1
290
     1
  0
XRECORD
  5
389
102
{ACAD_REACTORS
330
388
102
}
330
388
100
AcDbXrecord
280
     1
290
     1
  0
XRECORD
  5
38B
102
{ACAD_REACTORS
330
38A
102
}
330
38A
100
AcDbXrecord
280
     1
290
     1
  0
XRECORD
  5
38D
102
{ACAD_REACTORS
330
38C
102
}
330
38C
100
AcDbXrecord
280
     1
290
     1
  0
XRECORD
  5
38F
102
{ACAD_REACTORS
330
38E
102
}
330
38E
100
AcDbXrecord
280
     1
290
     1
  0
XRECORD
  5
391
102
{ACAD_REACTORS
330
390
102
}
330
390
100
AcDbXrecord
280
     1
290
     1
  0
SORTENTSTABLE
  5
2F8
102
{ACAD_REACTORS
330
2F7
102
}
330
2F7
100
AcDbSortentsTable
330
1F
331
2F9
  5
24D
331
2FA
  5
27C
331
2FB
  5
2F9
331
2FC
  5
2FA
331
2FD
  5
2FB
331
2FE
  5
2FC
331
2FF
  5
2FD
331
300
  5
2FE
331
301
  5
2FF
331
302
  5
300
331
303
  5
301
331
304
  5
302
331
305
  5
30C
331
306
  5
30D
331
307
  5
30E
331
308
  5
30F
331
309
  5
310
331
30A
  5
304
331
30B
  5
305
331
30C
  5
306
331
30D
  5
307
331
30E
  5
308
331
30F
  5
30A
331
310
  5
30B
  0
ACDBDETAILVIEWSTYLE
  5
2F3
102
{ACAD_XDICTIONARY
360
3CB
102
}
102
{ACAD_REACTORS
330
2ED
102
}
330
2ED
100
AcDbModelDocViewStyle
 70
     0
  3
Metric50
290
     0
100
AcDbDetailViewStyle
 70
     0
 71
     0
 90
        3
 71
     1
340
11
 62
   256
 40
5.0
340
0
 62
   256
 40
5.0
300

 40
0.0
280
     1
 71
     2
340
16
 90
       25
 62
   256
 71
     3
340
11
 62
   256
 40
5.0
 90
        0
 40
15.0
 90
        1
300
%<\AcVar ViewDetailId>% (%<\AcVar ViewScale \f "%sn">%)
 71
     4
340
16
 90
       25
 62
   256
340
16
 90
       25
 62
   256
280
     0
  0
GROUP
  5
295
102
{ACAD_REACTORS
330
D
102
}
330
D
100
AcDbGroup
300

 70
     0
 71
     1
340
114
  0
GROUP
  5
379
102
{ACAD_REACTORS
330
D
102
}
330
D
100
AcDbGroup
300

 70
     0
 71
     1
340
73
  0
LAYOUT
  5
1E
102
{ACAD_REACTORS
330
1A
102
}
330
1A
100
AcDbPlotSettings
  1

  2
none_device
  4

  6

 40
0.0
 41
0.0
 42
0.0
 43
0.0
 44
0.0
 45
0.0
 46
0.0
 47
0.0
 48
0.0
 49
0.0
140
0.0
141
0.0
142
1.0
143
1.0
 70
   688
 72
     0
 73
     0
 74
     5
  7

 75
    16
147
1.0
 76
     0
 77
     2
 78
   300
148
0.0
149
0.0
100
AcDbLayout
  1
Layout1
 70
     1
 71
     1
 10
-0.5
 20
-0.5
 11
5.0
 21
5.0
 12
0.0
 22
0.0
 32
0.0
 14
-0.5
 24
-0.5
 34
-0.5
 15
5.0
 25
5.0
 35
5.0
146
0.0
 13
0.0
 23
0.0
 33
0.0
 16
1.0
 26
0.0
 36
0.0
 17
0.0
 27
1.0
 37
0.0
 76
     0
330
1B
  0
LAYOUT
  5
26
102
{ACAD_REACTORS
330
1A
102
}
330
1A
100
AcDbPlotSettings
  1

  2
none_device
  4

  6

 40
0.0
 41
0.0
 42
0.0
 43
0.0
 44
0.0
 45
0.0
 46
0.0
 47
0.0
 48
0.0
 49
0.0
140
0.0
141
0.0
142
1.0
143
1.0
 70
   688
 72
     0
 73
     0
 74
     5
  7

 75
    16
147
1.0
 76
     0
 77
     2
 78
   300
148
0.0
149
0.0
100
AcDbLayout
  1
Layout2
 70
     1
 71
     2
 10
0.0
 20
0.0
 11
0.0
 21
0.0
 12
0.0
 22
0.0
 32
0.0
 14
0.0
 24
0.0
 34
0.0
 15
0.0
 25
0.0
 35
0.0
146
0.0
 13
0.0
 23
0.0
 33
0.0
 16
1.0
 26
0.0
 36
0.0
 17
0.0
 27
1.0
 37
0.0
 76
     0
330
23
  0
LAYOUT
  5
22
102
{ACAD_REACTORS
330
1A
102
}
330
1A
100
AcDbPlotSettings
  1

  2
none_device
  4
Letter_(8.50_x_11.00_Inches)
  6

 40
6.349999999999999
 41
6.349999999999999
 42
6.350005
 43
6.350005
 44
215.9
 45
279.4
 46
0.0
 47
0.0
 48
0.0
 49
0.0
140
0.0
141
0.0
142
1.0
143
1.0
 70
  1712
 72
     0
 73
     0
 74
     0
  7

 75
     0
147
1.0
 76
     0
 77
     2
 78
   300
148
0.0
149
0.0
100
AcDbLayout
  1
Model
 70
     1
 71
     0
 10
-0.5
 20
-0.5
 11
5.0
 21
5.0
 12
0.0
 22
0.0
 32
0.0
 14
-0.5
 24
-0.5
 34
-0.5
 15
5.0
 25
5.0
 35
5.0
146
0.0
 13
0.0
 23
0.0
 33
0.0
 16
1.0
 26
0.0
 36
0.0
 17
0.0
 27
1.0
 37
0.0
 76
     0
330
1F
331
29
  0
MATERIAL
  5
45
102
{ACAD_XDICTIONARY
360
2E0
102
}
102
{ACAD_REACTORS
330
43
102
}
330
43
100
AcDbMaterial
  1
ByBlock
  0
MATERIAL
  5
44
102
{ACAD_XDICTIONARY
360
2DE
102
}
102
{ACAD_REACTORS
330
43
102
}
330
43
100
AcDbMaterial
  1
ByLayer
  0
MATERIAL
  5
46
102
{ACAD_XDICTIONARY
360
2E2
102
}
102
{ACAD_REACTORS
330
43
102
}
330
43
100
AcDbMaterial
  1
Global
  0
MLEADERSTYLE
  5
6C
102
{ACAD_REACTORS
330
6B
102
}
330
6B
100
AcDbMLeaderStyle
170
     2
171
     1
172
     0
 90
        2
 40
0.0
 41
0.0
173
     1
 91
-1056964608
340
14
 92
       -2
290
     1
 42
0.09
291
     1
 43
0.36
  3
Standard
 44
0.18
300

342
11
174
     1
178
     6
175
     1
176
     0
 93
-1056964608
 45
0.18
292
     0
297
     0
 46
0.18
 94
-1056964608
 47
1.0
 49
1.0
140
1.0
293
     1
141
0.0
294
     1
177
     0
142
1.0
295
     0
296
     0
143
0.125
1001
ACAD_MLEADERVER
1070
     2
  0
MLINESTYLE
  5
18
102
{ACAD_REACTORS
330
17
102
}
330
17
100
AcDbMlineStyle
  2
STANDARD
 70
     0
  3

 62
   256
 51
90.0
 52
90.0
 71
     2
 49
0.5
 62
   256
  6
BYLAYER
 49
-0.5
 62
   256
  6
BYLAYER
  0
ACDBPLACEHOLDER
  5
F
102
{ACAD_REACTORS
330
E
102
}
330
E
  0
SCALE
  5
48
102
{ACAD_REACTORS
330
47
102
}
330
47
100
AcDbScale
 70
     0
300
1:1
140
1.0
141
1.0
290
     1
  0
SCALE
  5
49
102
{ACAD_REACTORS
330
47
102
}
330
47
100
AcDbScale
 70
     0
300
1:2
140
1.0
141
2.0
290
     0
  0
SCALE
  5
4A
102
{ACAD_REACTORS
330
47
102
}
330
47
100
AcDbScale
 70
     0
300
1:4
140
1.0
141
4.0
290
     0
  0
SCALE
  5
4B
102
{ACAD_REACTORS
330
47
102
}
330
47
100
AcDbScale
 70
     0
300
1:5
140
1.0
141
5.0
290
     0
  0
SCALE
  5
4C
102
{ACAD_REACTORS
330
47
102
}
330
47
100
AcDbScale
 70
     0
300
1:8
140
1.0
141
8.0
290
     0
  0
SCALE
  5
4D
102
{ACAD_REACTORS
330
47
102
}
330
47
100
AcDbScale
 70
     0
300
1:10
140
1.0
141
10.0
290
     0
  0
SCALE
  5
4E
102
{ACAD_REACTORS
330
47
102
}
330
47
100
AcDbScale
 70
     0
300
1:16
140
1.0
141
16.0
290
     0
  0
SCALE
  5
4F
102
{ACAD_REACTORS
330
47
102
}
330
47
100
AcDbScale
 70
     0
300
1:20
140
1.0
141
20.0
290
     0
  0
SCALE
  5
50
102
{ACAD_REACTORS
330
47
102
}
330
47
100
AcDbScale
 70
     0
300
1:30
140
1.0
141
30.0
290
     0
  0
SCALE
  5
51
102
{ACAD_REACTORS
330
47
102
}
330
47
100
AcDbScale
 70
     0
300
1:40
140
1.0
141
40.0
290
     0
  0
SCALE
  5
52
102
{ACAD_REACTORS
330
47
102
}
330
47
100
AcDbScale
 70
     0
300
1:50
140
1.0
141
50.0
290
     0
  0
SCALE
  5
53
102
{ACAD_REACTORS
330
47
102
}
330
47
100
AcDbScale
 70
     0
300
1:100
140
1.0
141
100.0
290
     0
  0
SCALE
  5
54
102
{ACAD_REACTORS
330
47
102
}
330
47
100
AcDbScale
 70
     0
300
2:1
140
2.0
141
1.0
290
     0
  0
SCALE
  5
55
102
{ACAD_REACTORS
330
47
102
}
330
47
100
AcDbScale
 70
     0
300
4:1
140
4.0
141
1.0
290
     0
  0
SCALE
  5
56
102
{ACAD_REACTORS
330
47
102
}
330
47
100
AcDbScale
 70
     0
300
8:1
140
8.0
141
1.0
290
     0
  0
SCALE
  5
57
102
{ACAD_REACTORS
330
47
102
}
330
47
100
AcDbScale
 70
     0
300
10:1
140
10.0
141
1.0
290
     0
  0
SCALE
  5
58
102
{ACAD_REACTORS
330
47
102
}
330
47
100
AcDbScale
 70
     0
300
100:1
140
100.0
141
1.0
290
     0
  0
SCALE
  5
59
102
{ACAD_REACTORS
330
47
102
}
330
47
100
AcDbScale
 70
     0
300
1/128" = 1'-0"
140
0.007812
141
12.0
290
     0
  0
SCALE
  5
5A
102
{ACAD_REACTORS
330
47
102
}
330
47
100
AcDbScale
 70
     0
300
1/64" = 1'-0"
140
0.015625
141
12.0
290
     0
  0
SCALE
  5
5B
102
{ACAD_REACTORS
330
47
102
}
330
47
100
AcDbScale
 70
     0
300
1/32" = 1'-0"
140
0.03125
141
12.0
290
     0
  0
SCALE
  5
5C
102
{ACAD_REACTORS
330
47
102
}
330
47
100
AcDbScale
 70
     0
300
1/16" = 1'-0"
140
0.0625
141
12.0
290
     0
  0
SCALE
  5
5D
102
{ACAD_REACTORS
330
47
102
}
330
47
100
AcDbScale
 70
     0
300
3/32" = 1'-0"
140
0.09375
141
12.0
290
     0
  0
SCALE
  5
5E
102
{ACAD_REACTORS
330
47
102
}
330
47
100
AcDbScale
 70
     0
300
1/8" = 1'-0"
140
0.125
141
12.0
290
     0
  0
SCALE
  5
5F
102
{ACAD_REACTORS
330
47
102
}
330
47
100
AcDbScale
 70
     0
300
3/16" = 1'-0"
140
0.1875
141
12.0
290
     0
  0
SCALE
  5
60
102
{ACAD_REACTORS
330
47
102
}
330
47
100
AcDbScale
 70
     0
300
1/4" = 1'-0"
140
0.25
141
12.0
290
     0
  0
SCALE
  5
61
102
{ACAD_REACTORS
330
47
102
}
330
47
100
AcDbScale
 70
     0
300
3/8" = 1'-0"
140
0.375
141
12.0
290
     0
  0
SCALE
  5
62
102
{ACAD_REACTORS
330
47
102
}
330
47
100
AcDbScale
 70
     0
300
1/2" = 1'-0"
140
0.5
141
12.0
290
     0
  0
SCALE
  5
63
102
{ACAD_REACTORS
330
47
102
}
330
47
100
AcDbScale
 70
     0
300
3/4" = 1'-0"
140
0.75
141
12.0
290
     0
  0
SCALE
  5
64
102
{ACAD_REACTORS
330
47
102
}
330
47
100
AcDbScale
 70
     0
300
1" = 1'-0"
140
1.0
141
12.0
290
     0
  0
SCALE
  5
65
102
{ACAD_REACTORS
330
47
102
}
330
47
100
AcDbScale
 70
     0
300
1-1/2" = 1'-0"
140
1.5
141
12.0
290
     0
  0
SCALE
  5
66
102
{ACAD_REACTORS
330
47
102
}
330
47
100
AcDbScale
 70
     0
300
3" = 1'-0"
140
3.0
141
12.0
290
     0
  0
SCALE
  5
67
102
{ACAD_REACTORS
330
47
102
}
330
47
100
AcDbScale
 70
     0
300
6" = 1'-0"
140
6.0
141
12.0
290
     0
  0
SCALE
  5
68
102
{ACAD_REACTORS
330
47
102
}
330
47
100
AcDbScale
 70
     0
300
1'-0" = 1'-0"
140
12.0
141
12.0
290
     0
  0
ACDBSECTIONVIEWSTYLE
  5
2F2
102
{ACAD_XDICTIONARY
360
3C9
102
}
102
{ACAD_REACTORS
330
2EE
102
}
330
2EE
100
AcDbModelDocViewStyle
 70
     0
  3
Metric50
290
     0
100
AcDbSectionViewStyle
 70
     0
 71
     0
 90
      102
 71
     1
340
11
 62
   256
 40
5.0
340
0
340
0
 62
   256
 40
5.0
300
I, O, Q, S, X, Z
 40
10.0
 90
        0
 40
2.5
 90
        0
 71
     2
340
16
 90
       25
 62
   256
340
16
 90
       50
 62
   256
 40
5.0
 40
2.5
 40
5.0
 71
     3
340
11
 62
   256
 40
5.0
 90
        0
 40
15.0
 90
        1
300
%<\AcVar ViewSectionStartId>%-%<\AcVar ViewSectionEndId>% (%<\AcVar ViewScale \f "%sn">%)
 71
     4
 62
   256
 62
   257
300
ANSI31
 40
1.0
 90
        0
290
     0
290
     0
 90
        6
 40
0.0
 40
1.570796326794896
 40
0.2617993877991494
 40
1.308996938995747
 40
-0.2617993877991494
 40
1.832595714594046
  0
TABLESTYLE
  5
6A
102
{ACAD_XDICTIONARY
360
2E4
102
}
102
{ACAD_REACTORS
330
69
102
}
330
69
100
AcDbTableStyle
  3
Standard
 70
     0
 71
     0
 40
0.06
 41
0.06
280
     0
281
     0
  7
Standard
140
0.18
170
     2
 62
     0
 63
     7
283
     0
274
    -2
284
     1
 64
     0
275
    -2
285
     1
 65
     0
276
    -2
286
     1
 66
     0
277
    -2
287
     1
 67
     0
278
    -2
288
     1
 68
     0
279
    -2
289
     1
 69
     0
  7
Standard
140
0.25
170
     5
 62
     0
 63
     7
283
     0
274
    -2
284
     1
 64
     0
275
    -2
285
     1
 65
     0
276
    -2
286
     1
 66
     0
277
    -2
287
     1
 67
     0
278
    -2
288
     1
 68
     0
279
    -2
289
     1
 69
     0
  7
Standard
140
0.18
170
     5
 62
     0
 63
     7
283
     0
274
    -2
284
     1
 64
     0
275
    -2
285
     1
 65
     0
276
    -2
286
     1
 66
     0
277
    -2
287
     1
 67
     0
278
    -2
288
     1
 68
     0
279
    -2
289
     1
 69
     0
  0
VISUALSTYLE
  5
2F
102
{ACAD_XDICTIONARY
360
3A0
102
}
102
{ACAD_REACTORS
330
2A
102
}
330
2A
100
AcDbVisualStyle
  2

 70
     4
 71
     0
 72
     2
 73
     0
 90
        0
 40
-0.6
 41
-30.0
 62
     5
 63
     7
421
 16777215
 74
     1
 91
        4
 64
     7
 65
   257
 75
     1
175
     1
 42
1.0
 92
        0
 66
   257
 43
1.0
 76
     1
 77
     6
 78
     2
 67
     7
 79
     5
170
     0
171
     0
290
     0
174
     0
 93
        1
 44
0.0
173
     0
291
     0
 45
0.0
1001
ACAD
1000
AcDbSavedByObjectVersion
1070
     0
  0
VISUALSTYLE
  5
32
102
{ACAD_XDICTIONARY
360
3A6
102
}
102
{ACAD_REACTORS
330
2A
102
}
330
2A
100
AcDbVisualStyle
  2

 70
     7
 71
     1
 72
     0
 73
     1
 90
        0
 40
-0.6
 41
-30.0
 62
     5
 63
     7
421
 16777215
 74
     0
 91
        4
 64
     7
 65
   257
 75
     1
175
     1
 42
1.0
 92
        8
 66
     7
 43
1.0
 76
     1
 77
     6
 78
     2
 67
     7
 79
     5
170
     0
171
     0
290
     0
174
     0
 93
        1
 44
0.0
173
     0
291
     1
 45
0.0
1001
ACAD
1000
AcDbSavedByObjectVersion
1070
     0
  0
VISUALSTYLE
  5
36
102
{ACAD_XDICTIONARY
360
3AE
102
}
102
{ACAD_REACTORS
330
2A
102
}
330
2A
100
AcDbVisualStyle
  2

 70
    12
 71
     2
 72
     2
 73
     0
 90
        0
 40
-0.6
 41
-30.0
 62
     5
 63
     7
421
 16777215
 74
     1
 91
        4
 64
     7
 65
   257
 75
     1
175
     1
 42
1.0
 92
        8
 66
     7
 43
1.0
 76
     1
 77
     6
 78
     2
 67
     7
 79
     5
170
     0
171
     0
290
     0
174
     0
 93
        1
 44
50.0
173
     0
291
     1
 45
0.0
1001
ACAD
1000
AcDbSavedByObjectVersion
1070
     0
  0
VISUALSTYLE
  5
3A
102
{ACAD_XDICTIONARY
360
3B6
102
}
102
{ACAD_REACTORS
330
2A
102
}
330
2A
100
AcDbVisualStyle
  2

 70
    16
 71
     2
 72
     2
 73
     3
 90
        0
 40
-0.6
 41
-30.0
 62
     5
 63
     8
421
  8421504
 74
     1
 91
        4
 64
     7
 65
   257
 75
     1
175
     1
 42
1.0
 92
        8
 66
     8
424
  8421504
 43
1.0
 76
     1
 77
     6
 78
     2
 67
     7
 79
     5
170
     0
171
     0
290
     0
174
     0
 93
        1
 44
0.0
173
     0
291
     1
 45
0.0
1001
ACAD
1000
AcDbSavedByObjectVersion
1070
     0
  0
VISUALSTYLE
  5
34
102
{ACAD_XDICTIONARY
360
3AA
102
}
102
{ACAD_REACTORS
330
2A
102
}
330
2A
100
AcDbVisualStyle
  2

 70
     9
 71
     3
 72
     2
 73
     0
 90
        0
 40
-0.6
 41
-30.0
 62
     5
 63
     7
421
 16777215
 74
     2
 91
        2
 64
     7
 65
   257
 75
     1
175
     1
 42
179.0
 92
        8
 66
     7
 43
1.0
 76
     1
 77
     6
 78
     2
 67
     7
 79
     3
170
     0
171
     0
290
     0
174
     0
 93
        1
 44
0.0
173
     0
291
     0
 45
0.0
1001
ACAD
1000
AcDbSavedByObjectVersion
1070
     0
  0
VISUALSTYLE
  5
35
102
{ACAD_XDICTIONARY
360
3AC
102
}
102
{ACAD_REACTORS
330
2A
102
}
330
2A
100
AcDbVisualStyle
  2

 70
    11
 71
     2
 72
     2
 73
     0
 90
        0
 40
-0.6
 41
-30.0
 62
     5
 63
     7
421
 16777215
 74
     1
 91
        4
 64
     7
 65
   257
 75
     1
175
     1
 42
1.0
 92
        8
 66
     7
 43
1.0
 76
     1
 77
     6
 78
     2
 67
     7
 79
     5
170
     0
171
     0
290
     0
174
     0
 93
        1
 44
-50.0
173
     0
291
     1
 45
0.0
1001
ACAD
1000
AcDbSavedByObjectVersion
1070
     0
  0
VISUALSTYLE
  5
3D
102
{ACAD_XDICTIONARY
360
3BC
102
}
102
{ACAD_REACTORS
330
2A
102
}
330
2A
100
AcDbVisualStyle
  2

 70
    22
 71
     2
 72
     2
 73
     0
 90
        0
 40
-0.6
 41
-30.0
 62
     5
 63
     7
421
 16777215
 74
     1
 91
        4
 64
     7
 65
   257
 75
     1
175
     1
 42
1.0
 92
        8
 66
     7
 43
1.0
 76
     1
 77
     6
 78
     2
 67
     7
 79
     5
170
     0
171
     0
290
     0
174
     0
 93
        1
 44
0.0
173
     0
291
     1
 45
0.0
1001
ACAD
1000
AcDbSavedByObjectVersion
1070
     0
  0
VISUALSTYLE
  5
39
102
{ACAD_XDICTIONARY
360
3B4
102
}
102
{ACAD_REACTORS
330
2A
102
}
330
2A
100
AcDbVisualStyle
  2

 70
    15
 71
     2
 72
     2
 73
     0
 90
        0
 40
-0.6
 41
-30.0
 62
     5
 63
     7
421
 16777215
 74
     1
 91
        4
 64
     7
 65
   257
 75
     1
175
     1
 42
1.0
 92
        8
 66
     7
 43
1.0
 76
     1
 77
     6
 78
     2
 67
     7
 79
     5
170
     0
171
     0
290
     0
174
     0
 93
        1
 44
0.0
173
     0
291
     1
 45
0.0
1001
ACAD
1000
AcDbSavedByObjectVersion
1070
     0
  0
VISUALSTYLE
  5
2B
102
{ACAD_XDICTIONARY
360
398
102
}
102
{ACAD_REACTORS
330
2A
102
}
330
2A
100
AcDbVisualStyle
  2

 70
     0
 71
     2
 72
     1
 73
     1
 90
        2
 40
-0.6
 41
30.0
 62
     5
 63
     7
421
 16777215
 74
     0
 91
        0
 64
     7
 65
   257
 75
     1
175
     1
 42
1.0
 92
        8
 66
     7
 43
1.0
 76
     1
 77
     6
 78
     2
 67
     7
 79
     5
170
     0
171
     0
290
     0
174
     0
 93
       13
 44
0.0
173
     0
291
     1
 45
0.0
1001
ACAD
1000
AcDbSavedByObjectVersion
1070
     0
  0
VISUALSTYLE
  5
2C
102
{ACAD_XDICTIONARY
360
39A
102
}
102
{ACAD_REACTORS
330
2A
102
}
330
2A
100
AcDbVisualStyle
  2

 70
     1
 71
     2
 72
     1
 73
     1
 90
        2
 40
-0.6
 41
30.0
 62
     5
 63
     7
421
 16777215
 74
     1
 91
        0
 64
     7
 65
   257
 75
     1
175
     1
 42
1.0
 92
        0
 66
   257
 43
1.0
 76
     1
 77
     6
 78
     2
 67
     7
 79
     5
170
     0
171
     0
290
     0
174
     0
 93
       13
 44
0.0
173
     0
291
     1
 45
0.0
1001
ACAD
1000
AcDbSavedByObjectVersion
1070
     0
  0
VISUALSTYLE
  5
2D
102
{ACAD_XDICTIONARY
360
39C
102
}
102
{ACAD_REACTORS
330
2A
102
}
330
2A
100
AcDbVisualStyle
  2

 70
     2
 71
     2
 72
     2
 73
     1
 90
        2
 40
-0.6
 41
30.0
 62
     5
 63
     7
421
 16777215
 74
     0
 91
        0
 64
     7
 65
   257
 75
     1
175
     1
 42
1.0
 92
        0
 66
     7
 43
1.0
 76
     1
 77
     6
 78
     2
 67
     7
 79
     5
170
     0
171
     0
290
     0
174
     0
 93
       13
 44
0.0
173
     0
291
     1
 45
0.0
1001
ACAD
1000
AcDbSavedByObjectVersion
1070
     0
  0
VISUALSTYLE
  5
2E
102
{ACAD_XDICTIONARY
360
39E
102
}
102
{ACAD_REACTORS
330
2A
102
}
330
2A
100
AcDbVisualStyle
  2

 70
     3
 71
     2
 72
     2
 73
     1
 90
        2
 40
-0.6
 41
30.0
 62
     5
 63
     7
421
 16777215
 74
     1
 91
        0
 64
     7
 65
   257
 75
     1
175
     1
 42
1.0
 92
        0
 66
   257
 43
1.0
 76
     1
 77
     6
 78
     2
 67
     7
 79
     5
170
     0
171
     0
290
     0
174
     0
 93
       13
 44
0.0
173
     0
291
     1
 45
0.0
1001
ACAD
1000
AcDbSavedByObjectVersion
1070
     0
  0
VISUALSTYLE
  5
31
102
{ACAD_XDICTIONARY
360
3A4
102
}
102
{ACAD_REACTORS
330
2A
102
}
330
2A
100
AcDbVisualStyle
  2

 70
     6
 71
     1
 72
     2
 73
     2
 90
        0
 40
-0.6
 41
-30.0
 62
     5
 63
     7
421
 16777215
 74
     2
 91
        2
 64
     7
 65
   257
 75
     2
175
     1
 42
40.0
 92
        0
 66
   257
 43
1.0
 76
     1
 77
     6
 78
     2
 67
     7
 79
     3
170
     0
171
     0
290
     0
174
     0
 93
        1
 44
0.0
173
     0
291
     0
 45
0.0
1001
ACAD
1000
AcDbSavedByObjectVersion
1070
     0
  0
VISUALSTYLE
  5
3B
102
{ACAD_XDICTIONARY
360
3B8
102
}
102
{ACAD_REACTORS
330
2A
102
}
330
2A
100
AcDbVisualStyle
  2

 70
    20
 71
     2
 72
     2
 73
     0
 90
        0
 40
-0.6
 41
-30.0
 62
     5
 63
     7
421
 16777215
 74
     1
 91
        4
 64
     7
 65
   257
 75
     1
175
     1
 42
1.0
 92
       10
 66
     7
 43
1.0
 76
     1
 77
     6
 78
     2
 67
     7
 79
     5
170
     0
171
     0
290
     0
174
     0
 93
        1
 44
0.0
173
     0
291
     1
 45
0.0
1001
ACAD
1000
AcDbSavedByObjectVersion
1070
     0
  0
VISUALSTYLE
  5
38
102
{ACAD_XDICTIONARY
360
3B2
102
}
102
{ACAD_REACTORS
330
2A
102
}
330
2A
100
AcDbVisualStyle
  2

 70
    14
 71
     2
 72
     2
 73
     0
 90
        0
 40
-0.6
 41
-30.0
 62
     5
 63
     7
421
 16777215
 74
     1
 91
        4
 64
     7
 65
   257
 75
     7
175
     7
 42
1.0
 92
        8
 66
     7
 43
1.0
 76
     1
 77
     6
 78
     2
 67
     7
 79
     5
170
     0
171
     0
290
     0
174
     0
 93
        1
 44
0.0
173
     0
291
     1
 45
0.0
1001
ACAD
1000
AcDbSavedByObjectVersion
1070
     0
  0
VISUALSTYLE
  5
3C
102
{ACAD_XDICTIONARY
360
3BA
102
}
102
{ACAD_REACTORS
330
2A
102
}
330
2A
100
AcDbVisualStyle
  2

 70
    21
 71
     2
 72
     2
 73
     0
 90
        0
 40
-0.6
 41
-30.0
 62
     5
 63
     7
421
 16777215
 74
     1
 91
        4
 64
     7
 65
   257
 75
     1
175
     1
 42
1.0
 92
        9
 66
     7
 43
1.0
 76
     1
 77
     6
 78
     2
 67
     7
 79
     5
170
     0
171
     0
290
     0
174
     0
 93
        1
 44
0.0
173
     0
291
     1
 45
0.0
1001
ACAD
1000
AcDbSavedByObjectVersion
1070
     0
  0
VISUALSTYLE
  5
33
102
{ACAD_XDICTIONARY
360
3A8
102
}
102
{ACAD_REACTORS
330
2A
102
}
330
2A
100
AcDbVisualStyle
  2

 70
     8
 71
     2
 72
     3
 73
     0
 90
        2
 40
-0.6
 41
30.0
 62
     5
 63
     7
421
 16777215
 74
     0
 91
        0
 64
     7
 65
   257
 75
     1
175
     1
 42
1.0
 92
        8
 66
   257
 43
1.0
 76
     1
 77
     6
 78
     2
 67
     7
 79
     3
170
     0
171
     0
290
     0
174
     0
 93
       13
 44
0.0
173
     0
291
     0
 45
0.0
1001
ACAD
1000
AcDbSavedByObjectVersion
1070
     0
  0
VISUALSTYLE
  5
42
102
{ACAD_XDICTIONARY
360
3C6
102
}
102
{ACAD_REACTORS
330
2A
102
}
330
2A
100
AcDbVisualStyle
  2

 70
    27
 71
     2
 72
     2
 73
     1
 90
        2
 40
-0.6
 41
30.0
 62
     5
 63
     7
421
 16777215
 74
     0
 91
        4
 64
     7
 65
   257
 75
     1
175
     1
 42
1.0
 92
        8
 66
   257
 43
1.0
 76
     1
 77
     6
 78
     2
 67
     8
425
  7895160
 79
     3
170
     0
171
     0
290
     0
174
     0
 93
        5
 44
0.0
173
     0
291
     0
 45
0.0
1001
ACAD
1000
AcDbSavedByObjectVersion
1070
     0
  0
VISUALSTYLE
  5
41
102
{ACAD_XDICTIONARY
360
3C4
102
}
102
{ACAD_REACTORS
330
2A
102
}
330
2A
100
AcDbVisualStyle
  2

 70
    26
 71
     2
 72
     2
 73
     1
 90
        2
 40
-0.6
 41
30.0
 62
     5
 63
     7
421
 16777215
 74
     1
 91
       10
 64
     7
 65
   257
 75
     2
175
     1
 42
1.0
 92
        8
 66
   257
 43
1.0
 76
     1
 77
     6
 78
     2
 67
     7
 79
     3
170
     0
171
     0
290
     0
174
     0
 93
        5
 44
0.0
173
     0
291
     0
 45
0.0
1001
ACAD
1000
AcDbSavedByObjectVersion
1070
     0
  0
VISUALSTYLE
  5
3E
102
{ACAD_XDICTIONARY
360
3BE
102
}
102
{ACAD_REACTORS
330
2A
102
}
330
2A
100
AcDbVisualStyle
  2

 70
    23
 71
     2
 72
     2
 73
     3
 90
        0
 40
-0.6
 41
-30.0
 62
     5
 63
     7
421
 16777215
 74
     2
 91
        2
 64
     7
 65
     7
 75
     1
175
     1
 42
40.0
 92
        8
 66
     7
 43
1.0
 76
     1
 77
     6
 78
     2
 67
     7
 79
     3
170
     0
171
     0
290
     0
174
     0
 93
        1
 44
0.0
173
     0
291
     0
 45
0.0
1001
ACAD
1000
AcDbSavedByObjectVersion
1070
     0
  0
VISUALSTYLE
  5
3F
102
{ACAD_XDICTIONARY
360
3C0
102
}
102
{ACAD_REACTORS
330
2A
102
}
330
2A
100
AcDbVisualStyle
  2

 70
    24
 71
     1
 72
     2
 73
     2
 90
        0
 40
-0.6
 41
-30.0
 62
     5
 63
     7
421
 16777215
 74
     2
 91
        2
 64
     7
 65
     7
 75
     1
175
     1
 42
40.0
 92
       11
 66
     7
 43
1.0
 76
     1
 77
     6
 78
     2
 67
     7
 79
     6
170
     0
171
     0
290
     0
174
     0
 93
        1
 44
0.0
173
     0
291
     0
 45
0.0
1001
ACAD
1000
AcDbSavedByObjectVersion
1070
     0
  0
VISUALSTYLE
  5
37
102
{ACAD_XDICTIONARY
360
3B0
102
}
102
{ACAD_REACTORS
330
2A
102
}
330
2A
100
AcDbVisualStyle
  2

 70
    13
 71
     2
 72
     2
 73
     0
 90
        0
 40
-0.6
 41
-30.0
 62
     5
 63
     7
421
 16777215
 74
     1
 91
        4
 64
     7
 65
   257
 75
     1
175
     1
 42
1.0
 92
       12
 66
     7
 43
1.0
 76
     1
 77
     6
 78
     2
 67
     7
 79
     5
170
     0
171
     0
290
     0
174
     0
 93
        1
 44
0.0
173
     0
291
     1
 45
0.0
1001
ACAD
1000
AcDbSavedByObjectVersion
1070
     0
  0
VISUALSTYLE
  5
30
102
{ACAD_XDICTIONARY
360
3A2
102
}
102
{ACAD_REACTORS
330
2A
102
}
330
2A
100
AcDbVisualStyle
  2

 70
     5
 71
     0
 72
     2
 73
     0
 90
        0
 40
-0.6
 41
-30.0
 62
     5
 63
     7
421
 16777215
 74
     1
 91
        4
 64
     7
 65
   257
 75
     1
175
     1
 42
1.0
 92
        0
 66
   257
 43
1.0
 76
     1
 77
     6
 78
     2
 67
     7
 79
     3
170
     0
171
     0
290
     0
174
     0
 93
        1
 44
0.0
173
     0
291
     0
 45
0.0
1001
ACAD
1000
AcDbSavedByObjectVersion
1070
     0
  0
VISUALSTYLE
  5
40
102
{ACAD_XDICTIONARY
360
3C2
102
}
102
{ACAD_REACTORS
330
2A
102
}
330
2A
100
AcDbVisualStyle
  2

 70
    25
 71
     2
 72
     2
 73
     1
 90
        1
 40
0.5
 41
-30.0
 62
     5
 63
     7
421
 16777215
 74
     1
 91
        0
 64
     7
 65
   257
 75
     1
175
     1
 42
1.0
 92
        8
 66
     7
 43
1.0
 76
     1
 77
     6
 78
     2
 67
     7
 79
     3
170
     0
171
     0
290
     0
174
     0
 93
       13
 44
0.0
173
     0
291
     0
 45
0.0
1001
ACAD
1000
AcDbSavedByObjectVersion
1070
     0
  0
DICTIONARYVAR
  5
2AB
102
{ACAD_REACTORS
330
2AA
102
}
330
2AA
100
DictionaryVariables
280
     0
  1
1:1
  0
DICTIONARYVAR
  5
2EC
102
{ACAD_REACTORS
330
2AA
102
}
330
2AA
100
DictionaryVariables
280
     0
  1
STANDARD
  0
DICTIONARYVAR
  5
2EB
102
{ACAD_REACTORS
330
2AA
102
}
330
2AA
100
DictionaryVariables
280
     0
  1
STANDARD
  0
DICTIONARYVAR
  5
392
102
{ACAD_REACTORS
330
2AA
102
}
330
2AA
100
DictionaryVariables
280
     0
  1
Metric50
  0
DICTIONARYVAR
  5
393
102
{ACAD_REACTORS
330
2AA
102
}
330
2AA
100
DictionaryVariables
280
     0
  1
Metric50
  0
DICTIONARYVAR
  5
2AC
102
{ACAD_REACTORS
330
2AA
102
}
330
2AA
100
DictionaryVariables
280
     0
  1
1
  0
DICTIONARYVAR
  5
394
102
{ACAD_REACTORS
330
2AA
102
}
330
2AA
100
DictionaryVariables
280
     0
  1
2
  0
DICTIONARY
  5
3CB
330
2F3
100
AcDbDictionary
280
     1
281
     1
  3
ACAD_XREC_ROUNDTRIP
360
3CC
  0
DICTIONARY
  5
2E0
330
45
100
AcDbDictionary
280
     1
281
     1
  3
ACAD_XREC_ROUNDTRIP
360
2E1
  0
DICTIONARY
  5
2DE
330
44
100
AcDbDictionary
280
     1
281
     1
  3
ACAD_XREC_ROUNDTRIP
360
2DF
  0
DICTIONARY
  5
2E2
330
46
100
AcDbDictionary
280
     1
281
     1
  3
ACAD_XREC_ROUNDTRIP
360
2E3
  0
DICTIONARY
  5
3C9
330
2F2
100
AcDbDictionary
280
     1
281
     1
  3
ACAD_XREC_ROUNDTRIP
360
3CA
  0
DICTIONARY
  5
2E4
330
6A
100
AcDbDictionary
280
     1
281
     1
  3
ACAD_ROUNDTRIP_2008_TABLESTYLE_CELLSTYLEMAP
360
396
  3
ACAD_XREC_ROUNDTRIP
360
3C8
  0
DICTIONARY
  5
3A0
330
2F
100
AcDbDictionary
280
     1
281
     1
  3
ACAD_XREC_ROUNDTRIP
360
3A1
  0
DICTIONARY
  5
3A6
330
32
100
AcDbDictionary
280
     1
281
     1
  3
ACAD_XREC_ROUNDTRIP
360
3A7
  0
DICTIONARY
  5
3AE
330
36
100
AcDbDictionary
280
     1
281
     1
  3
ACAD_XREC_ROUNDTRIP
360
3AF
  0
DICTIONARY
  5
3B6
330
3A
100
AcDbDictionary
280
     1
281
     1
  3
ACAD_XREC_ROUNDTRIP
360
3B7
  0
DICTIONARY
  5
3AA
330
34
100
AcDbDictionary
280
     1
281
     1
  3
ACAD_XREC_ROUNDTRIP
360
3AB
  0
DICTIONARY
  5
3AC
330
35
100
AcDbDictionary
280
     1
281
     1
  3
ACAD_XREC_ROUNDTRIP
360
3AD
  0
DICTIONARY
  5
3BC
330
3D
100
AcDbDictionary
280
     1
281
     1
  3
ACAD_XREC_ROUNDTRIP
360
3BD
  0
DICTIONARY
  5
3B4
330
39
100
AcDbDictionary
280
     1
281
     1
  3
ACAD_XREC_ROUNDTRIP
360
3B5
  0
DICTIONARY
  5
398
330
2B
100
AcDbDictionary
280
     1
281
     1
  3
ACAD_XREC_ROUNDTRIP
360
399
  0
DICTIONARY
  5
39A
330
2C
100
AcDbDictionary
280
     1
281
     1
  3
ACAD_XREC_ROUNDTRIP
360
39B
  0
DICTIONARY
  5
39C
330
2D
100
AcDbDictionary
280
     1
281
     1
  3
ACAD_XREC_ROUNDTRIP
360
39D
  0
DICTIONARY
  5
39E
330
2E
100
AcDbDictionary
280
     1
281
     1
  3
ACAD_XREC_ROUNDTRIP
360
39F
  0
DICTIONARY
  5
3A4
330
31
100
AcDbDictionary
280
     1
281
     1
  3
ACAD_XREC_ROUNDTRIP
360
3A5
  0
DICTIONARY
  5
3B8
330
3B
100
AcDbDictionary
280
     1
281
     1
  3
ACAD_XREC_ROUNDTRIP
360
3B9
  0
DICTIONARY
  5
3B2
330
38
100
AcDbDictionary
280
     1
281
     1
  3
ACAD_XREC_ROUNDTRIP
360
3B3
  0
DICTIONARY
  5
3BA
330
3C
100
AcDbDictionary
280
     1
281
     1
  3
ACAD_XREC_ROUNDTRIP
360
3BB
  0
DICTIONARY
  5
3A8
330
33
100
AcDbDictionary
280
     1
281
     1
  3
ACAD_XREC_ROUNDTRIP
360
3A9
  0
DICTIONARY
  5
3C6
330
42
100
AcDbDictionary
280
     1
281
     1
  3
ACAD_XREC_ROUNDTRIP
360
3C7
  0
DICTIONARY
  5
3C4
330
41
100
AcDbDictionary
280
     1
281
     1
  3
ACAD_XREC_ROUNDTRIP
360
3C5
  0
DICTIONARY
  5
3BE
330
3E
100
AcDbDictionary
280
     1
281
     1
  3
ACAD_XREC_ROUNDTRIP
360
3BF
  0
DICTIONARY
  5
3C0
330
3F
100
AcDbDictionary
280
     1
281
     1
  3
ACAD_XREC_ROUNDTRIP
360
3C1
  0
DICTIONARY
  5
3B0
330
37
100
AcDbDictionary
280
     1
281
     1
  3
ACAD_XREC_ROUNDTRIP
360
3B1
  0
DICTIONARY
  5
3A2
330
30
100
AcDbDictionary
280
     1
281
     1
  3
ACAD_XREC_ROUNDTRIP
360
3A3
  0
DICTIONARY
  5
3C2
330
40
100
AcDbDictionary
280
     1
281
     1
  3
ACAD_XREC_ROUNDTRIP
360
3C3
  0
XRECORD
  5
3CC
102
{ACAD_REACTORS
330
3CB
102
}
330
3CB
100
AcDbXrecord
280
     1
102
DISPLAYNAME
  1
Metric50
102
FLAGS
 90
        0
  0
XRECORD
  5
2E1
102
{ACAD_REACTORS
330
2E0
102
}
330
2E0
100
AcDbXrecord
280
     1
102
MATERIAL
148
0.0
149
0.0
149
0.0
 93
        0
 94
      127
282
     0
 72
     1
 77
     1
171
     1
175
     1
179
     1
273
     0
  0
XRECORD
  5
2DF
102
{ACAD_REACTORS
330
2DE
102
}
330
2DE
100
AcDbXrecord
280
     1
102
MATERIAL
148
0.0
149
0.0
149
0.0
 93
        0
 94
      127
282
     0
 72
     1
 77
     1
171
     1
175
     1
179
     1
273
     0
  0
XRECORD
  5
2E3
102
{ACAD_REACTORS
330
2E2
102
}
330
2E2
100
AcDbXrecord
280
     1
102
MATERIAL
148
0.0
149
0.0
149
0.0
 93
        0
 94
      127
282
     0
 72
     1
 77
     1
171
     1
175
     1
179
     1
273
     0
  0
XRECORD
  5
3CA
102
{ACAD_REACTORS
330
3C9
102
}
330
3C9
100
AcDbXrecord
280
     1
102
DISPLAYNAME
  1
Metric50
102
FLAGS
 90
        0
  0
CELLSTYLEMAP
  5
396
102
{ACAD_REACTORS
330
2E4
102
}
330
2E4
100
AcDbCellStyleMap
 90
        3
300
CELLSTYLE
  1
TABLEFORMAT_BEGIN
 90
        5
170
     1
 91
        0
 92
    32768
 62
   257
 93
        1
300
CONTENTFORMAT
  1
CONTENTFORMAT_BEGIN
 90
        0
 91
        0
 92
        4
 93
        0
300

 40
0.0
140
1.0
 94
        5
 62
     0
340
11
144
0.25
309
CONTENTFORMAT_END
171
     1
301
MARGIN
  1
CELLMARGIN_BEGIN
 40
0.06
 40
0.06
 40
0.06
 40
0.06
 40
0.18
 40
0.18
309
CELLMARGIN_END
 94
        6
 95
        1
302
GRIDFORMAT
  1
GRIDFORMAT_BEGIN
 90
        0
 91
        1
 62
     0
 92
       -2
340
14
 93
        0
 40
0.045
309
GRIDFORMAT_END
 95
        2
302
GRIDFORMAT
  1
GRIDFORMAT_BEGIN
 90
        0
 91
        1
 62
     0
 92
       -2
340
14
 93
        0
 40
0.045
309
GRIDFORMAT_END
 95
        4
302
GRIDFORMAT
  1
GRIDFORMAT_BEGIN
 90
        0
 91
        1
 62
     0
 92
       -2
340
14
 93
        0
 40
0.045
309
GRIDFORMAT_END
 95
        8
302
GRIDFORMAT
  1
GRIDFORMAT_BEGIN
 90
        0
 91
        1
 62
     0
 92
       -2
340
14
 93
        0
 40
0.045
309
GRIDFORMAT_END
 95
       16
302
GRIDFORMAT
  1
GRIDFORMAT_BEGIN
 90
        0
 91
        1
 62
     0
 92
       -2
340
14
 93
        0
 40
0.045
309
GRIDFORMAT_END
 95
       32
302
GRIDFORMAT
  1
GRIDFORMAT_BEGIN
 90
        0
 91
        1
 62
     0
 92
       -2
340
14
 93
        0
 40
0.045
309
GRIDFORMAT_END
309
TABLEFORMAT_END
  1
CELLSTYLE_BEGIN
 90
        1
 91
        1
300
_TITLE
309
CELLSTYLE_END
300
CELLSTYLE
  1
TABLEFORMAT_BEGIN
 90
        5
170
     1
 91
        0
 92
        0
 62
   257
 93
        1
300
CONTENTFORMAT
  1
CONTENTFORMAT_BEGIN
 90
        0
 91
        0
 92
        4
 93
        0
300

 40
0.0
140
1.0
 94
        5
 62
     0
340
11
144
0.18
309
CONTENTFORMAT_END
171
     1
301
MARGIN
  1
CELLMARGIN_BEGIN
 40
0.06
 40
0.06
 40
0.06
 40
0.06
 40
0.18
 40
0.18
309
CELLMARGIN_END
 94
        6
 95
        1
302
GRIDFORMAT
  1
GRIDFORMAT_BEGIN
 90
        0
 91
        1
 62
     0
 92
       -2
340
14
 93
        0
 40
0.045
309
GRIDFORMAT_END
 95
        2
302
GRIDFORMAT
  1
GRIDFORMAT_BEGIN
 90
        0
 91
        1
 62
     0
 92
       -2
340
14
 93
        0
 40
0.045
309
GRIDFORMAT_END
 95
        4
302
GRIDFORMAT
  1
GRIDFORMAT_BEGIN
 90
        0
 91
        1
 62
     0
 92
       -2
340
14
 93
        0
 40
0.045
309
GRIDFORMAT_END
 95
        8
302
GRIDFORMAT
  1
GRIDFORMAT_BEGIN
 90
        0
 91
        1
 62
     0
 92
       -2
340
14
 93
        0
 40
0.045
309
GRIDFORMAT_END
 95
       16
302
GRIDFORMAT
  1
GRIDFORMAT_BEGIN
 90
        0
 91
        1
 62
     0
 92
       -2
340
14
 93
        0
 40
0.045
309
GRIDFORMAT_END
 95
       32
302
GRIDFORMAT
  1
GRIDFORMAT_BEGIN
 90
        0
 91
        1
 62
     0
 92
       -2
340
14
 93
        0
 40
0.045
309
GRIDFORMAT_END
309
TABLEFORMAT_END
  1
CELLSTYLE_BEGIN
 90
        2
 91
        1
300
_HEADER
309
CELLSTYLE_END
300
CELLSTYLE
  1
TABLEFORMAT_BEGIN
 90
        5
170
     1
 91
        0
 92
        0
 62
   257
 93
        1
300
CONTENTFORMAT
  1
CONTENTFORMAT_BEGIN
 90
        0
 91
        0
 92
        4
 93
        0
300

 40
0.0
140
1.0
 94
        2
 62
     0
340
11
144
0.18
309
CONTENTFORMAT_END
171
     1
301
MARGIN
  1
CELLMARGIN_BEGIN
 40
0.06
 40
0.06
 40
0.06
 40
0.06
 40
0.18
 40
0.18
309
CELLMARGIN_END
 94
        6
 95
        1
302
GRIDFORMAT
  1
GRIDFORMAT_BEGIN
 90
        0
 91
        1
 62
     0
 92
       -2
340
14
 93
        0
 40
0.045
309
GRIDFORMAT_END
 95
        2
302
GRIDFORMAT
  1
GRIDFORMAT_BEGIN
 90
        0
 91
        1
 62
     0
 92
       -2
340
14
 93
        0
 40
0.045
309
GRIDFORMAT_END
 95
        4
302
GRIDFORMAT
  1
GRIDFORMAT_BEGIN
 90
        0
 91
        1
 62
     0
 92
       -2
340
14
 93
        0
 40
0.045
309
GRIDFORMAT_END
 95
        8
302
GRIDFORMAT
  1
GRIDFORMAT_BEGIN
 90
        0
 91
        1
 62
     0
 92
       -2
340
14
 93
        0
 40
0.045
309
GRIDFORMAT_END
 95
       16
302
GRIDFORMAT
  1
GRIDFORMAT_BEGIN
 90
        0
 91
        1
 62
     0
 92
       -2
340
14
 93
        0
 40
0.045
309
GRIDFORMAT_END
 95
       32
302
GRIDFORMAT
  1
GRIDFORMAT_BEGIN
 90
        0
 91
        1
 62
     0
 92
       -2
340
14
 93
        0
 40
0.045
309
GRIDFORMAT_END
309
TABLEFORMAT_END
  1
CELLSTYLE_BEGIN
 90
        3
 91
        2
300
_DATA
309
CELLSTYLE_END
  0
XRECORD
  5
3C8
102
{ACAD_REACTORS
330
2E4
102
}
330
2E4
100
AcDbXrecord
280
     1
102
ACAD_ROUNDTRIP_PRE2007_TABLESTYLE
 90
        4
 91
        0
  1

 92
        4
 93
        0
  2

 94
        4
 95
        0
  3

  0
XRECORD
  5
3A1
102
{ACAD_REACTORS
330
3A0
102
}
330
3A0
100
AcDbXrecord
280
     1
102
RTVSPost2010Prop28
280
     1
102
RTVSPost2010PropOp28
 70
     1
102
RTVSPost2010Prop29
280
     1
102
RTVSPost2010PropOp29
 70
     1
102
RTVSPost2010Prop30
280
     0
102
RTVSPost2010PropOp30
 70
     1
102
RTVSPost2010Prop31
280
     0
102
RTVSPost2010PropOp31
 70
     1
102
RTVSPost2010Prop32
280
     0
102
RTVSPost2010PropOp32
 70
     1
102
RTVSPost2010Prop33
280
     0
102
RTVSPost2010PropOp33
 70
     1
102
RTVSPost2010Prop34
280
     0
102
RTVSPost2010PropOp34
 70
     1
102
RTVSPost2010Prop35
280
     0
102
RTVSPost2010PropOp35
 70
     1
102
RTVSPost2010Prop36
280
     0
102
RTVSPost2010PropOp36
 70
     1
102
RTVSPost2010Prop37
 90
       50
102
RTVSPost2010PropOp37
 70
     1
102
RTVSPost2010Prop38
140
0.0
102
RTVSPost2010PropOp38
 70
     1
102
RTVSPost2010Prop39
140
1.0
102
RTVSPost2010PropOp39
 70
     1
102
RTVSPost2010Prop40
 90
        0
102
RTVSPost2010PropOp40
 70
     1
102
RTVSPost2010Prop41ColorIndex
 90
       18
102
RTVSPost2010Prop41ColorRGB
 90
        0
102
RTVSPost2010PropOp41
 70
     1
102
RTVSPost2010Prop42
 90
       50
102
RTVSPost2010PropOp42
 70
     1
102
RTVSPost2010Prop43
 90
        3
102
RTVSPost2010PropOp43
 70
     1
102
RTVSPost2010Prop44ColorIndex
 90
        5
102
RTVSPost2010Prop44ColorRGB
 90
      255
102
RTVSPost2010PropOp44
 70
     1
102
RTVSPost2010Prop45
280
     0
102
RTVSPost2010PropOp45
 70
     1
102
RTVSPost2010Prop46
 90
       50
102
RTVSPost2010PropOp46
 70
     1
102
RTVSPost2010Prop47
 90
       50
102
RTVSPost2010PropOp47
 70
     1
102
RTVSPost2010Prop48
 90
       50
102
RTVSPost2010PropOp48
 70
     1
102
RTVSPost2010Prop49
280
     0
102
RTVSPost2010PropOp49
 70
     1
102
RTVSPost2010Prop50
 90
       50
102
RTVSPost2010PropOp50
 70
     1
102
RTVSPost2010Prop51ColorIndex
 90
      256
102
RTVSPost2010Prop51ColorRGB
 90
-16777216
102
RTVSPost2010PropOp51
 70
     0
102
RTVSPost2010Prop52
140
1.0
102
RTVSPost2010PropOp52
 70
     0
102
RTVSPost2010Prop53
 90
        2
102
RTVSPost2010PropOp53
 70
     1
102
RTVSPost2010Prop54
  1
strokes_ogs.tif
102
RTVSPost2010PropOp54
 70
     1
102
RTVSPost2010Prop55
280
     0
102
RTVSPost2010PropOp55
 70
     1
102
RTVSPost2010Prop56
140
1.0
102
RTVSPost2010PropOp56
 70
     1
102
RTVSPost2010Prop57
140
1.0
102
RTVSPost2010PropOp57
 70
     1
102
RTVSPropertyOp0
 70
     1
102
RTVSPropertyOp1
 70
     1
102
RTVSPropertyOp2
 70
     1
102
RTVSPropertyOp3
 70
     1
102
RTVSPropertyOp4
 70
     1
102
RTVSPropertyOp5
 70
     1
102
RTVSPropertyOp6
 70
     1
102
RTVSPropertyOp7
 70
     1
102
RTVSPropertyOp8
 70
     1
102
RTVSPropertyOp9
 70
     1
102
RTVSPropertyOp10
 70
     1
102
RTVSPropertyOp11
 70
     1
102
RTVSPropertyOp12
 70
     1
102
RTVSPropertyOp13
 70
     1
102
RTVSPropertyOp14
 70
     1
102
RTVSPropertyOp15
 70
     1
102
RTVSPropertyOp16
 70
     1
102
RTVSPropertyOp17
 70
     1
102
RTVSPropertyOp18
 70
     1
102
RTVSPropertyOp19
 70
     1
102
RTVSPropertyOp20
 70
     1
102
RTVSPropertyOp21
 70
     1
102
RTVSPropertyOp22
 70
     1
102
RTVSPropertyOp23
 70
     1
102
RTVSPropertyOp24
 70
     1
102
RTVSPropertyOp25
 70
     1
102
RTVSPropertyOp26
 70
     1
102
RTVSPropertyOp27
 70
     1
102
RTVSPropertyOp28
 70
     1
102
RTVSPropertyOp29
 70
     1
102
RTVSPropertyOp30
 70
     1
102
RTVSPropertyOp31
 70
     1
102
RTVSPropertyOp32
 70
     1
102
RTVSPropertyOp33
 70
     1
102
RTVSPropertyOp34
 70
     1
102
RTVSPropertyOp35
 70
     1
102
RTVSPropertyOp36
 70
     1
102
RTVSPropertyOp37
 70
     1
102
RTVSPropertyOp38
 70
     1
102
RTVSPropertyOp39
 70
     1
102
RTVSPropertyOp40
 70
     1
102
RTVSPropertyOp41
 70
     1
102
RTVSPropertyOp42
 70
     1
102
RTVSPropertyOp43
 70
     1
102
RTVSPropertyOp44
 70
     1
102
RTVSPropertyOp45
 70
     1
102
RTVSPropertyOp46
 70
     1
102
RTVSPropertyOp47
 70
     1
102
RTVSPropertyOp48
 70
     1
102
RTVSPropertyOp49
 70
     1
102
RTVSPropertyOp50
 70
     1
102
RTVSPropertyOp51
 70
     0
102
RTVSPropertyOp52
 70
     0
102
RTVSPropertyOp53
 70
     1
102
RTVSPropertyOp54
 70
     1
102
RTVSPropertyOp55
 70
     1
102
RTVSPropertyOp56
 70
     1
102
RTVSPropertyOp57
 70
     1
102
RTVSPropertyOp58
 70
     1
102
RTVSPropertyOp59
 70
     1
102
RTVSPropertyOp60
 70
     1
102
RTVSPropertyOp61
 70
     1
102
RTVSPropertyOp62
 70
     1
  0
XRECORD
  5
3A7
102
{ACAD_REACTORS
330
3A6
102
}
330
3A6
100
AcDbXrecord
280
     1
102
RTVSPost2010Prop28
280
     0
102
RTVSPost2010PropOp28
 70
     1
102
RTVSPost2010Prop29
280
     1
102
RTVSPost2010PropOp29
 70
     1
102
RTVSPost2010Prop30
280
     1
102
RTVSPost2010PropOp30
 70
     1
102
RTVSPost2010Prop31
280
     0
102
RTVSPost2010PropOp31
 70
     1
102
RTVSPost2010Prop32
280
     0
102
RTVSPost2010PropOp32
 70
     1
102
RTVSPost2010Prop33
280
     0
102
RTVSPost2010PropOp33
 70
     1
102
RTVSPost2010Prop34
280
     0
102
RTVSPost2010PropOp34
 70
     1
102
RTVSPost2010Prop35
280
     0
102
RTVSPost2010PropOp35
 70
     1
102
RTVSPost2010Prop36
280
     0
102
RTVSPost2010PropOp36
 70
     1
102
RTVSPost2010Prop37
 90
       50
102
RTVSPost2010PropOp37
 70
     1
102
RTVSPost2010Prop38
140
0.0
102
RTVSPost2010PropOp38
 70
     1
102
RTVSPost2010Prop39
140
1.0
102
RTVSPost2010PropOp39
 70
     1
102
RTVSPost2010Prop40
 90
        0
102
RTVSPost2010PropOp40
 70
     1
102
RTVSPost2010Prop41ColorIndex
 90
       18
102
RTVSPost2010Prop41ColorRGB
 90
        0
102
RTVSPost2010PropOp41
 70
     1
102
RTVSPost2010Prop42
 90
       50
102
RTVSPost2010PropOp42
 70
     1
102
RTVSPost2010Prop43
 90
        3
102
RTVSPost2010PropOp43
 70
     1
102
RTVSPost2010Prop44ColorIndex
 90
        5
102
RTVSPost2010Prop44ColorRGB
 90
      255
102
RTVSPost2010PropOp44
 70
     1
102
RTVSPost2010Prop45
280
     0
102
RTVSPost2010PropOp45
 70
     1
102
RTVSPost2010Prop46
 90
       50
102
RTVSPost2010PropOp46
 70
     1
102
RTVSPost2010Prop47
 90
       50
102
RTVSPost2010PropOp47
 70
     1
102
RTVSPost2010Prop48
 90
       50
102
RTVSPost2010PropOp48
 70
     1
102
RTVSPost2010Prop49
280
     0
102
RTVSPost2010PropOp49
 70
     1
102
RTVSPost2010Prop50
 90
       50
102
RTVSPost2010PropOp50
 70
     1
102
RTVSPost2010Prop51ColorIndex
 90
      256
102
RTVSPost2010Prop51ColorRGB
 90
-16777216
102
RTVSPost2010PropOp51
 70
     0
102
RTVSPost2010Prop52
140
1.0
102
RTVSPost2010PropOp52
 70
     0
102
RTVSPost2010Prop53
 90
        2
102
RTVSPost2010PropOp53
 70
     1
102
RTVSPost2010Prop54
  1
strokes_ogs.tif
102
RTVSPost2010PropOp54
 70
     1
102
RTVSPost2010Prop55
280
     0
102
RTVSPost2010PropOp55
 70
     1
102
RTVSPost2010Prop56
140
1.0
102
RTVSPost2010PropOp56
 70
     1
102
RTVSPost2010Prop57
140
1.0
102
RTVSPost2010PropOp57
 70
     1
102
RTVSPropertyOp0
 70
     1
102
RTVSPropertyOp1
 70
     1
102
RTVSPropertyOp2
 70
     1
102
RTVSPropertyOp3
 70
     1
102
RTVSPropertyOp4
 70
     1
102
RTVSPropertyOp5
 70
     1
102
RTVSPropertyOp6
 70
     1
102
RTVSPropertyOp7
 70
     1
102
RTVSPropertyOp8
 70
     1
102
RTVSPropertyOp9
 70
     1
102
RTVSPropertyOp10
 70
     1
102
RTVSPropertyOp11
 70
     1
102
RTVSPropertyOp12
 70
     1
102
RTVSPropertyOp13
 70
     1
102
RTVSPropertyOp14
 70
     1
102
RTVSPropertyOp15
 70
     1
102
RTVSPropertyOp16
 70
     1
102
RTVSPropertyOp17
 70
     1
102
RTVSPropertyOp18
 70
     1
102
RTVSPropertyOp19
 70
     1
102
RTVSPropertyOp20
 70
     1
102
RTVSPropertyOp21
 70
     1
102
RTVSPropertyOp22
 70
     1
102
RTVSPropertyOp23
 70
     1
102
RTVSPropertyOp24
 70
     1
102
RTVSPropertyOp25
 70
     1
102
RTVSPropertyOp26
 70
     1
102
RTVSPropertyOp27
 70
     1
102
RTVSPropertyOp28
 70
     1
102
RTVSPropertyOp29
 70
     1
102
RTVSPropertyOp30
 70
     1
102
RTVSPropertyOp31
 70
     1
102
RTVSPropertyOp32
 70
     1
102
RTVSPropertyOp33
 70
     1
102
RTVSPropertyOp34
 70
     1
102
RTVSPropertyOp35
 70
     1
102
RTVSPropertyOp36
 70
     1
102
RTVSPropertyOp37
 70
     1
102
RTVSPropertyOp38
 70
     1
102
RTVSPropertyOp39
 70
     1
102
RTVSPropertyOp40
 70
     1
102
RTVSPropertyOp41
 70
     1
102
RTVSPropertyOp42
 70
     1
102
RTVSPropertyOp43
 70
     1
102
RTVSPropertyOp44
 70
     1
102
RTVSPropertyOp45
 70
     1
102
RTVSPropertyOp46
 70
     1
102
RTVSPropertyOp47
 70
     1
102
RTVSPropertyOp48
 70
     1
102
RTVSPropertyOp49
 70
     1
102
RTVSPropertyOp50
 70
     1
102
RTVSPropertyOp51
 70
     0
102
RTVSPropertyOp52
 70
     0
102
RTVSPropertyOp53
 70
     1
102
RTVSPropertyOp54
 70
     1
102
RTVSPropertyOp55
 70
     1
102
RTVSPropertyOp56
 70
     1
102
RTVSPropertyOp57
 70
     1
102
RTVSPropertyOp58
 70
     1
102
RTVSPropertyOp59
 70
     1
102
RTVSPropertyOp60
 70
     1
102
RTVSPropertyOp61
 70
     1
102
RTVSPropertyOp62
 70
     1
  0
XRECORD
  5
3AF
102
{ACAD_REACTORS
330
3AE
102
}
330
3AE
100
AcDbXrecord
280
     1
102
RTVSPost2010Prop28
280
     0
102
RTVSPost2010PropOp28
 70
     1
102
RTVSPost2010Prop29
280
     1
102
RTVSPost2010PropOp29
 70
     1
102
RTVSPost2010Prop30
280
     1
102
RTVSPost2010PropOp30
 70
     1
102
RTVSPost2010Prop31
280
     0
102
RTVSPost2010PropOp31
 70
     1
102
RTVSPost2010Prop32
280
     0
102
RTVSPost2010PropOp32
 70
     1
102
RTVSPost2010Prop33
280
     0
102
RTVSPost2010PropOp33
 70
     1
102
RTVSPost2010Prop34
280
     0
102
RTVSPost2010PropOp34
 70
     1
102
RTVSPost2010Prop35
280
     0
102
RTVSPost2010PropOp35
 70
     1
102
RTVSPost2010Prop36
280
     0
102
RTVSPost2010PropOp36
 70
     1
102
RTVSPost2010Prop37
 90
       50
102
RTVSPost2010PropOp37
 70
     1
102
RTVSPost2010Prop38
140
0.0
102
RTVSPost2010PropOp38
 70
     1
102
RTVSPost2010Prop39
140
1.0
102
RTVSPost2010PropOp39
 70
     1
102
RTVSPost2010Prop40
 90
        0
102
RTVSPost2010PropOp40
 70
     1
102
RTVSPost2010Prop41ColorIndex
 90
       18
102
RTVSPost2010Prop41ColorRGB
 90
        0
102
RTVSPost2010PropOp41
 70
     1
102
RTVSPost2010Prop42
 90
       50
102
RTVSPost2010PropOp42
 70
     1
102
RTVSPost2010Prop43
 90
        3
102
RTVSPost2010PropOp43
 70
     1
102
RTVSPost2010Prop44ColorIndex
 90
        5
102
RTVSPost2010Prop44ColorRGB
 90
      255
102
RTVSPost2010PropOp44
 70
     1
102
RTVSPost2010Prop45
280
     0
102
RTVSPost2010PropOp45
 70
     1
102
RTVSPost2010Prop46
 90
       50
102
RTVSPost2010PropOp46
 70
     1
102
RTVSPost2010Prop47
 90
       50
102
RTVSPost2010PropOp47
 70
     1
102
RTVSPost2010Prop48
 90
       50
102
RTVSPost2010PropOp48
 70
     1
102
RTVSPost2010Prop49
280
     0
102
RTVSPost2010PropOp49
 70
     1
102
RTVSPost2010Prop50
 90
       50
102
RTVSPost2010PropOp50
 70
     1
102
RTVSPost2010Prop51ColorIndex
 90
      256
102
RTVSPost2010Prop51ColorRGB
 90
-16777216
102
RTVSPost2010PropOp51
 70
     0
102
RTVSPost2010Prop52
140
1.0
102
RTVSPost2010PropOp52
 70
     0
102
RTVSPost2010Prop53
 90
        2
102
RTVSPost2010PropOp53
 70
     1
102
RTVSPost2010Prop54
  1
strokes_ogs.tif
102
RTVSPost2010PropOp54
 70
     1
102
RTVSPost2010Prop55
280
     0
102
RTVSPost2010PropOp55
 70
     1
102
RTVSPost2010Prop56
140
1.0
102
RTVSPost2010PropOp56
 70
     1
102
RTVSPost2010Prop57
140
1.0
102
RTVSPost2010PropOp57
 70
     1
102
RTVSPropertyOp0
 70
     1
102
RTVSPropertyOp1
 70
     1
102
RTVSPropertyOp2
 70
     1
102
RTVSPropertyOp3
 70
     1
102
RTVSPropertyOp4
 70
     1
102
RTVSPropertyOp5
 70
     1
102
RTVSPropertyOp6
 70
     1
102
RTVSPropertyOp7
 70
     1
102
RTVSPropertyOp8
 70
     1
102
RTVSPropertyOp9
 70
     1
102
RTVSPropertyOp10
 70
     1
102
RTVSPropertyOp11
 70
     1
102
RTVSPropertyOp12
 70
     1
102
RTVSPropertyOp13
 70
     1
102
RTVSPropertyOp14
 70
     1
102
RTVSPropertyOp15
 70
     1
102
RTVSPropertyOp16
 70
     1
102
RTVSPropertyOp17
 70
     1
102
RTVSPropertyOp18
 70
     1
102
RTVSPropertyOp19
 70
     1
102
RTVSPropertyOp20
 70
     1
102
RTVSPropertyOp21
 70
     1
102
RTVSPropertyOp22
 70
     1
102
RTVSPropertyOp23
 70
     1
102
RTVSPropertyOp24
 70
     1
102
RTVSPropertyOp25
 70
     1
102
RTVSPropertyOp26
 70
     1
102
RTVSPropertyOp27
 70
     1
102
RTVSPropertyOp28
 70
     1
102
RTVSPropertyOp29
 70
     1
102
RTVSPropertyOp30
 70
     1
102
RTVSPropertyOp31
 70
     1
102
RTVSPropertyOp32
 70
     1
102
RTVSPropertyOp33
 70
     1
102
RTVSPropertyOp34
 70
     1
102
RTVSPropertyOp35
 70
     1
102
RTVSPropertyOp36
 70
     1
102
RTVSPropertyOp37
 70
     1
102
RTVSPropertyOp38
 70
     1
102
RTVSPropertyOp39
 70
     1
102
RTVSPropertyOp40
 70
     1
102
RTVSPropertyOp41
 70
     1
102
RTVSPropertyOp42
 70
     1
102
RTVSPropertyOp43
 70
     1
102
RTVSPropertyOp44
 70
     1
102
RTVSPropertyOp45
 70
     1
102
RTVSPropertyOp46
 70
     1
102
RTVSPropertyOp47
 70
     1
102
RTVSPropertyOp48
 70
     1
102
RTVSPropertyOp49
 70
     1
102
RTVSPropertyOp50
 70
     1
102
RTVSPropertyOp51
 70
     0
102
RTVSPropertyOp52
 70
     0
102
RTVSPropertyOp53
 70
     1
102
RTVSPropertyOp54
 70
     1
102
RTVSPropertyOp55
 70
     1
102
RTVSPropertyOp56
 70
     1
102
RTVSPropertyOp57
 70
     1
102
RTVSPropertyOp58
 70
     1
102
RTVSPropertyOp59
 70
     1
102
RTVSPropertyOp60
 70
     1
102
RTVSPropertyOp61
 70
     1
102
RTVSPropertyOp62
 70
     1
  0
XRECORD
  5
3B7
102
{ACAD_REACTORS
330
3B6
102
}
330
3B6
100
AcDbXrecord
280
     1
102
RTVSPost2010Prop28
280
     0
102
RTVSPost2010PropOp28
 70
     1
102
RTVSPost2010Prop29
280
     1
102
RTVSPost2010PropOp29
 70
     1
102
RTVSPost2010Prop30
280
     1
102
RTVSPost2010PropOp30
 70
     1
102
RTVSPost2010Prop31
280
     0
102
RTVSPost2010PropOp31
 70
     1
102
RTVSPost2010Prop32
280
     0
102
RTVSPost2010PropOp32
 70
     1
102
RTVSPost2010Prop33
280
     0
102
RTVSPost2010PropOp33
 70
     1
102
RTVSPost2010Prop34
280
     0
102
RTVSPost2010PropOp34
 70
     1
102
RTVSPost2010Prop35
280
     0
102
RTVSPost2010PropOp35
 70
     1
102
RTVSPost2010Prop36
280
     0
102
RTVSPost2010PropOp36
 70
     1
102
RTVSPost2010Prop37
 90
       50
102
RTVSPost2010PropOp37
 70
     1
102
RTVSPost2010Prop38
140
0.0
102
RTVSPost2010PropOp38
 70
     1
102
RTVSPost2010Prop39
140
1.0
102
RTVSPost2010PropOp39
 70
     1
102
RTVSPost2010Prop40
 90
        0
102
RTVSPost2010PropOp40
 70
     1
102
RTVSPost2010Prop41ColorIndex
 90
       18
102
RTVSPost2010Prop41ColorRGB
 90
        0
102
RTVSPost2010PropOp41
 70
     1
102
RTVSPost2010Prop42
 90
       50
102
RTVSPost2010PropOp42
 70
     1
102
RTVSPost2010Prop43
 90
        3
102
RTVSPost2010PropOp43
 70
     1
102
RTVSPost2010Prop44ColorIndex
 90
        5
102
RTVSPost2010Prop44ColorRGB
 90
      255
102
RTVSPost2010PropOp44
 70
     1
102
RTVSPost2010Prop45
280
     0
102
RTVSPost2010PropOp45
 70
     1
102
RTVSPost2010Prop46
 90
       50
102
RTVSPost2010PropOp46
 70
     1
102
RTVSPost2010Prop47
 90
       50
102
RTVSPost2010PropOp47
 70
     1
102
RTVSPost2010Prop48
 90
       50
102
RTVSPost2010PropOp48
 70
     1
102
RTVSPost2010Prop49
280
     0
102
RTVSPost2010PropOp49
 70
     1
102
RTVSPost2010Prop50
 90
       50
102
RTVSPost2010PropOp50
 70
     1
102
RTVSPost2010Prop51ColorIndex
 90
      256
102
RTVSPost2010Prop51ColorRGB
 90
-16777216
102
RTVSPost2010PropOp51
 70
     0
102
RTVSPost2010Prop52
140
1.0
102
RTVSPost2010PropOp52
 70
     0
102
RTVSPost2010Prop53
 90
        2
102
RTVSPost2010PropOp53
 70
     1
102
RTVSPost2010Prop54
  1
strokes_ogs.tif
102
RTVSPost2010PropOp54
 70
     1
102
RTVSPost2010Prop55
280
     0
102
RTVSPost2010PropOp55
 70
     1
102
RTVSPost2010Prop56
140
1.0
102
RTVSPost2010PropOp56
 70
     1
102
RTVSPost2010Prop57
140
1.0
102
RTVSPost2010PropOp57
 70
     1
102
RTVSPropertyOp0
 70
     1
102
RTVSPropertyOp1
 70
     1
102
RTVSPropertyOp2
 70
     1
102
RTVSPropertyOp3
 70
     1
102
RTVSPropertyOp4
 70
     1
102
RTVSPropertyOp5
 70
     1
102
RTVSPropertyOp6
 70
     1
102
RTVSPropertyOp7
 70
     1
102
RTVSPropertyOp8
 70
     1
102
RTVSPropertyOp9
 70
     1
102
RTVSPropertyOp10
 70
     1
102
RTVSPropertyOp11
 70
     1
102
RTVSPropertyOp12
 70
     1
102
RTVSPropertyOp13
 70
     1
102
RTVSPropertyOp14
 70
     1
102
RTVSPropertyOp15
 70
     1
102
RTVSPropertyOp16
 70
     1
102
RTVSPropertyOp17
 70
     1
102
RTVSPropertyOp18
 70
     1
102
RTVSPropertyOp19
 70
     1
102
RTVSPropertyOp20
 70
     1
102
RTVSPropertyOp21
 70
     1
102
RTVSPropertyOp22
 70
     1
102
RTVSPropertyOp23
 70
     1
102
RTVSPropertyOp24
 70
     1
102
RTVSPropertyOp25
 70
     1
102
RTVSPropertyOp26
 70
     1
102
RTVSPropertyOp27
 70
     1
102
RTVSPropertyOp28
 70
     1
102
RTVSPropertyOp29
 70
     1
102
RTVSPropertyOp30
 70
     1
102
RTVSPropertyOp31
 70
     1
102
RTVSPropertyOp32
 70
     1
102
RTVSPropertyOp33
 70
     1
102
RTVSPropertyOp34
 70
     1
102
RTVSPropertyOp35
 70
     1
102
RTVSPropertyOp36
 70
     1
102
RTVSPropertyOp37
 70
     1
102
RTVSPropertyOp38
 70
     1
102
RTVSPropertyOp39
 70
     1
102
RTVSPropertyOp40
 70
     1
102
RTVSPropertyOp41
 70
     1
102
RTVSPropertyOp42
 70
     1
102
RTVSPropertyOp43
 70
     1
102
RTVSPropertyOp44
 70
     1
102
RTVSPropertyOp45
 70
     1
102
RTVSPropertyOp46
 70
     1
102
RTVSPropertyOp47
 70
     1
102
RTVSPropertyOp48
 70
     1
102
RTVSPropertyOp49
 70
     1
102
RTVSPropertyOp50
 70
     1
102
RTVSPropertyOp51
 70
     0
102
RTVSPropertyOp52
 70
     0
102
RTVSPropertyOp53
 70
     1
102
RTVSPropertyOp54
 70
     1
102
RTVSPropertyOp55
 70
     1
102
RTVSPropertyOp56
 70
     1
102
RTVSPropertyOp57
 70
     1
102
RTVSPropertyOp58
 70
     1
102
RTVSPropertyOp59
 70
     1
102
RTVSPropertyOp60
 70
     1
102
RTVSPropertyOp61
 70
     1
102
RTVSPropertyOp62
 70
     1
  0
XRECORD
  5
3AB
102
{ACAD_REACTORS
330
3AA
102
}
330
3AA
100
AcDbXrecord
280
     1
102
RTVSPost2010Prop28
280
     0
102
RTVSPost2010PropOp28
 70
     1
102
RTVSPost2010Prop29
280
     1
102
RTVSPost2010PropOp29
 70
     1
102
RTVSPost2010Prop30
280
     1
102
RTVSPost2010PropOp30
 70
     1
102
RTVSPost2010Prop31
280
     0
102
RTVSPost2010PropOp31
 70
     1
102
RTVSPost2010Prop32
280
     0
102
RTVSPost2010PropOp32
 70
     1
102
RTVSPost2010Prop33
280
     0
102
RTVSPost2010PropOp33
 70
     1
102
RTVSPost2010Prop34
280
     0
102
RTVSPost2010PropOp34
 70
     1
102
RTVSPost2010Prop35
280
     0
102
RTVSPost2010PropOp35
 70
     1
102
RTVSPost2010Prop36
280
     0
102
RTVSPost2010PropOp36
 70
     1
102
RTVSPost2010Prop37
 90
       50
102
RTVSPost2010PropOp37
 70
     1
102
RTVSPost2010Prop38
140
0.0
102
RTVSPost2010PropOp38
 70
     1
102
RTVSPost2010Prop39
140
1.0
102
RTVSPost2010PropOp39
 70
     1
102
RTVSPost2010Prop40
 90
        0
102
RTVSPost2010PropOp40
 70
     1
102
RTVSPost2010Prop41ColorIndex
 90
       18
102
RTVSPost2010Prop41ColorRGB
 90
        0
102
RTVSPost2010PropOp41
 70
     1
102
RTVSPost2010Prop42
 90
       50
102
RTVSPost2010PropOp42
 70
     1
102
RTVSPost2010Prop43
 90
        3
102
RTVSPost2010PropOp43
 70
     1
102
RTVSPost2010Prop44ColorIndex
 90
        5
102
RTVSPost2010Prop44ColorRGB
 90
      255
102
RTVSPost2010PropOp44
 70
     1
102
RTVSPost2010Prop45
280
     0
102
RTVSPost2010PropOp45
 70
     1
102
RTVSPost2010Prop46
 90
       50
102
RTVSPost2010PropOp46
 70
     1
102
RTVSPost2010Prop47
 90
       50
102
RTVSPost2010PropOp47
 70
     1
102
RTVSPost2010Prop48
 90
       50
102
RTVSPost2010PropOp48
 70
     1
102
RTVSPost2010Prop49
280
     0
102
RTVSPost2010PropOp49
 70
     1
102
RTVSPost2010Prop50
 90
       50
102
RTVSPost2010PropOp50
 70
     1
102
RTVSPost2010Prop51ColorIndex
 90
      256
102
RTVSPost2010Prop51ColorRGB
 90
-16777216
102
RTVSPost2010PropOp51
 70
     0
102
RTVSPost2010Prop52
140
1.0
102
RTVSPost2010PropOp52
 70
     0
102
RTVSPost2010Prop53
 90
        2
102
RTVSPost2010PropOp53
 70
     1
102
RTVSPost2010Prop54
  1
strokes_ogs.tif
102
RTVSPost2010PropOp54
 70
     1
102
RTVSPost2010Prop55
280
     0
102
RTVSPost2010PropOp55
 70
     1
102
RTVSPost2010Prop56
140
1.0
102
RTVSPost2010PropOp56
 70
     1
102
RTVSPost2010Prop57
140
1.0
102
RTVSPost2010PropOp57
 70
     1
102
RTVSPropertyOp0
 70
     1
102
RTVSPropertyOp1
 70
     1
102
RTVSPropertyOp2
 70
     1
102
RTVSPropertyOp3
 70
     1
102
RTVSPropertyOp4
 70
     1
102
RTVSPropertyOp5
 70
     1
102
RTVSPropertyOp6
 70
     1
102
RTVSPropertyOp7
 70
     1
102
RTVSPropertyOp8
 70
     1
102
RTVSPropertyOp9
 70
     1
102
RTVSPropertyOp10
 70
     1
102
RTVSPropertyOp11
 70
     1
102
RTVSPropertyOp12
 70
     1
102
RTVSPropertyOp13
 70
     1
102
RTVSPropertyOp14
 70
     1
102
RTVSPropertyOp15
 70
     1
102
RTVSPropertyOp16
 70
     1
102
RTVSPropertyOp17
 70
     1
102
RTVSPropertyOp18
 70
     1
102
RTVSPropertyOp19
 70
     1
102
RTVSPropertyOp20
 70
     1
102
RTVSPropertyOp21
 70
     1
102
RTVSPropertyOp22
 70
     1
102
RTVSPropertyOp23
 70
     1
102
RTVSPropertyOp24
 70
     1
102
RTVSPropertyOp25
 70
     1
102
RTVSPropertyOp26
 70
     1
102
RTVSPropertyOp27
 70
     1
102
RTVSPropertyOp28
 70
     1
102
RTVSPropertyOp29
 70
     1
102
RTVSPropertyOp30
 70
     1
102
RTVSPropertyOp31
 70
     1
102
RTVSPropertyOp32
 70
     1
102
RTVSPropertyOp33
 70
     1
102
RTVSPropertyOp34
 70
     1
102
RTVSPropertyOp35
 70
     1
102
RTVSPropertyOp36
 70
     1
102
RTVSPropertyOp37
 70
     1
102
RTVSPropertyOp38
 70
     1
102
RTVSPropertyOp39
 70
     1
102
RTVSPropertyOp40
 70
     1
102
RTVSPropertyOp41
 70
     1
102
RTVSPropertyOp42
 70
     1
102
RTVSPropertyOp43
 70
     1
102
RTVSPropertyOp44
 70
     1
102
RTVSPropertyOp45
 70
     1
102
RTVSPropertyOp46
 70
     1
102
RTVSPropertyOp47
 70
     1
102
RTVSPropertyOp48
 70
     1
102
RTVSPropertyOp49
 70
     1
102
RTVSPropertyOp50
 70
     1
102
RTVSPropertyOp51
 70
     0
102
RTVSPropertyOp52
 70
     0
102
RTVSPropertyOp53
 70
     1
102
RTVSPropertyOp54
 70
     1
102
RTVSPropertyOp55
 70
     1
102
RTVSPropertyOp56
 70
     1
102
RTVSPropertyOp57
 70
     1
102
RTVSPropertyOp58
 70
     1
102
RTVSPropertyOp59
 70
     1
102
RTVSPropertyOp60
 70
     1
102
RTVSPropertyOp61
 70
     1
102
RTVSPropertyOp62
 70
     1
  0
XRECORD
  5
3AD
102
{ACAD_REACTORS
330
3AC
102
}
330
3AC
100
AcDbXrecord
280
     1
102
RTVSPost2010Prop28
280
     0
102
RTVSPost2010PropOp28
 70
     1
102
RTVSPost2010Prop29
280
     1
102
RTVSPost2010PropOp29
 70
     1
102
RTVSPost2010Prop30
280
     1
102
RTVSPost2010PropOp30
 70
     1
102
RTVSPost2010Prop31
280
     0
102
RTVSPost2010PropOp31
 70
     1
102
RTVSPost2010Prop32
280
     0
102
RTVSPost2010PropOp32
 70
     1
102
RTVSPost2010Prop33
280
     0
102
RTVSPost2010PropOp33
 70
     1
102
RTVSPost2010Prop34
280
     0
102
RTVSPost2010PropOp34
 70
     1
102
RTVSPost2010Prop35
280
     0
102
RTVSPost2010PropOp35
 70
     1
102
RTVSPost2010Prop36
280
     0
102
RTVSPost2010PropOp36
 70
     1
102
RTVSPost2010Prop37
 90
       50
102
RTVSPost2010PropOp37
 70
     1
102
RTVSPost2010Prop38
140
0.0
102
RTVSPost2010PropOp38
 70
     1
102
RTVSPost2010Prop39
140
1.0
102
RTVSPost2010PropOp39
 70
     1
102
RTVSPost2010Prop40
 90
        0
102
RTVSPost2010PropOp40
 70
     1
102
RTVSPost2010Prop41ColorIndex
 90
       18
102
RTVSPost2010Prop41ColorRGB
 90
        0
102
RTVSPost2010PropOp41
 70
     1
102
RTVSPost2010Prop42
 90
       50
102
RTVSPost2010PropOp42
 70
     1
102
RTVSPost2010Prop43
 90
        3
102
RTVSPost2010PropOp43
 70
     1
102
RTVSPost2010Prop44ColorIndex
 90
        5
102
RTVSPost2010Prop44ColorRGB
 90
      255
102
RTVSPost2010PropOp44
 70
     1
102
RTVSPost2010Prop45
280
     0
102
RTVSPost2010PropOp45
 70
     1
102
RTVSPost2010Prop46
 90
       50
102
RTVSPost2010PropOp46
 70
     1
102
RTVSPost2010Prop47
 90
       50
102
RTVSPost2010PropOp47
 70
     1
102
RTVSPost2010Prop48
 90
       50
102
RTVSPost2010PropOp48
 70
     1
102
RTVSPost2010Prop49
280
     0
102
RTVSPost2010PropOp49
 70
     1
102
RTVSPost2010Prop50
 90
       50
102
RTVSPost2010PropOp50
 70
     1
102
RTVSPost2010Prop51ColorIndex
 90
      256
102
RTVSPost2010Prop51ColorRGB
 90
-16777216
102
RTVSPost2010PropOp51
 70
     0
102
RTVSPost2010Prop52
140
1.0
102
RTVSPost2010PropOp52
 70
     0
102
RTVSPost2010Prop53
 90
        2
102
RTVSPost2010PropOp53
 70
     1
102
RTVSPost2010Prop54
  1
strokes_ogs.tif
102
RTVSPost2010PropOp54
 70
     1
102
RTVSPost2010Prop55
280
     0
102
RTVSPost2010PropOp55
 70
     1
102
RTVSPost2010Prop56
140
1.0
102
RTVSPost2010PropOp56
 70
     1
102
RTVSPost2010Prop57
140
1.0
102
RTVSPost2010PropOp57
 70
     1
102
RTVSPropertyOp0
 70
     1
102
RTVSPropertyOp1
 70
     1
102
RTVSPropertyOp2
 70
     1
102
RTVSPropertyOp3
 70
     1
102
RTVSPropertyOp4
 70
     1
102
RTVSPropertyOp5
 70
     1
102
RTVSPropertyOp6
 70
     1
102
RTVSPropertyOp7
 70
     1
102
RTVSPropertyOp8
 70
     1
102
RTVSPropertyOp9
 70
     1
102
RTVSPropertyOp10
 70
     1
102
RTVSPropertyOp11
 70
     1
102
RTVSPropertyOp12
 70
     1
102
RTVSPropertyOp13
 70
     1
102
RTVSPropertyOp14
 70
     1
102
RTVSPropertyOp15
 70
     1
102
RTVSPropertyOp16
 70
     1
102
RTVSPropertyOp17
 70
     1
102
RTVSPropertyOp18
 70
     1
102
RTVSPropertyOp19
 70
     1
102
RTVSPropertyOp20
 70
     1
102
RTVSPropertyOp21
 70
     1
102
RTVSPropertyOp22
 70
     1
102
RTVSPropertyOp23
 70
     1
102
RTVSPropertyOp24
 70
     1
102
RTVSPropertyOp25
 70
     1
102
RTVSPropertyOp26
 70
     1
102
RTVSPropertyOp27
 70
     1
102
RTVSPropertyOp28
 70
     1
102
RTVSPropertyOp29
 70
     1
102
RTVSPropertyOp30
 70
     1
102
RTVSPropertyOp31
 70
     1
102
RTVSPropertyOp32
 70
     1
102
RTVSPropertyOp33
 70
     1
102
RTVSPropertyOp34
 70
     1
102
RTVSPropertyOp35
 70
     1
102
RTVSPropertyOp36
 70
     1
102
RTVSPropertyOp37
 70
     1
102
RTVSPropertyOp38
 70
     1
102
RTVSPropertyOp39
 70
     1
102
RTVSPropertyOp40
 70
     1
102
RTVSPropertyOp41
 70
     1
102
RTVSPropertyOp42
 70
     1
102
RTVSPropertyOp43
 70
     1
102
RTVSPropertyOp44
 70
     1
102
RTVSPropertyOp45
 70
     1
102
RTVSPropertyOp46
 70
     1
102
RTVSPropertyOp47
 70
     1
102
RTVSPropertyOp48
 70
     1
102
RTVSPropertyOp49
 70
     1
102
RTVSPropertyOp50
 70
     1
102
RTVSPropertyOp51
 70
     0
102
RTVSPropertyOp52
 70
     0
102
RTVSPropertyOp53
 70
     1
102
RTVSPropertyOp54
 70
     1
102
RTVSPropertyOp55
 70
     1
102
RTVSPropertyOp56
 70
     1
102
RTVSPropertyOp57
 70
     1
102
RTVSPropertyOp58
 70
     1
102
RTVSPropertyOp59
 70
     1
102
RTVSPropertyOp60
 70
     1
102
RTVSPropertyOp61
 70
     1
102
RTVSPropertyOp62
 70
     1
  0
XRECORD
  5
3BD
102
{ACAD_REACTORS
330
3BC
102
}
330
3BC
100
AcDbXrecord
280
     1
102
RTVSPost2010Prop28
280
     0
102
RTVSPost2010PropOp28
 70
     0
102
RTVSPost2010Prop29
280
     1
102
RTVSPost2010PropOp29
 70
     0
102
RTVSPost2010Prop30
280
     1
102
RTVSPost2010PropOp30
 70
     0
102
RTVSPost2010Prop31
280
     0
102
RTVSPost2010PropOp31
 70
     0
102
RTVSPost2010Prop32
280
     0
102
RTVSPost2010PropOp32
 70
     0
102
RTVSPost2010Prop33
280
     0
102
RTVSPost2010PropOp33
 70
     0
102
RTVSPost2010Prop34
280
     0
102
RTVSPost2010PropOp34
 70
     0
102
RTVSPost2010Prop35
280
     0
102
RTVSPost2010PropOp35
 70
     0
102
RTVSPost2010Prop36
280
     0
102
RTVSPost2010PropOp36
 70
     0
102
RTVSPost2010Prop37
 90
       50
102
RTVSPost2010PropOp37
 70
     0
102
RTVSPost2010Prop38
140
0.0
102
RTVSPost2010PropOp38
 70
     0
102
RTVSPost2010Prop39
140
1.0
102
RTVSPost2010PropOp39
 70
     0
102
RTVSPost2010Prop40
 90
        0
102
RTVSPost2010PropOp40
 70
     0
102
RTVSPost2010Prop41ColorIndex
 90
       18
102
RTVSPost2010Prop41ColorRGB
 90
        0
102
RTVSPost2010PropOp41
 70
     0
102
RTVSPost2010Prop42
 90
       50
102
RTVSPost2010PropOp42
 70
     0
102
RTVSPost2010Prop43
 90
        3
102
RTVSPost2010PropOp43
 70
     0
102
RTVSPost2010Prop44ColorIndex
 90
        5
102
RTVSPost2010Prop44ColorRGB
 90
      255
102
RTVSPost2010PropOp44
 70
     0
102
RTVSPost2010Prop45
280
     0
102
RTVSPost2010PropOp45
 70
     0
102
RTVSPost2010Prop46
 90
       50
102
RTVSPost2010PropOp46
 70
     0
102
RTVSPost2010Prop47
 90
       50
102
RTVSPost2010PropOp47
 70
     0
102
RTVSPost2010Prop48
 90
       50
102
RTVSPost2010PropOp48
 70
     0
102
RTVSPost2010Prop49
280
     0
102
RTVSPost2010PropOp49
 70
     0
102
RTVSPost2010Prop50
 90
       50
102
RTVSPost2010PropOp50
 70
     0
102
RTVSPost2010Prop51ColorIndex
 90
      256
102
RTVSPost2010Prop51ColorRGB
 90
-16777216
102
RTVSPost2010PropOp51
 70
     0
102
RTVSPost2010Prop52
140
1.0
102
RTVSPost2010PropOp52
 70
     0
102
RTVSPost2010Prop53
 90
        2
102
RTVSPost2010PropOp53
 70
     0
102
RTVSPost2010Prop54
  1
strokes_ogs.tif
102
RTVSPost2010PropOp54
 70
     0
102
RTVSPost2010Prop55
280
     0
102
RTVSPost2010PropOp55
 70
     0
102
RTVSPost2010Prop56
140
1.0
102
RTVSPost2010PropOp56
 70
     0
102
RTVSPost2010Prop57
140
1.0
102
RTVSPost2010PropOp57
 70
     0
102
RTVSPropertyOp0
 70
     0
102
RTVSPropertyOp1
 70
     0
102
RTVSPropertyOp2
 70
     0
102
RTVSPropertyOp3
 70
     0
102
RTVSPropertyOp4
 70
     0
102
RTVSPropertyOp5
 70
     0
102
RTVSPropertyOp6
 70
     0
102
RTVSPropertyOp7
 70
     0
102
RTVSPropertyOp8
 70
     0
102
RTVSPropertyOp9
 70
     0
102
RTVSPropertyOp10
 70
     0
102
RTVSPropertyOp11
 70
     0
102
RTVSPropertyOp12
 70
     0
102
RTVSPropertyOp13
 70
     0
102
RTVSPropertyOp14
 70
     2
102
RTVSPropertyOp15
 70
     0
102
RTVSPropertyOp16
 70
     0
102
RTVSPropertyOp17
 70
     0
102
RTVSPropertyOp18
 70
     0
102
RTVSPropertyOp19
 70
     0
102
RTVSPropertyOp20
 70
     0
102
RTVSPropertyOp21
 70
     0
102
RTVSPropertyOp22
 70
     0
102
RTVSPropertyOp23
 70
     0
102
RTVSPropertyOp24
 70
     0
102
RTVSPropertyOp25
 70
     0
102
RTVSPropertyOp26
 70
     0
102
RTVSPropertyOp27
 70
     0
102
RTVSPropertyOp28
 70
     0
102
RTVSPropertyOp29
 70
     0
102
RTVSPropertyOp30
 70
     0
102
RTVSPropertyOp31
 70
     0
102
RTVSPropertyOp32
 70
     0
102
RTVSPropertyOp33
 70
     0
102
RTVSPropertyOp34
 70
     0
102
RTVSPropertyOp35
 70
     0
102
RTVSPropertyOp36
 70
     0
102
RTVSPropertyOp37
 70
     0
102
RTVSPropertyOp38
 70
     0
102
RTVSPropertyOp39
 70
     0
102
RTVSPropertyOp40
 70
     0
102
RTVSPropertyOp41
 70
     0
102
RTVSPropertyOp42
 70
     0
102
RTVSPropertyOp43
 70
     0
102
RTVSPropertyOp44
 70
     0
102
RTVSPropertyOp45
 70
     0
102
RTVSPropertyOp46
 70
     0
102
RTVSPropertyOp47
 70
     0
102
RTVSPropertyOp48
 70
     0
102
RTVSPropertyOp49
 70
     0
102
RTVSPropertyOp50
 70
     0
102
RTVSPropertyOp51
 70
     0
102
RTVSPropertyOp52
 70
     0
102
RTVSPropertyOp53
 70
     0
102
RTVSPropertyOp54
 70
     0
102
RTVSPropertyOp55
 70
     0
102
RTVSPropertyOp56
 70
     0
102
RTVSPropertyOp57
 70
     0
102
RTVSPropertyOp58
 70
     1
102
RTVSPropertyOp59
 70
     1
102
RTVSPropertyOp60
 70
     1
102
RTVSPropertyOp61
 70
     1
102
RTVSPropertyOp62
 70
     1
  0
XRECORD
  5
3B5
102
{ACAD_REACTORS
330
3B4
102
}
330
3B4
100
AcDbXrecord
280
     1
102
RTVSPost2010Prop28
280
     0
102
RTVSPost2010PropOp28
 70
     1
102
RTVSPost2010Prop29
280
     1
102
RTVSPost2010PropOp29
 70
     1
102
RTVSPost2010Prop30
280
     1
102
RTVSPost2010PropOp30
 70
     1
102
RTVSPost2010Prop31
280
     0
102
RTVSPost2010PropOp31
 70
     1
102
RTVSPost2010Prop32
280
     0
102
RTVSPost2010PropOp32
 70
     1
102
RTVSPost2010Prop33
280
     0
102
RTVSPost2010PropOp33
 70
     1
102
RTVSPost2010Prop34
280
     0
102
RTVSPost2010PropOp34
 70
     1
102
RTVSPost2010Prop35
280
     0
102
RTVSPost2010PropOp35
 70
     1
102
RTVSPost2010Prop36
280
     0
102
RTVSPost2010PropOp36
 70
     1
102
RTVSPost2010Prop37
 90
       50
102
RTVSPost2010PropOp37
 70
     1
102
RTVSPost2010Prop38
140
0.0
102
RTVSPost2010PropOp38
 70
     1
102
RTVSPost2010Prop39
140
1.0
102
RTVSPost2010PropOp39
 70
     1
102
RTVSPost2010Prop40
 90
        0
102
RTVSPost2010PropOp40
 70
     1
102
RTVSPost2010Prop41ColorIndex
 90
       18
102
RTVSPost2010Prop41ColorRGB
 90
        0
102
RTVSPost2010PropOp41
 70
     1
102
RTVSPost2010Prop42
 90
       50
102
RTVSPost2010PropOp42
 70
     1
102
RTVSPost2010Prop43
 90
        3
102
RTVSPost2010PropOp43
 70
     1
102
RTVSPost2010Prop44ColorIndex
 90
        5
102
RTVSPost2010Prop44ColorRGB
 90
      255
102
RTVSPost2010PropOp44
 70
     1
102
RTVSPost2010Prop45
280
     0
102
RTVSPost2010PropOp45
 70
     1
102
RTVSPost2010Prop46
 90
       50
102
RTVSPost2010PropOp46
 70
     1
102
RTVSPost2010Prop47
 90
       50
102
RTVSPost2010PropOp47
 70
     1
102
RTVSPost2010Prop48
 90
       50
102
RTVSPost2010PropOp48
 70
     1
102
RTVSPost2010Prop49
280
     0
102
RTVSPost2010PropOp49
 70
     1
102
RTVSPost2010Prop50
 90
       50
102
RTVSPost2010PropOp50
 70
     1
102
RTVSPost2010Prop51ColorIndex
 90
      256
102
RTVSPost2010Prop51ColorRGB
 90
-16777216
102
RTVSPost2010PropOp51
 70
     0
102
RTVSPost2010Prop52
140
1.0
102
RTVSPost2010PropOp52
 70
     0
102
RTVSPost2010Prop53
 90
        2
102
RTVSPost2010PropOp53
 70
     1
102
RTVSPost2010Prop54
  1
strokes_ogs.tif
102
RTVSPost2010PropOp54
 70
     1
102
RTVSPost2010Prop55
280
     0
102
RTVSPost2010PropOp55
 70
     1
102
RTVSPost2010Prop56
140
1.0
102
RTVSPost2010PropOp56
 70
     1
102
RTVSPost2010Prop57
140
1.0
102
RTVSPost2010PropOp57
 70
     1
102
RTVSPropertyOp0
 70
     1
102
RTVSPropertyOp1
 70
     1
102
RTVSPropertyOp2
 70
     1
102
RTVSPropertyOp3
 70
     1
102
RTVSPropertyOp4
 70
     1
102
RTVSPropertyOp5
 70
     1
102
RTVSPropertyOp6
 70
     1
102
RTVSPropertyOp7
 70
     1
102
RTVSPropertyOp8
 70
     1
102
RTVSPropertyOp9
 70
     1
102
RTVSPropertyOp10
 70
     1
102
RTVSPropertyOp11
 70
     1
102
RTVSPropertyOp12
 70
     1
102
RTVSPropertyOp13
 70
     1
102
RTVSPropertyOp14
 70
     1
102
RTVSPropertyOp15
 70
     1
102
RTVSPropertyOp16
 70
     1
102
RTVSPropertyOp17
 70
     1
102
RTVSPropertyOp18
 70
     1
102
RTVSPropertyOp19
 70
     1
102
RTVSPropertyOp20
 70
     1
102
RTVSPropertyOp21
 70
     1
102
RTVSPropertyOp22
 70
     1
102
RTVSPropertyOp23
 70
     1
102
RTVSPropertyOp24
 70
     1
102
RTVSPropertyOp25
 70
     1
102
RTVSPropertyOp26
 70
     1
102
RTVSPropertyOp27
 70
     1
102
RTVSPropertyOp28
 70
     1
102
RTVSPropertyOp29
 70
     1
102
RTVSPropertyOp30
 70
     1
102
RTVSPropertyOp31
 70
     1
102
RTVSPropertyOp32
 70
     1
102
RTVSPropertyOp33
 70
     1
102
RTVSPropertyOp34
 70
     1
102
RTVSPropertyOp35
 70
     1
102
RTVSPropertyOp36
 70
     1
102
RTVSPropertyOp37
 70
     1
102
RTVSPropertyOp38
 70
     1
102
RTVSPropertyOp39
 70
     1
102
RTVSPropertyOp40
 70
     1
102
RTVSPropertyOp41
 70
     1
102
RTVSPropertyOp42
 70
     1
102
RTVSPropertyOp43
 70
     1
102
RTVSPropertyOp44
 70
     1
102
RTVSPropertyOp45
 70
     1
102
RTVSPropertyOp46
 70
     1
102
RTVSPropertyOp47
 70
     1
102
RTVSPropertyOp48
 70
     1
102
RTVSPropertyOp49
 70
     1
102
RTVSPropertyOp50
 70
     1
102
RTVSPropertyOp51
 70
     0
102
RTVSPropertyOp52
 70
     0
102
RTVSPropertyOp53
 70
     1
102
RTVSPropertyOp54
 70
     1
102
RTVSPropertyOp55
 70
     1
102
RTVSPropertyOp56
 70
     1
102
RTVSPropertyOp57
 70
     1
102
RTVSPropertyOp58
 70
     1
102
RTVSPropertyOp59
 70
     1
102
RTVSPropertyOp60
 70
     1
102
RTVSPropertyOp61
 70
     1
102
RTVSPropertyOp62
 70
     1
  0
XRECORD
  5
399
102
{ACAD_REACTORS
330
398
102
}
330
398
100
AcDbXrecord
280
     1
102
RTVSPost2010Prop28
280
     0
102
RTVSPost2010PropOp28
 70
     1
102
RTVSPost2010Prop29
280
     1
102
RTVSPost2010PropOp29
 70
     1
102
RTVSPost2010Prop30
280
     1
102
RTVSPost2010PropOp30
 70
     1
102
RTVSPost2010Prop31
280
     0
102
RTVSPost2010PropOp31
 70
     1
102
RTVSPost2010Prop32
280
     0
102
RTVSPost2010PropOp32
 70
     1
102
RTVSPost2010Prop33
280
     0
102
RTVSPost2010PropOp33
 70
     1
102
RTVSPost2010Prop34
280
     0
102
RTVSPost2010PropOp34
 70
     1
102
RTVSPost2010Prop35
280
     0
102
RTVSPost2010PropOp35
 70
     1
102
RTVSPost2010Prop36
280
     0
102
RTVSPost2010PropOp36
 70
     1
102
RTVSPost2010Prop37
 90
       50
102
RTVSPost2010PropOp37
 70
     1
102
RTVSPost2010Prop38
140
0.0
102
RTVSPost2010PropOp38
 70
     1
102
RTVSPost2010Prop39
140
1.0
102
RTVSPost2010PropOp39
 70
     1
102
RTVSPost2010Prop40
 90
        0
102
RTVSPost2010PropOp40
 70
     1
102
RTVSPost2010Prop41ColorIndex
 90
       18
102
RTVSPost2010Prop41ColorRGB
 90
        0
102
RTVSPost2010PropOp41
 70
     1
102
RTVSPost2010Prop42
 90
       50
102
RTVSPost2010PropOp42
 70
     1
102
RTVSPost2010Prop43
 90
        3
102
RTVSPost2010PropOp43
 70
     1
102
RTVSPost2010Prop44ColorIndex
 90
        5
102
RTVSPost2010Prop44ColorRGB
 90
      255
102
RTVSPost2010PropOp44
 70
     1
102
RTVSPost2010Prop45
280
     0
102
RTVSPost2010PropOp45
 70
     1
102
RTVSPost2010Prop46
 90
       50
102
RTVSPost2010PropOp46
 70
     1
102
RTVSPost2010Prop47
 90
       50
102
RTVSPost2010PropOp47
 70
     1
102
RTVSPost2010Prop48
 90
       50
102
RTVSPost2010PropOp48
 70
     1
102
RTVSPost2010Prop49
280
     0
102
RTVSPost2010PropOp49
 70
     1
102
RTVSPost2010Prop50
 90
       50
102
RTVSPost2010PropOp50
 70
     1
102
RTVSPost2010Prop51ColorIndex
 90
      256
102
RTVSPost2010Prop51ColorRGB
 90
-16777216
102
RTVSPost2010PropOp51
 70
     0
102
RTVSPost2010Prop52
140
1.0
102
RTVSPost2010PropOp52
 70
     0
102
RTVSPost2010Prop53
 90
        2
102
RTVSPost2010PropOp53
 70
     1
102
RTVSPost2010Prop54
  1
strokes_ogs.tif
102
RTVSPost2010PropOp54
 70
     1
102
RTVSPost2010Prop55
280
     0
102
RTVSPost2010PropOp55
 70
     1
102
RTVSPost2010Prop56
140
1.0
102
RTVSPost2010PropOp56
 70
     1
102
RTVSPost2010Prop57
140
1.0
102
RTVSPost2010PropOp57
 70
     1
102
RTVSPropertyOp0
 70
     1
102
RTVSPropertyOp1
 70
     1
102
RTVSPropertyOp2
 70
     1
102
RTVSPropertyOp3
 70
     1
102
RTVSPropertyOp4
 70
     1
102
RTVSPropertyOp5
 70
     1
102
RTVSPropertyOp6
 70
     1
102
RTVSPropertyOp7
 70
     1
102
RTVSPropertyOp8
 70
     1
102
RTVSPropertyOp9
 70
     1
102
RTVSPropertyOp10
 70
     1
102
RTVSPropertyOp11
 70
     1
102
RTVSPropertyOp12
 70
     1
102
RTVSPropertyOp13
 70
     1
102
RTVSPropertyOp14
 70
     1
102
RTVSPropertyOp15
 70
     1
102
RTVSPropertyOp16
 70
     1
102
RTVSPropertyOp17
 70
     1
102
RTVSPropertyOp18
 70
     1
102
RTVSPropertyOp19
 70
     1
102
RTVSPropertyOp20
 70
     1
102
RTVSPropertyOp21
 70
     1
102
RTVSPropertyOp22
 70
     1
102
RTVSPropertyOp23
 70
     1
102
RTVSPropertyOp24
 70
     1
102
RTVSPropertyOp25
 70
     1
102
RTVSPropertyOp26
 70
     1
102
RTVSPropertyOp27
 70
     1
102
RTVSPropertyOp28
 70
     1
102
RTVSPropertyOp29
 70
     1
102
RTVSPropertyOp30
 70
     1
102
RTVSPropertyOp31
 70
     1
102
RTVSPropertyOp32
 70
     1
102
RTVSPropertyOp33
 70
     1
102
RTVSPropertyOp34
 70
     1
102
RTVSPropertyOp35
 70
     1
102
RTVSPropertyOp36
 70
     1
102
RTVSPropertyOp37
 70
     1
102
RTVSPropertyOp38
 70
     1
102
RTVSPropertyOp39
 70
     1
102
RTVSPropertyOp40
 70
     1
102
RTVSPropertyOp41
 70
     1
102
RTVSPropertyOp42
 70
     1
102
RTVSPropertyOp43
 70
     1
102
RTVSPropertyOp44
 70
     1
102
RTVSPropertyOp45
 70
     1
102
RTVSPropertyOp46
 70
     1
102
RTVSPropertyOp47
 70
     1
102
RTVSPropertyOp48
 70
     1
102
RTVSPropertyOp49
 70
     1
102
RTVSPropertyOp50
 70
     1
102
RTVSPropertyOp51
 70
     0
102
RTVSPropertyOp52
 70
     0
102
RTVSPropertyOp53
 70
     1
102
RTVSPropertyOp54
 70
     1
102
RTVSPropertyOp55
 70
     1
102
RTVSPropertyOp56
 70
     1
102
RTVSPropertyOp57
 70
     1
102
RTVSPropertyOp58
 70
     1
102
RTVSPropertyOp59
 70
     1
102
RTVSPropertyOp60
 70
     1
102
RTVSPropertyOp61
 70
     1
102
RTVSPropertyOp62
 70
     1
  0
XRECORD
  5
39B
102
{ACAD_REACTORS
330
39A
102
}
330
39A
100
AcDbXrecord
280
     1
102
RTVSPost2010Prop28
280
     0
102
RTVSPost2010PropOp28
 70
     1
102
RTVSPost2010Prop29
280
     1
102
RTVSPost2010PropOp29
 70
     1
102
RTVSPost2010Prop30
280
     1
102
RTVSPost2010PropOp30
 70
     1
102
RTVSPost2010Prop31
280
     0
102
RTVSPost2010PropOp31
 70
     1
102
RTVSPost2010Prop32
280
     0
102
RTVSPost2010PropOp32
 70
     1
102
RTVSPost2010Prop33
280
     0
102
RTVSPost2010PropOp33
 70
     1
102
RTVSPost2010Prop34
280
     0
102
RTVSPost2010PropOp34
 70
     1
102
RTVSPost2010Prop35
280
     0
102
RTVSPost2010PropOp35
 70
     1
102
RTVSPost2010Prop36
280
     0
102
RTVSPost2010PropOp36
 70
     1
102
RTVSPost2010Prop37
 90
       50
102
RTVSPost2010PropOp37
 70
     1
102
RTVSPost2010Prop38
140
0.0
102
RTVSPost2010PropOp38
 70
     1
102
RTVSPost2010Prop39
140
1.0
102
RTVSPost2010PropOp39
 70
     1
102
RTVSPost2010Prop40
 90
        0
102
RTVSPost2010PropOp40
 70
     1
102
RTVSPost2010Prop41ColorIndex
 90
       18
102
RTVSPost2010Prop41ColorRGB
 90
        0
102
RTVSPost2010PropOp41
 70
     1
102
RTVSPost2010Prop42
 90
       50
102
RTVSPost2010PropOp42
 70
     1
102
RTVSPost2010Prop43
 90
        3
102
RTVSPost2010PropOp43
 70
     1
102
RTVSPost2010Prop44ColorIndex
 90
        5
102
RTVSPost2010Prop44ColorRGB
 90
      255
102
RTVSPost2010PropOp44
 70
     1
102
RTVSPost2010Prop45
280
     0
102
RTVSPost2010PropOp45
 70
     1
102
RTVSPost2010Prop46
 90
       50
102
RTVSPost2010PropOp46
 70
     1
102
RTVSPost2010Prop47
 90
       50
102
RTVSPost2010PropOp47
 70
     1
102
RTVSPost2010Prop48
 90
       50
102
RTVSPost2010PropOp48
 70
     1
102
RTVSPost2010Prop49
280
     0
102
RTVSPost2010PropOp49
 70
     1
102
RTVSPost2010Prop50
 90
       50
102
RTVSPost2010PropOp50
 70
     1
102
RTVSPost2010Prop51ColorIndex
 90
      256
102
RTVSPost2010Prop51ColorRGB
 90
-16777216
102
RTVSPost2010PropOp51
 70
     0
102
RTVSPost2010Prop52
140
1.0
102
RTVSPost2010PropOp52
 70
     0
102
RTVSPost2010Prop53
 90
        2
102
RTVSPost2010PropOp53
 70
     1
102
RTVSPost2010Prop54
  1
strokes_ogs.tif
102
RTVSPost2010PropOp54
 70
     1
102
RTVSPost2010Prop55
280
     0
102
RTVSPost2010PropOp55
 70
     1
102
RTVSPost2010Prop56
140
1.0
102
RTVSPost2010PropOp56
 70
     1
102
RTVSPost2010Prop57
140
1.0
102
RTVSPost2010PropOp57
 70
     1
102
RTVSPropertyOp0
 70
     1
102
RTVSPropertyOp1
 70
     1
102
RTVSPropertyOp2
 70
     1
102
RTVSPropertyOp3
 70
     1
102
RTVSPropertyOp4
 70
     1
102
RTVSPropertyOp5
 70
     1
102
RTVSPropertyOp6
 70
     1
102
RTVSPropertyOp7
 70
     1
102
RTVSPropertyOp8
 70
     1
102
RTVSPropertyOp9
 70
     1
102
RTVSPropertyOp10
 70
     1
102
RTVSPropertyOp11
 70
     1
102
RTVSPropertyOp12
 70
     1
102
RTVSPropertyOp13
 70
     1
102
RTVSPropertyOp14
 70
     1
102
RTVSPropertyOp15
 70
     1
102
RTVSPropertyOp16
 70
     1
102
RTVSPropertyOp17
 70
     1
102
RTVSPropertyOp18
 70
     1
102
RTVSPropertyOp19
 70
     1
102
RTVSPropertyOp20
 70
     1
102
RTVSPropertyOp21
 70
     1
102
RTVSPropertyOp22
 70
     1
102
RTVSPropertyOp23
 70
     1
102
RTVSPropertyOp24
 70
     1
102
RTVSPropertyOp25
 70
     1
102
RTVSPropertyOp26
 70
     1
102
RTVSPropertyOp27
 70
     1
102
RTVSPropertyOp28
 70
     1
102
RTVSPropertyOp29
 70
     1
102
RTVSPropertyOp30
 70
     1
102
RTVSPropertyOp31
 70
     1
102
RTVSPropertyOp32
 70
     1
102
RTVSPropertyOp33
 70
     1
102
RTVSPropertyOp34
 70
     1
102
RTVSPropertyOp35
 70
     1
102
RTVSPropertyOp36
 70
     1
102
RTVSPropertyOp37
 70
     1
102
RTVSPropertyOp38
 70
     1
102
RTVSPropertyOp39
 70
     1
102
RTVSPropertyOp40
 70
     1
102
RTVSPropertyOp41
 70
     1
102
RTVSPropertyOp42
 70
     1
102
RTVSPropertyOp43
 70
     1
102
RTVSPropertyOp44
 70
     1
102
RTVSPropertyOp45
 70
     1
102
RTVSPropertyOp46
 70
     1
102
RTVSPropertyOp47
 70
     1
102
RTVSPropertyOp48
 70
     1
102
RTVSPropertyOp49
 70
     1
102
RTVSPropertyOp50
 70
     1
102
RTVSPropertyOp51
 70
     0
102
RTVSPropertyOp52
 70
     0
102
RTVSPropertyOp53
 70
     1
102
RTVSPropertyOp54
 70
     1
102
RTVSPropertyOp55
 70
     1
102
RTVSPropertyOp56
 70
     1
102
RTVSPropertyOp57
 70
     1
102
RTVSPropertyOp58
 70
     1
102
RTVSPropertyOp59
 70
     1
102
RTVSPropertyOp60
 70
     1
102
RTVSPropertyOp61
 70
     1
102
RTVSPropertyOp62
 70
     1
  0
XRECORD
  5
39D
102
{ACAD_REACTORS
330
39C
102
}
330
39C
100
AcDbXrecord
280
     1
102
RTVSPost2010Prop28
280
     0
102
RTVSPost2010PropOp28
 70
     1
102
RTVSPost2010Prop29
280
     1
102
RTVSPost2010PropOp29
 70
     1
102
RTVSPost2010Prop30
280
     1
102
RTVSPost2010PropOp30
 70
     1
102
RTVSPost2010Prop31
280
     0
102
RTVSPost2010PropOp31
 70
     1
102
RTVSPost2010Prop32
280
     0
102
RTVSPost2010PropOp32
 70
     1
102
RTVSPost2010Prop33
280
     0
102
RTVSPost2010PropOp33
 70
     1
102
RTVSPost2010Prop34
280
     0
102
RTVSPost2010PropOp34
 70
     1
102
RTVSPost2010Prop35
280
     0
102
RTVSPost2010PropOp35
 70
     1
102
RTVSPost2010Prop36
280
     0
102
RTVSPost2010PropOp36
 70
     1
102
RTVSPost2010Prop37
 90
       50
102
RTVSPost2010PropOp37
 70
     1
102
RTVSPost2010Prop38
140
0.0
102
RTVSPost2010PropOp38
 70
     1
102
RTVSPost2010Prop39
140
1.0
102
RTVSPost2010PropOp39
 70
     1
102
RTVSPost2010Prop40
 90
        0
102
RTVSPost2010PropOp40
 70
     1
102
RTVSPost2010Prop41ColorIndex
 90
       18
102
RTVSPost2010Prop41ColorRGB
 90
        0
102
RTVSPost2010PropOp41
 70
     1
102
RTVSPost2010Prop42
 90
       50
102
RTVSPost2010PropOp42
 70
     1
102
RTVSPost2010Prop43
 90
        3
102
RTVSPost2010PropOp43
 70
     1
102
RTVSPost2010Prop44ColorIndex
 90
        5
102
RTVSPost2010Prop44ColorRGB
 90
      255
102
RTVSPost2010PropOp44
 70
     1
102
RTVSPost2010Prop45
280
     0
102
RTVSPost2010PropOp45
 70
     1
102
RTVSPost2010Prop46
 90
       50
102
RTVSPost2010PropOp46
 70
     1
102
RTVSPost2010Prop47
 90
       50
102
RTVSPost2010PropOp47
 70
     1
102
RTVSPost2010Prop48
 90
       50
102
RTVSPost2010PropOp48
 70
     1
102
RTVSPost2010Prop49
280
     0
102
RTVSPost2010PropOp49
 70
     1
102
RTVSPost2010Prop50
 90
       50
102
RTVSPost2010PropOp50
 70
     1
102
RTVSPost2010Prop51ColorIndex
 90
      256
102
RTVSPost2010Prop51ColorRGB
 90
-16777216
102
RTVSPost2010PropOp51
 70
     0
102
RTVSPost2010Prop52
140
1.0
102
RTVSPost2010PropOp52
 70
     0
102
RTVSPost2010Prop53
 90
        2
102
RTVSPost2010PropOp53
 70
     1
102
RTVSPost2010Prop54
  1
strokes_ogs.tif
102
RTVSPost2010PropOp54
 70
     1
102
RTVSPost2010Prop55
280
     0
102
RTVSPost2010PropOp55
 70
     1
102
RTVSPost2010Prop56
140
1.0
102
RTVSPost2010PropOp56
 70
     1
102
RTVSPost2010Prop57
140
1.0
102
RTVSPost2010PropOp57
 70
     1
102
RTVSPropertyOp0
 70
     1
102
RTVSPropertyOp1
 70
     1
102
RTVSPropertyOp2
 70
     1
102
RTVSPropertyOp3
 70
     1
102
RTVSPropertyOp4
 70
     1
102
RTVSPropertyOp5
 70
     1
102
RTVSPropertyOp6
 70
     1
102
RTVSPropertyOp7
 70
     1
102
RTVSPropertyOp8
 70
     1
102
RTVSPropertyOp9
 70
     1
102
RTVSPropertyOp10
 70
     1
102
RTVSPropertyOp11
 70
     1
102
RTVSPropertyOp12
 70
     1
102
RTVSPropertyOp13
 70
     1
102
RTVSPropertyOp14
 70
     1
102
RTVSPropertyOp15
 70
     1
102
RTVSPropertyOp16
 70
     1
102
RTVSPropertyOp17
 70
     1
102
RTVSPropertyOp18
 70
     1
102
RTVSPropertyOp19
 70
     1
102
RTVSPropertyOp20
 70
     1
102
RTVSPropertyOp21
 70
     1
102
RTVSPropertyOp22
 70
     1
102
RTVSPropertyOp23
 70
     1
102
RTVSPropertyOp24
 70
     1
102
RTVSPropertyOp25
 70
     1
102
RTVSPropertyOp26
 70
     1
102
RTVSPropertyOp27
 70
     1
102
RTVSPropertyOp28
 70
     1
102
RTVSPropertyOp29
 70
     1
102
RTVSPropertyOp30
 70
     1
102
RTVSPropertyOp31
 70
     1
102
RTVSPropertyOp32
 70
     1
102
RTVSPropertyOp33
 70
     1
102
RTVSPropertyOp34
 70
     1
102
RTVSPropertyOp35
 70
     1
102
RTVSPropertyOp36
 70
     1
102
RTVSPropertyOp37
 70
     1
102
RTVSPropertyOp38
 70
     1
102
RTVSPropertyOp39
 70
     1
102
RTVSPropertyOp40
 70
     1
102
RTVSPropertyOp41
 70
     1
102
RTVSPropertyOp42
 70
     1
102
RTVSPropertyOp43
 70
     1
102
RTVSPropertyOp44
 70
     1
102
RTVSPropertyOp45
 70
     1
102
RTVSPropertyOp46
 70
     1
102
RTVSPropertyOp47
 70
     1
102
RTVSPropertyOp48
 70
     1
102
RTVSPropertyOp49
 70
     1
102
RTVSPropertyOp50
 70
     1
102
RTVSPropertyOp51
 70
     0
102
RTVSPropertyOp52
 70
     0
102
RTVSPropertyOp53
 70
     1
102
RTVSPropertyOp54
 70
     1
102
RTVSPropertyOp55
 70
     1
102
RTVSPropertyOp56
 70
     1
102
RTVSPropertyOp57
 70
     1
102
RTVSPropertyOp58
 70
     1
102
RTVSPropertyOp59
 70
     1
102
RTVSPropertyOp60
 70
     1
102
RTVSPropertyOp61
 70
     1
102
RTVSPropertyOp62
 70
     1
  0
XRECORD
  5
39F
102
{ACAD_REACTORS
330
39E
102
}
330
39E
100
AcDbXrecord
280
     1
102
RTVSPost2010Prop28
280
     0
102
RTVSPost2010PropOp28
 70
     1
102
RTVSPost2010Prop29
280
     1
102
RTVSPost2010PropOp29
 70
     1
102
RTVSPost2010Prop30
280
     1
102
RTVSPost2010PropOp30
 70
     1
102
RTVSPost2010Prop31
280
     0
102
RTVSPost2010PropOp31
 70
     1
102
RTVSPost2010Prop32
280
     0
102
RTVSPost2010PropOp32
 70
     1
102
RTVSPost2010Prop33
280
     0
102
RTVSPost2010PropOp33
 70
     1
102
RTVSPost2010Prop34
280
     0
102
RTVSPost2010PropOp34
 70
     1
102
RTVSPost2010Prop35
280
     0
102
RTVSPost2010PropOp35
 70
     1
102
RTVSPost2010Prop36
280
     0
102
RTVSPost2010PropOp36
 70
     1
102
RTVSPost2010Prop37
 90
       50
102
RTVSPost2010PropOp37
 70
     1
102
RTVSPost2010Prop38
140
0.0
102
RTVSPost2010PropOp38
 70
     1
102
RTVSPost2010Prop39
140
1.0
102
RTVSPost2010PropOp39
 70
     1
102
RTVSPost2010Prop40
 90
        0
102
RTVSPost2010PropOp40
 70
     1
102
RTVSPost2010Prop41ColorIndex
 90
       18
102
RTVSPost2010Prop41ColorRGB
 90
        0
102
RTVSPost2010PropOp41
 70
     1
102
RTVSPost2010Prop42
 90
       50
102
RTVSPost2010PropOp42
 70
     1
102
RTVSPost2010Prop43
 90
        3
102
RTVSPost2010PropOp43
 70
     1
102
RTVSPost2010Prop44ColorIndex
 90
        5
102
RTVSPost2010Prop44ColorRGB
 90
      255
102
RTVSPost2010PropOp44
 70
     1
102
RTVSPost2010Prop45
280
     0
102
RTVSPost2010PropOp45
 70
     1
102
RTVSPost2010Prop46
 90
       50
102
RTVSPost2010PropOp46
 70
     1
102
RTVSPost2010Prop47
 90
       50
102
RTVSPost2010PropOp47
 70
     1
102
RTVSPost2010Prop48
 90
       50
102
RTVSPost2010PropOp48
 70
     1
102
RTVSPost2010Prop49
280
     0
102
RTVSPost2010PropOp49
 70
     1
102
RTVSPost2010Prop50
 90
       50
102
RTVSPost2010PropOp50
 70
     1
102
RTVSPost2010Prop51ColorIndex
 90
      256
102
RTVSPost2010Prop51ColorRGB
 90
-16777216
102
RTVSPost2010PropOp51
 70
     0
102
RTVSPost2010Prop52
140
1.0
102
RTVSPost2010PropOp52
 70
     0
102
RTVSPost2010Prop53
 90
        2
102
RTVSPost2010PropOp53
 70
     1
102
RTVSPost2010Prop54
  1
strokes_ogs.tif
102
RTVSPost2010PropOp54
 70
     1
102
RTVSPost2010Prop55
280
     0
102
RTVSPost2010PropOp55
 70
     1
102
RTVSPost2010Prop56
140
1.0
102
RTVSPost2010PropOp56
 70
     1
102
RTVSPost2010Prop57
140
1.0
102
RTVSPost2010PropOp57
 70
     1
102
RTVSPropertyOp0
 70
     1
102
RTVSPropertyOp1
 70
     1
102
RTVSPropertyOp2
 70
     1
102
RTVSPropertyOp3
 70
     1
102
RTVSPropertyOp4
 70
     1
102
RTVSPropertyOp5
 70
     1
102
RTVSPropertyOp6
 70
     1
102
RTVSPropertyOp7
 70
     1
102
RTVSPropertyOp8
 70
     1
102
RTVSPropertyOp9
 70
     1
102
RTVSPropertyOp10
 70
     1
102
RTVSPropertyOp11
 70
     1
102
RTVSPropertyOp12
 70
     1
102
RTVSPropertyOp13
 70
     1
102
RTVSPropertyOp14
 70
     1
102
RTVSPropertyOp15
 70
     1
102
RTVSPropertyOp16
 70
     1
102
RTVSPropertyOp17
 70
     1
102
RTVSPropertyOp18
 70
     1
102
RTVSPropertyOp19
 70
     1
102
RTVSPropertyOp20
 70
     1
102
RTVSPropertyOp21
 70
     1
102
RTVSPropertyOp22
 70
     1
102
RTVSPropertyOp23
 70
     1
102
RTVSPropertyOp24
 70
     1
102
RTVSPropertyOp25
 70
     1
102
RTVSPropertyOp26
 70
     1
102
RTVSPropertyOp27
 70
     1
102
RTVSPropertyOp28
 70
     1
102
RTVSPropertyOp29
 70
     1
102
RTVSPropertyOp30
 70
     1
102
RTVSPropertyOp31
 70
     1
102
RTVSPropertyOp32
 70
     1
102
RTVSPropertyOp33
 70
     1
102
RTVSPropertyOp34
 70
     1
102
RTVSPropertyOp35
 70
     1
102
RTVSPropertyOp36
 70
     1
102
RTVSPropertyOp37
 70
     1
102
RTVSPropertyOp38
 70
     1
102
RTVSPropertyOp39
 70
     1
102
RTVSPropertyOp40
 70
     1
102
RTVSPropertyOp41
 70
     1
102
RTVSPropertyOp42
 70
     1
102
RTVSPropertyOp43
 70
     1
102
RTVSPropertyOp44
 70
     1
102
RTVSPropertyOp45
 70
     1
102
RTVSPropertyOp46
 70
     1
102
RTVSPropertyOp47
 70
     1
102
RTVSPropertyOp48
 70
     1
102
RTVSPropertyOp49
 70
     1
102
RTVSPropertyOp50
 70
     1
102
RTVSPropertyOp51
 70
     0
102
RTVSPropertyOp52
 70
     0
102
RTVSPropertyOp53
 70
     1
102
RTVSPropertyOp54
 70
     1
102
RTVSPropertyOp55
 70
     1
102
RTVSPropertyOp56
 70
     1
102
RTVSPropertyOp57
 70
     1
102
RTVSPropertyOp58
 70
     1
102
RTVSPropertyOp59
 70
     1
102
RTVSPropertyOp60
 70
     1
102
RTVSPropertyOp61
 70
     1
102
RTVSPropertyOp62
 70
     1
  0
XRECORD
  5
3A5
102
{ACAD_REACTORS
330
3A4
102
}
330
3A4
100
AcDbXrecord
280
     1
102
RTVSPost2010Prop28
280
     0
102
RTVSPost2010PropOp28
 70
     1
102
RTVSPost2010Prop29
280
     1
102
RTVSPost2010PropOp29
 70
     1
102
RTVSPost2010Prop30
280
     1
102
RTVSPost2010PropOp30
 70
     1
102
RTVSPost2010Prop31
280
     0
102
RTVSPost2010PropOp31
 70
     1
102
RTVSPost2010Prop32
280
     0
102
RTVSPost2010PropOp32
 70
     1
102
RTVSPost2010Prop33
280
     0
102
RTVSPost2010PropOp33
 70
     1
102
RTVSPost2010Prop34
280
     0
102
RTVSPost2010PropOp34
 70
     1
102
RTVSPost2010Prop35
280
     0
102
RTVSPost2010PropOp35
 70
     1
102
RTVSPost2010Prop36
280
     0
102
RTVSPost2010PropOp36
 70
     1
102
RTVSPost2010Prop37
 90
       50
102
RTVSPost2010PropOp37
 70
     1
102
RTVSPost2010Prop38
140
0.0
102
RTVSPost2010PropOp38
 70
     1
102
RTVSPost2010Prop39
140
1.0
102
RTVSPost2010PropOp39
 70
     1
102
RTVSPost2010Prop40
 90
        0
102
RTVSPost2010PropOp40
 70
     1
102
RTVSPost2010Prop41ColorIndex
 90
       18
102
RTVSPost2010Prop41ColorRGB
 90
        0
102
RTVSPost2010PropOp41
 70
     1
102
RTVSPost2010Prop42
 90
       50
102
RTVSPost2010PropOp42
 70
     1
102
RTVSPost2010Prop43
 90
        3
102
RTVSPost2010PropOp43
 70
     1
102
RTVSPost2010Prop44ColorIndex
 90
        5
102
RTVSPost2010Prop44ColorRGB
 90
      255
102
RTVSPost2010PropOp44
 70
     1
102
RTVSPost2010Prop45
280
     0
102
RTVSPost2010PropOp45
 70
     1
102
RTVSPost2010Prop46
 90
       50
102
RTVSPost2010PropOp46
 70
     1
102
RTVSPost2010Prop47
 90
       50
102
RTVSPost2010PropOp47
 70
     1
102
RTVSPost2010Prop48
 90
       50
102
RTVSPost2010PropOp48
 70
     1
102
RTVSPost2010Prop49
280
     0
102
RTVSPost2010PropOp49
 70
     1
102
RTVSPost2010Prop50
 90
       50
102
RTVSPost2010PropOp50
 70
     1
102
RTVSPost2010Prop51ColorIndex
 90
      256
102
RTVSPost2010Prop51ColorRGB
 90
-16777216
102
RTVSPost2010PropOp51
 70
     0
102
RTVSPost2010Prop52
140
1.0
102
RTVSPost2010PropOp52
 70
     0
102
RTVSPost2010Prop53
 90
        2
102
RTVSPost2010PropOp53
 70
     1
102
RTVSPost2010Prop54
  1
strokes_ogs.tif
102
RTVSPost2010PropOp54
 70
     1
102
RTVSPost2010Prop55
280
     0
102
RTVSPost2010PropOp55
 70
     1
102
RTVSPost2010Prop56
140
1.0
102
RTVSPost2010PropOp56
 70
     1
102
RTVSPost2010Prop57
140
1.0
102
RTVSPost2010PropOp57
 70
     1
102
RTVSPropertyOp0
 70
     1
102
RTVSPropertyOp1
 70
     1
102
RTVSPropertyOp2
 70
     1
102
RTVSPropertyOp3
 70
     1
102
RTVSPropertyOp4
 70
     1
102
RTVSPropertyOp5
 70
     1
102
RTVSPropertyOp6
 70
     1
102
RTVSPropertyOp7
 70
     1
102
RTVSPropertyOp8
 70
     1
102
RTVSPropertyOp9
 70
     1
102
RTVSPropertyOp10
 70
     1
102
RTVSPropertyOp11
 70
     1
102
RTVSPropertyOp12
 70
     1
102
RTVSPropertyOp13
 70
     1
102
RTVSPropertyOp14
 70
     1
102
RTVSPropertyOp15
 70
     1
102
RTVSPropertyOp16
 70
     1
102
RTVSPropertyOp17
 70
     1
102
RTVSPropertyOp18
 70
     1
102
RTVSPropertyOp19
 70
     1
102
RTVSPropertyOp20
 70
     1
102
RTVSPropertyOp21
 70
     1
102
RTVSPropertyOp22
 70
     1
102
RTVSPropertyOp23
 70
     1
102
RTVSPropertyOp24
 70
     1
102
RTVSPropertyOp25
 70
     1
102
RTVSPropertyOp26
 70
     1
102
RTVSPropertyOp27
 70
     1
102
RTVSPropertyOp28
 70
     1
102
RTVSPropertyOp29
 70
     1
102
RTVSPropertyOp30
 70
     1
102
RTVSPropertyOp31
 70
     1
102
RTVSPropertyOp32
 70
     1
102
RTVSPropertyOp33
 70
     1
102
RTVSPropertyOp34
 70
     1
102
RTVSPropertyOp35
 70
     1
102
RTVSPropertyOp36
 70
     1
102
RTVSPropertyOp37
 70
     1
102
RTVSPropertyOp38
 70
     1
102
RTVSPropertyOp39
 70
     1
102
RTVSPropertyOp40
 70
     1
102
RTVSPropertyOp41
 70
     1
102
RTVSPropertyOp42
 70
     1
102
RTVSPropertyOp43
 70
     1
102
RTVSPropertyOp44
 70
     1
102
RTVSPropertyOp45
 70
     1
102
RTVSPropertyOp46
 70
     1
102
RTVSPropertyOp47
 70
     1
102
RTVSPropertyOp48
 70
     1
102
RTVSPropertyOp49
 70
     1
102
RTVSPropertyOp50
 70
     1
102
RTVSPropertyOp51
 70
     0
102
RTVSPropertyOp52
 70
     0
102
RTVSPropertyOp53
 70
     1
102
RTVSPropertyOp54
 70
     1
102
RTVSPropertyOp55
 70
     1
102
RTVSPropertyOp56
 70
     1
102
RTVSPropertyOp57
 70
     1
102
RTVSPropertyOp58
 70
     1
102
RTVSPropertyOp59
 70
     1
102
RTVSPropertyOp60
 70
     1
102
RTVSPropertyOp61
 70
     1
102
RTVSPropertyOp62
 70
     1
  0
XRECORD
  5
3B9
102
{ACAD_REACTORS
330
3B8
102
}
330
3B8
100
AcDbXrecord
280
     1
102
RTVSPost2010Prop28
280
     0
102
RTVSPost2010PropOp28
 70
     0
102
RTVSPost2010Prop29
280
     1
102
RTVSPost2010PropOp29
 70
     0
102
RTVSPost2010Prop30
280
     1
102
RTVSPost2010PropOp30
 70
     0
102
RTVSPost2010Prop31
280
     0
102
RTVSPost2010PropOp31
 70
     0
102
RTVSPost2010Prop32
280
     0
102
RTVSPost2010PropOp32
 70
     0
102
RTVSPost2010Prop33
280
     0
102
RTVSPost2010PropOp33
 70
     0
102
RTVSPost2010Prop34
280
     0
102
RTVSPost2010PropOp34
 70
     0
102
RTVSPost2010Prop35
280
     0
102
RTVSPost2010PropOp35
 70
     0
102
RTVSPost2010Prop36
280
     0
102
RTVSPost2010PropOp36
 70
     0
102
RTVSPost2010Prop37
 90
       50
102
RTVSPost2010PropOp37
 70
     0
102
RTVSPost2010Prop38
140
0.0
102
RTVSPost2010PropOp38
 70
     0
102
RTVSPost2010Prop39
140
1.0
102
RTVSPost2010PropOp39
 70
     0
102
RTVSPost2010Prop40
 90
        0
102
RTVSPost2010PropOp40
 70
     0
102
RTVSPost2010Prop41ColorIndex
 90
       18
102
RTVSPost2010Prop41ColorRGB
 90
        0
102
RTVSPost2010PropOp41
 70
     0
102
RTVSPost2010Prop42
 90
       50
102
RTVSPost2010PropOp42
 70
     0
102
RTVSPost2010Prop43
 90
        3
102
RTVSPost2010PropOp43
 70
     0
102
RTVSPost2010Prop44ColorIndex
 90
        5
102
RTVSPost2010Prop44ColorRGB
 90
      255
102
RTVSPost2010PropOp44
 70
     0
102
RTVSPost2010Prop45
280
     0
102
RTVSPost2010PropOp45
 70
     0
102
RTVSPost2010Prop46
 90
       50
102
RTVSPost2010PropOp46
 70
     0
102
RTVSPost2010Prop47
 90
       50
102
RTVSPost2010PropOp47
 70
     0
102
RTVSPost2010Prop48
 90
       50
102
RTVSPost2010PropOp48
 70
     0
102
RTVSPost2010Prop49
280
     0
102
RTVSPost2010PropOp49
 70
     0
102
RTVSPost2010Prop50
 90
       50
102
RTVSPost2010PropOp50
 70
     0
102
RTVSPost2010Prop51ColorIndex
 90
      256
102
RTVSPost2010Prop51ColorRGB
 90
-16777216
102
RTVSPost2010PropOp51
 70
     0
102
RTVSPost2010Prop52
140
1.0
102
RTVSPost2010PropOp52
 70
     0
102
RTVSPost2010Prop53
 90
        2
102
RTVSPost2010PropOp53
 70
     0
102
RTVSPost2010Prop54
  1
strokes_ogs.tif
102
RTVSPost2010PropOp54
 70
     0
102
RTVSPost2010Prop55
280
     0
102
RTVSPost2010PropOp55
 70
     0
102
RTVSPost2010Prop56
140
1.0
102
RTVSPost2010PropOp56
 70
     0
102
RTVSPost2010Prop57
140
1.0
102
RTVSPost2010PropOp57
 70
     0
102
RTVSPropertyOp0
 70
     0
102
RTVSPropertyOp1
 70
     0
102
RTVSPropertyOp2
 70
     0
102
RTVSPropertyOp3
 70
     0
102
RTVSPropertyOp4
 70
     0
102
RTVSPropertyOp5
 70
     0
102
RTVSPropertyOp6
 70
     0
102
RTVSPropertyOp7
 70
     0
102
RTVSPropertyOp8
 70
     0
102
RTVSPropertyOp9
 70
     0
102
RTVSPropertyOp10
 70
     0
102
RTVSPropertyOp11
 70
     0
102
RTVSPropertyOp12
 70
     0
102
RTVSPropertyOp13
 70
     0
102
RTVSPropertyOp14
 70
     2
102
RTVSPropertyOp15
 70
     0
102
RTVSPropertyOp16
 70
     0
102
RTVSPropertyOp17
 70
     0
102
RTVSPropertyOp18
 70
     0
102
RTVSPropertyOp19
 70
     0
102
RTVSPropertyOp20
 70
     0
102
RTVSPropertyOp21
 70
     0
102
RTVSPropertyOp22
 70
     0
102
RTVSPropertyOp23
 70
     0
102
RTVSPropertyOp24
 70
     0
102
RTVSPropertyOp25
 70
     0
102
RTVSPropertyOp26
 70
     0
102
RTVSPropertyOp27
 70
     0
102
RTVSPropertyOp28
 70
     0
102
RTVSPropertyOp29
 70
     0
102
RTVSPropertyOp30
 70
     0
102
RTVSPropertyOp31
 70
     0
102
RTVSPropertyOp32
 70
     0
102
RTVSPropertyOp33
 70
     0
102
RTVSPropertyOp34
 70
     0
102
RTVSPropertyOp35
 70
     0
102
RTVSPropertyOp36
 70
     0
102
RTVSPropertyOp37
 70
     0
102
RTVSPropertyOp38
 70
     0
102
RTVSPropertyOp39
 70
     0
102
RTVSPropertyOp40
 70
     0
102
RTVSPropertyOp41
 70
     0
102
RTVSPropertyOp42
 70
     0
102
RTVSPropertyOp43
 70
     0
102
RTVSPropertyOp44
 70
     0
102
RTVSPropertyOp45
 70
     0
102
RTVSPropertyOp46
 70
     0
102
RTVSPropertyOp47
 70
     0
102
RTVSPropertyOp48
 70
     0
102
RTVSPropertyOp49
 70
     0
102
RTVSPropertyOp50
 70
     0
102
RTVSPropertyOp51
 70
     0
102
RTVSPropertyOp52
 70
     0
102
RTVSPropertyOp53
 70
     0
102
RTVSPropertyOp54
 70
     0
102
RTVSPropertyOp55
 70
     0
102
RTVSPropertyOp56
 70
     0
102
RTVSPropertyOp57
 70
     0
102
RTVSPropertyOp58
 70
     1
102
RTVSPropertyOp59
 70
     1
102
RTVSPropertyOp60
 70
     1
102
RTVSPropertyOp61
 70
     1
102
RTVSPropertyOp62
 70
     1
  0
XRECORD
  5
3B3
102
{ACAD_REACTORS
330
3B2
102
}
330
3B2
100
AcDbXrecord
280
     1
102
RTVSPost2010Prop28
280
     0
102
RTVSPost2010PropOp28
 70
     1
102
RTVSPost2010Prop29
280
     1
102
RTVSPost2010PropOp29
 70
     1
102
RTVSPost2010Prop30
280
     1
102
RTVSPost2010PropOp30
 70
     1
102
RTVSPost2010Prop31
280
     0
102
RTVSPost2010PropOp31
 70
     1
102
RTVSPost2010Prop32
280
     0
102
RTVSPost2010PropOp32
 70
     1
102
RTVSPost2010Prop33
280
     0
102
RTVSPost2010PropOp33
 70
     1
102
RTVSPost2010Prop34
280
     0
102
RTVSPost2010PropOp34
 70
     1
102
RTVSPost2010Prop35
280
     0
102
RTVSPost2010PropOp35
 70
     1
102
RTVSPost2010Prop36
280
     0
102
RTVSPost2010PropOp36
 70
     1
102
RTVSPost2010Prop37
 90
       50
102
RTVSPost2010PropOp37
 70
     1
102
RTVSPost2010Prop38
140
0.0
102
RTVSPost2010PropOp38
 70
     1
102
RTVSPost2010Prop39
140
1.0
102
RTVSPost2010PropOp39
 70
     1
102
RTVSPost2010Prop40
 90
        0
102
RTVSPost2010PropOp40
 70
     1
102
RTVSPost2010Prop41ColorIndex
 90
       18
102
RTVSPost2010Prop41ColorRGB
 90
        0
102
RTVSPost2010PropOp41
 70
     1
102
RTVSPost2010Prop42
 90
       50
102
RTVSPost2010PropOp42
 70
     1
102
RTVSPost2010Prop43
 90
        3
102
RTVSPost2010PropOp43
 70
     1
102
RTVSPost2010Prop44ColorIndex
 90
        5
102
RTVSPost2010Prop44ColorRGB
 90
      255
102
RTVSPost2010PropOp44
 70
     1
102
RTVSPost2010Prop45
280
     0
102
RTVSPost2010PropOp45
 70
     1
102
RTVSPost2010Prop46
 90
       50
102
RTVSPost2010PropOp46
 70
     1
102
RTVSPost2010Prop47
 90
       50
102
RTVSPost2010PropOp47
 70
     1
102
RTVSPost2010Prop48
 90
       50
102
RTVSPost2010PropOp48
 70
     1
102
RTVSPost2010Prop49
280
     0
102
RTVSPost2010PropOp49
 70
     1
102
RTVSPost2010Prop50
 90
       50
102
RTVSPost2010PropOp50
 70
     1
102
RTVSPost2010Prop51ColorIndex
 90
      256
102
RTVSPost2010Prop51ColorRGB
 90
-16777216
102
RTVSPost2010PropOp51
 70
     0
102
RTVSPost2010Prop52
140
1.0
102
RTVSPost2010PropOp52
 70
     0
102
RTVSPost2010Prop53
 90
        2
102
RTVSPost2010PropOp53
 70
     1
102
RTVSPost2010Prop54
  1
strokes_ogs.tif
102
RTVSPost2010PropOp54
 70
     1
102
RTVSPost2010Prop55
280
     0
102
RTVSPost2010PropOp55
 70
     1
102
RTVSPost2010Prop56
140
1.0
102
RTVSPost2010PropOp56
 70
     1
102
RTVSPost2010Prop57
140
1.0
102
RTVSPost2010PropOp57
 70
     1
102
RTVSPropertyOp0
 70
     1
102
RTVSPropertyOp1
 70
     1
102
RTVSPropertyOp2
 70
     1
102
RTVSPropertyOp3
 70
     1
102
RTVSPropertyOp4
 70
     1
102
RTVSPropertyOp5
 70
     1
102
RTVSPropertyOp6
 70
     1
102
RTVSPropertyOp7
 70
     1
102
RTVSPropertyOp8
 70
     1
102
RTVSPropertyOp9
 70
     1
102
RTVSPropertyOp10
 70
     1
102
RTVSPropertyOp11
 70
     1
102
RTVSPropertyOp12
 70
     1
102
RTVSPropertyOp13
 70
     1
102
RTVSPropertyOp14
 70
     1
102
RTVSPropertyOp15
 70
     1
102
RTVSPropertyOp16
 70
     1
102
RTVSPropertyOp17
 70
     1
102
RTVSPropertyOp18
 70
     1
102
RTVSPropertyOp19
 70
     1
102
RTVSPropertyOp20
 70
     1
102
RTVSPropertyOp21
 70
     1
102
RTVSPropertyOp22
 70
     1
102
RTVSPropertyOp23
 70
     1
102
RTVSPropertyOp24
 70
     1
102
RTVSPropertyOp25
 70
     1
102
RTVSPropertyOp26
 70
     1
102
RTVSPropertyOp27
 70
     1
102
RTVSPropertyOp28
 70
     1
102
RTVSPropertyOp29
 70
     1
102
RTVSPropertyOp30
 70
     1
102
RTVSPropertyOp31
 70
     1
102
RTVSPropertyOp32
 70
     1
102
RTVSPropertyOp33
 70
     1
102
RTVSPropertyOp34
 70
     1
102
RTVSPropertyOp35
 70
     1
102
RTVSPropertyOp36
 70
     1
102
RTVSPropertyOp37
 70
     1
102
RTVSPropertyOp38
 70
     1
102
RTVSPropertyOp39
 70
     1
102
RTVSPropertyOp40
 70
     1
102
RTVSPropertyOp41
 70
     1
102
RTVSPropertyOp42
 70
     1
102
RTVSPropertyOp43
 70
     1
102
RTVSPropertyOp44
 70
     1
102
RTVSPropertyOp45
 70
     1
102
RTVSPropertyOp46
 70
     1
102
RTVSPropertyOp47
 70
     1
102
RTVSPropertyOp48
 70
     1
102
RTVSPropertyOp49
 70
     1
102
RTVSPropertyOp50
 70
     1
102
RTVSPropertyOp51
 70
     0
102
RTVSPropertyOp52
 70
     0
102
RTVSPropertyOp53
 70
     1
102
RTVSPropertyOp54
 70
     1
102
RTVSPropertyOp55
 70
     1
102
RTVSPropertyOp56
 70
     1
102
RTVSPropertyOp57
 70
     1
102
RTVSPropertyOp58
 70
     1
102
RTVSPropertyOp59
 70
     1
102
RTVSPropertyOp60
 70
     1
102
RTVSPropertyOp61
 70
     1
102
RTVSPropertyOp62
 70
     1
  0
XRECORD
  5
3BB
102
{ACAD_REACTORS
330
3BA
102
}
330
3BA
100
AcDbXrecord
280
     1
102
RTVSPost2010Prop28
280
     0
102
RTVSPost2010PropOp28
 70
     0
102
RTVSPost2010Prop29
280
     1
102
RTVSPost2010PropOp29
 70
     0
102
RTVSPost2010Prop30
280
     1
102
RTVSPost2010PropOp30
 70
     0
102
RTVSPost2010Prop31
280
     0
102
RTVSPost2010PropOp31
 70
     0
102
RTVSPost2010Prop32
280
     0
102
RTVSPost2010PropOp32
 70
     0
102
RTVSPost2010Prop33
280
     0
102
RTVSPost2010PropOp33
 70
     0
102
RTVSPost2010Prop34
280
     0
102
RTVSPost2010PropOp34
 70
     0
102
RTVSPost2010Prop35
280
     0
102
RTVSPost2010PropOp35
 70
     0
102
RTVSPost2010Prop36
280
     0
102
RTVSPost2010PropOp36
 70
     0
102
RTVSPost2010Prop37
 90
       50
102
RTVSPost2010PropOp37
 70
     0
102
RTVSPost2010Prop38
140
0.0
102
RTVSPost2010PropOp38
 70
     0
102
RTVSPost2010Prop39
140
1.0
102
RTVSPost2010PropOp39
 70
     0
102
RTVSPost2010Prop40
 90
        0
102
RTVSPost2010PropOp40
 70
     0
102
RTVSPost2010Prop41ColorIndex
 90
       18
102
RTVSPost2010Prop41ColorRGB
 90
        0
102
RTVSPost2010PropOp41
 70
     0
102
RTVSPost2010Prop42
 90
       50
102
RTVSPost2010PropOp42
 70
     0
102
RTVSPost2010Prop43
 90
        3
102
RTVSPost2010PropOp43
 70
     0
102
RTVSPost2010Prop44ColorIndex
 90
        5
102
RTVSPost2010Prop44ColorRGB
 90
      255
102
RTVSPost2010PropOp44
 70
     0
102
RTVSPost2010Prop45
280
     0
102
RTVSPost2010PropOp45
 70
     0
102
RTVSPost2010Prop46
 90
       50
102
RTVSPost2010PropOp46
 70
     0
102
RTVSPost2010Prop47
 90
       50
102
RTVSPost2010PropOp47
 70
     0
102
RTVSPost2010Prop48
 90
       50
102
RTVSPost2010PropOp48
 70
     0
102
RTVSPost2010Prop49
280
     0
102
RTVSPost2010PropOp49
 70
     0
102
RTVSPost2010Prop50
 90
       50
102
RTVSPost2010PropOp50
 70
     0
102
RTVSPost2010Prop51ColorIndex
 90
      256
102
RTVSPost2010Prop51ColorRGB
 90
-16777216
102
RTVSPost2010PropOp51
 70
     0
102
RTVSPost2010Prop52
140
1.0
102
RTVSPost2010PropOp52
 70
     0
102
RTVSPost2010Prop53
 90
        2
102
RTVSPost2010PropOp53
 70
     0
102
RTVSPost2010Prop54
  1
strokes_ogs.tif
102
RTVSPost2010PropOp54
 70
     0
102
RTVSPost2010Prop55
280
     0
102
RTVSPost2010PropOp55
 70
     0
102
RTVSPost2010Prop56
140
1.0
102
RTVSPost2010PropOp56
 70
     0
102
RTVSPost2010Prop57
140
1.0
102
RTVSPost2010PropOp57
 70
     0
102
RTVSPropertyOp0
 70
     0
102
RTVSPropertyOp1
 70
     0
102
RTVSPropertyOp2
 70
     0
102
RTVSPropertyOp3
 70
     0
102
RTVSPropertyOp4
 70
     0
102
RTVSPropertyOp5
 70
     0
102
RTVSPropertyOp6
 70
     0
102
RTVSPropertyOp7
 70
     0
102
RTVSPropertyOp8
 70
     0
102
RTVSPropertyOp9
 70
     0
102
RTVSPropertyOp10
 70
     0
102
RTVSPropertyOp11
 70
     0
102
RTVSPropertyOp12
 70
     0
102
RTVSPropertyOp13
 70
     0
102
RTVSPropertyOp14
 70
     2
102
RTVSPropertyOp15
 70
     0
102
RTVSPropertyOp16
 70
     0
102
RTVSPropertyOp17
 70
     0
102
RTVSPropertyOp18
 70
     0
102
RTVSPropertyOp19
 70
     0
102
RTVSPropertyOp20
 70
     0
102
RTVSPropertyOp21
 70
     0
102
RTVSPropertyOp22
 70
     0
102
RTVSPropertyOp23
 70
     0
102
RTVSPropertyOp24
 70
     0
102
RTVSPropertyOp25
 70
     0
102
RTVSPropertyOp26
 70
     0
102
RTVSPropertyOp27
 70
     0
102
RTVSPropertyOp28
 70
     0
102
RTVSPropertyOp29
 70
     0
102
RTVSPropertyOp30
 70
     0
102
RTVSPropertyOp31
 70
     0
102
RTVSPropertyOp32
 70
     0
102
RTVSPropertyOp33
 70
     0
102
RTVSPropertyOp34
 70
     0
102
RTVSPropertyOp35
 70
     0
102
RTVSPropertyOp36
 70
     0
102
RTVSPropertyOp37
 70
     0
102
RTVSPropertyOp38
 70
     0
102
RTVSPropertyOp39
 70
     0
102
RTVSPropertyOp40
 70
     0
102
RTVSPropertyOp41
 70
     0
102
RTVSPropertyOp42
 70
     0
102
RTVSPropertyOp43
 70
     0
102
RTVSPropertyOp44
 70
     0
102
RTVSPropertyOp45
 70
     0
102
RTVSPropertyOp46
 70
     0
102
RTVSPropertyOp47
 70
     0
102
RTVSPropertyOp48
 70
     0
102
RTVSPropertyOp49
 70
     0
102
RTVSPropertyOp50
 70
     0
102
RTVSPropertyOp51
 70
     0
102
RTVSPropertyOp52
 70
     0
102
RTVSPropertyOp53
 70
     0
102
RTVSPropertyOp54
 70
     0
102
RTVSPropertyOp55
 70
     0
102
RTVSPropertyOp56
 70
     0
102
RTVSPropertyOp57
 70
     0
102
RTVSPropertyOp58
 70
     1
102
RTVSPropertyOp59
 70
     1
102
RTVSPropertyOp60
 70
     1
102
RTVSPropertyOp61
 70
     1
102
RTVSPropertyOp62
 70
     1
  0
XRECORD
  5
3A9
102
{ACAD_REACTORS
330
3A8
102
}
330
3A8
100
AcDbXrecord
280
     1
102
RTVSPost2010Prop28
280
     0
102
RTVSPost2010PropOp28
 70
     1
102
RTVSPost2010Prop29
280
     1
102
RTVSPost2010PropOp29
 70
     1
102
RTVSPost2010Prop30
280
     1
102
RTVSPost2010PropOp30
 70
     1
102
RTVSPost2010Prop31
280
     0
102
RTVSPost2010PropOp31
 70
     1
102
RTVSPost2010Prop32
280
     0
102
RTVSPost2010PropOp32
 70
     1
102
RTVSPost2010Prop33
280
     0
102
RTVSPost2010PropOp33
 70
     1
102
RTVSPost2010Prop34
280
     0
102
RTVSPost2010PropOp34
 70
     1
102
RTVSPost2010Prop35
280
     0
102
RTVSPost2010PropOp35
 70
     1
102
RTVSPost2010Prop36
280
     0
102
RTVSPost2010PropOp36
 70
     1
102
RTVSPost2010Prop37
 90
       50
102
RTVSPost2010PropOp37
 70
     1
102
RTVSPost2010Prop38
140
0.0
102
RTVSPost2010PropOp38
 70
     1
102
RTVSPost2010Prop39
140
1.0
102
RTVSPost2010PropOp39
 70
     1
102
RTVSPost2010Prop40
 90
        0
102
RTVSPost2010PropOp40
 70
     1
102
RTVSPost2010Prop41ColorIndex
 90
       18
102
RTVSPost2010Prop41ColorRGB
 90
        0
102
RTVSPost2010PropOp41
 70
     1
102
RTVSPost2010Prop42
 90
       50
102
RTVSPost2010PropOp42
 70
     1
102
RTVSPost2010Prop43
 90
        3
102
RTVSPost2010PropOp43
 70
     1
102
RTVSPost2010Prop44ColorIndex
 90
        5
102
RTVSPost2010Prop44ColorRGB
 90
      255
102
RTVSPost2010PropOp44
 70
     1
102
RTVSPost2010Prop45
280
     0
102
RTVSPost2010PropOp45
 70
     1
102
RTVSPost2010Prop46
 90
       50
102
RTVSPost2010PropOp46
 70
     1
102
RTVSPost2010Prop47
 90
       50
102
RTVSPost2010PropOp47
 70
     1
102
RTVSPost2010Prop48
 90
       50
102
RTVSPost2010PropOp48
 70
     1
102
RTVSPost2010Prop49
280
     0
102
RTVSPost2010PropOp49
 70
     1
102
RTVSPost2010Prop50
 90
       50
102
RTVSPost2010PropOp50
 70
     1
102
RTVSPost2010Prop51ColorIndex
 90
      256
102
RTVSPost2010Prop51ColorRGB
 90
-16777216
102
RTVSPost2010PropOp51
 70
     0
102
RTVSPost2010Prop52
140
1.0
102
RTVSPost2010PropOp52
 70
     0
102
RTVSPost2010Prop53
 90
        2
102
RTVSPost2010PropOp53
 70
     1
102
RTVSPost2010Prop54
  1
strokes_ogs.tif
102
RTVSPost2010PropOp54
 70
     1
102
RTVSPost2010Prop55
280
     0
102
RTVSPost2010PropOp55
 70
     1
102
RTVSPost2010Prop56
140
1.0
102
RTVSPost2010PropOp56
 70
     1
102
RTVSPost2010Prop57
140
1.0
102
RTVSPost2010PropOp57
 70
     1
102
RTVSPropertyOp0
 70
     1
102
RTVSPropertyOp1
 70
     1
102
RTVSPropertyOp2
 70
     1
102
RTVSPropertyOp3
 70
     1
102
RTVSPropertyOp4
 70
     1
102
RTVSPropertyOp5
 70
     1
102
RTVSPropertyOp6
 70
     1
102
RTVSPropertyOp7
 70
     1
102
RTVSPropertyOp8
 70
     1
102
RTVSPropertyOp9
 70
     1
102
RTVSPropertyOp10
 70
     1
102
RTVSPropertyOp11
 70
     1
102
RTVSPropertyOp12
 70
     1
102
RTVSPropertyOp13
 70
     1
102
RTVSPropertyOp14
 70
     1
102
RTVSPropertyOp15
 70
     1
102
RTVSPropertyOp16
 70
     1
102
RTVSPropertyOp17
 70
     1
102
RTVSPropertyOp18
 70
     1
102
RTVSPropertyOp19
 70
     1
102
RTVSPropertyOp20
 70
     1
102
RTVSPropertyOp21
 70
     1
102
RTVSPropertyOp22
 70
     1
102
RTVSPropertyOp23
 70
     1
102
RTVSPropertyOp24
 70
     1
102
RTVSPropertyOp25
 70
     1
102
RTVSPropertyOp26
 70
     1
102
RTVSPropertyOp27
 70
     1
102
RTVSPropertyOp28
 70
     1
102
RTVSPropertyOp29
 70
     1
102
RTVSPropertyOp30
 70
     1
102
RTVSPropertyOp31
 70
     1
102
RTVSPropertyOp32
 70
     1
102
RTVSPropertyOp33
 70
     1
102
RTVSPropertyOp34
 70
     1
102
RTVSPropertyOp35
 70
     1
102
RTVSPropertyOp36
 70
     1
102
RTVSPropertyOp37
 70
     1
102
RTVSPropertyOp38
 70
     1
102
RTVSPropertyOp39
 70
     1
102
RTVSPropertyOp40
 70
     1
102
RTVSPropertyOp41
 70
     1
102
RTVSPropertyOp42
 70
     1
102
RTVSPropertyOp43
 70
     1
102
RTVSPropertyOp44
 70
     1
102
RTVSPropertyOp45
 70
     1
102
RTVSPropertyOp46
 70
     1
102
RTVSPropertyOp47
 70
     1
102
RTVSPropertyOp48
 70
     1
102
RTVSPropertyOp49
 70
     1
102
RTVSPropertyOp50
 70
     1
102
RTVSPropertyOp51
 70
     0
102
RTVSPropertyOp52
 70
     0
102
RTVSPropertyOp53
 70
     1
102
RTVSPropertyOp54
 70
     1
102
RTVSPropertyOp55
 70
     1
102
RTVSPropertyOp56
 70
     1
102
RTVSPropertyOp57
 70
     1
102
RTVSPropertyOp58
 70
     1
102
RTVSPropertyOp59
 70
     1
102
RTVSPropertyOp60
 70
     1
102
RTVSPropertyOp61
 70
     1
102
RTVSPropertyOp62
 70
     1
  0
XRECORD
  5
3C7
102
{ACAD_REACTORS
330
3C6
102
}
330
3C6
100
AcDbXrecord
280
     1
102
RTVSPost2010Prop28
280
     0
102
RTVSPost2010PropOp28
 70
     1
102
RTVSPost2010Prop29
280
     1
102
RTVSPost2010PropOp29
 70
     1
102
RTVSPost2010Prop30
280
     1
102
RTVSPost2010PropOp30
 70
     1
102
RTVSPost2010Prop31
280
     0
102
RTVSPost2010PropOp31
 70
     1
102
RTVSPost2010Prop32
280
     0
102
RTVSPost2010PropOp32
 70
     1
102
RTVSPost2010Prop33
280
     0
102
RTVSPost2010PropOp33
 70
     1
102
RTVSPost2010Prop34
280
     0
102
RTVSPost2010PropOp34
 70
     1
102
RTVSPost2010Prop35
280
     0
102
RTVSPost2010PropOp35
 70
     1
102
RTVSPost2010Prop36
280
     0
102
RTVSPost2010PropOp36
 70
     1
102
RTVSPost2010Prop37
 90
       50
102
RTVSPost2010PropOp37
 70
     1
102
RTVSPost2010Prop38
140
0.0
102
RTVSPost2010PropOp38
 70
     1
102
RTVSPost2010Prop39
140
1.0
102
RTVSPost2010PropOp39
 70
     1
102
RTVSPost2010Prop40
 90
        0
102
RTVSPost2010PropOp40
 70
     1
102
RTVSPost2010Prop41ColorIndex
 90
       18
102
RTVSPost2010Prop41ColorRGB
 90
        0
102
RTVSPost2010PropOp41
 70
     1
102
RTVSPost2010Prop42
 90
       50
102
RTVSPost2010PropOp42
 70
     1
102
RTVSPost2010Prop43
 90
        3
102
RTVSPost2010PropOp43
 70
     1
102
RTVSPost2010Prop44ColorIndex
 90
        5
102
RTVSPost2010Prop44ColorRGB
 90
      255
102
RTVSPost2010PropOp44
 70
     1
102
RTVSPost2010Prop45
280
     0
102
RTVSPost2010PropOp45
 70
     1
102
RTVSPost2010Prop46
 90
       50
102
RTVSPost2010PropOp46
 70
     1
102
RTVSPost2010Prop47
 90
       50
102
RTVSPost2010PropOp47
 70
     1
102
RTVSPost2010Prop48
 90
       50
102
RTVSPost2010PropOp48
 70
     1
102
RTVSPost2010Prop49
280
     0
102
RTVSPost2010PropOp49
 70
     1
102
RTVSPost2010Prop50
 90
       50
102
RTVSPost2010PropOp50
 70
     1
102
RTVSPost2010Prop51ColorIndex
 90
      256
102
RTVSPost2010Prop51ColorRGB
 90
-16777216
102
RTVSPost2010PropOp51
 70
     0
102
RTVSPost2010Prop52
140
1.0
102
RTVSPost2010PropOp52
 70
     0
102
RTVSPost2010Prop53
 90
        2
102
RTVSPost2010PropOp53
 70
     1
102
RTVSPost2010Prop54
  1
strokes_ogs.tif
102
RTVSPost2010PropOp54
 70
     1
102
RTVSPost2010Prop55
280
     0
102
RTVSPost2010PropOp55
 70
     1
102
RTVSPost2010Prop56
140
1.0
102
RTVSPost2010PropOp56
 70
     1
102
RTVSPost2010Prop57
140
1.0
102
RTVSPost2010PropOp57
 70
     1
102
RTVSPropertyOp0
 70
     1
102
RTVSPropertyOp1
 70
     1
102
RTVSPropertyOp2
 70
     1
102
RTVSPropertyOp3
 70
     1
102
RTVSPropertyOp4
 70
     1
102
RTVSPropertyOp5
 70
     1
102
RTVSPropertyOp6
 70
     1
102
RTVSPropertyOp7
 70
     1
102
RTVSPropertyOp8
 70
     1
102
RTVSPropertyOp9
 70
     1
102
RTVSPropertyOp10
 70
     1
102
RTVSPropertyOp11
 70
     1
102
RTVSPropertyOp12
 70
     1
102
RTVSPropertyOp13
 70
     1
102
RTVSPropertyOp14
 70
     1
102
RTVSPropertyOp15
 70
     1
102
RTVSPropertyOp16
 70
     1
102
RTVSPropertyOp17
 70
     1
102
RTVSPropertyOp18
 70
     1
102
RTVSPropertyOp19
 70
     1
102
RTVSPropertyOp20
 70
     1
102
RTVSPropertyOp21
 70
     1
102
RTVSPropertyOp22
 70
     1
102
RTVSPropertyOp23
 70
     1
102
RTVSPropertyOp24
 70
     1
102
RTVSPropertyOp25
 70
     1
102
RTVSPropertyOp26
 70
     1
102
RTVSPropertyOp27
 70
     1
102
RTVSPropertyOp28
 70
     1
102
RTVSPropertyOp29
 70
     1
102
RTVSPropertyOp30
 70
     1
102
RTVSPropertyOp31
 70
     1
102
RTVSPropertyOp32
 70
     1
102
RTVSPropertyOp33
 70
     1
102
RTVSPropertyOp34
 70
     1
102
RTVSPropertyOp35
 70
     1
102
RTVSPropertyOp36
 70
     1
102
RTVSPropertyOp37
 70
     1
102
RTVSPropertyOp38
 70
     1
102
RTVSPropertyOp39
 70
     1
102
RTVSPropertyOp40
 70
     1
102
RTVSPropertyOp41
 70
     1
102
RTVSPropertyOp42
 70
     1
102
RTVSPropertyOp43
 70
     1
102
RTVSPropertyOp44
 70
     1
102
RTVSPropertyOp45
 70
     1
102
RTVSPropertyOp46
 70
     1
102
RTVSPropertyOp47
 70
     1
102
RTVSPropertyOp48
 70
     1
102
RTVSPropertyOp49
 70
     1
102
RTVSPropertyOp50
 70
     1
102
RTVSPropertyOp51
 70
     0
102
RTVSPropertyOp52
 70
     0
102
RTVSPropertyOp53
 70
     1
102
RTVSPropertyOp54
 70
     1
102
RTVSPropertyOp55
 70
     1
102
RTVSPropertyOp56
 70
     1
102
RTVSPropertyOp57
 70
     1
102
RTVSPropertyOp58
 70
     1
102
RTVSPropertyOp59
 70
     1
102
RTVSPropertyOp60
 70
     1
102
RTVSPropertyOp61
 70
     1
102
RTVSPropertyOp62
 70
     1
  0
XRECORD
  5
3C5
102
{ACAD_REACTORS
330
3C4
102
}
330
3C4
100
AcDbXrecord
280
     1
102
RTVSPost2010Prop28
280
     0
102
RTVSPost2010PropOp28
 70
     1
102
RTVSPost2010Prop29
280
     1
102
RTVSPost2010PropOp29
 70
     1
102
RTVSPost2010Prop30
280
     1
102
RTVSPost2010PropOp30
 70
     1
102
RTVSPost2010Prop31
280
     0
102
RTVSPost2010PropOp31
 70
     1
102
RTVSPost2010Prop32
280
     0
102
RTVSPost2010PropOp32
 70
     1
102
RTVSPost2010Prop33
280
     0
102
RTVSPost2010PropOp33
 70
     1
102
RTVSPost2010Prop34
280
     0
102
RTVSPost2010PropOp34
 70
     1
102
RTVSPost2010Prop35
280
     0
102
RTVSPost2010PropOp35
 70
     1
102
RTVSPost2010Prop36
280
     0
102
RTVSPost2010PropOp36
 70
     1
102
RTVSPost2010Prop37
 90
       50
102
RTVSPost2010PropOp37
 70
     1
102
RTVSPost2010Prop38
140
0.0
102
RTVSPost2010PropOp38
 70
     1
102
RTVSPost2010Prop39
140
1.0
102
RTVSPost2010PropOp39
 70
     1
102
RTVSPost2010Prop40
 90
        0
102
RTVSPost2010PropOp40
 70
     1
102
RTVSPost2010Prop41ColorIndex
 90
       18
102
RTVSPost2010Prop41ColorRGB
 90
        0
102
RTVSPost2010PropOp41
 70
     1
102
RTVSPost2010Prop42
 90
       50
102
RTVSPost2010PropOp42
 70
     1
102
RTVSPost2010Prop43
 90
        3
102
RTVSPost2010PropOp43
 70
     1
102
RTVSPost2010Prop44ColorIndex
 90
        5
102
RTVSPost2010Prop44ColorRGB
 90
      255
102
RTVSPost2010PropOp44
 70
     1
102
RTVSPost2010Prop45
280
     0
102
RTVSPost2010PropOp45
 70
     1
102
RTVSPost2010Prop46
 90
       50
102
RTVSPost2010PropOp46
 70
     1
102
RTVSPost2010Prop47
 90
       50
102
RTVSPost2010PropOp47
 70
     1
102
RTVSPost2010Prop48
 90
       50
102
RTVSPost2010PropOp48
 70
     1
102
RTVSPost2010Prop49
280
     0
102
RTVSPost2010PropOp49
 70
     1
102
RTVSPost2010Prop50
 90
       50
102
RTVSPost2010PropOp50
 70
     1
102
RTVSPost2010Prop51ColorIndex
 90
      256
102
RTVSPost2010Prop51ColorRGB
 90
-16777216
102
RTVSPost2010PropOp51
 70
     0
102
RTVSPost2010Prop52
140
1.0
102
RTVSPost2010PropOp52
 70
     0
102
RTVSPost2010Prop53
 90
        2
102
RTVSPost2010PropOp53
 70
     1
102
RTVSPost2010Prop54
  1
strokes_ogs.tif
102
RTVSPost2010PropOp54
 70
     1
102
RTVSPost2010Prop55
280
     0
102
RTVSPost2010PropOp55
 70
     1
102
RTVSPost2010Prop56
140
1.0
102
RTVSPost2010PropOp56
 70
     1
102
RTVSPost2010Prop57
140
1.0
102
RTVSPost2010PropOp57
 70
     1
102
RTVSPropertyOp0
 70
     1
102
RTVSPropertyOp1
 70
     1
102
RTVSPropertyOp2
 70
     1
102
RTVSPropertyOp3
 70
     1
102
RTVSPropertyOp4
 70
     1
102
RTVSPropertyOp5
 70
     1
102
RTVSPropertyOp6
 70
     1
102
RTVSPropertyOp7
 70
     1
102
RTVSPropertyOp8
 70
     1
102
RTVSPropertyOp9
 70
     1
102
RTVSPropertyOp10
 70
     1
102
RTVSPropertyOp11
 70
     1
102
RTVSPropertyOp12
 70
     1
102
RTVSPropertyOp13
 70
     1
102
RTVSPropertyOp14
 70
     1
102
RTVSPropertyOp15
 70
     1
102
RTVSPropertyOp16
 70
     1
102
RTVSPropertyOp17
 70
     1
102
RTVSPropertyOp18
 70
     1
102
RTVSPropertyOp19
 70
     1
102
RTVSPropertyOp20
 70
     1
102
RTVSPropertyOp21
 70
     1
102
RTVSPropertyOp22
 70
     1
102
RTVSPropertyOp23
 70
     1
102
RTVSPropertyOp24
 70
     1
102
RTVSPropertyOp25
 70
     1
102
RTVSPropertyOp26
 70
     1
102
RTVSPropertyOp27
 70
     1
102
RTVSPropertyOp28
 70
     1
102
RTVSPropertyOp29
 70
     1
102
RTVSPropertyOp30
 70
     1
102
RTVSPropertyOp31
 70
     1
102
RTVSPropertyOp32
 70
     1
102
RTVSPropertyOp33
 70
     1
102
RTVSPropertyOp34
 70
     1
102
RTVSPropertyOp35
 70
     1
102
RTVSPropertyOp36
 70
     1
102
RTVSPropertyOp37
 70
     1
102
RTVSPropertyOp38
 70
     1
102
RTVSPropertyOp39
 70
     1
102
RTVSPropertyOp40
 70
     1
102
RTVSPropertyOp41
 70
     1
102
RTVSPropertyOp42
 70
     1
102
RTVSPropertyOp43
 70
     1
102
RTVSPropertyOp44
 70
     1
102
RTVSPropertyOp45
 70
     1
102
RTVSPropertyOp46
 70
     1
102
RTVSPropertyOp47
 70
     1
102
RTVSPropertyOp48
 70
     1
102
RTVSPropertyOp49
 70
     1
102
RTVSPropertyOp50
 70
     1
102
RTVSPropertyOp51
 70
     0
102
RTVSPropertyOp52
 70
     0
102
RTVSPropertyOp53
 70
     1
102
RTVSPropertyOp54
 70
     1
102
RTVSPropertyOp55
 70
     1
102
RTVSPropertyOp56
 70
     1
102
RTVSPropertyOp57
 70
     1
102
RTVSPropertyOp58
 70
     1
102
RTVSPropertyOp59
 70
     1
102
RTVSPropertyOp60
 70
     1
102
RTVSPropertyOp61
 70
     1
102
RTVSPropertyOp62
 70
     1
  0
XRECORD
  5
3BF
102
{ACAD_REACTORS
330
3BE
102
}
330
3BE
100
AcDbXrecord
280
     1
102
RTVSPost2010Prop28
280
     0
102
RTVSPost2010PropOp28
 70
     1
102
RTVSPost2010Prop29
280
     1
102
RTVSPost2010PropOp29
 70
     1
102
RTVSPost2010Prop30
280
     1
102
RTVSPost2010PropOp30
 70
     1
102
RTVSPost2010Prop31
280
     0
102
RTVSPost2010PropOp31
 70
     1
102
RTVSPost2010Prop32
280
     0
102
RTVSPost2010PropOp32
 70
     1
102
RTVSPost2010Prop33
280
     0
102
RTVSPost2010PropOp33
 70
     1
102
RTVSPost2010Prop34
280
     0
102
RTVSPost2010PropOp34
 70
     1
102
RTVSPost2010Prop35
280
     0
102
RTVSPost2010PropOp35
 70
     1
102
RTVSPost2010Prop36
280
     0
102
RTVSPost2010PropOp36
 70
     1
102
RTVSPost2010Prop37
 90
       50
102
RTVSPost2010PropOp37
 70
     1
102
RTVSPost2010Prop38
140
0.0
102
RTVSPost2010PropOp38
 70
     1
102
RTVSPost2010Prop39
140
1.0
102
RTVSPost2010PropOp39
 70
     1
102
RTVSPost2010Prop40
 90
        0
102
RTVSPost2010PropOp40
 70
     1
102
RTVSPost2010Prop41ColorIndex
 90
       18
102
RTVSPost2010Prop41ColorRGB
 90
        0
102
RTVSPost2010PropOp41
 70
     1
102
RTVSPost2010Prop42
 90
       50
102
RTVSPost2010PropOp42
 70
     1
102
RTVSPost2010Prop43
 90
        3
102
RTVSPost2010PropOp43
 70
     1
102
RTVSPost2010Prop44ColorIndex
 90
        5
102
RTVSPost2010Prop44ColorRGB
 90
      255
102
RTVSPost2010PropOp44
 70
     1
102
RTVSPost2010Prop45
280
     0
102
RTVSPost2010PropOp45
 70
     1
102
RTVSPost2010Prop46
 90
       50
102
RTVSPost2010PropOp46
 70
     1
102
RTVSPost2010Prop47
 90
       50
102
RTVSPost2010PropOp47
 70
     1
102
RTVSPost2010Prop48
 90
       50
102
RTVSPost2010PropOp48
 70
     1
102
RTVSPost2010Prop49
280
     0
102
RTVSPost2010PropOp49
 70
     1
102
RTVSPost2010Prop50
 90
       50
102
RTVSPost2010PropOp50
 70
     1
102
RTVSPost2010Prop51ColorIndex
 90
      256
102
RTVSPost2010Prop51ColorRGB
 90
-16777216
102
RTVSPost2010PropOp51
 70
     0
102
RTVSPost2010Prop52
140
1.0
102
RTVSPost2010PropOp52
 70
     0
102
RTVSPost2010Prop53
 90
        2
102
RTVSPost2010PropOp53
 70
     1
102
RTVSPost2010Prop54
  1
strokes_ogs.tif
102
RTVSPost2010PropOp54
 70
     1
102
RTVSPost2010Prop55
280
     0
102
RTVSPost2010PropOp55
 70
     1
102
RTVSPost2010Prop56
140
1.0
102
RTVSPost2010PropOp56
 70
     1
102
RTVSPost2010Prop57
140
1.0
102
RTVSPost2010PropOp57
 70
     1
102
RTVSPropertyOp0
 70
     1
102
RTVSPropertyOp1
 70
     1
102
RTVSPropertyOp2
 70
     1
102
RTVSPropertyOp3
 70
     1
102
RTVSPropertyOp4
 70
     1
102
RTVSPropertyOp5
 70
     1
102
RTVSPropertyOp6
 70
     1
102
RTVSPropertyOp7
 70
     1
102
RTVSPropertyOp8
 70
     1
102
RTVSPropertyOp9
 70
     1
102
RTVSPropertyOp10
 70
     1
102
RTVSPropertyOp11
 70
     1
102
RTVSPropertyOp12
 70
     1
102
RTVSPropertyOp13
 70
     1
102
RTVSPropertyOp14
 70
     1
102
RTVSPropertyOp15
 70
     1
102
RTVSPropertyOp16
 70
     1
102
RTVSPropertyOp17
 70
     1
102
RTVSPropertyOp18
 70
     1
102
RTVSPropertyOp19
 70
     1
102
RTVSPropertyOp20
 70
     1
102
RTVSPropertyOp21
 70
     1
102
RTVSPropertyOp22
 70
     1
102
RTVSPropertyOp23
 70
     1
102
RTVSPropertyOp24
 70
     1
102
RTVSPropertyOp25
 70
     1
102
RTVSPropertyOp26
 70
     1
102
RTVSPropertyOp27
 70
     1
102
RTVSPropertyOp28
 70
     1
102
RTVSPropertyOp29
 70
     1
102
RTVSPropertyOp30
 70
     1
102
RTVSPropertyOp31
 70
     1
102
RTVSPropertyOp32
 70
     1
102
RTVSPropertyOp33
 70
     1
102
RTVSPropertyOp34
 70
     1
102
RTVSPropertyOp35
 70
     1
102
RTVSPropertyOp36
 70
     1
102
RTVSPropertyOp37
 70
     1
102
RTVSPropertyOp38
 70
     1
102
RTVSPropertyOp39
 70
     1
102
RTVSPropertyOp40
 70
     1
102
RTVSPropertyOp41
 70
     1
102
RTVSPropertyOp42
 70
     1
102
RTVSPropertyOp43
 70
     1
102
RTVSPropertyOp44
 70
     1
102
RTVSPropertyOp45
 70
     1
102
RTVSPropertyOp46
 70
     1
102
RTVSPropertyOp47
 70
     1
102
RTVSPropertyOp48
 70
     1
102
RTVSPropertyOp49
 70
     1
102
RTVSPropertyOp50
 70
     1
102
RTVSPropertyOp51
 70
     0
102
RTVSPropertyOp52
 70
     0
102
RTVSPropertyOp53
 70
     1
102
RTVSPropertyOp54
 70
     1
102
RTVSPropertyOp55
 70
     1
102
RTVSPropertyOp56
 70
     1
102
RTVSPropertyOp57
 70
     1
102
RTVSPropertyOp58
 70
     1
102
RTVSPropertyOp59
 70
     1
102
RTVSPropertyOp60
 70
     1
102
RTVSPropertyOp61
 70
     1
102
RTVSPropertyOp62
 70
     1
  0
XRECORD
  5
3C1
102
{ACAD_REACTORS
330
3C0
102
}
330
3C0
100
AcDbXrecord
280
     1
102
RTVSPost2010Prop28
280
     0
102
RTVSPost2010PropOp28
 70
     1
102
RTVSPost2010Prop29
280
     1
102
RTVSPost2010PropOp29
 70
     1
102
RTVSPost2010Prop30
280
     1
102
RTVSPost2010PropOp30
 70
     1
102
RTVSPost2010Prop31
280
     0
102
RTVSPost2010PropOp31
 70
     1
102
RTVSPost2010Prop32
280
     0
102
RTVSPost2010PropOp32
 70
     1
102
RTVSPost2010Prop33
280
     0
102
RTVSPost2010PropOp33
 70
     1
102
RTVSPost2010Prop34
280
     0
102
RTVSPost2010PropOp34
 70
     1
102
RTVSPost2010Prop35
280
     0
102
RTVSPost2010PropOp35
 70
     1
102
RTVSPost2010Prop36
280
     0
102
RTVSPost2010PropOp36
 70
     1
102
RTVSPost2010Prop37
 90
       50
102
RTVSPost2010PropOp37
 70
     1
102
RTVSPost2010Prop38
140
0.0
102
RTVSPost2010PropOp38
 70
     1
102
RTVSPost2010Prop39
140
1.0
102
RTVSPost2010PropOp39
 70
     1
102
RTVSPost2010Prop40
 90
        0
102
RTVSPost2010PropOp40
 70
     1
102
RTVSPost2010Prop41ColorIndex
 90
       18
102
RTVSPost2010Prop41ColorRGB
 90
        0
102
RTVSPost2010PropOp41
 70
     1
102
RTVSPost2010Prop42
 90
       50
102
RTVSPost2010PropOp42
 70
     1
102
RTVSPost2010Prop43
 90
        3
102
RTVSPost2010PropOp43
 70
     1
102
RTVSPost2010Prop44ColorIndex
 90
        5
102
RTVSPost2010Prop44ColorRGB
 90
      255
102
RTVSPost2010PropOp44
 70
     1
102
RTVSPost2010Prop45
280
     0
102
RTVSPost2010PropOp45
 70
     1
102
RTVSPost2010Prop46
 90
       50
102
RTVSPost2010PropOp46
 70
     1
102
RTVSPost2010Prop47
 90
       50
102
RTVSPost2010PropOp47
 70
     1
102
RTVSPost2010Prop48
 90
       50
102
RTVSPost2010PropOp48
 70
     1
102
RTVSPost2010Prop49
280
     0
102
RTVSPost2010PropOp49
 70
     1
102
RTVSPost2010Prop50
 90
       50
102
RTVSPost2010PropOp50
 70
     1
102
RTVSPost2010Prop51ColorIndex
 90
      256
102
RTVSPost2010Prop51ColorRGB
 90
-16777216
102
RTVSPost2010PropOp51
 70
     0
102
RTVSPost2010Prop52
140
1.0
102
RTVSPost2010PropOp52
 70
     0
102
RTVSPost2010Prop53
 90
        2
102
RTVSPost2010PropOp53
 70
     1
102
RTVSPost2010Prop54
  1
strokes_ogs.tif
102
RTVSPost2010PropOp54
 70
     1
102
RTVSPost2010Prop55
280
     0
102
RTVSPost2010PropOp55
 70
     1
102
RTVSPost2010Prop56
140
1.0
102
RTVSPost2010PropOp56
 70
     1
102
RTVSPost2010Prop57
140
1.0
102
RTVSPost2010PropOp57
 70
     1
102
RTVSPropertyOp0
 70
     1
102
RTVSPropertyOp1
 70
     1
102
RTVSPropertyOp2
 70
     1
102
RTVSPropertyOp3
 70
     1
102
RTVSPropertyOp4
 70
     1
102
RTVSPropertyOp5
 70
     1
102
RTVSPropertyOp6
 70
     1
102
RTVSPropertyOp7
 70
     1
102
RTVSPropertyOp8
 70
     1
102
RTVSPropertyOp9
 70
     1
102
RTVSPropertyOp10
 70
     1
102
RTVSPropertyOp11
 70
     1
102
RTVSPropertyOp12
 70
     1
102
RTVSPropertyOp13
 70
     1
102
RTVSPropertyOp14
 70
     1
102
RTVSPropertyOp15
 70
     1
102
RTVSPropertyOp16
 70
     1
102
RTVSPropertyOp17
 70
     1
102
RTVSPropertyOp18
 70
     1
102
RTVSPropertyOp19
 70
     1
102
RTVSPropertyOp20
 70
     1
102
RTVSPropertyOp21
 70
     1
102
RTVSPropertyOp22
 70
     1
102
RTVSPropertyOp23
 70
     1
102
RTVSPropertyOp24
 70
     1
102
RTVSPropertyOp25
 70
     1
102
RTVSPropertyOp26
 70
     1
102
RTVSPropertyOp27
 70
     1
102
RTVSPropertyOp28
 70
     1
102
RTVSPropertyOp29
 70
     1
102
RTVSPropertyOp30
 70
     1
102
RTVSPropertyOp31
 70
     1
102
RTVSPropertyOp32
 70
     1
102
RTVSPropertyOp33
 70
     1
102
RTVSPropertyOp34
 70
     1
102
RTVSPropertyOp35
 70
     1
102
RTVSPropertyOp36
 70
     1
102
RTVSPropertyOp37
 70
     1
102
RTVSPropertyOp38
 70
     1
102
RTVSPropertyOp39
 70
     1
102
RTVSPropertyOp40
 70
     1
102
RTVSPropertyOp41
 70
     1
102
RTVSPropertyOp42
 70
     1
102
RTVSPropertyOp43
 70
     1
102
RTVSPropertyOp44
 70
     1
102
RTVSPropertyOp45
 70
     1
102
RTVSPropertyOp46
 70
     1
102
RTVSPropertyOp47
 70
     1
102
RTVSPropertyOp48
 70
     1
102
RTVSPropertyOp49
 70
     1
102
RTVSPropertyOp50
 70
     1
102
RTVSPropertyOp51
 70
     0
102
RTVSPropertyOp52
 70
     0
102
RTVSPropertyOp53
 70
     1
102
RTVSPropertyOp54
 70
     1
102
RTVSPropertyOp55
 70
     1
102
RTVSPropertyOp56
 70
     1
102
RTVSPropertyOp57
 70
     1
102
RTVSPropertyOp58
 70
     1
102
RTVSPropertyOp59
 70
     1
102
RTVSPropertyOp60
 70
     1
102
RTVSPropertyOp61
 70
     1
102
RTVSPropertyOp62
 70
     1
  0
XRECORD
  5
3B1
102
{ACAD_REACTORS
330
3B0
102
}
330
3B0
100
AcDbXrecord
280
     1
102
RTVSPost2010Prop28
280
     0
102
RTVSPost2010PropOp28
 70
     1
102
RTVSPost2010Prop29
280
     1
102
RTVSPost2010PropOp29
 70
     1
102
RTVSPost2010Prop30
280
     1
102
RTVSPost2010PropOp30
 70
     1
102
RTVSPost2010Prop31
280
     0
102
RTVSPost2010PropOp31
 70
     1
102
RTVSPost2010Prop32
280
     0
102
RTVSPost2010PropOp32
 70
     1
102
RTVSPost2010Prop33
280
     0
102
RTVSPost2010PropOp33
 70
     1
102
RTVSPost2010Prop34
280
     0
102
RTVSPost2010PropOp34
 70
     1
102
RTVSPost2010Prop35
280
     0
102
RTVSPost2010PropOp35
 70
     1
102
RTVSPost2010Prop36
280
     0
102
RTVSPost2010PropOp36
 70
     1
102
RTVSPost2010Prop37
 90
       50
102
RTVSPost2010PropOp37
 70
     1
102
RTVSPost2010Prop38
140
0.0
102
RTVSPost2010PropOp38
 70
     1
102
RTVSPost2010Prop39
140
1.0
102
RTVSPost2010PropOp39
 70
     1
102
RTVSPost2010Prop40
 90
        0
102
RTVSPost2010PropOp40
 70
     1
102
RTVSPost2010Prop41ColorIndex
 90
       18
102
RTVSPost2010Prop41ColorRGB
 90
        0
102
RTVSPost2010PropOp41
 70
     1
102
RTVSPost2010Prop42
 90
       50
102
RTVSPost2010PropOp42
 70
     1
102
RTVSPost2010Prop43
 90
        3
102
RTVSPost2010PropOp43
 70
     1
102
RTVSPost2010Prop44ColorIndex
 90
        5
102
RTVSPost2010Prop44ColorRGB
 90
      255
102
RTVSPost2010PropOp44
 70
     1
102
RTVSPost2010Prop45
280
     0
102
RTVSPost2010PropOp45
 70
     1
102
RTVSPost2010Prop46
 90
       50
102
RTVSPost2010PropOp46
 70
     1
102
RTVSPost2010Prop47
 90
       50
102
RTVSPost2010PropOp47
 70
     1
102
RTVSPost2010Prop48
 90
       50
102
RTVSPost2010PropOp48
 70
     1
102
RTVSPost2010Prop49
280
     0
102
RTVSPost2010PropOp49
 70
     1
102
RTVSPost2010Prop50
 90
       50
102
RTVSPost2010PropOp50
 70
     1
102
RTVSPost2010Prop51ColorIndex
 90
      256
102
RTVSPost2010Prop51ColorRGB
 90
-16777216
102
RTVSPost2010PropOp51
 70
     0
102
RTVSPost2010Prop52
140
1.0
102
RTVSPost2010PropOp52
 70
     0
102
RTVSPost2010Prop53
 90
        2
102
RTVSPost2010PropOp53
 70
     1
102
RTVSPost2010Prop54
  1
strokes_ogs.tif
102
RTVSPost2010PropOp54
 70
     1
102
RTVSPost2010Prop55
280
     0
102
RTVSPost2010PropOp55
 70
     1
102
RTVSPost2010Prop56
140
1.0
102
RTVSPost2010PropOp56
 70
     1
102
RTVSPost2010Prop57
140
1.0
102
RTVSPost2010PropOp57
 70
     1
102
RTVSPropertyOp0
 70
     1
102
RTVSPropertyOp1
 70
     1
102
RTVSPropertyOp2
 70
     1
102
RTVSPropertyOp3
 70
     1
102
RTVSPropertyOp4
 70
     1
102
RTVSPropertyOp5
 70
     1
102
RTVSPropertyOp6
 70
     1
102
RTVSPropertyOp7
 70
     1
102
RTVSPropertyOp8
 70
     1
102
RTVSPropertyOp9
 70
     1
102
RTVSPropertyOp10
 70
     1
102
RTVSPropertyOp11
 70
     1
102
RTVSPropertyOp12
 70
     1
102
RTVSPropertyOp13
 70
     1
102
RTVSPropertyOp14
 70
     1
102
RTVSPropertyOp15
 70
     1
102
RTVSPropertyOp16
 70
     1
102
RTVSPropertyOp17
 70
     1
102
RTVSPropertyOp18
 70
     1
102
RTVSPropertyOp19
 70
     1
102
RTVSPropertyOp20
 70
     1
102
RTVSPropertyOp21
 70
     1
102
RTVSPropertyOp22
 70
     1
102
RTVSPropertyOp23
 70
     1
102
RTVSPropertyOp24
 70
     1
102
RTVSPropertyOp25
 70
     1
102
RTVSPropertyOp26
 70
     1
102
RTVSPropertyOp27
 70
     1
102
RTVSPropertyOp28
 70
     1
102
RTVSPropertyOp29
 70
     1
102
RTVSPropertyOp30
 70
     1
102
RTVSPropertyOp31
 70
     1
102
RTVSPropertyOp32
 70
     1
102
RTVSPropertyOp33
 70
     1
102
RTVSPropertyOp34
 70
     1
102
RTVSPropertyOp35
 70
     1
102
RTVSPropertyOp36
 70
     1
102
RTVSPropertyOp37
 70
     1
102
RTVSPropertyOp38
 70
     1
102
RTVSPropertyOp39
 70
     1
102
RTVSPropertyOp40
 70
     1
102
RTVSPropertyOp41
 70
     1
102
RTVSPropertyOp42
 70
     1
102
RTVSPropertyOp43
 70
     1
102
RTVSPropertyOp44
 70
     1
102
RTVSPropertyOp45
 70
     1
102
RTVSPropertyOp46
 70
     1
102
RTVSPropertyOp47
 70
     1
102
RTVSPropertyOp48
 70
     1
102
RTVSPropertyOp49
 70
     1
102
RTVSPropertyOp50
 70
     1
102
RTVSPropertyOp51
 70
     0
102
RTVSPropertyOp52
 70
     0
102
RTVSPropertyOp53
 70
     1
102
RTVSPropertyOp54
 70
     1
102
RTVSPropertyOp55
 70
     1
102
RTVSPropertyOp56
 70
     1
102
RTVSPropertyOp57
 70
     1
102
RTVSPropertyOp58
 70
     1
102
RTVSPropertyOp59
 70
     1
102
RTVSPropertyOp60
 70
     1
102
RTVSPropertyOp61
 70
     1
102
RTVSPropertyOp62
 70
     1
  0
XRECORD
  5
3A3
102
{ACAD_REACTORS
330
3A2
102
}
330
3A2
100
AcDbXrecord
280
     1
102
RTVSPost2010Prop28
280
     0
102
RTVSPost2010PropOp28
 70
     1
102
RTVSPost2010Prop29
280
     1
102
RTVSPost2010PropOp29
 70
     1
102
RTVSPost2010Prop30
280
     1
102
RTVSPost2010PropOp30
 70
     1
102
RTVSPost2010Prop31
280
     0
102
RTVSPost2010PropOp31
 70
     1
102
RTVSPost2010Prop32
280
     0
102
RTVSPost2010PropOp32
 70
     1
102
RTVSPost2010Prop33
280
     0
102
RTVSPost2010PropOp33
 70
     1
102
RTVSPost2010Prop34
280
     0
102
RTVSPost2010PropOp34
 70
     1
102
RTVSPost2010Prop35
280
     0
102
RTVSPost2010PropOp35
 70
     1
102
RTVSPost2010Prop36
280
     0
102
RTVSPost2010PropOp36
 70
     1
102
RTVSPost2010Prop37
 90
       50
102
RTVSPost2010PropOp37
 70
     1
102
RTVSPost2010Prop38
140
0.0
102
RTVSPost2010PropOp38
 70
     1
102
RTVSPost2010Prop39
140
1.0
102
RTVSPost2010PropOp39
 70
     1
102
RTVSPost2010Prop40
 90
        0
102
RTVSPost2010PropOp40
 70
     1
102
RTVSPost2010Prop41ColorIndex
 90
       18
102
RTVSPost2010Prop41ColorRGB
 90
        0
102
RTVSPost2010PropOp41
 70
     1
102
RTVSPost2010Prop42
 90
       50
102
RTVSPost2010PropOp42
 70
     1
102
RTVSPost2010Prop43
 90
        3
102
RTVSPost2010PropOp43
 70
     1
102
RTVSPost2010Prop44ColorIndex
 90
        5
102
RTVSPost2010Prop44ColorRGB
 90
      255
102
RTVSPost2010PropOp44
 70
     1
102
RTVSPost2010Prop45
280
     0
102
RTVSPost2010PropOp45
 70
     1
102
RTVSPost2010Prop46
 90
       50
102
RTVSPost2010PropOp46
 70
     1
102
RTVSPost2010Prop47
 90
       50
102
RTVSPost2010PropOp47
 70
     1
102
RTVSPost2010Prop48
 90
       50
102
RTVSPost2010PropOp48
 70
     1
102
RTVSPost2010Prop49
280
     0
102
RTVSPost2010PropOp49
 70
     1
102
RTVSPost2010Prop50
 90
       50
102
RTVSPost2010PropOp50
 70
     1
102
RTVSPost2010Prop51ColorIndex
 90
      256
102
RTVSPost2010Prop51ColorRGB
 90
-16777216
102
RTVSPost2010PropOp51
 70
     0
102
RTVSPost2010Prop52
140
1.0
102
RTVSPost2010PropOp52
 70
     0
102
RTVSPost2010Prop53
 90
        2
102
RTVSPost2010PropOp53
 70
     1
102
RTVSPost2010Prop54
  1
strokes_ogs.tif
102
RTVSPost2010PropOp54
 70
     1
102
RTVSPost2010Prop55
280
     0
102
RTVSPost2010PropOp55
 70
     1
102
RTVSPost2010Prop56
140
1.0
102
RTVSPost2010PropOp56
 70
     1
102
RTVSPost2010Prop57
140
1.0
102
RTVSPost2010PropOp57
 70
     1
102
RTVSPropertyOp0
 70
     1
102
RTVSPropertyOp1
 70
     1
102
RTVSPropertyOp2
 70
     1
102
RTVSPropertyOp3
 70
     1
102
RTVSPropertyOp4
 70
     1
102
RTVSPropertyOp5
 70
     1
102
RTVSPropertyOp6
 70
     1
102
RTVSPropertyOp7
 70
     1
102
RTVSPropertyOp8
 70
     1
102
RTVSPropertyOp9
 70
     1
102
RTVSPropertyOp10
 70
     1
102
RTVSPropertyOp11
 70
     1
102
RTVSPropertyOp12
 70
     1
102
RTVSPropertyOp13
 70
     1
102
RTVSPropertyOp14
 70
     1
102
RTVSPropertyOp15
 70
     1
102
RTVSPropertyOp16
 70
     1
102
RTVSPropertyOp17
 70
     1
102
RTVSPropertyOp18
 70
     1
102
RTVSPropertyOp19
 70
     1
102
RTVSPropertyOp20
 70
     1
102
RTVSPropertyOp21
 70
     1
102
RTVSPropertyOp22
 70
     1
102
RTVSPropertyOp23
 70
     1
102
RTVSPropertyOp24
 70
     1
102
RTVSPropertyOp25
 70
     1
102
RTVSPropertyOp26
 70
     1
102
RTVSPropertyOp27
 70
     1
102
RTVSPropertyOp28
 70
     1
102
RTVSPropertyOp29
 70
     1
102
RTVSPropertyOp30
 70
     1
102
RTVSPropertyOp31
 70
     1
102
RTVSPropertyOp32
 70
     1
102
RTVSPropertyOp33
 70
     1
102
RTVSPropertyOp34
 70
     1
102
RTVSPropertyOp35
 70
     1
102
RTVSPropertyOp36
 70
     1
102
RTVSPropertyOp37
 70
     1
102
RTVSPropertyOp38
 70
     1
102
RTVSPropertyOp39
 70
     1
102
RTVSPropertyOp40
 70
     1
102
RTVSPropertyOp41
 70
     1
102
RTVSPropertyOp42
 70
     1
102
RTVSPropertyOp43
 70
     1
102
RTVSPropertyOp44
 70
     1
102
RTVSPropertyOp45
 70
     1
102
RTVSPropertyOp46
 70
     1
102
RTVSPropertyOp47
 70
     1
102
RTVSPropertyOp48
 70
     1
102
RTVSPropertyOp49
 70
     1
102
RTVSPropertyOp50
 70
     1
102
RTVSPropertyOp51
 70
     0
102
RTVSPropertyOp52
 70
     0
102
RTVSPropertyOp53
 70
     1
102
RTVSPropertyOp54
 70
     1
102
RTVSPropertyOp55
 70
     1
102
RTVSPropertyOp56
 70
     1
102
RTVSPropertyOp57
 70
     1
102
RTVSPropertyOp58
 70
     1
102
RTVSPropertyOp59
 70
     1
102
RTVSPropertyOp60
 70
     1
102
RTVSPropertyOp61
 70
     1
102
RTVSPropertyOp62
 70
     1
  0
XRECORD
  5
3C3
102
{ACAD_REACTORS
330
3C2
102
}
330
3C2
100
AcDbXrecord
280
     1
102
RTVSPost2010Prop28
280
     0
102
RTVSPost2010PropOp28
 70
     1
102
RTVSPost2010Prop29
280
     1
102
RTVSPost2010PropOp29
 70
     1
102
RTVSPost2010Prop30
280
     1
102
RTVSPost2010PropOp30
 70
     1
102
RTVSPost2010Prop31
280
     0
102
RTVSPost2010PropOp31
 70
     1
102
RTVSPost2010Prop32
280
     0
102
RTVSPost2010PropOp32
 70
     1
102
RTVSPost2010Prop33
280
     0
102
RTVSPost2010PropOp33
 70
     1
102
RTVSPost2010Prop34
280
     0
102
RTVSPost2010PropOp34
 70
     1
102
RTVSPost2010Prop35
280
     0
102
RTVSPost2010PropOp35
 70
     1
102
RTVSPost2010Prop36
280
     0
102
RTVSPost2010PropOp36
 70
     1
102
RTVSPost2010Prop37
 90
       50
102
RTVSPost2010PropOp37
 70
     1
102
RTVSPost2010Prop38
140
0.0
102
RTVSPost2010PropOp38
 70
     1
102
RTVSPost2010Prop39
140
1.0
102
RTVSPost2010PropOp39
 70
     1
102
RTVSPost2010Prop40
 90
        0
102
RTVSPost2010PropOp40
 70
     1
102
RTVSPost2010Prop41ColorIndex
 90
       18
102
RTVSPost2010Prop41ColorRGB
 90
        0
102
RTVSPost2010PropOp41
 70
     1
102
RTVSPost2010Prop42
 90
       50
102
RTVSPost2010PropOp42
 70
     1
102
RTVSPost2010Prop43
 90
        3
102
RTVSPost2010PropOp43
 70
     1
102
RTVSPost2010Prop44ColorIndex
 90
        5
102
RTVSPost2010Prop44ColorRGB
 90
      255
102
RTVSPost2010PropOp44
 70
     1
102
RTVSPost2010Prop45
280
     0
102
RTVSPost2010PropOp45
 70
     1
102
RTVSPost2010Prop46
 90
       50
102
RTVSPost2010PropOp46
 70
     1
102
RTVSPost2010Prop47
 90
       50
102
RTVSPost2010PropOp47
 70
     1
102
RTVSPost2010Prop48
 90
       50
102
RTVSPost2010PropOp48
 70
     1
102
RTVSPost2010Prop49
280
     0
102
RTVSPost2010PropOp49
 70
     1
102
RTVSPost2010Prop50
 90
       50
102
RTVSPost2010PropOp50
 70
     1
102
RTVSPost2010Prop51ColorIndex
 90
      256
102
RTVSPost2010Prop51ColorRGB
 90
-16777216
102
RTVSPost2010PropOp51
 70
     0
102
RTVSPost2010Prop52
140
1.0
102
RTVSPost2010PropOp52
 70
     0
102
RTVSPost2010Prop53
 90
        2
102
RTVSPost2010PropOp53
 70
     1
102
RTVSPost2010Prop54
  1
strokes_ogs.tif
102
RTVSPost2010PropOp54
 70
     1
102
RTVSPost2010Prop55
280
     0
102
RTVSPost2010PropOp55
 70
     1
102
RTVSPost2010Prop56
140
1.0
102
RTVSPost2010PropOp56
 70
     1
102
RTVSPost2010Prop57
140
1.0
102
RTVSPost2010PropOp57
 70
     1
102
RTVSPropertyOp0
 70
     1
102
RTVSPropertyOp1
 70
     1
102
RTVSPropertyOp2
 70
     1
102
RTVSPropertyOp3
 70
     1
102
RTVSPropertyOp4
 70
     1
102
RTVSPropertyOp5
 70
     1
102
RTVSPropertyOp6
 70
     1
102
RTVSPropertyOp7
 70
     1
102
RTVSPropertyOp8
 70
     1
102
RTVSPropertyOp9
 70
     1
102
RTVSPropertyOp10
 70
     1
102
RTVSPropertyOp11
 70
     1
102
RTVSPropertyOp12
 70
     1
102
RTVSPropertyOp13
 70
     1
102
RTVSPropertyOp14
 70
     1
102
RTVSPropertyOp15
 70
     1
102
RTVSPropertyOp16
 70
     1
102
RTVSPropertyOp17
 70
     1
102
RTVSPropertyOp18
 70
     1
102
RTVSPropertyOp19
 70
     1
102
RTVSPropertyOp20
 70
     1
102
RTVSPropertyOp21
 70
     1
102
RTVSPropertyOp22
 70
     1
102
RTVSPropertyOp23
 70
     1
102
RTVSPropertyOp24
 70
     1
102
RTVSPropertyOp25
 70
     1
102
RTVSPropertyOp26
 70
     1
102
RTVSPropertyOp27
 70
     1
102
RTVSPropertyOp28
 70
     1
102
RTVSPropertyOp29
 70
     1
102
RTVSPropertyOp30
 70
     1
102
RTVSPropertyOp31
 70
     1
102
RTVSPropertyOp32
 70
     1
102
RTVSPropertyOp33
 70
     1
102
RTVSPropertyOp34
 70
     1
102
RTVSPropertyOp35
 70
     1
102
RTVSPropertyOp36
 70
     1
102
RTVSPropertyOp37
 70
     1
102
RTVSPropertyOp38
 70
     1
102
RTVSPropertyOp39
 70
     1
102
RTVSPropertyOp40
 70
     1
102
RTVSPropertyOp41
 70
     1
102
RTVSPropertyOp42
 70
     1
102
RTVSPropertyOp43
 70
     1
102
RTVSPropertyOp44
 70
     1
102
RTVSPropertyOp45
 70
     1
102
RTVSPropertyOp46
 70
     1
102
RTVSPropertyOp47
 70
     1
102
RTVSPropertyOp48
 70
     1
102
RTVSPropertyOp49
 70
     1
102
RTVSPropertyOp50
 70
     1
102
RTVSPropertyOp51
 70
     0
102
RTVSPropertyOp52
 70
     0
102
RTVSPropertyOp53
 70
     1
102
RTVSPropertyOp54
 70
     1
102
RTVSPropertyOp55
 70
     1
102
RTVSPropertyOp56
 70
     1
102
RTVSPropertyOp57
 70
     1
102
RTVSPropertyOp58
 70
     1
102
RTVSPropertyOp59
 70
     1
102
RTVSPropertyOp60
 70
     1
102
RTVSPropertyOp61
 70
     1
102
RTVSPropertyOp62
 70
     1
  0
ENDSEC
  0
EOF
