  0
SECTION
  2
HEADER
  9
$ACADVER
  1
AC1018
  9
$ACADMAINTVER
 70
   104
  9
$DWGCODEPAGE
  3
ANSI_1250
  9
$LASTSAVEDBY
  1
wq7085
  9
$INSBASE
 10
0.0
 20
0.0
 30
0.0
  9
$EXTMIN
 10
4.644693088230303
 20
5.0
 30
0.0
  9
$EXTMAX
 10
264.0089365077637
 20
298.682791944413
 30
0.123
  9
$LIMMIN
 10
0.0
 20
0.0
  9
$LIMMAX
 10
380.0
 20
270.0
  9
$ORTHOMODE
 70
     1
  9
$REGENMODE
 70
     1
  9
$FILLMODE
 70
     1
  9
$QTEXTMODE
 70
     0
  9
$MIRRTEXT
 70
     0
  9
$LTSCALE
 40
10.0
  9
$ATTMODE
 70
     1
  9
$TEXTSIZE
 40
3.0
  9
$TRACEWID
 40
0.05
  9
$TEXTSTYLE
  7
SIMPLEX
  9
$CLAYER
  8
0
  9
$CELTYPE
  6
BYLAYER
  9
$CECOLOR
 62
     0
  9
$CELTSCALE
 40
1.0
  9
$DISPSILH
 70
     0
  9
$DIMSCALE
 40
0.0
  9
$DIMASZ
 40
3.0
  9
$DIMEXO
 40
1.25
  9
$DIMDLI
 40
0.38
  9
$DIMRND
 40
0.0
  9
$DIMDLE
 40
0.0
  9
$DIMEXE
 40
1.25
  9
$DIMTP
 40
0.0
  9
$DIMTM
 40
0.0
  9
$DIMTXT
 40
3.0
  9
$DIMCEN
 40
2.0
  9
$DIMTSZ
 40
0.0
  9
$DIMTOL
 70
     0
  9
$DIMLIM
 70
     0
  9
$DIMTIH
 70
     0
  9
$DIMTOH
 70
     0
  9
$DIMSE1
 70
     0
  9
$DIMSE2
 70
     0
  9
$DIMTAD
 70
     1
  9
$DIMZIN
 70
    10
  9
$DIMBLK
  1

  9
$DIMASO
 70
     0
  9
$DIMSHO
 70
     0
  9
$DIMPOST
  1

  9
$DIMAPOST
  1

  9
$DIMALT
 70
     0
  9
$DIMALTD
 70
     2
  9
$DIMALTF
 40
25.4
  9
$DIMLFAC
 40
1.0
  9
$DIMTOFL
 70
     1
  9
$DIMTVP
 40
0.0
  9
$DIMTIX
 70
     0
  9
$DIMSOXD
 70
     0
  9
$DIMSAH
 70
     0
  9
$DIMBLK1
  1

  9
$DIMBLK2
  1

  9
$DIMSTYLE
  2
STANDARD
  9
$DIMCLRD
 70
     0
  9
$DIMCLRE
 70
     0
  9
$DIMCLRT
 70
     0
  9
$DIMTFAC
 40
1.0
  9
$DIMGAP
 40
1.0
  9
$DIMJUST
 70
     0
  9
$DIMSD1
 70
     0
  9
$DIMSD2
 70
     0
  9
$DIMTOLJ
 70
     1
  9
$DIMTZIN
 70
    10
  9
$DIMALTZ
 70
    10
  9
$DIMALTTZ
 70
    10
  9
$DIMUPT
 70
     0
  9
$DIMDEC
 70
     2
  9
$DIMTDEC
 70
     2
  9
$DIMALTU
 70
     2
  9
$DIMALTTD
 70
     2
  9
$DIMTXSTY
  7
STANDARD
  9
$DIMAUNIT
 70
     0
  9
$DIMADEC
 70
     0
  9
$DIMALTRND
 40
0.0
  9
$DIMAZIN
 70
     0
  9
$DIMDSEP
 70
    46
  9
$DIMATFIT
 70
     3
  9
$DIMFRAC
 70
     0
  9
$DIMLDRBLK
  1

  9
$DIMLUNIT
 70
     2
  9
$DIMLWD
 70
    -2
  9
$DIMLWE
 70
    -2
  9
$DIMTMOVE
 70
     0
  9
$LUNITS
 70
     2
  9
$LUPREC
 70
     2
  9
$SKETCHINC
 40
0.1
  9
$FILLETRAD
 40
0.0
  9
$AUNITS
 70
     0
  9
$AUPREC
 70
     4
  9
$MENU
  1
ACAD
  9
$ELEVATION
 40
0.0
  9
$PELEVATION
 40
0.0
  9
$THICKNESS
 40
0.0
  9
$LIMCHECK
 70
     0
  9
$CHAMFERA
 40
1.0
  9
$CHAMFERB
 40
1.0
  9
$CHAMFERC
 40
0.0
  9
$CHAMFERD
 40
0.0
  9
$SKPOLY
 70
     1
  9
$TDCREATE
 40
2447943.729872686
  9
$TDUCREATE
 40
2447943.688206597
  9
$TDUPDATE
 40
2458857.559097222
  9
$TDUUPDATE
 40
2458857.517430556
  9
$TDINDWG
 40
0.3961486806
  9
$TDUSRTIMER
 40
0.3961486806
  9
$USRTIMER
 70
     1
  9
$ANGBASE
 50
0.0
  9
$ANGDIR
 70
     0
  9
$PDMODE
 70
     0
  9
$PDSIZE
 40
5.0
  9
$PLINEWID
 40
0.0
  9
$SPLFRAME
 70
     0
  9
$SPLINETYPE
 70
     6
  9
$SPLINESEGS
 70
     8
  9
$HANDSEED
  5
19FD
  9
$SURFTAB1
 70
     6
  9
$SURFTAB2
 70
     6
  9
$SURFTYPE
 70
     6
  9
$SURFU
 70
     6
  9
$SURFV
 70
     6
  9
$UCSBASE
  2

  9
$UCSNAME
  2

  9
$UCSORG
 10
71.80646590540603
 20
116.9111318444695
 30
0.0
  9
$UCSXDIR
 10
1.0
 20
0.0
 30
0.0
  9
$UCSYDIR
 10
0.0
 20
1.0
 30
0.0
  9
$UCSORTHOREF
  2

  9
$UCSORTHOVIEW
 70
     0
  9
$UCSORGTOP
 10
0.0
 20
0.0
 30
0.0
  9
$UCSORGBOTTOM
 10
0.0
 20
0.0
 30
0.0
  9
$UCSORGLEFT
 10
0.0
 20
0.0
 30
0.0
  9
$UCSORGRIGHT
 10
0.0
 20
0.0
 30
0.0
  9
$UCSORGFRONT
 10
0.0
 20
0.0
 30
0.0
  9
$UCSORGBACK
 10
0.0
 20
0.0
 30
0.0
  9
$PUCSBASE
  2

  9
$PUCSNAME
  2

  9
$PUCSORG
 10
0.0
 20
0.0
 30
0.0
  9
$PUCSXDIR
 10
1.0
 20
0.0
 30
0.0
  9
$PUCSYDIR
 10
0.0
 20
1.0
 30
0.0
  9
$PUCSORTHOREF
  2

  9
$PUCSORTHOVIEW
 70
     0
  9
$PUCSORGTOP
 10
0.0
 20
0.0
 30
0.0
  9
$PUCSORGBOTTOM
 10
0.0
 20
0.0
 30
0.0
  9
$PUCSORGLEFT
 10
0.0
 20
0.0
 30
0.0
  9
$PUCSORGRIGHT
 10
0.0
 20
0.0
 30
0.0
  9
$PUCSORGFRONT
 10
0.0
 20
0.0
 30
0.0
  9
$PUCSORGBACK
 10
0.0
 20
0.0
 30
0.0
  9
$USERI1
 70
   200
  9
$USERI2
 70
     0
  9
$USERI3
 70
     0
  9
$USERI4
 70
     0
  9
$USERI5
 70
     0
  9
$USERR1
 40
170.25
  9
$USERR2
 40
0.0
  9
$USERR3
 40
0.0
  9
$USERR4
 40
0.0
  9
$USERR5
 40
0.0
  9
$WORLDVIEW
 70
     1
  9
$SHADEDGE
 70
     3
  9
$SHADEDIF
 70
    70
  9
$TILEMODE
 70
     1
  9
$MAXACTVP
 70
    48
  9
$PINSBASE
 10
0.0
 20
0.0
 30
0.0
  9
$PLIMCHECK
 70
     0
  9
$PEXTMIN
 10
1.000000000000000E+20
 20
1.000000000000000E+20
 30
1.000000000000000E+20
  9
$PEXTMAX
 10
-1.000000000000000E+20
 20
-1.000000000000000E+20
 30
-1.000000000000000E+20
  9
$PLIMMIN
 10
0.0
 20
0.0
  9
$PLIMMAX
 10
12.0
 20
9.0
  9
$UNITMODE
 70
     0
  9
$VISRETAIN
 70
     0
  9
$PLINEGEN
 70
     0
  9
$PSLTSCALE
 70
     0
  9
$TREEDEPTH
 70
  3020
  9
$CMLSTYLE
  2
STANDARD
  9
$CMLJUST
 70
     0
  9
$CMLSCALE
 40
1.0
  9
$PROXYGRAPHICS
 70
     1
  9
$MEASUREMENT
 70
     0
  9
$CELWEIGHT
370
    -1
  9
$ENDCAPS
280
     0
  9
$JOINSTYLE
280
     0
  9
$LWDISPLAY
290
     0
  9
$INSUNITS
 70
     0
  9
$HYPERLINKBASE
  1

  9
$STYLESHEET
  1
aHonza.ctb
  9
$XEDIT
290
     1
  9
$CEPSNTYPE
380
     0
  9
$PSTYLEMODE
290
     1
  9
$FINGERPRINTGUID
  2
{336221BD-5338-4A0D-8020-72205CB82833}
  9
$VERSIONGUID
  2
{6DA965F8-6EB1-9145-A2BA-9C264955F37F}
  9
$EXTNAMES
290
     1
  9
$PSVPSCALE
 40
0.0
  9
$OLESTARTUP
290
     0
  9
$SORTENTS
280
   127
  9
$INDEXCTL
280
     0
  9
$HIDETEXT
280
     0
  9
$XCLIPFRAME
290
     0
  9
$HALOGAP
280
     0
  9
$OBSCOLOR
 70
   257
  9
$OBSLTYPE
280
     0
  9
$INTERSECTIONDISPLAY
280
     0
  9
$INTERSECTIONCOLOR
 70
   257
  9
$DIMASSOC
280
     0
  9
$PROJECTNAME
  1

  0
ENDSEC
  0
SECTION
  2
CLASSES
  0
CLASS
  1
DICTIONARYVAR
  2
AcDbDictionaryVar
  3
ObjectDBX Classes
 90
        0
 91
       27
280
     0
281
     0
  0
CLASS
  1
ACDBDICTIONARYWDFLT
  2
AcDbDictionaryWithDefault
  3
ObjectDBX Classes
 90
        0
 91
        1
280
     0
281
     0
  0
CLASS
  1
MATERIAL
  2
AcDbMaterial
  3
ObjectDBX Classes
 90
     1153
 91
        3
280
     0
281
     0
  0
CLASS
  1
VISUALSTYLE
  2
AcDbVisualStyle
  3
ObjectDBX Classes
 90
     4095
 91
       26
280
     0
281
     0
  0
CLASS
  1
TABLESTYLE
  2
AcDbTableStyle
  3
ObjectDBX Classes
 90
     4095
 91
        1
280
     0
281
     0
  0
CLASS
  1
SCALE
  2
AcDbScale
  3
ObjectDBX Classes
 90
     1153
 91
       33
280
     0
281
     0
  0
CLASS
  1
MLEADERSTYLE
  2
AcDbMLeaderStyle
  3
ACDB_MLEADERSTYLE_CLASS
 90
     4095
 91
        1
280
     0
281
     0
  0
CLASS
  1
CELLSTYLEMAP
  2
AcDbCellStyleMap
  3
ObjectDBX Classes
 90
     1152
 91
        7
280
     0
281
     0
  0
CLASS
  1
ACDBSECTIONVIEWSTYLE
  2
AcDbSectionViewStyle
  3
ObjectDBX Classes
 90
     1025
 91
        2
280
     0
281
     0
  0
CLASS
  1
ACDBDETAILVIEWSTYLE
  2
AcDbDetailViewStyle
  3
ObjectDBX Classes
 90
     1025
 91
        2
280
     0
281
     0
  0
CLASS
  1
SORTENTSTABLE
  2
AcDbSortentsTable
  3
ObjectDBX Classes
 90
        0
 91
        7
280
     0
281
     0
  0
ENDSEC
  0
SECTION
  2
TABLES
  0
TABLE
  2
VPORT
  5
8
330
0
100
AcDbSymbolTable
 70
     1
  0
VPORT
  5
13F1
330
8
100
AcDbSymbolTableRecord
100
AcDbViewportTableRecord
  2
*ACTIVE
 70
     0
 10
0.0
 20
0.0
 11
1.0
 21
1.0
 12
65.04897767491718
 22
121.4720702710162
 13
0.0
 23
0.0
 14
10.0
 24
10.0
 15
10.0
 25
10.0
 16
0.0
 26
0.0
 36
1.0
 17
0.0
 27
0.0
 37
0.0
 40
423.8293769266287
 41
2.292712066905615
 42
50.0
 43
0.0
 44
0.0
 50
0.0
 51
0.0
 71
     0
 72
  2000
 73
     1
 74
     3
 75
     0
 76
     0
 77
     0
 78
     0
281
     0
 65
     1
110
71.80646590540603
120
116.9111318444695
130
0.0
111
1.0
121
0.0
131
0.0
112
0.0
122
1.0
132
0.0
 79
     0
146
0.0
1001
ACAD_NAV_VCDISPLAY
1070
     3
  0
ENDTAB
  0
TABLE
  2
LTYPE
  5
5
330
0
100
AcDbSymbolTable
 70
     9
  0
LTYPE
  5
11
330
5
100
AcDbSymbolTableRecord
100
AcDbLinetypeTableRecord
  2
BYBLOCK
 70
     0
  3

 72
    65
 73
     0
 40
0.0
  0
LTYPE
  5
12
330
5
100
AcDbSymbolTableRecord
100
AcDbLinetypeTableRecord
  2
BYLAYER
 70
     0
  3

 72
    65
 73
     0
 40
0.0
  0
LTYPE
  5
13
330
5
100
AcDbSymbolTableRecord
100
AcDbLinetypeTableRecord
  2
CONTINUOUS
 70
     0
  3
Solid line
 72
    65
 73
     0
 40
0.0
  0
LTYPE
  5
14C
330
5
100
AcDbSymbolTableRecord
100
AcDbLinetypeTableRecord
  2
LÍNEAS_OCULTAS
 70
     0
  3
trazos medios __ __ __ __ __ __ __ __ __ __ __ 
 72
    65
 73
     2
 40
0.375
 49
0.25
 74
     0
 49
-0.125
 74
     0
  0
LTYPE
  5
2B0
330
5
100
AcDbSymbolTableRecord
100
AcDbLinetypeTableRecord
  2
CENTRO2
 70
     0
  3
trazo medio, trazo corto (.5x) ___ _ ___ _ ___ 
 72
    65
 73
     4
 40
1.125
 49
0.75
 74
     0
 49
-0.125
 74
     0
 49
0.125
 74
     0
 49
-0.125
 74
     0
  0
LTYPE
  5
396
330
5
100
AcDbSymbolTableRecord
100
AcDbLinetypeTableRecord
  2
HIDDEN
 70
     0
  3
_ _ _ _ _ _ _ _ _ _ _ _ _ _ _ _ _ _ _ _ _ _ _
 72
    65
 73
     2
 40
0.375
 49
0.25
 74
     0
 49
-0.125
 74
     0
  0
LTYPE
  5
397
330
5
100
AcDbSymbolTableRecord
100
AcDbLinetypeTableRecord
  2
CENTER
 70
     0
  3
____ _ ____ _ ____ _ ____ _ ____ _ ____ _ ____
 72
    65
 73
     4
 40
2.0
 49
1.25
 74
     0
 49
-0.25
 74
     0
 49
0.25
 74
     0
 49
-0.25
 74
     0
  0
LTYPE
  5
1824
330
5
100
AcDbSymbolTableRecord
100
AcDbLinetypeTableRecord
  2
CENTER2
 70
     0
  3
Center (.5x) ___ _ ___ _ ___ _ ___ _ ___ _ ___
 72
    65
 73
     4
 40
1.125
 49
0.75
 74
     0
 49
-0.125
 74
     0
 49
0.125
 74
     0
 49
-0.125
 74
     0
  0
LTYPE
  5
1828
330
5
100
AcDbSymbolTableRecord
100
AcDbLinetypeTableRecord
  2
DASHED
 70
     0
  3
Dashed __ __ __ __ __ __ __ __ __ __ __ __ __ _
 72
    65
 73
     2
 40
0.75
 49
0.5
 74
     0
 49
-0.25
 74
     0
  0
ENDTAB
  0
TABLE
  2
LAYER
  5
2
102
{ACAD_XDICTIONARY
360
1452
102
}
330
0
100
AcDbSymbolTable
 70
    20
  0
LAYER
  5
E
102
{ACAD_XDICTIONARY
360
16E8
102
}
330
2
100
AcDbSymbolTableRecord
100
AcDbLayerTableRecord
  2
0
 70
     0
 62
     7
  6
CONTINUOUS
370
    -3
390
13F4
  0
LAYER
  5
39C
102
{ACAD_XDICTIONARY
360
16EA
102
}
330
2
100
AcDbSymbolTableRecord
100
AcDbLayerTableRecord
  2
MAQUINA
 70
     1
 62
     7
  6
CONTINUOUS
370
    -3
390
13F4
  0
LAYER
  5
F71
102
{ACAD_XDICTIONARY
360
16EC
102
}
330
2
100
AcDbSymbolTableRecord
100
AcDbLayerTableRecord
  2
CAIXETI
 70
     0
 62
     7
  6
CONTINUOUS
370
    -3
390
13F4
  0
LAYER
  5
108D
102
{ACAD_XDICTIONARY
360
16EE
102
}
330
2
100
AcDbSymbolTableRecord
100
AcDbLayerTableRecord
  2
CAMINS
 70
     0
 62
     7
  6
CONTINUOUS
370
    -3
390
13F4
  0
LAYER
  5
108E
102
{ACAD_XDICTIONARY
360
16F0
102
}
330
2
100
AcDbSymbolTableRecord
100
AcDbLayerTableRecord
  2
RESERVA
 70
     0
 62
     7
  6
CONTINUOUS
370
    -3
390
13F4
  0
LAYER
  5
108F
330
2
100
AcDbSymbolTableRecord
100
AcDbLayerTableRecord
  2
DEFPOINTS
 70
     0
 62
     7
  6
CONTINUOUS
290
     0
370
    -3
390
13F4
  0
LAYER
  5
144F
102
{ACAD_XDICTIONARY
360
16F2
102
}
330
2
100
AcDbSymbolTableRecord
100
AcDbLayerTableRecord
  2
41
 70
     0
 62
     7
  6
CONTINUOUS
370
    -3
390
13F4
  0
LAYER
  5
1450
102
{ACAD_XDICTIONARY
360
16F4
102
}
330
2
100
AcDbSymbolTableRecord
100
AcDbLayerTableRecord
  2
4
 70
     0
 62
     2
  6
CENTER2
370
    -3
390
13F4
  0
LAYER
  5
17E1
330
2
100
AcDbSymbolTableRecord
100
AcDbLayerTableRecord
  2
14
 70
     0
 62
     7
420
 16777215
  6
CONTINUOUS
370
    -3
390
13F4
  0
LAYER
  5
1822
330
2
100
AcDbSymbolTableRecord
100
AcDbLayerTableRecord
  2
1
 70
     0
 62
     4
  6
CONTINUOUS
370
    -3
390
13F4
  0
LAYER
  5
1823
330
2
100
AcDbSymbolTableRecord
100
AcDbLayerTableRecord
  2
2
 70
     0
 62
     7
  6
CONTINUOUS
370
    -3
390
13F4
  0
LAYER
  5
1825
330
2
100
AcDbSymbolTableRecord
100
AcDbLayerTableRecord
  2
SK1
 70
     0
 62
     4
  6
CONTINUOUS
370
    -3
390
13F4
  0
LAYER
  5
1826
330
2
100
AcDbSymbolTableRecord
100
AcDbLayerTableRecord
  2
SK2
 70
     0
 62
     7
  6
CONTINUOUS
370
    -3
390
13F4
  0
LAYER
  5
1827
330
2
100
AcDbSymbolTableRecord
100
AcDbLayerTableRecord
  2
SK3
 70
     0
 62
     1
  6
DASHED
370
    -3
390
13F4
  0
LAYER
  5
1829
330
2
100
AcDbSymbolTableRecord
100
AcDbLayerTableRecord
  2
SK4
 70
     0
 62
     2
  6
CENTER2
370
    -3
390
13F4
  0
LAYER
  5
182A
330
2
100
AcDbSymbolTableRecord
100
AcDbLayerTableRecord
  2
SK6
 70
     0
 62
     5
  6
CONTINUOUS
370
    -3
390
13F4
  0
LAYER
  5
182B
330
2
100
AcDbSymbolTableRecord
100
AcDbLayerTableRecord
  2
CUT
 70
     0
 62
     1
  6
CONTINUOUS
370
    -3
390
13F4
  0
LAYER
  5
182C
330
2
100
AcDbSymbolTableRecord
100
AcDbLayerTableRecord
  2
NOCUT
 70
     0
 62
     7
  6
CONTINUOUS
370
    -3
390
13F4
  0
LAYER
  5
182D
330
2
100
AcDbSymbolTableRecord
100
AcDbLayerTableRecord
  2
80
 70
     0
 62
     6
  6
CONTINUOUS
370
    -3
390
13F4
  0
LAYER
  5
182E
330
2
100
AcDbSymbolTableRecord
100
AcDbLayerTableRecord
  2
81
 70
     0
 62
     3
  6
CONTINUOUS
370
    -3
390
13F4
  0
ENDTAB
  0
TABLE
  2
STYLE
  5
3
330
0
100
AcDbSymbolTable
 70
     4
  0
STYLE
  5
F
330
3
100
AcDbSymbolTableRecord
100
AcDbTextStyleTableRecord
  2
STANDARD
 70
     0
 40
0.0
 41
1.0
 50
0.0
 71
     0
 42
10.0
  3
txt
  4

  0
STYLE
  5
1F
330
3
100
AcDbSymbolTableRecord
100
AcDbTextStyleTableRecord
  2
SIMPLEX
 70
     0
 40
0.0
 41
1.0
 50
0.0
 71
     0
 42
3.0
  3
ROMANS
  4

  0
STYLE
  5
1148
330
3
100
AcDbSymbolTableRecord
100
AcDbTextStyleTableRecord
  2
STYLE1
 70
     0
 40
0.0
 41
1.0
 50
0.0
 71
     0
 42
2.5
  3
romantic.ttf
  4

1001
ACAD
1000
Romantic
1071
      514
  0
STYLE
  5
194A
330
3
100
AcDbSymbolTableRecord
100
AcDbTextStyleTableRecord
  2
cesky
 70
     0
 40
0.0
 41
1.0
 50
0.0
 71
     0
 42
0.2
  3
simplex.shx
  4

  0
ENDTAB
  0
TABLE
  2
VIEW
  5
6
330
0
100
AcDbSymbolTable
 70
     5
  0
ENDTAB
  0
TABLE
  2
UCS
  5
7
330
0
100
AcDbSymbolTable
 70
     0
  0
ENDTAB
  0
TABLE
  2
APPID
  5
9
330
0
100
AcDbSymbolTable
 70
     5
  0
APPID
  5
10
330
9
100
AcDbSymbolTableRecord
100
AcDbRegAppTableRecord
  2
ACAD
 70
     0
  0
APPID
  5
1446
330
9
100
AcDbSymbolTableRecord
100
AcDbRegAppTableRecord
  2
ACAD_MLEADERVER
 70
     0
  0
APPID
  5
1451
330
9
100
AcDbSymbolTableRecord
100
AcDbRegAppTableRecord
  2
ACAD_PSEXT
 70
     0
  0
APPID
  5
170D
330
9
100
AcDbSymbolTableRecord
100
AcDbRegAppTableRecord
  2
ACAD_EXEMPT_FROM_CAD_STANDARDS
 70
     0
  0
APPID
  5
1736
330
9
100
AcDbSymbolTableRecord
100
AcDbRegAppTableRecord
  2
ACAD_NAV_VCDISPLAY
 70
     0
  0
ENDTAB
  0
TABLE
  2
DIMSTYLE
  5
A
330
0
100
AcDbSymbolTable
 70
     2
100
AcDbDimStyleTable
 71
     1
340
137
  0
DIMSTYLE
105
137
330
A
100
AcDbSymbolTableRecord
100
AcDbDimStyleTableRecord
  2
STANDARD
 70
     0
340
F
  0
ENDTAB
  0
TABLE
  2
BLOCK_RECORD
  5
1
330
0
100
AcDbSymbolTable
 70
    10
  0
BLOCK_RECORD
  5
17
102
{ACAD_XDICTIONARY
360
1896
102
}
330
1
100
AcDbSymbolTableRecord
100
AcDbBlockTableRecord
  2
*MODEL_SPACE
340
1449
  0
BLOCK_RECORD
  5
14
330
1
100
AcDbSymbolTableRecord
100
AcDbBlockTableRecord
  2
*PAPER_SPACE
340
144A
  0
BLOCK_RECORD
  5
13DE
330
1
100
AcDbSymbolTableRecord
100
AcDbBlockTableRecord
  2
CA-CANEL
340
0
  0
BLOCK_RECORD
  5
1606
330
1
100
AcDbSymbolTableRecord
100
AcDbBlockTableRecord
  2
A$C65C625BF
340
0
  0
ENDTAB
  0
ENDSEC
  0
SECTION
  2
BLOCKS
  0
BLOCK
  5
2E
330
17
100
AcDbEntity
  8
0
 62
     0
100
AcDbBlockBegin
  2
*MODEL_SPACE
 70
     0
 10
0.0
 20
0.0
 30
0.0
  3
*MODEL_SPACE
  1

  0
ENDBLK
  5
2F
330
17
100
AcDbEntity
  8
0
 62
     0
100
AcDbBlockEnd
  0
BLOCK
  5
2C
330
14
100
AcDbEntity
 67
     1
  8
0
 62
     0
100
AcDbBlockBegin
  2
*PAPER_SPACE
 70
     0
 10
0.0
 20
0.0
 30
0.0
  3
*PAPER_SPACE
  1

  0
ENDBLK
  5
2D
330
14
100
AcDbEntity
 67
     1
  8
0
 62
     0
100
AcDbBlockEnd
  0
BLOCK
  5
13EE
330
13DE
100
AcDbEntity
  8
0
 62
     0
100
AcDbBlockBegin
  2
CA-CANEL
 70
     0
 10
0.0
 20
0.0
 30
0.0
  3
CA-CANEL
  1

  0
LWPOLYLINE
  5
13DF
330
13DE
100
AcDbEntity
  8
CAIXETI
100
AcDbPolyline
 90
       15
 70
     1
 43
0.0
 39
0.123
 10
132.0885
 20
26.0664
 10
134.8898
 20
26.0664
 10
134.8898
 20
23.3607
 42
-0.2398
 10
128.1949
 20
23.0629
 10
127.6033
 20
23.5366
 10
127.3914
 20
24.4243
 10
127.3914
 20
31.117
 10
127.6781
 20
31.6914
 42
-0.2606
 10
134.8898
 20
31.6532
 10
134.8898
 20
29.2385
 10
132.0894
 20
29.2385
 10
132.0896
 20
30.149
 42
1.000199999999999
 10
130.4098
 20
30.1487
 10
130.4109
 20
24.8649
 42
1.0
 10
132.0885
 20
24.8649
  0
LWPOLYLINE
  5
13E0
330
13DE
100
AcDbEntity
  8
CAIXETI
100
AcDbPolyline
 90
       16
 70
     1
 43
0.0
 39
0.123
 10
144.7964
 20
23.6334
 10
144.7964
 20
22.4019
 10
140.6913
 20
22.4019
 10
140.6913
 20
23.6334
 42
0.5240000000000001
 10
141.0756
 20
24.1884
 10
141.0137
 20
24.5285
 10
139.1815
 20
24.5285
 10
139.1061
 20
24.2523
 42
0.5803000000000001
 10
139.4598
 20
23.6334
 10
139.4598
 20
22.4019
 10
136.1758
 20
22.4019
 10
136.1758
 20
23.6334
 42
0.3728
 10
136.5821
 20
23.9853
 10
138.2683
 20
32.5962
 10
142.5867
 20
32.5962
 10
144.3907
 20
23.9812
 42
0.37
  0
LWPOLYLINE
  5
13E1
330
13DE
100
AcDbEntity
  8
CAIXETI
100
AcDbPolyline
 90
        3
 70
     1
 43
0.0
 39
0.123
 10
139.5856
 20
26.0034
 10
140.7496
 20
26.0034
 10
140.2442
 20
30.3972
  0
LWPOLYLINE
  5
13E2
330
13DE
100
AcDbEntity
  8
CAIXETI
100
AcDbPolyline
 90
       20
 70
     1
 43
0.0
 39
0.123
 10
145.6174
 20
23.6334
 42
0.4142000000000001
 10
146.0279
 20
24.0439
 10
146.0279
 20
30.97
 42
0.4142000000000001
 10
145.6174
 20
31.3805
 10
145.6174
 20
32.612
 10
149.3119
 20
32.612
 10
151.3645
 20
28.5069
 10
151.3645
 20
30.97
 42
0.4142000000000001
 10
150.9539
 20
31.3805
 10
150.9539
 20
32.612
 10
154.238
 20
32.612
 10
154.238
 20
31.3805
 42
0.4142000000000001
 10
153.8275
 20
30.97
 10
153.8275
 20
22.4019
 10
150.5434
 20
22.4019
 10
148.4909
 20
27.0964
 10
148.4909
 20
24.0439
 42
0.4142000000000001
 10
148.9014
 20
23.6334
 10
148.9014
 20
22.4019
 10
145.6174
 20
22.4019
  0
LWPOLYLINE
  5
13E3
330
13DE
100
AcDbEntity
  8
CAIXETI
100
AcDbPolyline
 90
       22
 70
     0
 43
0.0
 39
0.123
 10
160.8061
 20
26.4359
 10
158.343
 20
26.4359
 10
158.343
 20
23.6334
 10
158.7535
 20
23.6334
 42
0.3745
 10
159.9851
 20
25.1149
 10
162.8586
 20
25.1149
 10
162.8586
 20
22.4019
 10
155.059
 20
22.4019
 10
155.059
 20
23.6334
 42
0.4142000000000001
 10
155.4695
 20
24.0439
 10
155.4695
 20
30.97
 42
0.4142000000000001
 10
155.059
 20
31.3805
 10
155.059
 20
32.612
 10
162.8586
 20
32.612
 10
162.8586
 20
29.899
 10
159.9851
 20
29.899
 42
0.3745
 10
158.7535
 20
31.3805
 10
158.343
 20
31.3805
 10
158.343
 20
28.57800000000001
 10
160.8061
 20
28.57800000000001
 10
160.8061
 20
26.4359
 10
160.3956
 20
26.4359
  0
LWPOLYLINE
  5
13E4
330
13DE
100
AcDbEntity
  8
CAIXETI
100
AcDbPolyline
 90
       16
 70
     0
 43
0.0
 39
0.123
 10
167.807
 20
23.6334
 10
167.3741
 20
23.6334
 10
167.3741
 20
30.97
 42
-0.4142000000000001
 10
167.7846
 20
31.3805
 10
167.7846
 20
32.612
 10
164.0901
 20
32.612
 10
164.0901
 20
31.3805
 42
-0.4142000000000001
 10
164.5006
 20
30.97
 10
164.5006
 20
24.0439
 42
-0.4142000000000001
 10
164.0901
 20
23.6334
 10
164.0901
 20
22.4019
 10
171.4792
 20
22.4019
 10
171.4792
 20
25.6859
 10
169.0162
 20
25.6859
 10
169.0162
 20
24.8649
 42
-0.4142000000000001
 10
167.7846
 20
23.6334
  0
LWPOLYLINE
  5
13E5
330
13DE
100
AcDbEntity
  8
CAIXETI
100
AcDbPolyline
 90
        3
 70
     1
 43
0.0
 39
0.123
 10
176.1206
 20
26.0034
 10
177.2845
 20
26.0034
 10
176.7791
 20
30.3972
  0
LWPOLYLINE
  5
13E6
330
13DE
100
AcDbEntity
  8
CAIXETI
100
AcDbPolyline
 90
       16
 70
     1
 43
0.0
 39
0.123
 10
181.3313
 20
23.6334
 10
181.3313
 20
22.4019
 10
177.2263
 20
22.4019
 10
177.2263
 20
23.6334
 42
0.5240000000000001
 10
177.6105
 20
24.1884
 10
177.5487
 20
24.5285
 10
175.7164
 20
24.5285
 10
175.6411
 20
24.2523
 42
0.5803000000000001
 10
175.9947
 20
23.6334
 10
175.9947
 20
22.4019
 10
172.7107
 20
22.4019
 10
172.7107
 20
23.6334
 42
0.3728
 10
173.117
 20
23.9853
 10
174.8032
 20
32.5962
 10
179.1216
 20
32.5962
 10
180.9256
 20
23.9812
 42
0.37
  0
LWPOLYLINE
  5
13E7
330
13DE
100
AcDbEntity
  8
CAIXETI
100
AcDbPolyline
 90
        4
 70
     1
 43
0.0
 39
0.123
 10
184.0
 20
35.0
 10
46.0
 20
35.0
 10
46.0
 20
6.0
 10
184.0
 20
6.0
  0
LWPOLYLINE
  5
13E8
330
13DE
100
AcDbEntity
  8
CAIXETI
100
AcDbPolyline
 90
        4
 70
     1
 43
0.0
 39
0.123
 10
45.0
 20
5.0
 10
185.0
 20
5.0
 10
185.0
 20
36.0
 10
45.0
 20
36.0
  0
LINE
  5
13E9
330
13DE
100
AcDbEntity
  8
CAIXETI
100
AcDbLine
 39
0.123
 10
124.3124
 20
35.0
 30
0.0
 11
124.3124
 21
19.7996
 31
0.0
  0
LINE
  5
13EA
330
13DE
100
AcDbEntity
  8
CAIXETI
100
AcDbLine
 39
0.123
 10
46.0
 20
27.5
 30
0.0
 11
124.3124
 21
27.5
 31
0.0
  0
LINE
  5
13EB
330
13DE
100
AcDbEntity
  8
CAIXETI
100
AcDbLine
 39
0.123
 10
98.0
 20
35.0
 30
0.0
 11
98.0
 21
19.7996
 31
0.0
  0
LINE
  5
13EC
330
13DE
100
AcDbEntity
  8
CAIXETI
100
AcDbLine
 39
0.123
 10
72.0
 20
35.0
 30
0.0
 11
72.0
 21
6.0
 31
0.0
  0
LINE
  5
13ED
330
13DE
100
AcDbEntity
  8
CAIXETI
100
AcDbLine
 39
0.123
 10
184.0
 20
19.7996
 30
0.0
 11
46.0
 21
19.7996
 31
0.0
  0
ENDBLK
  5
13EF
330
13DE
100
AcDbEntity
  8
0
 62
     0
100
AcDbBlockEnd
  0
BLOCK
  5
16DE
330
1606
100
AcDbEntity
  8
0
 62
     0
100
AcDbBlockBegin
  2
A$C65C625BF
 70
     0
 10
0.0
 20
0.0
 30
0.0
  3
A$C65C625BF
  1

  0
LINE
  5
1607
330
1606
100
AcDbEntity
  8
41
  6
Continuous
 62
   251
100
AcDbLine
 10
0.4374390140110905
 20
1.09242900513027
 30
0.0
 11
0.3978150140111012
 21
1.00589100513028
 31
0.0
  0
LINE
  5
1608
330
1606
100
AcDbEntity
  8
41
  6
Continuous
 62
   251
100
AcDbLine
 10
2.269846014011108
 20
1.317397005130288
 30
0.0
 11
2.251685014011101
 21
1.346835005130287
 31
0.0
  0
LINE
  5
1609
330
1606
100
AcDbEntity
  8
41
  6
Continuous
 62
   251
100
AcDbLine
 10
0.1144780140110981
 20
1.011860005130273
 30
0.0
 11
0.0835660140110974
 21
1.011784005130266
 31
0.0
  0
LINE
  5
160A
330
1606
100
AcDbEntity
  8
41
  6
Continuous
 62
   251
100
AcDbLine
 10
1.805559014011095
 20
1.844701005130275
 30
0.0
 11
1.800759014011106
 21
1.870558005130277
 31
0.0
  0
LINE
  5
160B
330
1606
100
AcDbEntity
  8
41
  6
Continuous
 62
   251
100
AcDbLine
 10
2.218385014011104
 20
1.472159005130265
 30
0.0
 11
2.220062014011091
 21
1.502791005130291
 31
0.0
  0
LINE
  5
160C
330
1606
100
AcDbEntity
  8
41
  6
Continuous
 62
   251
100
AcDbLine
 10
0.0256540140110957
 20
0.819785005130285
 30
0.0
 11
0.0509270140110942
 21
0.7948430051302751
 31
0.0
  0
LINE
  5
160D
330
1606
100
AcDbEntity
  8
41
  6
Continuous
 62
   251
100
AcDbLine
 10
0.2529080140110977
 20
0.6524500051302767
 30
0.0
 11
0.2664720140111001
 21
0.6232910051302838
 31
0.0
  0
LINE
  5
160E
330
1606
100
AcDbEntity
  8
41
  6
Continuous
 62
   251
100
AcDbLine
 10
0.2388110140111053
 20
0.4001520051302805
 30
0.0
 11
0.2085600140110984
 21
0.360579005130262
 31
0.0
  0
LINE
  5
160F
330
1606
100
AcDbEntity
  8
41
  6
Continuous
 62
   251
100
AcDbLine
 10
0.2022600140111024
 20
0.1457960051302791
 30
0.0
 11
0.2383540140110938
 21
0.1261110051302694
 31
0.0
  0
LINE
  5
1610
330
1606
100
AcDbEntity
  8
4
  6
Continuous
 62
   251
100
AcDbLine
 10
22.2818450140111
 20
16.1116010051303
 30
0.0
 11
22.57719701401111
 21
16.06920900513026
 31
0.0
  0
LINE
  5
1611
330
1606
100
AcDbEntity
  8
41
  6
Continuous
 62
   251
100
AcDbLine
 10
0.2707130140110934
 20
0.9560560051302786
 30
0.0
 11
0.2220220140111024
 21
0.9713470051302977
 31
0.0
  0
LINE
  5
1612
330
1606
100
AcDbEntity
  8
41
  6
Continuous
 62
   251
100
AcDbLine
 10
0.4395470140110973
 20
0.2694690051302757
 30
0.0
 11
0.4836670140111039
 21
0.29248100513027
 31
0.0
  0
LINE
  5
1613
330
1606
100
AcDbEntity
  8
4
  6
Continuous
 62
   251
100
AcDbLine
 10
24.72154101401109
 20
13.34399200513027
 30
0.0
 11
24.63104101401111
 21
12.97960400513025
 31
0.0
  0
LINE
  5
1614
330
1606
100
AcDbEntity
  8
41
  6
Continuous
 62
   251
100
AcDbLine
 10
0.7131560140111049
 20
0.0712980051302736
 30
0.0
 11
0.7415280140110952
 21
0.0268230051302965
 31
0.0
  0
LINE
  5
1615
330
1606
100
AcDbEntity
  8
4
  6
Continuous
 62
   251
100
AcDbLine
 10
18.7724040140111
 20
14.63545500513027
 30
0.0
 11
19.3454530140111
 21
14.90469500513029
 31
0.0
  0
LINE
  5
1616
330
1606
100
AcDbEntity
  8
41
  6
Continuous
 62
   251
100
AcDbLine
 10
0.9068560140110974
 20
0.1425450051302732
 30
0.0
 11
0.9037580140111032
 21
0.1636530051302714
 31
0.0
  0
LINE
  5
1617
330
1606
100
AcDbEntity
  8
4
  6
Continuous
 62
   251
100
AcDbLine
 10
11.0931450140111
 20
8.430591005130281
 30
0.0
 11
11.8119910140111
 21
8.274431005130281
 31
0.0
  0
LINE
  5
1618
330
1606
100
AcDbEntity
  8
41
  6
Continuous
 62
   251
100
AcDbLine
 10
1.093546014011096
 20
0.9873490051302837
 30
0.0
 11
1.123849014011085
 21
1.02689700513028
 31
0.0
  0
LINE
  5
1619
330
1606
100
AcDbEntity
  8
41
  6
Continuous
 62
   251
100
AcDbLine
 10
1.110133014011097
 20
0.4123950051302927
 30
0.0
 11
1.1550650140111
 21
0.3926840051302633
 31
0.0
  0
LINE
  5
161A
330
1606
100
AcDbEntity
  8
41
  6
Continuous
 62
   251
100
AcDbLine
 10
1.128167014011097
 20
1.241197005130288
 30
0.0
 11
1.093089014011098
 21
1.261110005130262
 31
0.0
  0
LINE
  5
161B
330
1606
100
AcDbEntity
  8
41
  6
Continuous
 62
   251
100
AcDbLine
 10
1.326566014011092
 20
0.4340860051302684
 30
0.0
 11
1.332078014011102
 21
0.4845050051302735
 31
0.0
  0
LINE
  5
161C
330
1606
100
AcDbEntity
  8
41
  6
Continuous
 62
   251
100
AcDbLine
 10
0.9278370140110894
 20
1.154126005130279
 30
0.0
 11
0.891388014011099
 21
1.117651005130284
 31
0.0
  0
LINE
  5
161D
330
1606
100
AcDbEntity
  8
41
  6
Continuous
 62
   251
100
AcDbLine
 10
1.179068014011093
 20
0.6395720051302761
 30
0.0
 11
1.131443014011097
 21
0.6665470051302976
 31
0.0
  0
LINE
  5
161E
330
1606
100
AcDbEntity
  8
4
  6
Continuous
 62
   251
100
AcDbLine
 10
21.5006680140111
 20
10.12817400513029
 30
0.0
 11
20.9401920140111
 21
9.787763005130273
 31
0.0
  0
LINE
  5
161F
330
1606
100
AcDbEntity
  8
41
  6
Continuous
 62
   251
100
AcDbLine
 10
10.77686501401109
 20
7.435190005130266
 30
0.0
 11
0.4512570140111052
 21
1.369695005130296
 31
0.0
  0
LINE
  5
1620
330
1606
100
AcDbEntity
  8
41
  6
Continuous
 62
   251
100
AcDbLine
 10
1.155345014011103
 20
1.140079005130274
 30
0.0
 11
2.323846014011095
 21
1.839189005130265
 31
0.0
  0
LINE
  5
1621
330
1606
100
AcDbEntity
  8
41
  6
Continuous
 62
   251
100
AcDbLine
 10
0.6237230140111052
 20
1.294283005130267
 30
0.0
 11
0.6173470140111022
 21
1.315695005130294
 31
0.0
  0
LINE
  5
1622
330
1606
100
AcDbEntity
  8
41
  6
Continuous
 62
   251
100
AcDbLine
 10
1.844751014011094
 20
1.782318005130292
 30
0.0
 11
1.805559014011095
 21
1.844701005130275
 31
0.0
  0
LINE
  5
1623
330
1606
100
AcDbEntity
  8
4
  6
Continuous
 62
   251
100
AcDbLine
 10
13.49044801401111
 20
6.51898700513027
 30
0.0
 11
12.07124901401108
 21
5.664378005130259
 31
0.0
  0
LINE
  5
1624
330
1606
100
AcDbEntity
  8
41
  6
Continuous
 62
   251
100
AcDbLine
 10
0.420243014011092
 20
1.262584005130264
 30
0.0
 11
0.4248910140110951
 21
1.241298005130289
 31
0.0
  0
LINE
  5
1625
330
1606
100
AcDbEntity
  8
41
  6
Continuous
 62
   251
100
AcDbLine
 10
1.760144014011103
 20
1.977568005130279
 30
0.0
 11
1.699768014011098
 21
2.007769005130285
 31
0.0
  0
LINE
  5
1626
330
1606
100
AcDbEntity
  8
41
  6
Continuous
 62
   251
100
AcDbLine
 10
1.316558014011107
 20
0.3978910051302762
 30
0.0
 11
2.501849014011085
 21
1.116584005130278
 31
0.0
  0
LINE
  5
1627
330
1606
100
AcDbEntity
  8
4
  6
Continuous
 62
   251
100
AcDbLine
 10
24.4169440140111
 20
14.69984400513027
 30
0.0
 11
24.68415201401109
 21
13.85359200513028
 31
0.0
  0
LINE
  5
1628
330
1606
100
AcDbEntity
  8
41
  6
Continuous
 62
   251
100
AcDbLine
 10
0.0271270140111
 20
0.9852160051302689
 30
0.0
 11
0.0044450140110968
 21
0.950494005130281
 31
0.0
  0
LINE
  5
1629
330
1606
100
AcDbEntity
  8
41
  6
Continuous
 62
   251
100
AcDbLine
 10
0.1093470140111066
 20
0.7641850051302868
 30
0.0
 11
0.1542040140110998
 21
0.7444240051302984
 31
0.0
  0
LINE
  5
162A
330
1606
100
AcDbEntity
  8
41
  6
Continuous
 62
   251
100
AcDbLine
 10
2.343430014011104
 20
1.764361005130268
 30
0.0
 11
2.338781014011104
 21
1.800784005130282
 31
0.0
  0
LINE
  5
162B
330
1606
100
AcDbEntity
  8
41
  6
Continuous
 62
   251
100
AcDbLine
 10
0.2816100140111075
 20
0.5618230051302931
 30
0.0
 11
0.2831590140111046
 21
0.5295140051302667
 31
0.0
  0
LINE
  5
162C
330
1606
100
AcDbEntity
  8
41
  6
Continuous
 62
   251
100
AcDbLine
 10
0.1708150140110973
 20
0.3071630051302634
 30
0.0
 11
0.1599440140111028
 21
0.2736850051302611
 31
0.0
  0
LINE
  5
162D
330
1606
100
AcDbEntity
  8
4
  6
Continuous
 62
   251
100
AcDbLine
 10
19.13064501401109
 20
9.05159500513028
 30
0.0
 11
17.8011330140111
 21
8.642300005130294
 31
0.0
  0
LINE
  5
162E
330
1606
100
AcDbEntity
  8
41
  6
Continuous
 62
   251
100
AcDbLine
 10
0.3003550140111031
 20
0.1298960051302913
 30
0.0
 11
0.3276350140111077
 21
0.1448060051302775
 31
0.0
  0
LINE
  5
162F
330
1606
100
AcDbEntity
  8
41
  6
Continuous
 62
   251
100
AcDbLine
 10
0.6492750140110957
 20
0.230658005130266
 30
0.0
 11
0.6955540140110941
 21
0.1335790051302581
 31
0.0
  0
LINE
  5
1630
330
1606
100
AcDbEntity
  8
41
  6
Continuous
 62
   251
100
AcDbLine
 10
0.835660014011097
 20
0.0000000051302891
 30
0.0
 11
0.8797290140110902
 21
0.0247150051302754
 31
0.0
  0
LINE
  5
1631
330
1606
100
AcDbEntity
  8
4
  6
Continuous
 62
   251
100
AcDbLine
 10
9.800844014011104
 20
6.874079005130255
 30
0.0
 11
9.953752014011101
 21
7.625461005130262
 31
0.0
  0
LINE
  5
1632
330
1606
100
AcDbEntity
  8
4
  6
Continuous
 62
   251
100
AcDbLine
 10
12.46144301401109
 20
6.246826005130287
 30
0.0
 11
11.9987570140111
 21
5.668899005130299
 31
0.0
  0
LINE
  5
1633
330
1606
100
AcDbEntity
  8
41
  6
Continuous
 62
   251
100
AcDbLine
 10
1.159663014011087
 20
1.079831005130273
 30
0.0
 11
1.170458014011103
 21
1.113282005130258
 31
0.0
  0
LINE
  5
1634
330
1606
100
AcDbEntity
  8
4
  6
Continuous
 62
   251
100
AcDbLine
 10
13.4426200140111
 20
10.05832400513029
 30
0.0
 11
14.7769580140111
 21
11.03879000513027
 31
0.0
  0
LINE
  5
1635
330
1606
100
AcDbEntity
  8
41
  6
Continuous
 62
   251
100
AcDbLine
 10
1.032155014011095
 20
1.25768100513028
 30
0.0
 11
1.003859014011098
 21
1.242441005130274
 31
0.0
  0
LINE
  5
1636
330
1606
100
AcDbEntity
  8
41
  6
Continuous
 62
   251
100
AcDbLine
 10
1.305357014011093
 20
0.5647950051302928
 30
0.0
 11
1.280160014011102
 21
0.5897630051302656
 31
0.0
  0
LINE
  5
1637
330
1606
100
AcDbEntity
  8
4
  6
Continuous
 62
   251
100
AcDbLine
 10
23.66327501401109
 20
11.86360400513027
 30
0.0
 11
22.8952810140111
 21
11.24122800513027
 31
0.0
  0
LINE
  5
1638
330
1606
100
AcDbEntity
  8
41
  6
Continuous
 62
   251
100
AcDbLine
 10
0.7564380140110956
 20
1.099846005130274
 30
0.0
 11
0.6826250140110944
 21
1.156742005130269
 31
0.0
  0
LINE
  5
1639
330
1606
100
AcDbEntity
  8
41
  6
Continuous
 62
   251
100
AcDbLine
 10
1.078611014011102
 20
0.7323590051302631
 30
0.0
 11
1.065835014011099
 21
0.7623560051302718
 31
0.0
  0
LINE
  5
163A
330
1606
100
AcDbEntity
  8
41
  6
Continuous
 62
   251
100
AcDbLine
 10
0.4953510140110922
 20
1.38458000513026
 30
0.0
 11
0.4518920140110936
 21
1.359358005130275
 31
0.0
  0
LINE
  5
163B
330
1606
100
AcDbEntity
  8
4
  6
Continuous
 62
   251
100
AcDbLine
 10
17.8011330140111
 20
8.642300005130294
 30
0.0
 11
16.4825430140111
 21
8.177886005130261
 31
0.0
  0
LINE
  5
163C
330
1606
100
AcDbEntity
  8
41
  6
Continuous
 62
   251
100
AcDbLine
 10
0.5452870140110946
 20
1.38513900513027
 30
0.0
 11
0.4953510140110922
 21
1.38458000513026
 31
0.0
  0
LINE
  5
163D
330
1606
100
AcDbEntity
  8
41
  6
Continuous
 62
   251
100
AcDbLine
 10
2.267839014011087
 20
1.604137005130269
 30
0.0
 11
2.295347014011099
 21
1.642187005130267
 31
0.0
  0
LINE
  5
163E
330
1606
100
AcDbEntity
  8
41
  6
Continuous
 62
   251
100
AcDbLine
 10
0.433654014011097
 20
1.19918500513026
 30
0.0
 11
0.4374390140110905
 21
1.09242900513027
 31
0.0
  0
LINE
  5
163F
330
1606
100
AcDbEntity
  8
41
  6
Continuous
 62
   251
100
AcDbLine
 10
2.333574014011091
 20
1.694130005130261
 30
0.0
 11
2.344242014011101
 21
1.724889005130279
 31
0.0
  0
LINE
  5
1640
330
1606
100
AcDbEntity
  8
41
  6
Continuous
 62
   251
100
AcDbLine
 10
1.90050401401109
 20
2.089176005130298
 30
0.0
 11
1.613764014011096
 21
2.028190005130284
 31
0.0
  0
LINE
  5
1641
330
1606
100
AcDbEntity
  8
41
  6
Continuous
 62
   251
100
AcDbLine
 10
0.0192530140110989
 20
0.9795010051302881
 30
0.0
 11
0.4101590140111
 21
1.220801005130283
 31
0.0
  0
LINE
  5
1642
330
1606
100
AcDbEntity
  8
41
  6
Continuous
 62
   251
100
AcDbLine
 10
0.1467610140111049
 20
1.002564005130267
 30
0.0
 11
0.1144780140110981
 21
1.011860005130273
 31
0.0
  0
LINE
  5
1643
330
1606
100
AcDbEntity
  8
41
  6
Continuous
 62
   251
100
AcDbLine
 10
1.800759014011106
 20
1.870558005130277
 30
0.0
 11
1.798168014011096
 21
1.903324005130286
 31
0.0
  0
LINE
  5
1644
330
1606
100
AcDbEntity
  8
41
  6
Continuous
 62
   251
100
AcDbLine
 10
2.222094014011105
 20
1.441984005130279
 30
0.0
 11
2.218385014011104
 21
1.472159005130265
 31
0.0
  0
LINE
  5
1645
330
1606
100
AcDbEntity
  8
41
  6
Continuous
 62
   251
100
AcDbLine
 10
0.0091700140111044
 20
0.8548120051302703
 30
0.0
 11
0.0256540140110957
 21
0.819785005130285
 31
0.0
  0
LINE
  5
1646
330
1606
100
AcDbEntity
  8
41
  6
Continuous
 62
   251
100
AcDbLine
 10
2.510206014011103
 20
1.368806005130267
 30
0.0
 11
2.404059014011096
 21
1.713180005130283
 31
0.0
  0
LINE
  5
1647
330
1606
100
AcDbEntity
  8
41
  6
Continuous
 62
   251
100
AcDbLine
 10
0.2375660140110938
 20
0.6788920051302796
 30
0.0
 11
0.2529080140110977
 21
0.6524500051302767
 31
0.0
  0
LINE
  5
1648
330
1606
100
AcDbEntity
  8
41
  6
Continuous
 62
   251
100
AcDbLine
 10
0.4247140140111015
 20
1.315492005130295
 30
0.0
 11
0.420243014011092
 21
1.262584005130264
 31
0.0
  0
LINE
  5
1649
330
1606
100
AcDbEntity
  8
41
  6
Continuous
 62
   251
100
AcDbLine
 10
0.2678180140110982
 20
0.4467860051302637
 30
0.0
 11
0.2388110140111053
 21
0.4001520051302805
 31
0.0
  0
LINE
  5
164A
330
1606
100
AcDbEntity
  8
41
  6
Continuous
 62
   251
100
AcDbLine
 10
0.1748540140111032
 20
0.1884430051302956
 30
0.0
 11
0.2022600140111024
 21
0.1457960051302791
 31
0.0
  0
LINE
  5
164B
330
1606
100
AcDbEntity
  8
41
  6
Continuous
 62
   251
100
AcDbLine
 10
2.295347014011099
 20
1.642187005130267
 30
0.0
 11
2.314626014011096
 21
1.665478005130268
 31
0.0
  0
LINE
  5
164C
330
1606
100
AcDbEntity
  8
4
  6
Continuous
 62
   251
100
AcDbLine
 10
22.57719701401111
 20
16.06920900513026
 30
0.0
 11
22.8549710140111
 21
15.99943500513026
 31
0.0
  0
LINE
  5
164D
330
1606
100
AcDbEntity
  8
41
  6
Continuous
 62
   251
100
AcDbLine
 10
0.3720590140111
 20
0.1944880051302675
 30
0.0
 11
0.4035550140111042
 21
0.2331220051302978
 31
0.0
  0
LINE
  5
164E
330
1606
100
AcDbEntity
  8
41
  6
Continuous
 62
   251
100
AcDbLine
 10
0.3978150140111012
 20
1.00589100513028
 30
0.0
 11
0.3202430140110977
 21
0.9569960051302928
 31
0.0
  0
LINE
  5
164F
330
1606
100
AcDbEntity
  8
4
  6
Continuous
 62
   251
100
AcDbLine
 10
24.63104101401111
 20
12.97960400513025
 30
0.0
 11
24.5077490140111
 21
12.68338900513027
 31
0.0
  0
LINE
  5
1650
330
1606
100
AcDbEntity
  8
41
  6
Continuous
 62
   251
100
AcDbLine
 10
0.7072630140110903
 20
0.0927870051302762
 30
0.0
 11
0.7131560140111049
 21
0.0712980051302736
 31
0.0
  0
LINE
  5
1651
330
1606
100
AcDbEntity
  8
4
  6
Continuous
 62
   251
100
AcDbLine
 10
19.3454530140111
 20
14.90469500513029
 30
0.0
 11
20.3689460140111
 21
15.35262400513028
 31
0.0
  0
LINE
  5
1652
330
1606
100
AcDbEntity
  8
41
  6
Continuous
 62
   251
100
AcDbLine
 10
0.9113520140111006
 20
0.1195840051302639
 30
0.0
 11
0.9068560140110974
 21
0.1425450051302732
 31
0.0
  0
LINE
  5
1653
330
1606
100
AcDbEntity
  8
4
  6
Continuous
 62
   251
100
AcDbLine
 10
11.8119910140111
 20
8.274431005130281
 30
0.0
 11
12.35235001401109
 21
7.768387005130279
 31
0.0
  0
LINE
  5
1654
330
1606
100
AcDbEntity
  8
41
  6
Continuous
 62
   251
100
AcDbLine
 10
1.064032014011104
 20
0.9405620051302889
 30
0.0
 11
1.093546014011096
 21
0.9873490051302837
 31
0.0
  0
LINE
  5
1655
330
1606
100
AcDbEntity
  8
41
  6
Continuous
 62
   251
100
AcDbLine
 10
0.8408670140110956
 20
0.0144780051302576
 30
0.0
 11
11.46736401401109
 21
6.302579005130269
 31
0.0
  0
LINE
  5
1656
330
1606
100
AcDbEntity
  8
4
  6
Continuous
 62
   251
100
AcDbLine
 10
10.7380030140111
 20
5.502631005130268
 30
0.0
 11
10.4763570140111
 21
5.63659100513027
 31
0.0
  0
LINE
  5
1657
330
1606
100
AcDbEntity
  8
41
  6
Continuous
 62
   251
100
AcDbLine
 10
1.156462014011097
 20
1.198753005130271
 30
0.0
 11
1.128167014011097
 21
1.241197005130288
 31
0.0
  0
LINE
  5
1658
330
1606
100
AcDbEntity
  8
41
  6
Continuous
 62
   251
100
AcDbLine
 10
1.3052810140111
 20
0.3979170051302674
 30
0.0
 11
1.326566014011092
 21
0.4340860051302684
 31
0.0
  0
LINE
  5
1659
330
1606
100
AcDbEntity
  8
41
  6
Continuous
 62
   251
100
AcDbLine
 10
0.6173470140111022
 20
1.315695005130294
 30
0.0
 11
0.5898140140110968
 21
1.360297005130291
 31
0.0
  0
LINE
  5
165A
330
1606
100
AcDbEntity
  8
41
  6
Continuous
 62
   251
100
AcDbLine
 10
0.9584440140110928
 20
1.192480005130278
 30
0.0
 11
0.9278370140110894
 21
1.154126005130279
 31
0.0
  0
LINE
  5
165B
330
1606
100
AcDbEntity
  8
41
  6
Continuous
 62
   251
100
AcDbLine
 10
1.223645014011097
 20
0.6208780051302654
 30
0.0
 11
1.179068014011093
 21
0.6395720051302761
 31
0.0
  0
LINE
  5
165C
330
1606
100
AcDbEntity
  8
4
  6
Continuous
 62
   251
100
AcDbLine
 10
20.9401920140111
 20
9.787763005130273
 30
0.0
 11
20.3733660140111
 21
9.508084005130285
 31
0.0
  0
LINE
  5
165D
330
1606
100
AcDbEntity
  8
41
  6
Continuous
 62
   251
100
AcDbLine
 10
0.6308850140110991
 20
1.273683005130266
 30
0.0
 11
0.6237230140111052
 21
1.294283005130267
 31
0.0
  0
LINE
  5
165E
330
1606
100
AcDbEntity
  8
41
  6
Continuous
 62
   251
100
AcDbLine
 10
1.986153014011094
 20
1.705280005130276
 30
0.0
 11
1.912544014011103
 21
1.736852005130288
 31
0.0
  0
LINE
  5
165F
330
1606
100
AcDbEntity
  8
41
  6
Continuous
 62
   251
100
AcDbLine
 10
0.3202430140110977
 20
0.9569960051302928
 30
0.0
 11
0.2707130140110934
 21
0.9560560051302786
 31
0.0
  0
LINE
  5
1660
330
1606
100
AcDbEntity
  8
41
  6
Continuous
 62
   251
100
AcDbLine
 10
1.793367014011096
 20
1.92918100513026
 30
0.0
 11
1.760144014011103
 21
1.977568005130279
 31
0.0
  0
LINE
  5
1661
330
1606
100
AcDbEntity
  8
41
  6
Continuous
 62
   251
100
AcDbLine
 10
2.2388580140111
 20
1.377976005130278
 30
0.0
 11
2.232559014011101
 21
1.412291005130271
 31
0.0
  0
LINE
  5
1662
330
1606
100
AcDbEntity
  8
41
  6
Continuous
 62
   251
100
AcDbLine
 10
0.0544830140110975
 20
1.002869005130293
 30
0.0
 11
0.0271270140111
 21
0.9852160051302689
 31
0.0
  0
LINE
  5
1663
330
1606
100
AcDbEntity
  8
41
  6
Continuous
 62
   251
100
AcDbLine
 10
0.0814070140111056
 20
0.7764020051302794
 30
0.0
 11
0.1093470140111066
 21
0.7641850051302868
 31
0.0
  0
LINE
  5
1664
330
1606
100
AcDbEntity
  8
41
  6
Continuous
 62
   251
100
AcDbLine
 10
2.3971510140111
 20
1.241298005130289
 30
0.0
 11
2.353463014011097
 21
1.258875005130278
 31
0.0
  0
LINE
  5
1665
330
1606
100
AcDbEntity
  8
41
  6
Continuous
 62
   251
100
AcDbLine
 10
0.2739650140110967
 20
0.5931920051302769
 30
0.0
 11
0.2816100140111075
 21
0.5618230051302931
 31
0.0
  0
LINE
  5
1666
330
1606
100
AcDbEntity
  8
41
  6
Continuous
 62
   251
100
AcDbLine
 10
0.1894330140111009
 20
0.3369820051302668
 30
0.0
 11
0.1708150140110973
 21
0.3071630051302634
 31
0.0
  0
LINE
  5
1667
330
1606
100
AcDbEntity
  8
41
  6
Continuous
 62
   251
100
AcDbLine
 10
0.2706630140110917
 20
0.1237750051302839
 30
0.0
 11
0.3003550140111031
 21
0.1298960051302913
 31
0.0
  0
LINE
  5
1668
330
1606
100
AcDbEntity
  8
4
  6
Continuous
 62
   251
100
AcDbLine
 10
11.01999301401109
 20
5.425390005130282
 30
0.0
 11
10.7380030140111
 21
5.502631005130268
 31
0.0
  0
LINE
  5
1669
330
1606
100
AcDbEntity
  8
41
  6
Continuous
 62
   251
100
AcDbLine
 10
0.5744720140111071
 20
0.2873000051302767
 30
0.0
 11
0.6492750140110957
 21
0.230658005130266
 31
0.0
  0
LINE
  5
166A
330
1606
100
AcDbEntity
  8
4
  6
Continuous
 62
   251
100
AcDbLine
 10
17.7207670140111
 20
13.92778600513028
 30
0.0
 11
18.2219600140111
 21
14.2969490051303
 31
0.0
  0
LINE
  5
166B
330
1606
100
AcDbEntity
  8
41
  6
Continuous
 62
   251
100
AcDbLine
 10
0.7857490140110884
 20
0.0012450051302721
 30
0.0
 11
0.835660014011097
 21
0.0000000051302891
 31
0.0
  0
LINE
  5
166C
330
1606
100
AcDbEntity
  8
4
  6
Continuous
 62
   251
100
AcDbLine
 10
9.953752014011101
 20
7.625461005130262
 30
0.0
 11
10.41786101401111
 21
8.183093005130274
 31
0.0
  0
LINE
  5
166D
330
1606
100
AcDbEntity
  8
41
  6
Continuous
 62
   251
100
AcDbLine
 10
1.058444014011101
 20
0.7942840051302654
 30
0.0
 11
1.050316014011102
 21
0.8255260051302855
 31
0.0
  0
LINE
  5
166E
330
1606
100
AcDbEntity
  8
41
  6
Continuous
 62
   251
100
AcDbLine
 10
1.131443014011097
 20
0.6665470051302976
 30
0.0
 11
1.093445014011095
 21
0.7056890051302674
 31
0.0
  0
LINE
  5
166F
330
1606
100
AcDbEntity
  8
41
  6
Continuous
 62
   251
100
AcDbLine
 10
1.060882014011099
 20
0.4280920051302815
 30
0.0
 11
1.110133014011097
 21
0.4123950051302927
 31
0.0
  0
LINE
  5
1670
330
1606
100
AcDbEntity
  8
41
  6
Continuous
 62
   251
100
AcDbLine
 10
0.9000490140110883
 20
0.1834900051302668
 30
0.0
 11
0.895299014011087
 21
0.2918210051302878
 31
0.0
  0
LINE
  5
1671
330
1606
100
AcDbEntity
  8
4
  6
Continuous
 62
   251
100
AcDbLine
 10
11.9987570140111
 20
5.668899005130299
 30
0.0
 11
11.3095530140111
 21
5.411902005130286
 31
0.0
  0
LINE
  5
1672
330
1606
100
AcDbEntity
  8
41
  6
Continuous
 62
   251
100
AcDbLine
 10
2.4575010140111
 20
1.049579005130254
 30
0.0
 11
2.510206014011103
 21
1.368806005130267
 31
0.0
  0
LINE
  5
1673
330
1606
100
AcDbEntity
  8
41
  6
Continuous
 62
   251
100
AcDbLine
 10
1.185698014011109
 20
0.3805430051302778
 30
0.0
 11
1.2181840140111
 21
0.3706120051302832
 31
0.0
  0
LINE
  5
1674
330
1606
100
AcDbEntity
  8
4
  6
Continuous
 62
   251
100
AcDbLine
 10
23.90112101401109
 20
15.33060200513029
 30
0.0
 11
24.4169440140111
 21
14.69984400513027
 31
0.0
  0
LINE
  5
1675
330
1606
100
AcDbEntity
  8
41
  6
Continuous
 62
   251
100
AcDbLine
 10
1.322553014011091
 20
0.5287780051302775
 30
0.0
 11
1.305357014011093
 21
0.5647950051302928
 31
0.0
  0
LINE
  5
1676
330
1606
100
AcDbEntity
  8
4
  6
Continuous
 62
   251
100
AcDbLine
 10
22.8952810140111
 20
11.24122800513027
 30
0.0
 11
21.9956640140111
 21
10.50780300513025
 31
0.0
  0
LINE
  5
1677
330
1606
100
AcDbEntity
  8
41
  6
Continuous
 62
   251
100
AcDbLine
 10
0.846760014011096
 20
1.094486005130278
 30
0.0
 11
0.7564380140110956
 21
1.099846005130274
 31
0.0
  0
LINE
  5
1678
330
1606
100
AcDbEntity
  8
41
  6
Continuous
 62
   251
100
AcDbLine
 10
1.093445014011095
 20
0.7056890051302674
 30
0.0
 11
1.078611014011102
 21
0.7323590051302631
 31
0.0
  0
LINE
  5
1679
330
1606
100
AcDbEntity
  8
4
  6
Continuous
 62
   251
100
AcDbLine
 10
16.4825430140111
 20
8.177886005130261
 30
0.0
 11
15.00505001401109
 21
7.439965005130289
 31
0.0
  0
LINE
  5
167A
330
1606
100
AcDbEntity
  8
41
  6
Continuous
 62
   251
100
AcDbLine
 10
0.5898140140110968
 20
1.360297005130291
 30
0.0
 11
0.5452870140110946
 21
1.38513900513027
 31
0.0
  0
LINE
  5
167B
330
1606
100
AcDbEntity
  8
41
  6
Continuous
 62
   251
100
AcDbLine
 10
2.344242014011101
 20
1.724889005130279
 30
0.0
 11
2.343430014011104
 21
1.764361005130268
 31
0.0
  0
LINE
  5
167C
330
1606
100
AcDbEntity
  8
41
  6
Continuous
 62
   251
100
AcDbLine
 10
0.4289550140110947
 20
1.220470005130295
 30
0.0
 11
0.433654014011097
 21
1.19918500513026
 31
0.0
  0
LINE
  5
167D
330
1606
100
AcDbEntity
  8
41
  6
Continuous
 62
   251
100
AcDbLine
 10
2.404059014011096
 20
1.713180005130283
 30
0.0
 11
2.179295014011103
 21
1.977619005130293
 31
0.0
  0
LINE
  5
167E
330
1606
100
AcDbEntity
  8
41
  6
Continuous
 62
   251
100
AcDbLine
 10
0.1759460140111031
 20
0.991896005130286
 30
0.0
 11
0.1467610140111049
 21
1.002564005130267
 31
0.0
  0
LINE
  5
167F
330
1606
100
AcDbEntity
  8
41
  6
Continuous
 62
   251
100
AcDbLine
 10
1.798168014011096
 20
1.903324005130286
 30
0.0
 11
1.793367014011096
 21
1.92918100513026
 31
0.0
  0
LINE
  5
1680
330
1606
100
AcDbEntity
  8
41
  6
Continuous
 62
   251
100
AcDbLine
 10
0.0000000140110927
 20
0.8997450051302848
 30
0.0
 11
0.0091700140111044
 21
0.8548120051302703
 31
0.0
  0
LINE
  5
1681
330
1606
100
AcDbEntity
  8
41
  6
Continuous
 62
   251
100
AcDbLine
 10
0.895299014011087
 20
0.2918210051302878
 30
0.0
 11
0.9337550140110977
 21
0.3787140051302913
 31
0.0
  0
LINE
  5
1682
330
1606
100
AcDbEntity
  8
41
  6
Continuous
 62
   251
100
AcDbLine
 10
0.2011940140110937
 20
0.717855005130275
 30
0.0
 11
0.2375660140110938
 21
0.6788920051302796
 31
0.0
  0
LINE
  5
1683
330
1606
100
AcDbEntity
  8
41
  6
Continuous
 62
   251
100
AcDbLine
 10
0.2821430140110976
 20
0.4976880051302715
 30
0.0
 11
0.2678180140110982
 21
0.4467860051302637
 31
0.0
  0
LINE
  5
1684
330
1606
100
AcDbEntity
  8
41
  6
Continuous
 62
   251
100
AcDbLine
 10
0.1620270140111017
 20
0.2330960051302782
 30
0.0
 11
0.1748540140111032
 21
0.1884430051302956
 31
0.0
  0
LINE
  5
1685
330
1606
100
AcDbEntity
  8
4
  6
Continuous
 62
   251
100
AcDbLine
 10
22.8549710140111
 20
15.99943500513026
 30
0.0
 11
23.1127560140111
 21
15.87639700513028
 31
0.0
  0
LINE
  5
1686
330
1606
100
AcDbEntity
  8
4
  6
Continuous
 62
   251
100
AcDbLine
 10
14.7769580140111
 20
11.03879000513027
 30
0.0
 11
15.7877260140111
 21
12.01341300513027
 31
0.0
  0
LINE
  5
1687
330
1606
100
AcDbEntity
  8
41
  6
Continuous
 62
   251
100
AcDbLine
 10
0.7010400140110989
 20
0.1136910051302777
 30
0.0
 11
0.7072630140110903
 21
0.0927870051302762
 31
0.0
  0
LINE
  5
1688
330
1606
100
AcDbEntity
  8
41
  6
Continuous
 62
   251
100
AcDbLine
 10
0.4035550140111042
 20
0.2331220051302978
 30
0.0
 11
0.4395470140110973
 21
0.2694690051302757
 31
0.0
  0
LINE
  5
1689
330
1606
100
AcDbEntity
  8
4
  6
Continuous
 62
   251
100
AcDbLine
 10
20.3689460140111
 20
15.35262400513028
 30
0.0
 11
21.2048350140111
 21
15.73476700513029
 31
0.0
  0
LINE
  5
168A
330
1606
100
AcDbEntity
  8
41
  6
Continuous
 62
   251
100
AcDbLine
 10
0.9076180140110921
 20
0.0675390051302713
 30
0.0
 11
0.9113520140111006
 21
0.1195840051302639
 31
0.0
  0
LINE
  5
168B
330
1606
100
AcDbEntity
  8
4
  6
Continuous
 62
   251
100
AcDbLine
 10
12.35235001401109
 20
7.768387005130279
 30
0.0
 11
12.5980450140111
 21
7.021297005130293
 31
0.0
  0
LINE
  5
168C
330
1606
100
AcDbEntity
  8
41
  6
Continuous
 62
   251
100
AcDbLine
 10
1.048258014011096
 20
0.8892800051302742
 30
0.0
 11
1.064032014011104
 21
0.9405620051302889
 31
0.0
  0
LINE
  5
168D
330
1606
100
AcDbEntity
  8
41
  6
Continuous
 62
   251
100
AcDbLine
 10
1.0107420140111
 20
0.4275840051302851
 30
0.0
 11
1.060882014011099
 21
0.4280920051302815
 31
0.0
  0
LINE
  5
168E
330
1606
100
AcDbEntity
  8
41
  6
Continuous
 62
   251
100
AcDbLine
 10
0.3516380140110868
 20
0.1692410051302886
 30
0.0
 11
0.3720590140111
 21
0.1944880051302675
 31
0.0
  0
LINE
  5
168F
330
1606
100
AcDbEntity
  8
4
  6
Continuous
 62
   251
100
AcDbLine
 10
10.5358440140111
 20
8.22078700513029
 30
0.0
 11
11.9404640140111
 21
9.116518005130274
 31
0.0
  0
LINE
  5
1690
330
1606
100
AcDbEntity
  8
41
  6
Continuous
 62
   251
100
AcDbLine
 10
1.168832014011101
 20
1.153973005130296
 30
0.0
 11
1.156462014011097
 21
1.198753005130271
 31
0.0
  0
LINE
  5
1691
330
1606
100
AcDbEntity
  8
41
  6
Continuous
 62
   251
100
AcDbLine
 10
1.278154014011093
 20
0.3796290051302549
 30
0.0
 11
1.3052810140111
 21
0.3979170051302674
 31
0.0
  0
LINE
  5
1692
330
1606
100
AcDbEntity
  8
41
  6
Continuous
 62
   251
100
AcDbLine
 10
1.141578014011102
 20
1.050163005130286
 30
0.0
 11
1.159663014011087
 21
1.079831005130273
 31
0.0
  0
LINE
  5
1693
330
1606
100
AcDbEntity
  8
41
  6
Continuous
 62
   251
100
AcDbLine
 10
0.9798050140110916
 20
1.217981005130269
 30
0.0
 11
0.9584440140110928
 21
1.192480005130278
 31
0.0
  0
LINE
  5
1694
330
1606
100
AcDbEntity
  8
41
  6
Continuous
 62
   251
100
AcDbLine
 10
1.250188014011087
 20
0.6083300051302559
 30
0.0
 11
1.223645014011097
 21
0.6208780051302654
 31
0.0
  0
LINE
  5
1695
330
1606
100
AcDbEntity
  8
41
  6
Continuous
 62
   251
100
AcDbLine
 10
0.6368540140110924
 20
1.253897005130284
 30
0.0
 11
0.6308850140110991
 21
1.273683005130266
 31
0.0
  0
LINE
  5
1696
330
1606
100
AcDbEntity
  8
4
  6
Continuous
 62
   251
100
AcDbLine
 10
20.3733660140111
 20
9.508084005130285
 30
0.0
 11
19.13064501401109
 21
9.05159500513028
 31
0.0
  0
LINE
  5
1697
330
1606
100
AcDbEntity
  8
41
  6
Continuous
 62
   251
100
AcDbLine
 10
11.37206301401109
 20
7.411517005130292
 30
0.0
 11
11.0887770140111
 21
7.497496005130273
 31
0.0
  0
LINE
  5
1698
330
1606
100
AcDbEntity
  8
41
  6
Continuous
 62
   251
100
AcDbLine
 10
1.912544014011103
 20
1.736852005130288
 30
0.0
 11
1.844751014011094
 21
1.782318005130292
 31
0.0
  0
LINE
  5
1699
330
1606
100
AcDbEntity
  8
41
  6
Continuous
 62
   251
100
AcDbLine
 10
0.4518920140110936
 20
1.359358005130275
 30
0.0
 11
0.4247140140111015
 21
1.315492005130295
 31
0.0
  0
LINE
  5
169A
330
1606
100
AcDbEntity
  8
41
  6
Continuous
 62
   251
100
AcDbLine
 10
2.25445301401109
 20
0.8251960051302944
 30
0.0
 11
2.4575010140111
 21
1.049579005130254
 31
0.0
  0
LINE
  5
169B
330
1606
100
AcDbEntity
  8
41
  6
Continuous
 62
   251
100
AcDbLine
 10
2.501545014011099
 20
1.145185005130286
 30
0.0
 11
2.469566014011093
 21
1.181913005130269
 31
0.0
  0
LINE
  5
169C
330
1606
100
AcDbEntity
  8
41
  6
Continuous
 62
   251
100
AcDbLine
 10
2.306625014011089
 20
1.283056005130276
 30
0.0
 11
2.269846014011108
 21
1.317397005130288
 31
0.0
  0
LINE
  5
169D
330
1606
100
AcDbEntity
  8
41
  6
Continuous
 62
   251
100
AcDbLine
 10
2.251685014011101
 20
1.346835005130287
 30
0.0
 11
2.2388580140111
 21
1.377976005130278
 31
0.0
  0
LINE
  5
169E
330
1606
100
AcDbEntity
  8
41
  6
Continuous
 62
   251
100
AcDbLine
 10
0.0835660140110974
 20
1.011784005130266
 30
0.0
 11
0.0544830140110975
 21
1.002869005130293
 31
0.0
  0
LINE
  5
169F
330
1606
100
AcDbEntity
  8
41
  6
Continuous
 62
   251
100
AcDbLine
 10
11.46736401401109
 20
6.302579005130269
 30
0.0
 11
11.66573801401109
 21
6.538697005130273
 31
0.0
  0
LINE
  5
16A0
330
1606
100
AcDbEntity
  8
41
  6
Continuous
 62
   251
100
AcDbLine
 10
2.469566014011093
 20
1.181913005130269
 30
0.0
 11
2.4282660140111
 21
1.216635005130285
 31
0.0
  0
LINE
  5
16A1
330
1606
100
AcDbEntity
  8
41
  6
Continuous
 62
   251
100
AcDbLine
 10
0.0509270140110942
 20
0.7948430051302751
 30
0.0
 11
0.0814070140111056
 21
0.7764020051302794
 31
0.0
  0
LINE
  5
16A2
330
1606
100
AcDbEntity
  8
41
  6
Continuous
 62
   251
100
AcDbLine
 10
0.2664720140111001
 20
0.6232910051302838
 30
0.0
 11
0.2739650140110967
 21
0.5931920051302769
 31
0.0
  0
LINE
  5
16A3
330
1606
100
AcDbEntity
  8
41
  6
Continuous
 62
   251
100
AcDbLine
 10
0.2085600140110984
 20
0.360579005130262
 30
0.0
 11
0.1894330140111009
 21
0.3369820051302668
 31
0.0
  0
LINE
  5
16A4
330
1606
100
AcDbEntity
  8
41
  6
Continuous
 62
   251
100
AcDbLine
 10
0.2383540140110938
 20
0.1261110051302694
 30
0.0
 11
0.2706630140110917
 21
0.1237750051302839
 31
0.0
  0
LINE
  5
16A5
330
1606
100
AcDbEntity
  8
4
  6
Continuous
 62
   251
100
AcDbLine
 10
24.68415201401109
 20
13.85359200513028
 30
0.0
 11
24.72154101401109
 21
13.34399200513027
 31
0.0
  0
LINE
  5
16A6
330
1606
100
AcDbEntity
  8
41
  6
Continuous
 62
   251
100
AcDbLine
 10
1.280160014011102
 20
0.5897630051302656
 30
0.0
 11
1.250188014011087
 21
0.6083300051302559
 31
0.0
  0
LINE
  5
16A7
330
1606
100
AcDbEntity
  8
41
  6
Continuous
 62
   251
100
AcDbLine
 10
0.4836670140111039
 20
0.29248100513027
 30
0.0
 11
0.5744720140111071
 21
0.2873000051302767
 31
0.0
  0
LINE
  5
16A8
330
1606
100
AcDbEntity
  8
41
  6
Continuous
 62
   251
100
AcDbLine
 10
1.2181840140111
 20
0.3706120051302832
 30
0.0
 11
1.250163014011093
 21
0.3707900051302886
 31
0.0
  0
LINE
  5
16A9
330
1606
100
AcDbEntity
  8
4
  6
Continuous
 62
   251
100
AcDbLine
 10
18.2219600140111
 20
14.2969490051303
 30
0.0
 11
18.7724040140111
 21
14.63545500513027
 31
0.0
  0
LINE
  5
16AA
330
1606
100
AcDbEntity
  8
41
  6
Continuous
 62
   251
100
AcDbLine
 10
0.7415280140110952
 20
0.0268230051302965
 30
0.0
 11
0.7857490140110884
 21
0.0012450051302721
 31
0.0
  0
LINE
  5
16AB
330
1606
100
AcDbEntity
  8
41
  6
Continuous
 62
   251
100
AcDbLine
 10
2.353463014011097
 20
1.258875005130278
 30
0.0
 11
2.306625014011089
 21
1.283056005130276
 31
0.0
  0
LINE
  5
16AC
330
1606
100
AcDbEntity
  8
4
  6
Continuous
 62
   251
100
AcDbLine
 10
10.41786101401111
 20
8.183093005130274
 30
0.0
 11
11.0931450140111
 21
8.430591005130281
 31
0.0
  0
LINE
  5
16AD
330
1606
100
AcDbEntity
  8
41
  6
Continuous
 62
   251
100
AcDbLine
 10
0.9037580140111032
 20
0.1636530051302714
 30
0.0
 11
0.9000490140110883
 21
0.1834900051302668
 31
0.0
  0
LINE
  5
16AE
330
1606
100
AcDbEntity
  8
41
  6
Continuous
 62
   251
100
AcDbLine
 10
1.123849014011085
 20
1.02689700513028
 30
0.0
 11
1.141578014011102
 21
1.050163005130286
 31
0.0
  0
LINE
  5
16AF
330
1606
100
AcDbEntity
  8
4
  6
Continuous
 62
   251
100
AcDbLine
 10
11.3095530140111
 20
5.411902005130286
 30
0.0
 11
11.01999301401109
 21
5.425390005130282
 31
0.0
  0
LINE
  5
16B0
330
1606
100
AcDbEntity
  8
41
  6
Continuous
 62
   251
100
AcDbLine
 10
1.1550650140111
 20
0.3926840051302633
 30
0.0
 11
1.185698014011109
 21
0.3805430051302778
 31
0.0
  0
LINE
  5
16B1
330
1606
100
AcDbEntity
  8
41
  6
Continuous
 62
   251
100
AcDbLine
 10
1.093089014011098
 20
1.261110005130262
 30
0.0
 11
1.060882014011099
 21
1.263498005130287
 31
0.0
  0
LINE
  5
16B2
330
1606
100
AcDbEntity
  8
41
  6
Continuous
 62
   251
100
AcDbLine
 10
1.332078014011102
 20
0.4845050051302735
 30
0.0
 11
1.322553014011091
 21
0.5287780051302775
 31
0.0
  0
LINE
  5
16B3
330
1606
100
AcDbEntity
  8
41
  6
Continuous
 62
   251
100
AcDbLine
 10
1.060882014011099
 20
1.263498005130287
 30
0.0
 11
1.032155014011095
 21
1.25768100513028
 31
0.0
  0
LINE
  5
16B4
330
1606
100
AcDbEntity
  8
41
  6
Continuous
 62
   251
100
AcDbLine
 10
0.891388014011099
 20
1.117651005130284
 30
0.0
 11
0.846760014011096
 21
1.094486005130278
 31
0.0
  0
LINE
  5
16B5
330
1606
100
AcDbEntity
  8
4
  6
Continuous
 62
   251
100
AcDbLine
 10
21.9956640140111
 20
10.50780300513025
 30
0.0
 11
21.5006680140111
 21
10.12817400513029
 31
0.0
  0
LINE
  5
16B6
330
1606
100
AcDbEntity
  8
41
  6
Continuous
 62
   251
100
AcDbLine
 10
11.0887770140111
 20
7.497496005130273
 30
0.0
 11
10.77686501401109
 21
7.435190005130266
 31
0.0
  0
LINE
  5
16B7
330
1606
100
AcDbEntity
  8
41
  6
Continuous
 62
   251
100
AcDbLine
 10
11.5870480140111
 20
7.182485005130274
 30
0.0
 11
11.37206301401109
 21
7.411517005130292
 31
0.0
  0
LINE
  5
16B8
330
1606
100
AcDbEntity
  8
41
  6
Continuous
 62
   251
100
AcDbLine
 10
11.6956080140111
 20
6.858788005130264
 30
0.0
 11
11.5870480140111
 21
7.182485005130274
 31
0.0
  0
LINE
  5
16B9
330
1606
100
AcDbEntity
  8
41
  6
Continuous
 62
   251
100
AcDbLine
 10
11.66573801401109
 20
6.538697005130273
 30
0.0
 11
11.6956080140111
 21
6.858788005130264
 31
0.0
  0
LINE
  5
16BA
330
1606
100
AcDbEntity
  8
41
  6
Continuous
 62
   251
100
AcDbLine
 10
2.338781014011104
 20
1.800784005130282
 30
0.0
 11
2.317750014011096
 21
1.838783005130267
 31
0.0
  0
LINE
  5
16BB
330
1606
100
AcDbEntity
  8
4
  6
Continuous
 62
   251
100
AcDbLine
 10
15.00505001401109
 20
7.439965005130289
 30
0.0
 11
13.49044801401111
 21
6.51898700513027
 31
0.0
  0
LINE
  5
16BC
330
1606
100
AcDbEntity
  8
41
  6
Continuous
 62
   251
100
AcDbLine
 10
2.220062014011091
 20
1.502791005130291
 30
0.0
 11
2.23829901401109
 21
1.556436005130279
 31
0.0
  0
LINE
  5
16BD
330
1606
100
AcDbEntity
  8
41
  6
Continuous
 62
   251
100
AcDbLine
 10
0.4248910140110951
 20
1.241298005130289
 30
0.0
 11
0.4289550140110947
 21
1.220470005130295
 31
0.0
  0
LINE
  5
16BE
330
1606
100
AcDbEntity
  8
41
  6
Continuous
 62
   251
100
AcDbLine
 10
2.179295014011103
 20
1.977619005130293
 30
0.0
 11
1.90050401401109
 21
2.089176005130298
 31
0.0
  0
LINE
  5
16BF
330
1606
100
AcDbEntity
  8
41
  6
Continuous
 62
   251
100
AcDbLine
 10
0.2220220140111024
 20
0.9713470051302977
 30
0.0
 11
0.1759460140111031
 21
0.991896005130286
 31
0.0
  0
LINE
  5
16C0
330
1606
100
AcDbEntity
  8
41
  6
Continuous
 62
   251
100
AcDbLine
 10
1.699768014011098
 20
2.007769005130285
 30
0.0
 11
1.6413480140111
 21
2.0096990051303
 31
0.0
  0
LINE
  5
16C1
330
1606
100
AcDbEntity
  8
41
  6
Continuous
 62
   251
100
AcDbLine
 10
2.4282660140111
 20
1.216635005130285
 30
0.0
 11
2.3971510140111
 21
1.241298005130289
 31
0.0
  0
LINE
  5
16C2
330
1606
100
AcDbEntity
  8
41
  6
Continuous
 62
   251
100
AcDbLine
 10
1.103351014011096
 20
1.185088005130268
 30
0.0
 11
2.284451014011096
 21
1.879092005130274
 31
0.0
  0
LINE
  5
16C3
330
1606
100
AcDbEntity
  8
41
  6
Continuous
 62
   251
100
AcDbLine
 10
0.0044450140110968
 20
0.950494005130281
 30
0.0
 11
0.0000000140110927
 21
0.8997450051302848
 31
0.0
  0
LINE
  5
16C4
330
1606
100
AcDbEntity
  8
41
  6
Continuous
 62
   251
100
AcDbLine
 10
1.250163014011093
 20
0.3707900051302886
 30
0.0
 11
1.278154014011093
 21
0.3796290051302549
 31
0.0
  0
LINE
  5
16C5
330
1606
100
AcDbEntity
  8
41
  6
Continuous
 62
   251
100
AcDbLine
 10
2.314626014011096
 20
1.665478005130268
 30
0.0
 11
2.333574014011091
 21
1.694130005130261
 31
0.0
  0
LINE
  5
16C6
330
1606
100
AcDbEntity
  8
41
  6
Continuous
 62
   251
100
AcDbLine
 10
0.1542040140110998
 20
0.7444240051302984
 30
0.0
 11
0.2011940140110937
 21
0.717855005130275
 31
0.0
  0
LINE
  5
16C7
330
1606
100
AcDbEntity
  8
4
  6
Continuous
 62
   251
100
AcDbLine
 10
16.7491920140111
 20
13.01869400513027
 30
0.0
 11
17.7207670140111
 21
13.92778600513028
 31
0.0
  0
LINE
  5
16C8
330
1606
100
AcDbEntity
  8
41
  6
Continuous
 62
   251
100
AcDbLine
 10
0.2831590140111046
 20
0.5295140051302667
 30
0.0
 11
0.2821430140110976
 21
0.4976880051302715
 31
0.0
  0
LINE
  5
16C9
330
1606
100
AcDbEntity
  8
41
  6
Continuous
 62
   251
100
AcDbLine
 10
0.1599440140111028
 20
0.2736850051302611
 30
0.0
 11
0.1620270140111017
 21
0.2330960051302782
 31
0.0
  0
LINE
  5
16CA
330
1606
100
AcDbEntity
  8
41
  6
Continuous
 62
   251
100
AcDbLine
 10
0.3276350140111077
 20
0.1448060051302775
 30
0.0
 11
0.3516380140110868
 21
0.1692410051302886
 31
0.0
  0
LINE
  5
16CB
330
1606
100
AcDbEntity
  8
4
  6
Continuous
 62
   251
100
AcDbLine
 10
23.1127560140111
 20
15.87639700513028
 30
0.0
 11
23.90112101401109
 21
15.33060200513029
 31
0.0
  0
LINE
  5
16CC
330
1606
100
AcDbEntity
  8
41
  6
Continuous
 62
   251
100
AcDbLine
 10
0.6955540140110941
 20
0.1335790051302581
 30
0.0
 11
0.7010400140110989
 21
0.1136910051302777
 31
0.0
  0
LINE
  5
16CD
330
1606
100
AcDbEntity
  8
4
  6
Continuous
 62
   251
100
AcDbLine
 10
15.7877260140111
 20
12.01341300513027
 30
0.0
 11
16.7491920140111
 21
13.01869400513027
 31
0.0
  0
LINE
  5
16CE
330
1606
100
AcDbEntity
  8
41
  6
Continuous
 62
   251
100
AcDbLine
 10
2.232559014011101
 20
1.412291005130271
 30
0.0
 11
2.222094014011105
 21
1.441984005130279
 31
0.0
  0
LINE
  5
16CF
330
1606
100
AcDbEntity
  8
41
  6
Continuous
 62
   251
100
AcDbLine
 10
2.23829901401109
 20
1.556436005130279
 30
0.0
 11
2.267839014011087
 21
1.604137005130269
 31
0.0
  0
LINE
  5
16D0
330
1606
100
AcDbEntity
  8
41
  6
Continuous
 62
   251
100
AcDbLine
 10
0.8797290140110902
 20
0.0247150051302754
 30
0.0
 11
0.9076180140110921
 21
0.0675390051302713
 31
0.0
  0
LINE
  5
16D1
330
1606
100
AcDbEntity
  8
4
  6
Continuous
 62
   251
100
AcDbLine
 10
21.2048350140111
 20
15.73476700513029
 30
0.0
 11
22.2818450140111
 21
16.1116010051303
 31
0.0
  0
LINE
  5
16D2
330
1606
100
AcDbEntity
  8
41
  6
Continuous
 62
   251
100
AcDbLine
 10
1.047801014011099
 20
0.8576060051302647
 30
0.0
 11
1.048258014011096
 21
0.8892800051302742
 31
0.0
  0
LINE
  5
16D3
330
1606
100
AcDbEntity
  8
4
  6
Continuous
 62
   251
100
AcDbLine
 10
12.5980450140111
 20
7.021297005130293
 30
0.0
 11
12.46144301401109
 21
6.246826005130287
 31
0.0
  0
LINE
  5
16D4
330
1606
100
AcDbEntity
  8
41
  6
Continuous
 62
   251
100
AcDbLine
 10
0.9337550140110977
 20
0.3787140051302913
 30
0.0
 11
1.0107420140111
 21
0.4275840051302851
 31
0.0
  0
LINE
  5
16D5
330
1606
100
AcDbEntity
  8
41
  6
Continuous
 62
   251
100
AcDbLine
 10
0.3150620140110902
 20
0.0906780051302576
 30
0.0
 11
0.5718560140111038
 21
0.2492000051302909
 31
0.0
  0
LINE
  5
16D6
330
1606
100
AcDbEntity
  8
41
  6
Continuous
 62
   251
100
AcDbLine
 10
1.170458014011103
 20
1.113282005130258
 30
0.0
 11
1.168832014011101
 21
1.153973005130296
 31
0.0
  0
LINE
  5
16D7
330
1606
100
AcDbEntity
  8
4
  6
Continuous
 62
   251
100
AcDbLine
 10
11.9404640140111
 20
9.116518005130274
 30
0.0
 11
13.4426200140111
 21
10.05832400513029
 31
0.0
  0
LINE
  5
16D8
330
1606
100
AcDbEntity
  8
41
  6
Continuous
 62
   251
100
AcDbLine
 10
1.003859014011098
 20
1.242441005130274
 30
0.0
 11
0.9798050140110916
 21
1.217981005130269
 31
0.0
  0
LINE
  5
16D9
330
1606
100
AcDbEntity
  8
41
  6
Continuous
 62
   251
100
AcDbLine
 10
1.050316014011102
 20
0.8255260051302855
 30
0.0
 11
1.047801014011099
 21
0.8576060051302647
 31
0.0
  0
LINE
  5
16DA
330
1606
100
AcDbEntity
  8
4
  6
Continuous
 62
   251
100
AcDbLine
 10
24.5077490140111
 20
12.68338900513027
 30
0.0
 11
23.66327501401109
 21
11.86360400513027
 31
0.0
  0
LINE
  5
16DB
330
1606
100
AcDbEntity
  8
41
  6
Continuous
 62
   251
100
AcDbLine
 10
0.6826250140110944
 20
1.156742005130269
 30
0.0
 11
0.6368540140110924
 21
1.253897005130284
 31
0.0
  0
LINE
  5
16DC
330
1606
100
AcDbEntity
  8
41
  6
Continuous
 62
   251
100
AcDbLine
 10
1.065835014011099
 20
0.7623560051302718
 30
0.0
 11
1.058444014011101
 21
0.7942840051302654
 31
0.0
  0
LINE
  5
16DD
330
1606
100
AcDbEntity
  8
41
  6
Continuous
 62
   251
100
AcDbLine
 10
1.329055014011103
 20
0.477978005130268
 30
0.0
 11
2.521357014011101
 21
1.184987005130267
 31
0.0
  0
ENDBLK
  5
16DF
330
1606
100
AcDbEntity
  8
0
 62
     0
100
AcDbBlockEnd
  0
ENDSEC
  0
SECTION
  2
ENTITIES
  0
LINE
  5
534
330
17
100
AcDbEntity
  8
MAQUINA
100
AcDbLine
 10
-27.29089954419396
 20
-705.5433205624633
 30
0.0
 11
-27.29089954419396
 21
-685.5433205624633
 31
0.0
  0
LINE
  5
535
330
17
100
AcDbEntity
  8
MAQUINA
100
AcDbLine
 10
-37.29089954419396
 20
-695.5433205624633
 30
0.0
 11
-17.29089954419396
 21
-695.5433205624633
 31
0.0
  0
LINE
  5
722
330
17
100
AcDbEntity
  8
MAQUINA
100
AcDbLine
 10
527.1925360788063
 20
-169.6753279042159
 30
0.0
 11
527.1925360788063
 21
-149.6753279042159
 31
0.0
  0
LINE
  5
723
330
17
100
AcDbEntity
  8
MAQUINA
100
AcDbLine
 10
517.1925360788064
 20
-159.6753279042159
 30
0.0
 11
537.1925360788063
 21
-159.6753279042159
 31
0.0
  0
LINE
  5
1149
330
17
100
AcDbEntity
  8
SK1
100
AcDbLine
 10
98.80646590540587
 20
129.4119987063758
 30
0.0
 11
16.80646590540605
 21
129.4119987063758
 31
0.0
  0
LINE
  5
114A
330
17
100
AcDbEntity
  8
SK1
100
AcDbLine
 10
98.806465905406
 20
104.4119987063758
 30
0.0
 11
16.80646590518785
 21
104.4102858708019
 31
0.0
  0
LINE
  5
115F
330
17
100
AcDbEntity
  8
SK1
100
AcDbLine
 10
53.07523701479266
 20
110.1219987063758
 30
0.0
 11
53.07523701479266
 21
123.7019987063758
 31
0.0
  0
LINE
  5
1160
330
17
100
AcDbEntity
  8
SK1
100
AcDbLine
 10
41.07523701479266
 20
110.1219987063758
 30
0.0
 11
41.07523701479266
 21
123.7019987063758
 31
0.0
  0
LINE
  5
1161
330
17
100
AcDbEntity
  8
SK1
100
AcDbLine
 10
32.07523701479269
 20
110.1219987063758
 30
0.0
 11
32.07523701479261
 21
123.7019987063759
 31
0.0
  0
ARC
  5
1162
330
17
100
AcDbEntity
  8
SK1
100
AcDbCircle
 10
22.60464787714864
 20
116.9119987063758
 30
0.0
 40
11.65316088510156
100
AcDbArc
 50
324.3611247127534
 51
35.63887528724703
  0
ARC
  5
1163
330
17
100
AcDbEntity
  8
SK1
100
AcDbCircle
 10
50.5458261524366
 20
116.9119987063758
 30
0.0
 40
11.65316088510149
100
AcDbArc
 50
144.361124712753
 51
215.6388752872469
  0
ARC
  5
1164
330
17
100
AcDbEntity
  8
SK1
100
AcDbCircle
 10
43.60464787714957
 20
116.9119987063758
 30
0.0
 40
11.65316088510079
100
AcDbArc
 50
324.3611247127514
 51
35.63887528724853
  0
LINE
  5
1166
330
17
100
AcDbEntity
  8
SK1
100
AcDbLine
 10
15.80646590540601
 20
105.4102649825632
 30
0.0
 11
15.80646590540604
 21
128.4119987063758
 31
0.0
  0
LINE
  5
116F
330
17
100
AcDbEntity
  8
SK1
100
AcDbLine
 10
53.07523701479266
 20
110.1219987063758
 30
0.0
 11
41.07523701479266
 21
110.1219987063758
 31
0.0
  0
LINE
  5
1170
330
17
100
AcDbEntity
  8
SK1
100
AcDbLine
 10
53.07523701479266
 20
123.7019987063758
 30
0.0
 11
41.07523701479266
 21
123.7019987063758
 31
0.0
  0
LINE
  5
1171
330
17
100
AcDbEntity
  8
SK1
100
AcDbLine
 10
32.07523701479269
 20
110.1219987063758
 30
0.0
 11
15.80646590540604
 21
110.1219987063758
 31
0.0
  0
LINE
  5
1172
330
17
100
AcDbEntity
  8
SK1
100
AcDbLine
 10
32.07523701479261
 20
123.7019987063759
 30
0.0
 11
15.80646590540604
 21
123.7019987063757
 31
0.0
  0
LINE
  5
11C6
330
17
100
AcDbEntity
  8
MAQUINA
100
AcDbLine
 10
1140.0
 20
-10.0
 30
0.0
 11
1140.0
 21
10.0
 31
0.0
  0
LINE
  5
11C7
330
17
100
AcDbEntity
  8
MAQUINA
100
AcDbLine
 10
1130.0
 20
0.0
 30
0.0
 11
1150.0
 21
0.0
 31
0.0
  0
LINE
  5
11C8
330
17
100
AcDbEntity
  8
MAQUINA
100
AcDbLine
 10
1590.0
 20
-210.0
 30
0.0
 11
1590.0
 21
-190.0
 31
0.0
  0
LINE
  5
11C9
330
17
100
AcDbEntity
  8
MAQUINA
100
AcDbLine
 10
1580.0
 20
-200.0
 30
0.0
 11
1600.0
 21
-200.0
 31
0.0
  0
LINE
  5
11CA
330
17
100
AcDbEntity
  8
MAQUINA
100
AcDbLine
 10
1590.0
 20
-335.0
 30
0.0
 11
1590.0
 21
-315.0
 31
0.0
  0
LINE
  5
11CB
330
17
100
AcDbEntity
  8
MAQUINA
100
AcDbLine
 10
1580.0
 20
-325.0
 30
0.0
 11
1600.0
 21
-325.0
 31
0.0
  0
LINE
  5
11CC
330
17
100
AcDbEntity
  8
MAQUINA
100
AcDbLine
 10
1340.0
 20
-335.0
 30
0.0
 11
1340.0
 21
-315.0
 31
0.0
  0
LINE
  5
11CD
330
17
100
AcDbEntity
  8
MAQUINA
100
AcDbLine
 10
1330.0
 20
-325.0
 30
0.0
 11
1350.0
 21
-325.0
 31
0.0
  0
LINE
  5
11CE
330
17
100
AcDbEntity
  8
MAQUINA
100
AcDbLine
 10
1590.0
 20
-200.09
 30
0.0
 11
1590.0
 21
-199.91
 31
0.0
  0
LINE
  5
11CF
330
17
100
AcDbEntity
  8
MAQUINA
100
AcDbLine
 10
1589.91
 20
-200.0
 30
0.0
 11
1590.09
 21
-200.0
 31
0.0
  0
LINE
  5
11D0
330
17
100
AcDbEntity
  8
MAQUINA
100
AcDbLine
 10
1890.0
 20
85.0
 30
0.0
 11
1890.0
 21
-550.0
 31
0.0
  0
TEXT
  5
11D1
330
17
100
AcDbEntity
  8
MAQUINA
100
AcDbText
 10
1136.25
 20
-520.0
 30
0.0
 40
15.0
  1
0
 72
     1
 11
1140.0
 21
-520.0
 31
0.0
100
AcDbText
  0
LINE
  5
11D2
330
17
100
AcDbEntity
  8
MAQUINA
100
AcDbLine
 10
1140.0
 20
-540.0
 30
0.0
 11
1140.0
 21
-550.0
 31
0.0
  0
TEXT
  5
11D3
330
17
100
AcDbEntity
  8
MAQUINA
100
AcDbText
 10
1136.25
 20
60.0
 30
0.0
 40
15.0
  1
0
 72
     1
 11
1140.0
 21
60.0
 31
0.0
100
AcDbText
  0
LINE
  5
11D4
330
17
100
AcDbEntity
  8
MAQUINA
100
AcDbLine
 10
1140.0
 20
85.0
 30
0.0
 11
1140.0
 21
80.0
 31
0.0
  0
TEXT
  5
11D5
330
17
100
AcDbEntity
  8
MAQUINA
100
AcDbText
 10
1026.25
 20
0.0
 30
0.0
 40
15.0
  1
0
 72
     1
 11
1030.0
 21
0.0
 31
0.0
100
AcDbText
  0
TEXT
  5
11D6
330
17
100
AcDbEntity
  8
MAQUINA
100
AcDbText
 10
1022.5
 20
-200.0
 30
0.0
 40
15.0
  1
200
 72
     1
 11
1040.0
 21
-200.0
 31
0.0
100
AcDbText
  0
TEXT
  5
11D7
330
17
100
AcDbEntity
  8
MAQUINA
100
AcDbText
 10
1020.0
 20
-325.0
 30
0.0
 40
15.0
  1
325
 72
     1
 11
1040.0
 21
-325.0
 31
0.0
100
AcDbText
  0
TEXT
  5
11D8
330
17
100
AcDbEntity
  8
MAQUINA
100
AcDbText
 10
1322.5
 20
-520.0
 30
0.0
 40
15.0
  1
200
 72
     1
 11
1340.0
 21
-520.0
 31
0.0
100
AcDbText
  0
TEXT
  5
11D9
330
17
100
AcDbEntity
  8
MAQUINA
100
AcDbText
 10
1571.25
 20
-520.0
 30
0.0
 40
15.0
  1
450
 72
     1
 11
1590.0
 21
-520.0
 31
0.0
100
AcDbText
  0
TEXT
  5
11DA
330
17
100
AcDbEntity
  8
MAQUINA
100
AcDbText
 10
1828.602819996338
 20
-325.0
 30
0.0
 40
15.0
  1
325
 72
     1
 11
1848.602819996338
 21
-325.0
 31
0.0
100
AcDbText
  0
TEXT
  5
11DB
330
17
100
AcDbEntity
  8
MAQUINA
100
AcDbText
 10
1831.102819996338
 20
-200.0
 30
0.0
 40
15.0
  1
200
 72
     1
 11
1848.602819996338
 21
-200.0
 31
0.0
100
AcDbText
  0
TEXT
  5
11DC
330
17
100
AcDbEntity
  8
MAQUINA
100
AcDbText
 10
1849.852819996337
 20
0.0
 30
0.0
 40
15.0
  1
0
 72
     1
 11
1853.602819996338
 21
0.0
 31
0.0
100
AcDbText
  0
LINE
  5
11DD
330
17
100
AcDbEntity
  8
MAQUINA
100
AcDbLine
 10
1340.0
 20
-545.0
 30
0.0
 11
1340.0
 21
-550.0
 31
0.0
  0
LINE
  5
11DE
330
17
100
AcDbEntity
  8
MAQUINA
100
AcDbLine
 10
1340.0
 20
-545.0
 30
0.0
 11
1340.0
 21
-545.0
 31
0.0
  0
LINE
  5
11DF
330
17
100
AcDbEntity
  8
MAQUINA
100
AcDbLine
 10
1340.0
 20
-540.0
 30
0.0
 11
1340.0
 21
-545.0
 31
0.0
  0
LINE
  5
11E0
330
17
100
AcDbEntity
  8
MAQUINA
100
AcDbLine
 10
1590.0
 20
-535.0
 30
0.0
 11
1590.0
 21
-550.0
 31
0.0
  0
LINE
  5
11E1
330
17
100
AcDbEntity
  8
MAQUINA
100
AcDbLine
 10
1010.0
 20
-325.0
 30
0.0
 11
1000.0
 21
-325.0
 31
0.0
  0
LINE
  5
11E2
330
17
100
AcDbEntity
  8
MAQUINA
100
AcDbLine
 10
1873.602819996338
 20
-325.0
 30
0.0
 11
1893.602819996338
 21
-325.0
 31
0.0
  0
LINE
  5
11E3
330
17
100
AcDbEntity
  8
MAQUINA
100
AcDbLine
 10
1873.602819996338
 20
-200.0
 30
0.0
 11
1893.602819996338
 21
-200.0
 31
0.0
  0
LINE
  5
11E4
330
17
100
AcDbEntity
  8
MAQUINA
100
AcDbLine
 10
1010.0
 20
-200.0
 30
0.0
 11
1000.0
 21
-200.0
 31
0.0
  0
LINE
  5
11E5
330
17
100
AcDbEntity
  8
MAQUINA
100
AcDbLine
 10
1000.0
 20
0.0
 30
0.0
 11
1010.0
 21
0.0
 31
0.0
  0
LINE
  5
11E6
330
17
100
AcDbEntity
  8
MAQUINA
100
AcDbLine
 10
1000.0
 20
-440.0
 30
0.0
 11
1000.0
 21
-550.0
 31
0.0
  0
LINE
  5
11E7
330
17
100
AcDbEntity
  8
MAQUINA
100
AcDbLine
 10
1000.0
 20
-445.0
 30
0.0
 11
1000.0
 21
85.0
 31
0.0
  0
LINE
  5
11E8
330
17
100
AcDbEntity
  8
MAQUINA
100
AcDbLine
 10
1000.0
 20
85.0
 30
0.0
 11
1735.0
 21
85.0
 31
0.0
  0
LINE
  5
11E9
330
17
100
AcDbEntity
  8
MAQUINA
100
AcDbLine
 10
1000.0
 20
-550.0
 30
0.0
 11
1000.0
 21
85.0
 31
0.0
  0
LINE
  5
11EA
330
17
100
AcDbEntity
  8
MAQUINA
100
AcDbLine
 10
1000.0
 20
85.0
 30
0.0
 11
1890.0
 21
85.0
 31
0.0
  0
LINE
  5
11EB
330
17
100
AcDbEntity
  8
MAQUINA
  6
ByBlock
 62
     0
100
AcDbLine
 10
1890.0
 20
-550.0
 30
0.0
 11
1000.0
 21
-550.0
 31
0.0
  0
LINE
  5
11EC
330
17
100
AcDbEntity
  8
MAQUINA
  6
ByBlock
 62
     0
100
AcDbLine
 10
1873.602819996338
 20
0.0
 30
0.0
 11
1890.0
 21
0.0
 31
0.0
  0
LINE
  5
11ED
330
17
100
AcDbEntity
  8
MAQUINA
100
AcDbLine
 10
1270.9
 20
-335.0
 30
0.0
 11
1270.9
 21
-314.9999999999999
 31
0.0
  0
SOLID
  5
12A7
330
17
100
AcDbEntity
  8
2
100
AcDbTrace
 10
101.8064659054059
 20
153.5323465682446
 30
0.0
 11
101.8064659054059
 21
154.5323465682446
 31
0.0
 12
98.80646590540592
 22
154.0323465682446
 32
0.0
 13
98.80646590540592
 23
154.0323465682446
 33
0.0
  0
LINE
  5
12A8
330
17
100
AcDbEntity
  8
1
100
AcDbLine
 10
99.3874134073372
 20
129.1619987063758
 30
0.0
 11
127.683510786949
 21
129.1619987063758
 31
0.0
  0
LINE
  5
12A9
330
17
100
AcDbEntity
  8
1
100
AcDbLine
 10
99.3874134073372
 20
104.6619987063758
 30
0.0
 11
128.4806655581145
 21
104.6619987063758
 31
0.0
  0
ARC
  5
12AA
330
17
100
AcDbEntity
  8
1
100
AcDbCircle
 10
128.7093546216163
 20
132.0803421494798
 30
0.0
 40
10.0
100
AcDbArc
 50
197.2675653357438
 51
270.0
  0
LINE
  5
12AB
330
17
100
AcDbEntity
  8
1
 48
10.0
100
AcDbLine
 10
133.9576520609846
 20
122.7974994370052
 30
0.0
 11
127.791680929038
 21
128.9634705689519
 31
0.0
  0
SOLID
  5
12AC
330
17
100
AcDbEntity
  8
2
100
AcDbTrace
 10
149.3240343897317
 20
126.4119987063758
 30
0.0
 11
150.3240343897317
 21
126.4119987063758
 31
0.0
 12
149.8240343897317
 22
129.4119987063758
 32
0.0
 13
149.8240343897317
 23
129.4119987063758
 33
0.0
  0
LINE
  5
12AD
330
17
100
AcDbEntity
  8
1
 48
10.0
100
AcDbLine
 10
140.6893086178806
 20
128.9634705689519
 30
0.0
 11
134.5233374859339
 21
122.7974994370052
 31
0.0
  0
LINE
  5
12AE
330
17
100
AcDbEntity
  8
2
100
AcDbLine
 10
157.2316165681435
 20
98.01171299937838
 30
0.0
 11
157.2316165681435
 21
135.8122844133732
 31
0.0
  0
CIRCLE
  5
12AF
330
17
100
AcDbEntity
  8
1
 48
10.0
100
AcDbCircle
 10
134.2404947734593
 20
129.2463132814265
 30
0.0
 40
2.274999999999999
  0
CIRCLE
  5
12B0
330
17
100
AcDbEntity
  8
1
 48
10.0
100
AcDbCircle
 10
134.2404947734593
 20
129.2463132814265
 30
0.0
 40
1.725
  0
LINE
  5
12B1
330
17
100
AcDbEntity
  8
2
100
AcDbLine
 10
135.4904947734593
 20
98.01171299937834
 30
0.0
 11
158.4816165681435
 21
98.01171299937832
 31
0.0
  0
SOLID
  5
12B2
330
17
100
AcDbEntity
  8
2
100
AcDbTrace
 10
156.7316165681435
 20
101.0117129993783
 30
0.0
 11
157.7316165681435
 21
101.0117129993783
 31
0.0
 12
157.2316165681435
 22
98.01171299937832
 32
0.0
 13
157.2316165681435
 23
98.01171299937832
 33
0.0
  0
MTEXT
  5
12B3
102
{ACAD_XDICTIONARY
360
19B9
102
}
330
17
100
AcDbEntity
  8
2
100
AcDbMText
 10
155.0009836514472
 20
115.9783068582786
 30
0.0
 40
3.0
 41
0.0
 71
     5
 72
     1
  1
\A1;\U+220537.8
 11
0.0000000000000001
 21
1.0
 31
0.0
 73
     1
 44
1.0
  0
MTEXT
  5
12B4
102
{ACAD_XDICTIONARY
360
19BB
102
}
330
17
100
AcDbEntity
  8
2
100
AcDbMText
 10
147.3240343897317
 20
116.1024734657083
 30
0.0
 40
3.0
 41
0.0
 71
     5
 72
     1
  1
\A1;\U+220525
 11
0.0000000000000001
 21
1.0
 31
0.0
 73
     1
 44
1.0
  0
LINE
  5
12B5
330
17
100
AcDbEntity
  8
2
100
AcDbLine
 10
149.8240343897317
 20
104.4119987063759
 30
0.0
 11
149.8240343897317
 21
129.4119987063758
 31
0.0
  0
LINE
  5
12B6
330
17
100
AcDbEntity
  8
2
100
AcDbLine
 10
142.056465905406
 20
104.4119987063758
 30
0.0
 11
151.0740343897317
 21
104.4119987063758
 31
0.0
  0
SOLID
  5
12B7
330
17
100
AcDbEntity
  8
2
100
AcDbTrace
 10
149.3240343897317
 20
107.4119987063758
 30
0.0
 11
150.3240343897317
 21
107.4119987063758
 31
0.0
 12
149.8240343897317
 22
104.4119987063758
 32
0.0
 13
149.8240343897317
 23
104.4119987063758
 33
0.0
  0
LINE
  5
12BA
330
17
100
AcDbEntity
  8
1
100
AcDbLine
 10
134.0291303206337
 20
98.71199870637575
 30
0.0
 11
134.0291303206336
 21
103.2949818790148
 31
0.0
  0
LINE
  5
12BB
330
17
100
AcDbEntity
  8
1
100
AcDbLine
 10
134.451859226285
 20
98.71199870637575
 30
0.0
 11
134.451859226285
 21
103.2949818790149
 31
0.0
  0
LINE
  5
12BC
330
17
100
AcDbEntity
  8
1
100
AcDbLine
 10
128.4806655581145
 20
104.6619987063758
 30
0.0
 11
134.0291303206336
 21
98.71199870637575
 31
0.0
  0
LINE
  5
12BD
330
17
100
AcDbEntity
  8
1
 48
10.0
100
AcDbLine
 10
133.9576520609846
 20
98.12887028690374
 30
0.0
 11
127.791680929038
 21
104.2948414188504
 31
0.0
  0
LINE
  5
12BE
330
17
100
AcDbEntity
  8
1
 48
10.0
100
AcDbLine
 10
140.6893086178806
 20
104.2948414188504
 30
0.0
 11
134.5233374859339
 21
98.12887028690374
 31
0.0
  0
LINE
  5
12BF
330
17
100
AcDbEntity
  8
1
100
AcDbLine
 10
139.706465905406
 20
103.6119987063758
 30
0.0
 11
134.451859226285
 21
98.71199870637575
 31
0.0
  0
LINE
  5
12C0
330
17
100
AcDbEntity
  8
1
100
AcDbLine
 10
134.0291303206337
 20
98.71199870637575
 30
0.0
 11
134.451859226285
 21
98.71199870637575
 31
0.0
  0
ARC
  5
12C1
330
17
100
AcDbEntity
  8
1
 48
10.0
100
AcDbCircle
 10
134.2404947734593
 20
98.41171299937837
 30
0.0
 40
0.4
100
AcDbArc
 50
224.9999999999998
 51
315.0000000000002
  0
LINE
  5
12C2
330
17
100
AcDbEntity
  8
1
100
AcDbLine
 10
128.4806655581145
 20
104.6619987063758
 30
0.0
 11
128.4806655581144
 21
122.0829574258516
 31
0.0
  0
LINE
  5
12C3
330
17
100
AcDbEntity
  8
1
100
AcDbLine
 10
134.451859226285
 20
105.8603863836353
 30
0.0
 11
134.4518592262851
 21
122.0803421494797
 31
0.0
  0
LINE
  5
12C4
330
17
100
AcDbEntity
  8
1
100
AcDbLine
 10
134.0291303206336
 20
105.8603863836353
 30
0.0
 11
134.0291303206336
 21
122.0803421494797
 31
0.0
  0
LINE
  5
12C5
330
17
100
AcDbEntity
  8
1
100
AcDbLine
 10
139.7064659054059
 20
127.9806278564773
 30
0.0
 11
139.706465905406
 21
103.6119987063758
 31
0.0
  0
CIRCLE
  5
12C7
330
17
100
AcDbEntity
  8
1
100
AcDbCircle
 10
134.2404947734593
 20
104.5776841313251
 30
0.0
 40
1.3
  0
LINE
  5
12C8
330
17
100
AcDbEntity
  8
1
 48
10.0
100
AcDbLine
 10
140.6893086178806
 20
104.8605268437996
 30
0.0
 11
139.706465905406
 21
105.8433695562743
 31
0.0
  0
ARC
  5
12C9
330
17
100
AcDbEntity
  8
1
 48
10.0
100
AcDbCircle
 10
140.406465905406
 20
104.5776841313251
 30
0.0
 40
0.4
100
AcDbArc
 50
315.0000000000002
 51
44.99999999999985
  0
ARC
  5
12CA
330
17
100
AcDbEntity
  8
1
100
AcDbCircle
 10
134.2404947734593
 20
124.2009431500648
 30
0.0
 40
2.0
100
AcDbArc
 50
171.5976740178893
 51
8.402325982111451
  0
LINE
  5
12CB
330
17
100
AcDbEntity
  8
1
100
AcDbLine
 10
139.7064659054059
 20
122.0803421494798
 30
0.0
 11
128.7093546216164
 21
122.0803421494798
 31
0.0
  0
ARC
  5
12CC
330
17
100
AcDbEntity
  8
1
 48
10.0
100
AcDbCircle
 10
134.2404947734593
 20
123.0803421494798
 30
0.0
 40
0.4
100
AcDbArc
 50
224.9999999999998
 51
315.0000000000002
  0
ARC
  5
12CD
330
17
100
AcDbEntity
  8
1
 48
10.0
100
AcDbCircle
 10
128.0745236415126
 20
104.5776841313251
 30
0.0
 40
0.4
100
AcDbArc
 50
167.8315565298665
 51
224.9999999999998
  0
LINE
  5
12D4
330
17
100
AcDbEntity
  8
2
100
AcDbLine
 10
135.4904947734593
 20
135.8122844133732
 30
0.0
 11
158.4816165681435
 21
135.8122844133732
 31
0.0
  0
SOLID
  5
12D5
330
17
100
AcDbEntity
  8
2
100
AcDbTrace
 10
156.7316165681435
 20
132.8122844133732
 30
0.0
 11
157.7316165681435
 21
132.8122844133732
 31
0.0
 12
157.2316165681435
 22
135.8122844133732
 32
0.0
 13
157.2316165681435
 23
135.8122844133732
 33
0.0
  0
LINE
  5
12D6
330
17
100
AcDbEntity
  8
2
100
AcDbLine
 10
142.056465905406
 20
129.4119987063758
 30
0.0
 11
151.0740343897317
 21
129.4119987063758
 31
0.0
  0
LINE
  5
12DA
330
17
100
AcDbEntity
  8
1
 48
10.0
100
AcDbLine
 10
133.9576520609846
 20
135.6951271258478
 30
0.0
 11
127.791680929038
 21
129.5291559939012
 31
0.0
  0
LINE
  5
12DE
330
17
100
AcDbEntity
  8
1
 48
10.0
100
AcDbLine
 10
140.6893086178806
 20
129.5291559939011
 30
0.0
 11
134.5233374859339
 21
135.6951271258478
 31
0.0
  0
LINE
  5
12DF
330
17
100
AcDbEntity
  8
2
 62
     0
100
AcDbLine
 10
140.806465905406
 20
130.4963132814265
 30
0.0
 11
140.806465905406
 21
134.7923417169136
 31
0.0
  0
ARC
  5
12E0
330
17
100
AcDbEntity
  8
1
 48
10.0
100
AcDbCircle
 10
140.406465905406
 20
129.2463132814265
 30
0.0
 40
0.4
100
AcDbArc
 50
315.0000000000002
 51
44.99999999999978
  0
ARC
  5
12E1
330
17
100
AcDbEntity
  8
1
 48
10.0
100
AcDbCircle
 10
134.2404947734593
 20
135.4122844133731
 30
0.0
 40
0.4
100
AcDbArc
 50
44.99999999999978
 51
135.0000000000002
  0
ARC
  5
12E4
330
17
100
AcDbEntity
  8
1
 48
10.0
100
AcDbCircle
 10
128.0745236415126
 20
129.2463132814265
 30
0.0
 40
0.4
100
AcDbArc
 50
135.0000000000002
 51
224.9999999999998
  0
MTEXT
  5
12E5
330
17
100
AcDbEntity
  8
2
100
AcDbMText
 10
120.3071743143816
 20
156.4640046521937
 30
0.0
 40
3.0
 41
0.0
 71
     5
 72
     1
  1
42
 73
     1
 44
1.0
  0
LINE
  5
12E6
330
17
100
AcDbEntity
  8
2
100
AcDbLine
 10
101.8064659054059
 20
154.0323465682446
 30
0.0
 11
140.8064659054059
 21
154.0323465682446
 31
0.0
  0
SOLID
  5
12E7
330
17
100
AcDbEntity
  8
2
100
AcDbTrace
 10
137.806465905406
 20
153.5323465682446
 30
0.0
 11
137.806465905406
 21
154.5323465682446
 31
0.0
 12
140.806465905406
 22
154.0323465682446
 32
0.0
 13
140.806465905406
 23
154.0323465682446
 33
0.0
  0
LINE
  5
12E9
330
17
100
AcDbEntity
  8
1
100
AcDbLine
 10
98.80646590540587
 20
129.4119987063758
 30
0.0
 11
98.806465905406
 21
104.4119987063758
 31
0.0
  0
ARC
  5
12EA
330
17
100
AcDbEntity
  8
1
100
AcDbCircle
 10
99.3874134073372
 20
103.8619987063758
 30
0.0
 40
0.8
100
AcDbArc
 50
90.0
 51
136.5674634422134
  0
LINE
  5
12EB
330
17
100
AcDbEntity
  8
2
 62
     0
100
AcDbLine
 10
98.80646590540592
 20
130.6619987063758
 30
0.0
 11
98.80646590540592
 21
155.1804108539077
 31
0.0
  0
LINE
  5
12EE
330
17
100
AcDbEntity
  8
2
100
AcDbLine
 10
140.806465905406
 20
136.9100470144561
 30
0.0
 11
140.806465905406
 21
155.0785645545559
 31
0.0
  0
ARC
  5
12F8
330
17
100
AcDbEntity
  8
1
100
AcDbCircle
 10
99.3874134073372
 20
129.9619987063757
 30
0.0
 40
0.8
100
AcDbArc
 50
223.4325365577866
 51
270.0
  0
LINE
  5
1374
330
17
100
AcDbEntity
  8
SK2
100
AcDbLine
 10
140.806465905406
 20
129.4119987063758
 30
0.0
 11
140.806465905406
 21
173.7049275873135
 31
0.0
  0
LINE
  5
1375
330
17
100
AcDbEntity
  8
SK2
100
AcDbLine
 10
15.80646590540604
 20
129.5119987063758
 30
0.0
 11
15.80646590540604
 21
173.7049275873135
 31
0.0
  0
LINE
  5
1376
330
17
100
AcDbEntity
  8
SK2
100
AcDbLine
 10
137.806465905406
 20
171.6221970288301
 30
0.0
 11
18.80646590540604
 21
171.6221970288301
 31
0.0
  0
SOLID
  5
1377
330
17
100
AcDbEntity
  8
SK2
100
AcDbTrace
 10
137.806465905406
 20
171.12219702883
 30
0.0
 11
137.806465905406
 21
172.12219702883
 31
0.0
 12
140.806465905406
 22
171.6221970288301
 32
0.0
 13
140.806465905406
 23
171.6221970288301
 33
0.0
  0
SOLID
  5
1378
330
17
100
AcDbEntity
  8
SK2
100
AcDbTrace
 10
18.80646590540604
 20
171.1221970288301
 30
0.0
 11
18.80646590540604
 21
172.1221970288301
 31
0.0
 12
15.80646590540604
 22
171.6221970288301
 32
0.0
 13
15.80646590540604
 23
171.6221970288301
 33
0.0
  0
MTEXT
  5
1379
330
17
100
AcDbEntity
  8
SK2
100
AcDbMText
 10
77.23579878642272
 20
174.6137096399086
 30
0.0
 40
3.0
 41
0.0
 71
     5
 72
     1
  1
\A1;125
 73
     1
 44
1.0
  0
LINE
  5
1830
330
17
100
AcDbEntity
  8
NOCUT
 62
     0
100
AcDbLine
 10
15.80646590540602
 20
121.2836641101602
 30
0.0
 11
15.80646590540605
 21
128.4119987063758
 31
0.0
  0
LINE
  5
1831
330
17
100
AcDbEntity
  8
NOCUT
100
AcDbLine
 10
118.8064659054059
 20
120.4176387063749
 30
0.0
 11
17.30646590540593
 21
120.4176387063757
 31
0.0
  0
LINE
  5
1832
330
17
100
AcDbEntity
  8
NOCUT
100
AcDbLine
 10
118.8064659054059
 20
120.4176387063749
 30
0.0
 11
120.8271918475696
 21
116.9176387063749
 31
0.0
  0
LINE
  5
1833
330
17
100
AcDbEntity
  8
NOCUT
100
AcDbLine
 10
17.30646590540602
 20
120.4176387063757
 30
0.0
 11
15.80646590540602
 21
121.2836641101602
 31
0.0
  0
LINE
  5
1834
330
17
100
AcDbEntity
  8
NOCUT
100
AcDbLine
 10
139.701156905406
 20
116.9184697063748
 30
0.0
 11
139.6990529054061
 21
130.2184697063747
 31
0.0
  0
LINE
  5
1835
330
17
100
AcDbEntity
  8
NOCUT
100
AcDbLine
 10
139.699052905406
 20
116.9184697063748
 30
0.0
 11
139.6990529054061
 21
130.2184697063747
 31
0.0
  0
LINE
  5
1836
330
17
100
AcDbEntity
  8
NOCUT
100
AcDbLine
 10
139.6990529054061
 20
130.2184697063747
 30
0.0
 11
134.4479329054061
 21
135.1152177063748
 31
0.0
  0
LINE
  5
1837
330
17
100
AcDbEntity
  8
NOCUT
100
AcDbLine
 10
134.4479329054061
 20
135.1152177063748
 30
0.0
 11
134.027932905406
 21
135.1152177063748
 31
0.0
  0
LINE
  5
1838
330
17
100
AcDbEntity
  8
NOCUT
100
AcDbLine
 10
134.027932905406
 20
135.1152177063748
 30
0.0
 11
128.4764659054061
 21
129.1619987063749
 31
0.0
  0
LINE
  5
1839
330
17
100
AcDbEntity
  8
NOCUT
100
AcDbLine
 10
128.4764659054061
 20
129.1619987063749
 30
0.0
 11
99.38741390540597
 21
129.1619987063751
 31
0.0
  0
LINE
  5
183A
330
17
100
AcDbEntity
  8
NOCUT
100
AcDbLine
 10
98.80646590540605
 20
129.4119987063751
 30
0.0
 11
16.80646590540605
 21
129.4119987063758
 31
0.0
  0
LINE
  5
183B
330
17
100
AcDbEntity
  8
NOCUT
100
AcDbLine
 10
16.80646590540605
 20
129.4119987063758
 30
0.0
 11
15.80646590540605
 21
128.4119987063758
 31
0.0
  0
LINE
  5
183C
330
17
100
AcDbEntity
  8
NOCUT
100
AcDbLine
 10
139.699052905406
 20
116.9176387063747
 30
0.0
 11
139.699052905406
 21
116.9184697063748
 31
0.0
  0
ARC
  5
183D
330
17
100
AcDbEntity
  8
NOCUT
100
AcDbCircle
 10
99.38741390540597
 20
129.961998706375
 30
0.0
 40
0.800000000000001
100
AcDbArc
 50
223.4325370000042
 51
270.0
  0
LINE
  5
183E
330
17
100
AcDbEntity
  8
NOCUT
 62
     0
100
AcDbLine
 10
120.8271918475696
 20
116.9176387063749
 30
0.0
 11
139.7011565641435
 21
116.9206259017668
 31
0.0
  0
LINE
  5
1895
330
17
100
AcDbEntity
  8
SK1
100
AcDbLine
 10
15.80646590540604
 20
128.4119987063758
 30
0.0
 11
16.80646590540605
 21
129.4119987063758
 31
0.0
  0
LINE
  5
1898
330
17
100
AcDbEntity
  8
SK1
100
AcDbLine
 10
15.80646590540601
 20
105.4102649825632
 30
0.0
 11
16.80646590518785
 21
104.4102858708019
 31
0.0
  0
LINE
  5
1899
330
17
100
AcDbEntity
  8
SK2
100
AcDbLine
 10
15.55646590540606
 20
129.4119987063758
 30
0.0
 11
7.394693088230269
 21
129.4119987063758
 31
0.0
  0
LINE
  5
189A
330
17
100
AcDbEntity
  8
SK2
100
AcDbLine
 10
15.55646590518786
 20
104.410285870802
 30
0.0
 11
7.394693088230274
 21
104.410285870802
 31
0.0
  0
LINE
  5
189B
330
17
100
AcDbEntity
  8
SK2
100
AcDbLine
 10
8.644693088230269
 20
126.4119987063758
 30
0.0
 11
8.644693088230274
 21
107.410285870802
 31
0.0
  0
SOLID
  5
189C
330
17
100
AcDbEntity
  8
SK2
100
AcDbTrace
 10
8.144693088230269
 20
126.4119987063758
 30
0.0
 11
9.144693088230269
 21
126.4119987063758
 31
0.0
 12
8.644693088230269
 22
129.4119987063758
 32
0.0
 13
8.644693088230269
 23
129.4119987063758
 33
0.0
  0
SOLID
  5
189D
330
17
100
AcDbEntity
  8
SK2
100
AcDbTrace
 10
8.144693088230274
 20
107.410285870802
 30
0.0
 11
9.144693088230274
 21
107.410285870802
 31
0.0
 12
8.644693088230274
 22
104.410285870802
 32
0.0
 13
8.644693088230274
 23
104.410285870802
 33
0.0
  0
MTEXT
  5
189E
330
17
100
AcDbEntity
  8
SK2
100
AcDbMText
 10
6.144693088230303
 20
116.9111422885889
 30
0.0
 40
3.0
 41
0.0
 71
     5
 72
     1
  1
\A1;%%C25
 11
0.0000000000000001
 21
1.0
 31
0.0
 73
     1
 44
1.0
  0
LINE
  5
18A8
330
17
100
AcDbEntity
  8
SK4
100
AcDbLine
 10
12.61708306745072
 20
116.9111331126965
 30
0.0
 11
104.2353785833864
 21
116.9111331126965
 31
0.0
  0
LINE
  5
18B0
330
17
100
AcDbEntity
  8
4
100
AcDbLine
 10
94.60103905224398
 20
116.9111331126965
 30
0.0
 11
143.2454105964532
 21
116.9111343809235
 31
0.0
  0
LINE
  5
18BF
330
17
100
AcDbEntity
  8
CUT
 48
10.0
100
AcDbLine
 10
133.9576520609847
 20
122.7974994370052
 30
0.0
 11
127.7916809290381
 21
128.9634705689519
 31
0.0
  0
LINE
  5
18C0
330
17
100
AcDbEntity
  8
CUT
 48
10.0
100
AcDbLine
 10
140.6893086178806
 20
128.9634705689519
 30
0.0
 11
134.5233374859339
 21
122.7974994370052
 31
0.0
  0
ARC
  5
18C1
330
17
100
AcDbEntity
  8
CUT
 48
10.0
100
AcDbCircle
 10
134.2404947734593
 20
123.0803421494798
 30
0.0
 40
0.4
100
AcDbArc
 50
224.9999999999995
 51
315.0000000000005
  0
LINE
  5
18C2
330
17
100
AcDbEntity
  8
CUT
 48
10.0
100
AcDbLine
 10
133.9576520609847
 20
135.6951271258478
 30
0.0
 11
127.791680929038
 21
129.5291559939011
 31
0.0
  0
LINE
  5
18C3
330
17
100
AcDbEntity
  8
CUT
 48
10.0
100
AcDbLine
 10
140.6893086178806
 20
129.5291559939011
 30
0.0
 11
134.5233374859339
 21
135.6951271258478
 31
0.0
  0
ARC
  5
18C4
330
17
100
AcDbEntity
  8
CUT
 48
10.0
100
AcDbCircle
 10
140.406465905406
 20
129.2463132814264
 30
0.0
 40
0.4
100
AcDbArc
 50
315.0000000000005
 51
44.99999999999949
  0
ARC
  5
18C5
330
17
100
AcDbEntity
  8
CUT
 48
10.0
100
AcDbCircle
 10
134.2404947734593
 20
135.4122844133731
 30
0.0
 40
0.4
100
AcDbArc
 50
44.99999999999949
 51
135.0000000000005
  0
ARC
  5
18C6
330
17
100
AcDbEntity
  8
CUT
 48
10.0
100
AcDbCircle
 10
128.0745236415126
 20
129.2463132814264
 30
0.0
 40
0.4
100
AcDbArc
 50
135.0000000000005
 51
224.9999999999995
  0
LINE
  5
18D0
330
17
100
AcDbEntity
  8
SK1
100
AcDbLine
 10
70.80689190540609
 20
116.9111323444695
 30
0.0
 11
72.80603990540608
 21
116.9111323444695
 31
0.0
  0
LINE
  5
18D1
330
17
100
AcDbEntity
  8
SK1
100
AcDbLine
 10
71.80646590540603
 20
115.9115583444695
 30
0.0
 11
71.80646590540603
 21
117.9107053444695
 31
0.0
  0
LINE
  5
18DC
330
17
100
AcDbEntity
  8
81
100
AcDbLine
 10
138.806465905406
 20
129.4119987063758
 30
0.0
 11
142.806465905406
 21
129.4119987063758
 31
0.0
  0
LINE
  5
18DD
330
17
100
AcDbEntity
  8
81
100
AcDbLine
 10
140.806465905406
 20
127.4119987063758
 30
0.0
 11
140.806465905406
 21
131.4119987063758
 31
0.0
  0
LINE
  5
18DE
330
17
100
AcDbEntity
  8
SK1
100
AcDbLine
 10
16.80646590518785
 20
104.4102858708019
 30
0.0
 11
16.80646590518785
 21
110.1219987063758
 31
0.0
  0
LINE
  5
18DF
330
17
100
AcDbEntity
  8
SK1
100
AcDbLine
 10
16.80646590540605
 20
129.4119987063758
 30
0.0
 11
16.80646590540609
 21
123.7019987063758
 31
0.0
  0
LINE
  5
18E0
330
17
100
AcDbEntity
  8
SK2
100
AcDbLine
 10
71.80646590540603
 20
118.1611318444695
 30
0.0
 11
71.80646590540603
 21
163.6588456847942
 31
0.0
  0
LINE
  5
18E1
330
17
100
AcDbEntity
  8
SK2
100
AcDbLine
 10
140.806465905406
 20
130.6619987063758
 30
0.0
 11
140.806465905406
 21
163.6588456847942
 31
0.0
  0
LINE
  5
18E2
330
17
100
AcDbEntity
  8
SK2
100
AcDbLine
 10
74.80646590540603
 20
162.4088456847942
 30
0.0
 11
137.806465905406
 21
162.4088456847942
 31
0.0
  0
SOLID
  5
18E3
330
17
100
AcDbEntity
  8
SK2
100
AcDbTrace
 10
74.80646590540603
 20
162.9088456847942
 30
0.0
 11
74.80646590540603
 21
161.9088456847942
 31
0.0
 12
71.80646590540603
 22
162.4088456847942
 32
0.0
 13
71.80646590540603
 23
162.4088456847942
 33
0.0
  0
SOLID
  5
18E4
330
17
100
AcDbEntity
  8
SK2
100
AcDbTrace
 10
137.806465905406
 20
162.9088456847942
 30
0.0
 11
137.806465905406
 21
161.9088456847942
 31
0.0
 12
140.806465905406
 22
162.4088456847942
 32
0.0
 13
140.806465905406
 23
162.4088456847942
 33
0.0
  0
MTEXT
  5
18E5
330
17
100
AcDbEntity
  8
SK2
100
AcDbMText
 10
106.306465905406
 20
164.9088456847942
 30
0.0
 40
3.0
 41
0.0
 71
     5
 72
     1
  1
\A1;69
 73
     1
 44
1.0
  0
LINE
  5
18E7
330
17
100
AcDbEntity
  8
2
100
AcDbLine
 10
133.6394540094507
 20
136.579010602331
 30
0.0
 11
125.9158936312716
 21
144.30257098051
 31
0.0
  0
ARC
  5
18E8
330
17
100
AcDbEntity
  8
2
100
AcDbCircle
 10
140.806465905406
 20
129.4119987063758
 30
0.0
 40
19.80844926157744
100
AcDbArc
 50
98.68579047531737
 51
126.3142095246821
  0
SOLID
  5
18E9
330
17
100
AcDbEntity
  8
2
100
AcDbTrace
 10
137.7772171138745
 20
149.4918365436213
 30
0.0
 11
137.8529423753622
 21
148.4947078233587
 31
0.0
 12
140.8064659054063
 22
149.2204479679532
 32
0.0
 13
140.8064659054063
 23
149.2204479679532
 33
0.0
  0
SOLID
  5
18EA
330
17
100
AcDbEntity
  8
2
100
AcDbTrace
 10
129.4014094018651
 20
144.9939682428928
 30
0.0
 11
128.7498787679567
 21
145.7525905686115
 31
0.0
 12
126.7997771077548
 22
143.4186875040268
 32
0.0
 13
126.7997771077548
 23
143.4186875040268
 33
0.0
  0
MTEXT
  5
18EB
330
17
100
AcDbEntity
  8
2
100
AcDbMText
 10
132.402635605197
 20
150.0770064426837
 30
0.0
 40
3.0
 41
0.0
 71
     5
 72
     1
  1
\A1;45\U+00B0
 11
0.926330983117679
 21
0.3767106445486166
 31
0.0
 73
     1
 44
1.0
  0
LINE
  5
18ED
330
17
100
AcDbEntity
  8
2
100
AcDbLine
 10
136.1920847704853
 20
134.356557294229
 30
0.0
 11
136.1920847704853
 21
144.4724345488582
 31
0.0
  0
LINE
  5
18EF
330
17
100
AcDbEntity
  8
2
100
AcDbLine
 10
133.1920847704853
 20
143.2224345488582
 30
0.0
 11
130.1920847704853
 21
143.2224345488582
 31
0.0
  0
LINE
  5
18F0
330
17
100
AcDbEntity
  8
2
100
AcDbLine
 10
143.806465905406
 20
143.2224345488582
 30
0.0
 11
154.806465905406
 21
143.2224345488582
 31
0.0
  0
LINE
  5
18F1
330
17
100
AcDbEntity
  8
2
100
AcDbLine
 10
136.1920847704853
 20
143.2224345488582
 30
0.0
 11
140.806465905406
 21
143.2224345488582
 31
0.0
  0
SOLID
  5
18F2
330
17
100
AcDbEntity
  8
2
100
AcDbTrace
 10
133.1920847704853
 20
143.7224345488582
 30
0.0
 11
133.1920847704853
 21
142.7224345488582
 31
0.0
 12
136.1920847704853
 22
143.2224345488582
 32
0.0
 13
136.1920847704853
 23
143.2224345488582
 33
0.0
  0
SOLID
  5
18F3
330
17
100
AcDbEntity
  8
2
100
AcDbTrace
 10
143.806465905406
 20
143.7224345488582
 30
0.0
 11
143.806465905406
 21
142.7224345488582
 31
0.0
 12
140.806465905406
 22
143.2224345488582
 32
0.0
 13
140.806465905406
 23
143.2224345488582
 33
0.0
  0
MTEXT
  5
18F4
330
17
100
AcDbEntity
  8
2
100
AcDbMText
 10
150.806465905406
 20
145.7224345488582
 30
0.0
 40
3.0
 41
0.0
 71
     5
 72
     1
  1
\A1;4.5
 73
     1
 44
1.0
  0
MTEXT
  5
1952
330
17
100
AcDbEntity
  8
SK6
100
AcDbMText
 10
59.16656972614231
 20
77.21885091317293
 30
0.0
 40
3.5
 41
0.0
 71
     7
 72
     5
  1
{\W0.7565;25N3R042B25-SSO09-C}
  7
cesky
 73
     2
 44
0.8433729999999998
  0
ENDSEC
  0
SECTION
  2
OBJECTS
  0
DICTIONARY
  5
C
330
0
100
AcDbDictionary
281
     1
  3
ACAD_CIP_PREVIOUS_PRODUCT_INFO
350
1732
  3
ACAD_COLOR
350
141F
  3
ACAD_DETAILVIEWSTYLE
350
172B
  3
ACAD_GROUP
350
D
  3
ACAD_LAYOUT
350
1447
  3
ACAD_MATERIAL
350
13F5
  3
ACAD_MLEADERSTYLE
350
1444
  3
ACAD_MLINESTYLE
350
1A
  3
ACAD_PLOTSETTINGS
350
1448
  3
ACAD_PLOTSTYLENAME
350
13F3
  3
ACAD_SCALELIST
350
1422
  3
ACAD_SECTIONVIEWSTYLE
350
1729
  3
ACAD_TABLESTYLE
350
1420
  3
ACAD_VISUALSTYLE
350
140E
  3
ACDB_RECOMPOSE_DATA
350
19B0
  3
ACDBVARIABLEDICTIONARY
350
30
  3
AcDsDecomposeData
350
19B6
  0
DICTIONARY
  5
1452
330
2
100
AcDbDictionary
280
     1
281
     1
  3
ACAD_LAYERSTATES
360
1453
  0
DICTIONARY
  5
16E8
330
E
100
AcDbDictionary
280
     1
281
     1
  3
ADSK_XREC_LAYER_RECONCILED
360
16E9
  0
DICTIONARY
  5
16EA
330
39C
100
AcDbDictionary
280
     1
281
     1
  3
ADSK_XREC_LAYER_RECONCILED
360
16EB
  0
DICTIONARY
  5
16EC
330
F71
100
AcDbDictionary
280
     1
281
     1
  3
ADSK_XREC_LAYER_RECONCILED
360
16ED
  0
DICTIONARY
  5
16EE
330
108D
100
AcDbDictionary
280
     1
281
     1
  3
ADSK_XREC_LAYER_RECONCILED
360
16EF
  0
DICTIONARY
  5
16F0
330
108E
100
AcDbDictionary
280
     1
281
     1
  3
ADSK_XREC_LAYER_RECONCILED
360
16F1
  0
DICTIONARY
  5
16F2
330
144F
100
AcDbDictionary
280
     1
281
     1
  3
ADSK_XREC_LAYER_RECONCILED
360
16F3
  0
DICTIONARY
  5
16F4
330
1450
100
AcDbDictionary
280
     1
281
     1
  3
ADSK_XREC_LAYER_RECONCILED
360
16F5
  0
DICTIONARY
  5
1896
330
17
100
AcDbDictionary
280
     1
281
     1
  3
ACAD_SORTENTS
360
1897
  0
DICTIONARY
  5
19B9
330
12B3
100
AcDbDictionary
280
     1
281
     1
  3
ACAD_MTEXT_2008_RT
360
19BA
  0
DICTIONARY
  5
19BB
330
12B4
100
AcDbDictionary
280
     1
281
     1
  3
ACAD_MTEXT_2008_RT
360
19BC
  0
XRECORD
  5
1732
102
{ACAD_REACTORS
330
C
102
}
330
C
100
AcDbXrecord
280
     1
300
ACD
300
2019
300
87084ACD_2019_0F
  0
DICTIONARY
  5
141F
102
{ACAD_REACTORS
330
C
102
}
330
C
100
AcDbDictionary
281
     1
  0
DICTIONARY
  5
172B
102
{ACAD_REACTORS
330
C
102
}
330
C
100
AcDbDictionary
281
     1
  3
Imperial24
350
172C
  3
Metric50
350
17E3
  0
DICTIONARY
  5
D
102
{ACAD_REACTORS
330
C
102
}
330
C
100
AcDbDictionary
281
     1
  0
DICTIONARY
  5
1447
102
{ACAD_REACTORS
330
C
102
}
330
C
100
AcDbDictionary
281
     1
  3
Model
350
1449
  3
Rozvržení1
350
144A
  0
DICTIONARY
  5
13F5
102
{ACAD_REACTORS
330
C
102
}
330
C
100
AcDbDictionary
281
     1
  3
ByBlock
350
13FE
  3
ByLayer
350
13F6
  3
Global
350
1406
  0
DICTIONARY
  5
1444
102
{ACAD_REACTORS
330
C
102
}
330
C
100
AcDbDictionary
281
     1
  3
Standard
350
1445
  0
DICTIONARY
  5
1A
102
{ACAD_REACTORS
330
C
102
}
330
C
100
AcDbDictionary
281
     1
  3
STANDARD
350
1B
  0
DICTIONARY
  5
1448
102
{ACAD_REACTORS
330
C
102
}
330
C
100
AcDbDictionary
281
     1
  0
ACDBDICTIONARYWDFLT
  5
13F3
102
{ACAD_REACTORS
330
C
102
}
330
C
100
AcDbDictionary
281
     1
  3
Normal
350
13F4
100
AcDbDictionaryWithDefault
340
13F4
  0
DICTIONARY
  5
1422
102
{ACAD_REACTORS
330
C
102
}
330
C
100
AcDbDictionary
281
     1
  3
A0
350
1423
  3
A1
350
1424
  3
A2
350
1425
  3
A3
350
1426
  3
A4
350
1427
  3
A5
350
1428
  3
A6
350
1429
  3
A7
350
142A
  3
A8
350
142B
  3
A9
350
142C
  3
B0
350
142D
  3
B1
350
142E
  3
B2
350
142F
  3
B3
350
1430
  3
B4
350
1431
  3
B5
350
1432
  3
B6
350
1433
  3
B7
350
1434
  3
B8
350
1435
  3
B9
350
1436
  3
C0
350
1437
  3
C1
350
1438
  3
C2
350
1439
  3
C3
350
143A
  3
C4
350
143B
  3
C5
350
143C
  3
C6
350
143D
  3
C7
350
143E
  3
C8
350
143F
  3
C9
350
1440
  3
D0
350
1441
  3
D1
350
1442
  3
D2
350
1443
  0
DICTIONARY
  5
1729
102
{ACAD_REACTORS
330
C
102
}
330
C
100
AcDbDictionary
281
     1
  3
Imperial24
350
172A
  3
Metric50
350
17E2
  0
DICTIONARY
  5
1420
102
{ACAD_REACTORS
330
C
102
}
330
C
100
AcDbDictionary
281
     1
  3
Standard
350
1421
  0
DICTIONARY
  5
140E
102
{ACAD_REACTORS
330
C
102
}
330
C
100
AcDbDictionary
281
     1
  3
2dWireframe
350
1414
  3
3D Hidden
350
1416
  3
3dWireframe
350
1415
  3
Basic
350
1413
  3
Brighten
350
141A
  3
ColorChange
350
141E
  3
Conceptual
350
1417
  3
Dim
350
1419
  3
EdgeColorOff
350
1728
  3
Facepattern
350
141D
  3
Flat
350
140F
  3
FlatWithEdges
350
1410
  3
Gouraud
350
1411
  3
GouraudWithEdges
350
1412
  3
Hidden
350
1720
  3
JitterOff
350
1726
  3
Linepattern
350
141C
  3
OverhangOff
350
1727
  3
Realistic
350
1418
  3
Shaded
350
1725
  3
Shaded with edges
350
1724
  3
Shades of Gray
350
1721
  3
Sketchy
350
1722
  3
Thicken
350
141B
  3
Wireframe
350
171F
  3
X-Ray
350
1723
  0
XRECORD
  5
19B0
102
{ACAD_REACTORS
330
C
102
}
330
C
100
AcDbXrecord
280
     1
 90
        1
330
1421
  0
DICTIONARY
  5
30
102
{ACAD_REACTORS
330
C
102
}
330
C
100
AcDbDictionary
281
     1
  3
CANNOSCALE
350
1704
  3
CMLEADERSTYLE
350
1702
  3
CTABLESTYLE
350
1701
  3
CVIEWDETAILSTYLE
350
1733
  3
CVIEWSECTIONSTYLE
350
1734
  3
DIMADEC
350
31
  3
LIGHTINGUNITS
350
1705
  3
MSLTSCALE
350
1703
  3
SOLIDHIST
350
1735
  0
DICTIONARY
  5
19B6
102
{ACAD_REACTORS
330
C
102
}
330
C
100
AcDbDictionary
281
     1
  3
AcDsRecords
350
19B8
  3
AcDsSchemas
350
19B7
1001
ACAD
1070
     2
  0
DICTIONARY
  5
1453
102
{ACAD_REACTORS
330
1452
102
}
330
1452
100
AcDbDictionary
281
     1
  0
XRECORD
  5
16E9
102
{ACAD_REACTORS
330
16E8
102
}
330
16E8
100
AcDbXrecord
280
     1
290
     1
  0
XRECORD
  5
16EB
102
{ACAD_REACTORS
330
16EA
102
}
330
16EA
100
AcDbXrecord
280
     1
290
     1
  0
XRECORD
  5
16ED
102
{ACAD_REACTORS
330
16EC
102
}
330
16EC
100
AcDbXrecord
280
     1
290
     1
  0
XRECORD
  5
16EF
102
{ACAD_REACTORS
330
16EE
102
}
330
16EE
100
AcDbXrecord
280
     1
290
     1
  0
XRECORD
  5
16F1
102
{ACAD_REACTORS
330
16F0
102
}
330
16F0
100
AcDbXrecord
280
     1
290
     1
  0
XRECORD
  5
16F3
102
{ACAD_REACTORS
330
16F2
102
}
330
16F2
100
AcDbXrecord
280
     1
290
     1
  0
XRECORD
  5
16F5
102
{ACAD_REACTORS
330
16F4
102
}
330
16F4
100
AcDbXrecord
280
     1
290
     1
  0
SORTENTSTABLE
  5
1897
102
{ACAD_REACTORS
330
1896
102
}
330
1896
100
AcDbSortentsTable
330
17
331
114A
  5
115E
331
115F
  5
1161
331
1160
  5
1162
331
1161
  5
1163
331
1162
  5
1164
331
1163
  5
1166
331
1164
  5
116F
331
1166
  5
1170
331
116F
  5
1171
331
1170
  5
1172
331
1171
  5
1184
331
1172
  5
1186
331
11C6
  5
11C8
331
11C7
  5
11C9
331
11C8
  5
11CA
331
11C9
  5
11CB
331
11CA
  5
11CC
331
11CB
  5
11CD
331
11CC
  5
11CE
331
11CD
  5
11CF
331
11CE
  5
11D0
331
11CF
  5
11D1
331
11D0
  5
11D2
331
11D1
  5
11D3
331
11D2
  5
11D4
331
11D3
  5
11D5
331
11D4
  5
11D6
331
11D5
  5
11D7
331
11D6
  5
11D8
331
11D7
  5
11D9
331
11D8
  5
11DA
331
11D9
  5
11DB
331
11DA
  5
11DC
331
11DB
  5
11DD
331
11DC
  5
11DE
331
11DD
  5
11DF
331
11DE
  5
11E0
331
11DF
  5
11E1
331
11E0
  5
11E2
331
11E1
  5
11E3
331
11E2
  5
11E4
331
11E3
  5
11E5
331
11E4
  5
11E6
331
11E5
  5
11E7
331
11E6
  5
11E8
331
11E7
  5
11E9
331
11E8
  5
11EA
331
11E9
  5
11EB
331
11EA
  5
11EC
331
11EB
  5
11ED
331
11EC
  5
12A7
331
11ED
  5
12A8
331
12A7
  5
12A9
331
12A8
  5
12AA
331
12A9
  5
12AB
331
12AA
  5
12AC
331
12AB
  5
12AD
331
12AC
  5
12AE
331
12AD
  5
12AF
331
12AE
  5
12B0
331
12AF
  5
12B1
331
12B0
  5
12B2
331
12B1
  5
12B3
331
12B2
  5
12B4
331
12B3
  5
12B5
331
12B4
  5
12B6
331
12B5
  5
12B7
331
12B6
  5
12B8
331
12B7
  5
12B9
331
12BA
  5
12BC
331
12BB
  5
12BD
331
12BC
  5
12BE
331
12BD
  5
12BF
331
12BE
  5
12C0
331
12BF
  5
12C1
331
12C0
  5
12C2
331
12C1
  5
12C3
331
12C2
  5
12C4
331
12C3
  5
12C5
331
12C4
  5
12C6
331
12C5
  5
12C7
331
12C7
  5
12C9
331
12C8
  5
12CA
331
12C9
  5
12CB
331
12CA
  5
12CC
331
12CB
  5
12CD
331
12CC
  5
12D0
331
12CD
  5
12D3
331
12D4
  5
12D6
331
12D5
  5
12D7
331
12D6
  5
12D9
331
12DA
  5
12DD
331
12DE
  5
12E0
331
12DF
  5
12E1
331
12E0
  5
12E2
331
12E1
  5
12E3
331
12E4
  5
12E6
331
12E5
  5
12E7
331
12E6
  5
12E9
331
12E7
  5
12EA
331
12E9
  5
12EB
331
12EA
  5
12EE
331
12EB
  5
12F8
331
12EE
  5
1374
331
12F8
  5
1375
331
1374
  5
1376
331
1375
  5
1377
331
1376
  5
1378
331
1377
  5
1379
331
1378
  5
138D
331
1379
  5
138E
331
1830
  5
1832
331
1831
  5
1833
331
1832
  5
1834
331
1833
  5
1835
331
1834
  5
1836
331
1835
  5
1837
331
1836
  5
1838
331
1837
  5
1839
331
1838
  5
183A
331
1839
  5
183B
331
183A
  5
183C
331
183B
  5
183D
331
183C
  5
183E
331
183D
  5
1895
331
183E
  5
1898
331
1895
  5
114A
331
1898
  5
115F
  0
XRECORD
  5
19BA
102
{ACAD_REACTORS
330
19B9
102
}
330
19B9
100
AcDbXrecord
280
     1
 40
6600.0
  1
\A1;\U+220537.8
  0
XRECORD
  5
19BC
102
{ACAD_REACTORS
330
19BB
102
}
330
19BB
100
AcDbXrecord
280
     1
 40
5078.0
  1
\A1;\U+220525
  0
ACDBDETAILVIEWSTYLE
  5
172C
102
{ACAD_XDICTIONARY
360
19F7
102
}
102
{ACAD_REACTORS
330
172B
102
}
330
172B
100
AcDbModelDocViewStyle
 70
     0
  3
Imperial24
290
     0
100
AcDbDetailViewStyle
 70
     0
 71
     0
 90
        3
 71
     1
340
F
 62
   256
 40
0.24
340
0
 62
   256
 40
0.24
300

 40
0.36
280
     3
 71
     2
340
13
 90
       25
 62
   256
 71
     3
340
F
 62
   256
 40
0.24
 90
        1
 40
0.75
 90
        1
300
%<\AcVar ViewType \f "%tc1">% %<\AcVar ViewDetailId>%\PSCALE %<\AcVar ViewScale \f "%sn">%
 71
     4
340
13
 90
       25
 62
   256
340
13
 90
       25
 62
   256
280
     0
  0
ACDBDETAILVIEWSTYLE
  5
17E3
102
{ACAD_XDICTIONARY
360
19FB
102
}
102
{ACAD_REACTORS
330
172B
102
}
330
172B
100
AcDbModelDocViewStyle
 70
     0
  3
Metric50
290
     0
100
AcDbDetailViewStyle
 70
     0
 71
     0
 90
        3
 71
     1
340
F
 62
   256
 40
5.0
340
0
 62
   256
 40
5.0
300

 40
0.0
280
     1
 71
     2
340
13
 90
       25
 62
   256
 71
     3
340
F
 62
   256
 40
5.0
 90
        0
 40
15.0
 90
        1
300
%<\AcVar ViewDetailId>% (%<\AcVar ViewScale \f "%sn">%)
 71
     4
340
13
 90
       25
 62
   256
340
13
 90
       25
 62
   256
280
     0
  0
LAYOUT
  5
1449
102
{ACAD_REACTORS
330
1447
102
}
330
1447
100
AcDbPlotSettings
  1

  2
none_device
  4
Letter_(8.50_x_11.00_Inches)
  6

 40
6.349999904632568
 41
6.349999904632568
 42
6.350006103515625
 43
6.350006103515625
 44
215.8999938964844
 45
279.3999938964844
 46
0.0
 47
0.0
 48
0.0
 49
0.0
140
0.0
141
0.0
142
1.0
143
67.2013747054475
 70
 11952
 72
     0
 73
     1
 74
     0
  7
aHonza.ctb
 75
     0
147
0.0148806479686336
 76
     0
 77
     2
 78
   300
148
6453.356628547479
149
1099.64152233063
100
AcDbLayout
  1
Model
 70
     1
 71
     0
 10
0.0
 20
0.0
 11
12.0
 21
9.0
 12
0.0
 22
0.0
 32
0.0
 14
0.0
 24
0.0
 34
0.0
 15
0.0
 25
0.0
 35
0.0
146
0.0
 13
0.0
 23
0.0
 33
0.0
 16
1.0
 26
0.0
 36
0.0
 17
0.0
 27
1.0
 37
0.0
 76
     0
330
17
331
13F1
1001
ACAD_PSEXT
1000
Žádné
1000
Žádné
1000
Není použitelné
1000
Rozvržení nebude vykresleno, dokud nebude vybrán nový název konfigurace plotru.
1070
     0
  0
LAYOUT
  5
144A
102
{ACAD_REACTORS
330
1447
102
}
330
1447
100
AcDbPlotSettings
  1

  2
SafeQ DiALTA (obecná černobílá)
  4

  6

 40
0.0
 41
0.0
 42
0.0
 43
0.0
 44
0.0
 45
0.0
 46
0.0
 47
0.0
 48
0.0
 49
0.0
140
0.0
141
0.0
142
1.0
143
1.0
 70
   688
 72
     0
 73
     0
 74
     5
  7
aHonza.ctb
 75
    16
147
1.0
 76
     0
 77
     2
 78
   300
148
0.0
149
0.0
100
AcDbLayout
  1
Rozvržení1
 70
     0
 71
     1
 10
0.0
 20
0.0
 11
12.0
 21
9.0
 12
0.0
 22
0.0
 32
0.0
 14
1.000000000000000E+20
 24
1.000000000000000E+20
 34
1.000000000000000E+20
 15
-1.000000000000000E+20
 25
-1.000000000000000E+20
 35
-1.000000000000000E+20
146
0.0
 13
0.0
 23
0.0
 33
0.0
 16
1.0
 26
0.0
 36
0.0
 17
0.0
 27
1.0
 37
0.0
 76
     0
330
14
  0
MATERIAL
  5
13FE
102
{ACAD_XDICTIONARY
360
13FF
102
}
102
{ACAD_REACTORS
330
13F5
102
}
330
13F5
100
AcDbMaterial
  1
ByBlock
 72
     0
 43
0.0208333333333333
 43
0.0
 43
0.0
 43
0.0
 43
0.0
 43
0.0208333333333333
 43
0.0
 43
0.0
 43
0.0
 43
0.0
 43
1.0
 43
0.0
 43
0.0
 43
0.0
 43
0.0
 43
1.0
 77
     0
 47
0.0208333333333333
 47
0.0
 47
0.0
 47
0.0
 47
0.0
 47
0.0208333333333333
 47
0.0
 47
0.0
 47
0.0
 47
0.0
 47
1.0
 47
0.0
 47
0.0
 47
0.0
 47
0.0
 47
1.0
171
     0
 49
0.0208333333333333
 49
0.0
 49
0.0
 49
0.0
 49
0.0
 49
0.0208333333333333
 49
0.0
 49
0.0
 49
0.0
 49
0.0
 49
1.0
 49
0.0
 49
0.0
 49
0.0
 49
0.0
 49
1.0
175
     0
142
0.0208333333333333
142
0.0
142
0.0
142
0.0
142
0.0
142
0.0208333333333333
142
0.0
142
0.0
142
0.0
142
0.0
142
1.0
142
0.0
142
0.0
142
0.0
142
0.0
142
1.0
179
     0
144
0.0208333333333333
144
0.0
144
0.0
144
0.0
144
0.0
144
0.0208333333333333
144
0.0
144
0.0
144
0.0
144
0.0
144
1.0
144
0.0
144
0.0
144
0.0
144
0.0
144
1.0
147
0.0208333333333333
147
0.0
147
0.0
147
0.0
147
0.0
147
0.0208333333333333
147
0.0
147
0.0
147
0.0
147
0.0
147
1.0
147
0.0
147
0.0
147
0.0
147
0.0
147
1.0
  0
MATERIAL
  5
13F6
102
{ACAD_XDICTIONARY
360
13F7
102
}
102
{ACAD_REACTORS
330
13F5
102
}
330
13F5
100
AcDbMaterial
  1
ByLayer
 72
     0
 43
0.0208333333333333
 43
0.0
 43
0.0
 43
0.0
 43
0.0
 43
0.0208333333333333
 43
0.0
 43
0.0
 43
0.0
 43
0.0
 43
1.0
 43
0.0
 43
0.0
 43
0.0
 43
0.0
 43
1.0
 77
     0
 47
0.0208333333333333
 47
0.0
 47
0.0
 47
0.0
 47
0.0
 47
0.0208333333333333
 47
0.0
 47
0.0
 47
0.0
 47
0.0
 47
1.0
 47
0.0
 47
0.0
 47
0.0
 47
0.0
 47
1.0
171
     0
 49
0.0208333333333333
 49
0.0
 49
0.0
 49
0.0
 49
0.0
 49
0.0208333333333333
 49
0.0
 49
0.0
 49
0.0
 49
0.0
 49
1.0
 49
0.0
 49
0.0
 49
0.0
 49
0.0
 49
1.0
175
     0
142
0.0208333333333333
142
0.0
142
0.0
142
0.0
142
0.0
142
0.0208333333333333
142
0.0
142
0.0
142
0.0
142
0.0
142
1.0
142
0.0
142
0.0
142
0.0
142
0.0
142
1.0
179
     0
144
0.0208333333333333
144
0.0
144
0.0
144
0.0
144
0.0
144
0.0208333333333333
144
0.0
144
0.0
144
0.0
144
0.0
144
1.0
144
0.0
144
0.0
144
0.0
144
0.0
144
1.0
147
0.0208333333333333
147
0.0
147
0.0
147
0.0
147
0.0
147
0.0208333333333333
147
0.0
147
0.0
147
0.0
147
0.0
147
1.0
147
0.0
147
0.0
147
0.0
147
0.0
147
1.0
  0
MATERIAL
  5
1406
102
{ACAD_XDICTIONARY
360
1407
102
}
102
{ACAD_REACTORS
330
13F5
102
}
330
13F5
100
AcDbMaterial
  1
Global
 72
     0
 43
0.0208333333333333
 43
0.0
 43
0.0
 43
0.0
 43
0.0
 43
0.0208333333333333
 43
0.0
 43
0.0
 43
0.0
 43
0.0
 43
1.0
 43
0.0
 43
0.0
 43
0.0
 43
0.0
 43
1.0
 77
     0
 47
0.0208333333333333
 47
0.0
 47
0.0
 47
0.0
 47
0.0
 47
0.0208333333333333
 47
0.0
 47
0.0
 47
0.0
 47
0.0
 47
1.0
 47
0.0
 47
0.0
 47
0.0
 47
0.0
 47
1.0
171
     0
 49
0.0208333333333333
 49
0.0
 49
0.0
 49
0.0
 49
0.0
 49
0.0208333333333333
 49
0.0
 49
0.0
 49
0.0
 49
0.0
 49
1.0
 49
0.0
 49
0.0
 49
0.0
 49
0.0
 49
1.0
175
     0
142
0.0208333333333333
142
0.0
142
0.0
142
0.0
142
0.0
142
0.0208333333333333
142
0.0
142
0.0
142
0.0
142
0.0
142
1.0
142
0.0
142
0.0
142
0.0
142
0.0
142
1.0
179
     0
144
0.0208333333333333
144
0.0
144
0.0
144
0.0
144
0.0
144
0.0208333333333333
144
0.0
144
0.0
144
0.0
144
0.0
144
1.0
144
0.0
144
0.0
144
0.0
144
0.0
144
1.0
147
0.0208333333333333
147
0.0
147
0.0
147
0.0
147
0.0
147
0.0208333333333333
147
0.0
147
0.0
147
0.0
147
0.0
147
1.0
147
0.0
147
0.0
147
0.0
147
0.0
147
1.0
  0
MLEADERSTYLE
  5
1445
102
{ACAD_REACTORS
330
1444
102
}
330
1444
100
AcDbMLeaderStyle
170
     2
171
     1
172
     0
 90
        2
 40
0.0
 41
0.0
173
     1
 91
-1056964608
340
11
 92
       -2
290
     1
 42
0.09
291
     1
 43
0.36
  3
Standard
 44
0.18
300

342
F
174
     1
178
     6
175
     1
176
     0
 93
-1056964608
 45
0.18
292
     0
297
     0
 46
0.18
 94
-1056964608
 47
1.0
 49
1.0
140
1.0
293
     1
141
0.0
294
     1
177
     0
142
1.0
295
     0
296
     0
143
0.125
1001
ACAD_MLEADERVER
1070
     2
  0
MLINESTYLE
  5
1B
102
{ACAD_REACTORS
330
1A
102
}
330
1A
100
AcDbMlineStyle
  2
STANDARD
 70
     0
  3

 62
   256
 51
90.0
 52
90.0
 71
     2
 49
0.5
 62
   256
  6
BYLAYER
 49
-0.5
 62
   256
  6
BYLAYER
  0
ACDBPLACEHOLDER
  5
13F4
102
{ACAD_REACTORS
330
13F3
102
}
330
13F3
  0
SCALE
  5
1423
102
{ACAD_REACTORS
330
1422
102
}
330
1422
100
AcDbScale
 70
     0
300
1:1
140
1.0
141
1.0
290
     1
  0
SCALE
  5
1424
102
{ACAD_REACTORS
330
1422
102
}
330
1422
100
AcDbScale
 70
     0
300
1:2
140
1.0
141
2.0
290
     0
  0
SCALE
  5
1425
102
{ACAD_REACTORS
330
1422
102
}
330
1422
100
AcDbScale
 70
     0
300
1:4
140
1.0
141
4.0
290
     0
  0
SCALE
  5
1426
102
{ACAD_REACTORS
330
1422
102
}
330
1422
100
AcDbScale
 70
     0
300
1:5
140
1.0
141
5.0
290
     0
  0
SCALE
  5
1427
102
{ACAD_REACTORS
330
1422
102
}
330
1422
100
AcDbScale
 70
     0
300
1:8
140
1.0
141
8.0
290
     0
  0
SCALE
  5
1428
102
{ACAD_REACTORS
330
1422
102
}
330
1422
100
AcDbScale
 70
     0
300
1:10
140
1.0
141
10.0
290
     0
  0
SCALE
  5
1429
102
{ACAD_REACTORS
330
1422
102
}
330
1422
100
AcDbScale
 70
     0
300
1:16
140
1.0
141
16.0
290
     0
  0
SCALE
  5
142A
102
{ACAD_REACTORS
330
1422
102
}
330
1422
100
AcDbScale
 70
     0
300
1:20
140
1.0
141
20.0
290
     0
  0
SCALE
  5
142B
102
{ACAD_REACTORS
330
1422
102
}
330
1422
100
AcDbScale
 70
     0
300
1:30
140
1.0
141
30.0
290
     0
  0
SCALE
  5
142C
102
{ACAD_REACTORS
330
1422
102
}
330
1422
100
AcDbScale
 70
     0
300
1:40
140
1.0
141
40.0
290
     0
  0
SCALE
  5
142D
102
{ACAD_REACTORS
330
1422
102
}
330
1422
100
AcDbScale
 70
     0
300
1:50
140
1.0
141
50.0
290
     0
  0
SCALE
  5
142E
102
{ACAD_REACTORS
330
1422
102
}
330
1422
100
AcDbScale
 70
     0
300
1:100
140
1.0
141
100.0
290
     0
  0
SCALE
  5
142F
102
{ACAD_REACTORS
330
1422
102
}
330
1422
100
AcDbScale
 70
     0
300
2:1
140
2.0
141
1.0
290
     0
  0
SCALE
  5
1430
102
{ACAD_REACTORS
330
1422
102
}
330
1422
100
AcDbScale
 70
     0
300
4:1
140
4.0
141
1.0
290
     0
  0
SCALE
  5
1431
102
{ACAD_REACTORS
330
1422
102
}
330
1422
100
AcDbScale
 70
     0
300
8:1
140
8.0
141
1.0
290
     0
  0
SCALE
  5
1432
102
{ACAD_REACTORS
330
1422
102
}
330
1422
100
AcDbScale
 70
     0
300
10:1
140
10.0
141
1.0
290
     0
  0
SCALE
  5
1433
102
{ACAD_REACTORS
330
1422
102
}
330
1422
100
AcDbScale
 70
     0
300
100:1
140
100.0
141
1.0
290
     0
  0
SCALE
  5
1434
102
{ACAD_REACTORS
330
1422
102
}
330
1422
100
AcDbScale
 70
     0
300
1/128" = 1'-0"
140
0.0078125
141
12.0
290
     0
  0
SCALE
  5
1435
102
{ACAD_REACTORS
330
1422
102
}
330
1422
100
AcDbScale
 70
     0
300
1/64" = 1'-0"
140
0.015625
141
12.0
290
     0
  0
SCALE
  5
1436
102
{ACAD_REACTORS
330
1422
102
}
330
1422
100
AcDbScale
 70
     0
300
1/32" = 1'-0"
140
0.03125
141
12.0
290
     0
  0
SCALE
  5
1437
102
{ACAD_REACTORS
330
1422
102
}
330
1422
100
AcDbScale
 70
     0
300
1/16" = 1'-0"
140
0.0625
141
12.0
290
     0
  0
SCALE
  5
1438
102
{ACAD_REACTORS
330
1422
102
}
330
1422
100
AcDbScale
 70
     0
300
3/32" = 1'-0"
140
0.09375
141
12.0
290
     0
  0
SCALE
  5
1439
102
{ACAD_REACTORS
330
1422
102
}
330
1422
100
AcDbScale
 70
     0
300
1/8" = 1'-0"
140
0.125
141
12.0
290
     0
  0
SCALE
  5
143A
102
{ACAD_REACTORS
330
1422
102
}
330
1422
100
AcDbScale
 70
     0
300
3/16" = 1'-0"
140
0.1875
141
12.0
290
     0
  0
SCALE
  5
143B
102
{ACAD_REACTORS
330
1422
102
}
330
1422
100
AcDbScale
 70
     0
300
1/4" = 1'-0"
140
0.25
141
12.0
290
     0
  0
SCALE
  5
143C
102
{ACAD_REACTORS
330
1422
102
}
330
1422
100
AcDbScale
 70
     0
300
3/8" = 1'-0"
140
0.375
141
12.0
290
     0
  0
SCALE
  5
143D
102
{ACAD_REACTORS
330
1422
102
}
330
1422
100
AcDbScale
 70
     0
300
1/2" = 1'-0"
140
0.5
141
12.0
290
     0
  0
SCALE
  5
143E
102
{ACAD_REACTORS
330
1422
102
}
330
1422
100
AcDbScale
 70
     0
300
3/4" = 1'-0"
140
0.75
141
12.0
290
     0
  0
SCALE
  5
143F
102
{ACAD_REACTORS
330
1422
102
}
330
1422
100
AcDbScale
 70
     0
300
1" = 1'-0"
140
1.0
141
12.0
290
     0
  0
SCALE
  5
1440
102
{ACAD_REACTORS
330
1422
102
}
330
1422
100
AcDbScale
 70
     0
300
1-1/2" = 1'-0"
140
1.5
141
12.0
290
     0
  0
SCALE
  5
1441
102
{ACAD_REACTORS
330
1422
102
}
330
1422
100
AcDbScale
 70
     0
300
3" = 1'-0"
140
3.0
141
12.0
290
     0
  0
SCALE
  5
1442
102
{ACAD_REACTORS
330
1422
102
}
330
1422
100
AcDbScale
 70
     0
300
6" = 1'-0"
140
6.0
141
12.0
290
     0
  0
SCALE
  5
1443
102
{ACAD_REACTORS
330
1422
102
}
330
1422
100
AcDbScale
 70
     0
300
1'-0" = 1'-0"
140
12.0
141
12.0
290
     0
  0
ACDBSECTIONVIEWSTYLE
  5
172A
102
{ACAD_XDICTIONARY
360
19F5
102
}
102
{ACAD_REACTORS
330
1729
102
}
330
1729
100
AcDbModelDocViewStyle
 70
     0
  3
Imperial24
290
     0
100
AcDbSectionViewStyle
 70
     0
 71
     0
 90
       78
 71
     1
340
F
 62
   256
 40
0.24
340
0
340
0
 62
   256
 40
0.24
300
I, O, Q, S, X, Z
 40
0.48
 90
        3
 40
0.18
 90
        1
 71
     2
340
13
 90
       25
 62
   256
340
13
 90
       50
 62
   256
 40
0.24
 40
0.0
 40
0.24
 71
     3
340
F
 62
   256
 40
0.24
 90
        1
 40
0.75
 90
        1
300
%<\AcVar ViewType \f "%tc1">% %<\AcVar ViewSectionStartId>%-%<\AcVar ViewSectionEndId>%\PSCALE %<\AcVar ViewScale \f "%sn">%
 71
     4
 62
   256
 62
   257
300
ANSI31
 40
1.0
 90
        0
290
     0
290
     0
 90
        6
 40
0.0
 40
1.570796326794896
 40
0.2617993877991494
 40
1.308996938995747
 40
-0.2617993877991494
 40
1.832595714594046
  0
ACDBSECTIONVIEWSTYLE
  5
17E2
102
{ACAD_XDICTIONARY
360
19F9
102
}
102
{ACAD_REACTORS
330
1729
102
}
330
1729
100
AcDbModelDocViewStyle
 70
     0
  3
Metric50
290
     0
100
AcDbSectionViewStyle
 70
     0
 71
     0
 90
      102
 71
     1
340
F
 62
   256
 40
5.0
340
0
340
0
 62
   256
 40
5.0
300
I, O, Q, S, X, Z
 40
10.0
 90
        0
 40
2.5
 90
        0
 71
     2
340
13
 90
       25
 62
   256
340
13
 90
       50
 62
   256
 40
5.0
 40
2.5
 40
5.0
 71
     3
340
F
 62
   256
 40
5.0
 90
        0
 40
15.0
 90
        1
300
%<\AcVar ViewSectionStartId>%-%<\AcVar ViewSectionEndId>% (%<\AcVar ViewScale \f "%sn">%)
 71
     4
 62
   256
 62
   257
300
ANSI31
 40
1.0
 90
        0
290
     0
290
     0
 90
        6
 40
0.0
 40
1.570796326794896
 40
0.2617993877991494
 40
1.308996938995747
 40
-0.2617993877991494
 40
1.832595714594046
  0
TABLESTYLE
  5
1421
102
{ACAD_XDICTIONARY
360
16FE
102
}
102
{ACAD_REACTORS
330
1420
102
}
330
1420
100
AcDbTableStyle
  3
Standard
 70
     0
 71
     0
 40
0.06
 41
0.06
280
     0
281
     0
  7
STANDARD
140
0.18
170
     2
 62
     0
 63
     7
283
     0
274
    -2
284
     1
 64
     0
275
    -2
285
     1
 65
     0
276
    -2
286
     1
 66
     0
277
    -2
287
     1
 67
     0
278
    -2
288
     1
 68
     0
279
    -2
289
     1
 69
     0
  7
STANDARD
140
0.25
170
     5
 62
     0
 63
     7
283
     0
274
    -2
284
     1
 64
     0
275
    -2
285
     1
 65
     0
276
    -2
286
     1
 66
     0
277
    -2
287
     1
 67
     0
278
    -2
288
     1
 68
     0
279
    -2
289
     1
 69
     0
  7
STANDARD
140
0.18
170
     5
 62
     0
 63
     7
283
     0
274
    -2
284
     1
 64
     0
275
    -2
285
     1
 65
     0
276
    -2
286
     1
 66
     0
277
    -2
287
     1
 67
     0
278
    -2
288
     1
 68
     0
279
    -2
289
     1
 69
     0
  0
VISUALSTYLE
  5
1414
102
{ACAD_XDICTIONARY
360
19CA
102
}
102
{ACAD_REACTORS
330
140E
102
}
330
140E
100
AcDbVisualStyle
  2
2dWireframe
 70
     4
 71
     0
 72
     2
 73
     0
 90
        0
 40
-0.6
 41
-30.0
 62
     5
 63
     7
421
 16777215
 74
     1
 91
        4
 64
     7
 65
   257
 75
     1
175
     1
 42
1.0
 92
        0
 66
   257
 43
1.0
 76
     1
 77
     6
 78
     2
 67
     7
 79
     5
170
     0
171
     0
290
     0
174
     0
 93
        1
 44
0.0
173
     0
291
     0
 45
0.0
1001
ACAD
1000
AcDbSavedByObjectVersion
1070
     0
  0
VISUALSTYLE
  5
1416
102
{ACAD_XDICTIONARY
360
19CE
102
}
102
{ACAD_REACTORS
330
140E
102
}
330
140E
100
AcDbVisualStyle
  2
3D Hidden
 70
     6
 71
     1
 72
     2
 73
     2
 90
        0
 40
-0.6
 41
-30.0
 62
     5
 63
     7
421
 16777215
 74
     2
 91
        2
 64
     7
 65
   257
 75
     2
175
     1
 42
40.0
 92
        0
 66
   257
 43
1.0
 76
     1
 77
     6
 78
     2
 67
     7
 79
     3
170
     0
171
     0
290
     0
174
     0
 93
        1
 44
0.0
173
     0
291
     0
 45
0.0
1001
ACAD
1000
AcDbSavedByObjectVersion
1070
     0
  0
VISUALSTYLE
  5
1415
102
{ACAD_XDICTIONARY
360
19CC
102
}
102
{ACAD_REACTORS
330
140E
102
}
330
140E
100
AcDbVisualStyle
  2
3dWireframe
 70
     5
 71
     0
 72
     2
 73
     0
 90
        0
 40
-0.6
 41
-30.0
 62
     5
 63
     7
421
 16777215
 74
     1
 91
        4
 64
     7
 65
   257
 75
     1
175
     1
 42
1.0
 92
        0
 66
   257
 43
1.0
 76
     1
 77
     6
 78
     2
 67
     7
 79
     5
170
     0
171
     0
290
     0
174
     0
 93
        1
 44
0.0
173
     0
291
     0
 45
0.0
1001
ACAD
1000
AcDbSavedByObjectVersion
1070
     0
  0
VISUALSTYLE
  5
1413
102
{ACAD_XDICTIONARY
360
19C8
102
}
102
{ACAD_REACTORS
330
140E
102
}
330
140E
100
AcDbVisualStyle
  2
Basic
 70
     7
 71
     1
 72
     0
 73
     1
 90
        0
 40
-0.6
 41
-30.0
 62
     5
 63
     7
421
 16777215
 74
     0
 91
        4
 64
     7
 65
   257
 75
     1
175
     1
 42
1.0
 92
        8
 66
     7
 43
1.0
 76
     1
 77
     6
 78
     2
 67
     7
 79
     5
170
     0
171
     0
290
     0
174
     0
 93
        1
 44
0.0
173
     0
291
     1
 45
0.0
1001
ACAD
1000
AcDbSavedByObjectVersion
1070
     0
  0
VISUALSTYLE
  5
141A
102
{ACAD_XDICTIONARY
360
19D6
102
}
102
{ACAD_REACTORS
330
140E
102
}
330
140E
100
AcDbVisualStyle
  2
Brighten
 70
    12
 71
     2
 72
     2
 73
     0
 90
        0
 40
-0.6
 41
-30.0
 62
     5
 63
     7
421
 16777215
 74
     1
 91
        4
 64
     7
 65
   257
 75
     1
175
     1
 42
1.0
 92
        8
 66
     7
 43
1.0
 76
     1
 77
     6
 78
     2
 67
     7
 79
     5
170
     0
171
     0
290
     0
174
     0
 93
        1
 44
50.0
173
     0
291
     1
 45
0.0
1001
ACAD
1000
AcDbSavedByObjectVersion
1070
     0
  0
VISUALSTYLE
  5
141E
102
{ACAD_XDICTIONARY
360
19DE
102
}
102
{ACAD_REACTORS
330
140E
102
}
330
140E
100
AcDbVisualStyle
  2
ColorChange
 70
    16
 71
     2
 72
     2
 73
     3
 90
        0
 40
-0.6
 41
-30.0
 62
     5
 63
     8
421
  8421504
 74
     1
 91
        4
 64
     7
 65
   257
 75
     1
175
     1
 42
1.0
 92
        8
 66
     8
424
  8421504
 43
1.0
 76
     1
 77
     6
 78
     2
 67
     7
 79
     5
170
     0
171
     0
290
     0
174
     0
 93
        1
 44
0.0
173
     0
291
     1
 45
0.0
1001
ACAD
1000
AcDbSavedByObjectVersion
1070
     0
  0
VISUALSTYLE
  5
1417
102
{ACAD_XDICTIONARY
360
19D0
102
}
102
{ACAD_REACTORS
330
140E
102
}
330
140E
100
AcDbVisualStyle
  2
Conceptual
 70
     9
 71
     3
 72
     2
 73
     0
 90
        0
 40
-0.6
 41
-30.0
 62
     5
 63
     7
421
 16777215
 74
     2
 91
        2
 64
     7
 65
   257
 75
     1
175
     1
 42
40.0
 92
        8
 66
     7
 43
1.0
 76
     1
 77
     6
 78
     2
 67
     7
 79
     3
170
     0
171
     0
290
     0
174
     0
 93
        1
 44
0.0
173
     0
291
     0
 45
0.0
1001
ACAD
1000
AcDbSavedByObjectVersion
1070
     0
  0
VISUALSTYLE
  5
1419
102
{ACAD_XDICTIONARY
360
19D4
102
}
102
{ACAD_REACTORS
330
140E
102
}
330
140E
100
AcDbVisualStyle
  2
Dim
 70
    11
 71
     2
 72
     2
 73
     0
 90
        0
 40
-0.6
 41
-30.0
 62
     5
 63
     7
421
 16777215
 74
     1
 91
        4
 64
     7
 65
   257
 75
     1
175
     1
 42
1.0
 92
        8
 66
     7
 43
1.0
 76
     1
 77
     6
 78
     2
 67
     7
 79
     5
170
     0
171
     0
290
     0
174
     0
 93
        1
 44
-50.0
173
     0
291
     1
 45
0.0
1001
ACAD
1000
AcDbSavedByObjectVersion
1070
     0
  0
VISUALSTYLE
  5
1728
102
{ACAD_XDICTIONARY
360
19F3
102
}
102
{ACAD_REACTORS
330
140E
102
}
330
140E
100
AcDbVisualStyle
  2
EdgeColorOff
 70
    22
 71
     2
 72
     2
 73
     0
 90
        0
 40
-0.6
 41
-30.0
 62
     5
 63
     7
421
 16777215
 74
     1
 91
        4
 64
     7
 65
   257
 75
     1
175
     1
 42
1.0
 92
        8
 66
     7
 43
1.0
 76
     1
 77
     6
 78
     2
 67
     7
 79
     5
170
     0
171
     0
290
     0
174
     0
 93
        1
 44
0.0
173
     0
291
     1
 45
0.0
1001
ACAD
1000
AcDbSavedByObjectVersion
1070
     0
  0
VISUALSTYLE
  5
141D
102
{ACAD_XDICTIONARY
360
19DC
102
}
102
{ACAD_REACTORS
330
140E
102
}
330
140E
100
AcDbVisualStyle
  2
Facepattern
 70
    15
 71
     2
 72
     2
 73
     0
 90
        0
 40
-0.6
 41
-30.0
 62
     5
 63
     7
421
 16777215
 74
     1
 91
        4
 64
     7
 65
   257
 75
     1
175
     1
 42
1.0
 92
        8
 66
     7
 43
1.0
 76
     1
 77
     6
 78
     2
 67
     7
 79
     5
170
     0
171
     0
290
     0
174
     0
 93
        1
 44
0.0
173
     0
291
     1
 45
0.0
1001
ACAD
1000
AcDbSavedByObjectVersion
1070
     0
  0
VISUALSTYLE
  5
140F
102
{ACAD_XDICTIONARY
360
19C0
102
}
102
{ACAD_REACTORS
330
140E
102
}
330
140E
100
AcDbVisualStyle
  2
Flat
 70
     0
 71
     2
 72
     1
 73
     1
 90
        2
 40
-0.6
 41
30.0
 62
     5
 63
     7
421
 16777215
 74
     0
 91
        4
 64
     7
 65
   257
 75
     1
175
     1
 42
1.0
 92
        8
 66
     7
 43
1.0
 76
     1
 77
     6
 78
     2
 67
     7
 79
     5
170
     0
171
     0
290
     0
174
     0
 93
       13
 44
0.0
173
     0
291
     1
 45
0.0
1001
ACAD
1000
AcDbSavedByObjectVersion
1070
     0
  0
VISUALSTYLE
  5
1410
102
{ACAD_XDICTIONARY
360
19C2
102
}
102
{ACAD_REACTORS
330
140E
102
}
330
140E
100
AcDbVisualStyle
  2
FlatWithEdges
 70
     1
 71
     2
 72
     1
 73
     1
 90
        2
 40
-0.6
 41
30.0
 62
     5
 63
     7
421
 16777215
 74
     1
 91
        4
 64
     7
 65
   257
 75
     1
175
     1
 42
1.0
 92
        0
 66
   257
 43
1.0
 76
     1
 77
     6
 78
     2
 67
     7
 79
     5
170
     0
171
     0
290
     0
174
     0
 93
       13
 44
0.0
173
     0
291
     1
 45
0.0
1001
ACAD
1000
AcDbSavedByObjectVersion
1070
     0
  0
VISUALSTYLE
  5
1411
102
{ACAD_XDICTIONARY
360
19C4
102
}
102
{ACAD_REACTORS
330
140E
102
}
330
140E
100
AcDbVisualStyle
  2
Gouraud
 70
     2
 71
     2
 72
     2
 73
     1
 90
        2
 40
-0.6
 41
30.0
 62
     5
 63
     7
421
 16777215
 74
     0
 91
        4
 64
     7
 65
   257
 75
     1
175
     1
 42
1.0
 92
        0
 66
     7
 43
1.0
 76
     1
 77
     6
 78
     2
 67
     7
 79
     5
170
     0
171
     0
290
     0
174
     0
 93
       13
 44
0.0
173
     0
291
     1
 45
0.0
1001
ACAD
1000
AcDbSavedByObjectVersion
1070
     0
  0
VISUALSTYLE
  5
1412
102
{ACAD_XDICTIONARY
360
19C6
102
}
102
{ACAD_REACTORS
330
140E
102
}
330
140E
100
AcDbVisualStyle
  2
GouraudWithEdges
 70
     3
 71
     2
 72
     2
 73
     1
 90
        2
 40
-0.6
 41
30.0
 62
     5
 63
     7
421
 16777215
 74
     1
 91
        4
 64
     7
 65
   257
 75
     1
175
     1
 42
1.0
 92
        0
 66
   257
 43
1.0
 76
     1
 77
     6
 78
     2
 67
     7
 79
     5
170
     0
171
     0
290
     0
174
     0
 93
       13
 44
0.0
173
     0
291
     1
 45
0.0
1001
ACAD
1000
AcDbSavedByObjectVersion
1070
     0
  0
VISUALSTYLE
  5
1720
102
{ACAD_XDICTIONARY
360
19E3
102
}
102
{ACAD_REACTORS
330
140E
102
}
330
140E
100
AcDbVisualStyle
  2
Hidden
 70
     6
 71
     1
 72
     2
 73
     2
 90
        0
 40
-0.6
 41
-30.0
 62
     5
 63
     7
421
 16777215
 74
     2
 91
        2
 64
     7
 65
   257
 75
     2
175
     1
 42
40.0
 92
        0
 66
   257
 43
1.0
 76
     1
 77
     6
 78
     2
 67
     7
 79
     3
170
     0
171
     0
290
     0
174
     0
 93
        1
 44
0.0
173
     0
291
     0
 45
0.0
1001
ACAD
1000
AcDbSavedByObjectVersion
1070
     0
  0
VISUALSTYLE
  5
1726
102
{ACAD_XDICTIONARY
360
19EF
102
}
102
{ACAD_REACTORS
330
140E
102
}
330
140E
100
AcDbVisualStyle
  2
JitterOff
 70
    20
 71
     2
 72
     2
 73
     0
 90
        0
 40
-0.6
 41
-30.0
 62
     5
 63
     7
421
 16777215
 74
     1
 91
        4
 64
     7
 65
   257
 75
     1
175
     1
 42
1.0
 92
       10
 66
     7
 43
1.0
 76
     1
 77
     6
 78
     2
 67
     7
 79
     5
170
     0
171
     0
290
     0
174
     0
 93
        1
 44
0.0
173
     0
291
     1
 45
0.0
1001
ACAD
1000
AcDbSavedByObjectVersion
1070
     0
  0
VISUALSTYLE
  5
141C
102
{ACAD_XDICTIONARY
360
19DA
102
}
102
{ACAD_REACTORS
330
140E
102
}
330
140E
100
AcDbVisualStyle
  2
Linepattern
 70
    14
 71
     2
 72
     2
 73
     0
 90
        0
 40
-0.6
 41
-30.0
 62
     5
 63
     7
421
 16777215
 74
     1
 91
        4
 64
     7
 65
   257
 75
     7
175
     7
 42
1.0
 92
        8
 66
     7
 43
1.0
 76
     1
 77
     6
 78
     2
 67
     7
 79
     5
170
     0
171
     0
290
     0
174
     0
 93
        1
 44
0.0
173
     0
291
     1
 45
0.0
1001
ACAD
1000
AcDbSavedByObjectVersion
1070
     0
  0
VISUALSTYLE
  5
1727
102
{ACAD_XDICTIONARY
360
19F1
102
}
102
{ACAD_REACTORS
330
140E
102
}
330
140E
100
AcDbVisualStyle
  2
OverhangOff
 70
    21
 71
     2
 72
     2
 73
     0
 90
        0
 40
-0.6
 41
-30.0
 62
     5
 63
     7
421
 16777215
 74
     1
 91
        4
 64
     7
 65
   257
 75
     1
175
     1
 42
1.0
 92
        9
 66
     7
 43
1.0
 76
     1
 77
     6
 78
     2
 67
     7
 79
     5
170
     0
171
     0
290
     0
174
     0
 93
        1
 44
0.0
173
     0
291
     1
 45
0.0
1001
ACAD
1000
AcDbSavedByObjectVersion
1070
     0
  0
VISUALSTYLE
  5
1418
102
{ACAD_XDICTIONARY
360
19D2
102
}
102
{ACAD_REACTORS
330
140E
102
}
330
140E
100
AcDbVisualStyle
  2
Realistic
 70
     8
 71
     2
 72
     2
 73
     0
 90
        0
 40
-0.6
 41
-30.0
 62
     5
 63
     7
421
 16777215
 74
     1
 91
        0
 64
     7
 65
   257
 75
     1
175
     1
 42
1.0
 92
        8
 66
     8
424
  7895160
 43
1.0
 76
     1
 77
     6
 78
     2
 67
     7
 79
     5
170
     0
171
     0
290
     0
174
     0
 93
       13
 44
0.0
173
     0
291
     0
 45
0.0
1001
ACAD
1000
AcDbSavedByObjectVersion
1070
     0
  0
VISUALSTYLE
  5
1725
102
{ACAD_XDICTIONARY
360
19ED
102
}
102
{ACAD_REACTORS
330
140E
102
}
330
140E
100
AcDbVisualStyle
  2
Shaded
 70
    27
 71
     2
 72
     2
 73
     1
 90
        2
 40
-0.6
 41
30.0
 62
     5
 63
     7
421
 16777215
 74
     0
 91
        4
 64
     7
 65
   257
 75
     1
175
     1
 42
1.0
 92
        8
 66
   257
 43
1.0
 76
     1
 77
     6
 78
     2
 67
     8
425
  7895160
 79
     3
170
     0
171
     0
290
     0
174
     0
 93
        5
 44
0.0
173
     0
291
     0
 45
0.0
1001
ACAD
1000
AcDbSavedByObjectVersion
1070
     0
  0
VISUALSTYLE
  5
1724
102
{ACAD_XDICTIONARY
360
19EB
102
}
102
{ACAD_REACTORS
330
140E
102
}
330
140E
100
AcDbVisualStyle
  2
Shaded with edges
 70
    26
 71
     2
 72
     2
 73
     1
 90
        2
 40
-0.6
 41
30.0
 62
     5
 63
     7
421
 16777215
 74
     1
 91
        2
 64
     7
 65
   257
 75
     2
175
     1
 42
1.0
 92
        8
 66
   257
 43
1.0
 76
     1
 77
     6
 78
     2
 67
     7
 79
     3
170
     0
171
     0
290
     0
174
     0
 93
        5
 44
0.0
173
     0
291
     0
 45
0.0
1001
ACAD
1000
AcDbSavedByObjectVersion
1070
     0
  0
VISUALSTYLE
  5
1721
102
{ACAD_XDICTIONARY
360
19E5
102
}
102
{ACAD_REACTORS
330
140E
102
}
330
140E
100
AcDbVisualStyle
  2
Shades of Gray
 70
    23
 71
     2
 72
     2
 73
     3
 90
        0
 40
-0.6
 41
-30.0
 62
     5
 63
     7
421
 16777215
 74
     2
 91
        2
 64
     7
 65
     7
 75
     1
175
     1
 42
40.0
 92
        8
 66
     7
 43
1.0
 76
     1
 77
     6
 78
     2
 67
     7
 79
     3
170
     0
171
     0
290
     0
174
     0
 93
        1
 44
0.0
173
     0
291
     0
 45
0.0
1001
ACAD
1000
AcDbSavedByObjectVersion
1070
     0
  0
VISUALSTYLE
  5
1722
102
{ACAD_XDICTIONARY
360
19E7
102
}
102
{ACAD_REACTORS
330
140E
102
}
330
140E
100
AcDbVisualStyle
  2
Sketchy
 70
    24
 71
     1
 72
     2
 73
     2
 90
        0
 40
-0.6
 41
-30.0
 62
     5
 63
     7
421
 16777215
 74
     2
 91
        2
 64
     7
 65
     7
 75
     1
175
     1
 42
40.0
 92
       11
 66
     7
 43
1.0
 76
     1
 77
     6
 78
     2
 67
     7
 79
     6
170
     0
171
     0
290
     0
174
     0
 93
        1
 44
0.0
173
     0
291
     0
 45
0.0
1001
ACAD
1000
AcDbSavedByObjectVersion
1070
     0
  0
VISUALSTYLE
  5
141B
102
{ACAD_XDICTIONARY
360
19D8
102
}
102
{ACAD_REACTORS
330
140E
102
}
330
140E
100
AcDbVisualStyle
  2
Thicken
 70
    13
 71
     2
 72
     2
 73
     0
 90
        0
 40
-0.6
 41
-30.0
 62
     5
 63
     7
421
 16777215
 74
     1
 91
        4
 64
     7
 65
   257
 75
     1
175
     1
 42
1.0
 92
       12
 66
     7
 43
1.0
 76
     1
 77
     6
 78
     2
 67
     7
 79
     5
170
     0
171
     0
290
     0
174
     0
 93
        1
 44
0.0
173
     0
291
     1
 45
0.0
1001
ACAD
1000
AcDbSavedByObjectVersion
1070
     0
  0
VISUALSTYLE
  5
171F
102
{ACAD_XDICTIONARY
360
19E1
102
}
102
{ACAD_REACTORS
330
140E
102
}
330
140E
100
AcDbVisualStyle
  2
Wireframe
 70
     5
 71
     0
 72
     2
 73
     0
 90
        0
 40
-0.6
 41
-30.0
 62
     5
 63
     7
421
 16777215
 74
     1
 91
        4
 64
     7
 65
   257
 75
     1
175
     1
 42
1.0
 92
        0
 66
   257
 43
1.0
 76
     1
 77
     6
 78
     2
 67
     7
 79
     3
170
     0
171
     0
290
     0
174
     0
 93
        1
 44
0.0
173
     0
291
     0
 45
0.0
1001
ACAD
1000
AcDbSavedByObjectVersion
1070
     0
  0
VISUALSTYLE
  5
1723
102
{ACAD_XDICTIONARY
360
19E9
102
}
102
{ACAD_REACTORS
330
140E
102
}
330
140E
100
AcDbVisualStyle
  2
X-Ray
 70
    25
 71
     2
 72
     2
 73
     1
 90
        1
 40
0.5
 41
-30.0
 62
     5
 63
     7
421
 16777215
 74
     1
 91
        0
 64
     7
 65
   257
 75
     1
175
     1
 42
1.0
 92
        8
 66
     7
 43
1.0
 76
     1
 77
     6
 78
     2
 67
     7
 79
     3
170
     0
171
     0
290
     0
174
     0
 93
       13
 44
0.0
173
     0
291
     0
 45
0.0
1001
ACAD
1000
AcDbSavedByObjectVersion
1070
     0
  0
DICTIONARYVAR
  5
1704
102
{ACAD_REACTORS
330
30
102
}
330
30
100
DictionaryVariables
280
     0
  1
1:1
  0
DICTIONARYVAR
  5
1702
102
{ACAD_REACTORS
330
30
102
}
330
30
100
DictionaryVariables
280
     0
  1
STANDARD
  0
DICTIONARYVAR
  5
1701
102
{ACAD_REACTORS
330
30
102
}
330
30
100
DictionaryVariables
280
     0
  1
STANDARD
  0
DICTIONARYVAR
  5
1733
102
{ACAD_REACTORS
330
30
102
}
330
30
100
DictionaryVariables
280
     0
  1
Imperial24
  0
DICTIONARYVAR
  5
1734
102
{ACAD_REACTORS
330
30
102
}
330
30
100
DictionaryVariables
280
     0
  1
Imperial24
  0
DICTIONARYVAR
  5
31
102
{ACAD_REACTORS
330
30
102
}
330
30
100
DictionaryVariables
280
     0
  1
4
  0
DICTIONARYVAR
  5
1705
102
{ACAD_REACTORS
330
30
102
}
330
30
100
DictionaryVariables
280
     0
  1
0
  0
DICTIONARYVAR
  5
1703
102
{ACAD_REACTORS
330
30
102
}
330
30
100
DictionaryVariables
280
     0
  1
0
  0
DICTIONARYVAR
  5
1735
102
{ACAD_REACTORS
330
30
102
}
330
30
100
DictionaryVariables
280
     0
  1
1
  0
DICTIONARY
  5
19B8
102
{ACAD_REACTORS
330
19B6
102
}
330
19B6
100
AcDbDictionary
281
     1
  0
DICTIONARY
  5
19B7
102
{ACAD_REACTORS
330
19B6
102
}
330
19B6
100
AcDbDictionary
281
     1
  3
1737500347024
350
19B1
  3
1737500347040
350
19B2
  3
1737500347056
350
19B3
  3
1737500347072
350
19B4
  3
1737500347088
350
19B5
  0
DICTIONARY
  5
19F7
330
172C
100
AcDbDictionary
280
     1
281
     1
  3
ACAD_XREC_ROUNDTRIP
360
19F8
  0
DICTIONARY
  5
19FB
330
17E3
100
AcDbDictionary
280
     1
281
     1
  3
ACAD_XREC_ROUNDTRIP
360
19FC
  0
DICTIONARY
  5
13FF
330
13FE
100
AcDbDictionary
280
     1
281
     1
  3
ACAD_XREC_ROUNDTRIP
360
19BE
  3
BUMPTILE
360
1401
  3
DIFFUSETILE
360
1400
  3
OPACITYTILE
360
1404
  3
REFLECTIONTILE
360
1403
  3
REFRACTIONTILE
360
1405
  3
SPECULARTILE
360
1402
  0
DICTIONARY
  5
13F7
330
13F6
100
AcDbDictionary
280
     1
281
     1
  3
ACAD_XREC_ROUNDTRIP
360
19BD
  3
BUMPTILE
360
13F9
  3
DIFFUSETILE
360
13F8
  3
OPACITYTILE
360
13FC
  3
REFLECTIONTILE
360
13FB
  3
REFRACTIONTILE
360
13FD
  3
SPECULARTILE
360
13FA
  0
DICTIONARY
  5
1407
330
1406
100
AcDbDictionary
280
     1
281
     1
  3
ACAD_XREC_ROUNDTRIP
360
19BF
  3
BUMPTILE
360
1409
  3
DIFFUSETILE
360
1408
  3
OPACITYTILE
360
140C
  3
REFLECTIONTILE
360
140B
  3
REFRACTIONTILE
360
140D
  3
SPECULARTILE
360
140A
  0
DICTIONARY
  5
19F5
330
172A
100
AcDbDictionary
280
     1
281
     1
  3
ACAD_XREC_ROUNDTRIP
360
19F6
  0
DICTIONARY
  5
19F9
330
17E2
100
AcDbDictionary
280
     1
281
     1
  3
ACAD_XREC_ROUNDTRIP
360
19FA
  0
DICTIONARY
  5
16FE
330
1421
100
AcDbDictionary
280
     1
281
     1
  3
ACAD_ROUNDTRIP_2008_TABLESTYLE_CELLSTYLEMAP
360
19AF
  3
ACAD_XREC_ROUNDTRIP
360
19E0
  0
DICTIONARY
  5
19CA
330
1414
100
AcDbDictionary
280
     1
281
     1
  3
ACAD_XREC_ROUNDTRIP
360
19CB
  0
DICTIONARY
  5
19CE
330
1416
100
AcDbDictionary
280
     1
281
     1
  3
ACAD_XREC_ROUNDTRIP
360
19CF
  0
DICTIONARY
  5
19CC
330
1415
100
AcDbDictionary
280
     1
281
     1
  3
ACAD_XREC_ROUNDTRIP
360
19CD
  0
DICTIONARY
  5
19C8
330
1413
100
AcDbDictionary
280
     1
281
     1
  3
ACAD_XREC_ROUNDTRIP
360
19C9
  0
DICTIONARY
  5
19D6
330
141A
100
AcDbDictionary
280
     1
281
     1
  3
ACAD_XREC_ROUNDTRIP
360
19D7
  0
DICTIONARY
  5
19DE
330
141E
100
AcDbDictionary
280
     1
281
     1
  3
ACAD_XREC_ROUNDTRIP
360
19DF
  0
DICTIONARY
  5
19D0
330
1417
100
AcDbDictionary
280
     1
281
     1
  3
ACAD_XREC_ROUNDTRIP
360
19D1
  0
DICTIONARY
  5
19D4
330
1419
100
AcDbDictionary
280
     1
281
     1
  3
ACAD_XREC_ROUNDTRIP
360
19D5
  0
DICTIONARY
  5
19F3
330
1728
100
AcDbDictionary
280
     1
281
     1
  3
ACAD_XREC_ROUNDTRIP
360
19F4
  0
DICTIONARY
  5
19DC
330
141D
100
AcDbDictionary
280
     1
281
     1
  3
ACAD_XREC_ROUNDTRIP
360
19DD
  0
DICTIONARY
  5
19C0
330
140F
100
AcDbDictionary
280
     1
281
     1
  3
ACAD_XREC_ROUNDTRIP
360
19C1
  0
DICTIONARY
  5
19C2
330
1410
100
AcDbDictionary
280
     1
281
     1
  3
ACAD_XREC_ROUNDTRIP
360
19C3
  0
DICTIONARY
  5
19C4
330
1411
100
AcDbDictionary
280
     1
281
     1
  3
ACAD_XREC_ROUNDTRIP
360
19C5
  0
DICTIONARY
  5
19C6
330
1412
100
AcDbDictionary
280
     1
281
     1
  3
ACAD_XREC_ROUNDTRIP
360
19C7
  0
DICTIONARY
  5
19E3
330
1720
100
AcDbDictionary
280
     1
281
     1
  3
ACAD_XREC_ROUNDTRIP
360
19E4
  0
DICTIONARY
  5
19EF
330
1726
100
AcDbDictionary
280
     1
281
     1
  3
ACAD_XREC_ROUNDTRIP
360
19F0
  0
DICTIONARY
  5
19DA
330
141C
100
AcDbDictionary
280
     1
281
     1
  3
ACAD_XREC_ROUNDTRIP
360
19DB
  0
DICTIONARY
  5
19F1
330
1727
100
AcDbDictionary
280
     1
281
     1
  3
ACAD_XREC_ROUNDTRIP
360
19F2
  0
DICTIONARY
  5
19D2
330
1418
100
AcDbDictionary
280
     1
281
     1
  3
ACAD_XREC_ROUNDTRIP
360
19D3
  0
DICTIONARY
  5
19ED
330
1725
100
AcDbDictionary
280
     1
281
     1
  3
ACAD_XREC_ROUNDTRIP
360
19EE
  0
DICTIONARY
  5
19EB
330
1724
100
AcDbDictionary
280
     1
281
     1
  3
ACAD_XREC_ROUNDTRIP
360
19EC
  0
DICTIONARY
  5
19E5
330
1721
100
AcDbDictionary
280
     1
281
     1
  3
ACAD_XREC_ROUNDTRIP
360
19E6
  0
DICTIONARY
  5
19E7
330
1722
100
AcDbDictionary
280
     1
281
     1
  3
ACAD_XREC_ROUNDTRIP
360
19E8
  0
DICTIONARY
  5
19D8
330
141B
100
AcDbDictionary
280
     1
281
     1
  3
ACAD_XREC_ROUNDTRIP
360
19D9
  0
DICTIONARY
  5
19E1
330
171F
100
AcDbDictionary
280
     1
281
     1
  3
ACAD_XREC_ROUNDTRIP
360
19E2
  0
DICTIONARY
  5
19E9
330
1723
100
AcDbDictionary
280
     1
281
     1
  3
ACAD_XREC_ROUNDTRIP
360
19EA
  0
XRECORD
  5
19B1
102
{ACAD_REACTORS
330
19B7
102
}
330
19B7
100
AcDbXrecord
280
     1
  1
AcDb_Thumbnail_Schema
102
{ATTRRECORD
341
19B2
  2
AcDbDs::TreatedAsObjectData
280
     1
291
     1
102
ATTRRECORD}
102
{ATTRRECORD
341
19B3
  2
AcDbDs::Legacy
280
     1
291
     1
102
ATTRRECORD}
  2
AcDbDs::ID
280
    10
 91
        8
102
{ATTRRECORD
341
19B4
  2
AcDs:Indexable
280
     1
291
     1
102
ATTRRECORD}
102
{ATTRRECORD
341
19B5
  2
AcDbDs::HandleAttribute
280
     7
282
     1
102
ATTRRECORD}
  2
Thumbnail_Data
280
    15
 91
        0
  0
XRECORD
  5
19B2
102
{ACAD_REACTORS
330
19B7
102
}
330
19B7
100
AcDbXrecord
280
     1
  1
AcDbDs::TreatedAsObjectDataSchema
  2
AcDbDs::TreatedAsObjectData
280
     1
 91
        0
  0
XRECORD
  5
19B3
102
{ACAD_REACTORS
330
19B7
102
}
330
19B7
100
AcDbXrecord
280
     1
  1
AcDbDs::LegacySchema
  2
AcDbDs::Legacy
280
     1
 91
        0
  0
XRECORD
  5
19B4
102
{ACAD_REACTORS
330
19B7
102
}
330
19B7
100
AcDbXrecord
280
     1
  1
AcDbDs::IndexedPropertySchema
  2
AcDs:Indexable
280
     1
 91
        0
  0
XRECORD
  5
19B5
102
{ACAD_REACTORS
330
19B7
102
}
330
19B7
100
AcDbXrecord
280
     1
  1
AcDbDs::HandleAttributeSchema
  2
AcDbDs::HandleAttribute
280
     7
 91
        1
284
     1
  0
XRECORD
  5
19F8
102
{ACAD_REACTORS
330
19F7
102
}
330
19F7
100
AcDbXrecord
280
     1
102
DISPLAYNAME
  1
Imperial24
102
FLAGS
 90
        0
  0
XRECORD
  5
19FC
102
{ACAD_REACTORS
330
19FB
102
}
330
19FB
100
AcDbXrecord
280
     1
102
DISPLAYNAME
  1
Metric50
102
FLAGS
 90
        0
  0
XRECORD
  5
19BE
102
{ACAD_REACTORS
330
13FF
102
}
330
13FF
100
AcDbXrecord
280
     1
102
MATERIAL
148
0.0
149
0.0
149
0.0
 93
        0
 94
      127
282
     0
 72
     0
 77
     0
171
     0
175
     0
179
     0
273
     0
  0
XRECORD
  5
1401
102
{ACAD_REACTORS
330
13FF
102
}
330
13FF
100
AcDbXrecord
280
     1
270
     1
271
     1
  0
XRECORD
  5
1400
102
{ACAD_REACTORS
330
13FF
102
}
330
13FF
100
AcDbXrecord
280
     1
270
     1
271
     1
  0
XRECORD
  5
1404
102
{ACAD_REACTORS
330
13FF
102
}
330
13FF
100
AcDbXrecord
280
     1
270
     1
271
     1
  0
XRECORD
  5
1403
102
{ACAD_REACTORS
330
13FF
102
}
330
13FF
100
AcDbXrecord
280
     1
270
     1
271
     1
  0
XRECORD
  5
1405
102
{ACAD_REACTORS
330
13FF
102
}
330
13FF
100
AcDbXrecord
280
     1
270
     1
271
     1
  0
XRECORD
  5
1402
102
{ACAD_REACTORS
330
13FF
102
}
330
13FF
100
AcDbXrecord
280
     1
270
     1
271
     1
  0
XRECORD
  5
19BD
102
{ACAD_REACTORS
330
13F7
102
}
330
13F7
100
AcDbXrecord
280
     1
102
MATERIAL
148
0.0
149
0.0
149
0.0
 93
        0
 94
      127
282
     0
 72
     0
 77
     0
171
     0
175
     0
179
     0
273
     0
  0
XRECORD
  5
13F9
102
{ACAD_REACTORS
330
13F7
102
}
330
13F7
100
AcDbXrecord
280
     1
270
     1
271
     1
  0
XRECORD
  5
13F8
102
{ACAD_REACTORS
330
13F7
102
}
330
13F7
100
AcDbXrecord
280
     1
270
     1
271
     1
  0
XRECORD
  5
13FC
102
{ACAD_REACTORS
330
13F7
102
}
330
13F7
100
AcDbXrecord
280
     1
270
     1
271
     1
  0
XRECORD
  5
13FB
102
{ACAD_REACTORS
330
13F7
102
}
330
13F7
100
AcDbXrecord
280
     1
270
     1
271
     1
  0
XRECORD
  5
13FD
102
{ACAD_REACTORS
330
13F7
102
}
330
13F7
100
AcDbXrecord
280
     1
270
     1
271
     1
  0
XRECORD
  5
13FA
102
{ACAD_REACTORS
330
13F7
102
}
330
13F7
100
AcDbXrecord
280
     1
270
     1
271
     1
  0
XRECORD
  5
19BF
102
{ACAD_REACTORS
330
1407
102
}
330
1407
100
AcDbXrecord
280
     1
102
MATERIAL
148
0.0
149
0.0
149
0.0
 93
        0
 94
      127
282
     0
 72
     0
 77
     0
171
     0
175
     0
179
     0
273
     0
  0
XRECORD
  5
1409
102
{ACAD_REACTORS
330
1407
102
}
330
1407
100
AcDbXrecord
280
     1
270
     1
271
     1
  0
XRECORD
  5
1408
102
{ACAD_REACTORS
330
1407
102
}
330
1407
100
AcDbXrecord
280
     1
270
     1
271
     1
  0
XRECORD
  5
140C
102
{ACAD_REACTORS
330
1407
102
}
330
1407
100
AcDbXrecord
280
     1
270
     1
271
     1
  0
XRECORD
  5
140B
102
{ACAD_REACTORS
330
1407
102
}
330
1407
100
AcDbXrecord
280
     1
270
     1
271
     1
  0
XRECORD
  5
140D
102
{ACAD_REACTORS
330
1407
102
}
330
1407
100
AcDbXrecord
280
     1
270
     1
271
     1
  0
XRECORD
  5
140A
102
{ACAD_REACTORS
330
1407
102
}
330
1407
100
AcDbXrecord
280
     1
270
     1
271
     1
  0
XRECORD
  5
19F6
102
{ACAD_REACTORS
330
19F5
102
}
330
19F5
100
AcDbXrecord
280
     1
102
DISPLAYNAME
  1
Imperial24
102
FLAGS
 90
        0
  0
XRECORD
  5
19FA
102
{ACAD_REACTORS
330
19F9
102
}
330
19F9
100
AcDbXrecord
280
     1
102
DISPLAYNAME
  1
Metric50
102
FLAGS
 90
        0
  0
CELLSTYLEMAP
  5
19AF
102
{ACAD_REACTORS
330
16FE
102
}
330
16FE
100
AcDbCellStyleMap
 90
        3
300
CELLSTYLE
  1
TABLEFORMAT_BEGIN
 90
        5
170
     1
 91
        0
 92
    32768
 62
   257
 93
        1
300
CONTENTFORMAT
  1
CONTENTFORMAT_BEGIN
 90
        0
 91
        0
 92
      512
 93
        0
300

 40
0.0
140
1.0
 94
        5
 62
     0
340
F
144
0.25
309
CONTENTFORMAT_END
171
     0
 94
        0
309
TABLEFORMAT_END
  1
CELLSTYLE_BEGIN
 90
        1
 91
        1
300
_TITLE
309
CELLSTYLE_END
300
CELLSTYLE
  1
TABLEFORMAT_BEGIN
 90
        5
170
     1
 91
        0
 92
        0
 62
   257
 93
        1
300
CONTENTFORMAT
  1
CONTENTFORMAT_BEGIN
 90
        0
 91
        0
 92
      512
 93
        0
300

 40
0.0
140
1.0
 94
        5
 62
     0
340
F
144
0.18
309
CONTENTFORMAT_END
171
     0
 94
        0
309
TABLEFORMAT_END
  1
CELLSTYLE_BEGIN
 90
        2
 91
        1
300
_HEADER
309
CELLSTYLE_END
300
CELLSTYLE
  1
TABLEFORMAT_BEGIN
 90
        5
170
     1
 91
        0
 92
        0
 62
   257
 93
        1
300
CONTENTFORMAT
  1
CONTENTFORMAT_BEGIN
 90
        0
 91
        0
 92
      512
 93
        0
300

 40
0.0
140
1.0
 94
        2
 62
     0
340
F
144
0.18
309
CONTENTFORMAT_END
171
     0
 94
        0
309
TABLEFORMAT_END
  1
CELLSTYLE_BEGIN
 90
        3
 91
        2
300
_DATA
309
CELLSTYLE_END
  0
XRECORD
  5
19E0
102
{ACAD_REACTORS
330
16FE
102
}
330
16FE
100
AcDbXrecord
280
     1
102
ACAD_ROUNDTRIP_PRE2007_TABLESTYLE
 90
      512
 91
        0
  1

 92
      512
 93
        0
  2

 94
      512
 95
        0
  3

  0
XRECORD
  5
19CB
102
{ACAD_REACTORS
330
19CA
102
}
330
19CA
100
AcDbXrecord
280
     1
102
RTVSPost2010Prop28
280
     1
102
RTVSPost2010PropOp28
 70
     1
102
RTVSPost2010Prop29
280
     1
102
RTVSPost2010PropOp29
 70
     1
102
RTVSPost2010Prop30
280
     0
102
RTVSPost2010PropOp30
 70
     1
102
RTVSPost2010Prop31
280
     0
102
RTVSPost2010PropOp31
 70
     1
102
RTVSPost2010Prop32
280
     0
102
RTVSPost2010PropOp32
 70
     1
102
RTVSPost2010Prop33
280
     0
102
RTVSPost2010PropOp33
 70
     1
102
RTVSPost2010Prop34
280
     0
102
RTVSPost2010PropOp34
 70
     1
102
RTVSPost2010Prop35
280
     0
102
RTVSPost2010PropOp35
 70
     1
102
RTVSPost2010Prop36
280
     0
102
RTVSPost2010PropOp36
 70
     1
102
RTVSPost2010Prop37
 90
       50
102
RTVSPost2010PropOp37
 70
     1
102
RTVSPost2010Prop38
140
0.0
102
RTVSPost2010PropOp38
 70
     1
102
RTVSPost2010Prop39
140
1.0
102
RTVSPost2010PropOp39
 70
     1
102
RTVSPost2010Prop40
 90
        0
102
RTVSPost2010PropOp40
 70
     1
102
RTVSPost2010Prop41ColorIndex
 90
       18
102
RTVSPost2010Prop41ColorRGB
 90
        0
102
RTVSPost2010PropOp41
 70
     1
102
RTVSPost2010Prop42
 90
       50
102
RTVSPost2010PropOp42
 70
     1
102
RTVSPost2010Prop43
 90
        3
102
RTVSPost2010PropOp43
 70
     1
102
RTVSPost2010Prop44ColorIndex
 90
        5
102
RTVSPost2010Prop44ColorRGB
 90
      255
102
RTVSPost2010PropOp44
 70
     1
102
RTVSPost2010Prop45
280
     0
102
RTVSPost2010PropOp45
 70
     1
102
RTVSPost2010Prop46
 90
       50
102
RTVSPost2010PropOp46
 70
     1
102
RTVSPost2010Prop47
 90
       50
102
RTVSPost2010PropOp47
 70
     1
102
RTVSPost2010Prop48
 90
       50
102
RTVSPost2010PropOp48
 70
     1
102
RTVSPost2010Prop49
280
     0
102
RTVSPost2010PropOp49
 70
     1
102
RTVSPost2010Prop50
 90
       50
102
RTVSPost2010PropOp50
 70
     1
102
RTVSPost2010Prop51ColorIndex
 90
      256
102
RTVSPost2010Prop51ColorRGB
 90
-16777216
102
RTVSPost2010PropOp51
 70
     0
102
RTVSPost2010Prop52
140
1.0
102
RTVSPost2010PropOp52
 70
     0
102
RTVSPost2010Prop53
 90
        2
102
RTVSPost2010PropOp53
 70
     1
102
RTVSPost2010Prop54
  1
strokes_ogs.tif
102
RTVSPost2010PropOp54
 70
     1
102
RTVSPost2010Prop55
280
     0
102
RTVSPost2010PropOp55
 70
     1
102
RTVSPost2010Prop56
140
1.0
102
RTVSPost2010PropOp56
 70
     1
102
RTVSPost2010Prop57
140
1.0
102
RTVSPost2010PropOp57
 70
     1
102
RTVSPropertyOp0
 70
     1
102
RTVSPropertyOp1
 70
     1
102
RTVSPropertyOp2
 70
     1
102
RTVSPropertyOp3
 70
     1
102
RTVSPropertyOp4
 70
     1
102
RTVSPropertyOp5
 70
     1
102
RTVSPropertyOp6
 70
     1
102
RTVSPropertyOp7
 70
     1
102
RTVSPropertyOp8
 70
     1
102
RTVSPropertyOp9
 70
     1
102
RTVSPropertyOp10
 70
     1
102
RTVSPropertyOp11
 70
     1
102
RTVSPropertyOp12
 70
     1
102
RTVSPropertyOp13
 70
     1
102
RTVSPropertyOp14
 70
     1
102
RTVSPropertyOp15
 70
     1
102
RTVSPropertyOp16
 70
     1
102
RTVSPropertyOp17
 70
     1
102
RTVSPropertyOp18
 70
     1
102
RTVSPropertyOp19
 70
     1
102
RTVSPropertyOp20
 70
     1
102
RTVSPropertyOp21
 70
     1
102
RTVSPropertyOp22
 70
     1
102
RTVSPropertyOp23
 70
     1
102
RTVSPropertyOp24
 70
     1
102
RTVSPropertyOp25
 70
     1
102
RTVSPropertyOp26
 70
     1
102
RTVSPropertyOp27
 70
     1
102
RTVSPropertyOp28
 70
     1
102
RTVSPropertyOp29
 70
     1
102
RTVSPropertyOp30
 70
     1
102
RTVSPropertyOp31
 70
     1
102
RTVSPropertyOp32
 70
     1
102
RTVSPropertyOp33
 70
     1
102
RTVSPropertyOp34
 70
     1
102
RTVSPropertyOp35
 70
     1
102
RTVSPropertyOp36
 70
     1
102
RTVSPropertyOp37
 70
     1
102
RTVSPropertyOp38
 70
     1
102
RTVSPropertyOp39
 70
     1
102
RTVSPropertyOp40
 70
     1
102
RTVSPropertyOp41
 70
     1
102
RTVSPropertyOp42
 70
     1
102
RTVSPropertyOp43
 70
     1
102
RTVSPropertyOp44
 70
     1
102
RTVSPropertyOp45
 70
     1
102
RTVSPropertyOp46
 70
     1
102
RTVSPropertyOp47
 70
     1
102
RTVSPropertyOp48
 70
     1
102
RTVSPropertyOp49
 70
     1
102
RTVSPropertyOp50
 70
     1
102
RTVSPropertyOp51
 70
     0
102
RTVSPropertyOp52
 70
     0
102
RTVSPropertyOp53
 70
     1
102
RTVSPropertyOp54
 70
     1
102
RTVSPropertyOp55
 70
     1
102
RTVSPropertyOp56
 70
     1
102
RTVSPropertyOp57
 70
     1
102
RTVSPropertyOp58
 70
     1
102
RTVSPropertyOp59
 70
     1
102
RTVSPropertyOp60
 70
     1
102
RTVSPropertyOp61
 70
     1
102
RTVSPropertyOp62
 70
     1
  0
XRECORD
  5
19CF
102
{ACAD_REACTORS
330
19CE
102
}
330
19CE
100
AcDbXrecord
280
     1
102
RTVSPost2010Prop28
280
     0
102
RTVSPost2010PropOp28
 70
     1
102
RTVSPost2010Prop29
280
     1
102
RTVSPost2010PropOp29
 70
     1
102
RTVSPost2010Prop30
280
     1
102
RTVSPost2010PropOp30
 70
     1
102
RTVSPost2010Prop31
280
     0
102
RTVSPost2010PropOp31
 70
     1
102
RTVSPost2010Prop32
280
     0
102
RTVSPost2010PropOp32
 70
     1
102
RTVSPost2010Prop33
280
     0
102
RTVSPost2010PropOp33
 70
     1
102
RTVSPost2010Prop34
280
     0
102
RTVSPost2010PropOp34
 70
     1
102
RTVSPost2010Prop35
280
     0
102
RTVSPost2010PropOp35
 70
     1
102
RTVSPost2010Prop36
280
     0
102
RTVSPost2010PropOp36
 70
     1
102
RTVSPost2010Prop37
 90
       50
102
RTVSPost2010PropOp37
 70
     1
102
RTVSPost2010Prop38
140
0.0
102
RTVSPost2010PropOp38
 70
     1
102
RTVSPost2010Prop39
140
1.0
102
RTVSPost2010PropOp39
 70
     1
102
RTVSPost2010Prop40
 90
        0
102
RTVSPost2010PropOp40
 70
     1
102
RTVSPost2010Prop41ColorIndex
 90
       18
102
RTVSPost2010Prop41ColorRGB
 90
        0
102
RTVSPost2010PropOp41
 70
     1
102
RTVSPost2010Prop42
 90
       50
102
RTVSPost2010PropOp42
 70
     1
102
RTVSPost2010Prop43
 90
        3
102
RTVSPost2010PropOp43
 70
     1
102
RTVSPost2010Prop44ColorIndex
 90
        5
102
RTVSPost2010Prop44ColorRGB
 90
      255
102
RTVSPost2010PropOp44
 70
     1
102
RTVSPost2010Prop45
280
     0
102
RTVSPost2010PropOp45
 70
     1
102
RTVSPost2010Prop46
 90
       50
102
RTVSPost2010PropOp46
 70
     1
102
RTVSPost2010Prop47
 90
       50
102
RTVSPost2010PropOp47
 70
     1
102
RTVSPost2010Prop48
 90
       50
102
RTVSPost2010PropOp48
 70
     1
102
RTVSPost2010Prop49
280
     0
102
RTVSPost2010PropOp49
 70
     1
102
RTVSPost2010Prop50
 90
       50
102
RTVSPost2010PropOp50
 70
     1
102
RTVSPost2010Prop51ColorIndex
 90
      256
102
RTVSPost2010Prop51ColorRGB
 90
-16777216
102
RTVSPost2010PropOp51
 70
     0
102
RTVSPost2010Prop52
140
1.0
102
RTVSPost2010PropOp52
 70
     0
102
RTVSPost2010Prop53
 90
        2
102
RTVSPost2010PropOp53
 70
     1
102
RTVSPost2010Prop54
  1
strokes_ogs.tif
102
RTVSPost2010PropOp54
 70
     1
102
RTVSPost2010Prop55
280
     0
102
RTVSPost2010PropOp55
 70
     1
102
RTVSPost2010Prop56
140
1.0
102
RTVSPost2010PropOp56
 70
     1
102
RTVSPost2010Prop57
140
1.0
102
RTVSPost2010PropOp57
 70
     1
102
RTVSPropertyOp0
 70
     1
102
RTVSPropertyOp1
 70
     1
102
RTVSPropertyOp2
 70
     1
102
RTVSPropertyOp3
 70
     1
102
RTVSPropertyOp4
 70
     1
102
RTVSPropertyOp5
 70
     1
102
RTVSPropertyOp6
 70
     1
102
RTVSPropertyOp7
 70
     1
102
RTVSPropertyOp8
 70
     1
102
RTVSPropertyOp9
 70
     1
102
RTVSPropertyOp10
 70
     1
102
RTVSPropertyOp11
 70
     1
102
RTVSPropertyOp12
 70
     1
102
RTVSPropertyOp13
 70
     1
102
RTVSPropertyOp14
 70
     1
102
RTVSPropertyOp15
 70
     1
102
RTVSPropertyOp16
 70
     1
102
RTVSPropertyOp17
 70
     1
102
RTVSPropertyOp18
 70
     1
102
RTVSPropertyOp19
 70
     1
102
RTVSPropertyOp20
 70
     1
102
RTVSPropertyOp21
 70
     1
102
RTVSPropertyOp22
 70
     1
102
RTVSPropertyOp23
 70
     1
102
RTVSPropertyOp24
 70
     1
102
RTVSPropertyOp25
 70
     1
102
RTVSPropertyOp26
 70
     1
102
RTVSPropertyOp27
 70
     1
102
RTVSPropertyOp28
 70
     1
102
RTVSPropertyOp29
 70
     1
102
RTVSPropertyOp30
 70
     1
102
RTVSPropertyOp31
 70
     1
102
RTVSPropertyOp32
 70
     1
102
RTVSPropertyOp33
 70
     1
102
RTVSPropertyOp34
 70
     1
102
RTVSPropertyOp35
 70
     1
102
RTVSPropertyOp36
 70
     1
102
RTVSPropertyOp37
 70
     1
102
RTVSPropertyOp38
 70
     1
102
RTVSPropertyOp39
 70
     1
102
RTVSPropertyOp40
 70
     1
102
RTVSPropertyOp41
 70
     1
102
RTVSPropertyOp42
 70
     1
102
RTVSPropertyOp43
 70
     1
102
RTVSPropertyOp44
 70
     1
102
RTVSPropertyOp45
 70
     1
102
RTVSPropertyOp46
 70
     1
102
RTVSPropertyOp47
 70
     1
102
RTVSPropertyOp48
 70
     1
102
RTVSPropertyOp49
 70
     1
102
RTVSPropertyOp50
 70
     1
102
RTVSPropertyOp51
 70
     0
102
RTVSPropertyOp52
 70
     0
102
RTVSPropertyOp53
 70
     1
102
RTVSPropertyOp54
 70
     1
102
RTVSPropertyOp55
 70
     1
102
RTVSPropertyOp56
 70
     1
102
RTVSPropertyOp57
 70
     1
102
RTVSPropertyOp58
 70
     1
102
RTVSPropertyOp59
 70
     1
102
RTVSPropertyOp60
 70
     1
102
RTVSPropertyOp61
 70
     1
102
RTVSPropertyOp62
 70
     1
  0
XRECORD
  5
19CD
102
{ACAD_REACTORS
330
19CC
102
}
330
19CC
100
AcDbXrecord
280
     1
102
RTVSPost2010Prop28
280
     0
102
RTVSPost2010PropOp28
 70
     1
102
RTVSPost2010Prop29
280
     1
102
RTVSPost2010PropOp29
 70
     1
102
RTVSPost2010Prop30
280
     1
102
RTVSPost2010PropOp30
 70
     1
102
RTVSPost2010Prop31
280
     0
102
RTVSPost2010PropOp31
 70
     1
102
RTVSPost2010Prop32
280
     0
102
RTVSPost2010PropOp32
 70
     1
102
RTVSPost2010Prop33
280
     0
102
RTVSPost2010PropOp33
 70
     1
102
RTVSPost2010Prop34
280
     0
102
RTVSPost2010PropOp34
 70
     1
102
RTVSPost2010Prop35
280
     0
102
RTVSPost2010PropOp35
 70
     1
102
RTVSPost2010Prop36
280
     0
102
RTVSPost2010PropOp36
 70
     1
102
RTVSPost2010Prop37
 90
       50
102
RTVSPost2010PropOp37
 70
     1
102
RTVSPost2010Prop38
140
0.0
102
RTVSPost2010PropOp38
 70
     1
102
RTVSPost2010Prop39
140
1.0
102
RTVSPost2010PropOp39
 70
     1
102
RTVSPost2010Prop40
 90
        0
102
RTVSPost2010PropOp40
 70
     1
102
RTVSPost2010Prop41ColorIndex
 90
       18
102
RTVSPost2010Prop41ColorRGB
 90
        0
102
RTVSPost2010PropOp41
 70
     1
102
RTVSPost2010Prop42
 90
       50
102
RTVSPost2010PropOp42
 70
     1
102
RTVSPost2010Prop43
 90
        3
102
RTVSPost2010PropOp43
 70
     1
102
RTVSPost2010Prop44ColorIndex
 90
        5
102
RTVSPost2010Prop44ColorRGB
 90
      255
102
RTVSPost2010PropOp44
 70
     1
102
RTVSPost2010Prop45
280
     0
102
RTVSPost2010PropOp45
 70
     1
102
RTVSPost2010Prop46
 90
       50
102
RTVSPost2010PropOp46
 70
     1
102
RTVSPost2010Prop47
 90
       50
102
RTVSPost2010PropOp47
 70
     1
102
RTVSPost2010Prop48
 90
       50
102
RTVSPost2010PropOp48
 70
     1
102
RTVSPost2010Prop49
280
     0
102
RTVSPost2010PropOp49
 70
     1
102
RTVSPost2010Prop50
 90
       50
102
RTVSPost2010PropOp50
 70
     1
102
RTVSPost2010Prop51ColorIndex
 90
      256
102
RTVSPost2010Prop51ColorRGB
 90
-16777216
102
RTVSPost2010PropOp51
 70
     0
102
RTVSPost2010Prop52
140
1.0
102
RTVSPost2010PropOp52
 70
     0
102
RTVSPost2010Prop53
 90
        2
102
RTVSPost2010PropOp53
 70
     1
102
RTVSPost2010Prop54
  1
strokes_ogs.tif
102
RTVSPost2010PropOp54
 70
     1
102
RTVSPost2010Prop55
280
     0
102
RTVSPost2010PropOp55
 70
     1
102
RTVSPost2010Prop56
140
1.0
102
RTVSPost2010PropOp56
 70
     1
102
RTVSPost2010Prop57
140
1.0
102
RTVSPost2010PropOp57
 70
     1
102
RTVSPropertyOp0
 70
     1
102
RTVSPropertyOp1
 70
     1
102
RTVSPropertyOp2
 70
     1
102
RTVSPropertyOp3
 70
     1
102
RTVSPropertyOp4
 70
     1
102
RTVSPropertyOp5
 70
     1
102
RTVSPropertyOp6
 70
     1
102
RTVSPropertyOp7
 70
     1
102
RTVSPropertyOp8
 70
     1
102
RTVSPropertyOp9
 70
     1
102
RTVSPropertyOp10
 70
     1
102
RTVSPropertyOp11
 70
     1
102
RTVSPropertyOp12
 70
     1
102
RTVSPropertyOp13
 70
     1
102
RTVSPropertyOp14
 70
     1
102
RTVSPropertyOp15
 70
     1
102
RTVSPropertyOp16
 70
     1
102
RTVSPropertyOp17
 70
     1
102
RTVSPropertyOp18
 70
     1
102
RTVSPropertyOp19
 70
     1
102
RTVSPropertyOp20
 70
     1
102
RTVSPropertyOp21
 70
     1
102
RTVSPropertyOp22
 70
     1
102
RTVSPropertyOp23
 70
     1
102
RTVSPropertyOp24
 70
     1
102
RTVSPropertyOp25
 70
     1
102
RTVSPropertyOp26
 70
     1
102
RTVSPropertyOp27
 70
     1
102
RTVSPropertyOp28
 70
     1
102
RTVSPropertyOp29
 70
     1
102
RTVSPropertyOp30
 70
     1
102
RTVSPropertyOp31
 70
     1
102
RTVSPropertyOp32
 70
     1
102
RTVSPropertyOp33
 70
     1
102
RTVSPropertyOp34
 70
     1
102
RTVSPropertyOp35
 70
     1
102
RTVSPropertyOp36
 70
     1
102
RTVSPropertyOp37
 70
     1
102
RTVSPropertyOp38
 70
     1
102
RTVSPropertyOp39
 70
     1
102
RTVSPropertyOp40
 70
     1
102
RTVSPropertyOp41
 70
     1
102
RTVSPropertyOp42
 70
     1
102
RTVSPropertyOp43
 70
     1
102
RTVSPropertyOp44
 70
     1
102
RTVSPropertyOp45
 70
     1
102
RTVSPropertyOp46
 70
     1
102
RTVSPropertyOp47
 70
     1
102
RTVSPropertyOp48
 70
     1
102
RTVSPropertyOp49
 70
     1
102
RTVSPropertyOp50
 70
     1
102
RTVSPropertyOp51
 70
     0
102
RTVSPropertyOp52
 70
     0
102
RTVSPropertyOp53
 70
     1
102
RTVSPropertyOp54
 70
     1
102
RTVSPropertyOp55
 70
     1
102
RTVSPropertyOp56
 70
     1
102
RTVSPropertyOp57
 70
     1
102
RTVSPropertyOp58
 70
     1
102
RTVSPropertyOp59
 70
     1
102
RTVSPropertyOp60
 70
     1
102
RTVSPropertyOp61
 70
     1
102
RTVSPropertyOp62
 70
     1
  0
XRECORD
  5
19C9
102
{ACAD_REACTORS
330
19C8
102
}
330
19C8
100
AcDbXrecord
280
     1
102
RTVSPost2010Prop28
280
     0
102
RTVSPost2010PropOp28
 70
     1
102
RTVSPost2010Prop29
280
     1
102
RTVSPost2010PropOp29
 70
     1
102
RTVSPost2010Prop30
280
     1
102
RTVSPost2010PropOp30
 70
     1
102
RTVSPost2010Prop31
280
     0
102
RTVSPost2010PropOp31
 70
     1
102
RTVSPost2010Prop32
280
     0
102
RTVSPost2010PropOp32
 70
     1
102
RTVSPost2010Prop33
280
     0
102
RTVSPost2010PropOp33
 70
     1
102
RTVSPost2010Prop34
280
     0
102
RTVSPost2010PropOp34
 70
     1
102
RTVSPost2010Prop35
280
     0
102
RTVSPost2010PropOp35
 70
     1
102
RTVSPost2010Prop36
280
     0
102
RTVSPost2010PropOp36
 70
     1
102
RTVSPost2010Prop37
 90
       50
102
RTVSPost2010PropOp37
 70
     1
102
RTVSPost2010Prop38
140
0.0
102
RTVSPost2010PropOp38
 70
     1
102
RTVSPost2010Prop39
140
1.0
102
RTVSPost2010PropOp39
 70
     1
102
RTVSPost2010Prop40
 90
        0
102
RTVSPost2010PropOp40
 70
     1
102
RTVSPost2010Prop41ColorIndex
 90
       18
102
RTVSPost2010Prop41ColorRGB
 90
        0
102
RTVSPost2010PropOp41
 70
     1
102
RTVSPost2010Prop42
 90
       50
102
RTVSPost2010PropOp42
 70
     1
102
RTVSPost2010Prop43
 90
        3
102
RTVSPost2010PropOp43
 70
     1
102
RTVSPost2010Prop44ColorIndex
 90
        5
102
RTVSPost2010Prop44ColorRGB
 90
      255
102
RTVSPost2010PropOp44
 70
     1
102
RTVSPost2010Prop45
280
     0
102
RTVSPost2010PropOp45
 70
     1
102
RTVSPost2010Prop46
 90
       50
102
RTVSPost2010PropOp46
 70
     1
102
RTVSPost2010Prop47
 90
       50
102
RTVSPost2010PropOp47
 70
     1
102
RTVSPost2010Prop48
 90
       50
102
RTVSPost2010PropOp48
 70
     1
102
RTVSPost2010Prop49
280
     0
102
RTVSPost2010PropOp49
 70
     1
102
RTVSPost2010Prop50
 90
       50
102
RTVSPost2010PropOp50
 70
     1
102
RTVSPost2010Prop51ColorIndex
 90
      256
102
RTVSPost2010Prop51ColorRGB
 90
-16777216
102
RTVSPost2010PropOp51
 70
     0
102
RTVSPost2010Prop52
140
1.0
102
RTVSPost2010PropOp52
 70
     0
102
RTVSPost2010Prop53
 90
        2
102
RTVSPost2010PropOp53
 70
     1
102
RTVSPost2010Prop54
  1
strokes_ogs.tif
102
RTVSPost2010PropOp54
 70
     1
102
RTVSPost2010Prop55
280
     0
102
RTVSPost2010PropOp55
 70
     1
102
RTVSPost2010Prop56
140
1.0
102
RTVSPost2010PropOp56
 70
     1
102
RTVSPost2010Prop57
140
1.0
102
RTVSPost2010PropOp57
 70
     1
102
RTVSPropertyOp0
 70
     1
102
RTVSPropertyOp1
 70
     1
102
RTVSPropertyOp2
 70
     1
102
RTVSPropertyOp3
 70
     1
102
RTVSPropertyOp4
 70
     1
102
RTVSPropertyOp5
 70
     1
102
RTVSPropertyOp6
 70
     1
102
RTVSPropertyOp7
 70
     1
102
RTVSPropertyOp8
 70
     1
102
RTVSPropertyOp9
 70
     1
102
RTVSPropertyOp10
 70
     1
102
RTVSPropertyOp11
 70
     1
102
RTVSPropertyOp12
 70
     1
102
RTVSPropertyOp13
 70
     1
102
RTVSPropertyOp14
 70
     1
102
RTVSPropertyOp15
 70
     1
102
RTVSPropertyOp16
 70
     1
102
RTVSPropertyOp17
 70
     1
102
RTVSPropertyOp18
 70
     1
102
RTVSPropertyOp19
 70
     1
102
RTVSPropertyOp20
 70
     1
102
RTVSPropertyOp21
 70
     1
102
RTVSPropertyOp22
 70
     1
102
RTVSPropertyOp23
 70
     1
102
RTVSPropertyOp24
 70
     1
102
RTVSPropertyOp25
 70
     1
102
RTVSPropertyOp26
 70
     1
102
RTVSPropertyOp27
 70
     1
102
RTVSPropertyOp28
 70
     1
102
RTVSPropertyOp29
 70
     1
102
RTVSPropertyOp30
 70
     1
102
RTVSPropertyOp31
 70
     1
102
RTVSPropertyOp32
 70
     1
102
RTVSPropertyOp33
 70
     1
102
RTVSPropertyOp34
 70
     1
102
RTVSPropertyOp35
 70
     1
102
RTVSPropertyOp36
 70
     1
102
RTVSPropertyOp37
 70
     1
102
RTVSPropertyOp38
 70
     1
102
RTVSPropertyOp39
 70
     1
102
RTVSPropertyOp40
 70
     1
102
RTVSPropertyOp41
 70
     1
102
RTVSPropertyOp42
 70
     1
102
RTVSPropertyOp43
 70
     1
102
RTVSPropertyOp44
 70
     1
102
RTVSPropertyOp45
 70
     1
102
RTVSPropertyOp46
 70
     1
102
RTVSPropertyOp47
 70
     1
102
RTVSPropertyOp48
 70
     1
102
RTVSPropertyOp49
 70
     1
102
RTVSPropertyOp50
 70
     1
102
RTVSPropertyOp51
 70
     0
102
RTVSPropertyOp52
 70
     0
102
RTVSPropertyOp53
 70
     1
102
RTVSPropertyOp54
 70
     1
102
RTVSPropertyOp55
 70
     1
102
RTVSPropertyOp56
 70
     1
102
RTVSPropertyOp57
 70
     1
102
RTVSPropertyOp58
 70
     1
102
RTVSPropertyOp59
 70
     1
102
RTVSPropertyOp60
 70
     1
102
RTVSPropertyOp61
 70
     1
102
RTVSPropertyOp62
 70
     1
  0
XRECORD
  5
19D7
102
{ACAD_REACTORS
330
19D6
102
}
330
19D6
100
AcDbXrecord
280
     1
102
RTVSPost2010Prop28
280
     0
102
RTVSPost2010PropOp28
 70
     1
102
RTVSPost2010Prop29
280
     1
102
RTVSPost2010PropOp29
 70
     1
102
RTVSPost2010Prop30
280
     1
102
RTVSPost2010PropOp30
 70
     1
102
RTVSPost2010Prop31
280
     0
102
RTVSPost2010PropOp31
 70
     1
102
RTVSPost2010Prop32
280
     0
102
RTVSPost2010PropOp32
 70
     1
102
RTVSPost2010Prop33
280
     0
102
RTVSPost2010PropOp33
 70
     1
102
RTVSPost2010Prop34
280
     0
102
RTVSPost2010PropOp34
 70
     1
102
RTVSPost2010Prop35
280
     0
102
RTVSPost2010PropOp35
 70
     1
102
RTVSPost2010Prop36
280
     0
102
RTVSPost2010PropOp36
 70
     1
102
RTVSPost2010Prop37
 90
       50
102
RTVSPost2010PropOp37
 70
     1
102
RTVSPost2010Prop38
140
0.0
102
RTVSPost2010PropOp38
 70
     1
102
RTVSPost2010Prop39
140
1.0
102
RTVSPost2010PropOp39
 70
     1
102
RTVSPost2010Prop40
 90
        0
102
RTVSPost2010PropOp40
 70
     1
102
RTVSPost2010Prop41ColorIndex
 90
       18
102
RTVSPost2010Prop41ColorRGB
 90
        0
102
RTVSPost2010PropOp41
 70
     1
102
RTVSPost2010Prop42
 90
       50
102
RTVSPost2010PropOp42
 70
     1
102
RTVSPost2010Prop43
 90
        3
102
RTVSPost2010PropOp43
 70
     1
102
RTVSPost2010Prop44ColorIndex
 90
        5
102
RTVSPost2010Prop44ColorRGB
 90
      255
102
RTVSPost2010PropOp44
 70
     1
102
RTVSPost2010Prop45
280
     0
102
RTVSPost2010PropOp45
 70
     1
102
RTVSPost2010Prop46
 90
       50
102
RTVSPost2010PropOp46
 70
     1
102
RTVSPost2010Prop47
 90
       50
102
RTVSPost2010PropOp47
 70
     1
102
RTVSPost2010Prop48
 90
       50
102
RTVSPost2010PropOp48
 70
     1
102
RTVSPost2010Prop49
280
     0
102
RTVSPost2010PropOp49
 70
     1
102
RTVSPost2010Prop50
 90
       50
102
RTVSPost2010PropOp50
 70
     1
102
RTVSPost2010Prop51ColorIndex
 90
      256
102
RTVSPost2010Prop51ColorRGB
 90
-16777216
102
RTVSPost2010PropOp51
 70
     0
102
RTVSPost2010Prop52
140
1.0
102
RTVSPost2010PropOp52
 70
     0
102
RTVSPost2010Prop53
 90
        2
102
RTVSPost2010PropOp53
 70
     1
102
RTVSPost2010Prop54
  1
strokes_ogs.tif
102
RTVSPost2010PropOp54
 70
     1
102
RTVSPost2010Prop55
280
     0
102
RTVSPost2010PropOp55
 70
     1
102
RTVSPost2010Prop56
140
1.0
102
RTVSPost2010PropOp56
 70
     1
102
RTVSPost2010Prop57
140
1.0
102
RTVSPost2010PropOp57
 70
     1
102
RTVSPropertyOp0
 70
     1
102
RTVSPropertyOp1
 70
     1
102
RTVSPropertyOp2
 70
     1
102
RTVSPropertyOp3
 70
     1
102
RTVSPropertyOp4
 70
     1
102
RTVSPropertyOp5
 70
     1
102
RTVSPropertyOp6
 70
     1
102
RTVSPropertyOp7
 70
     1
102
RTVSPropertyOp8
 70
     1
102
RTVSPropertyOp9
 70
     1
102
RTVSPropertyOp10
 70
     1
102
RTVSPropertyOp11
 70
     1
102
RTVSPropertyOp12
 70
     1
102
RTVSPropertyOp13
 70
     1
102
RTVSPropertyOp14
 70
     1
102
RTVSPropertyOp15
 70
     1
102
RTVSPropertyOp16
 70
     1
102
RTVSPropertyOp17
 70
     1
102
RTVSPropertyOp18
 70
     1
102
RTVSPropertyOp19
 70
     1
102
RTVSPropertyOp20
 70
     1
102
RTVSPropertyOp21
 70
     1
102
RTVSPropertyOp22
 70
     1
102
RTVSPropertyOp23
 70
     1
102
RTVSPropertyOp24
 70
     1
102
RTVSPropertyOp25
 70
     1
102
RTVSPropertyOp26
 70
     1
102
RTVSPropertyOp27
 70
     1
102
RTVSPropertyOp28
 70
     1
102
RTVSPropertyOp29
 70
     1
102
RTVSPropertyOp30
 70
     1
102
RTVSPropertyOp31
 70
     1
102
RTVSPropertyOp32
 70
     1
102
RTVSPropertyOp33
 70
     1
102
RTVSPropertyOp34
 70
     1
102
RTVSPropertyOp35
 70
     1
102
RTVSPropertyOp36
 70
     1
102
RTVSPropertyOp37
 70
     1
102
RTVSPropertyOp38
 70
     1
102
RTVSPropertyOp39
 70
     1
102
RTVSPropertyOp40
 70
     1
102
RTVSPropertyOp41
 70
     1
102
RTVSPropertyOp42
 70
     1
102
RTVSPropertyOp43
 70
     1
102
RTVSPropertyOp44
 70
     1
102
RTVSPropertyOp45
 70
     1
102
RTVSPropertyOp46
 70
     1
102
RTVSPropertyOp47
 70
     1
102
RTVSPropertyOp48
 70
     1
102
RTVSPropertyOp49
 70
     1
102
RTVSPropertyOp50
 70
     1
102
RTVSPropertyOp51
 70
     0
102
RTVSPropertyOp52
 70
     0
102
RTVSPropertyOp53
 70
     1
102
RTVSPropertyOp54
 70
     1
102
RTVSPropertyOp55
 70
     1
102
RTVSPropertyOp56
 70
     1
102
RTVSPropertyOp57
 70
     1
102
RTVSPropertyOp58
 70
     1
102
RTVSPropertyOp59
 70
     1
102
RTVSPropertyOp60
 70
     1
102
RTVSPropertyOp61
 70
     1
102
RTVSPropertyOp62
 70
     1
  0
XRECORD
  5
19DF
102
{ACAD_REACTORS
330
19DE
102
}
330
19DE
100
AcDbXrecord
280
     1
102
RTVSPost2010Prop28
280
     0
102
RTVSPost2010PropOp28
 70
     1
102
RTVSPost2010Prop29
280
     1
102
RTVSPost2010PropOp29
 70
     1
102
RTVSPost2010Prop30
280
     1
102
RTVSPost2010PropOp30
 70
     1
102
RTVSPost2010Prop31
280
     0
102
RTVSPost2010PropOp31
 70
     1
102
RTVSPost2010Prop32
280
     0
102
RTVSPost2010PropOp32
 70
     1
102
RTVSPost2010Prop33
280
     0
102
RTVSPost2010PropOp33
 70
     1
102
RTVSPost2010Prop34
280
     0
102
RTVSPost2010PropOp34
 70
     1
102
RTVSPost2010Prop35
280
     0
102
RTVSPost2010PropOp35
 70
     1
102
RTVSPost2010Prop36
280
     0
102
RTVSPost2010PropOp36
 70
     1
102
RTVSPost2010Prop37
 90
       50
102
RTVSPost2010PropOp37
 70
     1
102
RTVSPost2010Prop38
140
0.0
102
RTVSPost2010PropOp38
 70
     1
102
RTVSPost2010Prop39
140
1.0
102
RTVSPost2010PropOp39
 70
     1
102
RTVSPost2010Prop40
 90
        0
102
RTVSPost2010PropOp40
 70
     1
102
RTVSPost2010Prop41ColorIndex
 90
       18
102
RTVSPost2010Prop41ColorRGB
 90
        0
102
RTVSPost2010PropOp41
 70
     1
102
RTVSPost2010Prop42
 90
       50
102
RTVSPost2010PropOp42
 70
     1
102
RTVSPost2010Prop43
 90
        3
102
RTVSPost2010PropOp43
 70
     1
102
RTVSPost2010Prop44ColorIndex
 90
        5
102
RTVSPost2010Prop44ColorRGB
 90
      255
102
RTVSPost2010PropOp44
 70
     1
102
RTVSPost2010Prop45
280
     0
102
RTVSPost2010PropOp45
 70
     1
102
RTVSPost2010Prop46
 90
       50
102
RTVSPost2010PropOp46
 70
     1
102
RTVSPost2010Prop47
 90
       50
102
RTVSPost2010PropOp47
 70
     1
102
RTVSPost2010Prop48
 90
       50
102
RTVSPost2010PropOp48
 70
     1
102
RTVSPost2010Prop49
280
     0
102
RTVSPost2010PropOp49
 70
     1
102
RTVSPost2010Prop50
 90
       50
102
RTVSPost2010PropOp50
 70
     1
102
RTVSPost2010Prop51ColorIndex
 90
      256
102
RTVSPost2010Prop51ColorRGB
 90
-16777216
102
RTVSPost2010PropOp51
 70
     0
102
RTVSPost2010Prop52
140
1.0
102
RTVSPost2010PropOp52
 70
     0
102
RTVSPost2010Prop53
 90
        2
102
RTVSPost2010PropOp53
 70
     1
102
RTVSPost2010Prop54
  1
strokes_ogs.tif
102
RTVSPost2010PropOp54
 70
     1
102
RTVSPost2010Prop55
280
     0
102
RTVSPost2010PropOp55
 70
     1
102
RTVSPost2010Prop56
140
1.0
102
RTVSPost2010PropOp56
 70
     1
102
RTVSPost2010Prop57
140
1.0
102
RTVSPost2010PropOp57
 70
     1
102
RTVSPropertyOp0
 70
     1
102
RTVSPropertyOp1
 70
     1
102
RTVSPropertyOp2
 70
     1
102
RTVSPropertyOp3
 70
     1
102
RTVSPropertyOp4
 70
     1
102
RTVSPropertyOp5
 70
     1
102
RTVSPropertyOp6
 70
     1
102
RTVSPropertyOp7
 70
     1
102
RTVSPropertyOp8
 70
     1
102
RTVSPropertyOp9
 70
     1
102
RTVSPropertyOp10
 70
     1
102
RTVSPropertyOp11
 70
     1
102
RTVSPropertyOp12
 70
     1
102
RTVSPropertyOp13
 70
     1
102
RTVSPropertyOp14
 70
     1
102
RTVSPropertyOp15
 70
     1
102
RTVSPropertyOp16
 70
     1
102
RTVSPropertyOp17
 70
     1
102
RTVSPropertyOp18
 70
     1
102
RTVSPropertyOp19
 70
     1
102
RTVSPropertyOp20
 70
     1
102
RTVSPropertyOp21
 70
     1
102
RTVSPropertyOp22
 70
     1
102
RTVSPropertyOp23
 70
     1
102
RTVSPropertyOp24
 70
     1
102
RTVSPropertyOp25
 70
     1
102
RTVSPropertyOp26
 70
     1
102
RTVSPropertyOp27
 70
     1
102
RTVSPropertyOp28
 70
     1
102
RTVSPropertyOp29
 70
     1
102
RTVSPropertyOp30
 70
     1
102
RTVSPropertyOp31
 70
     1
102
RTVSPropertyOp32
 70
     1
102
RTVSPropertyOp33
 70
     1
102
RTVSPropertyOp34
 70
     1
102
RTVSPropertyOp35
 70
     1
102
RTVSPropertyOp36
 70
     1
102
RTVSPropertyOp37
 70
     1
102
RTVSPropertyOp38
 70
     1
102
RTVSPropertyOp39
 70
     1
102
RTVSPropertyOp40
 70
     1
102
RTVSPropertyOp41
 70
     1
102
RTVSPropertyOp42
 70
     1
102
RTVSPropertyOp43
 70
     1
102
RTVSPropertyOp44
 70
     1
102
RTVSPropertyOp45
 70
     1
102
RTVSPropertyOp46
 70
     1
102
RTVSPropertyOp47
 70
     1
102
RTVSPropertyOp48
 70
     1
102
RTVSPropertyOp49
 70
     1
102
RTVSPropertyOp50
 70
     1
102
RTVSPropertyOp51
 70
     0
102
RTVSPropertyOp52
 70
     0
102
RTVSPropertyOp53
 70
     1
102
RTVSPropertyOp54
 70
     1
102
RTVSPropertyOp55
 70
     1
102
RTVSPropertyOp56
 70
     1
102
RTVSPropertyOp57
 70
     1
102
RTVSPropertyOp58
 70
     1
102
RTVSPropertyOp59
 70
     1
102
RTVSPropertyOp60
 70
     1
102
RTVSPropertyOp61
 70
     1
102
RTVSPropertyOp62
 70
     1
  0
XRECORD
  5
19D1
102
{ACAD_REACTORS
330
19D0
102
}
330
19D0
100
AcDbXrecord
280
     1
102
RTVSPost2010Prop28
280
     0
102
RTVSPost2010PropOp28
 70
     1
102
RTVSPost2010Prop29
280
     1
102
RTVSPost2010PropOp29
 70
     1
102
RTVSPost2010Prop30
280
     1
102
RTVSPost2010PropOp30
 70
     1
102
RTVSPost2010Prop31
280
     0
102
RTVSPost2010PropOp31
 70
     1
102
RTVSPost2010Prop32
280
     0
102
RTVSPost2010PropOp32
 70
     1
102
RTVSPost2010Prop33
280
     0
102
RTVSPost2010PropOp33
 70
     1
102
RTVSPost2010Prop34
280
     0
102
RTVSPost2010PropOp34
 70
     1
102
RTVSPost2010Prop35
280
     0
102
RTVSPost2010PropOp35
 70
     1
102
RTVSPost2010Prop36
280
     0
102
RTVSPost2010PropOp36
 70
     1
102
RTVSPost2010Prop37
 90
       50
102
RTVSPost2010PropOp37
 70
     1
102
RTVSPost2010Prop38
140
0.0
102
RTVSPost2010PropOp38
 70
     1
102
RTVSPost2010Prop39
140
1.0
102
RTVSPost2010PropOp39
 70
     1
102
RTVSPost2010Prop40
 90
        0
102
RTVSPost2010PropOp40
 70
     1
102
RTVSPost2010Prop41ColorIndex
 90
       18
102
RTVSPost2010Prop41ColorRGB
 90
        0
102
RTVSPost2010PropOp41
 70
     1
102
RTVSPost2010Prop42
 90
       50
102
RTVSPost2010PropOp42
 70
     1
102
RTVSPost2010Prop43
 90
        3
102
RTVSPost2010PropOp43
 70
     1
102
RTVSPost2010Prop44ColorIndex
 90
        5
102
RTVSPost2010Prop44ColorRGB
 90
      255
102
RTVSPost2010PropOp44
 70
     1
102
RTVSPost2010Prop45
280
     0
102
RTVSPost2010PropOp45
 70
     1
102
RTVSPost2010Prop46
 90
       50
102
RTVSPost2010PropOp46
 70
     1
102
RTVSPost2010Prop47
 90
       50
102
RTVSPost2010PropOp47
 70
     1
102
RTVSPost2010Prop48
 90
       50
102
RTVSPost2010PropOp48
 70
     1
102
RTVSPost2010Prop49
280
     0
102
RTVSPost2010PropOp49
 70
     1
102
RTVSPost2010Prop50
 90
       50
102
RTVSPost2010PropOp50
 70
     1
102
RTVSPost2010Prop51ColorIndex
 90
      256
102
RTVSPost2010Prop51ColorRGB
 90
-16777216
102
RTVSPost2010PropOp51
 70
     0
102
RTVSPost2010Prop52
140
1.0
102
RTVSPost2010PropOp52
 70
     0
102
RTVSPost2010Prop53
 90
        2
102
RTVSPost2010PropOp53
 70
     1
102
RTVSPost2010Prop54
  1
strokes_ogs.tif
102
RTVSPost2010PropOp54
 70
     1
102
RTVSPost2010Prop55
280
     0
102
RTVSPost2010PropOp55
 70
     1
102
RTVSPost2010Prop56
140
1.0
102
RTVSPost2010PropOp56
 70
     1
102
RTVSPost2010Prop57
140
1.0
102
RTVSPost2010PropOp57
 70
     1
102
RTVSPropertyOp0
 70
     1
102
RTVSPropertyOp1
 70
     1
102
RTVSPropertyOp2
 70
     1
102
RTVSPropertyOp3
 70
     1
102
RTVSPropertyOp4
 70
     1
102
RTVSPropertyOp5
 70
     1
102
RTVSPropertyOp6
 70
     1
102
RTVSPropertyOp7
 70
     1
102
RTVSPropertyOp8
 70
     1
102
RTVSPropertyOp9
 70
     1
102
RTVSPropertyOp10
 70
     1
102
RTVSPropertyOp11
 70
     1
102
RTVSPropertyOp12
 70
     1
102
RTVSPropertyOp13
 70
     1
102
RTVSPropertyOp14
 70
     1
102
RTVSPropertyOp15
 70
     1
102
RTVSPropertyOp16
 70
     1
102
RTVSPropertyOp17
 70
     1
102
RTVSPropertyOp18
 70
     1
102
RTVSPropertyOp19
 70
     1
102
RTVSPropertyOp20
 70
     1
102
RTVSPropertyOp21
 70
     1
102
RTVSPropertyOp22
 70
     1
102
RTVSPropertyOp23
 70
     1
102
RTVSPropertyOp24
 70
     1
102
RTVSPropertyOp25
 70
     1
102
RTVSPropertyOp26
 70
     1
102
RTVSPropertyOp27
 70
     1
102
RTVSPropertyOp28
 70
     1
102
RTVSPropertyOp29
 70
     1
102
RTVSPropertyOp30
 70
     1
102
RTVSPropertyOp31
 70
     1
102
RTVSPropertyOp32
 70
     1
102
RTVSPropertyOp33
 70
     1
102
RTVSPropertyOp34
 70
     1
102
RTVSPropertyOp35
 70
     1
102
RTVSPropertyOp36
 70
     1
102
RTVSPropertyOp37
 70
     1
102
RTVSPropertyOp38
 70
     1
102
RTVSPropertyOp39
 70
     1
102
RTVSPropertyOp40
 70
     1
102
RTVSPropertyOp41
 70
     1
102
RTVSPropertyOp42
 70
     1
102
RTVSPropertyOp43
 70
     1
102
RTVSPropertyOp44
 70
     1
102
RTVSPropertyOp45
 70
     1
102
RTVSPropertyOp46
 70
     1
102
RTVSPropertyOp47
 70
     1
102
RTVSPropertyOp48
 70
     1
102
RTVSPropertyOp49
 70
     1
102
RTVSPropertyOp50
 70
     1
102
RTVSPropertyOp51
 70
     0
102
RTVSPropertyOp52
 70
     0
102
RTVSPropertyOp53
 70
     1
102
RTVSPropertyOp54
 70
     1
102
RTVSPropertyOp55
 70
     1
102
RTVSPropertyOp56
 70
     1
102
RTVSPropertyOp57
 70
     1
102
RTVSPropertyOp58
 70
     1
102
RTVSPropertyOp59
 70
     1
102
RTVSPropertyOp60
 70
     1
102
RTVSPropertyOp61
 70
     1
102
RTVSPropertyOp62
 70
     1
  0
XRECORD
  5
19D5
102
{ACAD_REACTORS
330
19D4
102
}
330
19D4
100
AcDbXrecord
280
     1
102
RTVSPost2010Prop28
280
     0
102
RTVSPost2010PropOp28
 70
     1
102
RTVSPost2010Prop29
280
     1
102
RTVSPost2010PropOp29
 70
     1
102
RTVSPost2010Prop30
280
     1
102
RTVSPost2010PropOp30
 70
     1
102
RTVSPost2010Prop31
280
     0
102
RTVSPost2010PropOp31
 70
     1
102
RTVSPost2010Prop32
280
     0
102
RTVSPost2010PropOp32
 70
     1
102
RTVSPost2010Prop33
280
     0
102
RTVSPost2010PropOp33
 70
     1
102
RTVSPost2010Prop34
280
     0
102
RTVSPost2010PropOp34
 70
     1
102
RTVSPost2010Prop35
280
     0
102
RTVSPost2010PropOp35
 70
     1
102
RTVSPost2010Prop36
280
     0
102
RTVSPost2010PropOp36
 70
     1
102
RTVSPost2010Prop37
 90
       50
102
RTVSPost2010PropOp37
 70
     1
102
RTVSPost2010Prop38
140
0.0
102
RTVSPost2010PropOp38
 70
     1
102
RTVSPost2010Prop39
140
1.0
102
RTVSPost2010PropOp39
 70
     1
102
RTVSPost2010Prop40
 90
        0
102
RTVSPost2010PropOp40
 70
     1
102
RTVSPost2010Prop41ColorIndex
 90
       18
102
RTVSPost2010Prop41ColorRGB
 90
        0
102
RTVSPost2010PropOp41
 70
     1
102
RTVSPost2010Prop42
 90
       50
102
RTVSPost2010PropOp42
 70
     1
102
RTVSPost2010Prop43
 90
        3
102
RTVSPost2010PropOp43
 70
     1
102
RTVSPost2010Prop44ColorIndex
 90
        5
102
RTVSPost2010Prop44ColorRGB
 90
      255
102
RTVSPost2010PropOp44
 70
     1
102
RTVSPost2010Prop45
280
     0
102
RTVSPost2010PropOp45
 70
     1
102
RTVSPost2010Prop46
 90
       50
102
RTVSPost2010PropOp46
 70
     1
102
RTVSPost2010Prop47
 90
       50
102
RTVSPost2010PropOp47
 70
     1
102
RTVSPost2010Prop48
 90
       50
102
RTVSPost2010PropOp48
 70
     1
102
RTVSPost2010Prop49
280
     0
102
RTVSPost2010PropOp49
 70
     1
102
RTVSPost2010Prop50
 90
       50
102
RTVSPost2010PropOp50
 70
     1
102
RTVSPost2010Prop51ColorIndex
 90
      256
102
RTVSPost2010Prop51ColorRGB
 90
-16777216
102
RTVSPost2010PropOp51
 70
     0
102
RTVSPost2010Prop52
140
1.0
102
RTVSPost2010PropOp52
 70
     0
102
RTVSPost2010Prop53
 90
        2
102
RTVSPost2010PropOp53
 70
     1
102
RTVSPost2010Prop54
  1
strokes_ogs.tif
102
RTVSPost2010PropOp54
 70
     1
102
RTVSPost2010Prop55
280
     0
102
RTVSPost2010PropOp55
 70
     1
102
RTVSPost2010Prop56
140
1.0
102
RTVSPost2010PropOp56
 70
     1
102
RTVSPost2010Prop57
140
1.0
102
RTVSPost2010PropOp57
 70
     1
102
RTVSPropertyOp0
 70
     1
102
RTVSPropertyOp1
 70
     1
102
RTVSPropertyOp2
 70
     1
102
RTVSPropertyOp3
 70
     1
102
RTVSPropertyOp4
 70
     1
102
RTVSPropertyOp5
 70
     1
102
RTVSPropertyOp6
 70
     1
102
RTVSPropertyOp7
 70
     1
102
RTVSPropertyOp8
 70
     1
102
RTVSPropertyOp9
 70
     1
102
RTVSPropertyOp10
 70
     1
102
RTVSPropertyOp11
 70
     1
102
RTVSPropertyOp12
 70
     1
102
RTVSPropertyOp13
 70
     1
102
RTVSPropertyOp14
 70
     1
102
RTVSPropertyOp15
 70
     1
102
RTVSPropertyOp16
 70
     1
102
RTVSPropertyOp17
 70
     1
102
RTVSPropertyOp18
 70
     1
102
RTVSPropertyOp19
 70
     1
102
RTVSPropertyOp20
 70
     1
102
RTVSPropertyOp21
 70
     1
102
RTVSPropertyOp22
 70
     1
102
RTVSPropertyOp23
 70
     1
102
RTVSPropertyOp24
 70
     1
102
RTVSPropertyOp25
 70
     1
102
RTVSPropertyOp26
 70
     1
102
RTVSPropertyOp27
 70
     1
102
RTVSPropertyOp28
 70
     1
102
RTVSPropertyOp29
 70
     1
102
RTVSPropertyOp30
 70
     1
102
RTVSPropertyOp31
 70
     1
102
RTVSPropertyOp32
 70
     1
102
RTVSPropertyOp33
 70
     1
102
RTVSPropertyOp34
 70
     1
102
RTVSPropertyOp35
 70
     1
102
RTVSPropertyOp36
 70
     1
102
RTVSPropertyOp37
 70
     1
102
RTVSPropertyOp38
 70
     1
102
RTVSPropertyOp39
 70
     1
102
RTVSPropertyOp40
 70
     1
102
RTVSPropertyOp41
 70
     1
102
RTVSPropertyOp42
 70
     1
102
RTVSPropertyOp43
 70
     1
102
RTVSPropertyOp44
 70
     1
102
RTVSPropertyOp45
 70
     1
102
RTVSPropertyOp46
 70
     1
102
RTVSPropertyOp47
 70
     1
102
RTVSPropertyOp48
 70
     1
102
RTVSPropertyOp49
 70
     1
102
RTVSPropertyOp50
 70
     1
102
RTVSPropertyOp51
 70
     0
102
RTVSPropertyOp52
 70
     0
102
RTVSPropertyOp53
 70
     1
102
RTVSPropertyOp54
 70
     1
102
RTVSPropertyOp55
 70
     1
102
RTVSPropertyOp56
 70
     1
102
RTVSPropertyOp57
 70
     1
102
RTVSPropertyOp58
 70
     1
102
RTVSPropertyOp59
 70
     1
102
RTVSPropertyOp60
 70
     1
102
RTVSPropertyOp61
 70
     1
102
RTVSPropertyOp62
 70
     1
  0
XRECORD
  5
19F4
102
{ACAD_REACTORS
330
19F3
102
}
330
19F3
100
AcDbXrecord
280
     1
102
RTVSPost2010Prop28
280
     0
102
RTVSPost2010PropOp28
 70
     0
102
RTVSPost2010Prop29
280
     1
102
RTVSPost2010PropOp29
 70
     0
102
RTVSPost2010Prop30
280
     1
102
RTVSPost2010PropOp30
 70
     0
102
RTVSPost2010Prop31
280
     0
102
RTVSPost2010PropOp31
 70
     0
102
RTVSPost2010Prop32
280
     0
102
RTVSPost2010PropOp32
 70
     0
102
RTVSPost2010Prop33
280
     0
102
RTVSPost2010PropOp33
 70
     0
102
RTVSPost2010Prop34
280
     0
102
RTVSPost2010PropOp34
 70
     0
102
RTVSPost2010Prop35
280
     0
102
RTVSPost2010PropOp35
 70
     0
102
RTVSPost2010Prop36
280
     0
102
RTVSPost2010PropOp36
 70
     0
102
RTVSPost2010Prop37
 90
       50
102
RTVSPost2010PropOp37
 70
     0
102
RTVSPost2010Prop38
140
0.0
102
RTVSPost2010PropOp38
 70
     0
102
RTVSPost2010Prop39
140
1.0
102
RTVSPost2010PropOp39
 70
     0
102
RTVSPost2010Prop40
 90
        0
102
RTVSPost2010PropOp40
 70
     0
102
RTVSPost2010Prop41ColorIndex
 90
       18
102
RTVSPost2010Prop41ColorRGB
 90
        0
102
RTVSPost2010PropOp41
 70
     0
102
RTVSPost2010Prop42
 90
       50
102
RTVSPost2010PropOp42
 70
     0
102
RTVSPost2010Prop43
 90
        3
102
RTVSPost2010PropOp43
 70
     0
102
RTVSPost2010Prop44ColorIndex
 90
        5
102
RTVSPost2010Prop44ColorRGB
 90
      255
102
RTVSPost2010PropOp44
 70
     0
102
RTVSPost2010Prop45
280
     0
102
RTVSPost2010PropOp45
 70
     0
102
RTVSPost2010Prop46
 90
       50
102
RTVSPost2010PropOp46
 70
     0
102
RTVSPost2010Prop47
 90
       50
102
RTVSPost2010PropOp47
 70
     0
102
RTVSPost2010Prop48
 90
       50
102
RTVSPost2010PropOp48
 70
     0
102
RTVSPost2010Prop49
280
     0
102
RTVSPost2010PropOp49
 70
     0
102
RTVSPost2010Prop50
 90
       50
102
RTVSPost2010PropOp50
 70
     0
102
RTVSPost2010Prop51ColorIndex
 90
      256
102
RTVSPost2010Prop51ColorRGB
 90
-16777216
102
RTVSPost2010PropOp51
 70
     0
102
RTVSPost2010Prop52
140
1.0
102
RTVSPost2010PropOp52
 70
     0
102
RTVSPost2010Prop53
 90
        2
102
RTVSPost2010PropOp53
 70
     0
102
RTVSPost2010Prop54
  1
strokes_ogs.tif
102
RTVSPost2010PropOp54
 70
     0
102
RTVSPost2010Prop55
280
     0
102
RTVSPost2010PropOp55
 70
     0
102
RTVSPost2010Prop56
140
1.0
102
RTVSPost2010PropOp56
 70
     0
102
RTVSPost2010Prop57
140
1.0
102
RTVSPost2010PropOp57
 70
     0
102
RTVSPropertyOp0
 70
     0
102
RTVSPropertyOp1
 70
     0
102
RTVSPropertyOp2
 70
     0
102
RTVSPropertyOp3
 70
     0
102
RTVSPropertyOp4
 70
     0
102
RTVSPropertyOp5
 70
     0
102
RTVSPropertyOp6
 70
     0
102
RTVSPropertyOp7
 70
     0
102
RTVSPropertyOp8
 70
     0
102
RTVSPropertyOp9
 70
     0
102
RTVSPropertyOp10
 70
     0
102
RTVSPropertyOp11
 70
     0
102
RTVSPropertyOp12
 70
     0
102
RTVSPropertyOp13
 70
     0
102
RTVSPropertyOp14
 70
     2
102
RTVSPropertyOp15
 70
     0
102
RTVSPropertyOp16
 70
     0
102
RTVSPropertyOp17
 70
     0
102
RTVSPropertyOp18
 70
     0
102
RTVSPropertyOp19
 70
     0
102
RTVSPropertyOp20
 70
     0
102
RTVSPropertyOp21
 70
     0
102
RTVSPropertyOp22
 70
     0
102
RTVSPropertyOp23
 70
     0
102
RTVSPropertyOp24
 70
     0
102
RTVSPropertyOp25
 70
     0
102
RTVSPropertyOp26
 70
     0
102
RTVSPropertyOp27
 70
     0
102
RTVSPropertyOp28
 70
     0
102
RTVSPropertyOp29
 70
     0
102
RTVSPropertyOp30
 70
     0
102
RTVSPropertyOp31
 70
     0
102
RTVSPropertyOp32
 70
     0
102
RTVSPropertyOp33
 70
     0
102
RTVSPropertyOp34
 70
     0
102
RTVSPropertyOp35
 70
     0
102
RTVSPropertyOp36
 70
     0
102
RTVSPropertyOp37
 70
     0
102
RTVSPropertyOp38
 70
     0
102
RTVSPropertyOp39
 70
     0
102
RTVSPropertyOp40
 70
     0
102
RTVSPropertyOp41
 70
     0
102
RTVSPropertyOp42
 70
     0
102
RTVSPropertyOp43
 70
     0
102
RTVSPropertyOp44
 70
     0
102
RTVSPropertyOp45
 70
     0
102
RTVSPropertyOp46
 70
     0
102
RTVSPropertyOp47
 70
     0
102
RTVSPropertyOp48
 70
     0
102
RTVSPropertyOp49
 70
     0
102
RTVSPropertyOp50
 70
     0
102
RTVSPropertyOp51
 70
     0
102
RTVSPropertyOp52
 70
     0
102
RTVSPropertyOp53
 70
     0
102
RTVSPropertyOp54
 70
     0
102
RTVSPropertyOp55
 70
     0
102
RTVSPropertyOp56
 70
     0
102
RTVSPropertyOp57
 70
     0
102
RTVSPropertyOp58
 70
     0
102
RTVSPropertyOp59
 70
     0
102
RTVSPropertyOp60
 70
     0
102
RTVSPropertyOp61
 70
     0
102
RTVSPropertyOp62
 70
     0
  0
XRECORD
  5
19DD
102
{ACAD_REACTORS
330
19DC
102
}
330
19DC
100
AcDbXrecord
280
     1
102
RTVSPost2010Prop28
280
     0
102
RTVSPost2010PropOp28
 70
     1
102
RTVSPost2010Prop29
280
     1
102
RTVSPost2010PropOp29
 70
     1
102
RTVSPost2010Prop30
280
     1
102
RTVSPost2010PropOp30
 70
     1
102
RTVSPost2010Prop31
280
     0
102
RTVSPost2010PropOp31
 70
     1
102
RTVSPost2010Prop32
280
     0
102
RTVSPost2010PropOp32
 70
     1
102
RTVSPost2010Prop33
280
     0
102
RTVSPost2010PropOp33
 70
     1
102
RTVSPost2010Prop34
280
     0
102
RTVSPost2010PropOp34
 70
     1
102
RTVSPost2010Prop35
280
     0
102
RTVSPost2010PropOp35
 70
     1
102
RTVSPost2010Prop36
280
     0
102
RTVSPost2010PropOp36
 70
     1
102
RTVSPost2010Prop37
 90
       50
102
RTVSPost2010PropOp37
 70
     1
102
RTVSPost2010Prop38
140
0.0
102
RTVSPost2010PropOp38
 70
     1
102
RTVSPost2010Prop39
140
1.0
102
RTVSPost2010PropOp39
 70
     1
102
RTVSPost2010Prop40
 90
        0
102
RTVSPost2010PropOp40
 70
     1
102
RTVSPost2010Prop41ColorIndex
 90
       18
102
RTVSPost2010Prop41ColorRGB
 90
        0
102
RTVSPost2010PropOp41
 70
     1
102
RTVSPost2010Prop42
 90
       50
102
RTVSPost2010PropOp42
 70
     1
102
RTVSPost2010Prop43
 90
        3
102
RTVSPost2010PropOp43
 70
     1
102
RTVSPost2010Prop44ColorIndex
 90
        5
102
RTVSPost2010Prop44ColorRGB
 90
      255
102
RTVSPost2010PropOp44
 70
     1
102
RTVSPost2010Prop45
280
     0
102
RTVSPost2010PropOp45
 70
     1
102
RTVSPost2010Prop46
 90
       50
102
RTVSPost2010PropOp46
 70
     1
102
RTVSPost2010Prop47
 90
       50
102
RTVSPost2010PropOp47
 70
     1
102
RTVSPost2010Prop48
 90
       50
102
RTVSPost2010PropOp48
 70
     1
102
RTVSPost2010Prop49
280
     0
102
RTVSPost2010PropOp49
 70
     1
102
RTVSPost2010Prop50
 90
       50
102
RTVSPost2010PropOp50
 70
     1
102
RTVSPost2010Prop51ColorIndex
 90
      256
102
RTVSPost2010Prop51ColorRGB
 90
-16777216
102
RTVSPost2010PropOp51
 70
     0
102
RTVSPost2010Prop52
140
1.0
102
RTVSPost2010PropOp52
 70
     0
102
RTVSPost2010Prop53
 90
        2
102
RTVSPost2010PropOp53
 70
     1
102
RTVSPost2010Prop54
  1
strokes_ogs.tif
102
RTVSPost2010PropOp54
 70
     1
102
RTVSPost2010Prop55
280
     0
102
RTVSPost2010PropOp55
 70
     1
102
RTVSPost2010Prop56
140
1.0
102
RTVSPost2010PropOp56
 70
     1
102
RTVSPost2010Prop57
140
1.0
102
RTVSPost2010PropOp57
 70
     1
102
RTVSPropertyOp0
 70
     1
102
RTVSPropertyOp1
 70
     1
102
RTVSPropertyOp2
 70
     1
102
RTVSPropertyOp3
 70
     1
102
RTVSPropertyOp4
 70
     1
102
RTVSPropertyOp5
 70
     1
102
RTVSPropertyOp6
 70
     1
102
RTVSPropertyOp7
 70
     1
102
RTVSPropertyOp8
 70
     1
102
RTVSPropertyOp9
 70
     1
102
RTVSPropertyOp10
 70
     1
102
RTVSPropertyOp11
 70
     1
102
RTVSPropertyOp12
 70
     1
102
RTVSPropertyOp13
 70
     1
102
RTVSPropertyOp14
 70
     1
102
RTVSPropertyOp15
 70
     1
102
RTVSPropertyOp16
 70
     1
102
RTVSPropertyOp17
 70
     1
102
RTVSPropertyOp18
 70
     1
102
RTVSPropertyOp19
 70
     1
102
RTVSPropertyOp20
 70
     1
102
RTVSPropertyOp21
 70
     1
102
RTVSPropertyOp22
 70
     1
102
RTVSPropertyOp23
 70
     1
102
RTVSPropertyOp24
 70
     1
102
RTVSPropertyOp25
 70
     1
102
RTVSPropertyOp26
 70
     1
102
RTVSPropertyOp27
 70
     1
102
RTVSPropertyOp28
 70
     1
102
RTVSPropertyOp29
 70
     1
102
RTVSPropertyOp30
 70
     1
102
RTVSPropertyOp31
 70
     1
102
RTVSPropertyOp32
 70
     1
102
RTVSPropertyOp33
 70
     1
102
RTVSPropertyOp34
 70
     1
102
RTVSPropertyOp35
 70
     1
102
RTVSPropertyOp36
 70
     1
102
RTVSPropertyOp37
 70
     1
102
RTVSPropertyOp38
 70
     1
102
RTVSPropertyOp39
 70
     1
102
RTVSPropertyOp40
 70
     1
102
RTVSPropertyOp41
 70
     1
102
RTVSPropertyOp42
 70
     1
102
RTVSPropertyOp43
 70
     1
102
RTVSPropertyOp44
 70
     1
102
RTVSPropertyOp45
 70
     1
102
RTVSPropertyOp46
 70
     1
102
RTVSPropertyOp47
 70
     1
102
RTVSPropertyOp48
 70
     1
102
RTVSPropertyOp49
 70
     1
102
RTVSPropertyOp50
 70
     1
102
RTVSPropertyOp51
 70
     0
102
RTVSPropertyOp52
 70
     0
102
RTVSPropertyOp53
 70
     1
102
RTVSPropertyOp54
 70
     1
102
RTVSPropertyOp55
 70
     1
102
RTVSPropertyOp56
 70
     1
102
RTVSPropertyOp57
 70
     1
102
RTVSPropertyOp58
 70
     1
102
RTVSPropertyOp59
 70
     1
102
RTVSPropertyOp60
 70
     1
102
RTVSPropertyOp61
 70
     1
102
RTVSPropertyOp62
 70
     1
  0
XRECORD
  5
19C1
102
{ACAD_REACTORS
330
19C0
102
}
330
19C0
100
AcDbXrecord
280
     1
102
RTVSPost2010Prop28
280
     0
102
RTVSPost2010PropOp28
 70
     1
102
RTVSPost2010Prop29
280
     1
102
RTVSPost2010PropOp29
 70
     1
102
RTVSPost2010Prop30
280
     1
102
RTVSPost2010PropOp30
 70
     1
102
RTVSPost2010Prop31
280
     0
102
RTVSPost2010PropOp31
 70
     1
102
RTVSPost2010Prop32
280
     0
102
RTVSPost2010PropOp32
 70
     1
102
RTVSPost2010Prop33
280
     0
102
RTVSPost2010PropOp33
 70
     1
102
RTVSPost2010Prop34
280
     0
102
RTVSPost2010PropOp34
 70
     1
102
RTVSPost2010Prop35
280
     0
102
RTVSPost2010PropOp35
 70
     1
102
RTVSPost2010Prop36
280
     0
102
RTVSPost2010PropOp36
 70
     1
102
RTVSPost2010Prop37
 90
       50
102
RTVSPost2010PropOp37
 70
     1
102
RTVSPost2010Prop38
140
0.0
102
RTVSPost2010PropOp38
 70
     1
102
RTVSPost2010Prop39
140
1.0
102
RTVSPost2010PropOp39
 70
     1
102
RTVSPost2010Prop40
 90
        0
102
RTVSPost2010PropOp40
 70
     1
102
RTVSPost2010Prop41ColorIndex
 90
       18
102
RTVSPost2010Prop41ColorRGB
 90
        0
102
RTVSPost2010PropOp41
 70
     1
102
RTVSPost2010Prop42
 90
       50
102
RTVSPost2010PropOp42
 70
     1
102
RTVSPost2010Prop43
 90
        3
102
RTVSPost2010PropOp43
 70
     1
102
RTVSPost2010Prop44ColorIndex
 90
        5
102
RTVSPost2010Prop44ColorRGB
 90
      255
102
RTVSPost2010PropOp44
 70
     1
102
RTVSPost2010Prop45
280
     0
102
RTVSPost2010PropOp45
 70
     1
102
RTVSPost2010Prop46
 90
       50
102
RTVSPost2010PropOp46
 70
     1
102
RTVSPost2010Prop47
 90
       50
102
RTVSPost2010PropOp47
 70
     1
102
RTVSPost2010Prop48
 90
       50
102
RTVSPost2010PropOp48
 70
     1
102
RTVSPost2010Prop49
280
     0
102
RTVSPost2010PropOp49
 70
     1
102
RTVSPost2010Prop50
 90
       50
102
RTVSPost2010PropOp50
 70
     1
102
RTVSPost2010Prop51ColorIndex
 90
      256
102
RTVSPost2010Prop51ColorRGB
 90
-16777216
102
RTVSPost2010PropOp51
 70
     0
102
RTVSPost2010Prop52
140
1.0
102
RTVSPost2010PropOp52
 70
     0
102
RTVSPost2010Prop53
 90
        2
102
RTVSPost2010PropOp53
 70
     1
102
RTVSPost2010Prop54
  1
strokes_ogs.tif
102
RTVSPost2010PropOp54
 70
     1
102
RTVSPost2010Prop55
280
     0
102
RTVSPost2010PropOp55
 70
     1
102
RTVSPost2010Prop56
140
1.0
102
RTVSPost2010PropOp56
 70
     1
102
RTVSPost2010Prop57
140
1.0
102
RTVSPost2010PropOp57
 70
     1
102
RTVSPropertyOp0
 70
     1
102
RTVSPropertyOp1
 70
     1
102
RTVSPropertyOp2
 70
     1
102
RTVSPropertyOp3
 70
     1
102
RTVSPropertyOp4
 70
     1
102
RTVSPropertyOp5
 70
     1
102
RTVSPropertyOp6
 70
     1
102
RTVSPropertyOp7
 70
     1
102
RTVSPropertyOp8
 70
     1
102
RTVSPropertyOp9
 70
     1
102
RTVSPropertyOp10
 70
     1
102
RTVSPropertyOp11
 70
     1
102
RTVSPropertyOp12
 70
     1
102
RTVSPropertyOp13
 70
     1
102
RTVSPropertyOp14
 70
     1
102
RTVSPropertyOp15
 70
     1
102
RTVSPropertyOp16
 70
     1
102
RTVSPropertyOp17
 70
     1
102
RTVSPropertyOp18
 70
     1
102
RTVSPropertyOp19
 70
     1
102
RTVSPropertyOp20
 70
     1
102
RTVSPropertyOp21
 70
     1
102
RTVSPropertyOp22
 70
     1
102
RTVSPropertyOp23
 70
     1
102
RTVSPropertyOp24
 70
     1
102
RTVSPropertyOp25
 70
     1
102
RTVSPropertyOp26
 70
     1
102
RTVSPropertyOp27
 70
     1
102
RTVSPropertyOp28
 70
     1
102
RTVSPropertyOp29
 70
     1
102
RTVSPropertyOp30
 70
     1
102
RTVSPropertyOp31
 70
     1
102
RTVSPropertyOp32
 70
     1
102
RTVSPropertyOp33
 70
     1
102
RTVSPropertyOp34
 70
     1
102
RTVSPropertyOp35
 70
     1
102
RTVSPropertyOp36
 70
     1
102
RTVSPropertyOp37
 70
     1
102
RTVSPropertyOp38
 70
     1
102
RTVSPropertyOp39
 70
     1
102
RTVSPropertyOp40
 70
     1
102
RTVSPropertyOp41
 70
     1
102
RTVSPropertyOp42
 70
     1
102
RTVSPropertyOp43
 70
     1
102
RTVSPropertyOp44
 70
     1
102
RTVSPropertyOp45
 70
     1
102
RTVSPropertyOp46
 70
     1
102
RTVSPropertyOp47
 70
     1
102
RTVSPropertyOp48
 70
     1
102
RTVSPropertyOp49
 70
     1
102
RTVSPropertyOp50
 70
     1
102
RTVSPropertyOp51
 70
     0
102
RTVSPropertyOp52
 70
     0
102
RTVSPropertyOp53
 70
     1
102
RTVSPropertyOp54
 70
     1
102
RTVSPropertyOp55
 70
     1
102
RTVSPropertyOp56
 70
     1
102
RTVSPropertyOp57
 70
     1
102
RTVSPropertyOp58
 70
     1
102
RTVSPropertyOp59
 70
     1
102
RTVSPropertyOp60
 70
     1
102
RTVSPropertyOp61
 70
     1
102
RTVSPropertyOp62
 70
     1
  0
XRECORD
  5
19C3
102
{ACAD_REACTORS
330
19C2
102
}
330
19C2
100
AcDbXrecord
280
     1
102
RTVSPost2010Prop28
280
     0
102
RTVSPost2010PropOp28
 70
     1
102
RTVSPost2010Prop29
280
     1
102
RTVSPost2010PropOp29
 70
     1
102
RTVSPost2010Prop30
280
     1
102
RTVSPost2010PropOp30
 70
     1
102
RTVSPost2010Prop31
280
     0
102
RTVSPost2010PropOp31
 70
     1
102
RTVSPost2010Prop32
280
     0
102
RTVSPost2010PropOp32
 70
     1
102
RTVSPost2010Prop33
280
     0
102
RTVSPost2010PropOp33
 70
     1
102
RTVSPost2010Prop34
280
     0
102
RTVSPost2010PropOp34
 70
     1
102
RTVSPost2010Prop35
280
     0
102
RTVSPost2010PropOp35
 70
     1
102
RTVSPost2010Prop36
280
     0
102
RTVSPost2010PropOp36
 70
     1
102
RTVSPost2010Prop37
 90
       50
102
RTVSPost2010PropOp37
 70
     1
102
RTVSPost2010Prop38
140
0.0
102
RTVSPost2010PropOp38
 70
     1
102
RTVSPost2010Prop39
140
1.0
102
RTVSPost2010PropOp39
 70
     1
102
RTVSPost2010Prop40
 90
        0
102
RTVSPost2010PropOp40
 70
     1
102
RTVSPost2010Prop41ColorIndex
 90
       18
102
RTVSPost2010Prop41ColorRGB
 90
        0
102
RTVSPost2010PropOp41
 70
     1
102
RTVSPost2010Prop42
 90
       50
102
RTVSPost2010PropOp42
 70
     1
102
RTVSPost2010Prop43
 90
        3
102
RTVSPost2010PropOp43
 70
     1
102
RTVSPost2010Prop44ColorIndex
 90
        5
102
RTVSPost2010Prop44ColorRGB
 90
      255
102
RTVSPost2010PropOp44
 70
     1
102
RTVSPost2010Prop45
280
     0
102
RTVSPost2010PropOp45
 70
     1
102
RTVSPost2010Prop46
 90
       50
102
RTVSPost2010PropOp46
 70
     1
102
RTVSPost2010Prop47
 90
       50
102
RTVSPost2010PropOp47
 70
     1
102
RTVSPost2010Prop48
 90
       50
102
RTVSPost2010PropOp48
 70
     1
102
RTVSPost2010Prop49
280
     0
102
RTVSPost2010PropOp49
 70
     1
102
RTVSPost2010Prop50
 90
       50
102
RTVSPost2010PropOp50
 70
     1
102
RTVSPost2010Prop51ColorIndex
 90
      256
102
RTVSPost2010Prop51ColorRGB
 90
-16777216
102
RTVSPost2010PropOp51
 70
     0
102
RTVSPost2010Prop52
140
1.0
102
RTVSPost2010PropOp52
 70
     0
102
RTVSPost2010Prop53
 90
        2
102
RTVSPost2010PropOp53
 70
     1
102
RTVSPost2010Prop54
  1
strokes_ogs.tif
102
RTVSPost2010PropOp54
 70
     1
102
RTVSPost2010Prop55
280
     0
102
RTVSPost2010PropOp55
 70
     1
102
RTVSPost2010Prop56
140
1.0
102
RTVSPost2010PropOp56
 70
     1
102
RTVSPost2010Prop57
140
1.0
102
RTVSPost2010PropOp57
 70
     1
102
RTVSPropertyOp0
 70
     1
102
RTVSPropertyOp1
 70
     1
102
RTVSPropertyOp2
 70
     1
102
RTVSPropertyOp3
 70
     1
102
RTVSPropertyOp4
 70
     1
102
RTVSPropertyOp5
 70
     1
102
RTVSPropertyOp6
 70
     1
102
RTVSPropertyOp7
 70
     1
102
RTVSPropertyOp8
 70
     1
102
RTVSPropertyOp9
 70
     1
102
RTVSPropertyOp10
 70
     1
102
RTVSPropertyOp11
 70
     1
102
RTVSPropertyOp12
 70
     1
102
RTVSPropertyOp13
 70
     1
102
RTVSPropertyOp14
 70
     1
102
RTVSPropertyOp15
 70
     1
102
RTVSPropertyOp16
 70
     1
102
RTVSPropertyOp17
 70
     1
102
RTVSPropertyOp18
 70
     1
102
RTVSPropertyOp19
 70
     1
102
RTVSPropertyOp20
 70
     1
102
RTVSPropertyOp21
 70
     1
102
RTVSPropertyOp22
 70
     1
102
RTVSPropertyOp23
 70
     1
102
RTVSPropertyOp24
 70
     1
102
RTVSPropertyOp25
 70
     1
102
RTVSPropertyOp26
 70
     1
102
RTVSPropertyOp27
 70
     1
102
RTVSPropertyOp28
 70
     1
102
RTVSPropertyOp29
 70
     1
102
RTVSPropertyOp30
 70
     1
102
RTVSPropertyOp31
 70
     1
102
RTVSPropertyOp32
 70
     1
102
RTVSPropertyOp33
 70
     1
102
RTVSPropertyOp34
 70
     1
102
RTVSPropertyOp35
 70
     1
102
RTVSPropertyOp36
 70
     1
102
RTVSPropertyOp37
 70
     1
102
RTVSPropertyOp38
 70
     1
102
RTVSPropertyOp39
 70
     1
102
RTVSPropertyOp40
 70
     1
102
RTVSPropertyOp41
 70
     1
102
RTVSPropertyOp42
 70
     1
102
RTVSPropertyOp43
 70
     1
102
RTVSPropertyOp44
 70
     1
102
RTVSPropertyOp45
 70
     1
102
RTVSPropertyOp46
 70
     1
102
RTVSPropertyOp47
 70
     1
102
RTVSPropertyOp48
 70
     1
102
RTVSPropertyOp49
 70
     1
102
RTVSPropertyOp50
 70
     1
102
RTVSPropertyOp51
 70
     0
102
RTVSPropertyOp52
 70
     0
102
RTVSPropertyOp53
 70
     1
102
RTVSPropertyOp54
 70
     1
102
RTVSPropertyOp55
 70
     1
102
RTVSPropertyOp56
 70
     1
102
RTVSPropertyOp57
 70
     1
102
RTVSPropertyOp58
 70
     1
102
RTVSPropertyOp59
 70
     1
102
RTVSPropertyOp60
 70
     1
102
RTVSPropertyOp61
 70
     1
102
RTVSPropertyOp62
 70
     1
  0
XRECORD
  5
19C5
102
{ACAD_REACTORS
330
19C4
102
}
330
19C4
100
AcDbXrecord
280
     1
102
RTVSPost2010Prop28
280
     0
102
RTVSPost2010PropOp28
 70
     1
102
RTVSPost2010Prop29
280
     1
102
RTVSPost2010PropOp29
 70
     1
102
RTVSPost2010Prop30
280
     1
102
RTVSPost2010PropOp30
 70
     1
102
RTVSPost2010Prop31
280
     0
102
RTVSPost2010PropOp31
 70
     1
102
RTVSPost2010Prop32
280
     0
102
RTVSPost2010PropOp32
 70
     1
102
RTVSPost2010Prop33
280
     0
102
RTVSPost2010PropOp33
 70
     1
102
RTVSPost2010Prop34
280
     0
102
RTVSPost2010PropOp34
 70
     1
102
RTVSPost2010Prop35
280
     0
102
RTVSPost2010PropOp35
 70
     1
102
RTVSPost2010Prop36
280
     0
102
RTVSPost2010PropOp36
 70
     1
102
RTVSPost2010Prop37
 90
       50
102
RTVSPost2010PropOp37
 70
     1
102
RTVSPost2010Prop38
140
0.0
102
RTVSPost2010PropOp38
 70
     1
102
RTVSPost2010Prop39
140
1.0
102
RTVSPost2010PropOp39
 70
     1
102
RTVSPost2010Prop40
 90
        0
102
RTVSPost2010PropOp40
 70
     1
102
RTVSPost2010Prop41ColorIndex
 90
       18
102
RTVSPost2010Prop41ColorRGB
 90
        0
102
RTVSPost2010PropOp41
 70
     1
102
RTVSPost2010Prop42
 90
       50
102
RTVSPost2010PropOp42
 70
     1
102
RTVSPost2010Prop43
 90
        3
102
RTVSPost2010PropOp43
 70
     1
102
RTVSPost2010Prop44ColorIndex
 90
        5
102
RTVSPost2010Prop44ColorRGB
 90
      255
102
RTVSPost2010PropOp44
 70
     1
102
RTVSPost2010Prop45
280
     0
102
RTVSPost2010PropOp45
 70
     1
102
RTVSPost2010Prop46
 90
       50
102
RTVSPost2010PropOp46
 70
     1
102
RTVSPost2010Prop47
 90
       50
102
RTVSPost2010PropOp47
 70
     1
102
RTVSPost2010Prop48
 90
       50
102
RTVSPost2010PropOp48
 70
     1
102
RTVSPost2010Prop49
280
     0
102
RTVSPost2010PropOp49
 70
     1
102
RTVSPost2010Prop50
 90
       50
102
RTVSPost2010PropOp50
 70
     1
102
RTVSPost2010Prop51ColorIndex
 90
      256
102
RTVSPost2010Prop51ColorRGB
 90
-16777216
102
RTVSPost2010PropOp51
 70
     0
102
RTVSPost2010Prop52
140
1.0
102
RTVSPost2010PropOp52
 70
     0
102
RTVSPost2010Prop53
 90
        2
102
RTVSPost2010PropOp53
 70
     1
102
RTVSPost2010Prop54
  1
strokes_ogs.tif
102
RTVSPost2010PropOp54
 70
     1
102
RTVSPost2010Prop55
280
     0
102
RTVSPost2010PropOp55
 70
     1
102
RTVSPost2010Prop56
140
1.0
102
RTVSPost2010PropOp56
 70
     1
102
RTVSPost2010Prop57
140
1.0
102
RTVSPost2010PropOp57
 70
     1
102
RTVSPropertyOp0
 70
     1
102
RTVSPropertyOp1
 70
     1
102
RTVSPropertyOp2
 70
     1
102
RTVSPropertyOp3
 70
     1
102
RTVSPropertyOp4
 70
     1
102
RTVSPropertyOp5
 70
     1
102
RTVSPropertyOp6
 70
     1
102
RTVSPropertyOp7
 70
     1
102
RTVSPropertyOp8
 70
     1
102
RTVSPropertyOp9
 70
     1
102
RTVSPropertyOp10
 70
     1
102
RTVSPropertyOp11
 70
     1
102
RTVSPropertyOp12
 70
     1
102
RTVSPropertyOp13
 70
     1
102
RTVSPropertyOp14
 70
     1
102
RTVSPropertyOp15
 70
     1
102
RTVSPropertyOp16
 70
     1
102
RTVSPropertyOp17
 70
     1
102
RTVSPropertyOp18
 70
     1
102
RTVSPropertyOp19
 70
     1
102
RTVSPropertyOp20
 70
     1
102
RTVSPropertyOp21
 70
     1
102
RTVSPropertyOp22
 70
     1
102
RTVSPropertyOp23
 70
     1
102
RTVSPropertyOp24
 70
     1
102
RTVSPropertyOp25
 70
     1
102
RTVSPropertyOp26
 70
     1
102
RTVSPropertyOp27
 70
     1
102
RTVSPropertyOp28
 70
     1
102
RTVSPropertyOp29
 70
     1
102
RTVSPropertyOp30
 70
     1
102
RTVSPropertyOp31
 70
     1
102
RTVSPropertyOp32
 70
     1
102
RTVSPropertyOp33
 70
     1
102
RTVSPropertyOp34
 70
     1
102
RTVSPropertyOp35
 70
     1
102
RTVSPropertyOp36
 70
     1
102
RTVSPropertyOp37
 70
     1
102
RTVSPropertyOp38
 70
     1
102
RTVSPropertyOp39
 70
     1
102
RTVSPropertyOp40
 70
     1
102
RTVSPropertyOp41
 70
     1
102
RTVSPropertyOp42
 70
     1
102
RTVSPropertyOp43
 70
     1
102
RTVSPropertyOp44
 70
     1
102
RTVSPropertyOp45
 70
     1
102
RTVSPropertyOp46
 70
     1
102
RTVSPropertyOp47
 70
     1
102
RTVSPropertyOp48
 70
     1
102
RTVSPropertyOp49
 70
     1
102
RTVSPropertyOp50
 70
     1
102
RTVSPropertyOp51
 70
     0
102
RTVSPropertyOp52
 70
     0
102
RTVSPropertyOp53
 70
     1
102
RTVSPropertyOp54
 70
     1
102
RTVSPropertyOp55
 70
     1
102
RTVSPropertyOp56
 70
     1
102
RTVSPropertyOp57
 70
     1
102
RTVSPropertyOp58
 70
     1
102
RTVSPropertyOp59
 70
     1
102
RTVSPropertyOp60
 70
     1
102
RTVSPropertyOp61
 70
     1
102
RTVSPropertyOp62
 70
     1
  0
XRECORD
  5
19C7
102
{ACAD_REACTORS
330
19C6
102
}
330
19C6
100
AcDbXrecord
280
     1
102
RTVSPost2010Prop28
280
     0
102
RTVSPost2010PropOp28
 70
     1
102
RTVSPost2010Prop29
280
     1
102
RTVSPost2010PropOp29
 70
     1
102
RTVSPost2010Prop30
280
     1
102
RTVSPost2010PropOp30
 70
     1
102
RTVSPost2010Prop31
280
     0
102
RTVSPost2010PropOp31
 70
     1
102
RTVSPost2010Prop32
280
     0
102
RTVSPost2010PropOp32
 70
     1
102
RTVSPost2010Prop33
280
     0
102
RTVSPost2010PropOp33
 70
     1
102
RTVSPost2010Prop34
280
     0
102
RTVSPost2010PropOp34
 70
     1
102
RTVSPost2010Prop35
280
     0
102
RTVSPost2010PropOp35
 70
     1
102
RTVSPost2010Prop36
280
     0
102
RTVSPost2010PropOp36
 70
     1
102
RTVSPost2010Prop37
 90
       50
102
RTVSPost2010PropOp37
 70
     1
102
RTVSPost2010Prop38
140
0.0
102
RTVSPost2010PropOp38
 70
     1
102
RTVSPost2010Prop39
140
1.0
102
RTVSPost2010PropOp39
 70
     1
102
RTVSPost2010Prop40
 90
        0
102
RTVSPost2010PropOp40
 70
     1
102
RTVSPost2010Prop41ColorIndex
 90
       18
102
RTVSPost2010Prop41ColorRGB
 90
        0
102
RTVSPost2010PropOp41
 70
     1
102
RTVSPost2010Prop42
 90
       50
102
RTVSPost2010PropOp42
 70
     1
102
RTVSPost2010Prop43
 90
        3
102
RTVSPost2010PropOp43
 70
     1
102
RTVSPost2010Prop44ColorIndex
 90
        5
102
RTVSPost2010Prop44ColorRGB
 90
      255
102
RTVSPost2010PropOp44
 70
     1
102
RTVSPost2010Prop45
280
     0
102
RTVSPost2010PropOp45
 70
     1
102
RTVSPost2010Prop46
 90
       50
102
RTVSPost2010PropOp46
 70
     1
102
RTVSPost2010Prop47
 90
       50
102
RTVSPost2010PropOp47
 70
     1
102
RTVSPost2010Prop48
 90
       50
102
RTVSPost2010PropOp48
 70
     1
102
RTVSPost2010Prop49
280
     0
102
RTVSPost2010PropOp49
 70
     1
102
RTVSPost2010Prop50
 90
       50
102
RTVSPost2010PropOp50
 70
     1
102
RTVSPost2010Prop51ColorIndex
 90
      256
102
RTVSPost2010Prop51ColorRGB
 90
-16777216
102
RTVSPost2010PropOp51
 70
     0
102
RTVSPost2010Prop52
140
1.0
102
RTVSPost2010PropOp52
 70
     0
102
RTVSPost2010Prop53
 90
        2
102
RTVSPost2010PropOp53
 70
     1
102
RTVSPost2010Prop54
  1
strokes_ogs.tif
102
RTVSPost2010PropOp54
 70
     1
102
RTVSPost2010Prop55
280
     0
102
RTVSPost2010PropOp55
 70
     1
102
RTVSPost2010Prop56
140
1.0
102
RTVSPost2010PropOp56
 70
     1
102
RTVSPost2010Prop57
140
1.0
102
RTVSPost2010PropOp57
 70
     1
102
RTVSPropertyOp0
 70
     1
102
RTVSPropertyOp1
 70
     1
102
RTVSPropertyOp2
 70
     1
102
RTVSPropertyOp3
 70
     1
102
RTVSPropertyOp4
 70
     1
102
RTVSPropertyOp5
 70
     1
102
RTVSPropertyOp6
 70
     1
102
RTVSPropertyOp7
 70
     1
102
RTVSPropertyOp8
 70
     1
102
RTVSPropertyOp9
 70
     1
102
RTVSPropertyOp10
 70
     1
102
RTVSPropertyOp11
 70
     1
102
RTVSPropertyOp12
 70
     1
102
RTVSPropertyOp13
 70
     1
102
RTVSPropertyOp14
 70
     1
102
RTVSPropertyOp15
 70
     1
102
RTVSPropertyOp16
 70
     1
102
RTVSPropertyOp17
 70
     1
102
RTVSPropertyOp18
 70
     1
102
RTVSPropertyOp19
 70
     1
102
RTVSPropertyOp20
 70
     1
102
RTVSPropertyOp21
 70
     1
102
RTVSPropertyOp22
 70
     1
102
RTVSPropertyOp23
 70
     1
102
RTVSPropertyOp24
 70
     1
102
RTVSPropertyOp25
 70
     1
102
RTVSPropertyOp26
 70
     1
102
RTVSPropertyOp27
 70
     1
102
RTVSPropertyOp28
 70
     1
102
RTVSPropertyOp29
 70
     1
102
RTVSPropertyOp30
 70
     1
102
RTVSPropertyOp31
 70
     1
102
RTVSPropertyOp32
 70
     1
102
RTVSPropertyOp33
 70
     1
102
RTVSPropertyOp34
 70
     1
102
RTVSPropertyOp35
 70
     1
102
RTVSPropertyOp36
 70
     1
102
RTVSPropertyOp37
 70
     1
102
RTVSPropertyOp38
 70
     1
102
RTVSPropertyOp39
 70
     1
102
RTVSPropertyOp40
 70
     1
102
RTVSPropertyOp41
 70
     1
102
RTVSPropertyOp42
 70
     1
102
RTVSPropertyOp43
 70
     1
102
RTVSPropertyOp44
 70
     1
102
RTVSPropertyOp45
 70
     1
102
RTVSPropertyOp46
 70
     1
102
RTVSPropertyOp47
 70
     1
102
RTVSPropertyOp48
 70
     1
102
RTVSPropertyOp49
 70
     1
102
RTVSPropertyOp50
 70
     1
102
RTVSPropertyOp51
 70
     0
102
RTVSPropertyOp52
 70
     0
102
RTVSPropertyOp53
 70
     1
102
RTVSPropertyOp54
 70
     1
102
RTVSPropertyOp55
 70
     1
102
RTVSPropertyOp56
 70
     1
102
RTVSPropertyOp57
 70
     1
102
RTVSPropertyOp58
 70
     1
102
RTVSPropertyOp59
 70
     1
102
RTVSPropertyOp60
 70
     1
102
RTVSPropertyOp61
 70
     1
102
RTVSPropertyOp62
 70
     1
  0
XRECORD
  5
19E4
102
{ACAD_REACTORS
330
19E3
102
}
330
19E3
100
AcDbXrecord
280
     1
102
RTVSPost2010Prop28
280
     0
102
RTVSPost2010PropOp28
 70
     1
102
RTVSPost2010Prop29
280
     1
102
RTVSPost2010PropOp29
 70
     1
102
RTVSPost2010Prop30
280
     1
102
RTVSPost2010PropOp30
 70
     1
102
RTVSPost2010Prop31
280
     0
102
RTVSPost2010PropOp31
 70
     1
102
RTVSPost2010Prop32
280
     0
102
RTVSPost2010PropOp32
 70
     1
102
RTVSPost2010Prop33
280
     0
102
RTVSPost2010PropOp33
 70
     1
102
RTVSPost2010Prop34
280
     0
102
RTVSPost2010PropOp34
 70
     1
102
RTVSPost2010Prop35
280
     0
102
RTVSPost2010PropOp35
 70
     1
102
RTVSPost2010Prop36
280
     0
102
RTVSPost2010PropOp36
 70
     1
102
RTVSPost2010Prop37
 90
       50
102
RTVSPost2010PropOp37
 70
     1
102
RTVSPost2010Prop38
140
0.0
102
RTVSPost2010PropOp38
 70
     1
102
RTVSPost2010Prop39
140
1.0
102
RTVSPost2010PropOp39
 70
     1
102
RTVSPost2010Prop40
 90
        0
102
RTVSPost2010PropOp40
 70
     1
102
RTVSPost2010Prop41ColorIndex
 90
       18
102
RTVSPost2010Prop41ColorRGB
 90
        0
102
RTVSPost2010PropOp41
 70
     1
102
RTVSPost2010Prop42
 90
       50
102
RTVSPost2010PropOp42
 70
     1
102
RTVSPost2010Prop43
 90
        3
102
RTVSPost2010PropOp43
 70
     1
102
RTVSPost2010Prop44ColorIndex
 90
        5
102
RTVSPost2010Prop44ColorRGB
 90
      255
102
RTVSPost2010PropOp44
 70
     1
102
RTVSPost2010Prop45
280
     0
102
RTVSPost2010PropOp45
 70
     1
102
RTVSPost2010Prop46
 90
       50
102
RTVSPost2010PropOp46
 70
     1
102
RTVSPost2010Prop47
 90
       50
102
RTVSPost2010PropOp47
 70
     1
102
RTVSPost2010Prop48
 90
       50
102
RTVSPost2010PropOp48
 70
     1
102
RTVSPost2010Prop49
280
     0
102
RTVSPost2010PropOp49
 70
     1
102
RTVSPost2010Prop50
 90
       50
102
RTVSPost2010PropOp50
 70
     1
102
RTVSPost2010Prop51ColorIndex
 90
      256
102
RTVSPost2010Prop51ColorRGB
 90
-16777216
102
RTVSPost2010PropOp51
 70
     0
102
RTVSPost2010Prop52
140
1.0
102
RTVSPost2010PropOp52
 70
     0
102
RTVSPost2010Prop53
 90
        2
102
RTVSPost2010PropOp53
 70
     1
102
RTVSPost2010Prop54
  1
strokes_ogs.tif
102
RTVSPost2010PropOp54
 70
     1
102
RTVSPost2010Prop55
280
     0
102
RTVSPost2010PropOp55
 70
     1
102
RTVSPost2010Prop56
140
1.0
102
RTVSPost2010PropOp56
 70
     1
102
RTVSPost2010Prop57
140
1.0
102
RTVSPost2010PropOp57
 70
     1
102
RTVSPropertyOp0
 70
     1
102
RTVSPropertyOp1
 70
     1
102
RTVSPropertyOp2
 70
     1
102
RTVSPropertyOp3
 70
     1
102
RTVSPropertyOp4
 70
     1
102
RTVSPropertyOp5
 70
     1
102
RTVSPropertyOp6
 70
     1
102
RTVSPropertyOp7
 70
     1
102
RTVSPropertyOp8
 70
     1
102
RTVSPropertyOp9
 70
     1
102
RTVSPropertyOp10
 70
     1
102
RTVSPropertyOp11
 70
     1
102
RTVSPropertyOp12
 70
     1
102
RTVSPropertyOp13
 70
     1
102
RTVSPropertyOp14
 70
     1
102
RTVSPropertyOp15
 70
     1
102
RTVSPropertyOp16
 70
     1
102
RTVSPropertyOp17
 70
     1
102
RTVSPropertyOp18
 70
     1
102
RTVSPropertyOp19
 70
     1
102
RTVSPropertyOp20
 70
     1
102
RTVSPropertyOp21
 70
     1
102
RTVSPropertyOp22
 70
     1
102
RTVSPropertyOp23
 70
     1
102
RTVSPropertyOp24
 70
     1
102
RTVSPropertyOp25
 70
     1
102
RTVSPropertyOp26
 70
     1
102
RTVSPropertyOp27
 70
     1
102
RTVSPropertyOp28
 70
     1
102
RTVSPropertyOp29
 70
     1
102
RTVSPropertyOp30
 70
     1
102
RTVSPropertyOp31
 70
     1
102
RTVSPropertyOp32
 70
     1
102
RTVSPropertyOp33
 70
     1
102
RTVSPropertyOp34
 70
     1
102
RTVSPropertyOp35
 70
     1
102
RTVSPropertyOp36
 70
     1
102
RTVSPropertyOp37
 70
     1
102
RTVSPropertyOp38
 70
     1
102
RTVSPropertyOp39
 70
     1
102
RTVSPropertyOp40
 70
     1
102
RTVSPropertyOp41
 70
     1
102
RTVSPropertyOp42
 70
     1
102
RTVSPropertyOp43
 70
     1
102
RTVSPropertyOp44
 70
     1
102
RTVSPropertyOp45
 70
     1
102
RTVSPropertyOp46
 70
     1
102
RTVSPropertyOp47
 70
     1
102
RTVSPropertyOp48
 70
     1
102
RTVSPropertyOp49
 70
     1
102
RTVSPropertyOp50
 70
     1
102
RTVSPropertyOp51
 70
     0
102
RTVSPropertyOp52
 70
     0
102
RTVSPropertyOp53
 70
     1
102
RTVSPropertyOp54
 70
     1
102
RTVSPropertyOp55
 70
     1
102
RTVSPropertyOp56
 70
     1
102
RTVSPropertyOp57
 70
     1
102
RTVSPropertyOp58
 70
     1
102
RTVSPropertyOp59
 70
     1
102
RTVSPropertyOp60
 70
     1
102
RTVSPropertyOp61
 70
     1
102
RTVSPropertyOp62
 70
     1
  0
XRECORD
  5
19F0
102
{ACAD_REACTORS
330
19EF
102
}
330
19EF
100
AcDbXrecord
280
     1
102
RTVSPost2010Prop28
280
     0
102
RTVSPost2010PropOp28
 70
     0
102
RTVSPost2010Prop29
280
     1
102
RTVSPost2010PropOp29
 70
     0
102
RTVSPost2010Prop30
280
     1
102
RTVSPost2010PropOp30
 70
     0
102
RTVSPost2010Prop31
280
     0
102
RTVSPost2010PropOp31
 70
     0
102
RTVSPost2010Prop32
280
     0
102
RTVSPost2010PropOp32
 70
     0
102
RTVSPost2010Prop33
280
     0
102
RTVSPost2010PropOp33
 70
     0
102
RTVSPost2010Prop34
280
     0
102
RTVSPost2010PropOp34
 70
     0
102
RTVSPost2010Prop35
280
     0
102
RTVSPost2010PropOp35
 70
     0
102
RTVSPost2010Prop36
280
     0
102
RTVSPost2010PropOp36
 70
     0
102
RTVSPost2010Prop37
 90
       50
102
RTVSPost2010PropOp37
 70
     0
102
RTVSPost2010Prop38
140
0.0
102
RTVSPost2010PropOp38
 70
     0
102
RTVSPost2010Prop39
140
1.0
102
RTVSPost2010PropOp39
 70
     0
102
RTVSPost2010Prop40
 90
        0
102
RTVSPost2010PropOp40
 70
     0
102
RTVSPost2010Prop41ColorIndex
 90
       18
102
RTVSPost2010Prop41ColorRGB
 90
        0
102
RTVSPost2010PropOp41
 70
     0
102
RTVSPost2010Prop42
 90
       50
102
RTVSPost2010PropOp42
 70
     0
102
RTVSPost2010Prop43
 90
        3
102
RTVSPost2010PropOp43
 70
     0
102
RTVSPost2010Prop44ColorIndex
 90
        5
102
RTVSPost2010Prop44ColorRGB
 90
      255
102
RTVSPost2010PropOp44
 70
     0
102
RTVSPost2010Prop45
280
     0
102
RTVSPost2010PropOp45
 70
     0
102
RTVSPost2010Prop46
 90
       50
102
RTVSPost2010PropOp46
 70
     0
102
RTVSPost2010Prop47
 90
       50
102
RTVSPost2010PropOp47
 70
     0
102
RTVSPost2010Prop48
 90
       50
102
RTVSPost2010PropOp48
 70
     0
102
RTVSPost2010Prop49
280
     0
102
RTVSPost2010PropOp49
 70
     0
102
RTVSPost2010Prop50
 90
       50
102
RTVSPost2010PropOp50
 70
     0
102
RTVSPost2010Prop51ColorIndex
 90
      256
102
RTVSPost2010Prop51ColorRGB
 90
-16777216
102
RTVSPost2010PropOp51
 70
     0
102
RTVSPost2010Prop52
140
1.0
102
RTVSPost2010PropOp52
 70
     0
102
RTVSPost2010Prop53
 90
        2
102
RTVSPost2010PropOp53
 70
     0
102
RTVSPost2010Prop54
  1
strokes_ogs.tif
102
RTVSPost2010PropOp54
 70
     0
102
RTVSPost2010Prop55
280
     0
102
RTVSPost2010PropOp55
 70
     0
102
RTVSPost2010Prop56
140
1.0
102
RTVSPost2010PropOp56
 70
     0
102
RTVSPost2010Prop57
140
1.0
102
RTVSPost2010PropOp57
 70
     0
102
RTVSPropertyOp0
 70
     0
102
RTVSPropertyOp1
 70
     0
102
RTVSPropertyOp2
 70
     0
102
RTVSPropertyOp3
 70
     0
102
RTVSPropertyOp4
 70
     0
102
RTVSPropertyOp5
 70
     0
102
RTVSPropertyOp6
 70
     0
102
RTVSPropertyOp7
 70
     0
102
RTVSPropertyOp8
 70
     0
102
RTVSPropertyOp9
 70
     0
102
RTVSPropertyOp10
 70
     0
102
RTVSPropertyOp11
 70
     0
102
RTVSPropertyOp12
 70
     0
102
RTVSPropertyOp13
 70
     0
102
RTVSPropertyOp14
 70
     2
102
RTVSPropertyOp15
 70
     0
102
RTVSPropertyOp16
 70
     0
102
RTVSPropertyOp17
 70
     0
102
RTVSPropertyOp18
 70
     0
102
RTVSPropertyOp19
 70
     0
102
RTVSPropertyOp20
 70
     0
102
RTVSPropertyOp21
 70
     0
102
RTVSPropertyOp22
 70
     0
102
RTVSPropertyOp23
 70
     0
102
RTVSPropertyOp24
 70
     0
102
RTVSPropertyOp25
 70
     0
102
RTVSPropertyOp26
 70
     0
102
RTVSPropertyOp27
 70
     0
102
RTVSPropertyOp28
 70
     0
102
RTVSPropertyOp29
 70
     0
102
RTVSPropertyOp30
 70
     0
102
RTVSPropertyOp31
 70
     0
102
RTVSPropertyOp32
 70
     0
102
RTVSPropertyOp33
 70
     0
102
RTVSPropertyOp34
 70
     0
102
RTVSPropertyOp35
 70
     0
102
RTVSPropertyOp36
 70
     0
102
RTVSPropertyOp37
 70
     0
102
RTVSPropertyOp38
 70
     0
102
RTVSPropertyOp39
 70
     0
102
RTVSPropertyOp40
 70
     0
102
RTVSPropertyOp41
 70
     0
102
RTVSPropertyOp42
 70
     0
102
RTVSPropertyOp43
 70
     0
102
RTVSPropertyOp44
 70
     0
102
RTVSPropertyOp45
 70
     0
102
RTVSPropertyOp46
 70
     0
102
RTVSPropertyOp47
 70
     0
102
RTVSPropertyOp48
 70
     0
102
RTVSPropertyOp49
 70
     0
102
RTVSPropertyOp50
 70
     0
102
RTVSPropertyOp51
 70
     0
102
RTVSPropertyOp52
 70
     0
102
RTVSPropertyOp53
 70
     0
102
RTVSPropertyOp54
 70
     0
102
RTVSPropertyOp55
 70
     0
102
RTVSPropertyOp56
 70
     0
102
RTVSPropertyOp57
 70
     0
102
RTVSPropertyOp58
 70
     0
102
RTVSPropertyOp59
 70
     0
102
RTVSPropertyOp60
 70
     0
102
RTVSPropertyOp61
 70
     0
102
RTVSPropertyOp62
 70
     0
  0
XRECORD
  5
19DB
102
{ACAD_REACTORS
330
19DA
102
}
330
19DA
100
AcDbXrecord
280
     1
102
RTVSPost2010Prop28
280
     0
102
RTVSPost2010PropOp28
 70
     1
102
RTVSPost2010Prop29
280
     1
102
RTVSPost2010PropOp29
 70
     1
102
RTVSPost2010Prop30
280
     1
102
RTVSPost2010PropOp30
 70
     1
102
RTVSPost2010Prop31
280
     0
102
RTVSPost2010PropOp31
 70
     1
102
RTVSPost2010Prop32
280
     0
102
RTVSPost2010PropOp32
 70
     1
102
RTVSPost2010Prop33
280
     0
102
RTVSPost2010PropOp33
 70
     1
102
RTVSPost2010Prop34
280
     0
102
RTVSPost2010PropOp34
 70
     1
102
RTVSPost2010Prop35
280
     0
102
RTVSPost2010PropOp35
 70
     1
102
RTVSPost2010Prop36
280
     0
102
RTVSPost2010PropOp36
 70
     1
102
RTVSPost2010Prop37
 90
       50
102
RTVSPost2010PropOp37
 70
     1
102
RTVSPost2010Prop38
140
0.0
102
RTVSPost2010PropOp38
 70
     1
102
RTVSPost2010Prop39
140
1.0
102
RTVSPost2010PropOp39
 70
     1
102
RTVSPost2010Prop40
 90
        0
102
RTVSPost2010PropOp40
 70
     1
102
RTVSPost2010Prop41ColorIndex
 90
       18
102
RTVSPost2010Prop41ColorRGB
 90
        0
102
RTVSPost2010PropOp41
 70
     1
102
RTVSPost2010Prop42
 90
       50
102
RTVSPost2010PropOp42
 70
     1
102
RTVSPost2010Prop43
 90
        3
102
RTVSPost2010PropOp43
 70
     1
102
RTVSPost2010Prop44ColorIndex
 90
        5
102
RTVSPost2010Prop44ColorRGB
 90
      255
102
RTVSPost2010PropOp44
 70
     1
102
RTVSPost2010Prop45
280
     0
102
RTVSPost2010PropOp45
 70
     1
102
RTVSPost2010Prop46
 90
       50
102
RTVSPost2010PropOp46
 70
     1
102
RTVSPost2010Prop47
 90
       50
102
RTVSPost2010PropOp47
 70
     1
102
RTVSPost2010Prop48
 90
       50
102
RTVSPost2010PropOp48
 70
     1
102
RTVSPost2010Prop49
280
     0
102
RTVSPost2010PropOp49
 70
     1
102
RTVSPost2010Prop50
 90
       50
102
RTVSPost2010PropOp50
 70
     1
102
RTVSPost2010Prop51ColorIndex
 90
      256
102
RTVSPost2010Prop51ColorRGB
 90
-16777216
102
RTVSPost2010PropOp51
 70
     0
102
RTVSPost2010Prop52
140
1.0
102
RTVSPost2010PropOp52
 70
     0
102
RTVSPost2010Prop53
 90
        2
102
RTVSPost2010PropOp53
 70
     1
102
RTVSPost2010Prop54
  1
strokes_ogs.tif
102
RTVSPost2010PropOp54
 70
     1
102
RTVSPost2010Prop55
280
     0
102
RTVSPost2010PropOp55
 70
     1
102
RTVSPost2010Prop56
140
1.0
102
RTVSPost2010PropOp56
 70
     1
102
RTVSPost2010Prop57
140
1.0
102
RTVSPost2010PropOp57
 70
     1
102
RTVSPropertyOp0
 70
     1
102
RTVSPropertyOp1
 70
     1
102
RTVSPropertyOp2
 70
     1
102
RTVSPropertyOp3
 70
     1
102
RTVSPropertyOp4
 70
     1
102
RTVSPropertyOp5
 70
     1
102
RTVSPropertyOp6
 70
     1
102
RTVSPropertyOp7
 70
     1
102
RTVSPropertyOp8
 70
     1
102
RTVSPropertyOp9
 70
     1
102
RTVSPropertyOp10
 70
     1
102
RTVSPropertyOp11
 70
     1
102
RTVSPropertyOp12
 70
     1
102
RTVSPropertyOp13
 70
     1
102
RTVSPropertyOp14
 70
     1
102
RTVSPropertyOp15
 70
     1
102
RTVSPropertyOp16
 70
     1
102
RTVSPropertyOp17
 70
     1
102
RTVSPropertyOp18
 70
     1
102
RTVSPropertyOp19
 70
     1
102
RTVSPropertyOp20
 70
     1
102
RTVSPropertyOp21
 70
     1
102
RTVSPropertyOp22
 70
     1
102
RTVSPropertyOp23
 70
     1
102
RTVSPropertyOp24
 70
     1
102
RTVSPropertyOp25
 70
     1
102
RTVSPropertyOp26
 70
     1
102
RTVSPropertyOp27
 70
     1
102
RTVSPropertyOp28
 70
     1
102
RTVSPropertyOp29
 70
     1
102
RTVSPropertyOp30
 70
     1
102
RTVSPropertyOp31
 70
     1
102
RTVSPropertyOp32
 70
     1
102
RTVSPropertyOp33
 70
     1
102
RTVSPropertyOp34
 70
     1
102
RTVSPropertyOp35
 70
     1
102
RTVSPropertyOp36
 70
     1
102
RTVSPropertyOp37
 70
     1
102
RTVSPropertyOp38
 70
     1
102
RTVSPropertyOp39
 70
     1
102
RTVSPropertyOp40
 70
     1
102
RTVSPropertyOp41
 70
     1
102
RTVSPropertyOp42
 70
     1
102
RTVSPropertyOp43
 70
     1
102
RTVSPropertyOp44
 70
     1
102
RTVSPropertyOp45
 70
     1
102
RTVSPropertyOp46
 70
     1
102
RTVSPropertyOp47
 70
     1
102
RTVSPropertyOp48
 70
     1
102
RTVSPropertyOp49
 70
     1
102
RTVSPropertyOp50
 70
     1
102
RTVSPropertyOp51
 70
     0
102
RTVSPropertyOp52
 70
     0
102
RTVSPropertyOp53
 70
     1
102
RTVSPropertyOp54
 70
     1
102
RTVSPropertyOp55
 70
     1
102
RTVSPropertyOp56
 70
     1
102
RTVSPropertyOp57
 70
     1
102
RTVSPropertyOp58
 70
     1
102
RTVSPropertyOp59
 70
     1
102
RTVSPropertyOp60
 70
     1
102
RTVSPropertyOp61
 70
     1
102
RTVSPropertyOp62
 70
     1
  0
XRECORD
  5
19F2
102
{ACAD_REACTORS
330
19F1
102
}
330
19F1
100
AcDbXrecord
280
     1
102
RTVSPost2010Prop28
280
     0
102
RTVSPost2010PropOp28
 70
     0
102
RTVSPost2010Prop29
280
     1
102
RTVSPost2010PropOp29
 70
     0
102
RTVSPost2010Prop30
280
     1
102
RTVSPost2010PropOp30
 70
     0
102
RTVSPost2010Prop31
280
     0
102
RTVSPost2010PropOp31
 70
     0
102
RTVSPost2010Prop32
280
     0
102
RTVSPost2010PropOp32
 70
     0
102
RTVSPost2010Prop33
280
     0
102
RTVSPost2010PropOp33
 70
     0
102
RTVSPost2010Prop34
280
     0
102
RTVSPost2010PropOp34
 70
     0
102
RTVSPost2010Prop35
280
     0
102
RTVSPost2010PropOp35
 70
     0
102
RTVSPost2010Prop36
280
     0
102
RTVSPost2010PropOp36
 70
     0
102
RTVSPost2010Prop37
 90
       50
102
RTVSPost2010PropOp37
 70
     0
102
RTVSPost2010Prop38
140
0.0
102
RTVSPost2010PropOp38
 70
     0
102
RTVSPost2010Prop39
140
1.0
102
RTVSPost2010PropOp39
 70
     0
102
RTVSPost2010Prop40
 90
        0
102
RTVSPost2010PropOp40
 70
     0
102
RTVSPost2010Prop41ColorIndex
 90
       18
102
RTVSPost2010Prop41ColorRGB
 90
        0
102
RTVSPost2010PropOp41
 70
     0
102
RTVSPost2010Prop42
 90
       50
102
RTVSPost2010PropOp42
 70
     0
102
RTVSPost2010Prop43
 90
        3
102
RTVSPost2010PropOp43
 70
     0
102
RTVSPost2010Prop44ColorIndex
 90
        5
102
RTVSPost2010Prop44ColorRGB
 90
      255
102
RTVSPost2010PropOp44
 70
     0
102
RTVSPost2010Prop45
280
     0
102
RTVSPost2010PropOp45
 70
     0
102
RTVSPost2010Prop46
 90
       50
102
RTVSPost2010PropOp46
 70
     0
102
RTVSPost2010Prop47
 90
       50
102
RTVSPost2010PropOp47
 70
     0
102
RTVSPost2010Prop48
 90
       50
102
RTVSPost2010PropOp48
 70
     0
102
RTVSPost2010Prop49
280
     0
102
RTVSPost2010PropOp49
 70
     0
102
RTVSPost2010Prop50
 90
       50
102
RTVSPost2010PropOp50
 70
     0
102
RTVSPost2010Prop51ColorIndex
 90
      256
102
RTVSPost2010Prop51ColorRGB
 90
-16777216
102
RTVSPost2010PropOp51
 70
     0
102
RTVSPost2010Prop52
140
1.0
102
RTVSPost2010PropOp52
 70
     0
102
RTVSPost2010Prop53
 90
        2
102
RTVSPost2010PropOp53
 70
     0
102
RTVSPost2010Prop54
  1
strokes_ogs.tif
102
RTVSPost2010PropOp54
 70
     0
102
RTVSPost2010Prop55
280
     0
102
RTVSPost2010PropOp55
 70
     0
102
RTVSPost2010Prop56
140
1.0
102
RTVSPost2010PropOp56
 70
     0
102
RTVSPost2010Prop57
140
1.0
102
RTVSPost2010PropOp57
 70
     0
102
RTVSPropertyOp0
 70
     0
102
RTVSPropertyOp1
 70
     0
102
RTVSPropertyOp2
 70
     0
102
RTVSPropertyOp3
 70
     0
102
RTVSPropertyOp4
 70
     0
102
RTVSPropertyOp5
 70
     0
102
RTVSPropertyOp6
 70
     0
102
RTVSPropertyOp7
 70
     0
102
RTVSPropertyOp8
 70
     0
102
RTVSPropertyOp9
 70
     0
102
RTVSPropertyOp10
 70
     0
102
RTVSPropertyOp11
 70
     0
102
RTVSPropertyOp12
 70
     0
102
RTVSPropertyOp13
 70
     0
102
RTVSPropertyOp14
 70
     2
102
RTVSPropertyOp15
 70
     0
102
RTVSPropertyOp16
 70
     0
102
RTVSPropertyOp17
 70
     0
102
RTVSPropertyOp18
 70
     0
102
RTVSPropertyOp19
 70
     0
102
RTVSPropertyOp20
 70
     0
102
RTVSPropertyOp21
 70
     0
102
RTVSPropertyOp22
 70
     0
102
RTVSPropertyOp23
 70
     0
102
RTVSPropertyOp24
 70
     0
102
RTVSPropertyOp25
 70
     0
102
RTVSPropertyOp26
 70
     0
102
RTVSPropertyOp27
 70
     0
102
RTVSPropertyOp28
 70
     0
102
RTVSPropertyOp29
 70
     0
102
RTVSPropertyOp30
 70
     0
102
RTVSPropertyOp31
 70
     0
102
RTVSPropertyOp32
 70
     0
102
RTVSPropertyOp33
 70
     0
102
RTVSPropertyOp34
 70
     0
102
RTVSPropertyOp35
 70
     0
102
RTVSPropertyOp36
 70
     0
102
RTVSPropertyOp37
 70
     0
102
RTVSPropertyOp38
 70
     0
102
RTVSPropertyOp39
 70
     0
102
RTVSPropertyOp40
 70
     0
102
RTVSPropertyOp41
 70
     0
102
RTVSPropertyOp42
 70
     0
102
RTVSPropertyOp43
 70
     0
102
RTVSPropertyOp44
 70
     0
102
RTVSPropertyOp45
 70
     0
102
RTVSPropertyOp46
 70
     0
102
RTVSPropertyOp47
 70
     0
102
RTVSPropertyOp48
 70
     0
102
RTVSPropertyOp49
 70
     0
102
RTVSPropertyOp50
 70
     0
102
RTVSPropertyOp51
 70
     0
102
RTVSPropertyOp52
 70
     0
102
RTVSPropertyOp53
 70
     0
102
RTVSPropertyOp54
 70
     0
102
RTVSPropertyOp55
 70
     0
102
RTVSPropertyOp56
 70
     0
102
RTVSPropertyOp57
 70
     0
102
RTVSPropertyOp58
 70
     0
102
RTVSPropertyOp59
 70
     0
102
RTVSPropertyOp60
 70
     0
102
RTVSPropertyOp61
 70
     0
102
RTVSPropertyOp62
 70
     0
  0
XRECORD
  5
19D3
102
{ACAD_REACTORS
330
19D2
102
}
330
19D2
100
AcDbXrecord
280
     1
102
RTVSPost2010Prop28
280
     0
102
RTVSPost2010PropOp28
 70
     1
102
RTVSPost2010Prop29
280
     1
102
RTVSPost2010PropOp29
 70
     1
102
RTVSPost2010Prop30
280
     1
102
RTVSPost2010PropOp30
 70
     1
102
RTVSPost2010Prop31
280
     0
102
RTVSPost2010PropOp31
 70
     1
102
RTVSPost2010Prop32
280
     0
102
RTVSPost2010PropOp32
 70
     1
102
RTVSPost2010Prop33
280
     0
102
RTVSPost2010PropOp33
 70
     1
102
RTVSPost2010Prop34
280
     0
102
RTVSPost2010PropOp34
 70
     1
102
RTVSPost2010Prop35
280
     0
102
RTVSPost2010PropOp35
 70
     1
102
RTVSPost2010Prop36
280
     0
102
RTVSPost2010PropOp36
 70
     1
102
RTVSPost2010Prop37
 90
       50
102
RTVSPost2010PropOp37
 70
     1
102
RTVSPost2010Prop38
140
0.0
102
RTVSPost2010PropOp38
 70
     1
102
RTVSPost2010Prop39
140
1.0
102
RTVSPost2010PropOp39
 70
     1
102
RTVSPost2010Prop40
 90
        0
102
RTVSPost2010PropOp40
 70
     1
102
RTVSPost2010Prop41ColorIndex
 90
       18
102
RTVSPost2010Prop41ColorRGB
 90
        0
102
RTVSPost2010PropOp41
 70
     1
102
RTVSPost2010Prop42
 90
       50
102
RTVSPost2010PropOp42
 70
     1
102
RTVSPost2010Prop43
 90
        3
102
RTVSPost2010PropOp43
 70
     1
102
RTVSPost2010Prop44ColorIndex
 90
        5
102
RTVSPost2010Prop44ColorRGB
 90
      255
102
RTVSPost2010PropOp44
 70
     1
102
RTVSPost2010Prop45
280
     0
102
RTVSPost2010PropOp45
 70
     1
102
RTVSPost2010Prop46
 90
       50
102
RTVSPost2010PropOp46
 70
     1
102
RTVSPost2010Prop47
 90
       50
102
RTVSPost2010PropOp47
 70
     1
102
RTVSPost2010Prop48
 90
       50
102
RTVSPost2010PropOp48
 70
     1
102
RTVSPost2010Prop49
280
     0
102
RTVSPost2010PropOp49
 70
     1
102
RTVSPost2010Prop50
 90
       50
102
RTVSPost2010PropOp50
 70
     1
102
RTVSPost2010Prop51ColorIndex
 90
      256
102
RTVSPost2010Prop51ColorRGB
 90
-16777216
102
RTVSPost2010PropOp51
 70
     0
102
RTVSPost2010Prop52
140
1.0
102
RTVSPost2010PropOp52
 70
     0
102
RTVSPost2010Prop53
 90
        2
102
RTVSPost2010PropOp53
 70
     1
102
RTVSPost2010Prop54
  1
strokes_ogs.tif
102
RTVSPost2010PropOp54
 70
     1
102
RTVSPost2010Prop55
280
     0
102
RTVSPost2010PropOp55
 70
     1
102
RTVSPost2010Prop56
140
1.0
102
RTVSPost2010PropOp56
 70
     1
102
RTVSPost2010Prop57
140
1.0
102
RTVSPost2010PropOp57
 70
     1
102
RTVSPropertyOp0
 70
     1
102
RTVSPropertyOp1
 70
     1
102
RTVSPropertyOp2
 70
     1
102
RTVSPropertyOp3
 70
     1
102
RTVSPropertyOp4
 70
     1
102
RTVSPropertyOp5
 70
     1
102
RTVSPropertyOp6
 70
     1
102
RTVSPropertyOp7
 70
     1
102
RTVSPropertyOp8
 70
     1
102
RTVSPropertyOp9
 70
     1
102
RTVSPropertyOp10
 70
     1
102
RTVSPropertyOp11
 70
     1
102
RTVSPropertyOp12
 70
     1
102
RTVSPropertyOp13
 70
     1
102
RTVSPropertyOp14
 70
     1
102
RTVSPropertyOp15
 70
     1
102
RTVSPropertyOp16
 70
     1
102
RTVSPropertyOp17
 70
     1
102
RTVSPropertyOp18
 70
     1
102
RTVSPropertyOp19
 70
     1
102
RTVSPropertyOp20
 70
     1
102
RTVSPropertyOp21
 70
     1
102
RTVSPropertyOp22
 70
     1
102
RTVSPropertyOp23
 70
     1
102
RTVSPropertyOp24
 70
     1
102
RTVSPropertyOp25
 70
     1
102
RTVSPropertyOp26
 70
     1
102
RTVSPropertyOp27
 70
     1
102
RTVSPropertyOp28
 70
     1
102
RTVSPropertyOp29
 70
     1
102
RTVSPropertyOp30
 70
     1
102
RTVSPropertyOp31
 70
     1
102
RTVSPropertyOp32
 70
     1
102
RTVSPropertyOp33
 70
     1
102
RTVSPropertyOp34
 70
     1
102
RTVSPropertyOp35
 70
     1
102
RTVSPropertyOp36
 70
     1
102
RTVSPropertyOp37
 70
     1
102
RTVSPropertyOp38
 70
     1
102
RTVSPropertyOp39
 70
     1
102
RTVSPropertyOp40
 70
     1
102
RTVSPropertyOp41
 70
     1
102
RTVSPropertyOp42
 70
     1
102
RTVSPropertyOp43
 70
     1
102
RTVSPropertyOp44
 70
     1
102
RTVSPropertyOp45
 70
     1
102
RTVSPropertyOp46
 70
     1
102
RTVSPropertyOp47
 70
     1
102
RTVSPropertyOp48
 70
     1
102
RTVSPropertyOp49
 70
     1
102
RTVSPropertyOp50
 70
     1
102
RTVSPropertyOp51
 70
     0
102
RTVSPropertyOp52
 70
     0
102
RTVSPropertyOp53
 70
     1
102
RTVSPropertyOp54
 70
     1
102
RTVSPropertyOp55
 70
     1
102
RTVSPropertyOp56
 70
     1
102
RTVSPropertyOp57
 70
     1
102
RTVSPropertyOp58
 70
     1
102
RTVSPropertyOp59
 70
     1
102
RTVSPropertyOp60
 70
     1
102
RTVSPropertyOp61
 70
     1
102
RTVSPropertyOp62
 70
     1
  0
XRECORD
  5
19EE
102
{ACAD_REACTORS
330
19ED
102
}
330
19ED
100
AcDbXrecord
280
     1
102
RTVSPost2010Prop28
280
     0
102
RTVSPost2010PropOp28
 70
     1
102
RTVSPost2010Prop29
280
     1
102
RTVSPost2010PropOp29
 70
     1
102
RTVSPost2010Prop30
280
     1
102
RTVSPost2010PropOp30
 70
     1
102
RTVSPost2010Prop31
280
     0
102
RTVSPost2010PropOp31
 70
     1
102
RTVSPost2010Prop32
280
     0
102
RTVSPost2010PropOp32
 70
     1
102
RTVSPost2010Prop33
280
     0
102
RTVSPost2010PropOp33
 70
     1
102
RTVSPost2010Prop34
280
     0
102
RTVSPost2010PropOp34
 70
     1
102
RTVSPost2010Prop35
280
     0
102
RTVSPost2010PropOp35
 70
     1
102
RTVSPost2010Prop36
280
     0
102
RTVSPost2010PropOp36
 70
     1
102
RTVSPost2010Prop37
 90
       50
102
RTVSPost2010PropOp37
 70
     1
102
RTVSPost2010Prop38
140
0.0
102
RTVSPost2010PropOp38
 70
     1
102
RTVSPost2010Prop39
140
1.0
102
RTVSPost2010PropOp39
 70
     1
102
RTVSPost2010Prop40
 90
        0
102
RTVSPost2010PropOp40
 70
     1
102
RTVSPost2010Prop41ColorIndex
 90
       18
102
RTVSPost2010Prop41ColorRGB
 90
        0
102
RTVSPost2010PropOp41
 70
     1
102
RTVSPost2010Prop42
 90
       50
102
RTVSPost2010PropOp42
 70
     1
102
RTVSPost2010Prop43
 90
        3
102
RTVSPost2010PropOp43
 70
     1
102
RTVSPost2010Prop44ColorIndex
 90
        5
102
RTVSPost2010Prop44ColorRGB
 90
      255
102
RTVSPost2010PropOp44
 70
     1
102
RTVSPost2010Prop45
280
     0
102
RTVSPost2010PropOp45
 70
     1
102
RTVSPost2010Prop46
 90
       50
102
RTVSPost2010PropOp46
 70
     1
102
RTVSPost2010Prop47
 90
       50
102
RTVSPost2010PropOp47
 70
     1
102
RTVSPost2010Prop48
 90
       50
102
RTVSPost2010PropOp48
 70
     1
102
RTVSPost2010Prop49
280
     0
102
RTVSPost2010PropOp49
 70
     1
102
RTVSPost2010Prop50
 90
       50
102
RTVSPost2010PropOp50
 70
     1
102
RTVSPost2010Prop51ColorIndex
 90
      256
102
RTVSPost2010Prop51ColorRGB
 90
-16777216
102
RTVSPost2010PropOp51
 70
     0
102
RTVSPost2010Prop52
140
1.0
102
RTVSPost2010PropOp52
 70
     0
102
RTVSPost2010Prop53
 90
        2
102
RTVSPost2010PropOp53
 70
     1
102
RTVSPost2010Prop54
  1
strokes_ogs.tif
102
RTVSPost2010PropOp54
 70
     1
102
RTVSPost2010Prop55
280
     0
102
RTVSPost2010PropOp55
 70
     1
102
RTVSPost2010Prop56
140
1.0
102
RTVSPost2010PropOp56
 70
     1
102
RTVSPost2010Prop57
140
1.0
102
RTVSPost2010PropOp57
 70
     1
102
RTVSPropertyOp0
 70
     1
102
RTVSPropertyOp1
 70
     1
102
RTVSPropertyOp2
 70
     1
102
RTVSPropertyOp3
 70
     1
102
RTVSPropertyOp4
 70
     1
102
RTVSPropertyOp5
 70
     1
102
RTVSPropertyOp6
 70
     1
102
RTVSPropertyOp7
 70
     1
102
RTVSPropertyOp8
 70
     1
102
RTVSPropertyOp9
 70
     1
102
RTVSPropertyOp10
 70
     1
102
RTVSPropertyOp11
 70
     1
102
RTVSPropertyOp12
 70
     1
102
RTVSPropertyOp13
 70
     1
102
RTVSPropertyOp14
 70
     1
102
RTVSPropertyOp15
 70
     1
102
RTVSPropertyOp16
 70
     1
102
RTVSPropertyOp17
 70
     1
102
RTVSPropertyOp18
 70
     1
102
RTVSPropertyOp19
 70
     1
102
RTVSPropertyOp20
 70
     1
102
RTVSPropertyOp21
 70
     1
102
RTVSPropertyOp22
 70
     1
102
RTVSPropertyOp23
 70
     1
102
RTVSPropertyOp24
 70
     1
102
RTVSPropertyOp25
 70
     1
102
RTVSPropertyOp26
 70
     1
102
RTVSPropertyOp27
 70
     1
102
RTVSPropertyOp28
 70
     1
102
RTVSPropertyOp29
 70
     1
102
RTVSPropertyOp30
 70
     1
102
RTVSPropertyOp31
 70
     1
102
RTVSPropertyOp32
 70
     1
102
RTVSPropertyOp33
 70
     1
102
RTVSPropertyOp34
 70
     1
102
RTVSPropertyOp35
 70
     1
102
RTVSPropertyOp36
 70
     1
102
RTVSPropertyOp37
 70
     1
102
RTVSPropertyOp38
 70
     1
102
RTVSPropertyOp39
 70
     1
102
RTVSPropertyOp40
 70
     1
102
RTVSPropertyOp41
 70
     1
102
RTVSPropertyOp42
 70
     1
102
RTVSPropertyOp43
 70
     1
102
RTVSPropertyOp44
 70
     1
102
RTVSPropertyOp45
 70
     1
102
RTVSPropertyOp46
 70
     1
102
RTVSPropertyOp47
 70
     1
102
RTVSPropertyOp48
 70
     1
102
RTVSPropertyOp49
 70
     1
102
RTVSPropertyOp50
 70
     1
102
RTVSPropertyOp51
 70
     0
102
RTVSPropertyOp52
 70
     0
102
RTVSPropertyOp53
 70
     1
102
RTVSPropertyOp54
 70
     1
102
RTVSPropertyOp55
 70
     1
102
RTVSPropertyOp56
 70
     1
102
RTVSPropertyOp57
 70
     1
102
RTVSPropertyOp58
 70
     1
102
RTVSPropertyOp59
 70
     1
102
RTVSPropertyOp60
 70
     1
102
RTVSPropertyOp61
 70
     1
102
RTVSPropertyOp62
 70
     1
  0
XRECORD
  5
19EC
102
{ACAD_REACTORS
330
19EB
102
}
330
19EB
100
AcDbXrecord
280
     1
102
RTVSPost2010Prop28
280
     0
102
RTVSPost2010PropOp28
 70
     1
102
RTVSPost2010Prop29
280
     1
102
RTVSPost2010PropOp29
 70
     1
102
RTVSPost2010Prop30
280
     1
102
RTVSPost2010PropOp30
 70
     1
102
RTVSPost2010Prop31
280
     0
102
RTVSPost2010PropOp31
 70
     1
102
RTVSPost2010Prop32
280
     0
102
RTVSPost2010PropOp32
 70
     1
102
RTVSPost2010Prop33
280
     0
102
RTVSPost2010PropOp33
 70
     1
102
RTVSPost2010Prop34
280
     0
102
RTVSPost2010PropOp34
 70
     1
102
RTVSPost2010Prop35
280
     0
102
RTVSPost2010PropOp35
 70
     1
102
RTVSPost2010Prop36
280
     0
102
RTVSPost2010PropOp36
 70
     1
102
RTVSPost2010Prop37
 90
       50
102
RTVSPost2010PropOp37
 70
     1
102
RTVSPost2010Prop38
140
0.0
102
RTVSPost2010PropOp38
 70
     1
102
RTVSPost2010Prop39
140
1.0
102
RTVSPost2010PropOp39
 70
     1
102
RTVSPost2010Prop40
 90
        0
102
RTVSPost2010PropOp40
 70
     1
102
RTVSPost2010Prop41ColorIndex
 90
       18
102
RTVSPost2010Prop41ColorRGB
 90
        0
102
RTVSPost2010PropOp41
 70
     1
102
RTVSPost2010Prop42
 90
       50
102
RTVSPost2010PropOp42
 70
     1
102
RTVSPost2010Prop43
 90
        3
102
RTVSPost2010PropOp43
 70
     1
102
RTVSPost2010Prop44ColorIndex
 90
        5
102
RTVSPost2010Prop44ColorRGB
 90
      255
102
RTVSPost2010PropOp44
 70
     1
102
RTVSPost2010Prop45
280
     0
102
RTVSPost2010PropOp45
 70
     1
102
RTVSPost2010Prop46
 90
       50
102
RTVSPost2010PropOp46
 70
     1
102
RTVSPost2010Prop47
 90
       50
102
RTVSPost2010PropOp47
 70
     1
102
RTVSPost2010Prop48
 90
       50
102
RTVSPost2010PropOp48
 70
     1
102
RTVSPost2010Prop49
280
     0
102
RTVSPost2010PropOp49
 70
     1
102
RTVSPost2010Prop50
 90
       50
102
RTVSPost2010PropOp50
 70
     1
102
RTVSPost2010Prop51ColorIndex
 90
      256
102
RTVSPost2010Prop51ColorRGB
 90
-16777216
102
RTVSPost2010PropOp51
 70
     0
102
RTVSPost2010Prop52
140
1.0
102
RTVSPost2010PropOp52
 70
     0
102
RTVSPost2010Prop53
 90
        2
102
RTVSPost2010PropOp53
 70
     1
102
RTVSPost2010Prop54
  1
strokes_ogs.tif
102
RTVSPost2010PropOp54
 70
     1
102
RTVSPost2010Prop55
280
     0
102
RTVSPost2010PropOp55
 70
     1
102
RTVSPost2010Prop56
140
1.0
102
RTVSPost2010PropOp56
 70
     1
102
RTVSPost2010Prop57
140
1.0
102
RTVSPost2010PropOp57
 70
     1
102
RTVSPropertyOp0
 70
     1
102
RTVSPropertyOp1
 70
     1
102
RTVSPropertyOp2
 70
     1
102
RTVSPropertyOp3
 70
     1
102
RTVSPropertyOp4
 70
     1
102
RTVSPropertyOp5
 70
     1
102
RTVSPropertyOp6
 70
     1
102
RTVSPropertyOp7
 70
     1
102
RTVSPropertyOp8
 70
     1
102
RTVSPropertyOp9
 70
     1
102
RTVSPropertyOp10
 70
     1
102
RTVSPropertyOp11
 70
     1
102
RTVSPropertyOp12
 70
     1
102
RTVSPropertyOp13
 70
     1
102
RTVSPropertyOp14
 70
     1
102
RTVSPropertyOp15
 70
     1
102
RTVSPropertyOp16
 70
     1
102
RTVSPropertyOp17
 70
     1
102
RTVSPropertyOp18
 70
     1
102
RTVSPropertyOp19
 70
     1
102
RTVSPropertyOp20
 70
     1
102
RTVSPropertyOp21
 70
     1
102
RTVSPropertyOp22
 70
     1
102
RTVSPropertyOp23
 70
     1
102
RTVSPropertyOp24
 70
     1
102
RTVSPropertyOp25
 70
     1
102
RTVSPropertyOp26
 70
     1
102
RTVSPropertyOp27
 70
     1
102
RTVSPropertyOp28
 70
     1
102
RTVSPropertyOp29
 70
     1
102
RTVSPropertyOp30
 70
     1
102
RTVSPropertyOp31
 70
     1
102
RTVSPropertyOp32
 70
     1
102
RTVSPropertyOp33
 70
     1
102
RTVSPropertyOp34
 70
     1
102
RTVSPropertyOp35
 70
     1
102
RTVSPropertyOp36
 70
     1
102
RTVSPropertyOp37
 70
     1
102
RTVSPropertyOp38
 70
     1
102
RTVSPropertyOp39
 70
     1
102
RTVSPropertyOp40
 70
     1
102
RTVSPropertyOp41
 70
     1
102
RTVSPropertyOp42
 70
     1
102
RTVSPropertyOp43
 70
     1
102
RTVSPropertyOp44
 70
     1
102
RTVSPropertyOp45
 70
     1
102
RTVSPropertyOp46
 70
     1
102
RTVSPropertyOp47
 70
     1
102
RTVSPropertyOp48
 70
     1
102
RTVSPropertyOp49
 70
     1
102
RTVSPropertyOp50
 70
     1
102
RTVSPropertyOp51
 70
     0
102
RTVSPropertyOp52
 70
     0
102
RTVSPropertyOp53
 70
     1
102
RTVSPropertyOp54
 70
     1
102
RTVSPropertyOp55
 70
     1
102
RTVSPropertyOp56
 70
     1
102
RTVSPropertyOp57
 70
     1
102
RTVSPropertyOp58
 70
     1
102
RTVSPropertyOp59
 70
     1
102
RTVSPropertyOp60
 70
     1
102
RTVSPropertyOp61
 70
     1
102
RTVSPropertyOp62
 70
     1
  0
XRECORD
  5
19E6
102
{ACAD_REACTORS
330
19E5
102
}
330
19E5
100
AcDbXrecord
280
     1
102
RTVSPost2010Prop28
280
     0
102
RTVSPost2010PropOp28
 70
     1
102
RTVSPost2010Prop29
280
     1
102
RTVSPost2010PropOp29
 70
     1
102
RTVSPost2010Prop30
280
     1
102
RTVSPost2010PropOp30
 70
     1
102
RTVSPost2010Prop31
280
     0
102
RTVSPost2010PropOp31
 70
     1
102
RTVSPost2010Prop32
280
     0
102
RTVSPost2010PropOp32
 70
     1
102
RTVSPost2010Prop33
280
     0
102
RTVSPost2010PropOp33
 70
     1
102
RTVSPost2010Prop34
280
     0
102
RTVSPost2010PropOp34
 70
     1
102
RTVSPost2010Prop35
280
     0
102
RTVSPost2010PropOp35
 70
     1
102
RTVSPost2010Prop36
280
     0
102
RTVSPost2010PropOp36
 70
     1
102
RTVSPost2010Prop37
 90
       50
102
RTVSPost2010PropOp37
 70
     1
102
RTVSPost2010Prop38
140
0.0
102
RTVSPost2010PropOp38
 70
     1
102
RTVSPost2010Prop39
140
1.0
102
RTVSPost2010PropOp39
 70
     1
102
RTVSPost2010Prop40
 90
        0
102
RTVSPost2010PropOp40
 70
     1
102
RTVSPost2010Prop41ColorIndex
 90
       18
102
RTVSPost2010Prop41ColorRGB
 90
        0
102
RTVSPost2010PropOp41
 70
     1
102
RTVSPost2010Prop42
 90
       50
102
RTVSPost2010PropOp42
 70
     1
102
RTVSPost2010Prop43
 90
        3
102
RTVSPost2010PropOp43
 70
     1
102
RTVSPost2010Prop44ColorIndex
 90
        5
102
RTVSPost2010Prop44ColorRGB
 90
      255
102
RTVSPost2010PropOp44
 70
     1
102
RTVSPost2010Prop45
280
     0
102
RTVSPost2010PropOp45
 70
     1
102
RTVSPost2010Prop46
 90
       50
102
RTVSPost2010PropOp46
 70
     1
102
RTVSPost2010Prop47
 90
       50
102
RTVSPost2010PropOp47
 70
     1
102
RTVSPost2010Prop48
 90
       50
102
RTVSPost2010PropOp48
 70
     1
102
RTVSPost2010Prop49
280
     0
102
RTVSPost2010PropOp49
 70
     1
102
RTVSPost2010Prop50
 90
       50
102
RTVSPost2010PropOp50
 70
     1
102
RTVSPost2010Prop51ColorIndex
 90
      256
102
RTVSPost2010Prop51ColorRGB
 90
-16777216
102
RTVSPost2010PropOp51
 70
     0
102
RTVSPost2010Prop52
140
1.0
102
RTVSPost2010PropOp52
 70
     0
102
RTVSPost2010Prop53
 90
        2
102
RTVSPost2010PropOp53
 70
     1
102
RTVSPost2010Prop54
  1
strokes_ogs.tif
102
RTVSPost2010PropOp54
 70
     1
102
RTVSPost2010Prop55
280
     0
102
RTVSPost2010PropOp55
 70
     1
102
RTVSPost2010Prop56
140
1.0
102
RTVSPost2010PropOp56
 70
     1
102
RTVSPost2010Prop57
140
1.0
102
RTVSPost2010PropOp57
 70
     1
102
RTVSPropertyOp0
 70
     1
102
RTVSPropertyOp1
 70
     1
102
RTVSPropertyOp2
 70
     1
102
RTVSPropertyOp3
 70
     1
102
RTVSPropertyOp4
 70
     1
102
RTVSPropertyOp5
 70
     1
102
RTVSPropertyOp6
 70
     1
102
RTVSPropertyOp7
 70
     1
102
RTVSPropertyOp8
 70
     1
102
RTVSPropertyOp9
 70
     1
102
RTVSPropertyOp10
 70
     1
102
RTVSPropertyOp11
 70
     1
102
RTVSPropertyOp12
 70
     1
102
RTVSPropertyOp13
 70
     1
102
RTVSPropertyOp14
 70
     1
102
RTVSPropertyOp15
 70
     1
102
RTVSPropertyOp16
 70
     1
102
RTVSPropertyOp17
 70
     1
102
RTVSPropertyOp18
 70
     1
102
RTVSPropertyOp19
 70
     1
102
RTVSPropertyOp20
 70
     1
102
RTVSPropertyOp21
 70
     1
102
RTVSPropertyOp22
 70
     1
102
RTVSPropertyOp23
 70
     1
102
RTVSPropertyOp24
 70
     1
102
RTVSPropertyOp25
 70
     1
102
RTVSPropertyOp26
 70
     1
102
RTVSPropertyOp27
 70
     1
102
RTVSPropertyOp28
 70
     1
102
RTVSPropertyOp29
 70
     1
102
RTVSPropertyOp30
 70
     1
102
RTVSPropertyOp31
 70
     1
102
RTVSPropertyOp32
 70
     1
102
RTVSPropertyOp33
 70
     1
102
RTVSPropertyOp34
 70
     1
102
RTVSPropertyOp35
 70
     1
102
RTVSPropertyOp36
 70
     1
102
RTVSPropertyOp37
 70
     1
102
RTVSPropertyOp38
 70
     1
102
RTVSPropertyOp39
 70
     1
102
RTVSPropertyOp40
 70
     1
102
RTVSPropertyOp41
 70
     1
102
RTVSPropertyOp42
 70
     1
102
RTVSPropertyOp43
 70
     1
102
RTVSPropertyOp44
 70
     1
102
RTVSPropertyOp45
 70
     1
102
RTVSPropertyOp46
 70
     1
102
RTVSPropertyOp47
 70
     1
102
RTVSPropertyOp48
 70
     1
102
RTVSPropertyOp49
 70
     1
102
RTVSPropertyOp50
 70
     1
102
RTVSPropertyOp51
 70
     0
102
RTVSPropertyOp52
 70
     0
102
RTVSPropertyOp53
 70
     1
102
RTVSPropertyOp54
 70
     1
102
RTVSPropertyOp55
 70
     1
102
RTVSPropertyOp56
 70
     1
102
RTVSPropertyOp57
 70
     1
102
RTVSPropertyOp58
 70
     1
102
RTVSPropertyOp59
 70
     1
102
RTVSPropertyOp60
 70
     1
102
RTVSPropertyOp61
 70
     1
102
RTVSPropertyOp62
 70
     1
  0
XRECORD
  5
19E8
102
{ACAD_REACTORS
330
19E7
102
}
330
19E7
100
AcDbXrecord
280
     1
102
RTVSPost2010Prop28
280
     0
102
RTVSPost2010PropOp28
 70
     1
102
RTVSPost2010Prop29
280
     1
102
RTVSPost2010PropOp29
 70
     1
102
RTVSPost2010Prop30
280
     1
102
RTVSPost2010PropOp30
 70
     1
102
RTVSPost2010Prop31
280
     0
102
RTVSPost2010PropOp31
 70
     1
102
RTVSPost2010Prop32
280
     0
102
RTVSPost2010PropOp32
 70
     1
102
RTVSPost2010Prop33
280
     0
102
RTVSPost2010PropOp33
 70
     1
102
RTVSPost2010Prop34
280
     0
102
RTVSPost2010PropOp34
 70
     1
102
RTVSPost2010Prop35
280
     0
102
RTVSPost2010PropOp35
 70
     1
102
RTVSPost2010Prop36
280
     0
102
RTVSPost2010PropOp36
 70
     1
102
RTVSPost2010Prop37
 90
       50
102
RTVSPost2010PropOp37
 70
     1
102
RTVSPost2010Prop38
140
0.0
102
RTVSPost2010PropOp38
 70
     1
102
RTVSPost2010Prop39
140
1.0
102
RTVSPost2010PropOp39
 70
     1
102
RTVSPost2010Prop40
 90
        0
102
RTVSPost2010PropOp40
 70
     1
102
RTVSPost2010Prop41ColorIndex
 90
       18
102
RTVSPost2010Prop41ColorRGB
 90
        0
102
RTVSPost2010PropOp41
 70
     1
102
RTVSPost2010Prop42
 90
       50
102
RTVSPost2010PropOp42
 70
     1
102
RTVSPost2010Prop43
 90
        3
102
RTVSPost2010PropOp43
 70
     1
102
RTVSPost2010Prop44ColorIndex
 90
        5
102
RTVSPost2010Prop44ColorRGB
 90
      255
102
RTVSPost2010PropOp44
 70
     1
102
RTVSPost2010Prop45
280
     0
102
RTVSPost2010PropOp45
 70
     1
102
RTVSPost2010Prop46
 90
       50
102
RTVSPost2010PropOp46
 70
     1
102
RTVSPost2010Prop47
 90
       50
102
RTVSPost2010PropOp47
 70
     1
102
RTVSPost2010Prop48
 90
       50
102
RTVSPost2010PropOp48
 70
     1
102
RTVSPost2010Prop49
280
     0
102
RTVSPost2010PropOp49
 70
     1
102
RTVSPost2010Prop50
 90
       50
102
RTVSPost2010PropOp50
 70
     1
102
RTVSPost2010Prop51ColorIndex
 90
      256
102
RTVSPost2010Prop51ColorRGB
 90
-16777216
102
RTVSPost2010PropOp51
 70
     0
102
RTVSPost2010Prop52
140
1.0
102
RTVSPost2010PropOp52
 70
     0
102
RTVSPost2010Prop53
 90
        2
102
RTVSPost2010PropOp53
 70
     1
102
RTVSPost2010Prop54
  1
strokes_ogs.tif
102
RTVSPost2010PropOp54
 70
     1
102
RTVSPost2010Prop55
280
     0
102
RTVSPost2010PropOp55
 70
     1
102
RTVSPost2010Prop56
140
1.0
102
RTVSPost2010PropOp56
 70
     1
102
RTVSPost2010Prop57
140
1.0
102
RTVSPost2010PropOp57
 70
     1
102
RTVSPropertyOp0
 70
     1
102
RTVSPropertyOp1
 70
     1
102
RTVSPropertyOp2
 70
     1
102
RTVSPropertyOp3
 70
     1
102
RTVSPropertyOp4
 70
     1
102
RTVSPropertyOp5
 70
     1
102
RTVSPropertyOp6
 70
     1
102
RTVSPropertyOp7
 70
     1
102
RTVSPropertyOp8
 70
     1
102
RTVSPropertyOp9
 70
     1
102
RTVSPropertyOp10
 70
     1
102
RTVSPropertyOp11
 70
     1
102
RTVSPropertyOp12
 70
     1
102
RTVSPropertyOp13
 70
     1
102
RTVSPropertyOp14
 70
     1
102
RTVSPropertyOp15
 70
     1
102
RTVSPropertyOp16
 70
     1
102
RTVSPropertyOp17
 70
     1
102
RTVSPropertyOp18
 70
     1
102
RTVSPropertyOp19
 70
     1
102
RTVSPropertyOp20
 70
     1
102
RTVSPropertyOp21
 70
     1
102
RTVSPropertyOp22
 70
     1
102
RTVSPropertyOp23
 70
     1
102
RTVSPropertyOp24
 70
     1
102
RTVSPropertyOp25
 70
     1
102
RTVSPropertyOp26
 70
     1
102
RTVSPropertyOp27
 70
     1
102
RTVSPropertyOp28
 70
     1
102
RTVSPropertyOp29
 70
     1
102
RTVSPropertyOp30
 70
     1
102
RTVSPropertyOp31
 70
     1
102
RTVSPropertyOp32
 70
     1
102
RTVSPropertyOp33
 70
     1
102
RTVSPropertyOp34
 70
     1
102
RTVSPropertyOp35
 70
     1
102
RTVSPropertyOp36
 70
     1
102
RTVSPropertyOp37
 70
     1
102
RTVSPropertyOp38
 70
     1
102
RTVSPropertyOp39
 70
     1
102
RTVSPropertyOp40
 70
     1
102
RTVSPropertyOp41
 70
     1
102
RTVSPropertyOp42
 70
     1
102
RTVSPropertyOp43
 70
     1
102
RTVSPropertyOp44
 70
     1
102
RTVSPropertyOp45
 70
     1
102
RTVSPropertyOp46
 70
     1
102
RTVSPropertyOp47
 70
     1
102
RTVSPropertyOp48
 70
     1
102
RTVSPropertyOp49
 70
     1
102
RTVSPropertyOp50
 70
     1
102
RTVSPropertyOp51
 70
     0
102
RTVSPropertyOp52
 70
     0
102
RTVSPropertyOp53
 70
     1
102
RTVSPropertyOp54
 70
     1
102
RTVSPropertyOp55
 70
     1
102
RTVSPropertyOp56
 70
     1
102
RTVSPropertyOp57
 70
     1
102
RTVSPropertyOp58
 70
     1
102
RTVSPropertyOp59
 70
     1
102
RTVSPropertyOp60
 70
     1
102
RTVSPropertyOp61
 70
     1
102
RTVSPropertyOp62
 70
     1
  0
XRECORD
  5
19D9
102
{ACAD_REACTORS
330
19D8
102
}
330
19D8
100
AcDbXrecord
280
     1
102
RTVSPost2010Prop28
280
     0
102
RTVSPost2010PropOp28
 70
     1
102
RTVSPost2010Prop29
280
     1
102
RTVSPost2010PropOp29
 70
     1
102
RTVSPost2010Prop30
280
     1
102
RTVSPost2010PropOp30
 70
     1
102
RTVSPost2010Prop31
280
     0
102
RTVSPost2010PropOp31
 70
     1
102
RTVSPost2010Prop32
280
     0
102
RTVSPost2010PropOp32
 70
     1
102
RTVSPost2010Prop33
280
     0
102
RTVSPost2010PropOp33
 70
     1
102
RTVSPost2010Prop34
280
     0
102
RTVSPost2010PropOp34
 70
     1
102
RTVSPost2010Prop35
280
     0
102
RTVSPost2010PropOp35
 70
     1
102
RTVSPost2010Prop36
280
     0
102
RTVSPost2010PropOp36
 70
     1
102
RTVSPost2010Prop37
 90
       50
102
RTVSPost2010PropOp37
 70
     1
102
RTVSPost2010Prop38
140
0.0
102
RTVSPost2010PropOp38
 70
     1
102
RTVSPost2010Prop39
140
1.0
102
RTVSPost2010PropOp39
 70
     1
102
RTVSPost2010Prop40
 90
        0
102
RTVSPost2010PropOp40
 70
     1
102
RTVSPost2010Prop41ColorIndex
 90
       18
102
RTVSPost2010Prop41ColorRGB
 90
        0
102
RTVSPost2010PropOp41
 70
     1
102
RTVSPost2010Prop42
 90
       50
102
RTVSPost2010PropOp42
 70
     1
102
RTVSPost2010Prop43
 90
        3
102
RTVSPost2010PropOp43
 70
     1
102
RTVSPost2010Prop44ColorIndex
 90
        5
102
RTVSPost2010Prop44ColorRGB
 90
      255
102
RTVSPost2010PropOp44
 70
     1
102
RTVSPost2010Prop45
280
     0
102
RTVSPost2010PropOp45
 70
     1
102
RTVSPost2010Prop46
 90
       50
102
RTVSPost2010PropOp46
 70
     1
102
RTVSPost2010Prop47
 90
       50
102
RTVSPost2010PropOp47
 70
     1
102
RTVSPost2010Prop48
 90
       50
102
RTVSPost2010PropOp48
 70
     1
102
RTVSPost2010Prop49
280
     0
102
RTVSPost2010PropOp49
 70
     1
102
RTVSPost2010Prop50
 90
       50
102
RTVSPost2010PropOp50
 70
     1
102
RTVSPost2010Prop51ColorIndex
 90
      256
102
RTVSPost2010Prop51ColorRGB
 90
-16777216
102
RTVSPost2010PropOp51
 70
     0
102
RTVSPost2010Prop52
140
1.0
102
RTVSPost2010PropOp52
 70
     0
102
RTVSPost2010Prop53
 90
        2
102
RTVSPost2010PropOp53
 70
     1
102
RTVSPost2010Prop54
  1
strokes_ogs.tif
102
RTVSPost2010PropOp54
 70
     1
102
RTVSPost2010Prop55
280
     0
102
RTVSPost2010PropOp55
 70
     1
102
RTVSPost2010Prop56
140
1.0
102
RTVSPost2010PropOp56
 70
     1
102
RTVSPost2010Prop57
140
1.0
102
RTVSPost2010PropOp57
 70
     1
102
RTVSPropertyOp0
 70
     1
102
RTVSPropertyOp1
 70
     1
102
RTVSPropertyOp2
 70
     1
102
RTVSPropertyOp3
 70
     1
102
RTVSPropertyOp4
 70
     1
102
RTVSPropertyOp5
 70
     1
102
RTVSPropertyOp6
 70
     1
102
RTVSPropertyOp7
 70
     1
102
RTVSPropertyOp8
 70
     1
102
RTVSPropertyOp9
 70
     1
102
RTVSPropertyOp10
 70
     1
102
RTVSPropertyOp11
 70
     1
102
RTVSPropertyOp12
 70
     1
102
RTVSPropertyOp13
 70
     1
102
RTVSPropertyOp14
 70
     1
102
RTVSPropertyOp15
 70
     1
102
RTVSPropertyOp16
 70
     1
102
RTVSPropertyOp17
 70
     1
102
RTVSPropertyOp18
 70
     1
102
RTVSPropertyOp19
 70
     1
102
RTVSPropertyOp20
 70
     1
102
RTVSPropertyOp21
 70
     1
102
RTVSPropertyOp22
 70
     1
102
RTVSPropertyOp23
 70
     1
102
RTVSPropertyOp24
 70
     1
102
RTVSPropertyOp25
 70
     1
102
RTVSPropertyOp26
 70
     1
102
RTVSPropertyOp27
 70
     1
102
RTVSPropertyOp28
 70
     1
102
RTVSPropertyOp29
 70
     1
102
RTVSPropertyOp30
 70
     1
102
RTVSPropertyOp31
 70
     1
102
RTVSPropertyOp32
 70
     1
102
RTVSPropertyOp33
 70
     1
102
RTVSPropertyOp34
 70
     1
102
RTVSPropertyOp35
 70
     1
102
RTVSPropertyOp36
 70
     1
102
RTVSPropertyOp37
 70
     1
102
RTVSPropertyOp38
 70
     1
102
RTVSPropertyOp39
 70
     1
102
RTVSPropertyOp40
 70
     1
102
RTVSPropertyOp41
 70
     1
102
RTVSPropertyOp42
 70
     1
102
RTVSPropertyOp43
 70
     1
102
RTVSPropertyOp44
 70
     1
102
RTVSPropertyOp45
 70
     1
102
RTVSPropertyOp46
 70
     1
102
RTVSPropertyOp47
 70
     1
102
RTVSPropertyOp48
 70
     1
102
RTVSPropertyOp49
 70
     1
102
RTVSPropertyOp50
 70
     1
102
RTVSPropertyOp51
 70
     0
102
RTVSPropertyOp52
 70
     0
102
RTVSPropertyOp53
 70
     1
102
RTVSPropertyOp54
 70
     1
102
RTVSPropertyOp55
 70
     1
102
RTVSPropertyOp56
 70
     1
102
RTVSPropertyOp57
 70
     1
102
RTVSPropertyOp58
 70
     1
102
RTVSPropertyOp59
 70
     1
102
RTVSPropertyOp60
 70
     1
102
RTVSPropertyOp61
 70
     1
102
RTVSPropertyOp62
 70
     1
  0
XRECORD
  5
19E2
102
{ACAD_REACTORS
330
19E1
102
}
330
19E1
100
AcDbXrecord
280
     1
102
RTVSPost2010Prop28
280
     0
102
RTVSPost2010PropOp28
 70
     1
102
RTVSPost2010Prop29
280
     1
102
RTVSPost2010PropOp29
 70
     1
102
RTVSPost2010Prop30
280
     1
102
RTVSPost2010PropOp30
 70
     1
102
RTVSPost2010Prop31
280
     0
102
RTVSPost2010PropOp31
 70
     1
102
RTVSPost2010Prop32
280
     0
102
RTVSPost2010PropOp32
 70
     1
102
RTVSPost2010Prop33
280
     0
102
RTVSPost2010PropOp33
 70
     1
102
RTVSPost2010Prop34
280
     0
102
RTVSPost2010PropOp34
 70
     1
102
RTVSPost2010Prop35
280
     0
102
RTVSPost2010PropOp35
 70
     1
102
RTVSPost2010Prop36
280
     0
102
RTVSPost2010PropOp36
 70
     1
102
RTVSPost2010Prop37
 90
       50
102
RTVSPost2010PropOp37
 70
     1
102
RTVSPost2010Prop38
140
0.0
102
RTVSPost2010PropOp38
 70
     1
102
RTVSPost2010Prop39
140
1.0
102
RTVSPost2010PropOp39
 70
     1
102
RTVSPost2010Prop40
 90
        0
102
RTVSPost2010PropOp40
 70
     1
102
RTVSPost2010Prop41ColorIndex
 90
       18
102
RTVSPost2010Prop41ColorRGB
 90
        0
102
RTVSPost2010PropOp41
 70
     1
102
RTVSPost2010Prop42
 90
       50
102
RTVSPost2010PropOp42
 70
     1
102
RTVSPost2010Prop43
 90
        3
102
RTVSPost2010PropOp43
 70
     1
102
RTVSPost2010Prop44ColorIndex
 90
        5
102
RTVSPost2010Prop44ColorRGB
 90
      255
102
RTVSPost2010PropOp44
 70
     1
102
RTVSPost2010Prop45
280
     0
102
RTVSPost2010PropOp45
 70
     1
102
RTVSPost2010Prop46
 90
       50
102
RTVSPost2010PropOp46
 70
     1
102
RTVSPost2010Prop47
 90
       50
102
RTVSPost2010PropOp47
 70
     1
102
RTVSPost2010Prop48
 90
       50
102
RTVSPost2010PropOp48
 70
     1
102
RTVSPost2010Prop49
280
     0
102
RTVSPost2010PropOp49
 70
     1
102
RTVSPost2010Prop50
 90
       50
102
RTVSPost2010PropOp50
 70
     1
102
RTVSPost2010Prop51ColorIndex
 90
      256
102
RTVSPost2010Prop51ColorRGB
 90
-16777216
102
RTVSPost2010PropOp51
 70
     0
102
RTVSPost2010Prop52
140
1.0
102
RTVSPost2010PropOp52
 70
     0
102
RTVSPost2010Prop53
 90
        2
102
RTVSPost2010PropOp53
 70
     1
102
RTVSPost2010Prop54
  1
strokes_ogs.tif
102
RTVSPost2010PropOp54
 70
     1
102
RTVSPost2010Prop55
280
     0
102
RTVSPost2010PropOp55
 70
     1
102
RTVSPost2010Prop56
140
1.0
102
RTVSPost2010PropOp56
 70
     1
102
RTVSPost2010Prop57
140
1.0
102
RTVSPost2010PropOp57
 70
     1
102
RTVSPropertyOp0
 70
     1
102
RTVSPropertyOp1
 70
     1
102
RTVSPropertyOp2
 70
     1
102
RTVSPropertyOp3
 70
     1
102
RTVSPropertyOp4
 70
     1
102
RTVSPropertyOp5
 70
     1
102
RTVSPropertyOp6
 70
     1
102
RTVSPropertyOp7
 70
     1
102
RTVSPropertyOp8
 70
     1
102
RTVSPropertyOp9
 70
     1
102
RTVSPropertyOp10
 70
     1
102
RTVSPropertyOp11
 70
     1
102
RTVSPropertyOp12
 70
     1
102
RTVSPropertyOp13
 70
     1
102
RTVSPropertyOp14
 70
     1
102
RTVSPropertyOp15
 70
     1
102
RTVSPropertyOp16
 70
     1
102
RTVSPropertyOp17
 70
     1
102
RTVSPropertyOp18
 70
     1
102
RTVSPropertyOp19
 70
     1
102
RTVSPropertyOp20
 70
     1
102
RTVSPropertyOp21
 70
     1
102
RTVSPropertyOp22
 70
     1
102
RTVSPropertyOp23
 70
     1
102
RTVSPropertyOp24
 70
     1
102
RTVSPropertyOp25
 70
     1
102
RTVSPropertyOp26
 70
     1
102
RTVSPropertyOp27
 70
     1
102
RTVSPropertyOp28
 70
     1
102
RTVSPropertyOp29
 70
     1
102
RTVSPropertyOp30
 70
     1
102
RTVSPropertyOp31
 70
     1
102
RTVSPropertyOp32
 70
     1
102
RTVSPropertyOp33
 70
     1
102
RTVSPropertyOp34
 70
     1
102
RTVSPropertyOp35
 70
     1
102
RTVSPropertyOp36
 70
     1
102
RTVSPropertyOp37
 70
     1
102
RTVSPropertyOp38
 70
     1
102
RTVSPropertyOp39
 70
     1
102
RTVSPropertyOp40
 70
     1
102
RTVSPropertyOp41
 70
     1
102
RTVSPropertyOp42
 70
     1
102
RTVSPropertyOp43
 70
     1
102
RTVSPropertyOp44
 70
     1
102
RTVSPropertyOp45
 70
     1
102
RTVSPropertyOp46
 70
     1
102
RTVSPropertyOp47
 70
     1
102
RTVSPropertyOp48
 70
     1
102
RTVSPropertyOp49
 70
     1
102
RTVSPropertyOp50
 70
     1
102
RTVSPropertyOp51
 70
     0
102
RTVSPropertyOp52
 70
     0
102
RTVSPropertyOp53
 70
     1
102
RTVSPropertyOp54
 70
     1
102
RTVSPropertyOp55
 70
     1
102
RTVSPropertyOp56
 70
     1
102
RTVSPropertyOp57
 70
     1
102
RTVSPropertyOp58
 70
     1
102
RTVSPropertyOp59
 70
     1
102
RTVSPropertyOp60
 70
     1
102
RTVSPropertyOp61
 70
     1
102
RTVSPropertyOp62
 70
     1
  0
XRECORD
  5
19EA
102
{ACAD_REACTORS
330
19E9
102
}
330
19E9
100
AcDbXrecord
280
     1
102
RTVSPost2010Prop28
280
     0
102
RTVSPost2010PropOp28
 70
     1
102
RTVSPost2010Prop29
280
     1
102
RTVSPost2010PropOp29
 70
     1
102
RTVSPost2010Prop30
280
     1
102
RTVSPost2010PropOp30
 70
     1
102
RTVSPost2010Prop31
280
     0
102
RTVSPost2010PropOp31
 70
     1
102
RTVSPost2010Prop32
280
     0
102
RTVSPost2010PropOp32
 70
     1
102
RTVSPost2010Prop33
280
     0
102
RTVSPost2010PropOp33
 70
     1
102
RTVSPost2010Prop34
280
     0
102
RTVSPost2010PropOp34
 70
     1
102
RTVSPost2010Prop35
280
     0
102
RTVSPost2010PropOp35
 70
     1
102
RTVSPost2010Prop36
280
     0
102
RTVSPost2010PropOp36
 70
     1
102
RTVSPost2010Prop37
 90
       50
102
RTVSPost2010PropOp37
 70
     1
102
RTVSPost2010Prop38
140
0.0
102
RTVSPost2010PropOp38
 70
     1
102
RTVSPost2010Prop39
140
1.0
102
RTVSPost2010PropOp39
 70
     1
102
RTVSPost2010Prop40
 90
        0
102
RTVSPost2010PropOp40
 70
     1
102
RTVSPost2010Prop41ColorIndex
 90
       18
102
RTVSPost2010Prop41ColorRGB
 90
        0
102
RTVSPost2010PropOp41
 70
     1
102
RTVSPost2010Prop42
 90
       50
102
RTVSPost2010PropOp42
 70
     1
102
RTVSPost2010Prop43
 90
        3
102
RTVSPost2010PropOp43
 70
     1
102
RTVSPost2010Prop44ColorIndex
 90
        5
102
RTVSPost2010Prop44ColorRGB
 90
      255
102
RTVSPost2010PropOp44
 70
     1
102
RTVSPost2010Prop45
280
     0
102
RTVSPost2010PropOp45
 70
     1
102
RTVSPost2010Prop46
 90
       50
102
RTVSPost2010PropOp46
 70
     1
102
RTVSPost2010Prop47
 90
       50
102
RTVSPost2010PropOp47
 70
     1
102
RTVSPost2010Prop48
 90
       50
102
RTVSPost2010PropOp48
 70
     1
102
RTVSPost2010Prop49
280
     0
102
RTVSPost2010PropOp49
 70
     1
102
RTVSPost2010Prop50
 90
       50
102
RTVSPost2010PropOp50
 70
     1
102
RTVSPost2010Prop51ColorIndex
 90
      256
102
RTVSPost2010Prop51ColorRGB
 90
-16777216
102
RTVSPost2010PropOp51
 70
     0
102
RTVSPost2010Prop52
140
1.0
102
RTVSPost2010PropOp52
 70
     0
102
RTVSPost2010Prop53
 90
        2
102
RTVSPost2010PropOp53
 70
     1
102
RTVSPost2010Prop54
  1
strokes_ogs.tif
102
RTVSPost2010PropOp54
 70
     1
102
RTVSPost2010Prop55
280
     0
102
RTVSPost2010PropOp55
 70
     1
102
RTVSPost2010Prop56
140
1.0
102
RTVSPost2010PropOp56
 70
     1
102
RTVSPost2010Prop57
140
1.0
102
RTVSPost2010PropOp57
 70
     1
102
RTVSPropertyOp0
 70
     1
102
RTVSPropertyOp1
 70
     1
102
RTVSPropertyOp2
 70
     1
102
RTVSPropertyOp3
 70
     1
102
RTVSPropertyOp4
 70
     1
102
RTVSPropertyOp5
 70
     1
102
RTVSPropertyOp6
 70
     1
102
RTVSPropertyOp7
 70
     1
102
RTVSPropertyOp8
 70
     1
102
RTVSPropertyOp9
 70
     1
102
RTVSPropertyOp10
 70
     1
102
RTVSPropertyOp11
 70
     1
102
RTVSPropertyOp12
 70
     1
102
RTVSPropertyOp13
 70
     1
102
RTVSPropertyOp14
 70
     1
102
RTVSPropertyOp15
 70
     1
102
RTVSPropertyOp16
 70
     1
102
RTVSPropertyOp17
 70
     1
102
RTVSPropertyOp18
 70
     1
102
RTVSPropertyOp19
 70
     1
102
RTVSPropertyOp20
 70
     1
102
RTVSPropertyOp21
 70
     1
102
RTVSPropertyOp22
 70
     1
102
RTVSPropertyOp23
 70
     1
102
RTVSPropertyOp24
 70
     1
102
RTVSPropertyOp25
 70
     1
102
RTVSPropertyOp26
 70
     1
102
RTVSPropertyOp27
 70
     1
102
RTVSPropertyOp28
 70
     1
102
RTVSPropertyOp29
 70
     1
102
RTVSPropertyOp30
 70
     1
102
RTVSPropertyOp31
 70
     1
102
RTVSPropertyOp32
 70
     1
102
RTVSPropertyOp33
 70
     1
102
RTVSPropertyOp34
 70
     1
102
RTVSPropertyOp35
 70
     1
102
RTVSPropertyOp36
 70
     1
102
RTVSPropertyOp37
 70
     1
102
RTVSPropertyOp38
 70
     1
102
RTVSPropertyOp39
 70
     1
102
RTVSPropertyOp40
 70
     1
102
RTVSPropertyOp41
 70
     1
102
RTVSPropertyOp42
 70
     1
102
RTVSPropertyOp43
 70
     1
102
RTVSPropertyOp44
 70
     1
102
RTVSPropertyOp45
 70
     1
102
RTVSPropertyOp46
 70
     1
102
RTVSPropertyOp47
 70
     1
102
RTVSPropertyOp48
 70
     1
102
RTVSPropertyOp49
 70
     1
102
RTVSPropertyOp50
 70
     1
102
RTVSPropertyOp51
 70
     0
102
RTVSPropertyOp52
 70
     0
102
RTVSPropertyOp53
 70
     1
102
RTVSPropertyOp54
 70
     1
102
RTVSPropertyOp55
 70
     1
102
RTVSPropertyOp56
 70
     1
102
RTVSPropertyOp57
 70
     1
102
RTVSPropertyOp58
 70
     1
102
RTVSPropertyOp59
 70
     1
102
RTVSPropertyOp60
 70
     1
102
RTVSPropertyOp61
 70
     1
102
RTVSPropertyOp62
 70
     1
  0
ENDSEC
  0
EOF
