  0
SECTION
  2
HEADER
  9
$ACADVER
  1
AC1018
  9
$ACADMAINTVER
 70
   104
  9
$DWGCODEPAGE
  3
ANSI_1250
  9
$LASTSAVEDBY
  1
hc7230
  9
$INSBASE
 10
0.0
 20
0.0
 30
0.0
  9
$EXTMIN
 10
192.5073163333334
 20
213.1691216666665
 30
0.0
  9
$EXTMAX
 10
281.298107
 20
277.7075986666667
 30
0.0
  9
$LIMMIN
 10
-0.5
 20
-0.5
  9
$LIMMAX
 10
5.0
 20
5.0
  9
$ORTHOMODE
 70
     0
  9
$REGENMODE
 70
     1
  9
$FILLMODE
 70
     1
  9
$QTEXTMODE
 70
     0
  9
$MIRRTEXT
 70
     1
  9
$LTSCALE
 40
1.0
  9
$ATTMODE
 70
     1
  9
$TEXTSIZE
 40
0.2
  9
$TRACEWID
 40
0.05
  9
$TEXTSTYLE
  7
Standard
  9
$CLAYER
  8
0
  9
$CELTYPE
  6
ByLayer
  9
$CECOLOR
 62
   256
  9
$CELTSCALE
 40
1.0
  9
$DISPSILH
 70
     0
  9
$DIMSCALE
 40
1.0
  9
$DIMASZ
 40
0.18
  9
$DIMEXO
 40
0.0625
  9
$DIMDLI
 40
0.38
  9
$DIMRND
 40
0.0
  9
$DIMDLE
 40
0.0
  9
$DIMEXE
 40
0.18
  9
$DIMTP
 40
0.0
  9
$DIMTM
 40
0.0
  9
$DIMTXT
 40
0.18
  9
$DIMCEN
 40
0.09
  9
$DIMTSZ
 40
0.0
  9
$DIMTOL
 70
     0
  9
$DIMLIM
 70
     0
  9
$DIMTIH
 70
     1
  9
$DIMTOH
 70
     1
  9
$DIMSE1
 70
     0
  9
$DIMSE2
 70
     0
  9
$DIMTAD
 70
     0
  9
$DIMZIN
 70
     0
  9
$DIMBLK
  1

  9
$DIMASO
 70
     1
  9
$DIMSHO
 70
     1
  9
$DIMPOST
  1

  9
$DIMAPOST
  1

  9
$DIMALT
 70
     0
  9
$DIMALTD
 70
     2
  9
$DIMALTF
 40
25.4
  9
$DIMLFAC
 40
1.0
  9
$DIMTOFL
 70
     0
  9
$DIMTVP
 40
0.0
  9
$DIMTIX
 70
     0
  9
$DIMSOXD
 70
     0
  9
$DIMSAH
 70
     0
  9
$DIMBLK1
  1

  9
$DIMBLK2
  1

  9
$DIMSTYLE
  2
Standard
  9
$DIMCLRD
 70
     0
  9
$DIMCLRE
 70
     0
  9
$DIMCLRT
 70
     0
  9
$DIMTFAC
 40
1.0
  9
$DIMGAP
 40
0.09
  9
$DIMJUST
 70
     0
  9
$DIMSD1
 70
     0
  9
$DIMSD2
 70
     0
  9
$DIMTOLJ
 70
     1
  9
$DIMTZIN
 70
     0
  9
$DIMALTZ
 70
     0
  9
$DIMALTTZ
 70
     0
  9
$DIMUPT
 70
     0
  9
$DIMDEC
 70
     4
  9
$DIMTDEC
 70
     4
  9
$DIMALTU
 70
     2
  9
$DIMALTTD
 70
     2
  9
$DIMTXSTY
  7
Standard
  9
$DIMAUNIT
 70
     0
  9
$DIMADEC
 70
     0
  9
$DIMALTRND
 40
0.0
  9
$DIMAZIN
 70
     0
  9
$DIMDSEP
 70
    46
  9
$DIMATFIT
 70
     3
  9
$DIMFRAC
 70
     0
  9
$DIMLDRBLK
  1

  9
$DIMLUNIT
 70
     2
  9
$DIMLWD
 70
    -2
  9
$DIMLWE
 70
    -2
  9
$DIMTMOVE
 70
     0
  9
$LUNITS
 70
     2
  9
$LUPREC
 70
     4
  9
$SKETCHINC
 40
0.1
  9
$FILLETRAD
 40
0.5
  9
$AUNITS
 70
     0
  9
$AUPREC
 70
     0
  9
$MENU
  1
.
  9
$ELEVATION
 40
0.0
  9
$PELEVATION
 40
0.0
  9
$THICKNESS
 40
0.0
  9
$LIMCHECK
 70
     0
  9
$CHAMFERA
 40
0.0
  9
$CHAMFERB
 40
0.0
  9
$CHAMFERC
 40
0.0
  9
$CHAMFERD
 40
0.0
  9
$SKPOLY
 70
     0
  9
$TDCREATE
 40
2458837.277870371
  9
$TDUCREATE
 40
2458837.236205186
  9
$TDUPDATE
 40
2458837.280497685
  9
$TDUUPDATE
 40
2458837.238831019
  9
$TDINDWG
 40
0.0003009375
  9
$TDUSRTIMER
 40
0.0003009375
  9
$USRTIMER
 70
     1
  9
$ANGBASE
 50
0.0
  9
$ANGDIR
 70
     0
  9
$PDMODE
 70
     0
  9
$PDSIZE
 40
0.0
  9
$PLINEWID
 40
0.0
  9
$SPLFRAME
 70
     0
  9
$SPLINETYPE
 70
     6
  9
$SPLINESEGS
 70
     8
  9
$HANDSEED
  5
386
  9
$SURFTAB1
 70
     6
  9
$SURFTAB2
 70
     6
  9
$SURFTYPE
 70
     6
  9
$SURFU
 70
     6
  9
$SURFV
 70
     6
  9
$UCSBASE
  2

  9
$UCSNAME
  2

  9
$UCSORG
 10
237.144248
 20
243.731161
 30
0.0
  9
$UCSXDIR
 10
1.0
 20
0.0
 30
0.0
  9
$UCSYDIR
 10
0.0
 20
1.0
 30
0.0
  9
$UCSORTHOREF
  2

  9
$UCSORTHOVIEW
 70
     0
  9
$UCSORGTOP
 10
0.0
 20
0.0
 30
0.0
  9
$UCSORGBOTTOM
 10
0.0
 20
0.0
 30
0.0
  9
$UCSORGLEFT
 10
0.0
 20
0.0
 30
0.0
  9
$UCSORGRIGHT
 10
0.0
 20
0.0
 30
0.0
  9
$UCSORGFRONT
 10
0.0
 20
0.0
 30
0.0
  9
$UCSORGBACK
 10
0.0
 20
0.0
 30
0.0
  9
$PUCSBASE
  2

  9
$PUCSNAME
  2

  9
$PUCSORG
 10
0.0
 20
0.0
 30
0.0
  9
$PUCSXDIR
 10
1.0
 20
0.0
 30
0.0
  9
$PUCSYDIR
 10
0.0
 20
1.0
 30
0.0
  9
$PUCSORTHOREF
  2

  9
$PUCSORTHOVIEW
 70
     0
  9
$PUCSORGTOP
 10
0.0
 20
0.0
 30
0.0
  9
$PUCSORGBOTTOM
 10
0.0
 20
0.0
 30
0.0
  9
$PUCSORGLEFT
 10
0.0
 20
0.0
 30
0.0
  9
$PUCSORGRIGHT
 10
0.0
 20
0.0
 30
0.0
  9
$PUCSORGFRONT
 10
0.0
 20
0.0
 30
0.0
  9
$PUCSORGBACK
 10
0.0
 20
0.0
 30
0.0
  9
$USERI1
 70
     0
  9
$USERI2
 70
     0
  9
$USERI3
 70
     0
  9
$USERI4
 70
     0
  9
$USERI5
 70
     0
  9
$USERR1
 40
0.0
  9
$USERR2
 40
0.0
  9
$USERR3
 40
0.0
  9
$USERR4
 40
0.0
  9
$USERR5
 40
0.0
  9
$WORLDVIEW
 70
     1
  9
$SHADEDGE
 70
     3
  9
$SHADEDIF
 70
    70
  9
$TILEMODE
 70
     1
  9
$MAXACTVP
 70
    64
  9
$PINSBASE
 10
0.0
 20
0.0
 30
0.0
  9
$PLIMCHECK
 70
     0
  9
$PEXTMIN
 10
-0.5
 20
-0.5
 30
-0.5
  9
$PEXTMAX
 10
5.0
 20
5.0
 30
5.0
  9
$PLIMMIN
 10
-0.5
 20
-0.5
  9
$PLIMMAX
 10
5.0
 20
5.0
  9
$UNITMODE
 70
     0
  9
$VISRETAIN
 70
     1
  9
$PLINEGEN
 70
     0
  9
$PSLTSCALE
 70
     1
  9
$TREEDEPTH
 70
  3020
  9
$CMLSTYLE
  2
Standard
  9
$CMLJUST
 70
     0
  9
$CMLSCALE
 40
1.0
  9
$PROXYGRAPHICS
 70
     1
  9
$MEASUREMENT
 70
     1
  9
$CELWEIGHT
370
    13
  9
$ENDCAPS
280
     0
  9
$JOINSTYLE
280
     0
  9
$LWDISPLAY
290
     0
  9
$INSUNITS
 70
     4
  9
$HYPERLINKBASE
  1

  9
$STYLESHEET
  1

  9
$XEDIT
290
     1
  9
$CEPSNTYPE
380
     0
  9
$PSTYLEMODE
290
     1
  9
$FINGERPRINTGUID
  2
{BDDB21BA-C44D-43C0-A318-C879E9245854}
  9
$VERSIONGUID
  2
{2825BAB3-4128-9A4B-AACA-900BC0E5E8F1}
  9
$EXTNAMES
290
     1
  9
$PSVPSCALE
 40
0.0
  9
$OLESTARTUP
290
     0
  9
$SORTENTS
280
   127
  9
$INDEXCTL
280
     0
  9
$HIDETEXT
280
     1
  9
$XCLIPFRAME
290
     0
  9
$HALOGAP
280
     0
  9
$OBSCOLOR
 70
   257
  9
$OBSLTYPE
280
     0
  9
$INTERSECTIONDISPLAY
280
     0
  9
$INTERSECTIONCOLOR
 70
   257
  9
$DIMASSOC
280
     2
  9
$PROJECTNAME
  1

  0
ENDSEC
  0
SECTION
  2
CLASSES
  0
CLASS
  1
ACDBDICTIONARYWDFLT
  2
AcDbDictionaryWithDefault
  3
ObjectDBX Classes
 90
        0
 91
        1
280
     0
281
     0
  0
CLASS
  1
VISUALSTYLE
  2
AcDbVisualStyle
  3
ObjectDBX Classes
 90
     4095
 91
       24
280
     0
281
     0
  0
CLASS
  1
MATERIAL
  2
AcDbMaterial
  3
ObjectDBX Classes
 90
     1153
 91
        3
280
     0
281
     0
  0
CLASS
  1
SCALE
  2
AcDbScale
  3
ObjectDBX Classes
 90
     1153
 91
       33
280
     0
281
     0
  0
CLASS
  1
TABLESTYLE
  2
AcDbTableStyle
  3
ObjectDBX Classes
 90
     4095
 91
        1
280
     0
281
     0
  0
CLASS
  1
MLEADERSTYLE
  2
AcDbMLeaderStyle
  3
ACDB_MLEADERSTYLE_CLASS
 90
     4095
 91
        1
280
     0
281
     0
  0
CLASS
  1
SUN
  2
AcDbSun
  3
SCENEOE
 90
     1153
 91
        0
280
     0
281
     0
  0
CLASS
  1
DIMASSOC
  2
AcDbDimAssoc
  3
"AcDbDimAssoc|Product Desc:     AcDim ARX App For Dimension|Company:          Autodesk, Inc.|WEB Address:      www.autodesk.com"
 90
        0
 91
        5
280
     0
281
     0
  0
CLASS
  1
DICTIONARYVAR
  2
AcDbDictionaryVar
  3
ObjectDBX Classes
 90
        0
 91
        8
280
     0
281
     0
  0
CLASS
  1
CELLSTYLEMAP
  2
AcDbCellStyleMap
  3
ObjectDBX Classes
 90
     1152
 91
        2
280
     0
281
     0
  0
CLASS
  1
ACDBSECTIONVIEWSTYLE
  2
AcDbSectionViewStyle
  3
ObjectDBX Classes
 90
     1025
 91
        1
280
     0
281
     0
  0
CLASS
  1
ACDBDETAILVIEWSTYLE
  2
AcDbDetailViewStyle
  3
ObjectDBX Classes
 90
     1025
 91
        1
280
     0
281
     0
  0
CLASS
  1
SORTENTSTABLE
  2
AcDbSortentsTable
  3
ObjectDBX Classes
 90
        0
 91
        1
280
     0
281
     0
  0
ENDSEC
  0
SECTION
  2
TABLES
  0
TABLE
  2
VPORT
  5
8
330
0
100
AcDbSymbolTable
 70
    16
  0
VPORT
  5
29
330
8
100
AcDbSymbolTableRecord
100
AcDbViewportTableRecord
  2
*Active
 70
     0
 10
0.0
 20
0.0
 11
1.0
 21
1.0
 12
282.9060628238843
 22
237.9649561106799
 13
0.0
 23
0.0
 14
0.5
 24
0.5
 15
0.5
 25
0.5
 16
0.0
 26
0.0
 36
1.0
 17
0.0
 27
0.0
 37
0.0
 40
202.0293632308336
 41
2.283154121863799
 42
50.0
 43
158.548087
 44
-158.548087
 50
0.0
 51
0.0
 71
     0
 72
   100
 73
     1
 74
     3
 75
     0
 76
     0
 77
     0
 78
     0
281
     0
 65
     1
110
237.144248
120
243.731161
130
0.0
111
1.0
121
0.0
131
0.0
112
0.0
122
1.0
132
0.0
 79
     0
146
0.0
1001
ACAD_NAV_VCDISPLAY
1070
     3
  0
VPORT
  5
24F
330
8
100
AcDbSymbolTableRecord
100
AcDbViewportTableRecord
  2
L1
 70
     0
 10
0.0
 20
0.0
 11
1.0
 21
1.0
 12
236.398499
 22
245.447525
 13
0.0
 23
0.0
 14
0.5
 24
0.5
 15
0.5
 25
0.5
 16
0.0
 26
0.0
 36
1.0
 17
0.0
 27
0.0
 37
0.0
 40
209.020833
 41
0.084952
 42
50.0
 43
158.548087
 44
-158.548087
 50
0.0
 51
0.0
 71
     0
 72
   100
 73
     1
 74
     3
 75
     0
 76
     0
 77
     0
 78
     0
281
     0
 65
     1
110
0.0
120
0.0
130
0.0
111
1.0
121
0.0
131
0.0
112
0.0
122
1.0
132
0.0
 79
     0
146
0.0
  0
VPORT
  5
250
330
8
100
AcDbSymbolTableRecord
100
AcDbViewportTableRecord
  2
L2
 70
     0
 10
0.0
 20
0.0
 11
0.5
 21
1.0
 12
0.0
 22
0.0
 13
0.0
 23
0.0
 14
0.5
 24
0.5
 15
0.5
 25
0.5
 16
0.0
 26
-1.0
 36
0.0
 17
0.0
 27
0.0
 37
0.0
 40
1496.710499
 41
0.011864
 42
50.0
 43
774.8657309999999
 44
-774.8657309999999
 50
0.0
 51
0.0
 71
     0
 72
   100
 73
     1
 74
     3
 75
     0
 76
     0
 77
     0
 78
     0
281
     0
 65
     1
110
0.0
120
0.0
130
0.0
111
1.0
121
0.0
131
0.0
112
0.0
122
1.0
132
0.0
 79
     0
146
0.0
  0
VPORT
  5
251
330
8
100
AcDbSymbolTableRecord
100
AcDbViewportTableRecord
  2
L2
 70
     0
 10
0.5
 20
0.0
 11
1.0
 21
1.0
 12
0.0
 22
0.0
 13
0.0
 23
0.0
 14
0.5
 24
0.5
 15
0.5
 25
0.5
 16
1.0
 26
0.0
 36
0.0
 17
0.0
 27
0.0
 37
0.0
 40
1496.710499
 41
0.011864
 42
50.0
 43
755.6176329999999
 44
-755.6176329999999
 50
0.0
 51
0.0
 71
     0
 72
   100
 73
     1
 74
     3
 75
     0
 76
     0
 77
     0
 78
     0
281
     0
 65
     1
110
0.0
120
0.0
130
0.0
111
1.0
121
0.0
131
0.0
112
0.0
122
1.0
132
0.0
 79
     0
146
0.0
  0
VPORT
  5
252
330
8
100
AcDbSymbolTableRecord
100
AcDbViewportTableRecord
  2
L3
 70
     0
 10
0.0
 20
0.5
 11
1.0
 21
1.0
 12
236.398499
 22
245.447525
 13
0.0
 23
0.0
 14
0.5
 24
0.5
 15
0.5
 25
0.5
 16
0.0
 26
0.0
 36
1.0
 17
0.0
 27
0.0
 37
0.0
 40
209.020833
 41
0.084952
 42
50.0
 43
158.548087
 44
-158.548087
 50
0.0
 51
0.0
 71
     0
 72
   100
 73
     1
 74
     3
 75
     0
 76
     0
 77
     0
 78
     0
281
     0
 65
     1
110
0.0
120
0.0
130
0.0
111
1.0
121
0.0
131
0.0
112
0.0
122
1.0
132
0.0
 79
     0
146
0.0
  0
VPORT
  5
253
330
8
100
AcDbSymbolTableRecord
100
AcDbViewportTableRecord
  2
L3
 70
     0
 10
0.0
 20
0.0
 11
1.0
 21
0.5
 12
0.0
 22
0.0
 13
0.0
 23
0.0
 14
0.5
 24
0.5
 15
0.5
 25
0.5
 16
0.0
 26
-1.0
 36
0.0
 17
0.0
 27
0.0
 37
0.0
 40
1496.710499
 41
0.011864
 42
50.0
 43
774.8657309999999
 44
-774.8657309999999
 50
0.0
 51
0.0
 71
     0
 72
   100
 73
     1
 74
     3
 75
     0
 76
     0
 77
     0
 78
     0
281
     0
 65
     1
110
0.0
120
0.0
130
0.0
111
1.0
121
0.0
131
0.0
112
0.0
122
1.0
132
0.0
 79
     0
146
0.0
  0
VPORT
  5
254
330
8
100
AcDbSymbolTableRecord
100
AcDbViewportTableRecord
  2
L4
 70
     0
 10
0.0
 20
0.5
 11
0.5
 21
1.0
 12
236.398499
 22
245.447525
 13
0.0
 23
0.0
 14
0.5
 24
0.5
 15
0.5
 25
0.5
 16
0.0
 26
0.0
 36
1.0
 17
0.0
 27
0.0
 37
0.0
 40
209.020833
 41
0.084952
 42
50.0
 43
158.548087
 44
-158.548087
 50
0.0
 51
0.0
 71
     0
 72
   100
 73
     1
 74
     3
 75
     0
 76
     0
 77
     0
 78
     0
281
     0
 65
     1
110
0.0
120
0.0
130
0.0
111
1.0
121
0.0
131
0.0
112
0.0
122
1.0
132
0.0
 79
     0
146
0.0
  0
VPORT
  5
255
330
8
100
AcDbSymbolTableRecord
100
AcDbViewportTableRecord
  2
L4
 70
     0
 10
0.0
 20
0.0
 11
0.5
 21
0.5
 12
0.0
 22
0.0
 13
0.0
 23
0.0
 14
0.5
 24
0.5
 15
0.5
 25
0.5
 16
0.0
 26
-1.0
 36
0.0
 17
0.0
 27
0.0
 37
0.0
 40
1496.710499
 41
0.011864
 42
50.0
 43
774.8657309999999
 44
-774.8657309999999
 50
0.0
 51
0.0
 71
     0
 72
   100
 73
     1
 74
     3
 75
     0
 76
     0
 77
     0
 78
     0
281
     0
 65
     1
110
0.0
120
0.0
130
0.0
111
1.0
121
0.0
131
0.0
112
0.0
122
1.0
132
0.0
 79
     0
146
0.0
  0
VPORT
  5
256
330
8
100
AcDbSymbolTableRecord
100
AcDbViewportTableRecord
  2
L4
 70
     0
 10
0.5
 20
0.0
 11
1.0
 21
0.5
 12
0.0
 22
0.0
 13
0.0
 23
0.0
 14
0.5
 24
0.5
 15
0.5
 25
0.5
 16
1.0
 26
0.0
 36
0.0
 17
0.0
 27
0.0
 37
0.0
 40
1496.710499
 41
0.011864
 42
50.0
 43
755.6176329999999
 44
-755.6176329999999
 50
0.0
 51
0.0
 71
     0
 72
   100
 73
     1
 74
     3
 75
     0
 76
     0
 77
     0
 78
     0
281
     0
 65
     1
110
0.0
120
0.0
130
0.0
111
1.0
121
0.0
131
0.0
112
0.0
122
1.0
132
0.0
 79
     0
146
0.0
  0
VPORT
  5
257
330
8
100
AcDbSymbolTableRecord
100
AcDbViewportTableRecord
  2
L4
 70
     0
 10
0.5
 20
0.5
 11
1.0
 21
1.0
 12
0.0
 22
0.0
 13
0.0
 23
0.0
 14
0.5
 24
0.5
 15
0.5
 25
0.5
 16
0.5773502691896259
 26
-0.5773502691896259
 36
0.5773502691896259
 17
0.0
 27
0.0
 37
0.0
 40
1471.467242
 41
0.012067
 42
50.0
 43
766.783745
 44
-766.783745
 50
0.0
 51
0.0
 71
     0
 72
   100
 73
     1
 74
     3
 75
     0
 76
     0
 77
     0
 78
     0
281
     0
 65
     1
110
0.0
120
0.0
130
0.0
111
1.0
121
0.0
131
0.0
112
0.0
122
1.0
132
0.0
 79
     0
146
0.0
  0
VPORT
  5
258
330
8
100
AcDbSymbolTableRecord
100
AcDbViewportTableRecord
  2
L6
 70
     0
 10
0.0
 20
0.5
 11
0.333333
 21
1.0
 12
0.0
 22
0.0
 13
0.0
 23
0.0
 14
0.5
 24
0.5
 15
0.5
 25
0.5
 16
0.7188730927569434
 26
-0.5850486126764433
 36
0.3754192287502549
 17
0.0
 27
0.0
 37
0.0
 40
1553.790414
 41
0.011428
 42
50.0
 43
804.2324119999999
 44
-804.2324119999999
 50
0.0
 51
0.0
 71
     0
 72
   100
 73
     1
 74
     3
 75
     0
 76
     0
 77
     0
 78
     0
281
     0
 65
     1
110
0.0
120
0.0
130
0.0
111
1.0
121
0.0
131
0.0
112
0.0
122
1.0
132
0.0
 79
     0
146
0.0
  0
VPORT
  5
259
330
8
100
AcDbSymbolTableRecord
100
AcDbViewportTableRecord
  2
L6
 70
     0
 10
0.0
 20
0.0
 11
0.333333
 21
0.5
 12
0.0
 22
0.0
 13
0.0
 23
0.0
 14
0.5
 24
0.5
 15
0.5
 25
0.5
 16
-1.0
 26
0.0
 36
0.0
 17
0.0
 27
0.0
 37
0.0
 40
1496.710499
 41
0.011864
 42
50.0
 43
755.6176329999999
 44
-755.6176329999999
 50
0.0
 51
0.0
 71
     0
 72
   100
 73
     1
 74
     3
 75
     0
 76
     0
 77
     0
 78
     0
281
     0
 65
     1
110
0.0
120
0.0
130
0.0
111
1.0
121
0.0
131
0.0
112
0.0
122
1.0
132
0.0
 79
     0
146
0.0
  0
VPORT
  5
25A
330
8
100
AcDbSymbolTableRecord
100
AcDbViewportTableRecord
  2
L6
 70
     0
 10
0.333333
 20
0.5
 11
0.666667
 21
1.0
 12
236.398499
 22
245.447525
 13
0.0
 23
0.0
 14
0.5
 24
0.5
 15
0.5
 25
0.5
 16
0.0
 26
0.0
 36
1.0
 17
0.0
 27
0.0
 37
0.0
 40
209.020833
 41
0.084952
 42
50.0
 43
158.548087
 44
-158.548087
 50
0.0
 51
0.0
 71
     0
 72
   100
 73
     1
 74
     3
 75
     0
 76
     0
 77
     0
 78
     0
281
     0
 65
     1
110
0.0
120
0.0
130
0.0
111
1.0
121
0.0
131
0.0
112
0.0
122
1.0
132
0.0
 79
     0
146
0.0
  0
VPORT
  5
25B
330
8
100
AcDbSymbolTableRecord
100
AcDbViewportTableRecord
  2
L6
 70
     0
 10
0.333333
 20
0.0
 11
0.666667
 21
0.5
 12
0.0
 22
0.0
 13
0.0
 23
0.0
 14
0.5
 24
0.5
 15
0.5
 25
0.5
 16
0.0
 26
-1.0
 36
0.0
 17
0.0
 27
0.0
 37
0.0
 40
1496.710499
 41
0.011864
 42
50.0
 43
774.8657309999999
 44
-774.8657309999999
 50
0.0
 51
0.0
 71
     0
 72
   100
 73
     1
 74
     3
 75
     0
 76
     0
 77
     0
 78
     0
281
     0
 65
     1
110
0.0
120
0.0
130
0.0
111
1.0
121
0.0
131
0.0
112
0.0
122
1.0
132
0.0
 79
     0
146
0.0
  0
VPORT
  5
25C
330
8
100
AcDbSymbolTableRecord
100
AcDbViewportTableRecord
  2
L6
 70
     0
 10
0.666667
 20
0.5
 11
1.0
 21
1.0
 12
0.0
 22
0.0
 13
0.0
 23
0.0
 14
0.5
 24
0.5
 15
0.5
 25
0.5
 16
0.5773502691896259
 26
-0.5773502691896259
 36
0.5773502691896259
 17
0.0
 27
0.0
 37
0.0
 40
1471.467242
 41
0.012067
 42
50.0
 43
766.783745
 44
-766.783745
 50
0.0
 51
0.0
 71
     0
 72
   100
 73
     1
 74
     3
 75
     0
 76
     0
 77
     0
 78
     0
281
     0
 65
     1
110
0.0
120
0.0
130
0.0
111
1.0
121
0.0
131
0.0
112
0.0
122
1.0
132
0.0
 79
     0
146
0.0
  0
VPORT
  5
25D
330
8
100
AcDbSymbolTableRecord
100
AcDbViewportTableRecord
  2
L6
 70
     0
 10
0.666667
 20
0.0
 11
1.0
 21
0.5
 12
0.0
 22
0.0
 13
0.0
 23
0.0
 14
0.5
 24
0.5
 15
0.5
 25
0.5
 16
1.0
 26
0.0
 36
0.0
 17
0.0
 27
0.0
 37
0.0
 40
1496.710499
 41
0.011864
 42
50.0
 43
755.6176329999999
 44
-755.6176329999999
 50
0.0
 51
0.0
 71
     0
 72
   100
 73
     1
 74
     3
 75
     0
 76
     0
 77
     0
 78
     0
281
     0
 65
     1
110
0.0
120
0.0
130
0.0
111
1.0
121
0.0
131
0.0
112
0.0
122
1.0
132
0.0
 79
     0
146
0.0
  0
ENDTAB
  0
TABLE
  2
LTYPE
  5
5
330
0
100
AcDbSymbolTable
 70
     7
  0
LTYPE
  5
14
330
5
100
AcDbSymbolTableRecord
100
AcDbLinetypeTableRecord
  2
ByBlock
 70
     0
  3

 72
    65
 73
     0
 40
0.0
  0
LTYPE
  5
15
330
5
100
AcDbSymbolTableRecord
100
AcDbLinetypeTableRecord
  2
ByLayer
 70
     0
  3

 72
    65
 73
     0
 40
0.0
  0
LTYPE
  5
16
330
5
100
AcDbSymbolTableRecord
100
AcDbLinetypeTableRecord
  2
Continuous
 70
     0
  3
Solid line
 72
    65
 73
     0
 40
0.0
  0
LTYPE
  5
6E
330
5
100
AcDbSymbolTableRecord
100
AcDbLinetypeTableRecord
  2
CENTER
 70
     0
  3
____ _ ____ _ ____ _ ____
 72
    65
 73
     4
 40
47.4
 49
22.0
 74
     4
 75
     0
340
0
 46
0.0
 50
0.0
 44
0.0
 45
0.0
 49
-8.5
 74
     4
 75
     0
340
0
 46
0.0
 50
0.0
 44
0.0
 45
0.0
 49
8.5
 74
     4
 75
     0
340
0
 46
0.0
 50
0.0
 44
0.0
 45
0.0
 49
-8.5
 74
     4
 75
     0
340
0
 46
0.0
 50
0.0
 44
0.0
 45
0.0
  0
LTYPE
  5
6F
330
5
100
AcDbSymbolTableRecord
100
AcDbLinetypeTableRecord
  2
DASHDOT
 70
     0
  3
_._._._._._._._._._._._._._._._.
 72
    65
 73
     4
 40
70.0
 49
31.0
 74
     4
 75
     0
340
0
 46
0.0
 50
0.0
 44
0.0
 45
0.0
 49
-13.0
 74
     4
 75
     0
340
0
 46
0.0
 50
0.0
 44
0.0
 45
0.0
 49
13.0
 74
     4
 75
     0
340
0
 46
0.0
 50
0.0
 44
0.0
 45
0.0
 49
-13.0
 74
     4
 75
     0
340
0
 46
0.0
 50
0.0
 44
0.0
 45
0.0
  0
LTYPE
  5
70
330
5
100
AcDbSymbolTableRecord
100
AcDbLinetypeTableRecord
  2
DASHED
 70
     0
  3
__ __ __ __ __ __ __ __ __
 72
    65
 73
     2
 40
25.72
 49
12.86
 74
     4
 75
     0
340
0
 46
0.0
 50
0.0
 44
0.0
 45
0.0
 49
-12.86
 74
     4
 75
     0
340
0
 46
0.0
 50
0.0
 44
0.0
 45
0.0
  0
LTYPE
  5
71
330
5
100
AcDbSymbolTableRecord
100
AcDbLinetypeTableRecord
  2
DOT
 70
     0
  3
.........................
 72
    65
 73
     2
 40
10.0
 49
0.0
 74
     4
 75
     0
340
0
 46
0.0
 50
0.0
 44
0.0
 45
0.0
 49
-10.0
 74
     4
 75
     0
340
0
 46
0.0
 50
0.0
 44
0.0
 45
0.0
  0
LTYPE
  5
72
330
5
100
AcDbSymbolTableRecord
100
AcDbLinetypeTableRecord
  2
PHANTOM
 70
     0
  3
____ _ _ ____ _ _ _____ _ _ ____
 72
    65
 73
     6
 40
50.5
 49
18.0
 74
     4
 75
     0
340
0
 46
0.0
 50
0.0
 44
0.0
 45
0.0
 49
-6.5
 74
     4
 75
     0
340
0
 46
0.0
 50
0.0
 44
0.0
 45
0.0
 49
6.5
 74
     4
 75
     0
340
0
 46
0.0
 50
0.0
 44
0.0
 45
0.0
 49
-6.5
 74
     4
 75
     0
340
0
 46
0.0
 50
0.0
 44
0.0
 45
0.0
 49
6.5
 74
     4
 75
     0
340
0
 46
0.0
 50
0.0
 44
0.0
 45
0.0
 49
-6.5
 74
     4
 75
     0
340
0
 46
0.0
 50
0.0
 44
0.0
 45
0.0
  0
LTYPE
  5
328
330
5
100
AcDbSymbolTableRecord
100
AcDbLinetypeTableRecord
  2
CENTER2
 70
     0
  3
Center (.5x) ___ _ ___ _ ___ _ ___ _ ___ _ ___
 72
    65
 73
     4
 40
1.125
 49
0.75
 74
     0
 49
-0.125
 74
     0
 49
0.125
 74
     0
 49
-0.125
 74
     0
  0
ENDTAB
  0
TABLE
  2
LAYER
  5
2
330
0
100
AcDbSymbolTable
 70
    21
  0
LAYER
  5
10
102
{ACAD_XDICTIONARY
360
333
102
}
330
2
100
AcDbSymbolTableRecord
100
AcDbLayerTableRecord
  2
0
 70
     0
 62
     7
  6
Continuous
370
    -3
390
F
  0
LAYER
  5
1D5
330
2
100
AcDbSymbolTableRecord
100
AcDbLayerTableRecord
  2
Defpoints
 70
     0
 62
     7
  6
Continuous
290
     0
370
    -3
390
F
  0
LAYER
  5
325
102
{ACAD_XDICTIONARY
360
335
102
}
330
2
100
AcDbSymbolTableRecord
100
AcDbLayerTableRecord
  2
1
 70
     0
 62
     4
  6
Continuous
370
    -3
390
F
  0
LAYER
  5
326
102
{ACAD_XDICTIONARY
360
337
102
}
330
2
100
AcDbSymbolTableRecord
100
AcDbLayerTableRecord
  2
2
 70
     0
 62
     7
  6
Continuous
370
    -3
390
F
  0
LAYER
  5
327
102
{ACAD_XDICTIONARY
360
339
102
}
330
2
100
AcDbSymbolTableRecord
100
AcDbLayerTableRecord
  2
4
 70
     0
 62
     2
  6
CENTER2
370
    -3
390
F
  0
LAYER
  5
329
102
{ACAD_XDICTIONARY
360
33B
102
}
330
2
100
AcDbSymbolTableRecord
100
AcDbLayerTableRecord
  2
SK1
 70
     0
 62
     4
  6
Continuous
370
    -3
390
F
  0
LAYER
  5
32A
102
{ACAD_XDICTIONARY
360
33D
102
}
330
2
100
AcDbSymbolTableRecord
100
AcDbLayerTableRecord
  2
SK2
 70
     0
 62
     7
  6
Continuous
370
    -3
390
F
  0
LAYER
  5
32C
102
{ACAD_XDICTIONARY
360
33F
102
}
330
2
100
AcDbSymbolTableRecord
100
AcDbLayerTableRecord
  2
SK4
 70
     0
 62
     2
  6
CENTER2
370
    -3
390
F
  0
LAYER
  5
32D
102
{ACAD_XDICTIONARY
360
341
102
}
330
2
100
AcDbSymbolTableRecord
100
AcDbLayerTableRecord
  2
SK6
 70
     0
 62
     5
  6
Continuous
370
    -3
390
F
  0
LAYER
  5
32E
102
{ACAD_XDICTIONARY
360
343
102
}
330
2
100
AcDbSymbolTableRecord
100
AcDbLayerTableRecord
  2
CUT
 70
     0
 62
     1
  6
Continuous
370
    -3
390
F
  0
LAYER
  5
32F
102
{ACAD_XDICTIONARY
360
345
102
}
330
2
100
AcDbSymbolTableRecord
100
AcDbLayerTableRecord
  2
NOCUT
 70
     0
 62
     7
  6
Continuous
370
    -3
390
F
  0
LAYER
  5
330
102
{ACAD_XDICTIONARY
360
347
102
}
330
2
100
AcDbSymbolTableRecord
100
AcDbLayerTableRecord
  2
80
 70
     0
 62
     6
  6
Continuous
370
    -3
390
F
  0
LAYER
  5
331
102
{ACAD_XDICTIONARY
360
349
102
}
330
2
100
AcDbSymbolTableRecord
100
AcDbLayerTableRecord
  2
81
 70
     0
 62
     3
  6
Continuous
370
    -3
390
F
  0
ENDTAB
  0
TABLE
  2
STYLE
  5
3
330
0
100
AcDbSymbolTable
 70
     3
  0
STYLE
  5
11
330
3
100
AcDbSymbolTableRecord
100
AcDbTextStyleTableRecord
  2
Standard
 70
     0
 40
0.0
 41
1.0
 50
0.0
 71
     0
 42
0.2
  3
txt
  4

  0
STYLE
  5
1CF
330
3
100
AcDbSymbolTableRecord
100
AcDbTextStyleTableRecord
  2
cesky
 70
     0
 40
0.0
 41
1.0
 50
0.0
 71
     0
 42
0.2
  3
simplex.shx
  4

  0
STYLE
  5
1D0
330
3
100
AcDbSymbolTableRecord
100
AcDbTextStyleTableRecord
  2
DWGDirectTextStyle
 70
     0
 40
0.0
 41
1.0
 50
0.0
 71
     0
 42
0.2
  3
simplex
  4

  0
ENDTAB
  0
TABLE
  2
VIEW
  5
6
330
0
100
AcDbSymbolTable
 70
     0
  0
ENDTAB
  0
TABLE
  2
UCS
  5
7
330
0
100
AcDbSymbolTable
 70
     0
  0
ENDTAB
  0
TABLE
  2
APPID
  5
9
330
0
100
AcDbSymbolTable
 70
     7
  0
APPID
  5
12
330
9
100
AcDbSymbolTableRecord
100
AcDbRegAppTableRecord
  2
ACAD
 70
     0
  0
APPID
  5
1D1
330
9
100
AcDbSymbolTableRecord
100
AcDbRegAppTableRecord
  2
ACAD_DSTYLE_DIMBREAK
 70
     0
  0
APPID
  5
25E
330
9
100
AcDbSymbolTableRecord
100
AcDbRegAppTableRecord
  2
ACAD_DSTYLE_DIM_LINETYPE
 70
     0
  0
APPID
  5
25F
330
9
100
AcDbSymbolTableRecord
100
AcDbRegAppTableRecord
  2
ACAD_DSTYLE_DIM_EXT1_LINETYPE
 70
     0
  0
APPID
  5
260
330
9
100
AcDbSymbolTableRecord
100
AcDbRegAppTableRecord
  2
ACAD_DSTYLE_DIM_EXT2_LINETYPE
 70
     0
  0
APPID
  5
2A0
330
9
100
AcDbSymbolTableRecord
100
AcDbRegAppTableRecord
  2
ACAD_MLEADERVER
 70
     0
  0
APPID
  5
34E
330
9
100
AcDbSymbolTableRecord
100
AcDbRegAppTableRecord
  2
ACAD_NAV_VCDISPLAY
 70
     0
  0
ENDTAB
  0
TABLE
  2
DIMSTYLE
  5
A
330
0
100
AcDbSymbolTable
 70
     1
100
AcDbDimStyleTable
 71
     0
  0
DIMSTYLE
105
27
330
A
100
AcDbSymbolTableRecord
100
AcDbDimStyleTableRecord
  2
Standard
 70
     0
340
11
1001
ACAD_DSTYLE_DIMBREAK
1070
   391
1040
6.349999999999999
  0
ENDTAB
  0
TABLE
  2
BLOCK_RECORD
  5
1
330
0
100
AcDbSymbolTable
 70
    11
  0
BLOCK_RECORD
  5
1F
102
{ACAD_XDICTIONARY
360
2B0
102
}
330
1
100
AcDbSymbolTableRecord
100
AcDbBlockTableRecord
  2
*Model_Space
340
22
  0
BLOCK_RECORD
  5
1B
330
1
100
AcDbSymbolTableRecord
100
AcDbBlockTableRecord
  2
*Paper_Space
340
1E
  0
BLOCK_RECORD
  5
23
330
1
100
AcDbSymbolTableRecord
100
AcDbBlockTableRecord
  2
*Paper_Space0
340
26
  0
BLOCK_RECORD
  5
1D6
330
1
100
AcDbSymbolTableRecord
100
AcDbBlockTableRecord
  2
*D1
340
0
  0
BLOCK_RECORD
  5
1E2
330
1
100
AcDbSymbolTableRecord
100
AcDbBlockTableRecord
  2
_U0
340
0
  0
BLOCK_RECORD
  5
1EE
330
1
100
AcDbSymbolTableRecord
100
AcDbBlockTableRecord
  2
*D3
340
0
  0
BLOCK_RECORD
  5
1FC
330
1
100
AcDbSymbolTableRecord
100
AcDbBlockTableRecord
  2
_U1
340
0
  0
BLOCK_RECORD
  5
208
330
1
100
AcDbSymbolTableRecord
100
AcDbBlockTableRecord
  2
*D5
340
0
  0
BLOCK_RECORD
  5
215
330
1
100
AcDbSymbolTableRecord
100
AcDbBlockTableRecord
  2
_U2
340
0
  0
BLOCK_RECORD
  5
222
330
1
100
AcDbSymbolTableRecord
100
AcDbBlockTableRecord
  2
*D7
340
0
  0
BLOCK_RECORD
  5
22D
330
1
100
AcDbSymbolTableRecord
100
AcDbBlockTableRecord
  2
_U3
340
0
  0
BLOCK_RECORD
  5
238
330
1
100
AcDbSymbolTableRecord
100
AcDbBlockTableRecord
  2
*D9
340
0
  0
BLOCK_RECORD
  5
244
330
1
100
AcDbSymbolTableRecord
100
AcDbBlockTableRecord
  2
_U4
340
0
  0
ENDTAB
  0
ENDSEC
  0
SECTION
  2
BLOCKS
  0
BLOCK
  5
20
330
1F
100
AcDbEntity
  8
0
100
AcDbBlockBegin
  2
*Model_Space
 70
     0
 10
0.0
 20
0.0
 30
0.0
  3
*Model_Space
  1

  0
ENDBLK
  5
21
330
1F
100
AcDbEntity
  8
0
100
AcDbBlockEnd
  0
BLOCK
  5
1C
330
1B
100
AcDbEntity
 67
     1
  8
0
100
AcDbBlockBegin
  2
*Paper_Space
 70
     0
 10
0.0
 20
0.0
 30
0.0
  3
*Paper_Space
  1

  0
ENDBLK
  5
1D
330
1B
100
AcDbEntity
 67
     1
  8
0
100
AcDbBlockEnd
  0
BLOCK
  5
24
330
23
100
AcDbEntity
 67
     1
  8
0
100
AcDbBlockBegin
  2
*Paper_Space0
 70
     0
 10
0.0
 20
0.0
 30
0.0
  3
*Paper_Space0
  1

  0
ENDBLK
  5
25
330
23
100
AcDbEntity
 67
     1
  8
0
100
AcDbBlockEnd
  0
BLOCK
  5
1D7
330
1D6
100
AcDbEntity
  8
0
100
AcDbBlockBegin
  2
*D1
 70
     1
 10
0.0
 20
0.0
 30
0.0
  3
*D1
  1

  0
LINE
  5
1D9
330
1D6
100
AcDbEntity
  8
0
 62
   254
370
    -2
100
AcDbLine
 10
269.144248
 20
258.231161
 30
0.0
 11
269.144248
 21
274.166765
 31
0.0
  0
LINE
  5
1DA
330
1D6
100
AcDbEntity
  8
0
 62
   254
370
    -2
100
AcDbLine
 10
237.144248
 20
242.731588
 30
0.0
 11
237.144248
 21
274.166765
 31
0.0
  0
LINE
  5
1DB
330
1D6
100
AcDbEntity
  8
0
 62
   254
370
    -2
100
AcDbLine
 10
265.644248
 20
273.166765
 30
0.0
 11
240.644248
 21
273.166765
 31
0.0
  0
SOLID
  5
1DC
330
1D6
100
AcDbEntity
  8
0
 62
   254
100
AcDbTrace
 10
265.644248
 20
272.583432
 30
0.0
 11
265.644248
 21
273.750098
 31
0.0
 12
269.144248
 22
273.166765
 32
0.0
 13
269.144248
 23
273.166765
 33
0.0
  0
SOLID
  5
1DD
330
1D6
100
AcDbEntity
  8
0
 62
   254
100
AcDbTrace
 10
240.644248
 20
273.750098
 30
0.0
 11
240.644248
 21
272.583432
 31
0.0
 12
237.144248
 22
273.166765
 32
0.0
 13
237.144248
 23
273.166765
 33
0.0
  0
MTEXT
  5
1DE
330
1D6
100
AcDbEntity
  8
0
 62
   254
370
    13
100
AcDbMText
 10
253.144248
 20
278.416765
 30
0.0
 40
3.5
 41
0.0
 71
     5
 72
     1
  1
\A1;32
  7
cesky
 73
     1
 44
1.0
  0
POINT
  5
1DF
330
1D6
100
AcDbEntity
  8
Defpoints
 62
     0
100
AcDbPoint
 10
269.144248
 20
258.231161
 30
0.0
  0
POINT
  5
1E0
330
1D6
100
AcDbEntity
  8
Defpoints
 62
     0
100
AcDbPoint
 10
237.144248
 20
242.731588
 30
0.0
  0
POINT
  5
1E1
330
1D6
100
AcDbEntity
  8
Defpoints
 62
     0
100
AcDbPoint
 10
237.144248
 20
273.166765
 30
0.0
  0
ENDBLK
  5
1D8
330
1D6
100
AcDbEntity
  8
0
100
AcDbBlockEnd
  0
BLOCK
  5
1E9
330
1E2
100
AcDbEntity
  8
0
100
AcDbBlockBegin
  2
_U0
 70
     0
 10
0.0
 20
0.0
 30
0.0
  3
_U0
  1

  0
ENDBLK
  5
1EA
330
1E2
100
AcDbEntity
  8
0
100
AcDbBlockEnd
  0
BLOCK
  5
1EF
330
1EE
100
AcDbEntity
  8
0
100
AcDbBlockBegin
  2
*D3
 70
     1
 10
0.0
 20
0.0
 30
0.0
  3
*D3
  1

  0
LINE
  5
1F1
330
1EE
100
AcDbEntity
  8
0
 62
   254
370
    -2
100
AcDbLine
 10
269.144248
 20
254.231161
 30
0.0
 11
269.144248
 21
263.470747
 31
0.0
  0
LINE
  5
1F2
330
1EE
100
AcDbEntity
  8
0
 62
   254
370
    -2
100
AcDbLine
 10
268.187789
 20
255.489587
 30
0.0
 11
268.187789
 21
263.470747
 31
0.0
  0
LINE
  5
1F3
330
1EE
100
AcDbEntity
  8
0
 62
   254
370
    -2
100
AcDbLine
 10
268.187789
 20
262.470747
 30
0.0
 11
253.354456
 21
262.470747
 31
0.0
  0
LINE
  5
1F4
330
1EE
100
AcDbEntity
  8
0
 62
   254
370
    -2
100
AcDbLine
 10
272.644248
 20
262.470747
 30
0.0
 11
276.144248
 21
262.470747
 31
0.0
  0
LINE
  5
1F5
330
1EE
100
AcDbEntity
  8
0
 62
   254
370
    -2
100
AcDbLine
 10
264.687789
 20
262.470747
 30
0.0
 11
261.187789
 21
262.470747
 31
0.0
  0
SOLID
  5
1F6
330
1EE
100
AcDbEntity
  8
0
 62
   254
100
AcDbTrace
 10
272.644248
 20
263.05408
 30
0.0
 11
272.644248
 21
261.887414
 31
0.0
 12
269.144248
 22
262.470747
 32
0.0
 13
269.144248
 23
262.470747
 33
0.0
  0
SOLID
  5
1F7
330
1EE
100
AcDbEntity
  8
0
 62
   254
100
AcDbTrace
 10
264.687789
 20
261.887414
 30
0.0
 11
264.687789
 21
263.05408
 31
0.0
 12
268.187789
 22
262.470747
 32
0.0
 13
268.187789
 23
262.470747
 33
0.0
  0
MTEXT
  5
1F8
330
1EE
100
AcDbEntity
  8
0
 62
   254
370
    13
100
AcDbMText
 10
257.271123
 20
267.720747
 30
0.0
 40
3.5
 41
0.0
 71
     5
 72
     1
  1
\A1;1
  7
cesky
 73
     1
 44
1.0
  0
POINT
  5
1F9
330
1EE
100
AcDbEntity
  8
Defpoints
 62
     0
100
AcDbPoint
 10
269.144248
 20
254.231161
 30
0.0
  0
POINT
  5
1FA
330
1EE
100
AcDbEntity
  8
Defpoints
 62
     0
100
AcDbPoint
 10
268.187789
 20
255.489587
 30
0.0
  0
POINT
  5
1FB
330
1EE
100
AcDbEntity
  8
Defpoints
 62
     0
100
AcDbPoint
 10
268.187789
 20
262.470747
 30
0.0
  0
ENDBLK
  5
1F0
330
1EE
100
AcDbEntity
  8
0
100
AcDbBlockEnd
  0
BLOCK
  5
203
330
1FC
100
AcDbEntity
  8
0
100
AcDbBlockBegin
  2
_U1
 70
     0
 10
0.0
 20
0.0
 30
0.0
  3
_U1
  1

  0
ENDBLK
  5
204
330
1FC
100
AcDbEntity
  8
0
100
AcDbBlockEnd
  0
BLOCK
  5
209
330
208
100
AcDbEntity
  8
0
100
AcDbBlockBegin
  2
*D5
 70
     1
 10
0.0
 20
0.0
 30
0.0
  3
*D5
  1

  0
LINE
  5
20B
330
208
100
AcDbEntity
  8
0
 62
    95
370
    -2
100
AcDbLine
 10
224.020998
 20
249.731161
 30
0.0
 11
206.937334
 21
249.731161
 31
0.0
  0
LINE
  5
20C
330
208
100
AcDbEntity
  8
0
 62
    95
370
    -2
100
AcDbLine
 10
216.144248
 20
237.731161
 30
0.0
 11
206.937334
 21
237.731161
 31
0.0
  0
LINE
  5
20D
330
208
100
AcDbEntity
  8
0
 62
    95
370
    -2
100
AcDbLine
 10
207.937334
 20
253.231161
 30
0.0
 11
207.937334
 21
256.731161
 31
0.0
  0
LINE
  5
20E
330
208
100
AcDbEntity
  8
0
 62
    95
370
    -2
100
AcDbLine
 10
207.937334
 20
234.231161
 30
0.0
 11
207.937334
 21
230.731161
 31
0.0
  0
SOLID
  5
20F
330
208
100
AcDbEntity
  8
0
 62
    95
100
AcDbTrace
 10
207.354001
 20
253.231161
 30
0.0
 11
208.520667
 21
253.231161
 31
0.0
 12
207.937334
 22
249.731161
 32
0.0
 13
207.937334
 23
249.731161
 33
0.0
  0
SOLID
  5
210
330
208
100
AcDbEntity
  8
0
 62
    95
100
AcDbTrace
 10
208.520667
 20
234.231161
 30
0.0
 11
207.354001
 21
234.231161
 31
0.0
 12
207.937334
 22
237.731161
 32
0.0
 13
207.937334
 23
237.731161
 33
0.0
  0
MTEXT
  5
211
330
208
100
AcDbEntity
  8
0
 62
    95
370
    13
100
AcDbMText
 10
202.687334
 20
243.731161
 30
0.0
 40
3.5
 41
0.0
 71
     5
 72
     1
  1
\A1;12
  7
cesky
 11
0.0
 21
1.0
 31
0.0
 73
     1
 44
1.0
  0
POINT
  5
212
330
208
100
AcDbEntity
  8
Defpoints
 62
     0
100
AcDbPoint
 10
224.020998
 20
249.731161
 30
0.0
  0
POINT
  5
213
330
208
100
AcDbEntity
  8
Defpoints
 62
     0
100
AcDbPoint
 10
216.144248
 20
237.731161
 30
0.0
  0
POINT
  5
214
330
208
100
AcDbEntity
  8
Defpoints
 62
     0
100
AcDbPoint
 10
207.937334
 20
237.731161
 30
0.0
  0
ENDBLK
  5
20A
330
208
100
AcDbEntity
  8
0
100
AcDbBlockEnd
  0
BLOCK
  5
21D
330
215
100
AcDbEntity
  8
0
100
AcDbBlockBegin
  2
_U2
 70
     0
 10
0.0
 20
0.0
 30
0.0
  3
_U2
  1

  0
ENDBLK
  5
21E
330
215
100
AcDbEntity
  8
0
100
AcDbBlockEnd
  0
BLOCK
  5
223
330
222
100
AcDbEntity
  8
0
100
AcDbBlockBegin
  2
*D7
 70
     1
 10
0.0
 20
0.0
 30
0.0
  3
*D7
  1

  0
LINE
  5
225
330
222
100
AcDbEntity
  8
0
 62
   254
370
    -2
100
AcDbLine
 10
262.418427
 20
243.731161
 30
0.0
 11
281.298107
 21
243.731161
 31
0.0
  0
LINE
  5
226
330
222
100
AcDbEntity
  8
0
 62
   254
370
    -2
100
AcDbLine
 10
271.144248
 20
256.231161
 30
0.0
 11
281.298107
 21
256.231161
 31
0.0
  0
LINE
  5
227
330
222
100
AcDbEntity
  8
0
 62
   254
370
    -2
100
AcDbLine
 10
280.2981069999999
 20
259.731161
 30
0.0
 11
280.2981069999999
 21
263.231161
 31
0.0
  0
SOLID
  5
228
330
222
100
AcDbEntity
  8
0
 62
   254
100
AcDbTrace
 10
279.714774
 20
259.731161
 30
0.0
 11
280.881441
 21
259.731161
 31
0.0
 12
280.2981069999999
 22
256.231161
 32
0.0
 13
280.2981069999999
 23
256.231161
 33
0.0
  0
MTEXT
  5
229
330
222
100
AcDbEntity
  8
0
 62
   254
370
    13
100
AcDbMText
 10
275.048107
 20
230.397828
 30
0.0
 40
3.5
 41
0.0
 71
     5
 72
     1
  1
\A1;25
  7
cesky
 11
0.0
 21
1.0
 31
0.0
 73
     1
 44
1.0
  0
POINT
  5
22A
330
222
100
AcDbEntity
  8
Defpoints
 62
     0
100
AcDbPoint
 10
262.418427
 20
243.731161
 30
0.0
  0
POINT
  5
22B
330
222
100
AcDbEntity
  8
Defpoints
 62
     0
100
AcDbPoint
 10
271.144248
 20
256.231161
 30
0.0
  0
POINT
  5
22C
330
222
100
AcDbEntity
  8
Defpoints
 62
     0
100
AcDbPoint
 10
280.2981069999999
 20
256.231161
 30
0.0
  0
ENDBLK
  5
224
330
222
100
AcDbEntity
  8
0
100
AcDbBlockEnd
  0
BLOCK
  5
233
330
22D
100
AcDbEntity
  8
0
100
AcDbBlockBegin
  2
_U3
 70
     0
 10
0.0
 20
0.0
 30
0.0
  3
_U3
  1

  0
ENDBLK
  5
234
330
22D
100
AcDbEntity
  8
0
100
AcDbBlockEnd
  0
BLOCK
  5
239
330
238
100
AcDbEntity
  8
0
100
AcDbBlockBegin
  2
*D9
 70
     1
 10
0.0
 20
0.0
 30
0.0
  3
*D9
  1

  0
LINE
  5
23B
330
238
100
AcDbEntity
  8
0
 62
    95
370
    -2
100
AcDbLine
 10
238.894248
 20
255.106161
 30
0.0
 11
196.3614
 21
255.106161
 31
0.0
  0
LINE
  5
23C
330
238
100
AcDbEntity
  8
0
 62
    95
370
    -2
100
AcDbLine
 10
238.894248
 20
232.356161
 30
0.0
 11
196.3614
 21
232.356161
 31
0.0
  0
LINE
  5
23D
330
238
100
AcDbEntity
  8
0
 62
    95
370
    -2
100
AcDbLine
 10
197.3614
 20
251.606161
 30
0.0
 11
197.3614
 21
235.856161
 31
0.0
  0
SOLID
  5
23E
330
238
100
AcDbEntity
  8
0
 62
    95
100
AcDbTrace
 10
197.944733
 20
251.606161
 30
0.0
 11
196.778067
 21
251.606161
 31
0.0
 12
197.3614
 22
255.106161
 32
0.0
 13
197.3614
 23
255.106161
 33
0.0
  0
SOLID
  5
23F
330
238
100
AcDbEntity
  8
0
 62
    95
100
AcDbTrace
 10
196.778067
 20
235.856161
 30
0.0
 11
197.944733
 21
235.856161
 31
0.0
 12
197.3614
 22
232.356161
 32
0.0
 13
197.3614
 23
232.356161
 33
0.0
  0
MTEXT
  5
240
330
238
100
AcDbEntity
  8
0
 62
    95
370
    13
100
AcDbMText
 10
192.1114
 20
243.731161
 30
0.0
 40
3.5
 41
0.0
 71
     5
 72
     1
  1
\A1;22.8
  7
cesky
 11
0.0
 21
1.0
 31
0.0
 73
     1
 44
1.0
  0
POINT
  5
241
330
238
100
AcDbEntity
  8
Defpoints
 62
     0
100
AcDbPoint
 10
238.894248
 20
255.106161
 30
0.0
  0
POINT
  5
242
330
238
100
AcDbEntity
  8
Defpoints
 62
     0
100
AcDbPoint
 10
238.894248
 20
232.356161
 30
0.0
  0
POINT
  5
243
330
238
100
AcDbEntity
  8
Defpoints
 62
     0
100
AcDbPoint
 10
197.3614
 20
232.356161
 30
0.0
  0
ENDBLK
  5
23A
330
238
100
AcDbEntity
  8
0
100
AcDbBlockEnd
  0
BLOCK
  5
24C
330
244
100
AcDbEntity
  8
0
100
AcDbBlockBegin
  2
_U4
 70
     0
 10
0.0
 20
0.0
 30
0.0
  3
_U4
  1

  0
ENDBLK
  5
24D
330
244
100
AcDbEntity
  8
0
100
AcDbBlockEnd
  0
ENDSEC
  0
SECTION
  2
ENTITIES
  0
POINT
  5
73
102
{ACAD_REACTORS
330
332
102
}
330
1F
100
AcDbEntity
  8
80
100
AcDbPoint
 10
237.144248
 20
243.731161
 30
0.0
  0
POINT
  5
75
330
1F
100
AcDbEntity
  8
SK6
 60
     1
100
AcDbPoint
 10
237.644248
 20
243.731161
 30
0.0
  0
POINT
  5
77
330
1F
100
AcDbEntity
  8
SK6
 60
     1
100
AcDbPoint
 10
262.418427
 20
243.731161
 30
0.0
  0
LINE
  5
78
330
1F
100
AcDbEntity
  8
81
100
AcDbLine
 10
269.144248
 20
254.231161
 30
0.0
 11
269.144248
 21
258.231161
 31
0.0
  0
LINE
  5
79
330
1F
100
AcDbEntity
  8
80
100
AcDbLine
 10
236.144675
 20
243.731161
 30
0.0
 11
238.143822
 21
243.731161
 31
0.0
  0
LINE
  5
7A
330
1F
100
AcDbEntity
  8
80
100
AcDbLine
 10
237.144248
 20
242.731588
 30
0.0
 11
237.144248
 21
244.730735
 31
0.0
  0
LINE
  5
7B
330
1F
100
AcDbEntity
  8
81
100
AcDbLine
 10
267.144248
 20
256.231161
 30
0.0
 11
271.144248
 21
256.231161
 31
0.0
  0
LINE
  5
7C
330
1F
100
AcDbEntity
  8
1
100
AcDbLine
 10
269.144248
 20
241.367778
 30
0.0
 11
269.125011
 21
241.191592
 31
0.0
  0
LINE
  5
7E
330
1F
100
AcDbEntity
  8
1
100
AcDbLine
 10
268.160311
 20
235.254172
 30
0.0
 11
268.094444
 21
235.11982
 31
0.0
  0
LINE
  5
7F
330
1F
100
AcDbEntity
  8
1
100
AcDbLine
 10
268.044174
 20
235.112517
 30
0.0
 11
268.094444
 21
235.11982
 31
0.0
  0
LINE
  5
80
330
1F
100
AcDbEntity
  8
1
100
AcDbLine
 10
268.094444
 20
235.11982
 30
0.0
 11
268.0677720000001
 21
237.901388
 31
0.0
  0
LINE
  5
81
330
1F
100
AcDbEntity
  8
1
100
AcDbLine
 10
268.044248
 20
233.139052
 30
0.0
 11
268.044248
 21
233.134743
 31
0.0
  0
LINE
  5
83
330
1F
100
AcDbEntity
  8
1
100
AcDbLine
 10
267.672151
 20
232.73685
 30
0.0
 11
267.672151
 21
232.735717
 31
0.0
  0
LINE
  5
84
330
1F
100
AcDbEntity
  8
1
100
AcDbLine
 10
262.418427
 20
232.368341
 30
0.0
 11
265.608022
 21
232.591379
 31
0.0
  0
LINE
  5
85
330
1F
100
AcDbEntity
  8
1
100
AcDbLine
 10
266.429524
 20
232.648824
 30
0.0
 11
267.672151
 21
232.735717
 31
0.0
  0
LINE
  5
86
330
1F
100
AcDbEntity
  8
1
100
AcDbLine
 10
262.418427
 20
232.368341
 30
0.0
 11
262.418427
 21
232.384778
 31
0.0
  0
LINE
  5
87
330
1F
100
AcDbEntity
  8
1
100
AcDbLine
 10
268.044248
 20
237.327803
 30
0.0
 11
268.044248
 21
237.882734
 31
0.0
  0
LINE
  5
88
330
1F
100
AcDbEntity
  8
1
100
AcDbLine
 10
268.044248
 20
233.139052
 30
0.0
 11
268.044248
 21
237.327803
 31
0.0
  0
LINE
  5
89
330
1F
100
AcDbEntity
  8
1
100
AcDbLine
 10
263.52674
 20
237.113761
 30
0.0
 11
268.044248
 21
237.327803
 31
0.0
  0
LINE
  5
8A
330
1F
100
AcDbEntity
  8
SK1
100
AcDbLine
 10
215.144248
 20
248.731161
 30
0.0
 11
215.144248
 21
238.731161
 31
0.0
  0
LINE
  5
8B
330
1F
100
AcDbEntity
  8
SK1
100
AcDbLine
 10
215.144248
 20
238.731161
 30
0.0
 11
216.144248
 21
237.731161
 31
0.0
  0
LINE
  5
8C
330
1F
100
AcDbEntity
  8
SK1
100
AcDbLine
 10
216.144248
 20
249.731161
 30
0.0
 11
215.144248
 21
248.731161
 31
0.0
  0
LINE
  5
8D
330
1F
100
AcDbEntity
  8
SK1
100
AcDbLine
 10
216.144248
 20
249.731161
 30
0.0
 11
216.144248
 21
237.731161
 31
0.0
  0
LINE
  5
8E
330
1F
100
AcDbEntity
  8
SK1
100
AcDbLine
 10
231.897748
 20
249.731161
 30
0.0
 11
216.144248
 21
249.731161
 31
0.0
  0
LINE
  5
8F
330
1F
100
AcDbEntity
  8
SK1
100
AcDbLine
 10
216.144248
 20
237.731161
 30
0.0
 11
231.897748
 21
237.731161
 31
0.0
  0
LINE
  5
90
330
1F
100
AcDbEntity
  8
SK1
100
AcDbLine
 10
231.897748
 20
249.731161
 30
0.0
 11
231.897748
 21
237.731161
 31
0.0
  0
LINE
  5
91
330
1F
100
AcDbEntity
  8
SK1
100
AcDbLine
 10
231.897748
 20
237.731161
 30
0.0
 11
232.144248
 21
237.484661
 31
0.0
  0
LINE
  5
92
330
1F
100
AcDbEntity
  8
SK1
100
AcDbLine
 10
232.144248
 20
249.977661
 30
0.0
 11
231.897748
 21
249.731161
 31
0.0
  0
LINE
  5
93
330
1F
100
AcDbEntity
  8
SK1
100
AcDbLine
 10
232.144248
 20
249.977661
 30
0.0
 11
232.144248
 21
237.484661
 31
0.0
  0
LINE
  5
94
330
1F
100
AcDbEntity
  8
SK1
100
AcDbLine
 10
237.144248
 20
249.977661
 30
0.0
 11
232.144248
 21
249.977661
 31
0.0
  0
LINE
  5
95
330
1F
100
AcDbEntity
  8
SK1
100
AcDbLine
 10
232.144248
 20
237.484661
 30
0.0
 11
237.144248
 21
237.484661
 31
0.0
  0
LINE
  5
96
330
1F
100
AcDbEntity
  8
1
100
AcDbLine
 10
260.377567
 20
237.274193
 30
0.0
 11
259.441422
 21
232.397334
 31
0.0
  0
LINE
  5
97
330
1F
100
AcDbEntity
  8
1
100
AcDbLine
 10
263.406887
 20
251.983111
 30
0.0
 11
263.650797
 21
251.837723
 31
0.0
  0
LINE
  5
99
330
1F
100
AcDbEntity
  8
1
100
AcDbLine
 10
263.692718
 20
252.385579
 30
0.0
 11
263.936628
 21
252.240191
 31
0.0
  0
LINE
  5
9A
330
1F
100
AcDbEntity
  8
1
100
AcDbLine
 10
263.735874
 20
251.717433
 30
0.0
 11
263.484525
 21
251.867257
 31
0.0
  0
LINE
  5
9B
330
1F
100
AcDbEntity
  8
1
100
AcDbLine
 10
263.840166
 20
252.34044
 30
0.0
 11
264.092506
 21
252.190026
 31
0.0
  0
LINE
  5
9C
330
1F
100
AcDbEntity
  8
1
100
AcDbLine
 10
263.407069
 20
251.282259
 30
0.0
 11
263.657297
 21
251.133104
 31
0.0
  0
LINE
  5
9D
330
1F
100
AcDbEntity
  8
1
100
AcDbLine
 10
263.474798
 20
251.328456
 30
0.0
 11
263.729707
 21
251.176511
 31
0.0
  0
LINE
  5
9E
330
1F
100
AcDbEntity
  8
1
100
AcDbLine
 10
263.525629
 20
251.817699
 30
0.0
 11
263.780538
 21
251.665754
 31
0.0
  0
LINE
  5
9F
330
1F
100
AcDbEntity
  8
1
100
AcDbLine
 10
263.887268
 20
252.326908
 30
0.0
 11
264.142177
 21
252.174963
 31
0.0
  0
LINE
  5
A0
330
1F
100
AcDbEntity
  8
1
100
AcDbLine
 10
264.331511
 20
252.534759
 30
0.0
 11
264.58642
 21
252.382814
 31
0.0
  0
LINE
  5
A1
330
1F
100
AcDbEntity
  8
1
100
AcDbLine
 10
264.352926
 20
252.614082
 30
0.0
 11
264.603155
 21
252.464927
 31
0.0
  0
LINE
  5
A2
330
1F
100
AcDbEntity
  8
1
100
AcDbLine
 10
263.324142
 20
251.186694
 30
0.0
 11
263.568052
 21
251.041306
 31
0.0
  0
LINE
  5
A3
330
1F
100
AcDbEntity
  8
1
100
AcDbLine
 10
263.521932
 20
250.741768
 30
0.0
 11
263.546262
 21
250.727266
 31
0.0
  0
LINE
  5
A4
330
1F
100
AcDbEntity
  8
1
100
AcDbLine
 10
264.415883
 20
252.723931
 30
0.0
 11
264.659792
 21
252.578542
 31
0.0
  0
LINE
  5
A5
330
1F
100
AcDbEntity
  8
1
100
AcDbLine
 10
264.177736
 20
250.541476
 30
0.0
 11
263.918005
 21
250.696295
 31
0.0
  0
LINE
  5
A6
330
1F
100
AcDbEntity
  8
1
100
AcDbLine
 10
264.118458
 20
250.484135
 30
0.0
 11
264.373368
 21
250.33219
 31
0.0
  0
LINE
  5
A7
330
1F
100
AcDbEntity
  8
1
100
AcDbLine
 10
264.123153
 20
250.40252
 30
0.0
 11
264.373381
 21
250.253365
 31
0.0
  0
LINE
  5
A8
330
1F
100
AcDbEntity
  8
1
100
AcDbLine
 10
265.143851
 20
252.26888
 30
0.0
 11
265.403582
 21
252.114061
 31
0.0
  0
LINE
  5
A9
330
1F
100
AcDbEntity
  8
1
100
AcDbLine
 10
265.336811
 20
252.199648
 30
0.0
 11
265.59172
 21
252.047703
 31
0.0
  0
LINE
  5
AA
330
1F
100
AcDbEntity
  8
1
100
AcDbLine
 10
265.415218
 20
252.221825
 30
0.0
 11
265.665446
 21
252.07267
 31
0.0
  0
LINE
  5
AB
330
1F
100
AcDbEntity
  8
1
100
AcDbLine
 10
264.162352
 20
250.283703
 30
0.0
 11
264.179319
 21
250.273589
 31
0.0
  0
LINE
  5
AC
330
1F
100
AcDbEntity
  8
1
100
AcDbLine
 10
265.317738
 20
250.567484
 30
0.0
 11
265.2216899999999
 21
250.624735
 31
0.0
  0
LINE
  5
AD
330
1F
100
AcDbEntity
  8
1
100
AcDbLine
 10
265.577331
 20
251.097919
 30
0.0
 11
265.628665
 21
251.067319
 31
0.0
  0
LINE
  5
AE
330
1F
100
AcDbEntity
  8
1
100
AcDbLine
 10
265.247012
 20
250.602848
 30
0.0
 11
265.30363
 21
250.5691
 31
0.0
  0
LINE
  5
AF
330
1F
100
AcDbEntity
  8
1
100
AcDbLine
 10
265.796158
 20
253.173185
 30
0.0
 11
265.637645
 21
253.267671
 31
0.0
  0
LINE
  5
B0
330
1F
100
AcDbEntity
  8
1
100
AcDbLine
 10
265.593219
 20
251.09033
 30
0.0
 11
265.623344
 21
251.072373
 31
0.0
  0
LINE
  5
B1
330
1F
100
AcDbEntity
  8
1
100
AcDbLine
 10
262.069644
 20
242.69923
 30
0.0
 11
262.069644
 21
249.969952
 31
0.0
  0
LINE
  5
B2
330
1F
100
AcDbEntity
  8
1
100
AcDbLine
 10
248.394248
 20
254.714373
 30
0.0
 11
248.394248
 21
252.681161
 31
0.0
  0
LINE
  5
B3
330
1F
100
AcDbEntity
  8
1
100
AcDbLine
 10
247.894248
 20
252.181161
 30
0.0
 11
240.644248
 21
252.181161
 31
0.0
  0
LINE
  5
B4
330
1F
100
AcDbEntity
  8
1
100
AcDbLine
 10
240.144248
 20
252.681161
 30
0.0
 11
240.144248
 21
255.106161
 31
0.0
  0
LINE
  5
B5
330
1F
100
AcDbEntity
  8
1
100
AcDbLine
 10
237.644248
 20
255.106161
 30
0.0
 11
237.644248
 21
232.356161
 31
0.0
  0
LINE
  5
B6
330
1F
100
AcDbEntity
  8
1
100
AcDbLine
 10
240.144248
 20
255.106161
 30
0.0
 11
237.644248
 21
255.106161
 31
0.0
  0
LINE
  5
B7
330
1F
100
AcDbEntity
  8
1
100
AcDbLine
 10
237.644248
 20
232.356161
 30
0.0
 11
240.144248
 21
232.356161
 31
0.0
  0
LINE
  5
B8
330
1F
100
AcDbEntity
  8
1
100
AcDbLine
 10
248.394248
 20
232.356161
 30
0.0
 11
262.069644
 21
232.356161
 31
0.0
  0
LINE
  5
B9
330
1F
100
AcDbEntity
  8
1
100
AcDbLine
 10
248.394248
 20
254.765046
 30
0.0
 11
248.394248
 21
254.714373
 31
0.0
  0
LINE
  5
BA
330
1F
100
AcDbEntity
  8
1
100
AcDbLine
 10
268.044248
 20
242.257794
 30
0.0
 11
268.044248
 21
249.288914
 31
0.0
  0
LINE
  5
BB
330
1F
100
AcDbEntity
  8
1
100
AcDbLine
 10
267.672151
 20
242.156214
 30
0.0
 11
267.672151
 21
249.364969
 31
0.0
  0
LINE
  5
BC
330
1F
100
AcDbEntity
  8
1
100
AcDbLine
 10
237.144248
 20
254.606161
 30
0.0
 11
237.144248
 21
232.856161
 31
0.0
  0
LINE
  5
BD
330
1F
100
AcDbEntity
  8
1
100
AcDbLine
 10
237.144248
 20
232.856161
 30
0.0
 11
237.644248
 21
232.356161
 31
0.0
  0
LINE
  5
BE
330
1F
100
AcDbEntity
  8
1
100
AcDbLine
 10
237.644248
 20
255.106161
 30
0.0
 11
237.144248
 21
254.606161
 31
0.0
  0
LINE
  5
BF
330
1F
100
AcDbEntity
  8
1
100
AcDbLine
 10
263.731273
 20
238.476957
 30
0.0
 11
263.52674
 21
237.113761
 31
0.0
  0
LINE
  5
C0
330
1F
100
AcDbEntity
  8
1
100
AcDbLine
 10
262.418427
 20
249.933461
 30
0.0
 11
262.418427
 21
242.962251
 31
0.0
  0
LINE
  5
C1
330
1F
100
AcDbEntity
  8
1
100
AcDbLine
 10
240.144248
 20
232.356161
 30
0.0
 11
240.144248
 21
234.781161
 31
0.0
  0
LINE
  5
C2
330
1F
100
AcDbEntity
  8
1
100
AcDbLine
 10
240.644248
 20
235.281161
 30
0.0
 11
247.894248
 21
235.281161
 31
0.0
  0
LINE
  5
C3
330
1F
100
AcDbEntity
  8
1
100
AcDbLine
 10
248.394248
 20
234.781161
 30
0.0
 11
248.394248
 21
232.356161
 31
0.0
  0
LINE
  5
C4
330
1F
100
AcDbEntity
  8
1
100
AcDbLine
 10
262.069644
 20
232.356161
 30
0.0
 11
262.069644
 21
232.374589
 31
0.0
  0
LINE
  5
C5
330
1F
100
AcDbEntity
  8
1
100
AcDbLine
 10
259.928429
 20
253.410561
 30
0.0
 11
260.096459
 21
253.419644
 31
0.0
  0
LINE
  5
C6
330
1F
100
AcDbEntity
  8
1
100
AcDbLine
 10
260.101445
 20
250.327248
 30
0.0
 11
260.268213
 21
250.358821
 31
0.0
  0
LINE
  5
C7
330
1F
100
AcDbEntity
  8
1
100
AcDbLine
 10
263.475801
 20
255.937824
 30
0.0
 11
263.485617
 21
255.76509
 31
0.0
  0
LINE
  5
C8
330
1F
100
AcDbEntity
  8
1
100
AcDbLine
 10
266.532642
 20
256.16855
 30
0.0
 11
266.52016
 21
255.994133
 31
0.0
  0
LINE
  5
C9
330
1F
100
AcDbEntity
  8
1
100
AcDbLine
 10
267.742259
 20
255.846989
 30
0.0
 11
267.801111
 21
256.015746
 31
0.0
  0
LINE
  5
CA
330
1F
100
AcDbEntity
  8
1
100
AcDbLine
 10
268.043447
 20
255.812852
 30
0.0
 11
267.869087
 21
255.740803
 31
0.0
  0
LINE
  5
CB
330
1F
100
AcDbEntity
  8
1
100
AcDbLine
 10
268.321139
 20
255.170532
 30
0.0
 11
268.143326
 21
255.106265
 31
0.0
  0
LINE
  5
CC
330
1F
100
AcDbEntity
  8
1
100
AcDbLine
 10
268.971232
 20
252.631477
 30
0.0
 11
268.781552
 21
252.613561
 31
0.0
  0
LINE
  5
CD
330
1F
100
AcDbEntity
  8
1
100
AcDbLine
 10
268.123347
 20
247.72361
 30
0.0
 11
268.044498
 21
247.897173
 31
0.0
  0
LINE
  5
CE
330
1F
100
AcDbEntity
  8
1
100
AcDbLine
 10
269.144248
 20
249.548164
 30
0.0
 11
268.953306
 21
249.552738
 31
0.0
  0
LINE
  5
CF
330
1F
100
AcDbEntity
  8
1
100
AcDbLine
 10
268.971232
 20
239.042958
 30
0.0
 11
268.866386
 21
240.163425
 31
0.0
  0
LINE
  5
D0
330
1F
100
AcDbEntity
  8
1
100
AcDbLine
 10
266.532642
 20
237.968758
 30
0.0
 11
266.56876
 21
238.181615
 31
0.0
  0
LINE
  5
D1
330
1F
100
AcDbEntity
  8
1
100
AcDbLine
 10
268.321139
 20
238.103815
 30
0.0
 11
268.1103970000001
 21
240.976554
 31
0.0
  0
LINE
  5
D2
330
1F
100
AcDbEntity
  8
1
100
AcDbLine
 10
268.094444
 20
242.064633
 30
0.0
 11
268.0616720000001
 21
244.438076
 31
0.0
  0
LINE
  5
D3
330
1F
100
AcDbEntity
  8
1
100
AcDbLine
 10
268.0616720000001
 20
244.438076
 30
0.0
 11
268.0441990000001
 21
244.440834
 31
0.0
  0
LINE
  5
D4
330
1F
100
AcDbEntity
  8
1
100
AcDbLine
 10
268.160311
 20
241.799881
 30
0.0
 11
268.094444
 21
242.064633
 31
0.0
  0
LINE
  5
D5
330
1F
100
AcDbEntity
  8
1
100
AcDbLine
 10
262.359532
 20
242.969835
 30
0.0
 11
268.094444
 21
242.064633
 31
0.0
  0
LINE
  5
D6
330
1F
100
AcDbEntity
  8
1
100
AcDbLine
 10
262.216179
 20
242.738107
 30
0.0
 11
262.359532
 21
242.969835
 31
0.0
  0
LINE
  5
D7
330
1F
100
AcDbEntity
  8
1
100
AcDbLine
 10
260.949331
 20
239.203104
 30
0.0
 11
261.732031
 21
242.03924
 31
0.0
  0
LINE
  5
D8
330
1F
100
AcDbEntity
  8
1
100
AcDbLine
 10
263.475801
 20
238.529911
 30
0.0
 11
263.715223
 21
239.707071
 31
0.0
  0
LINE
  5
D9
330
1F
100
AcDbEntity
  8
1
100
AcDbLine
 10
268.785388
 20
248.31571
 30
0.0
 11
268.969875
 21
248.264196
 31
0.0
  0
LINE
  5
DA
330
1F
100
AcDbEntity
  8
1
100
AcDbLine
 10
268.764531
 20
248.015745
 30
0.0
 11
268.67792
 21
248.185682
 31
0.0
  0
LINE
  5
DB
330
1F
100
AcDbEntity
  8
1
100
AcDbLine
 10
269.140269
 20
240.34901
 30
0.0
 11
269.119697
 21
240.561022
 31
0.0
  0
LINE
  5
DC
330
1F
100
AcDbEntity
  8
1
100
AcDbLine
 10
269.144248
 20
240.277543
 30
0.0
 11
269.125011
 21
240.476146
 31
0.0
  0
LINE
  5
DD
330
1F
100
AcDbEntity
  8
1
100
AcDbLine
 10
259.928429
 20
240.1052
 30
0.0
 11
260.020539
 21
240.286228
 31
0.0
  0
LINE
  5
DE
330
1F
100
AcDbEntity
  8
1
100
AcDbLine
 10
268.126344
 20
244.259912
 30
0.0
 11
268.0616720000001
 21
244.438076
 31
0.0
  0
LINE
  5
DF
330
1F
100
AcDbEntity
  8
SK1
100
AcDbLine
 10
215.589787
 20
238.285661
 30
0.0
 11
231.897748
 21
238.285661
 31
0.0
  0
LINE
  5
E0
330
1F
100
AcDbEntity
  8
SK1
100
AcDbLine
 10
215.589787
 20
249.176661
 30
0.0
 11
231.897748
 21
249.176661
 31
0.0
  0
LINE
  5
E1
330
1F
100
AcDbEntity
  8
1
100
AcDbLine
 10
260.308137
 20
254.942986
 30
0.0
 11
260.371846
 21
254.7867
 31
0.0
  0
LINE
  5
E2
330
1F
100
AcDbEntity
  8
1
100
AcDbLine
 10
260.264377
 20
254.656672
 30
0.0
 11
260.1027919999999
 21
254.694535
 31
0.0
  0
LINE
  5
E3
330
1F
100
AcDbEntity
  8
1
100
AcDbLine
 10
260.949331
 20
255.235115
 30
0.0
 11
261.005268
 21
255.075209
 31
0.0
  0
LINE
  5
E4
330
1F
100
AcDbEntity
  8
1
100
AcDbLine
 10
215.589787
 20
249.176661
 30
0.0
 11
231.897748
 21
249.176661
 31
0.0
  0
LINE
  5
E6
330
1F
100
AcDbEntity
  8
NOCUT
100
AcDbLine
 10
253.010274
 20
243.731161
 30
0.0
 11
252.144248
 21
245.231161
 31
0.0
  0
LINE
  5
E7
330
1F
100
AcDbEntity
  8
NOCUT
100
AcDbLine
 10
252.144248
 20
245.231161
 30
0.0
 11
215.644248
 21
245.231161
 31
0.0
  0
LINE
  5
E8
330
1F
100
AcDbEntity
  8
NOCUT
100
AcDbLine
 10
215.644248
 20
245.231161
 30
0.0
 11
215.144248
 21
245.731161
 31
0.0
  0
LINE
  5
E9
330
1F
100
AcDbEntity
  8
NOCUT
100
AcDbLine
 10
215.144248
 20
245.731161
 30
0.0
 11
215.144248
 21
248.731161
 31
0.0
  0
LINE
  5
EA
330
1F
100
AcDbEntity
  8
NOCUT
100
AcDbLine
 10
215.144248
 20
248.731161
 30
0.0
 11
216.144248
 21
249.731161
 31
0.0
  0
LINE
  5
EB
330
1F
100
AcDbEntity
  8
NOCUT
100
AcDbLine
 10
216.144248
 20
249.731161
 30
0.0
 11
231.897748
 21
249.731161
 31
0.0
  0
LINE
  5
EC
330
1F
100
AcDbEntity
  8
NOCUT
100
AcDbLine
 10
231.897748
 20
249.731161
 30
0.0
 11
232.144248
 21
249.977661
 31
0.0
  0
LINE
  5
ED
330
1F
100
AcDbEntity
  8
NOCUT
100
AcDbLine
 10
232.144248
 20
249.977661
 30
0.0
 11
237.144248
 21
249.977661
 31
0.0
  0
LINE
  5
EE
330
1F
100
AcDbEntity
  8
NOCUT
100
AcDbLine
 10
237.144248
 20
249.977661
 30
0.0
 11
237.144248
 21
254.606161
 31
0.0
  0
LINE
  5
EF
330
1F
100
AcDbEntity
  8
NOCUT
100
AcDbLine
 10
237.144248
 20
254.606161
 30
0.0
 11
237.644248
 21
255.106161
 31
0.0
  0
LINE
  5
F0
330
1F
100
AcDbEntity
  8
NOCUT
100
AcDbLine
 10
237.644248
 20
255.106161
 30
0.0
 11
240.144248
 21
255.106161
 31
0.0
  0
LINE
  5
F1
330
1F
100
AcDbEntity
  8
NOCUT
100
AcDbLine
 10
240.144248
 20
255.106161
 30
0.0
 11
240.144248
 21
252.681161
 31
0.0
  0
LINE
  5
F2
330
1F
100
AcDbEntity
  8
NOCUT
100
AcDbLine
 10
240.644248
 20
252.181161
 30
0.0
 11
247.894248
 21
252.181161
 31
0.0
  0
LINE
  5
F3
330
1F
100
AcDbEntity
  8
NOCUT
100
AcDbLine
 10
248.394248
 20
252.681161
 30
0.0
 11
248.394248
 21
255.106161
 31
0.0
  0
LINE
  5
F4
330
1F
100
AcDbEntity
  8
NOCUT
100
AcDbLine
 10
248.394248
 20
255.106161
 30
0.0
 11
262.069644
 21
255.106161
 31
0.0
  0
LINE
  5
F5
330
1F
100
AcDbEntity
  8
NOCUT
100
AcDbLine
 10
262.418427
 20
255.093982
 30
0.0
 11
267.672151
 21
254.726605
 31
0.0
  0
LINE
  5
F6
330
1F
100
AcDbEntity
  8
NOCUT
100
AcDbLine
 10
268.044248
 20
254.32758
 30
0.0
 11
268.044248
 21
243.731161
 31
0.0
  0
LINE
  5
F7
330
1F
100
AcDbEntity
  8
NOCUT
100
AcDbLine
 10
253.010274
 20
243.731161
 30
0.0
 11
268.044248
 21
243.731161
 31
0.0
  0
LINE
  5
F8
102
{ACAD_REACTORS
330
24E
102
}
330
1F
100
AcDbEntity
  8
SK4
100
AcDbLine
 10
213.844248
 20
243.731161
 30
0.0
 11
238.244248
 21
243.731161
 31
0.0
  0
ARC
  5
F9
330
1F
100
AcDbEntity
  8
1
100
AcDbCircle
 10
267.644248
 20
233.134743
 30
0.0
 40
0.4000000000000021
100
AcDbArc
 50
274.0
 51
0.0
  0
ARC
  5
FA
330
1F
100
AcDbEntity
  8
1
100
AcDbCircle
 10
262.069644
 20
237.356161
 30
0.0
 40
5.0
100
AcDbArc
 50
270.0
 51
274.0
  0
ARC
  5
FB
330
1F
100
AcDbEntity
  8
NOCUT
100
AcDbCircle
 10
240.644248
 20
252.681161
 30
0.0
 40
0.5
100
AcDbArc
 50
180.0
 51
270.0
  0
ARC
  5
FC
330
1F
100
AcDbEntity
  8
NOCUT
100
AcDbCircle
 10
247.894248
 20
252.681161
 30
0.0
 40
0.5
100
AcDbArc
 50
270.0
 51
360.0
  0
ARC
  5
FD
330
1F
100
AcDbEntity
  8
NOCUT
100
AcDbCircle
 10
262.069644
 20
250.106161
 30
0.0
 40
5.0
100
AcDbArc
 50
86.0
 51
90.0
  0
ARC
  5
FE
330
1F
100
AcDbEntity
  8
NOCUT
100
AcDbCircle
 10
267.644248
 20
254.32758
 30
0.0
 40
0.4000000000000021
100
AcDbArc
 50
0.0
 51
86.0
  0
ELLIPSE
  5
FF
330
1F
100
AcDbEntity
  8
1
100
AcDbEllipse
 10
264.806122
 20
250.368417
 30
0.0
 11
0.0511532244653635
 21
0.085816652399217
 31
0.0
210
0.0
220
0.0
230
1.0
 40
0.9795739999999998
 41
1.42559045658987
 42
2.27452560900069
  0
ELLIPSE
  5
100
330
1F
100
AcDbEntity
  8
1
100
AcDbEllipse
 10
264.611737
 20
250.333768
 30
0.0
 11
0.0511532244653636
 21
0.0858166523992171
 31
0.0
210
0.0
220
0.0
230
0.9999999999999998
 40
0.9795739999999998
 41
4.043584334581328
 42
5.416118262590456
  0
ELLIPSE
  5
101
330
1F
100
AcDbEntity
  8
1
100
AcDbEllipse
 10
264.455452
 20
250.756134
 30
0.0
 11
0.2846651922511036
 21
0.4775654733185084
 31
0.0
210
0.0
220
0.0
230
1.0
 40
0.9795739999999998
 41
3.123460761411513
 42
4.043584334581356
  0
ELLIPSE
  5
102
330
1F
100
AcDbEntity
  8
1
100
AcDbEllipse
 10
264.215021
 20
250.368597
 30
0.0
 11
0.0511532244653635
 21
0.085816652399217
 31
0.0
210
0.0
220
0.0
230
1.0
 40
0.9795739999999998
 41
1.750926833402385
 42
3.123460761411493
  0
ELLIPSE
  5
103
330
1F
100
AcDbEntity
  8
1
100
AcDbEllipse
 10
264.031285
 20
250.436443
 30
0.0
 11
0.0511532244653635
 21
0.085816652399217
 31
0.0
210
0.0
220
0.0
230
1.0
 40
0.9795739999999998
 41
4.892519486992156
 42
5.74145463940299
  0
ELLIPSE
  5
104
330
1F
100
AcDbEntity
  8
1
100
AcDbEllipse
 10
263.63334
 20
250.21873
 30
0.0
 11
0.2846651922511036
 21
0.4775654733185084
 31
0.0
210
0.0
220
0.0
230
1.0
 40
0.9795739999999998
 41
5.741454639403009
 42
6.661578212572855
  0
ELLIPSE
  5
105
330
1F
100
AcDbEntity
  8
1
100
AcDbEllipse
 10
263.708566
 20
250.66727
 30
0.0
 11
0.0511532244653635
 21
0.085816652399217
 31
0.0
210
0.0
220
0.0
230
1.0
 40
0.9795739999999998
 41
0.3783929053933229
 42
1.227328057804095
  0
ELLIPSE
  5
106
330
1F
100
AcDbEntity
  8
1
100
AcDbEllipse
 10
263.584711
 20
250.819431
 30
0.0
 11
0.0511532244653636
 21
0.0858166523992171
 31
0.0
210
0.0
220
0.0
230
0.9999999999999998
 40
0.9795739999999998
 41
2.996386783384752
 42
4.368920711393887
  0
ELLIPSE
  5
107
330
1F
100
AcDbEntity
  8
1
100
AcDbEllipse
 10
263.871292
 20
251.173959
 30
0.0
 11
0.2846651922511036
 21
0.4775654733185084
 31
0.0
210
0.0
220
0.0
230
1.0
 40
0.9795739999999998
 41
2.076263210214916
 42
2.996386783384763
  0
ELLIPSE
  5
108
330
1F
100
AcDbEntity
  8
1
100
AcDbEllipse
 10
263.422463
 20
251.184406
 30
0.0
 11
0.0511532244653635
 21
0.085816652399217
 31
0.0
210
0.0
220
0.0
230
1.0
 40
0.9795739999999998
 41
0.7037292822057872
 42
2.07626321021494
  0
ELLIPSE
  5
109
330
1F
100
AcDbEntity
  8
1
100
AcDbEllipse
 10
263.391675
 20
251.380112
 30
0.0
 11
0.0511532244653635
 21
0.085816652399217
 31
0.0
210
0.0
220
0.0
230
1.0
 40
0.9795739999999998
 41
3.845321935795551
 42
4.694257088206376
  0
ELLIPSE
  5
10A
330
1F
100
AcDbEntity
  8
1
100
AcDbEllipse
 10
263.012225
 20
251.615919
 30
0.0
 11
0.2846651922511036
 21
0.4775654733185084
 31
0.0
210
0.0
220
0.0
230
1.0
 40
0.9795739999999998
 41
4.694257088206405
 42
5.614380661376254
  0
ELLIPSE
  5
10B
330
1F
100
AcDbEntity
  8
1
100
AcDbEllipse
 10
263.433372
 20
251.78144
 30
0.0
 11
0.0511532244653635
 21
0.085816652399217
 31
0.0
210
0.0
220
0.0
230
1.0
 40
0.9795739999999998
 41
5.614380661376273
 42
6.463315813787083
  0
ELLIPSE
  5
10C
330
1F
100
AcDbEntity
  8
1
100
AcDbEllipse
 10
263.503902
 20
251.968251
 30
0.0
 11
0.0511532244653636
 21
0.0858166523992171
 31
0.0
210
0.0
220
0.0
230
0.9999999999999998
 40
0.9795739999999998
 41
1.94918923218817
 42
3.321723160197338
  0
ELLIPSE
  5
10D
330
1F
100
AcDbEntity
  8
1
100
AcDbEllipse
 10
263.946768
 20
251.900413
 30
0.0
 11
0.2846651922511036
 21
0.4775654733185084
 31
0.0
210
0.0
220
0.0
230
1.0
 40
0.9795739999999998
 41
1.029065659018305
 42
1.949189232188166
  0
ELLIPSE
  5
10E
330
1F
100
AcDbEntity
  8
1
100
AcDbEllipse
 10
263.73837
 20
252.298396
 30
0.0
 11
0.0511532244653635
 21
0.085816652399217
 31
0.0
210
0.0
220
0.0
230
1.0
 40
0.9795739999999998
 41
5.939717038188803
 42
7.31225096619788
  0
ELLIPSE
  5
10F
330
1F
100
AcDbEntity
  8
1
100
AcDbEllipse
 10
263.891319
 20
252.426257
 30
0.0
 11
0.0511532244653635
 21
0.085816652399217
 31
0.0
210
0.0
220
0.0
230
1.0
 40
0.9795739999999998
 41
2.798124384598975
 42
3.647059537009763
  0
ELLIPSE
  5
110
330
1F
100
AcDbEntity
  8
1
100
AcDbEllipse
 10
263.909813
 20
252.879777
 30
0.0
 11
0.2846651922511036
 21
0.4775654733185084
 31
0.0
210
0.0
220
0.0
230
1.0
 40
0.9795739999999998
 41
3.64705953700981
 42
4.567183110179663
  0
ELLIPSE
  5
111
330
1F
100
AcDbEntity
  8
1
100
AcDbEllipse
 10
264.530928
 20
251.482588
 30
0.0
 11
-0.8448248181054758
 21
-1.417311196143264
 31
0.0
210
0.0
220
0.0
230
1.0
 40
0.9795739999999998
 41
0.0
 42
6.283185307179585
  0
ELLIPSE
  5
112
330
1F
100
AcDbEntity
  8
1
100
AcDbEllipse
 10
264.562413
 20
251.46382
 30
0.0
 11
-1.075231586679695
 21
-1.803850613273245
 31
0.0
210
0.0
220
0.0
230
1.0
 40
0.979574
 41
3.583522650487948
 42
6.126641664187208
  0
ELLIPSE
  5
113
330
1F
100
AcDbEntity
  8
1
100
AcDbEllipse
 10
264.562413
 20
251.46382
 30
0.0
 11
-1.075231586679695
 21
-1.803850613273245
 31
0.0
210
0.0
220
0.0
230
1.0
 40
0.979574
 41
1.000642389219522
 42
3.583522650487945
  0
ELLIPSE
  5
114
330
1F
100
AcDbEntity
  8
1
100
AcDbEllipse
 10
244.537904
 20
237.792965
 30
0.0
 11
24.41524718086409
 21
5.292204294770663
 31
0.0
210
0.0
220
0.0
230
0.9999999999999998
 40
0.578951
 41
6.111045136041308
 42
6.164059854536448
  0
ELLIPSE
  5
115
330
1F
100
AcDbEntity
  8
1
100
AcDbEllipse
 10
264.236983
 20
240.65485
 30
0.0
 11
4.869154593689771
 21
1.055429038327487
 31
0.0
210
0.0
220
0.0
230
1.0
 40
0.578951
 41
6.164059854536447
 42
6.423918790070357
  0
ELLIPSE
  5
116
330
1F
100
AcDbEntity
  8
1
100
AcDbEllipse
 10
265.155152
 20
228.103192
 30
0.0
 11
-3.705513019396882
 21
-11.86640987613361
 31
0.0
210
0.0
220
0.0
230
1.0
 40
0.07565
 41
2.240989402849732
 42
2.672689884503318
  0
ELLIPSE
  5
117
330
1F
100
AcDbEntity
  8
1
100
AcDbEllipse
 10
259.396993
 20
211.875659
 30
0.0
 11
-9.454797462612523
 21
-30.2777244067891
 31
0.0
210
0.0
220
0.0
230
0.9999999999999998
 40
0.07565
 41
2.672689884503746
 42
2.695961096866243
  0
ELLIPSE
  5
118
330
1F
100
AcDbEntity
  8
1
100
AcDbEllipse
 10
259.396993
 20
211.875659
 30
0.0
 11
-9.454797462612523
 21
-30.2777244067891
 31
0.0
210
0.0
220
0.0
230
0.9999999999999998
 40
0.07565
 41
2.847446165992458
 42
2.911407581672742
  0
ELLIPSE
  5
119
330
1F
100
AcDbEntity
  8
1
100
AcDbEllipse
 10
267.202605
 20
235.398311
 30
0.0
 11
-1.868414028313708
 21
-5.983346047418012
 31
0.0
210
0.0
220
0.0
230
1.0
 40
0.07565
 41
2.911407581673703
 42
3.293137312403228
  0
ELLIPSE
  5
11A
330
1F
100
AcDbEntity
  8
1
100
AcDbEllipse
 10
227.817433
 20
239.89761
 30
0.0
 11
-129.3792904614691
 21
-5.871027307559287
 31
0.0
210
0.0
220
0.0
230
1.0
 40
0.072642
 41
1.838232082806518
 42
1.88063621468061
  0
ELLIPSE
  5
11B
330
1F
100
AcDbEntity
  8
1
100
AcDbEllipse
 10
258.090764
 20
240.834692
 30
0.0
 11
-14.43107538347732
 21
-19.31915503355146
 31
0.0
210
0.0
220
0.0
230
1.0
 40
0.091082
 41
1.721871071906993
 42
1.737184490538232
  0
ELLIPSE
  5
11C
330
1F
100
AcDbEntity
  8
1
100
AcDbEllipse
 10
264.720926
 20
251.369334
 30
0.0
 11
1.075231586679697
 21
1.803850613273246
 31
0.0
210
0.0
220
0.0
230
1.0
 40
0.9795739999999998
 41
4.20624492195739
 42
6.283132320117418
  0
ELLIPSE
  5
11D
330
1F
100
AcDbEntity
  8
1
100
AcDbEllipse
 10
264.255734
 20
252.596758
 30
0.0
 11
0.0511532244653635
 21
0.085816652399217
 31
0.0
210
0.0
220
0.0
230
1.0
 40
0.9795739999999998
 41
4.567183110179658
 42
5.416118262590456
  0
ELLIPSE
  5
11E
330
1F
100
AcDbEntity
  8
1
100
AcDbEllipse
 10
264.450119
 20
252.631407
 30
0.0
 11
0.0511532244653636
 21
0.0858166523992171
 31
0.0
210
0.0
220
0.0
230
0.9999999999999998
 40
0.9795739999999998
 41
0.9019916809915528
 42
2.27452560900069
  0
ELLIPSE
  5
11F
330
1F
100
AcDbEntity
  8
1
100
AcDbEllipse
 10
264.606404
 20
252.209041
 30
0.0
 11
0.2846651922511036
 21
0.4775654733185084
 31
0.0
210
0.0
220
0.0
230
1.0
 40
0.9795739999999998
 41
6.265053415001293
 42
7.185176988171152
  0
ELLIPSE
  5
120
330
1F
100
AcDbEntity
  8
1
100
AcDbEllipse
 10
264.846835
 20
252.5965779999999
 30
0.0
 11
0.0511532244653635
 21
0.085816652399217
 31
0.0
210
0.0
220
0.0
230
1.0
 40
0.9795739999999998
 41
4.892519486992184
 42
6.265053415001284
  0
ELLIPSE
  5
121
330
1F
100
AcDbEntity
  8
1
100
AcDbEllipse
 10
265.030572
 20
252.528732
 30
0.0
 11
0.0511532244653635
 21
0.085816652399217
 31
0.0
210
0.0
220
0.0
230
1.0
 40
0.9795739999999998
 41
1.750926833402392
 42
2.599861985813197
  0
ELLIPSE
  5
122
330
1F
100
AcDbEntity
  8
1
100
AcDbEllipse
 10
265.428516
 20
252.746445
 30
0.0
 11
0.2846651922511036
 21
0.4775654733185084
 31
0.0
210
0.0
220
0.0
230
1.0
 40
0.9795739999999998
 41
2.599861985813209
 42
3.519985558983055
  0
ELLIPSE
  5
123
330
1F
100
AcDbEntity
  8
1
100
AcDbEllipse
 10
265.35329
 20
252.297905
 30
0.0
 11
0.0511532244653635
 21
0.085816652399217
 31
0.0
210
0.0
220
0.0
230
1.0
 40
0.9795739999999998
 41
3.519985558983001
 42
4.36892071139383
  0
ELLIPSE
  5
124
330
1F
100
AcDbEntity
  8
1
100
AcDbEllipse
 10
265.477145
 20
252.145744
 30
0.0
 11
0.0511532244653636
 21
0.0858166523992171
 31
0.0
210
0.0
220
0.0
230
0.9999999999999998
 40
0.9795739999999998
 41
6.137979436974545
 42
7.510513364983681
  0
ELLIPSE
  5
125
330
1F
100
AcDbEntity
  8
1
100
AcDbEllipse
 10
265.190564
 20
251.791216
 30
0.0
 11
0.2846651922511036
 21
0.4775654733185084
 31
0.0
210
0.0
220
0.0
230
1.0
 40
0.9795739999999998
 41
5.217855863804702
 42
6.137979436974549
  0
ELLIPSE
  5
126
330
1F
100
AcDbEntity
  8
1
100
AcDbEllipse
 10
265.6393930000001
 20
251.780769
 30
0.0
 11
0.0511532244653635
 21
0.085816652399217
 31
0.0
210
0.0
220
0.0
230
1.0
 40
0.9795739999999998
 41
3.845321935795556
 42
5.217855863804702
  0
ELLIPSE
  5
127
330
1F
100
AcDbEntity
  8
1
100
AcDbEllipse
 10
265.670181
 20
251.585063
 30
0.0
 11
0.0511532244653635
 21
0.085816652399217
 31
0.0
210
0.0
220
0.0
230
1.0
 40
0.9795739999999998
 41
0.7037292822057642
 42
1.552664434616584
  0
ELLIPSE
  5
128
330
1F
100
AcDbEntity
  8
1
100
AcDbEllipse
 10
266.049631
 20
251.349256
 30
0.0
 11
0.2846651922511036
 21
0.4775654733185084
 31
0.0
210
0.0
220
0.0
230
1.0
 40
0.9795739999999998
 41
1.552664434616619
 42
2.47278800778646
  0
ELLIPSE
  5
129
330
1F
100
AcDbEntity
  8
1
100
AcDbEllipse
 10
265.628484
 20
251.183735
 30
0.0
 11
0.0511532244653635
 21
0.085816652399217
 31
0.0
210
0.0
220
0.0
230
1.0
 40
0.9795739999999998
 41
2.47278800778643
 42
3.321723160197266
  0
ELLIPSE
  5
12A
330
1F
100
AcDbEntity
  8
1
100
AcDbEllipse
 10
265.557954
 20
250.996924
 30
0.0
 11
0.0511532244653636
 21
0.0858166523992171
 31
0.0
210
0.0
220
0.0
230
0.9999999999999998
 40
0.9795739999999998
 41
5.090781885778002
 42
6.463315813787083
  0
ELLIPSE
  5
12B
330
1F
100
AcDbEntity
  8
1
100
AcDbEllipse
 10
265.115088
 20
251.064762
 30
0.0
 11
0.2846651922511036
 21
0.4775654733185084
 31
0.0
210
0.0
220
0.0
230
1.0
 40
0.9795739999999998
 41
4.170658312608105
 42
5.09078188577795
  0
ELLIPSE
  5
12C
330
1F
100
AcDbEntity
  8
1
100
AcDbEllipse
 10
265.323486
 20
250.666779
 30
0.0
 11
0.0511532244653635
 21
0.085816652399217
 31
0.0
210
0.0
220
0.0
230
1.0
 40
0.9795739999999998
 41
2.798124384598975
 42
4.170658312608118
  0
ELLIPSE
  5
12D
330
1F
100
AcDbEntity
  8
1
100
AcDbEllipse
 10
265.170537
 20
250.538918
 30
0.0
 11
0.0511532244653635
 21
0.085816652399217
 31
0.0
210
0.0
220
0.0
230
1.0
 40
0.9795739999999998
 41
5.939717038188768
 42
6.788652190599606
  0
ELLIPSE
  5
12E
330
1F
100
AcDbEntity
  8
1
100
AcDbEllipse
 10
265.152043
 20
250.085398
 30
0.0
 11
0.2846651922511036
 21
0.4775654733185084
 31
0.0
210
0.0
220
0.0
230
1.0
 40
0.9795739999999998
 41
0.5054668834200108
 42
1.425590456589856
  0
ELLIPSE
  5
12F
330
1F
100
AcDbEntity
  8
1
100
AcDbEllipse
 10
259.541229
 20
243.731161
 30
0.0
 11
-7.560202097430472
 21
-11.27044573980525
 31
0.0
210
0.0
220
0.0
230
1.0
 40
0.20353
 41
1.393736163906442
 42
1.597430899083529
  0
ELLIPSE
  5
130
330
1F
100
AcDbEntity
  8
1
100
AcDbEllipse
 10
261.348667
 20
243.731155
 30
0.0
 11
-1.799170068007878
 21
-11.37414529966832
 31
0.0
210
0.0
220
0.0
230
1.0
 40
0.076077
 41
1.473775858020306
 42
1.491985793103123
  0
ELLIPSE
  5
131
330
1F
100
AcDbEntity
  8
1
100
AcDbEllipse
 10
312.74613
 20
243.731161
 30
0.0
 11
-106.7812046909534
 21
11.33385780234033
 31
0.0
210
0.0
220
0.0
230
1.0
 40
0.009052
 41
5.207839121033683
 42
5.236019696426658
  0
ELLIPSE
  5
132
330
1F
100
AcDbEntity
  8
1
100
AcDbEllipse
 10
267.338957
 20
243.731161
 30
0.0
 11
-64.86582207075091
 21
-1.226290116191389
 31
0.0
210
0.0
220
0.0
230
0.9999999999999996
 40
0.17434
 41
4.819551484645264
 42
4.995364490784893
  0
ELLIPSE
  5
133
330
1F
100
AcDbEntity
  8
1
100
AcDbEllipse
 10
258.198241
 20
247.977963
 30
0.0
 11
-66.47605920968063
 21
10.69408795086834
 31
0.0
210
0.0
220
0.0
230
1.0
 40
0.063766
 41
1.644577812909759
 42
1.724049586348479
  0
ELLIPSE
  5
134
330
1F
100
AcDbEntity
  8
1
100
AcDbEllipse
 10
227.817432
 20
252.744826
 30
0.0
 11
-129.3799606574611
 21
13.73202072701775
 31
0.0
210
0.0
220
0.0
230
1.0
 40
0.006829
 41
4.399977496644983
 42
4.442381628140394
  0
ELLIPSE
  5
135
330
1F
100
AcDbEntity
  8
1
100
AcDbEllipse
 10
267.338957
 20
243.731161
 30
0.0
 11
-64.86211026675767
 21
10.44271864784644
 31
0.0
210
0.0
220
0.0
230
0.9999999999999998
 40
0.069532
 41
1.27441005574349
 42
1.475860233692086
  0
ELLIPSE
  5
136
330
1F
100
AcDbEntity
  8
1
100
AcDbEllipse
 10
312.746127
 20
243.731161
 30
0.0
 11
-106.7802225856512
 21
-4.86509829569913
 31
0.0
210
0.0
220
0.0
230
1.0
 40
0.096292
 41
1.043739201401735
 42
1.071919777592994
  0
ELLIPSE
  5
137
330
1F
100
AcDbEntity
  8
1
100
AcDbEllipse
 10
284.534773
 20
253.719628
 30
0.0
 11
12.79127655547669
 21
21.45914642481366
 31
0.0
210
0.0
220
0.0
230
1.0
 40
0.9795739999999998
 41
2.111731710669233
 42
2.236238696611783
  0
ELLIPSE
  5
138
330
1F
100
AcDbEntity
  8
1
100
AcDbEllipse
 10
269.864348
 20
251.682752
 30
0.0
 11
5.111050936336009
 21
8.57449918714763
 31
0.0
210
0.0
220
0.0
230
1.0
 40
0.979574
 41
2.236238696611799
 42
2.252567258246088
  0
ELLIPSE
  5
139
330
1F
100
AcDbEntity
  8
1
100
AcDbEllipse
 10
266.392033
 20
231.321006
 30
0.0
 11
12.79127655547669
 21
21.45914642481366
 31
0.0
210
0.0
220
0.0
230
1.0
 40
0.9795739999999998
 41
0.5409353838743379
 42
0.6654423698168867
  0
ELLIPSE
  5
13A
330
1F
100
AcDbEntity
  8
1
100
AcDbEllipse
 10
266.5046
 20
251.213182
 30
0.0
 11
2.550975729955781
 21
4.279616774592284
 31
0.0
210
0.0
220
0.0
230
1.0
 40
0.979574
 41
0.2810764483395264
 42
0.5409353838743392
  0
ELLIPSE
  5
13B
330
1F
100
AcDbEntity
  8
1
100
AcDbEllipse
 10
254.643814
 20
249.325226
 30
0.0
 11
7.671126142716238
 21
12.86938159970298
 31
0.0
210
0.0
220
0.0
230
1.0
 40
0.9795739999999998
 41
5.643945134968392
 42
5.690731609635846
  0
ELLIPSE
  5
13C
330
1F
100
AcDbEntity
  8
1
100
AcDbEllipse
 10
264.720926
 20
251.369334
 30
0.0
 11
-1.152033842871102
 21
-1.932697085649906
 31
0.0
210
0.0
220
0.0
230
1.0
 40
0.9795739999999998
 41
2.747707831388742
 42
4.088382568421686
  0
ELLIPSE
  5
13D
330
1F
100
AcDbEntity
  8
1
100
AcDbEllipse
 10
264.720926
 20
251.369334
 30
0.0
 11
-1.152033842871102
 21
-1.932697085649906
 31
0.0
210
0.0
220
0.0
230
1.0
 40
0.9795739999999998
 41
5.336282229761271
 42
5.978050659324063
  0
ELLIPSE
  5
13E
330
1F
100
AcDbEntity
  8
1
100
AcDbEllipse
 10
259.20833
 20
251.275973
 30
0.0
 11
5.111050936336009
 21
8.57449918714763
 31
0.0
210
0.0
220
0.0
230
1.0
 40
0.979574
 41
5.377831350201593
 42
5.643945134968392
  0
ELLIPSE
  5
13F
330
1F
100
AcDbEntity
  8
1
100
AcDbEllipse
 10
244.537904
 20
249.239096
 30
0.0
 11
12.79127655547669
 21
21.45914642481366
 31
0.0
210
0.0
220
0.0
230
1.0
 40
0.9795739999999998
 41
5.253324364259027
 42
5.377831350201578
  0
ELLIPSE
  5
140
330
1F
100
AcDbEntity
  8
1
100
AcDbEllipse
 10
264.431628
 20
256.857121
 30
0.0
 11
5.111050936336009
 21
8.57449918714763
 31
0.0
210
0.0
220
0.0
230
1.0
 40
0.979574
 41
4.064483509630714
 42
4.073148808173494
  0
ELLIPSE
  5
141
330
1F
100
AcDbEntity
  8
1
100
AcDbEllipse
 10
262.582483
 20
261.432007
 30
0.0
 11
7.671126142716238
 21
12.86938159970298
 31
0.0
210
0.0
220
0.0
230
1.0
 40
0.9795739999999998
 41
4.073148808173495
 42
4.119935282841291
  0
ELLIPSE
  5
142
330
1F
100
AcDbEntity
  8
1
100
AcDbEllipse
 10
264.236983
 20
249.486526
 30
0.0
 11
2.550975729955781
 21
4.279616774592284
 31
0.0
210
0.0
220
0.0
230
1.0
 40
0.979574
 41
4.993465428725119
 42
5.253324364259028
  0
ELLIPSE
  5
143
330
1F
100
AcDbEntity
  8
1
100
AcDbEllipse
 10
262.5710259999999
 20
261.438835
 30
0.0
 11
-7.577822610885482
 21
-12.71285194116383
 31
0.0
210
0.0
220
0.0
230
1.0
 40
0.9795739999999998
 41
0.9315561545837011
 42
0.9789100439706503
  0
ELLIPSE
  5
144
330
1F
100
AcDbEntity
  8
1
100
AcDbEllipse
 10
264.225527
 20
249.493355
 30
0.0
 11
-2.45767219812502
 21
-4.123087116053133
 31
0.0
210
0.0
220
0.0
230
1.0
 40
0.9795739999999998
 41
1.850068386064818
 42
2.111731710669233
  0
ELLIPSE
  5
145
330
1F
100
AcDbEntity
  8
1
100
AcDbEllipse
 10
244.526448
 20
249.245925
 30
0.0
 11
-12.69797302364594
 21
-21.30261676627452
 31
0.0
210
0.0
220
0.0
230
0.9999999999999998
 40
0.9795739999999998
 41
2.111731710669233
 42
2.236238696611783
  0
ELLIPSE
  5
146
330
1F
100
AcDbEntity
  8
1
100
AcDbEllipse
 10
259.196874
 20
251.282801
 30
0.0
 11
-5.01774740450525
 21
-8.417969528608482
 31
0.0
210
0.0
220
0.0
230
0.9999999999999998
 40
0.9795739999999998
 41
2.236238696611799
 42
2.502352481378598
  0
ELLIPSE
  5
147
330
1F
100
AcDbEntity
  8
1
100
AcDbEllipse
 10
254.632358
 20
249.3320549999999
 30
0.0
 11
-7.577822610885482
 21
-12.71285194116383
 31
0.0
210
0.0
220
0.0
230
1.0
 40
0.9795739999999998
 41
2.502352481378598
 42
2.549706370765548
  0
ELLIPSE
  5
148
330
1F
100
AcDbEntity
  8
1
100
AcDbEllipse
 10
267.690212
 20
255.654198
 30
0.0
 11
0.1024030082552091
 21
0.1717952965022138
 31
0.0
210
0.0
220
0.0
230
0.9999999999999998
 40
0.9795739999999998
 41
5.691299024355382
 42
6.562457366449523
  0
ELLIPSE
  5
149
330
1F
100
AcDbEntity
  8
1
100
AcDbEllipse
 10
259.20833
 20
241.088159
 30
0.0
 11
-9.803250156046054
 21
1.881798172546595
 31
0.0
210
0.0
220
0.0
230
1.0
 40
0.4006230000000001
 41
2.833437374807699
 42
3.099551159574498
  0
ELLIPSE
  5
14A
330
1F
100
AcDbEntity
  8
1
100
AcDbEllipse
 10
265.155152
 20
253.221991
 30
0.0
 11
-3.775666049869335
 21
13.09964306207658
 31
0.0
210
0.0
220
0.0
230
1.0
 40
0.040469
 41
2.61816350517958
 42
3.049863986828543
  0
ELLIPSE
  5
14B
330
1F
100
AcDbEntity
  8
1
100
AcDbEllipse
 10
266.5046
 20
239.999672
 30
0.0
 11
-4.892898453617492
 21
0.9392239534757628
 31
0.0
210
0.0
220
0.0
230
0.9999999999999998
 40
0.4006230000000001
 41
1.653261818722167
 42
1.913120754256978
  0
ELLIPSE
  5
14C
330
1F
100
AcDbEntity
  8
1
100
AcDbEllipse
 10
266.392033
 20
248.152305
 30
0.0
 11
-24.53430526333172
 21
4.709520829759092
 31
0.0
210
0.0
220
0.0
230
1.0
 40
0.4006230000000001
 41
1.528754832779618
 42
1.653261818722168
  0
ELLIPSE
  5
14D
330
1F
100
AcDbEntity
  8
1
100
AcDbEllipse
 10
266.490195
 20
243.963414
 30
0.0
 11
-14.7136018584746
 21
2.824372391617428
 31
0.0
210
0.0
220
0.0
230
0.9999999999999998
 40
0.4006230000000001
 41
1.215854573345377
 42
1.262641048012803
  0
ELLIPSE
  5
14E
330
1F
100
AcDbEntity
  8
1
100
AcDbEllipse
 10
254.643814
 20
242.582988
 30
0.0
 11
-14.7136018584746
 21
2.824372391617428
 31
0.0
210
0.0
220
0.0
230
0.9999999999999998
 40
0.4006230000000001
 41
2.786650900140246
 42
2.833437374807699
  0
ELLIPSE
  5
14F
330
1F
100
AcDbEntity
  8
1
100
AcDbEllipse
 10
253.681783
 20
233.413958
 30
0.0
 11
-6.030927444004133
 21
-38.70157554848737
 31
0.0
210
0.0
220
0.0
230
0.9999999999999998
 40
0.344982
 41
1.789087066774848
 42
1.820889902382566
  0
ELLIPSE
  5
150
330
1F
100
AcDbEntity
  8
1
100
AcDbEllipse
 10
258.763459
 20
236.077461
 30
0.0
 11
-3.906869009672714
 21
-25.07110050770252
 31
0.0
210
0.0
220
0.0
230
1.0
 40
0.344982
 41
1.820889900292271
 42
1.854443200003284
  0
ELLIPSE
  5
151
330
1F
100
AcDbEntity
  8
1
100
AcDbEllipse
 10
272.343147
 20
275.180169
 30
0.0
 11
-5.765753628924501
 21
-36.99990788212353
 31
0.0
210
0.0
220
0.0
230
1.0
 40
0.344982
 41
6.043791170148838
 42
6.282508867316438
  0
ELLIPSE
  5
152
330
1F
100
AcDbEntity
  8
1
100
AcDbEllipse
 10
267.709868
 20
245.493101
 30
0.0
 11
-1.139401981528557
 21
-7.31175334057708
 31
0.0
210
0.0
220
0.0
230
0.9999999999999998
 40
0.344982
 41
6.282508867316463
 42
6.729147447215738
  0
ELLIPSE
  5
153
330
1F
100
AcDbEntity
  8
1
100
AcDbEllipse
 10
281.475521
 20
268.371134
 30
0.0
 11
-21.29736943813281
 21
-28.51119340766372
 31
0.0
210
0.0
220
0.0
230
0.9999999999999998
 40
0.091082
 41
6.161445550956026
 42
6.165250169108485
  0
ELLIPSE
  5
154
330
1F
100
AcDbEntity
  8
1
100
AcDbEllipse
 10
264.260375
 20
245.83624
 30
0.0
 11
-4.208689184566082
 21
-5.634252233948972
 31
0.0
210
0.0
220
0.0
230
1.0
 40
0.091082
 41
6.165250169107177
 42
6.513160404672433
  0
ELLIPSE
  5
155
330
1F
100
AcDbEntity
  8
1
100
AcDbEllipse
 10
264.641049
 20
242.374761
 30
0.0
 11
-9.803250156046054
 21
1.881798172546595
 31
0.0
210
0.0
220
0.0
230
1.0
 40
0.4006230000000001
 41
1.262641048012802
 42
1.528754832779604
  0
ELLIPSE
  5
156
330
1F
100
AcDbEntity
  8
1
100
AcDbEllipse
 10
267.096669
 20
253.609646
 30
0.0
 11
-2.259707330903931
 21
-14.50096005919675
 31
0.0
210
0.0
220
0.0
230
0.9999999999999996
 40
0.344982
 41
5.61209068849589
 42
6.043791170147658
  0
ELLIPSE
  5
157
330
1F
100
AcDbEntity
  8
1
100
AcDbEllipse
 10
266.493144
 20
251.220011
 30
0.0
 11
-2.45767219812502
 21
-4.123087116053133
 31
0.0
210
0.0
220
0.0
230
1.0
 40
0.9795739999999998
 41
3.420864712859713
 42
3.682528037464133
  0
ELLIPSE
  5
158
330
1F
100
AcDbEntity
  8
1
100
AcDbEllipse
 10
266.380577
 20
231.327834
 30
0.0
 11
-12.69797302364594
 21
-21.30261676627452
 31
0.0
210
0.0
220
0.0
230
0.9999999999999998
 40
0.9795739999999998
 41
3.68252803746413
 42
3.807035023406678
  0
ELLIPSE
  5
159
330
1F
100
AcDbEntity
  8
1
100
AcDbEllipse
 10
264.629593
 20
246.108433
 30
0.0
 11
-5.01774740450525
 21
-8.417969528608482
 31
0.0
210
0.0
220
0.0
230
0.9999999999999998
 40
0.9795739999999998
 41
3.807035023406693
 42
4.073148808173494
  0
ELLIPSE
  5
15A
330
1F
100
AcDbEntity
  8
1
100
AcDbEllipse
 10
266.478739
 20
241.533547
 30
0.0
 11
-7.577822610885482
 21
-12.71285194116383
 31
0.0
210
0.0
220
0.0
230
1.0
 40
0.9795739999999998
 41
4.073148808173494
 42
4.120502697560443
  0
ELLIPSE
  5
15B
330
1F
100
AcDbEntity
  8
1
100
AcDbEllipse
 10
260.454371
 20
254.607603
 30
0.0
 11
0.1024030082552091
 21
0.1717952965022138
 31
0.0
210
0.0
220
0.0
230
0.9999999999999998
 40
0.9795739999999998
 41
0.9789100439706643
 42
1.85006838606481
  0
ELLIPSE
  5
15C
330
1F
100
AcDbEntity
  8
1
100
AcDbEllipse
 10
264.824238
 20
253.479027
 30
0.0
 11
-2.45767219812502
 21
-4.123087116053133
 31
0.0
210
0.0
220
0.0
230
1.0
 40
0.9795739999999998
 41
4.991661039654609
 42
5.253324364259026
  0
ELLIPSE
  5
15D
330
1F
100
AcDbEntity
  8
1
100
AcDbEllipse
 10
284.523317
 20
253.726457
 30
0.0
 11
-12.69797302364594
 21
-21.30261676627452
 31
0.0
210
0.0
220
0.0
230
0.9999999999999998
 40
0.9795739999999998
 41
5.253324364259027
 42
5.377831350201575
  0
ELLIPSE
  5
15E
330
1F
100
AcDbEntity
  8
1
100
AcDbEllipse
 10
269.852891
 20
251.689581
 30
0.0
 11
-5.01774740450525
 21
-8.417969528608482
 31
0.0
210
0.0
220
0.0
230
0.9999999999999998
 40
0.9795739999999998
 41
5.37783135020159
 42
5.399565411838673
  0
ELLIPSE
  5
15F
330
1F
100
AcDbEntity
  8
1
100
AcDbEllipse
 10
264.524883
 20
251.486191
 30
0.0
 11
-1.20287674861248
 21
-2.017993135206436
 31
0.0
210
0.0
220
0.0
230
1.0
 40
0.9795739999999998
 41
3.682528036568602
 42
5.991893191910471
  0
ELLIPSE
  5
160
330
1F
100
AcDbEntity
  8
1
100
AcDbEllipse
 10
264.524883
 20
251.486191
 30
0.0
 11
-1.20287674861248
 21
-2.017993135206436
 31
0.0
210
0.0
220
0.0
230
1.0
 40
0.9795739999999998
 41
1.135383560023926
 42
3.682528036568602
  0
ELLIPSE
  5
161
330
1F
100
AcDbEntity
  8
1
100
AcDbEllipse
 10
268.595394
 20
248.364779
 30
0.0
 11
0.1024030082552091
 21
0.1717952965022138
 31
0.0
210
0.0
220
0.0
230
0.9999999999999998
 40
0.9795739999999998
 41
4.120502697560423
 42
4.991661039654601
  0
ELLIPSE
  5
162
330
1F
100
AcDbEntity
  8
1
100
AcDbEllipse
 10
264.236983
 20
241.052108
 30
0.0
 11
-4.892898453617492
 21
0.9392239534757628
 31
0.0
210
0.0
220
0.0
230
0.9999999999999998
 40
0.4006230000000001
 41
3.224058145517063
 42
3.259025517128776
  0
ELLIPSE
  5
163
330
1F
100
AcDbEntity
  8
1
100
AcDbEllipse
 10
244.537904
 20
244.161423
 30
0.0
 11
-24.53430526333172
 21
4.709520829759092
 31
0.0
210
0.0
220
0.0
230
1.0
 40
0.4006230000000001
 41
3.099551159574513
 42
3.224058145517063
  0
ELLIPSE
  5
164
330
1F
100
AcDbEntity
  8
1
100
AcDbEllipse
 10
284.534773
 20
236.22132
 30
0.0
 11
-24.53430526333172
 21
4.709520829759092
 31
0.0
210
0.0
220
0.0
230
1.0
 40
0.4006230000000001
 41
0.0611300432186912
 42
0.0824654919272714
  0
ELLIPSE
  5
165
330
1F
100
AcDbEntity
  8
1
100
AcDbEllipse
 10
264.8356950000001
 20
239.330634
 30
0.0
 11
-4.892898453617492
 21
0.9392239534757628
 31
0.0
210
0.0
220
0.0
230
0.9999999999999998
 40
0.4006230000000001
 41
0.0824654919272716
 42
0.342324427462539
  0
ELLIPSE
  5
166
330
1F
100
AcDbEntity
  8
1
100
AcDbEllipse
 10
259.396993
 20
273.482995
 30
0.0
 11
-9.633796346541354
 21
33.42437911761563
 31
0.0
210
0.0
220
0.0
230
0.9999999999999998
 40
0.040469
 41
3.049863986829261
 42
3.288581683994781
  0
ELLIPSE
  5
167
330
1F
100
AcDbEntity
  8
1
100
AcDbEllipse
 10
267.202605
 20
246.998809
 30
0.0
 11
-1.90378697269518
 21
6.605173624773388
 31
0.0
210
0.0
220
0.0
230
1.0
 40
0.040469
 41
3.288581683998153
 42
3.735220263896455
  0
ELLIPSE
  5
168
330
1F
100
AcDbEntity
  8
1
100
AcDbEllipse
 10
270.938116
 20
229.649498
 30
0.0
 11
-10.07686537916278
 21
34.96160365469857
 31
0.0
210
0.0
220
0.0
230
1.0
 40
0.040469
 41
5.078345187190131
 42
5.11014802333696
  0
ELLIPSE
  5
169
330
1F
100
AcDbEntity
  8
1
100
AcDbEllipse
 10
270.022794
 20
234.551491
 30
0.0
 11
-6.527853423640847
 21
22.64833611610113
 31
0.0
210
0.0
220
0.0
230
1.0
 40
0.040469
 41
5.110148174655606
 42
5.143701461406176
  0
ELLIPSE
  5
16A
330
1F
100
AcDbEntity
  8
1
100
AcDbEllipse
 10
266.490195
 20
241.526718
 30
0.0
 11
7.671126142716238
 21
12.86938159970298
 31
0.0
210
0.0
220
0.0
230
1.0
 40
0.9795739999999998
 41
0.931556154583702
 42
0.9783426292511276
  0
ELLIPSE
  5
16B
330
1F
100
AcDbEntity
  8
1
100
AcDbEllipse
 10
264.8356950000001
 20
253.472199
 30
0.0
 11
2.550975729955781
 21
4.279616774592284
 31
0.0
210
0.0
220
0.0
230
1.0
 40
0.979574
 41
1.851872775133966
 42
2.111731710669233
  0
ELLIPSE
  5
16C
330
1F
100
AcDbEntity
  8
1
100
AcDbEllipse
 10
264.641049
 20
246.101604
 30
0.0
 11
5.111050936336009
 21
8.57449918714763
 31
0.0
210
0.0
220
0.0
230
1.0
 40
0.979574
 41
0.6654423698169013
 42
0.9315561545837015
  0
SPLINE
  5
185
330
1F
100
AcDbEntity
  8
1
100
AcDbSpline
210
0.0
220
0.0
230
1.0
 70
     8
 71
     3
 72
     8
 73
     4
 74
     0
 42
0.000000001
 43
0.0000000001
 40
0.0
 40
0.0
 40
0.0
 40
0.0
 40
1.0
 40
1.0
 40
1.0
 40
1.0
 10
268.7569649642385
 20
242.216551022912
 30
0.0
 10
268.7595000514189
 20
242.2162137372751
 30
0.0
 10
268.7620222531156
 20
242.2158678831285
 30
0.0
 10
268.7645308029829
 20
242.215513591323
 30
0.0
  0
SPLINE
  5
186
330
1F
100
AcDbEntity
  8
1
100
AcDbSpline
210
0.0
220
0.0
230
1.0
 70
     8
 71
     3
 72
    10
 73
     6
 74
     0
 42
0.000000001
 43
0.0000000001
 40
0.0
 40
0.0
 40
0.0
 40
0.0
 40
0.3589002492314217
 40
0.7135909133555857
 40
1.0
 40
1.0
 40
1.0
 40
1.0
 10
268.9722877496574
 20
242.0952636588096
 30
0.0
 10
268.968821569849
 20
242.0254723109911
 30
0.0
 10
268.9619298654808
 20
241.8867082066452
 30
0.0
 10
268.9520589029451
 20
241.6922441414152
 30
0.0
 10
268.9456454999192
 20
241.567571423747
 30
0.0
 10
268.9427555706261
 20
241.5118738045136
 30
0.0
  0
SPLINE
  5
187
330
1F
100
AcDbEntity
  8
1
100
AcDbSpline
210
0.0
220
0.0
230
1.0
 70
     8
 71
     3
 72
     8
 73
     4
 74
     0
 42
0.000000001
 43
0.0000000001
 40
0.0
 40
0.0
 40
0.0
 40
0.0
 40
1.0
 40
1.0
 40
1.0
 40
1.0
 10
268.9698751984307
 20
242.1000304647638
 30
0.0
 10
268.9707121993979
 20
242.0984425735696
 30
0.0
 10
268.9715183560828
 20
242.0968534574816
 30
0.0
 10
268.9722933052213
 20
242.0952636775741
 30
0.0
  0
SPLINE
  5
188
330
1F
100
AcDbEntity
  8
1
100
AcDbSpline
210
0.0
220
0.0
230
1.0
 70
     8
 71
     3
 72
    18
 73
    14
 74
     0
 42
0.000000001
 43
0.0000000001
 40
0.0
 40
0.0
 40
0.0
 40
0.0
 40
0.2499999999999746
 40
0.2499999999999746
 40
0.3749999999999796
 40
0.3749999999999796
 40
0.4999999999999847
 40
0.4999999999999847
 40
0.7499999999999946
 40
0.7499999999999946
 40
0.8749999999999971
 40
0.8749999999999971
 40
1.0
 40
1.0
 40
1.0
 40
1.0
 10
268.9698751984307
 20
242.1000304647638
 30
0.0
 10
268.9620842878933
 20
242.1148107562111
 30
0.0
 10
268.9517052350409
 20
242.1284253475405
 30
0.0
 10
268.9324019848156
 20
242.1471669618028
 30
0.0
 10
268.925340039781
 20
242.153131820545
 30
0.0
 10
268.9099240830654
 20
242.1644803678898
 30
0.0
 10
268.9015901805881
 20
242.1698391746767
 30
0.0
 10
268.8752285727634
 20
242.1846756450316
 30
0.0
 10
268.8556893654444
 20
242.1930545396978
 30
0.0
 10
268.8234091337148
 20
242.2033355751246
 30
0.0
 10
268.8121101301577
 20
242.2063838310973
 30
0.0
 10
268.7888614109644
 20
242.2115937957733
 30
0.0
 10
268.7768773125707
 20
242.2137698479632
 30
0.0
 10
268.764530802983
 20
242.2155135913229
 30
0.0
  0
SPLINE
  5
189
330
1F
100
AcDbEntity
  8
1
100
AcDbSpline
210
0.0
220
0.0
230
1.0
 70
     8
 71
     3
 72
     8
 73
     4
 74
     0
 42
0.000000001
 43
0.0000000001
 40
0.0
 40
0.0
 40
0.0
 40
0.0
 40
1.0
 40
1.0
 40
1.0
 40
1.0
 10
268.7561768100609
 20
242.202561783092
 30
0.0
 10
268.7564392595385
 20
242.2072247358904
 30
0.0
 10
268.7567016975078
 20
242.2118876901314
 30
0.0
 10
268.7569641354769
 20
242.2165506443725
 30
0.0
  0
SPLINE
  5
18A
330
1F
100
AcDbEntity
  8
1
100
AcDbSpline
210
0.0
220
0.0
230
1.0
 70
     8
 71
     3
 72
    24
 73
    20
 74
     0
 42
0.000000001
 43
0.0000000001
 40
0.0
 40
0.0
 40
0.0
 40
0.0
 40
0.0656172150469429
 40
0.0656172150469429
 40
0.2330092606572559
 40
0.2330092606572559
 40
0.3167052834624123
 40
0.3167052834624123
 40
0.4004013062675686
 40
0.4004013062675686
 40
0.5677933518778819
 40
0.5677933518778819
 40
0.7351853974881948
 40
0.7351853974881948
 40
0.8188814202933512
 40
0.8188814202933512
 40
0.9025774430985078
 40
0.9025774430985078
 40
1.0
 40
1.0
 40
1.0
 40
1.0
 10
266.430333939554
 20
232.6488811089838
 30
0.0
 10
266.4133879526086
 20
232.6476975313806
 30
0.0
 10
266.3962898675258
 20
232.6465114292204
 30
0.0
 10
266.335041297962
 20
232.6422801195178
 30
0.0
 10
266.2900674861587
 20
232.6392039538311
 30
0.0
 10
266.2211485677401
 20
232.6344790012514
 30
0.0
 10
266.1979318731974
 20
232.6328857869044
 30
0.0
 10
266.15100268989
 20
232.629656039881
 30
0.0
 10
266.1271961209345
 20
232.6280129574061
 30
0.0
 10
266.0560520423069
 20
232.6230831442851
 30
0.0
 10
266.0088122275878
 20
232.6197827139664
 30
0.0
 10
265.9146915884178
 20
232.6131535825828
 30
0.0
 10
265.867810854717
 20
232.6098249665486
 30
0.0
 10
265.7977548383585
 20
232.6048361007814
 30
0.0
 10
265.7745336213209
 20
232.6031802614991
 30
0.0
 10
265.7287968155853
 20
232.5999216993488
 30
0.0
 10
265.7062116031723
 20
232.5983140227196
 30
0.0
 10
265.6579248026826
 20
232.5948891069092
 30
0.0
 10
265.6323187173128
 20
232.5930804828441
 30
0.0
 10
265.6070686734519
 20
232.5913127002567
 30
0.0
  0
SPLINE
  5
18B
330
1F
100
AcDbEntity
  8
1
100
AcDbSpline
210
0.0
220
0.0
230
1.0
 70
     8
 71
     3
 72
     8
 73
     4
 74
     0
 42
0.000000001
 43
0.0000000001
 40
0.0
 40
0.0
 40
0.0
 40
0.0
 40
1.0
 40
1.0
 40
1.0
 40
1.0
 10
262.0696444375336
 20
232.3745888192231
 30
0.0
 10
262.1858247605724
 20
232.3737888030946
 30
0.0
 10
262.3020853781782
 20
232.377176296392
 30
0.0
 10
262.4184268062542
 20
232.3847782044198
 30
0.0
  0
SPLINE
  5
18C
330
1F
100
AcDbEntity
  8
1
100
AcDbSpline
210
0.0
220
0.0
230
1.0
 70
     8
 71
     3
 72
    29
 73
    25
 74
     0
 42
0.000000001
 43
0.0000000001
 40
0.0
 40
0.0
 40
0.0
 40
0.0
 40
0.1250000000000011
 40
0.1250000000000011
 40
0.1875000000000016
 40
0.1875000000000016
 40
0.2500000000000022
 40
0.2500000000000022
 40
0.3750000000000031
 40
0.3750000000000031
 40
0.4375000000000031
 40
0.4375000000000031
 40
0.5000000000000029
 40
0.5000000000000029
 40
0.6250000000000026
 40
0.6250000000000026
 40
0.6875
 40
0.6875
 40
0.7499999999999972
 40
0.8124999999999944
 40
0.8124999999999944
 40
0.8749999999999918
 40
0.8749999999999918
 40
1.0
 40
1.0
 40
1.0
 40
1.0
 10
268.0442482849923
 20
233.1390524918232
 30
0.0
 10
268.0442482849924
 20
233.1155013041876
 30
0.0
 10
268.0422419433414
 20
233.0918801070189
 30
0.0
 10
268.0360003034055
 20
233.0563355290111
 30
0.0
 10
268.0333716105811
 20
233.044474147997
 30
0.0
 10
268.0271080136187
 20
233.021185563639
 30
0.0
 10
268.0234642787386
 20
233.0096987615164
 30
0.0
 10
268.0109878419024
 20
232.9757137241716
 30
0.0
 10
268.0006246359851
 20
232.9536863270374
 30
0.0
 10
267.9817364012915
 20
232.9216737894184
 30
0.0
 10
267.9748329708458
 20
232.9111165678786
 30
0.0
 10
267.9601205619139
 20
232.890787993541
 30
0.0
 10
267.9523057202235
 20
232.8809916291987
 30
0.0
 10
267.9274829773032
 20
232.852708154686
 30
0.0
 10
267.9091110682815
 20
232.8353152635962
 30
0.0
 10
267.8785783317558
 20
232.8116123963144
 30
0.0
 10
267.8678438017913
 20
232.8040835741889
 30
0.0
 10
267.8458789874418
 20
232.7902401775916
 30
0.0
 10
267.823316380078
 20
232.7775169027711
 30
0.0
 10
267.7995652916728
 20
232.76702055845
 30
0.0
 10
267.7752063257939
 20
232.7576632317818
 30
0.0
 10
267.7626849111984
 20
232.7535436648631
 30
0.0
 10
267.7244096832558
 20
232.7430522170813
 30
0.0
 10
267.6984836013746
 20
232.738658760471
 30
0.0
 10
267.6721508744914
 20
232.7368495069563
 30
0.0
  0
SPLINE
  5
18D
330
1F
100
AcDbEntity
  8
1
100
AcDbSpline
210
0.0
220
0.0
230
1.0
 70
     8
 71
     3
 72
    10
 73
     6
 74
     0
 42
0.000000001
 43
0.0000000001
 40
0.0
 40
0.0
 40
0.0
 40
0.0
 40
0.4856959332114589
 40
0.4856959332114589
 40
1.0
 40
1.0
 40
1.0
 40
1.0
 10
250.9939644365366
 20
252.8504232811837
 30
0.0
 10
250.5527111597864
 20
253.1278267534624
 30
0.0
 10
250.1214573634845
 20
253.4210673204476
 30
0.0
 10
249.2537762944278
 20
254.0573055897806
 30
0.0
 10
248.8185420772703
 20
254.4022167712182
 30
0.0
 10
248.3942482849884
 20
254.7650456093888
 30
0.0
  0
SPLINE
  5
18E
330
1F
100
AcDbEntity
  8
1
100
AcDbSpline
210
0.0
220
0.0
230
1.0
 70
     8
 71
     3
 72
    21
 73
    17
 74
     0
 42
0.000000001
 43
0.0000000001
 40
0.0
 40
0.0
 40
0.0
 40
0.0
 40
0.2500000000000319
 40
0.2500000000000319
 40
0.3125000000000361
 40
0.3125000000000361
 40
0.3750000000000403
 40
0.3750000000000403
 40
0.500000000000039
 40
0.6250000000000375
 40
0.6250000000000375
 40
0.6875000000000339
 40
0.6875000000000339
 40
0.7500000000000302
 40
0.7500000000000302
 40
1.0
 40
1.0
 40
1.0
 40
1.0
 10
263.6507965263382
 20
251.8377230604234
 30
0.0
 10
263.6571684786561
 20
251.8802971215929
 30
0.0
 10
263.6683767255849
 20
251.9214826149642
 30
0.0
 10
263.6884183331402
 20
251.9712315099958
 30
0.0
 10
263.6927431429517
 20
251.98111359895
 30
0.0
 10
263.7019089030391
 20
252.0004797993415
 30
0.0
 10
263.7067581475748
 20
252.0099880747537
 30
0.0
 10
263.722090264507
 20
252.0379980593204
 30
0.0
 10
263.7446196783402
 20
252.073975134483
 30
0.0
 10
263.7712932445869
 20
252.107232028718
 30
0.0
 10
263.7929046732104
 20
252.1311204065722
 30
0.0
 10
263.8003646479036
 20
252.1388898983661
 30
0.0
 10
263.8156242131461
 20
252.1538745024667
 30
0.0
 10
263.8234462738739
 20
252.1611150069417
 30
0.0
 10
263.8635009366262
 20
252.1960809060336
 30
0.0
 10
263.8985291293283
 20
252.22014544166
 30
0.0
 10
263.9366277745528
 20
252.2401905448636
 30
0.0
  0
SPLINE
  5
18F
330
1F
100
AcDbEntity
  8
1
100
AcDbSpline
210
0.0
220
0.0
230
1.0
 70
     8
 71
     3
 72
    18
 73
    14
 74
     0
 42
0.000000001
 43
0.0000000001
 40
0.0
 40
0.0
 40
0.0
 40
0.0
 40
0.0928461304207171
 40
0.0928461304207171
 40
0.2742769043365736
 40
0.2742769043365736
 40
0.4557076782524302
 40
0.4557076782524302
 40
0.6371384521682869
 40
0.6371384521682869
 40
0.8185692260841433
 40
0.8185692260841433
 40
1.0
 40
1.0
 40
1.0
 40
1.0
 10
263.6820610750508
 20
251.7490221061092
 30
0.0
 10
263.6798787869424
 20
251.7511160266818
 30
0.0
 10
263.6777843569787
 20
251.7532991569764
 30
0.0
 10
263.6719151934119
 20
251.7599577508926
 30
0.0
 10
263.6684018885062
 20
251.7646639200839
 30
0.0
 10
263.6621465457205
 20
251.7747056002008
 30
0.0
 10
263.6594267921124
 20
251.7800253644293
 30
0.0
 10
263.6549836839361
 20
251.7909323741972
 30
0.0
 10
263.6532308315086
 20
251.7965629999908
 30
0.0
 10
263.6507172012979
 20
251.80819857612
 30
0.0
 10
263.6499831601957
 20
251.8141151011255
 30
0.0
 10
263.649584397124
 20
251.8258989685491
 30
0.0
 10
263.649910644016
 20
251.8318040569065
 30
0.0
 10
263.6507965263382
 20
251.8377230604234
 30
0.0
  0
SPLINE
  5
190
330
1F
100
AcDbEntity
  8
1
100
AcDbSpline
210
0.0
220
0.0
230
1.0
 70
     8
 71
     3
 72
    14
 73
    10
 74
     0
 42
0.000000001
 43
0.0000000001
 40
0.0
 40
0.0
 40
0.0
 40
0.0
 40
0.3095494225783731
 40
0.3095494225783731
 40
0.6190988451567465
 40
0.6190988451567465
 40
0.9286482677351198
 40
0.9286482677351198
 40
1.0
 40
1.0
 40
1.0
 40
1.0
 10
263.9366277745528
 20
252.2401905448636
 30
0.0
 10
263.9419306352773
 20
252.2429805755818
 30
0.0
 10
263.9474132932723
 20
252.2452419469909
 30
0.0
 10
263.9587188024723
 20
252.2487642679626
 30
0.0
 10
263.9646016731738
 20
252.2500298173805
 30
0.0
 10
263.9763923863926
 20
252.2514907793711
 30
0.0
 10
263.9822807458234
 20
252.2516969518474
 30
0.0
 10
263.9895179679943
 20
252.2513377028002
 30
0.0
 10
263.9908760900725
 20
252.2512432309774
 30
0.0
 10
263.9922343725758
 20
252.2511219084868
 30
0.0
  0
SPLINE
  5
191
330
1F
100
AcDbEntity
  8
1
100
AcDbSpline
210
0.0
220
0.0
230
1.0
 70
     8
 71
     3
 72
    14
 73
    10
 74
     0
 42
0.000000001
 43
0.0000000001
 40
0.0
 40
0.0
 40
0.0
 40
0.0
 40
0.0468007106346381
 40
0.0468007106346381
 40
0.3645338070897587
 40
0.3645338070897587
 40
0.6822669035448794
 40
0.6822669035448794
 40
1.0
 40
1.0
 40
1.0
 40
1.0
 10
263.7358465478528
 20
251.7174497399972
 30
0.0
 10
263.7367796793918
 20
251.7168940487816
 30
0.0
 10
263.737704167751
 20
251.7163248443559
 30
0.0
 10
263.7448339944427
 20
251.7117880903295
 30
0.0
 10
263.7505892445565
 20
251.707261403127
 30
0.0
 10
263.7611719225995
 20
251.6970497380359
 30
0.0
 10
263.7660054037135
 20
251.691324978982
 30
0.0
 10
263.7742596981241
 20
251.6791663251275
 30
0.0
 10
263.7777467037041
 20
251.6726811538054
 30
0.0
 10
263.7805376065422
 20
251.6657537045926
 30
0.0
  0
SPLINE
  5
192
330
1F
100
AcDbEntity
  8
1
100
AcDbSpline
210
0.0
220
0.0
230
1.0
 70
     8
 71
     3
 72
    12
 73
     8
 74
     0
 42
0.000000001
 43
0.0000000001
 40
0.0
 40
0.0
 40
0.0
 40
0.0
 40
0.423394644231511
 40
0.423394644231511
 40
0.8467892884630218
 40
0.8467892884630218
 40
1.0
 40
1.0
 40
1.0
 40
1.0
 10
264.142176615103
 20
252.1749630473781
 30
0.0
 10
264.1347021592647
 20
252.1753044036278
 30
0.0
 10
264.1272669708153
 20
252.1764731433485
 30
0.0
 10
264.1129980503727
 20
252.1802624620883
 30
0.0
 10
264.1061417168529
 20
252.1828698065711
 30
0.0
 10
264.0971702700008
 20
252.1873609219511
 30
0.0
 10
264.0948237796159
 20
252.1886468678324
 30
0.0
 10
264.0925271408954
 20
252.1900159897663
 30
0.0
  0
SPLINE
  5
193
330
1F
100
AcDbEntity
  8
1
100
AcDbSpline
210
0.0
220
0.0
230
1.0
 70
     8
 71
     3
 72
    20
 73
    16
 74
     0
 42
0.000000001
 43
0.0000000001
 40
0.0
 40
0.0
 40
0.0
 40
0.0
 40
0.125000000000009
 40
0.125000000000009
 40
0.2500000000000178
 40
0.2500000000000178
 40
0.3750000000000269
 40
0.3750000000000269
 40
0.5000000000000357
 40
0.5000000000000357
 40
0.6250000000000446
 40
0.6250000000000446
 40
0.7500000000000537
 40
0.7500000000000537
 40
1.0
 40
1.0
 40
1.0
 40
1.0
 10
263.5680515693443
 20
251.0413060403198
 30
0.0
 10
263.5683907329017
 20
251.0471810141432
 30
0.0
 10
263.5692753565241
 20
251.0529242090023
 30
0.0
 10
263.5720768649725
 20
251.0641602794916
 30
0.0
 10
263.5740208127314
 20
251.0697053709141
 30
0.0
 10
263.5788370789021
 20
251.0802434508033
 30
0.0
 10
263.5816907859388
 20
251.0852276310859
 30
0.0
 10
263.5882449495216
 20
251.0946529024203
 30
0.0
 10
263.5919842058714
 20
251.0991305329837
 30
0.0
 10
263.6001481079317
 20
251.1073338055395
 30
0.0
 10
263.6045359707286
 20
251.1110377279322
 30
0.0
 10
263.6138911375449
 20
251.1176900076316
 30
0.0
 10
263.6188849067772
 20
251.1206507302591
 30
0.0
 10
263.6345899621257
 20
251.128278302759
 30
0.0
 10
263.6456519050058
 20
251.1315754768442
 30
0.0
 10
263.6572974667775
 20
251.1331039515153
 30
0.0
  0
SPLINE
  5
194
330
1F
100
AcDbEntity
  8
1
100
AcDbSpline
210
0.0
220
0.0
230
1.0
 70
     8
 71
     3
 72
    14
 73
    10
 74
     0
 42
0.000000001
 43
0.0000000001
 40
0.0
 40
0.0
 40
0.0
 40
0.0
 40
0.25
 40
0.25
 40
0.5
 40
0.5
 40
0.75
 40
0.75
 40
1.0
 40
1.0
 40
1.0
 40
1.0
 10
263.7297069655671
 20
251.1765107454321
 30
0.0
 10
263.7255673940065
 20
251.1704836033136
 30
0.0
 10
263.7207393957041
 20
251.1649387660219
 30
0.0
 10
263.7101505239831
 20
251.1551356725512
 30
0.0
 10
263.7043885700988
 20
251.1508506754234
 30
0.0
 10
263.6919576089109
 20
251.1434718703732
 30
0.0
 10
263.6852842747054
 20
251.1404014950377
 30
0.0
 10
263.6716316262899
 20
251.1357192434022
 30
0.0
 10
263.6645806266606
 20
251.1340598629282
 30
0.0
 10
263.6572974667775
 20
251.1331039515153
 30
0.0
  0
SPLINE
  5
195
330
1F
100
AcDbEntity
  8
1
100
AcDbSpline
210
0.0
220
0.0
230
1.0
 70
     8
 71
     3
 72
    21
 73
    17
 74
     0
 42
0.000000001
 43
0.0000000001
 40
0.0
 40
0.0
 40
0.0
 40
0.0
 40
0.2500000000000012
 40
0.2500000000000012
 40
0.3125000000000047
 40
0.3125000000000047
 40
0.3750000000000082
 40
0.3750000000000082
 40
0.5000000000000103
 40
0.6250000000000123
 40
0.6250000000000123
 40
0.6875000000000109
 40
0.6875000000000109
 40
0.7500000000000097
 40
0.7500000000000097
 40
1.0
 40
1.0
 40
1.0
 40
1.0
 10
263.7805376065422
 20
251.6657537045926
 30
0.0
 10
263.7967306525749
 20
251.6255600789098
 30
0.0
 10
263.8080399793226
 20
251.5842358644705
 30
0.0
 10
263.8158728802829
 20
251.5311105185496
 30
0.0
 10
263.8171202124549
 20
251.5204110105728
 30
0.0
 10
263.8189542214088
 20
251.4988577461101
 30
0.0
 10
263.8195391686543
 20
251.4879776862867
 30
0.0
 10
263.8202605985089
 20
251.4555885557233
 30
0.0
 10
263.8185108816847
 20
251.4127839145311
 30
0.0
 10
263.8114519695766
 20
251.3707289458266
 30
0.0
 10
263.8041348266246
 20
251.339471860942
 30
0.0
 10
263.801346143117
 20
251.3290633191612
 30
0.0
 10
263.795138646855
 20
251.3085370241938
 30
0.0
 10
263.7917286797589
 20
251.2984380433512
 30
0.0
 10
263.7732006019362
 20
251.2487311062799
 30
0.0
 10
263.7537084035441
 20
251.211456409643
 30
0.0
 10
263.7297069655671
 20
251.1765107454321
 30
0.0
  0
SPLINE
  5
196
330
1F
100
AcDbEntity
  8
1
100
AcDbSpline
210
0.0
220
0.0
230
1.0
 70
     8
 71
     3
 72
    22
 73
    18
 74
     0
 42
0.000000001
 43
0.0000000001
 40
0.0
 40
0.0
 40
0.0
 40
0.0
 40
0.125
 40
0.125
 40
0.25
 40
0.25
 40
0.375
 40
0.375
 40
0.5
 40
0.5
 40
0.625
 40
0.625
 40
0.75
 40
0.75
 40
0.875
 40
0.875
 40
1.0
 40
1.0
 40
1.0
 40
1.0
 10
264.6031546082145
 20
252.4649273498736
 30
0.0
 10
264.601935725625
 20
252.4706407097117
 30
0.0
 10
264.6011842805564
 20
252.4764164976425
 30
0.0
 10
264.6006137514923
 20
252.4878892617751
 30
0.0
 10
264.6007878771512
 20
252.4936137886146
 30
0.0
 10
264.6020811145852
 20
252.5050376796319
 30
0.0
 10
264.6032106744008
 20
252.5107330450659
 30
0.0
 10
264.606366140364
 20
252.52170295914
 30
0.0
 10
264.6083951368265
 20
252.5270284266444
 30
0.0
 10
264.6133942010862
 20
252.5373450360409
 30
0.0
 10
264.6163634169722
 20
252.5423099380919
 30
0.0
 10
264.6230614073372
 20
252.5515330000651
 30
0.0
 10
264.6268104751262
 20
252.555837914902
 30
0.0
 10
264.6351536444723
 20
252.563797858984
 30
0.0
 10
264.6396890076668
 20
252.567386407049
 30
0.0
 10
264.6492920343301
 20
252.5736349090759
 30
0.0
 10
264.6543864922746
 20
252.5763216279006
 30
0.0
 10
264.6597923293701
 20
252.578542294554
 30
0.0
  0
SPLINE
  5
197
330
1F
100
AcDbEntity
  8
1
100
AcDbSpline
210
0.0
220
0.0
230
1.0
 70
     8
 71
     3
 72
    21
 73
    17
 74
     0
 42
0.000000001
 43
0.0000000001
 40
0.0
 40
0.0
 40
0.0
 40
0.0
 40
0.2500000000000037
 40
0.2500000000000037
 40
0.312500000000002
 40
0.312500000000002
 40
0.3750000000000004
 40
0.3750000000000004
 40
0.4999999999999807
 40
0.6249999999999609
 40
0.6249999999999609
 40
0.6874999999999605
 40
0.6874999999999605
 40
0.74999999999996
 40
0.74999999999996
 40
1.0
 40
1.0
 40
1.0
 40
1.0
 10
264.5864202184263
 20
252.3828142196624
 30
0.0
 10
264.5615277771954
 20
252.3489142775151
 30
0.0
 10
264.5329513111142
 20
252.3185036723333
 30
0.0
 10
264.4923834655169
 20
252.2849417367738
 30
0.0
 10
264.4840245133605
 20
252.278454841407
 30
0.0
 10
264.466797062133
 20
252.2659466881072
 30
0.0
 10
264.4579053353833
 20
252.2599134862737
 30
0.0
 10
264.4308489838472
 20
252.2427924745963
 30
0.0
 10
264.3935370785645
 20
252.2223899135516
 30
0.0
 10
264.3537992026014
 20
252.2067339167188
 30
0.0
 10
264.3230730902968
 20
252.1968014464945
 30
0.0
 10
264.3126388390784
 20
252.1937836879034
 30
0.0
 10
264.2916562375175
 20
252.1884159057942
 30
0.0
 10
264.2811287060973
 20
252.1860681305155
 30
0.0
 10
264.2283161157416
 20
252.175951697366
 30
0.0
 10
264.1855134446952
 20
252.1729838668276
 30
0.0
 10
264.142176615103
 20
252.1749630473781
 30
0.0
  0
SPLINE
  5
198
330
1F
100
AcDbEntity
  8
1
100
AcDbSpline
210
0.0
220
0.0
230
1.0
 70
     8
 71
     3
 72
    14
 73
    10
 74
     0
 42
0.000000001
 43
0.0000000001
 40
0.0
 40
0.0
 40
0.0
 40
0.0
 40
0.25
 40
0.25
 40
0.5
 40
0.5
 40
0.75
 40
0.75
 40
1.0
 40
1.0
 40
1.0
 40
1.0
 10
264.6031546082142
 20
252.4649273498728
 30
0.0
 10
264.6046794421621
 20
252.4577798812718
 30
0.0
 10
264.6054780798206
 20
252.4505105774275
 30
0.0
 10
264.6055983557656
 20
252.436064610981
 30
0.0
 10
264.6049309671519
 20
252.4289401625
 30
0.0
 10
264.602123363052
 20
252.4148885467687
 30
0.0
 10
264.5999530369951
 20
252.407935910222
 30
0.0
 10
264.5942500191441
 20
252.3948607695565
 30
0.0
 10
264.590710379449
 20
252.3886568049325
 30
0.0
 10
264.5864202184263
 20
252.3828142196624
 30
0.0
  0
SPLINE
  5
199
330
1F
100
AcDbEntity
  8
1
100
AcDbSpline
210
0.0
220
0.0
230
1.0
 70
     8
 71
     3
 72
    15
 73
    11
 74
     0
 42
0.000000001
 43
0.0000000001
 40
0.0
 40
0.0
 40
0.0
 40
0.0
 40
0.1990579672988435
 40
0.3992934754741352
 40
0.3992934754741352
 40
0.4994112295617762
 40
0.4994112295617762
 40
0.5995289836494175
 40
0.5995289836494175
 40
1.0
 40
1.0
 40
1.0
 40
1.0
 10
263.6414405627473
 20
250.7403867272059
 30
0.0
 10
263.6307744260196
 20
250.7583730575484
 30
0.0
 10
263.6116074820252
 20
250.7955011921088
 30
0.0
 10
263.5968798700035
 20
250.8347200701441
 30
0.0
 10
263.5875324187394
 20
250.8650357914391
 30
0.0
 10
263.584714292476
 20
250.8752578620324
 30
0.0
 10
263.5797280421567
 20
250.8957057540821
 30
0.0
 10
263.577549747818
 20
250.9059633134402
 30
0.0
 10
263.5682044991125
 20
250.9574157083537
 30
0.0
 10
263.5656149144393
 20
250.9990984284765
 30
0.0
 10
263.5680515693443
 20
251.0413060403198
 30
0.0
  0
SPLINE
  5
19A
330
1F
100
AcDbEntity
  8
1
100
AcDbSpline
210
0.0
220
0.0
230
1.0
 70
     8
 71
     3
 72
    15
 73
    11
 74
     0
 42
0.000000001
 43
0.0000000001
 40
0.0
 40
0.0
 40
0.0
 40
0.0
 40
0.4335460435989066
 40
0.4335460435989066
 40
0.5419325544986249
 40
0.5419325544986249
 40
0.650319065398343
 40
0.650319065398343
 40
0.8670920871977802
 40
1.0
 40
1.0
 40
1.0
 40
1.0
 10
264.6597923293701
 20
252.578542294554
 30
0.0
 10
264.6986766821146
 20
252.5945156181953
 30
0.0
 10
264.738895814516
 20
252.6056472966707
 30
0.0
 10
264.7908206873201
 20
252.6135159300856
 30
0.0
 10
264.8013117255477
 20
252.614784119947
 30
0.0
 10
264.8222259905694
 20
252.616677275835
 30
0.0
 10
264.8326737431698
 20
252.6173073032197
 30
0.0
 10
264.8639891657459
 20
252.6182650879229
 30
0.0
 10
264.8976064251979
 20
252.6172947535109
 30
0.0
 10
264.9311273563526
 20
252.6131196921317
 30
0.0
 10
264.9438539567483
 20
252.6110603488807
 30
0.0
  0
SPLINE
  5
19B
330
1F
100
AcDbEntity
  8
1
100
AcDbSpline
210
0.0
220
0.0
230
1.0
 70
     8
 71
     3
 72
    15
 73
    11
 74
     0
 42
0.000000001
 43
0.0000000001
 40
0.0
 40
0.0
 40
0.0
 40
0.0
 40
0.1512842016408565
 40
0.3634631512306387
 40
0.3634631512306387
 40
0.4695526260255395
 40
0.4695526260255395
 40
0.5756421008204402
 40
0.5756421008204402
 40
1.0
 40
1.0
 40
1.0
 40
1.0
 10
264.1777378822516
 20
250.5414749775593
 30
0.0
 10
264.190764445925
 20
250.5337268452139
 30
0.0
 10
264.2210175255741
 20
250.5139598089042
 30
0.0
 10
264.2487997196994
 20
250.4914725102168
 30
0.0
 10
264.2718452347167
 20
250.4703644064263
 30
0.0
 10
264.2793385764808
 20
250.4630642919915
 30
0.0
 10
264.2937526048795
 20
250.4481210992782
 30
0.0
 10
264.3006616324636
 20
250.4404942259374
 30
0.0
 10
264.3337720637552
 20
250.4016036480859
 30
0.0
 10
264.3557267973008
 20
250.368104791715
 30
0.0
 10
264.3733675068968
 20
250.3321900873232
 30
0.0
  0
SPLINE
  5
19C
330
1F
100
AcDbEntity
  8
1
100
AcDbSpline
210
0.0
220
0.0
230
1.0
 70
     8
 71
     3
 72
    14
 73
    10
 74
     0
 42
0.000000001
 43
0.0000000001
 40
0.0
 40
0.0
 40
0.0
 40
0.0
 40
0.25
 40
0.25
 40
0.5
 40
0.5
 40
0.75
 40
0.75
 40
1.0
 40
1.0
 40
1.0
 40
1.0
 10
264.3733675068968
 20
250.3321900873232
 30
0.0
 10
264.3764100157371
 20
250.3259958463824
 30
0.0
 10
264.3786849418759
 20
250.319480318242
 30
0.0
 10
264.3816514529895
 20
250.3063129780924
 30
0.0
 10
264.382365430963
 20
250.2996475575356
 30
0.0
 10
264.3823051107712
 20
250.2861529968143
 30
0.0
 10
264.381508484058
 20
250.2793314857461
 30
0.0
 10
264.3785065957332
 20
250.2661330310656
 30
0.0
 10
264.3763052361179
 20
250.259675933135
 30
0.0
 10
264.3733809686184
 20
250.253364929718
 30
0.0
  0
SPLINE
  5
19D
330
1F
100
AcDbEntity
  8
1
100
AcDbSpline
210
0.0
220
0.0
230
1.0
 70
     8
 71
     3
 72
    10
 73
     6
 74
     0
 42
0.000000001
 43
0.0000000001
 40
0.0
 40
0.0
 40
0.0
 40
0.0
 40
0.0894556340989773
 40
0.0894556340989773
 40
1.0
 40
1.0
 40
1.0
 40
1.0
 10
264.3645820487117
 20
250.2187965388231
 30
0.0
 10
264.3646450281898
 20
250.2198598760915
 30
0.0
 10
264.3647265978722
 20
250.2209237326607
 30
0.0
 10
264.365846830013
 20
250.2328148293891
 30
0.0
 10
264.3687051353915
 20
250.2432737874139
 30
0.0
 10
264.3733809686184
 20
250.253364929718
 30
0.0
  0
SPLINE
  5
19E
330
1F
100
AcDbEntity
  8
1
100
AcDbSpline
210
0.0
220
0.0
230
1.0
 70
     8
 71
     3
 72
    14
 73
    10
 74
     0
 42
0.000000001
 43
0.0000000001
 40
0.0
 40
0.0
 40
0.0
 40
0.0
 40
0.6084563038544947
 40
0.6084563038544947
 40
0.7605703798181072
 40
0.7605703798181072
 40
0.91268445578172
 40
0.91268445578172
 40
1.0
 40
1.0
 40
1.0
 40
1.0
 10
265.5917197683168
 20
252.047702904339
 30
0.0
 10
265.5523280071868
 20
252.0529865878628
 30
0.0
 10
265.513796199224
 20
252.0630930949991
 30
0.0
 10
265.4665690015182
 20
252.081957226253
 30
0.0
 10
265.4571712357429
 20
252.0860456089183
 30
0.0
 10
265.4384710869948
 20
252.0948754995356
 30
0.0
 10
265.4291471555467
 20
252.0996312869471
 30
0.0
 10
265.4147641493975
 20
252.1075279630391
 30
0.0
 10
265.4095696519593
 20
252.1104979270243
 30
0.0
 10
265.4044254955498
 20
252.1135575280165
 30
0.0
  0
SPLINE
  5
19F
330
1F
100
AcDbEntity
  8
1
100
AcDbSpline
210
0.0
220
0.0
230
1.0
 70
     8
 71
     3
 72
    14
 73
    10
 74
     0
 42
0.000000001
 43
0.0000000001
 40
0.0
 40
0.0
 40
0.0
 40
0.0
 40
0.25
 40
0.25
 40
0.5
 40
0.5
 40
0.75
 40
0.75
 40
1.0
 40
1.0
 40
1.0
 40
1.0
 10
265.6654458521721
 20
252.0726695252288
 30
0.0
 10
265.6605078985689
 20
252.0679088287255
 30
0.0
 10
265.6551128552901
 20
252.0637198205361
 30
0.0
 10
265.6436657517012
 20
252.0566695363894
 30
0.0
 10
265.6376600082364
 20
252.0538232920711
 30
0.0
 10
265.6250737913819
 20
252.0495035673269
 30
0.0
 10
265.6184587498131
 20
252.0480441544724
 30
0.0
 10
265.6052107295161
 20
252.0467050328419
 30
0.0
 10
265.5985092613312
 20
252.0467922181614
 30
0.0
 10
265.5917197683168
 20
252.047702904339
 30
0.0
  0
SPLINE
  5
1A0
330
1F
100
AcDbEntity
  8
1
100
AcDbSpline
210
0.0
220
0.0
230
1.0
 70
     8
 71
     3
 72
    49
 73
    45
 74
     0
 42
0.000000001
 43
0.0000000001
 40
0.0
 40
0.0
 40
0.0
 40
0.0
 40
0.0624999999999994
 40
0.0624999999999994
 40
0.0937499999999989
 40
0.0937499999999989
 40
0.1093749999999987
 40
0.1093749999999987
 40
0.1249999999999985
 40
0.1249999999999985
 40
0.1874999999999981
 40
0.1874999999999981
 40
0.2499999999999978
 40
0.2499999999999978
 40
0.2656249999999979
 40
0.2656249999999979
 40
0.2734374999999979
 40
0.2734374999999979
 40
0.2812499999999978
 40
0.3124999999999979
 40
0.3124999999999979
 40
0.3749999999999982
 40
0.3749999999999982
 40
0.4374999999999985
 40
0.4374999999999985
 40
0.499999999999999
 40
0.499999999999999
 40
0.5624999999999991
 40
0.5624999999999991
 40
0.6249999999999992
 40
0.6249999999999992
 40
0.6874999999999993
 40
0.6874999999999993
 40
0.7499999999999995
 40
0.7499999999999995
 40
0.8124999999999996
 40
0.8124999999999996
 40
0.8437499999999996
 40
0.8437499999999996
 40
0.8749999999999996
 40
0.8749999999999996
 40
0.9374999999999998
 40
0.9374999999999998
 40
1.0
 40
1.0
 40
1.0
 40
1.0
 10
248.3942482849925
 20
254.7143726439864
 30
0.0
 10
248.4712014141701
 20
254.6389156022778
 30
0.0
 10
248.5627259305098
 20
254.5539347007744
 30
0.0
 10
248.7227452007711
 20
254.4136167451749
 30
0.0
 10
248.7798805587494
 20
254.3647011654893
 30
0.0
 10
248.8714465444222
 20
254.2882821694267
 30
0.0
 10
248.9030005554662
 20
254.2622576828591
 30
0.0
 10
248.9677161867785
 20
254.2095292246603
 30
0.0
 10
249.0008945560613
 20
254.1828101382547
 30
0.0
 10
249.1708465592529
 20
254.0475654567643
 30
0.0
 10
249.3197789479308
 20
253.9341089285736
 30
0.0
 10
249.6428755419363
 20
253.6995735638911
 30
0.0
 10
249.8170453003101
 20
253.5784888885358
 30
0.0
 10
250.0503723396277
 20
253.4239723988323
 30
0.0
 10
250.0978193833285
 20
253.3929105045578
 30
0.0
 10
250.1701618857596
 20
253.3461084685916
 30
0.0
 10
250.1944885052294
 20
253.3304620278898
 30
0.0
 10
250.2434202866847
 20
253.2991756182042
 30
0.0
 10
250.3664651195344
 20
253.2209626058659
 30
0.0
 10
250.4930449496183
 20
253.1428221233003
 30
0.0
 10
250.8033549913277
 20
252.9558135147796
 30
0.0
 10
251.018909379347
 20
252.8318555432589
 30
0.0
 10
251.4662456520373
 20
252.5871554588421
 30
0.0
 10
251.6980307235422
 20
252.4664096185741
 30
0.0
 10
252.1769942102798
 20
252.2296434532158
 30
0.0
 10
252.4241744066026
 20
252.1136206312698
 30
0.0
 10
252.9333121781658
 20
251.8876346843058
 30
0.0
 10
253.1921819079001
 20
251.7790409699078
 30
0.0
 10
253.7176810372061
 20
251.5711363126056
 30
0.0
 10
253.9843338792314
 20
251.4718144033425
 30
0.0
 10
254.5249096752346
 20
251.282794096533
 30
0.0
 10
254.7988336909827
 20
251.1930948205011
 30
0.0
 10
255.3535514201084
 20
251.0236496116409
 30
0.0
 10
255.6343457897638
 20
250.9439030483714
 30
0.0
 10
256.2025114883104
 20
250.794684863498
 30
0.0
 10
256.4898832052783
 20
250.7252127470034
 30
0.0
 10
256.9257233027166
 20
250.6289581698883
 30
0.0
 10
257.0718997435926
 20
250.5981815672678
 30
0.0
 10
257.3647620973255
 20
250.5395278646054
 30
0.0
 10
257.5115598697874
 20
250.5116240165409
 30
0.0
 10
257.9530289813472
 20
250.4321731775425
 30
0.0
 10
258.248774912274
 20
250.3848854508182
 30
0.0
 10
258.8430362305059
 20
250.3016599360267
 30
0.0
 10
259.1415517636767
 20
250.2657221910325
 30
0.0
 10
259.4414221389715
 20
250.2354777420437
 30
0.0
  0
SPLINE
  5
1A1
330
1F
100
AcDbEntity
  8
1
100
AcDbSpline
210
0.0
220
0.0
230
1.0
 70
     8
 71
     3
 72
    32
 73
    28
 74
     0
 42
0.000000001
 43
0.0000000001
 40
0.0
 40
0.0
 40
0.0
 40
0.0
 40
0.1250000000000066
 40
0.1250000000000066
 40
0.2500000000000132
 40
0.2500000000000132
 40
0.3750000000000198
 40
0.3750000000000198
 40
0.4375000000000216
 40
0.4375000000000216
 40
0.5000000000000235
 40
0.5000000000000235
 40
0.5625000000000254
 40
0.5625000000000254
 40
0.5937500000000254
 40
0.5937500000000254
 40
0.6250000000000254
 40
0.6250000000000254
 40
0.7500000000000183
 40
0.7500000000000183
 40
0.8125000000000138
 40
0.8125000000000138
 40
0.8750000000000092
 40
0.8750000000000092
 40
0.9375000000000046
 40
0.9375000000000046
 40
1.0
 40
1.0
 40
1.0
 40
1.0
 10
248.3942482849923
 20
252.681161310191
 30
0.0
 10
248.3942482849923
 20
252.6549059178778
 30
0.0
 10
248.392192593036
 20
252.6286837802248
 30
0.0
 10
248.383854560421
 20
252.5763370757541
 30
0.0
 10
248.3775749955704
 20
252.5502121306268
 30
0.0
 10
248.3603499416425
 20
252.4981267712245
 30
0.0
 10
248.3494139361535
 20
252.4721652060038
 30
0.0
 10
248.3288141167205
 20
252.4334390397246
 30
0.0
 10
248.3212146274571
 20
252.4205299594949
 30
0.0
 10
248.3046728714868
 20
252.3951882041752
 30
0.0
 10
248.295715301234
 20
252.3827180619599
 30
0.0
 10
248.2762975729022
 20
252.3582333319168
 30
0.0
 10
248.2658382760713
 20
252.346218425669
 30
0.0
 10
248.2488797058729
 20
252.3285949764824
 30
0.0
 10
248.2430146856237
 20
252.3227871827753
 30
0.0
 10
248.2308277574379
 20
252.3113177268498
 30
0.0
 10
248.2244886388639
 20
252.3056418228948
 30
0.0
 10
248.19180142392
 20
252.2778756097933
 30
0.0
 10
248.1625861826853
 20
252.2575952733381
 30
0.0
 10
248.1128194924826
 20
252.2310724512007
 30
0.0
 10
248.0951040684579
 20
252.2228547674753
 30
0.0
 10
248.0584303849777
 20
252.2084751871749
 30
0.0
 10
248.0393832840901
 20
252.202250151823
 30
0.0
 10
247.9997001354549
 20
252.1919783456404
 30
0.0
 10
247.9789013034986
 20
252.1879271188988
 30
0.0
 10
247.9370033549031
 20
252.1825451201221
 30
0.0
 10
247.915773974033
 20
252.181161310191
 30
0.0
 10
247.8942482849923
 20
252.181161310191
 30
0.0
  0
SPLINE
  5
1A2
330
1F
100
AcDbEntity
  8
1
100
AcDbSpline
210
0.0
220
0.0
230
1.0
 70
     8
 71
     3
 72
    32
 73
    28
 74
     0
 42
0.000000001
 43
0.0000000001
 40
0.0
 40
0.0
 40
0.0
 40
0.0
 40
0.0625000000000005
 40
0.0625000000000005
 40
0.125000000000001
 40
0.125000000000001
 40
0.1875000000000014
 40
0.1875000000000014
 40
0.2500000000000019
 40
0.2500000000000019
 40
0.3125000000000024
 40
0.3125000000000024
 40
0.3750000000000029
 40
0.3750000000000029
 40
0.4375000000000034
 40
0.4375000000000034
 40
0.5000000000000039
 40
0.5000000000000039
 40
0.6250000000000008
 40
0.6250000000000008
 40
0.6875
 40
0.6875
 40
0.7499999999999991
 40
0.7499999999999991
 40
0.8749999999999996
 40
0.8749999999999996
 40
1.0
 40
1.0
 40
1.0
 40
1.0
 10
240.6442482849923
 20
252.181161310191
 30
0.0
 10
240.6227397209159
 20
252.181161310191
 30
0.0
 10
240.6016261140336
 20
252.1825422893528
 30
0.0
 10
240.5601268043617
 20
252.1878448256749
 30
0.0
 10
240.5397414805335
 20
252.1917676808795
 30
0.0
 10
240.4996787049497
 20
252.2020710962279
 30
0.0
 10
240.4805419219092
 20
252.208312585038
 30
0.0
 10
240.443958382845
 20
252.2226096279451
 30
0.0
 10
240.4264856013918
 20
252.2306745956227
 30
0.0
 10
240.393023152777
 20
252.2484433890058
 30
0.0
 10
240.377354521377
 20
252.2579767172482
 30
0.0
 10
240.3479085894654
 20
252.2780480933202
 30
0.0
 10
240.3341128350686
 20
252.2885987434968
 30
0.0
 10
240.308149672259
 20
252.310584612883
 30
0.0
 10
240.2959637503621
 20
252.3220411535554
 30
0.0
 10
240.2731612388385
 20
252.3456560074887
 30
0.0
 10
240.2626674705944
 20
252.3576812911441
 30
0.0
 10
240.2335392990392
 20
252.3942970715449
 30
0.0
 10
240.217236164282
 20
252.419421246769
 30
0.0
 10
240.1966213126939
 20
252.4579083221274
 30
0.0
 10
240.1903964189952
 20
252.4708727507422
 30
0.0
 10
240.179163304765
 20
252.4970451629603
 30
0.0
 10
240.1741674328035
 20
252.5102338578781
 30
0.0
 10
240.1610436274325
 20
252.5497000417264
 30
0.0
 10
240.1547027880198
 20
252.5760202572067
 30
0.0
 10
240.1463032102322
 20
252.62862430275
 30
0.0
 10
240.1442482849923
 20
252.6549084845912
 30
0.0
 10
240.1442482849923
 20
252.681161310191
 30
0.0
  0
SPLINE
  5
1A3
330
1F
100
AcDbEntity
  8
1
100
AcDbSpline
210
0.0
220
0.0
230
1.0
 70
     8
 71
     3
 72
    19
 73
    15
 74
     0
 42
0.000000001
 43
0.0000000001
 40
0.0
 40
0.0
 40
0.0
 40
0.0
 40
0.0231592082606766
 40
0.0231592082606766
 40
0.3487728055071181
 40
0.3487728055071181
 40
0.4301762048187284
 40
0.4301762048187284
 40
0.5115796041303385
 40
0.6743864027535591
 40
0.6743864027535591
 40
0.8371932013767793
 40
0.8371932013767793
 40
1.0
 40
1.0
 40
1.0
 40
1.0
 10
249.6679561407445
 20
242.1140521843634
 30
0.0
 10
249.6368732314524
 20
242.1099621210146
 30
0.0
 10
249.605837955418
 20
242.1058339024135
 30
0.0
 10
249.1391712599793
 20
242.0430887471546
 30
0.0
 10
248.7129163330297
 20
241.9769624550618
 30
0.0
 10
248.1922027212711
 20
241.8846366575507
 30
0.0
 10
248.0886084607114
 20
241.8656763884202
 30
0.0
 10
247.8830319007099
 20
241.8268545929405
 30
0.0
 10
247.5770302846132
 20
241.7672623714176
 30
0.0
 10
247.2781122874473
 20
241.703597915101
 30
0.0
 10
246.8858609126619
 20
241.6150918011134
 30
0.0
 10
246.6928442105255
 20
241.5690161182229
 30
0.0
 10
246.3136401467967
 20
241.4733614823062
 30
0.0
 10
246.1273969643908
 20
241.4237711590319
 30
0.0
 10
245.9445197643276
 20
241.3724163802529
 30
0.0
  0
SPLINE
  5
1A4
330
1F
100
AcDbEntity
  8
1
100
AcDbSpline
210
0.0
220
0.0
230
1.0
 70
     8
 71
     3
 72
    44
 73
    40
 74
     0
 42
0.000000001
 43
0.0000000001
 40
0.0
 40
0.0
 40
0.0
 40
0.0
 40
0.0625000000000043
 40
0.0625000000000043
 40
0.0937500000000066
 40
0.0937500000000066
 40
0.125000000000009
 40
0.125000000000009
 40
0.1875000000000125
 40
0.1875000000000125
 40
0.2187500000000139
 40
0.2187500000000139
 40
0.2500000000000154
 40
0.2500000000000154
 40
0.3125000000000195
 40
0.3125000000000195
 40
0.3437500000000207
 40
0.3437500000000207
 40
0.3750000000000219
 40
0.3750000000000219
 40
0.4375000000000225
 40
0.4375000000000225
 40
0.5000000000000231
 40
0.5000000000000231
 40
0.5625000000000237
 40
0.5625000000000237
 40
0.593750000000023
 40
0.593750000000023
 40
0.6250000000000223
 40
0.6250000000000223
 40
0.7500000000000157
 40
0.7500000000000157
 40
0.8125000000000135
 40
0.8125000000000135
 40
0.8437500000000122
 40
0.8437500000000122
 40
0.875000000000011
 40
0.875000000000011
 40
1.0
 40
1.0
 40
1.0
 40
1.0
 10
245.9445197643276
 20
241.3724163802529
 30
0.0
 10
245.9379028162785
 20
241.4211199222627
 30
0.0
 10
245.9366205141712
 20
241.4696243616946
 30
0.0
 10
245.9422296633292
 20
241.5421025258863
 30
0.0
 10
245.9453606150966
 20
241.5662152152086
 30
0.0
 10
245.954131054002
 20
241.6143474054373
 30
0.0
 10
245.9598110123628
 20
241.6384737228296
 30
0.0
 10
245.9801729174372
 20
241.7092438542703
 30
0.0
 10
245.998179269128
 20
241.754679955023
 30
0.0
 10
246.0310472137948
 20
241.8205219774056
 30
0.0
 10
246.0429854094349
 20
241.8420816486599
 30
0.0
 10
246.0687527400517
 20
241.8844531287312
 30
0.0
 10
246.0824280177206
 20
241.905011631999
 30
0.0
 10
246.1255371887524
 20
241.9648705816809
 30
0.0
 10
246.157073155811
 20
242.0024169732921
 30
0.0
 10
246.2080085653116
 20
242.0556638502782
 30
0.0
 10
246.2255959070712
 20
242.0728976368336
 30
0.0
 10
246.2619299571467
 20
242.1063827317564
 30
0.0
 10
246.2807305846864
 20
242.1226771284846
 30
0.0
 10
246.3384139570897
 20
242.1698162436163
 30
0.0
 10
246.3783467653754
 20
242.1987708824973
 30
0.0
 10
246.4607745128142
 20
242.2523843347476
 30
0.0
 10
246.5032721490702
 20
242.2770386716726
 30
0.0
 10
246.5906147947043
 20
242.322403234733
 30
0.0
 10
246.635460995609
 20
242.3431114884109
 30
0.0
 10
246.7044145105987
 20
242.3713383836242
 30
0.0
 10
246.7276804614138
 20
242.3802698076459
 30
0.0
 10
246.7743213377479
 20
242.3970437656691
 30
0.0
 10
246.7977517237455
 20
242.4049098507843
 30
0.0
 10
246.9154321864892
 20
242.4417346484464
 30
0.0
 10
247.0112484072652
 20
242.4632679174968
 30
0.0
 10
247.1573326575888
 20
242.48435736912
 30
0.0
 10
247.206424492954
 20
242.4895010807026
 30
0.0
 10
247.2806719900087
 20
242.4943190674159
 30
0.0
 10
247.3055675777759
 20
242.4954413446644
 30
0.0
 10
247.3552595640923
 20
242.496688799747
 30
0.0
 10
247.3800712417892
 20
242.4968169591019
 30
0.0
 10
247.5039578973208
 20
242.4949776392384
 30
0.0
 10
247.6025244490904
 20
242.4856666451975
 30
0.0
 10
247.700494831248
 20
242.4677520016606
 30
0.0
  0
SPLINE
  5
1A5
330
1F
100
AcDbEntity
  8
1
100
AcDbSpline
210
0.0
220
0.0
230
1.0
 70
     8
 71
     3
 72
    28
 73
    24
 74
     0
 42
0.000000001
 43
0.0000000001
 40
0.0
 40
0.0
 40
0.0
 40
0.0
 40
0.1249999999999917
 40
0.1249999999999917
 40
0.1874999999999893
 40
0.1874999999999893
 40
0.2499999999999868
 40
0.2499999999999868
 40
0.3749999999999821
 40
0.3749999999999821
 40
0.4374999999999873
 40
0.4374999999999873
 40
0.4999999999999928
 40
0.4999999999999928
 40
0.6250000000000088
 40
0.6250000000000088
 40
0.7500000000000249
 40
0.7500000000000249
 40
0.8125000000000232
 40
0.8125000000000232
 40
0.8750000000000216
 40
0.8750000000000216
 40
1.0
 40
1.0
 40
1.0
 40
1.0
 10
268.0442482849923
 20
242.2577935540135
 30
0.0
 10
268.0442482849923
 20
242.2475474363603
 30
0.0
 10
268.0420682064088
 20
242.2377084616931
 30
0.0
 10
268.0353825099664
 20
242.2235878798437
 30
0.0
 10
268.0325603373021
 20
242.2189633775535
 30
0.0
 10
268.0258169713554
 20
242.2100853400013
 30
0.0
 10
268.0219059058839
 20
242.2058323192841
 30
0.0
 10
268.0085762166046
 20
242.193623784032
 30
0.0
 10
267.9975756044516
 20
242.1862137947275
 30
0.0
 10
267.9777384236942
 20
242.1762492714491
 30
0.0
 10
267.9705351668914
 20
242.1731134958101
 30
0.0
 10
267.9553102412204
 20
242.1673782817653
 30
0.0
 10
267.947257222886
 20
242.1647598102447
 30
0.0
 10
267.9217927320165
 20
242.1576426237166
 30
0.0
 10
267.9030841423553
 20
242.1538745307508
 30
0.0
 10
267.8620279320833
 20
242.1484078600875
 30
0.0
 10
267.8403921754452
 20
242.1468036954642
 30
0.0
 10
267.8063485572572
 20
242.1460183215995
 30
0.0
 10
267.7947338211226
 20
242.1460285782792
 30
0.0
 10
267.7709605140426
 20
242.1466034919507
 30
0.0
 10
267.7587778217012
 20
242.1471726205842
 30
0.0
 10
267.7221231214982
 20
242.1496825216706
 30
0.0
 10
267.6973196359849
 20
242.1524191871959
 30
0.0
 10
267.672150874492
 20
242.1562142014746
 30
0.0
  0
SPLINE
  5
1A6
330
1F
100
AcDbEntity
  8
1
100
AcDbSpline
210
0.0
220
0.0
230
1.0
 70
     8
 71
     3
 72
    29
 73
    25
 74
     0
 42
0.000000001
 43
0.0000000001
 40
0.0
 40
0.0
 40
0.0
 40
0.0
 40
0.1250000000000024
 40
0.1250000000000024
 40
0.1875000000000079
 40
0.1875000000000079
 40
0.2500000000000134
 40
0.2500000000000134
 40
0.3750000000000164
 40
0.3750000000000164
 40
0.4375000000000141
 40
0.4375000000000141
 40
0.5000000000000116
 40
0.5000000000000116
 40
0.6250000000000009
 40
0.6250000000000009
 40
0.6874999999999979
 40
0.6874999999999979
 40
0.7499999999999949
 40
0.8124999999999918
 40
0.8124999999999918
 40
0.8749999999999889
 40
0.8749999999999889
 40
1.0
 40
1.0
 40
1.0
 40
1.0
 10
268.0442482849923
 20
249.2889143250602
 30
0.0
 10
268.0442482849923
 20
249.2911486238312
 30
0.0
 10
268.0422419433414
 20
249.2935939100284
 30
0.0
 10
268.0360003034055
 20
249.297601730715
 30
0.0
 10
268.0333716105811
 20
249.2989947507359
 30
0.0
 10
268.0271080136187
 20
249.3018420828741
 30
0.0
 10
268.0234642787386
 20
249.3033029485314
 30
0.0
 10
268.0109878419024
 20
249.3077978289853
 30
0.0
 10
268.0006246359851
 20
249.3109430570443
 30
0.0
 10
267.9817364012915
 20
249.315903847405
 30
0.0
 10
267.9748329708458
 20
249.3176085234048
 30
0.0
 10
267.9601205619139
 20
249.321035550064
 30
0.0
 10
267.9523057202236
 20
249.3227608707325
 30
0.0
 10
267.9274829773032
 20
249.3279723141261
 30
0.0
 10
267.9091110682815
 20
249.3314935524097
 30
0.0
 10
267.8785783317558
 20
249.3368519961477
 30
0.0
 10
267.8678438017913
 20
249.3386595651777
 30
0.0
 10
267.8458789874418
 20
249.342210000208
 30
0.0
 10
267.823316380078
 20
249.3457150545381
 30
0.0
 10
267.7995652916728
 20
249.3491298868339
 30
0.0
 10
267.7752063257939
 20
249.3524985728805
 30
0.0
 10
267.7626849111984
 20
249.3541647001773
 30
0.0
 10
267.7244096832557
 20
249.3590583496097
 30
0.0
 10
267.6984836013746
 20
249.3621157243651
 30
0.0
 10
267.6721508744914
 20
249.3649693527753
 30
0.0
  0
SPLINE
  5
1A7
330
1F
100
AcDbEntity
  8
1
100
AcDbSpline
210
0.0
220
0.0
230
1.0
 70
     9
 71
     3
 72
   146
 73
   142
 74
     0
 42
0.000000001
 43
0.0000000001
 40
0.0
 40
0.0
 40
0.0
 40
0.0
 40
0.0156249999999995
 40
0.0156249999999995
 40
0.031249999999999
 40
0.031249999999999
 40
0.035156249999999
 40
0.035156249999999
 40
0.0390624999999989
 40
0.0390624999999989
 40
0.0468749999999987
 40
0.0468749999999987
 40
0.0624999999999983
 40
0.0624999999999983
 40
0.078124999999998
 40
0.078124999999998
 40
0.0859374999999978
 40
0.0859374999999978
 40
0.0937499999999976
 40
0.0937499999999976
 40
0.1249999999999969
 40
0.1249999999999969
 40
0.1562499999999963
 40
0.1562499999999963
 40
0.1874999999999956
 40
0.1874999999999956
 40
0.218749999999995
 40
0.218749999999995
 40
0.2265624999999949
 40
0.2265624999999949
 40
0.2343749999999948
 40
0.2343749999999948
 40
0.2499999999999943
 40
0.2499999999999943
 40
0.2812499999999933
 40
0.2812499999999933
 40
0.2968749999999928
 40
0.2968749999999928
 40
0.3046874999999927
 40
0.3046874999999927
 40
0.3124999999999926
 40
0.3124999999999926
 40
0.3437499999999926
 40
0.3437499999999926
 40
0.3593749999999927
 40
0.3593749999999927
 40
0.3671874999999926
 40
0.3671874999999926
 40
0.3749999999999923
 40
0.3749999999999923
 40
0.3906249999999918
 40
0.3906249999999918
 40
0.4062499999999913
 40
0.4062499999999913
 40
0.4101562499999915
 40
0.4101562499999915
 40
0.4140624999999917
 40
0.4218749999999913
 40
0.4218749999999913
 40
0.4374999999999915
 40
0.4374999999999915
 40
0.4531249999999917
 40
0.4531249999999917
 40
0.468749999999992
 40
0.468749999999992
 40
0.4843749999999921
 40
0.4843749999999921
 40
0.4921874999999917
 40
0.4921874999999917
 40
0.4999999999999912
 40
0.4999999999999912
 40
0.5156249999999913
 40
0.5156249999999913
 40
0.523437499999991
 40
0.523437499999991
 40
0.5312499999999904
 40
0.5312499999999904
 40
0.5468749999999896
 40
0.5468749999999896
 40
0.5624999999999888
 40
0.5624999999999888
 40
0.5703124999999888
 40
0.5703124999999888
 40
0.5781249999999888
 40
0.5781249999999888
 40
0.5937499999999885
 40
0.5937499999999885
 40
0.601562499999988
 40
0.601562499999988
 40
0.6093749999999876
 40
0.6093749999999876
 40
0.6249999999999872
 40
0.6249999999999872
 40
0.6562499999999866
 40
0.6562499999999866
 40
0.6640624999999865
 40
0.6640624999999865
 40
0.6718749999999864
 40
0.6874999999999863
 40
0.6874999999999863
 40
0.7187499999999864
 40
0.7187499999999864
 40
0.7343749999999865
 40
0.7343749999999865
 40
0.7499999999999865
 40
0.7499999999999865
 40
0.7812499999999869
 40
0.7812499999999869
 40
0.7890624999999872
 40
0.7890624999999872
 40
0.7968749999999875
 40
0.7968749999999875
 40
0.8124999999999882
 40
0.8124999999999882
 40
0.8437499999999904
 40
0.8437499999999904
 40
0.8749999999999923
 40
0.8749999999999923
 40
0.8828124999999927
 40
0.8828124999999927
 40
0.8906249999999928
 40
0.8906249999999928
 40
0.9062499999999936
 40
0.9062499999999936
 40
0.9218749999999943
 40
0.9218749999999943
 40
0.9374999999999948
 40
0.9374999999999948
 40
0.9531249999999955
 40
0.9531249999999955
 40
0.9570312499999955
 40
0.9570312499999955
 40
0.9609374999999955
 40
0.9687499999999964
 40
0.9765624999999971
 40
0.9765624999999971
 40
0.984374999999998
 40
0.984374999999998
 40
0.9921874999999989
 40
0.9921874999999989
 40
1.0
 40
1.0
 40
1.0
 40
1.0
 10
265.7736235684846
 20
246.2916491518128
 30
0.0
 10
265.8215642171791
 20
246.2929610229035
 30
0.0
 10
265.8683573250161
 20
246.2986616954761
 30
0.0
 10
265.960005111174
 20
246.3174560539005
 30
0.0
 10
266.004857596952
 20
246.3305578474691
 30
0.0
 10
266.0598474361681
 20
246.3510118483451
 30
0.0
 10
266.0707913647786
 20
246.3553074105305
 30
0.0
 10
266.0925736775726
 20
246.3642976254757
 30
0.0
 10
266.1034333836406
 20
246.3690023510339
 30
0.0
 10
266.1356394156521
 20
246.3835999564793
 30
0.0
 10
266.1566439238937
 20
246.3939836598568
 30
0.0
 10
266.2184002885926
 20
246.4268856484016
 30
0.0
 10
266.2579020540067
 20
246.4511448188439
 30
0.0
 10
266.3340921842035
 20
246.5035425951857
 30
0.0
 10
266.3707773932488
 20
246.5316856760762
 30
0.0
 10
266.4239373926529
 20
246.5764466076334
 30
0.0
 10
266.4413793191105
 20
246.5918252040417
 30
0.0
 10
266.4754949311436
 20
246.6232306104293
 30
0.0
 10
266.4921396619281
 20
246.6392272426195
 30
0.0
 10
266.5734516462675
 20
246.7205594016023
 30
0.0
 10
266.6324696959911
 20
246.789877463544
 30
0.0
 10
266.7407019728231
 20
246.9351908095738
 30
0.0
 10
266.789889673379
 20
247.0112169456512
 30
0.0
 10
266.8791014216172
 20
247.1692850473673
 30
0.0
 10
266.9183545848023
 20
247.2499699944817
 30
0.0
 10
266.9868635896393
 20
247.414285368959
 30
0.0
 10
267.0161131449976
 20
247.4979186399297
 30
0.0
 10
267.0462315081087
 20
247.6043132636412
 30
0.0
 10
267.0519306828942
 20
247.6256856695353
 30
0.0
 10
267.0626657893487
 20
247.6686210467496
 30
0.0
 10
267.0677083482492
 20
247.6902165208965
 30
0.0
 10
267.0817485349102
 20
247.7549851034486
 30
0.0
 10
267.0896710000781
 20
247.7981609931337
 30
0.0
 10
267.1090523946217
 20
247.9276814110321
 30
0.0
 10
267.1161615426586
 20
248.0140159958881
 30
0.0
 10
267.1172240575963
 20
248.1435528052685
 30
0.0
 10
267.1159697249613
 20
248.1867381839939
 30
0.0
 10
267.1114700405005
 20
248.2515396346641
 30
0.0
 10
267.1095330115865
 20
248.2731440720837
 30
0.0
 10
267.1047395860375
 20
248.3163639409466
 30
0.0
 10
267.1018791474758
 20
248.3379902344355
 30
0.0
 10
267.0853096627507
 20
248.445238670049
 30
0.0
 10
267.0647996631357
 20
248.5289439376684
 30
0.0
 10
267.0215941599363
 20
248.6511229744413
 30
0.0
 10
267.0051065903903
 20
248.6912836031256
 30
0.0
 10
266.9768900367288
 20
248.7506128846993
 30
0.0
 10
266.9668745009493
 20
248.7702832554005
 30
0.0
 10
266.9458260491775
 20
248.8089061641632
 30
0.0
 10
266.9347793734194
 20
248.8278944177721
 30
0.0
 10
266.9000355187885
 20
248.883876708132
 30
0.0
 10
266.8747397075589
 20
248.9198911797415
 30
0.0
 10
266.8195776500366
 20
248.9891756986729
 30
0.0
 10
266.7897141041468
 20
249.0224471995484
 30
0.0
 10
266.7492169691656
 20
249.0621724294984
 30
0.0
 10
266.7409453273354
 20
249.0700353901949
 30
0.0
 10
266.7241988349885
 20
249.0854564630638
 30
0.0
 10
266.6987404676909
 20
249.1081653658536
 30
0.0
 10
266.6722681969376
 20
249.1296125938505
 30
0.0
 10
266.6179638837397
 20
249.1708252280878
 30
0.0
 10
266.5799528693352
 20
249.1960639852907
 30
0.0
 10
266.5001646289381
 20
249.2419354536391
 30
0.0
 10
266.4583894396406
 20
249.2625705713983
 30
0.0
 10
266.3707453014241
 20
249.2988812455757
 30
0.0
 10
266.3260315677767
 20
249.3140706256129
 30
0.0
 10
266.2351215314255
 20
249.3386716620795
 30
0.0
 10
266.1888858089241
 20
249.3480991703435
 30
0.0
 10
266.1183522510888
 20
249.3579072591111
 30
0.0
 10
266.0946217905703
 20
249.3604539054769
 30
0.0
 10
266.0468485796077
 20
249.3640603823451
 30
0.0
 10
266.0230617996325
 20
249.3651024270636
 30
0.0
 10
265.9519889645408
 20
249.3660367799731
 30
0.0
 10
265.9049894170608
 20
249.3637459633699
 30
0.0
 10
265.8350365517338
 20
249.3561268632999
 30
0.0
 10
265.8118102693639
 20
249.3528877389097
 30
0.0
 10
265.7655387876802
 20
249.3450165150141
 30
0.0
 10
265.7424233761104
 20
249.340365269328
 30
0.0
 10
265.6741759056101
 20
249.3245162015061
 30
0.0
 10
265.6299608415272
 20
249.3114192414271
 30
0.0
 10
265.5438901206475
 20
249.2805226449306
 30
0.0
 10
265.5020356008384
 20
249.2627208023921
 30
0.0
 10
265.4409471249195
 20
249.232597492778
 30
0.0
 10
265.4208519561882
 20
249.2219718014782
 30
0.0
 10
265.3816460482525
 20
249.1998366810656
 30
0.0
 10
265.3624784747346
 20
249.1883009738814
 30
0.0
 10
265.3062193270332
 20
249.1523456030817
 30
0.0
 10
265.2703678066262
 20
249.1265814305136
 30
0.0
 10
265.2188988161259
 20
249.0853881763193
 30
0.0
 10
265.2021281511032
 20
249.0712315863303
 30
0.0
 10
265.1693392011818
 20
249.0420807227886
 30
0.0
 10
265.1532964093074
 20
249.0270620319864
 30
0.0
 10
265.1064456757583
 20
248.9809283511932
 30
0.0
 10
265.077096372052
 20
248.9489324422442
 30
0.0
 10
264.9941989665933
 20
248.8494799900498
 30
0.0
 10
264.9457630782822
 20
248.7785823434622
 30
0.0
 10
264.8928780158404
 20
248.6845832995832
 30
0.0
 10
264.8826933491473
 20
248.66551932102
 30
0.0
 10
264.8632171333009
 20
248.6271319218665
 30
0.0
 10
264.8352876371193
 20
248.5690590401596
 30
0.0
 10
264.8110518930249
 20
248.5095525944666
 30
0.0
 10
264.7672150578101
 20
248.388696988884
 30
0.0
 10
264.7441401233408
 20
248.3056792955311
 30
0.0
 10
264.718225128359
 20
248.1775566425104
 30
0.0
 10
264.7111085325238
 20
248.1345497692337
 30
0.0
 10
264.6998161112405
 20
248.0482440487694
 30
0.0
 10
264.6956307999546
 20
248.004897195547
 30
0.0
 10
264.6873169229477
 20
247.8742808752523
 30
0.0
 10
264.6873989928433
 20
247.7864375415032
 30
0.0
 10
264.69453951888
 20
247.6756685408262
 30
0.0
 10
264.6963220347129
 20
247.653466347781
 30
0.0
 10
264.7006066331434
 20
247.6089643476487
 30
0.0
 10
264.7031140755375
 20
247.5866269640021
 30
0.0
 10
264.7116871216791
 20
247.5198464379922
 30
0.0
 10
264.7187997867572
 20
247.4755902232085
 30
0.0
 10
264.7443331350077
 20
247.343628809282
 30
0.0
 10
264.7669027230128
 20
247.2567188845599
 30
0.0
 10
264.8241382427088
 20
247.0853556278791
 30
0.0
 10
264.8587592324828
 20
247.0008901742943
 30
0.0
 10
264.9114332230305
 20
246.8973638225729
 30
0.0
 10
264.9224612153918
 20
246.8767397527126
 30
0.0
 10
264.9453260039193
 20
246.8361113893289
 30
0.0
 10
264.9571844946285
 20
246.8160615958155
 30
0.0
 10
264.9941054188005
 20
246.7567525196717
 30
0.0
 10
265.0205052590806
 20
246.7183282228362
 30
0.0
 10
265.0773967060276
 20
246.6440679862039
 30
0.0
 10
265.1079025470685
 20
246.6082075154839
 30
0.0
 10
265.1737608954758
 20
246.5397259684077
 30
0.0
 10
265.2085296217398
 20
246.5077165719159
 30
0.0
 10
265.2822480085129
 20
246.4487978359814
 30
0.0
 10
265.3211925910622
 20
246.4218822346599
 30
0.0
 10
265.3729890239371
 20
246.392056005496
 30
0.0
 10
265.3835314902563
 20
246.3862696215154
 30
0.0
 10
265.4047892503768
 20
246.3751831018914
 30
0.0
 10
265.4369324287463
 20
246.3592796862249
 30
0.0
 10
265.4918019254026
 20
246.3364484712198
 30
0.0
 10
265.5371265741434
 20
246.3222315793924
 30
0.0
 10
265.5831957874557
 20
246.3101242783888
 30
0.0
 10
265.6066536273876
 20
246.3051172160488
 30
0.0
 10
265.6541322341618
 20
246.2973570492449
 30
0.0
 10
265.6779386272473
 20
246.294634029934
 30
0.0
 10
265.7256829194704
 20
246.2914516414804
 30
0.0
 10
265.7496532441373
 20
246.2909932162675
 30
0.0
 10
265.7736235684846
 20
246.2916491518128
 30
0.0
  0
SPLINE
  5
1A8
330
1F
100
AcDbEntity
  8
1
100
AcDbSpline
210
0.0
220
0.0
230
1.0
 70
     8
 71
     3
 72
    45
 73
    41
 74
     0
 42
0.000000001
 43
0.0000000001
 40
0.0
 40
0.0
 40
0.0
 40
0.0
 40
0.028597293644693
 40
0.028597293644693
 40
0.1152561601164942
 40
0.1152561601164942
 40
0.2019150265882955
 40
0.2019150265882955
 40
0.2885738930600966
 40
0.2885738930600966
 40
0.3752327595318978
 40
0.3752327595318978
 40
0.4185621927677986
 40
0.4402269093857507
 40
0.4402269093857507
 40
0.4618916260037026
 40
0.4618916260037026
 40
0.5485504924755147
 40
0.5485504924755147
 40
0.6352093589473269
 40
0.6352093589473269
 40
0.721868225419139
 40
0.721868225419139
 40
0.7435329420370942
 40
0.7435329420370942
 40
0.7651976586550492
 40
0.7651976586550492
 40
0.8085270918909548
 40
0.8085270918909548
 40
0.8518565251268608
 40
0.8518565251268608
 40
0.8735212417448135
 40
0.8735212417448135
 40
0.8951859583627662
 40
0.8951859583627662
 40
0.9385153915986755
 40
0.9385153915986755
 40
0.9818448248345848
 40
0.9818448248345848
 40
1.0
 40
1.0
 40
1.0
 40
1.0
 10
256.6083420540278
 20
240.8822996854427
 30
0.0
 10
256.6246190296847
 20
240.8648428722871
 30
0.0
 10
256.6412049184442
 20
240.8477807089128
 30
0.0
 10
256.709231015108
 20
240.780517665292
 30
0.0
 10
256.7630546035484
 20
240.7333526812004
 30
0.0
 10
256.8755333266596
 20
240.6451293548154
 30
0.0
 10
256.9342369185791
 20
240.6040485196067
 30
0.0
 10
257.0561263155755
 20
240.5278564835859
 30
0.0
 10
257.1184816794281
 20
240.4932565621542
 30
0.0
 10
257.2458413559978
 20
240.4305693960073
 30
0.0
 10
257.310846486267
 20
240.4024843897476
 30
0.0
 10
257.410332428301
 20
240.3651989284988
 30
0.0
 10
257.460571692361
 20
240.347771240742
 30
0.0
 10
257.5115700159432
 20
240.332200396717
 30
0.0
 10
257.5457404478271
 20
240.3222395109499
 30
0.0
 10
257.5629291931737
 20
240.3174645284463
 30
0.0
 10
257.6488762321998
 20
240.2947688087353
 30
0.0
 10
257.7179113587081
 20
240.2802799226517
 30
0.0
 10
257.856540594042
 20
240.2588192347229
 30
0.0
 10
257.9261343943364
 20
240.2518410694535
 30
0.0
 10
258.0659149163047
 20
240.2461642443438
 30
0.0
 10
258.1361006663699
 20
240.2474461485415
 30
0.0
 10
258.2242541797991
 20
240.2552815006064
 30
0.0
 10
258.2419061164148
 20
240.2571635345001
 30
0.0
 10
258.2772545595391
 20
240.2616004850065
 30
0.0
 10
258.294985231649
 20
240.2641618198733
 30
0.0
 10
258.3478493842407
 20
240.2728627419284
 30
0.0
 10
258.3827317919548
 20
240.2800197882616
 30
0.0
 10
258.4516946755257
 20
240.2973215937498
 30
0.0
 10
258.4857757097965
 20
240.3074643951656
 30
0.0
 10
258.5362057911989
 20
240.3252280383142
 30
0.0
 10
258.552900216695
 20
240.3315754144434
 30
0.0
 10
258.5860372367488
 20
240.3451937134913
 30
0.0
 10
258.6025235896012
 20
240.3524863067726
 30
0.0
 10
258.6511772943653
 20
240.3756911600231
 30
0.0
 10
258.6825375300928
 20
240.3929071022059
 30
0.0
 10
258.7428267476284
 20
240.4312652692069
 30
0.0
 10
258.7717582712303
 20
240.452403456352
 30
0.0
 10
258.8107810466722
 20
240.4856633890393
 30
0.0
 10
258.8220897480908
 20
240.495929736707
 30
0.0
 10
258.8330389412305
 20
240.5065509215646
 30
0.0
  0
SPLINE
  5
1A9
330
1F
100
AcDbEntity
  8
1
100
AcDbSpline
210
0.0
220
0.0
230
1.0
 70
     8
 71
     3
 72
    27
 73
    23
 74
     0
 42
0.000000001
 43
0.0000000001
 40
0.0
 40
0.0
 40
0.0
 40
0.0
 40
0.1250000000000015
 40
0.1250000000000015
 40
0.2500000000000029
 40
0.2500000000000029
 40
0.3750000000000045
 40
0.3750000000000045
 40
0.5000000000000061
 40
0.5000000000000061
 40
0.5156250000000062
 40
0.5156250000000062
 40
0.5312500000000062
 40
0.5312500000000062
 40
0.5625000000000057
 40
0.6250000000000047
 40
0.6250000000000047
 40
0.7500000000000031
 40
0.7500000000000031
 40
0.8750000000000015
 40
0.8750000000000015
 40
1.0
 40
1.0
 40
1.0
 40
1.0
 10
260.3775672296786
 20
237.274193438899
 30
0.0
 10
259.8157448425642
 20
237.3606747207727
 30
0.0
 10
259.259182007227
 20
237.4329233150252
 30
0.0
 10
258.1562713544484
 20
237.5497766098813
 30
0.0
 10
257.6099242402186
 20
237.5943799621037
 30
0.0
 10
256.5272858696172
 20
237.6559750784701
 30
0.0
 10
255.9909950284514
 20
237.6729685940425
 30
0.0
 10
254.9284364381612
 20
237.6785901068741
 30
0.0
 10
254.4021689209286
 20
237.6672234153532
 30
0.0
 10
253.815803382238
 20
237.6375558397228
 30
0.0
 10
253.7507306927825
 20
237.6340243516211
 30
0.0
 10
253.6207436760287
 20
237.6264868153746
 30
0.0
 10
253.5557919449246
 20
237.6224782352781
 30
0.0
 10
253.361498109089
 20
237.6097553365648
 30
0.0
 10
252.9752129252549
 20
237.5815284068549
 30
0.0
 10
252.5957525176273
 20
237.5449611793436
 30
0.0
 10
251.8457492648088
 20
237.4606308257847
 30
0.0
 10
251.35762624323
 20
237.3895145829808
 30
0.0
 10
250.404459308406
 20
237.2163473547096
 30
0.0
 10
249.9394174758726
 20
237.1143027810252
 30
0.0
 10
249.0320645559963
 20
236.8770480724647
 30
0.0
 10
248.5897551310596
 20
236.7418499829586
 30
0.0
 10
248.1587721883296
 20
236.5882722904595
 30
0.0
  0
SPLINE
  5
1AA
330
1F
100
AcDbEntity
  8
1
100
AcDbSpline
210
0.0
220
0.0
230
1.0
 70
     8
 71
     3
 72
    10
 73
     6
 74
     0
 42
0.000000001
 43
0.0000000001
 40
0.0
 40
0.0
 40
0.0
 40
0.0
 40
0.5
 40
0.5
 40
1.0
 40
1.0
 40
1.0
 40
1.0
 10
263.5267399206176
 20
237.113760675325
 30
0.0
 10
262.9921774472051
 20
237.0884327245554
 30
0.0
 10
262.4624354826187
 20
237.0889788905706
 30
0.0
 10
261.4126667192428
 20
237.1422174468842
 30
0.0
 10
260.8926396483183
 20
237.1949083764961
 30
0.0
 10
260.3775672296786
 20
237.274193438899
 30
0.0
  0
SPLINE
  5
1AB
330
1F
100
AcDbEntity
  8
1
100
AcDbSpline
210
0.0
220
0.0
230
1.0
 70
     8
 71
     3
 72
     8
 73
     4
 74
     0
 42
0.000000001
 43
0.0000000001
 40
0.0
 40
0.0
 40
0.0
 40
0.0
 40
1.0
 40
1.0
 40
1.0
 40
1.0
 10
262.069711071903
 20
242.6996353166761
 30
0.0
 10
262.0696888606127
 20
242.6995001638147
 30
0.0
 10
262.0696666491562
 20
242.6993650111698
 30
0.0
 10
262.0696444375336
 20
242.6992298587415
 30
0.0
  0
SPLINE
  5
1AC
330
1F
100
AcDbEntity
  8
1
100
AcDbSpline
210
0.0
220
0.0
230
1.0
 70
     8
 71
     3
 72
    30
 73
    26
 74
     0
 42
0.000000001
 43
0.0000000001
 40
0.0
 40
0.0
 40
0.0
 40
0.0
 40
0.125000000000024
 40
0.125000000000024
 40
0.1875000000000324
 40
0.1875000000000324
 40
0.2500000000000407
 40
0.2500000000000407
 40
0.3750000000000562
 40
0.3750000000000562
 40
0.4375000000000571
 40
0.4375000000000571
 40
0.5000000000000581
 40
0.5000000000000581
 40
0.6250000000000436
 40
0.6250000000000436
 40
0.6875000000000364
 40
0.6875000000000364
 40
0.7500000000000292
 40
0.7500000000000292
 40
0.875000000000014
 40
0.875000000000014
 40
0.9375000000000072
 40
0.9375000000000072
 40
1.0
 40
1.0
 40
1.0
 40
1.0
 10
262.069711071903
 20
242.6996353166761
 30
0.0
 10
262.0729917297704
 20
242.7195977002966
 30
0.0
 10
262.0780356875858
 20
242.738965344549
 30
0.0
 10
262.088165264868
 20
242.7671531771658
 30
0.0
 10
262.0919719851568
 20
242.7764042037021
 30
0.0
 10
262.1004676245174
 20
242.7946093329373
 30
0.0
 10
262.1051855640609
 20
242.803609885061
 30
0.0
 10
262.1204756552783
 20
242.829720540241
 30
0.0
 10
262.1321519021788
 20
242.845962995503
 30
0.0
 10
262.1518837709425
 20
242.868586656155
 30
0.0
 10
262.1588330897341
 20
242.8758359536465
 30
0.0
 10
262.173506498829
 20
242.8897268980788
 30
0.0
 10
262.1812365825717
 20
242.8963637227423
 30
0.0
 10
262.2050768918455
 20
242.9148917982865
 30
0.0
 10
262.2219957983343
 20
242.925580208222
 30
0.0
 10
262.2489409943467
 20
242.9390711944839
 30
0.0
 10
262.2582158738752
 20
242.9431529910123
 30
0.0
 10
262.2771889458595
 20
242.9503668861705
 30
0.0
 10
262.286777298043
 20
242.95346078021
 30
0.0
 10
262.3158402489319
 20
242.9612407190781
 30
0.0
 10
262.3356096576135
 20
242.9644404980552
 30
0.0
 10
262.3658799072155
 20
242.9661327374253
 30
0.0
 10
262.3760619515774
 20
242.9661680094023
 30
0.0
 10
262.3962541159946
 20
242.9651714634343
 30
0.0
 10
262.406311441818
 20
242.9641435771007
 30
0.0
 10
262.4163295024292
 20
242.9625785083308
 30
0.0
  0
SPLINE
  5
1AD
330
1F
100
AcDbEntity
  8
1
100
AcDbSpline
210
0.0
220
0.0
230
1.0
 70
     8
 71
     3
 72
     8
 73
     4
 74
     0
 42
0.000000001
 43
0.0000000001
 40
0.0
 40
0.0
 40
0.0
 40
0.0
 40
1.0
 40
1.0
 40
1.0
 40
1.0
 10
262.4163295024291
 20
242.9625785083304
 30
0.0
 10
262.41702859971
 20
242.9624692920495
 30
0.0
 10
262.4177277009849
 20
242.9623601398456
 30
0.0
 10
262.4184268062542
 20
242.9622510517236
 30
0.0
  0
SPLINE
  5
1AE
330
1F
100
AcDbEntity
  8
1
100
AcDbSpline
210
0.0
220
0.0
230
1.0
 70
     8
 71
     3
 72
     8
 73
     4
 74
     0
 42
0.000000001
 43
0.0000000001
 40
0.0
 40
0.0
 40
0.0
 40
0.0
 40
1.0
 40
1.0
 40
1.0
 40
1.0
 10
262.0696444375336
 20
249.9699515191275
 30
0.0
 10
262.1858247605724
 20
249.9581944662022
 30
0.0
 10
262.3020853781782
 20
249.9460319666935
 30
0.0
 10
262.4184268062542
 20
249.9334614155532
 30
0.0
  0
SPLINE
  5
1AF
330
1F
100
AcDbEntity
  8
1
100
AcDbSpline
210
0.0
220
0.0
230
1.0
 70
     8
 71
     3
 72
    32
 73
    28
 74
     0
 42
0.000000001
 43
0.0000000001
 40
0.0
 40
0.0
 40
0.0
 40
0.0
 40
0.1250000000000048
 40
0.1250000000000048
 40
0.2500000000000095
 40
0.2500000000000095
 40
0.3750000000000143
 40
0.3750000000000143
 40
0.4375000000000161
 40
0.4375000000000161
 40
0.5000000000000179
 40
0.5000000000000179
 40
0.5625000000000196
 40
0.5625000000000196
 40
0.5937500000000196
 40
0.5937500000000196
 40
0.6250000000000196
 40
0.6250000000000196
 40
0.7500000000000144
 40
0.7500000000000144
 40
0.8125000000000108
 40
0.8125000000000108
 40
0.8750000000000072
 40
0.8750000000000072
 40
0.9375000000000035
 40
0.9375000000000035
 40
1.0
 40
1.0
 40
1.0
 40
1.0
 10
240.1442482849923
 20
234.781161310191
 30
0.0
 10
240.1442482849923
 20
234.8074167025041
 30
0.0
 10
240.1463039769487
 20
234.8336388401571
 30
0.0
 10
240.1546420095637
 20
234.8859855446278
 30
0.0
 10
240.1609215744143
 20
234.9121104897551
 30
0.0
 10
240.1781466283421
 20
234.9641958491574
 30
0.0
 10
240.1890826338311
 20
234.9901574143781
 30
0.0
 10
240.2096824532642
 20
235.0288835806574
 30
0.0
 10
240.2172819425275
 20
235.041792660887
 30
0.0
 10
240.2338236984979
 20
235.0671344162067
 30
0.0
 10
240.2427812687507
 20
235.0796045584221
 30
0.0
 10
240.2621989970824
 20
235.1040892884652
 30
0.0
 10
240.2726582939134
 20
235.116104194713
 30
0.0
 10
240.2896168641118
 20
235.1337276438996
 30
0.0
 10
240.295481884361
 20
235.1395354376067
 30
0.0
 10
240.3076688125468
 20
235.1510048935321
 30
0.0
 10
240.3140079311206
 20
235.1566807974872
 30
0.0
 10
240.3466951460647
 20
235.1844470105886
 30
0.0
 10
240.3759103872994
 20
235.2047273470439
 30
0.0
 10
240.4256770775021
 20
235.2312501691812
 30
0.0
 10
240.4433925015268
 20
235.2394678529066
 30
0.0
 10
240.480066185007
 20
235.253847433207
 30
0.0
 10
240.4991132858945
 20
235.260072468559
 30
0.0
 10
240.5387964345297
 20
235.2703442747416
 30
0.0
 10
240.5595952664861
 20
235.2743955014831
 30
0.0
 10
240.6014932150816
 20
235.2797775002598
 30
0.0
 10
240.6227225959516
 20
235.281161310191
 30
0.0
 10
240.6442482849923
 20
235.281161310191
 30
0.0
  0
SPLINE
  5
1B0
330
1F
100
AcDbEntity
  8
1
100
AcDbSpline
210
0.0
220
0.0
230
1.0
 70
     8
 71
     3
 72
    32
 73
    28
 74
     0
 42
0.000000001
 43
0.0000000001
 40
0.0
 40
0.0
 40
0.0
 40
0.0
 40
0.0624999999999987
 40
0.0624999999999987
 40
0.1249999999999974
 40
0.1249999999999974
 40
0.1874999999999961
 40
0.1874999999999961
 40
0.2499999999999948
 40
0.2499999999999948
 40
0.3124999999999934
 40
0.3124999999999934
 40
0.3749999999999922
 40
0.3749999999999922
 40
0.437499999999991
 40
0.437499999999991
 40
0.4999999999999896
 40
0.4999999999999896
 40
0.6249999999999893
 40
0.6249999999999893
 40
0.6874999999999902
 40
0.6874999999999902
 40
0.749999999999991
 40
0.749999999999991
 40
0.8749999999999953
 40
0.8749999999999953
 40
1.0
 40
1.0
 40
1.0
 40
1.0
 10
247.8942482849923
 20
235.281161310191
 30
0.0
 10
247.9157568490687
 20
235.281161310191
 30
0.0
 10
247.9368704559511
 20
235.2797803310291
 30
0.0
 10
247.978369765623
 20
235.2744777947071
 30
0.0
 10
247.9987550894512
 20
235.2705549395024
 30
0.0
 10
248.0388178650349
 20
235.260251524154
 30
0.0
 10
248.0579546480755
 20
235.2540100353439
 30
0.0
 10
248.0945381871396
 20
235.2397129924368
 30
0.0
 10
248.1120109685929
 20
235.2316480247592
 30
0.0
 10
248.1454734172077
 20
235.2138792313761
 30
0.0
 10
248.1611420486076
 20
235.2043459031337
 30
0.0
 10
248.1905879805192
 20
235.1842745270617
 30
0.0
 10
248.2043837349161
 20
235.1737238768852
 30
0.0
 10
248.2303468977256
 20
235.151738007499
 30
0.0
 10
248.2425328196225
 20
235.1402814668265
 30
0.0
 10
248.2653353311462
 20
235.1166666128933
 30
0.0
 10
248.2758290993903
 20
235.1046413292378
 30
0.0
 10
248.3049572709455
 20
235.0680255488371
 30
0.0
 10
248.3212604057026
 20
235.0429013736129
 30
0.0
 10
248.3418752572908
 20
235.0044142982546
 30
0.0
 10
248.3481001509895
 20
234.9914498696398
 30
0.0
 10
248.3593332652197
 20
234.9652774574216
 30
0.0
 10
248.3643291371812
 20
234.9520887625039
 30
0.0
 10
248.3774529425521
 20
234.9126225786555
 30
0.0
 10
248.3837937819648
 20
234.8863023631752
 30
0.0
 10
248.3921933597524
 20
234.8336983176319
 30
0.0
 10
248.3942482849923
 20
234.8074141357908
 30
0.0
 10
248.3942482849923
 20
234.781161310191
 30
0.0
  0
SPLINE
  5
1B1
330
1F
100
AcDbEntity
  8
1
100
AcDbSpline
210
0.0
220
0.0
230
1.0
 70
     8
 71
     3
 72
    58
 73
    54
 74
     0
 42
0.000000001
 43
0.0000000001
 40
0.0
 40
0.0
 40
0.0
 40
0.0
 40
0.0156249999999999
 40
0.0156249999999999
 40
0.0312499999999998
 40
0.0624999999999998
 40
0.0624999999999998
 40
0.125
 40
0.125
 40
0.1562500000000002
 40
0.1562500000000002
 40
0.1718750000000003
 40
0.1718750000000003
 40
0.1796875000000001
 40
0.1796875000000001
 40
0.1875
 40
0.2499999999999999
 40
0.2499999999999999
 40
0.3124999999999998
 40
0.3124999999999998
 40
0.3281249999999999
 40
0.3281249999999999
 40
0.3437499999999999
 40
0.3437499999999999
 40
0.3750000000000002
 40
0.3750000000000002
 40
0.4375000000000008
 40
0.4375000000000008
 40
0.5000000000000016
 40
0.5000000000000016
 40
0.5312500000000019
 40
0.5312500000000019
 40
0.5468750000000019
 40
0.5468750000000019
 40
0.5625000000000019
 40
0.5625000000000019
 40
0.6250000000000011
 40
0.6250000000000011
 40
0.6875000000000005
 40
0.6875000000000005
 40
0.7499999999999997
 40
0.7499999999999997
 40
0.8124999999999989
 40
0.8124999999999989
 40
0.8281249999999989
 40
0.8281249999999989
 40
0.8437499999999989
 40
0.8437499999999989
 40
0.8749999999999987
 40
0.8749999999999987
 40
0.9374999999999994
 40
0.9374999999999994
 40
1.0
 40
1.0
 40
1.0
 40
1.0
 10
248.1587721883423
 20
236.5882722904658
 30
0.0
 10
248.168686895639
 20
236.524707663526
 30
0.0
 10
248.1797192786935
 20
236.4616128204803
 30
0.0
 10
248.2040442680465
 20
236.3365843326127
 30
0.0
 10
248.2437437000804
 20
236.1516877215724
 30
0.0
 10
248.2930446412564
 20
235.9745509682078
 30
0.0
 10
248.4044875904542
 20
235.63022663841
 30
0.0
 10
248.4958661402008
 20
235.4139246959932
 30
0.0
 10
248.659466443083
 20
235.1081571248199
 30
0.0
 10
248.718431784759
 20
235.0093537451312
 30
0.0
 10
248.8137261468016
 20
234.8657162027722
 30
0.0
 10
248.8466325659453
 20
234.8185984959027
 30
0.0
 10
248.8977345990263
 20
234.7490520411772
 30
0.0
 10
248.9150572117
 20
234.7260621327331
 30
0.0
 10
248.9501554500453
 20
234.6806236734984
 30
0.0
 10
249.1102810815117
 20
234.4783979442
 30
0.0
 10
249.2898642736644
 20
234.2959083732787
 30
0.0
 10
249.6389038875004
 20
233.998512271465
 30
0.0
 10
249.8283225982363
 20
233.8633429578352
 30
0.0
 10
250.0835139770623
 20
233.7092118363923
 30
0.0
 10
250.1354743917993
 20
233.6791286424912
 30
0.0
 10
250.2412389969275
 20
233.6204017600755
 30
0.0
 10
250.2948186139326
 20
233.5918829682979
 30
0.0
 10
250.4575159133599
 20
233.5087706216495
 30
0.0
 10
250.5686287749558
 20
233.456597220487
 30
0.0
 10
250.9095796428763
 20
233.3087925277617
 30
0.0
 10
251.1470166154141
 20
233.221845355624
 30
0.0
 10
251.6407861997975
 20
233.0667912958424
 30
0.0
 10
251.8971230593286
 20
232.9986957806431
 30
0.0
 10
252.2950601423215
 20
232.9081091089725
 30
0.0
 10
252.4299470458211
 20
232.8798454713644
 30
0.0
 10
252.6355667619837
 20
232.8400694588815
 30
0.0
 10
252.7047234988329
 20
232.8272361166497
 30
0.0
 10
252.8435729038318
 20
232.8024951924778
 30
0.0
 10
252.9133084617864
 20
232.7905782086067
 30
0.0
 10
253.2635024558751
 20
232.7331136127946
 30
0.0
 10
253.548499675208
 20
232.6938920370138
 30
0.0
 10
254.1273727462896
 20
232.625792336883
 30
0.0
 10
254.4212506620878
 20
232.5969227985906
 30
0.0
 10
255.0172967771162
 20
232.5471215247471
 30
0.0
 10
255.3194662021838
 20
232.5261950663141
 30
0.0
 10
255.9316697574068
 20
232.4903972054982
 30
0.0
 10
256.2417045992724
 20
232.4755291198503
 30
0.0
 10
256.6339818484057
 20
232.4598007782786
 30
0.0
 10
256.7126742882213
 20
232.4567988045416
 30
0.0
 10
256.8705297759113
 20
232.4510622350033
 30
0.0
 10
256.949722565182
 20
232.4483266732277
 30
0.0
 10
257.1877968081523
 20
232.4404995395201
 30
0.0
 10
257.3469500911181
 20
232.435793655203
 30
0.0
 10
257.8256884545433
 20
232.4229824874256
 30
0.0
 10
258.1465503487393
 20
232.4161740500284
 30
0.0
 10
258.791549276945
 20
232.405051241977
 30
0.0
 10
259.1156865415642
 20
232.4007385242076
 30
0.0
 10
259.4414221389715
 20
232.3973343578125
 30
0.0
  0
SPLINE
  5
1B2
330
1F
100
AcDbEntity
  8
1
100
AcDbSpline
210
0.0
220
0.0
230
1.0
 70
     8
 71
     3
 72
    23
 73
    19
 74
     0
 42
0.000000001
 43
0.0000000001
 40
0.0
 40
0.0
 40
0.0
 40
0.0
 40
0.2499999999999997
 40
0.2499999999999997
 40
0.3749999999999996
 40
0.3749999999999996
 40
0.4999999999999994
 40
0.4999999999999994
 40
0.5624999999999993
 40
0.5624999999999993
 40
0.5937499999999993
 40
0.5937499999999993
 40
0.6249999999999993
 40
0.7499999999999993
 40
0.7499999999999993
 40
0.8749999999999996
 40
0.8749999999999996
 40
1.0
 40
1.0
 40
1.0
 40
1.0
 10
248.1587721883376
 20
236.5882722904689
 30
0.0
 10
247.8610553336948
 20
236.8923276481794
 30
0.0
 10
247.5906641802192
 20
237.2193763248042
 30
0.0
 10
247.225888011429
 20
237.7480033778491
 30
0.0
 10
247.1111054127441
 20
237.9305650508712
 30
0.0
 10
246.895255366114
 20
238.3091621720461
 30
0.0
 10
246.794186530172
 20
238.5051955971583
 30
0.0
 10
246.6530338026473
 20
238.81005771579
 30
0.0
 10
246.607725747806
 20
238.9134819836034
 30
0.0
 10
246.5424105053713
 20
239.0714292118994
 30
0.0
 10
246.521123308812
 20
239.1244457283574
 30
0.0
 10
246.4796527814781
 20
239.2308442359031
 30
0.0
 10
246.3786233793468
 20
239.4980324654306
 30
0.0
 10
246.2905879259771
 20
239.7711500133037
 30
0.0
 10
246.1654516284007
 20
240.2156743337469
 30
0.0
 10
246.110743572293
 20
240.4417042362747
 30
0.0
 10
246.0164094912778
 20
240.9013409275126
 30
0.0
 10
245.9767827541266
 20
241.1349471017625
 30
0.0
 10
245.9445197643276
 20
241.3724163802528
 30
0.0
  0
SPLINE
  5
1B3
330
1F
100
AcDbEntity
  8
1
100
AcDbSpline
210
0.0
220
0.0
230
1.0
 70
     8
 71
     3
 72
     8
 73
     4
 74
     0
 42
0.000000001
 43
0.0000000001
 40
0.0
 40
0.0
 40
0.0
 40
0.0
 40
1.0
 40
1.0
 40
1.0
 40
1.0
 10
267.8011105629461
 20
256.0157456234897
 30
0.0
 10
267.79828260248
 20
256.0165331269172
 30
0.0
 10
267.7954440611297
 20
256.0172921652405
 30
0.0
 10
267.7925959170248
 20
256.0180223983742
 30
0.0
  0
SPLINE
  5
1B4
330
1F
100
AcDbEntity
  8
1
100
AcDbSpline
210
0.0
220
0.0
230
1.0
 70
     8
 71
     3
 72
    18
 73
    14
 74
     0
 42
0.000000001
 43
0.0000000001
 40
0.0
 40
0.0
 40
0.0
 40
0.0
 40
0.2499999999999931
 40
0.2499999999999931
 40
0.3749999999999896
 40
0.3749999999999896
 40
0.4999999999999862
 40
0.4999999999999862
 40
0.7499999999999929
 40
0.7499999999999929
 40
0.8749999999999964
 40
0.8749999999999964
 40
1.0
 40
1.0
 40
1.0
 40
1.0
 10
267.8011105629461
 20
256.0157456234897
 30
0.0
 10
267.8274335755377
 20
256.008415442292
 30
0.0
 10
267.8524952696009
 20
255.9984349946024
 30
0.0
 10
267.8882675422814
 20
255.9796405926475
 30
0.0
 10
267.8998857790511
 20
255.9727332948803
 30
0.0
 10
267.9224924872552
 20
255.9575958680385
 30
0.0
 10
267.9334348642467
 20
255.9493851291779
 30
0.0
 10
267.964563908394
 20
255.9233384777744
 30
0.0
 10
267.9833234492601
 20
255.9039403264237
 30
0.0
 10
268.0084484579673
 20
255.8717672931157
 30
0.0
 10
268.0163362381004
 20
255.8604863614905
 30
0.0
 10
268.0308168494398
 20
255.8372372257159
 30
0.0
 10
268.0374420302792
 20
255.8252348730405
 30
0.0
 10
268.0434474912663
 20
255.8128518749124
 30
0.0
  0
SPLINE
  5
1B5
330
1F
100
AcDbEntity
  8
1
100
AcDbSpline
210
0.0
220
0.0
230
1.0
 70
     8
 71
     3
 72
     8
 73
     4
 74
     0
 42
0.000000001
 43
0.0000000001
 40
0.0
 40
0.0
 40
0.0
 40
0.0
 40
1.0
 40
1.0
 40
1.0
 40
1.0
 10
268.0470298641996
 20
255.8052701380895
 30
0.0
 10
268.0458619467891
 20
255.8078084078839
 30
0.0
 10
268.0446676740448
 20
255.8103359113429
 30
0.0
 10
268.0434474912664
 20
255.8128518749124
 30
0.0
  0
SPLINE
  5
1B6
330
1F
100
AcDbEntity
  8
1
100
AcDbSpline
210
0.0
220
0.0
230
1.0
 70
     8
 71
     3
 72
     8
 73
     4
 74
     0
 42
0.000000001
 43
0.0000000001
 40
0.0
 40
0.0
 40
0.0
 40
0.0
 40
1.0
 40
1.0
 40
1.0
 40
1.0
 10
268.7569649642385
 20
248.0119909082923
 30
0.0
 10
268.7595000514189
 20
248.013216618863
 30
0.0
 10
268.7620222531156
 20
248.0144680403815
 30
0.0
 10
268.7645308029829
 20
248.0157447111146
 30
0.0
  0
SPLINE
  5
1B7
330
1F
100
AcDbEntity
  8
1
100
AcDbSpline
210
0.0
220
0.0
230
1.0
 70
     8
 71
     3
 72
     8
 73
     4
 74
     0
 42
0.000000001
 43
0.0000000001
 40
0.0
 40
0.0
 40
0.0
 40
0.0
 40
1.0
 40
1.0
 40
1.0
 40
1.0
 10
268.9698751984307
 20
248.2641957190329
 30
0.0
 10
268.9707121993979
 20
248.2670678525657
 30
0.0
 10
268.9715183560828
 20
248.2699494051321
 30
0.0
 10
268.9722933052213
 20
248.2728393803233
 30
0.0
  0
SPLINE
  5
1B8
330
1F
100
AcDbEntity
  8
1
100
AcDbSpline
210
0.0
220
0.0
230
1.0
 70
     8
 71
     3
 72
     8
 73
     4
 74
     0
 42
0.000000001
 43
0.0000000001
 40
0.0
 40
0.0
 40
0.0
 40
0.0
 40
1.0
 40
1.0
 40
1.0
 40
1.0
 10
267.8011105629461
 20
237.8375262588371
 30
0.0
 10
267.79828260248
 20
237.8376542353633
 30
0.0
 10
267.7954440611297
 20
237.8377864171982
 30
0.0
 10
267.7925959170248
 20
237.8379227664195
 30
0.0
  0
SPLINE
  5
1B9
330
1F
100
AcDbEntity
  8
1
100
AcDbSpline
210
0.0
220
0.0
230
1.0
 70
     8
 71
     3
 72
    18
 73
    14
 74
     0
 42
0.000000001
 43
0.0000000001
 40
0.0
 40
0.0
 40
0.0
 40
0.0
 40
0.2499999999999809
 40
0.2499999999999809
 40
0.3749999999999714
 40
0.3749999999999714
 40
0.4999999999999618
 40
0.4999999999999618
 40
0.7499999999999765
 40
0.7499999999999765
 40
0.8749999999999882
 40
0.8749999999999882
 40
1.0
 40
1.0
 40
1.0
 40
1.0
 10
267.8011105629461
 20
237.8375262588371
 30
0.0
 10
267.8274335755377
 20
237.8363350371953
 30
0.0
 10
267.8524952696008
 20
237.8364641442012
 30
0.0
 10
267.8882675422814
 20
237.8385609641724
 30
0.0
 10
267.899885779051
 20
237.8395797031237
 30
0.0
 10
267.9224924872552
 20
237.842275442952
 30
0.0
 10
267.9334348642467
 20
237.843951770174
 30
0.0
 10
267.964563908394
 20
237.8498507370645
 30
0.0
 10
267.9833234492601
 20
237.8549614851136
 30
0.0
 10
268.0084484579673
 20
237.8644098662218
 30
0.0
 10
268.0163362381004
 20
237.8678724006425
 30
0.0
 10
268.0308168494398
 20
237.8752968188161
 30
0.0
 10
268.0374420302792
 20
237.8792678084017
 30
0.0
 10
268.0434474912663
 20
237.88349969632
 30
0.0
  0
SPLINE
  5
1BA
330
1F
100
AcDbEntity
  8
1
100
AcDbSpline
210
0.0
220
0.0
230
1.0
 70
     8
 71
     3
 72
     8
 73
     4
 74
     0
 42
0.000000001
 43
0.0000000001
 40
0.0
 40
0.0
 40
0.0
 40
0.0
 40
1.0
 40
1.0
 40
1.0
 40
1.0
 10
268.0470298641996
 20
237.8860792322006
 30
0.0
 10
268.0458619467891
 20
237.8852194629488
 30
0.0
 10
268.0446676740448
 20
237.8843595265261
 30
0.0
 10
268.0434474912664
 20
237.8834996963201
 30
0.0
  0
SPLINE
  5
1BB
330
1F
100
AcDbEntity
  8
1
100
AcDbSpline
210
0.0
220
0.0
230
1.0
 70
     8
 71
     3
 72
    11
 73
     7
 74
     0
 42
0.000000001
 43
0.0000000001
 40
0.0
 40
0.0
 40
0.0
 40
0.0
 40
0.2544771779012838
 40
0.5059695618021812
 40
0.754477158883258
 40
1.0
 40
1.0
 40
1.0
 40
1.0
 10
267.792594108467
 20
237.8379233528804
 30
0.0
 10
267.790687443227
 20
237.9133058143942
 30
0.0
 10
267.7868964762574
 20
238.0631865672941
 30
0.0
 10
267.781201716235
 20
238.286726001461
 30
0.0
 10
267.7755468040816
 20
238.5076424589411
 30
0.0
 10
267.7717712459371
 20
238.6540661758388
 30
0.0
 10
267.7698948721537
 20
238.7268357143124
 30
0.0
  0
SPLINE
  5
1BC
330
1F
100
AcDbEntity
  8
1
100
AcDbSpline
210
0.0
220
0.0
230
1.0
 70
     8
 71
     3
 72
    14
 73
    10
 74
     0
 42
0.000000001
 43
0.0000000001
 40
0.0
 40
0.0
 40
0.0
 40
0.0
 40
0.1298442228134873
 40
0.2715064851789247
 40
0.414513849175327
 40
0.5588666058456305
 40
0.7045650365988445
 40
0.8516094135760216
 40
1.0
 40
1.0
 40
1.0
 40
1.0
 10
260.9560495911086
 20
240.9173922527006
 30
0.0
 10
260.9281023168543
 20
240.8525890224454
 30
0.0
 10
260.8697478046741
 20
240.7170477226747
 30
0.0
 10
260.7808482332457
 20
240.5100309360654
 30
0.0
 10
260.689059288983
 20
240.2956715591349
 30
0.0
 10
260.5966189071106
 20
240.079203455539
 30
0.0
 10
260.5035321937594
 20
239.860624142458
 30
0.0
 10
260.4097797020249
 20
239.6399417192066
 30
0.0
 10
260.3471639814391
 20
239.4920726211881
 30
0.0
 10
260.3157134605186
 20
239.4178011743819
 30
0.0
  0
SPLINE
  5
1BD
330
1F
100
AcDbEntity
  8
1
100
AcDbSpline
210
0.0
220
0.0
230
1.0
 70
     8
 71
     3
 72
    15
 73
    11
 74
     0
 42
0.000000001
 43
0.0000000001
 40
0.0
 40
0.0
 40
0.0
 40
0.0
 40
0.1209042850991216
 40
0.2429782544700808
 40
0.3662221790940001
 40
0.4906363208882876
 40
0.6162209330557003
 40
0.7429762604176298
 40
0.8709025397324927
 40
1.0
 40
1.0
 40
1.0
 40
1.0
 10
268.0223701403972
 20
239.7639938333901
 30
0.0
 10
268.0233202818455
 20
239.6882556882202
 30
0.0
 10
268.0252297568521
 20
239.5360466718474
 30
0.0
 10
268.0281545573634
 20
239.3066929407616
 30
0.0
 10
268.0311407898645
 20
239.0751835051365
 30
0.0
 10
268.0341918372911
 20
238.8415223003134
 30
0.0
 10
268.0373064214029
 20
238.6057073887315
 30
0.0
 10
268.0404854668602
 20
238.3677396310553
 30
0.0
 10
268.0437258487467
 20
238.1276146634222
 30
0.0
 10
268.0459243920946
 20
237.9668352818538
 30
0.0
 10
268.0470286728237
 20
237.8860792790909
 30
0.0
  0
SPLINE
  5
1BE
330
1F
100
AcDbEntity
  8
1
100
AcDbSpline
210
0.0
220
0.0
230
1.0
 70
     8
 71
     3
 72
    24
 73
    20
 74
     0
 42
0.000000001
 43
0.0000000001
 40
0.0
 40
0.0
 40
0.0
 40
0.0
 40
0.2500000000000051
 40
0.2500000000000051
 40
0.5000000000000103
 40
0.5000000000000103
 40
0.6250000000000116
 40
0.6250000000000116
 40
0.7500000000000129
 40
0.7500000000000129
 40
0.8125000000000108
 40
0.8125000000000108
 40
0.875000000000009
 40
0.875000000000009
 40
0.9375000000000071
 40
0.9375000000000071
 40
0.9687500000000035
 40
0.9687500000000035
 40
1.0
 40
1.0
 40
1.0
 40
1.0
 10
268.0223724701754
 20
239.7639556239451
 30
0.0
 10
268.0153317800026
 20
239.6741325781832
 30
0.0
 10
268.0065724294489
 20
239.5845056325885
 30
0.0
 10
267.9844740896384
 20
239.4057742812724
 30
0.0
 10
267.9711704970013
 20
239.3165833716251
 30
0.0
 10
267.9459915143455
 20
239.1839474999272
 30
0.0
 10
267.9367160264918
 20
239.1399168349369
 30
0.0
 10
267.9156950303954
 20
239.0523629256672
 30
0.0
 10
267.9039534248175
 20
239.0087793746548
 30
0.0
 10
267.8835738022481
 20
238.9444913157499
 30
0.0
 10
267.8763107302512
 20
238.9232315330439
 30
0.0
 10
267.8605039542942
 20
238.8811741373055
 30
0.0
 10
267.8519691993459
 20
238.8603732946419
 30
0.0
 10
267.832993348485
 20
238.8194595922677
 30
0.0
 10
267.8225702333927
 20
238.7993600967863
 30
0.0
 10
267.8048936399841
 20
238.7707362889652
 30
0.0
 10
267.7986476337097
 20
238.7614329216639
 30
0.0
 10
267.7851580342083
 20
238.743496967788
 30
0.0
 10
267.7779233859625
 20
238.7348583665785
 30
0.0
 10
267.7699123819838
 20
238.7267417895011
 30
0.0
  0
SPLINE
  5
1BF
330
1F
100
AcDbEntity
  8
1
100
AcDbSpline
210
0.0
220
0.0
230
1.0
 70
     8
 71
     3
 72
    18
 73
    14
 74
     0
 42
0.000000001
 43
0.0000000001
 40
0.0
 40
0.0
 40
0.0
 40
0.0
 40
0.2499999999999767
 40
0.2499999999999767
 40
0.3749999999999798
 40
0.3749999999999798
 40
0.499999999999983
 40
0.499999999999983
 40
0.749999999999989
 40
0.749999999999989
 40
0.8749999999999944
 40
0.8749999999999944
 40
1.0
 40
1.0
 40
1.0
 40
1.0
 10
268.9698751984307
 20
248.2641957190329
 30
0.0
 10
268.9620842878933
 20
248.2374615379729
 30
0.0
 10
268.9517052350409
 20
248.2119568503888
 30
0.0
 10
268.9324019848156
 20
248.1754740226725
 30
0.0
 10
268.925340039781
 20
248.1636111951221
 30
0.0
 10
268.9099240830654
 20
248.1404993572326
 30
0.0
 10
268.9015901805881
 20
248.1292972737627
 30
0.0
 10
268.8752285727634
 20
248.0973831378496
 30
0.0
 10
268.8556893654444
 20
248.0780867595394
 30
0.0
 10
268.8234091337148
 20
248.0521362044132
 30
0.0
 10
268.8121101301577
 20
248.0439689411675
 30
0.0
 10
268.7888614109644
 20
248.0289315791357
 30
0.0
 10
268.7768773125707
 20
248.0220281929194
 30
0.0
 10
268.764530802983
 20
248.0157447111147
 30
0.0
  0
SPLINE
  5
1C0
330
1F
100
AcDbEntity
  8
1
100
AcDbSpline
210
0.0
220
0.0
230
1.0
 70
     8
 71
     3
 72
     8
 73
     4
 74
     0
 42
0.000000001
 43
0.0000000001
 40
0.0
 40
0.0
 40
0.0
 40
0.0
 40
1.0
 40
1.0
 40
1.0
 40
1.0
 10
260.3157127999159
 20
239.4178012744396
 30
0.0
 10
260.3131777047727
 20
239.4186896579021
 30
0.0
 10
260.3106521366993
 20
239.4195776881051
 30
0.0
 10
260.308136871818
 20
239.4204650850974
 30
0.0
  0
SPLINE
  5
1C1
330
1F
100
AcDbEntity
  8
1
100
AcDbSpline
210
0.0
220
0.0
230
1.0
 70
     8
 71
     3
 72
    11
 73
     7
 74
     0
 42
0.000000001
 43
0.0000000001
 40
0.0
 40
0.0
 40
0.0
 40
0.0
 40
0.304358787032246
 40
0.6051477125613101
 40
0.9023667851752495
 40
1.0
 40
1.0
 40
1.0
 40
1.0
 10
260.1003898463073
 20
239.5573630939283
 30
0.0
 10
260.1293272576451
 20
239.6271603347154
 30
0.0
 10
260.1868626698777
 20
239.7659361559008
 30
0.0
 10
260.2728642085507
 20
239.9728001157706
 30
0.0
 10
260.3392730401777
 20
240.1322349458048
 30
0.0
 10
260.3770313544155
 20
240.2227092493215
 30
0.0
 10
260.3863702843868
 20
240.2450794801654
 30
0.0
  0
SPLINE
  5
1C2
330
1F
100
AcDbEntity
  8
1
100
AcDbSpline
210
0.0
220
0.0
230
1.0
 70
     8
 71
     3
 72
     8
 73
     4
 74
     0
 42
0.000000001
 43
0.0000000001
 40
0.0
 40
0.0
 40
0.0
 40
0.0
 40
1.0
 40
1.0
 40
1.0
 40
1.0
 10
260.1027923667899
 20
239.5534323955967
 30
0.0
 10
260.1019624803011
 20
239.5547537008931
 30
0.0
 10
260.1011599010734
 20
239.5560647741747
 30
0.0
 10
260.1003849815684
 20
239.5573651238322
 30
0.0
  0
SPLINE
  5
1C3
330
1F
100
AcDbEntity
  8
1
100
AcDbSpline
210
0.0
220
0.0
230
1.0
 70
     8
 71
     3
 72
    18
 73
    14
 74
     0
 42
0.000000001
 43
0.0000000001
 40
0.0
 40
0.0
 40
0.0
 40
0.0
 40
0.2499999999999888
 40
0.2499999999999888
 40
0.3749999999999802
 40
0.3749999999999802
 40
0.4999999999999716
 40
0.4999999999999716
 40
0.7499999999999712
 40
0.7499999999999712
 40
0.8749999999999856
 40
0.8749999999999856
 40
1.0
 40
1.0
 40
1.0
 40
1.0
 10
260.1027923667899
 20
239.5534323955967
 30
0.0
 10
260.1105170548686
 20
239.541133519293
 30
0.0
 10
260.1208470086659
 20
239.5289876409215
 30
0.0
 10
260.1401005941299
 20
239.5109876982973
 30
0.0
 10
260.1471500195947
 20
239.5050245086396
 30
0.0
 10
260.1625491767223
 20
239.4931737004393
 30
0.0
 10
260.1708788842498
 20
239.4873085701145
 30
0.0
 10
260.1972404930183
 20
239.4702309094728
 30
0.0
 10
260.2167961113555
 20
239.4593989192255
 30
0.0
 10
260.2491259789142
 20
239.4439879779717
 30
0.0
 10
260.2604458423345
 20
239.4389776404066
 30
0.0
 10
260.2837443021498
 20
239.4294093674182
 30
0.0
 10
260.2957573124742
 20
239.4248326504419
 30
0.0
 10
260.3081368718179
 20
239.4204650850975
 30
0.0
  0
SPLINE
  5
1C4
330
1F
100
AcDbEntity
  8
1
100
AcDbSpline
210
0.0
220
0.0
230
1.0
 70
     8
 71
     3
 72
    24
 73
    20
 74
     0
 42
0.000000001
 43
0.0000000001
 40
0.0
 40
0.0
 40
0.0
 40
0.0
 40
0.2500000000000016
 40
0.2500000000000016
 40
0.5000000000000032
 40
0.5000000000000032
 40
0.6250000000000043
 40
0.6250000000000043
 40
0.7500000000000054
 40
0.7500000000000054
 40
0.8125000000000028
 40
0.8125000000000028
 40
0.8750000000000003
 40
0.8750000000000003
 40
0.9374999999999978
 40
0.9374999999999978
 40
0.9687499999999987
 40
0.9687499999999987
 40
1.0
 40
1.0
 40
1.0
 40
1.0
 10
268.653364112024
 20
242.5409752881531
 30
0.0
 10
268.6766597085456
 20
242.4646205417415
 30
0.0
 10
268.6999843468682
 20
242.387493799549
 30
0.0
 10
268.7467110288738
 20
242.2311832159738
 30
0.0
 10
268.7701335597189
 20
242.1519486724451
 30
0.0
 10
268.8052138353581
 20
242.0311983119424
 30
0.0
 10
268.8169015627188
 20
241.9906168835905
 30
0.0
 10
268.8402610696211
 20
241.9085267250524
 30
0.0
 10
268.8519480920357
 20
241.8669714022603
 30
0.0
 10
268.8693280837694
 20
241.8040185340359
 30
0.0
 10
268.8750997002455
 20
241.7829168399527
 30
0.0
 10
268.8865837505595
 20
241.7403934612657
 30
0.0
 10
268.8922965979841
 20
241.7189740127436
 30
0.0
 10
268.9036341939797
 20
241.6756587797509
 30
0.0
 10
268.9092546962513
 20
241.6537835222133
 30
0.0
 10
268.9173894299819
 20
241.6210972538066
 30
0.0
 10
268.9200564708817
 20
241.610202437892
 30
0.0
 10
268.9252649775637
 20
241.5884145172238
 30
0.0
 10
268.9278075693258
 20
241.5775213971258
 30
0.0
 10
268.9302524343101
 20
241.5666296087118
 30
0.0
  0
SPLINE
  5
1C9
330
1F
100
AcDbEntity
  8
1
100
AcDbSpline
210
0.0
220
0.0
230
1.0
 70
     8
 71
     3
 72
    18
 73
    14
 74
     0
 42
0.000000001
 43
0.0000000001
 40
0.0
 40
0.0
 40
0.0
 40
0.0
 40
0.2499999999999911
 40
0.2499999999999911
 40
0.374999999999994
 40
0.374999999999994
 40
0.4999999999999969
 40
0.4999999999999969
 40
0.7500000000000107
 40
0.7500000000000107
 40
0.8750000000000053
 40
0.8750000000000053
 40
1.0
 40
1.0
 40
1.0
 40
1.0
 10
260.1027923667899
 20
254.6945348751879
 30
0.0
 10
260.1105170548686
 20
254.7213085298487
 30
0.0
 10
260.1208470086659
 20
254.7468424841884
 30
0.0
 10
260.1401005941299
 20
254.7833549158639
 30
0.0
 10
260.1471500195947
 20
254.7952252060262
 30
0.0
 10
260.1625491767223
 20
254.8183470577426
 30
0.0
 10
260.1708788842498
 20
254.8295516417202
 30
0.0
 10
260.1972404930183
 20
254.8614657770705
 30
0.0
 10
260.2167961113555
 20
254.8807523731708
 30
0.0
 10
260.2491259789142
 20
254.9066733415837
 30
0.0
 10
260.2604458423345
 20
254.9148281707711
 30
0.0
 10
260.2837443021498
 20
254.9298358836249
 30
0.0
 10
260.2957573124742
 20
254.9367220361407
 30
0.0
 10
260.3081368718179
 20
254.9429858177879
 30
0.0
  0
SPLINE
  5
1CA
330
1F
100
AcDbEntity
  8
1
100
AcDbSpline
210
0.0
220
0.0
230
1.0
 70
     8
 71
     3
 72
     8
 73
     4
 74
     0
 42
0.000000001
 43
0.0000000001
 40
0.0
 40
0.0
 40
0.0
 40
0.0
 40
1.0
 40
1.0
 40
1.0
 40
1.0
 10
260.315712799916
 20
254.9467336065979
 30
0.0
 10
260.3131777047727
 20
254.9455079007715
 30
0.0
 10
260.3106521366993
 20
254.9442584858663
 30
0.0
 10
260.308136871818
 20
254.9429858177879
 30
0.0
  0
SPLINE
  5
1CB
330
1F
100
AcDbEntity
  8
1
100
AcDbSpline
210
0.0
220
0.0
230
1.0
 70
     8
 71
     3
 72
     8
 73
     4
 74
     0
 42
0.000000001
 43
0.0000000001
 40
0.0
 40
0.0
 40
0.0
 40
0.0
 40
1.0
 40
1.0
 40
1.0
 40
1.0
 10
260.1027923667899
 20
254.6945348751879
 30
0.0
 10
260.1019624803011
 20
254.6916585008889
 30
0.0
 10
260.1011599010734
 20
254.6887748158887
 30
0.0
 10
260.1003849815684
 20
254.6858848230353
 30
0.0
  0
LINE
  5
1CD
330
1F
100
AcDbEntity
  8
4
100
AcDbLine
 10
235.644248
 20
243.731161
 30
0.0
 11
269.918427
 21
243.731161
 31
0.0
  0
MTEXT
  5
1CE
330
1F
100
AcDbEntity
  8
SK6
100
AcDbMText
 10
192.513213
 20
212.002455
 30
0.0
 40
3.5
 41
0.0
 71
     7
 72
     5
  1
\W0.7256;25E3R032M12-SZD09-C
  7
cesky
 73
     2
 44
0.8433729999999998
  0
MTEXT
  5
2B2
330
1F
100
AcDbEntity
  8
2
100
AcDbMText
 10
251.329748
 20
273.040932
 30
0.0
 40
3.5
 41
0.0
 71
     7
 72
     5
  1
\W0.7045;32
  7
cesky
 73
     2
 44
0.8433729999999998
  0
LINE
  5
2B3
330
1F
100
AcDbEntity
  8
2
100
AcDbLine
 10
269.144248
 20
258.231161
 30
0.0
 11
269.144248
 21
274.166765
 31
0.0
  0
LINE
  5
2B4
330
1F
100
AcDbEntity
  8
2
100
AcDbLine
 10
237.144248
 20
244.730735
 30
0.0
 11
237.144248
 21
274.166765
 31
0.0
  0
LINE
  5
2B5
330
1F
100
AcDbEntity
  8
2
100
AcDbLine
 10
269.144248
 20
273.166765
 30
0.0
 11
237.144248
 21
273.166765
 31
0.0
  0
SOLID
  5
2B6
330
1F
100
AcDbEntity
  8
2
100
AcDbTrace
 10
269.144248
 20
273.166765
 30
0.0
 11
265.644251
 21
272.549621
 31
0.0
 12
265.644246
 22
273.78391
 32
0.0
 13
265.644246
 23
273.78391
 33
0.0
  0
SOLID
  5
2B7
330
1F
100
AcDbEntity
  8
2
100
AcDbTrace
 10
237.144248
 20
273.166765
 30
0.0
 11
240.644246
 21
273.78391
 31
0.0
 12
240.644251
 22
272.549621
 32
0.0
 13
240.644251
 23
272.549621
 33
0.0
  0
MTEXT
  5
2B8
330
1F
100
AcDbEntity
  8
2
100
AcDbMText
 10
260.3982890000001
 20
262.344914
 30
0.0
 40
3.5
 41
0.0
 71
     7
 72
     5
  1
\W1.7063;1
  7
cesky
 73
     2
 44
0.8433729999999998
  0
LINE
  5
2B9
330
1F
100
AcDbEntity
  8
2
100
AcDbLine
 10
269.144248
 20
258.231161
 30
0.0
 11
269.144248
 21
263.470747
 31
0.0
  0
LINE
  5
2BA
330
1F
100
AcDbEntity
  8
2
100
AcDbLine
 10
268.187789
 20
255.489587
 30
0.0
 11
268.187789
 21
263.470747
 31
0.0
  0
LINE
  5
2BB
330
1F
100
AcDbEntity
  8
2
100
AcDbLine
 10
260.212789
 20
262.470747
 30
0.0
 11
277.894248
 21
262.470747
 31
0.0
  0
SOLID
  5
2BC
330
1F
100
AcDbEntity
  8
2
100
AcDbTrace
 10
269.144248
 20
262.470747
 30
0.0
 11
272.644246
 21
263.087892
 31
0.0
 12
272.644251
 22
261.853603
 32
0.0
 13
272.644251
 23
261.853603
 33
0.0
  0
SOLID
  5
2BD
330
1F
100
AcDbEntity
  8
2
100
AcDbTrace
 10
268.187789
 20
262.470747
 30
0.0
 11
264.687792
 21
261.853603
 31
0.0
 12
264.687787
 22
263.087892
 32
0.0
 13
264.687787
 23
263.087892
 33
0.0
  0
MTEXT
  5
2BE
330
1F
100
AcDbEntity
  8
2
100
AcDbMText
 10
280.1106910000001
 20
240.965053
 30
0.0
 40
3.5
 41
0.0
 71
     7
 72
     5
  1
\W0.7045;25
  7
cesky
 11
0.0000000000000001
 21
1.0
 31
0.0
 73
     2
 44
0.8433729999999998
  0
MTEXT
  5
2BF
330
1F
100
AcDbEntity
  8
2
100
AcDbMText
 10
280.1106910000001
 20
234.227553
 30
0.0
 40
3.5
 41
0.0
 71
     7
 72
     5
  1
\W3.0115;\H2.63;%%c\H3.50;
  7
cesky
 11
0.0000000000000001
 21
1.0
 31
0.0
 73
     2
 44
0.8433729999999998
  0
LINE
  5
2C0
330
1F
100
AcDbEntity
  8
2
100
AcDbLine
 10
271.144248
 20
256.231161
 30
0.0
 11
281.298107
 21
256.231161
 31
0.0
  0
LINE
  5
2C1
330
1F
100
AcDbEntity
  8
2
100
AcDbLine
 10
280.2981069999999
 20
256.231161
 30
0.0
 11
280.2981069999999
 21
234.070053
 31
0.0
  0
SOLID
  5
2C2
330
1F
100
AcDbEntity
  8
2
100
AcDbTrace
 10
280.2981069999999
 20
256.231161
 30
0.0
 11
280.915252
 21
252.731164
 31
0.0
 12
279.680963
 22
252.731159
 32
0.0
 13
279.680963
 23
252.731159
 33
0.0
  0
MTEXT
  5
2C3
330
1F
100
AcDbEntity
  8
SK2
100
AcDbMText
 10
207.706167
 20
240.276161
 30
0.0
 40
3.5
 41
0.0
 71
     7
 72
     5
  1
\W0.5332;M
  7
cesky
 11
0.0000000000000001
 21
1.0
 31
0.0
 73
     2
 44
0.8433729999999998
  0
MTEXT
  5
2C4
330
1F
100
AcDbEntity
  8
SK2
100
AcDbMText
 10
207.706167
 20
243.501161
 30
0.0
 40
3.5
 41
0.0
 71
     7
 72
     5
  1
\W0.7984;12
  7
cesky
 11
0.0000000000000001
 21
1.0
 31
0.0
 73
     2
 44
0.8433729999999998
  0
LINE
  5
2C5
330
1F
100
AcDbEntity
  8
SK2
100
AcDbLine
 10
216.144248
 20
249.731161
 30
0.0
 11
206.937334
 21
249.731161
 31
0.0
  0
LINE
  5
2C6
330
1F
100
AcDbEntity
  8
SK2
100
AcDbLine
 10
216.144248
 20
237.731161
 30
0.0
 11
206.937334
 21
237.731161
 31
0.0
  0
LINE
  5
2C7
330
1F
100
AcDbEntity
  8
SK2
100
AcDbLine
 10
207.937334
 20
249.731161
 30
0.0
 11
207.937334
 21
237.731161
 31
0.0
  0
SOLID
  5
2C8
330
1F
100
AcDbEntity
  8
SK2
100
AcDbTrace
 10
207.937334
 20
249.731161
 30
0.0
 11
208.554479
 21
246.231164
 31
0.0
 12
207.32019
 22
246.231159
 32
0.0
 13
207.32019
 23
246.231159
 33
0.0
  0
SOLID
  5
2C9
330
1F
100
AcDbEntity
  8
SK2
100
AcDbTrace
 10
207.937334
 20
237.731161
 30
0.0
 11
207.32019
 21
241.231159
 31
0.0
 12
208.554479
 22
241.231164
 32
0.0
 13
208.554479
 23
241.231164
 33
0.0
  0
MTEXT
  5
2CA
330
1F
100
AcDbEntity
  8
SK2
100
AcDbMText
 10
197.173983
 20
242.732411
 30
0.0
 40
3.5
 41
0.0
 71
     7
 72
     5
  1
\W0.8459;22,8
  7
cesky
 11
0.0000000000000001
 21
1.0
 31
0.0
 73
     2
 44
0.8433729999999998
  0
MTEXT
  5
2CB
330
1F
100
AcDbEntity
  8
SK2
100
AcDbMText
 10
197.173983
 20
235.994911
 30
0.0
 40
3.5
 41
0.0
 71
     7
 72
     5
  1
\W3.0115;\H2.63;%%c\H3.50;
  7
cesky
 11
0.0000000000000001
 21
1.0
 31
0.0
 73
     2
 44
0.8433729999999998
  0
LINE
  5
2CC
330
1F
100
AcDbEntity
  8
SK2
100
AcDbLine
 10
237.644248
 20
255.106161
 30
0.0
 11
196.3614
 21
255.106161
 31
0.0
  0
LINE
  5
2CD
330
1F
100
AcDbEntity
  8
SK2
100
AcDbLine
 10
237.644248
 20
232.356161
 30
0.0
 11
196.3614
 21
232.356161
 31
0.0
  0
LINE
  5
2CE
330
1F
100
AcDbEntity
  8
SK2
100
AcDbLine
 10
197.3614
 20
255.106161
 30
0.0
 11
197.3614
 21
232.356161
 31
0.0
  0
SOLID
  5
2CF
330
1F
100
AcDbEntity
  8
SK2
100
AcDbTrace
 10
197.3614
 20
255.106161
 30
0.0
 11
197.978545
 21
251.606164
 31
0.0
 12
196.744256
 22
251.606159
 32
0.0
 13
196.744256
 23
251.606159
 33
0.0
  0
SOLID
  5
2D0
330
1F
100
AcDbEntity
  8
SK2
100
AcDbTrace
 10
197.3614
 20
232.356161
 30
0.0
 11
196.744256
 21
235.856159
 31
0.0
 12
197.978545
 22
235.856164
 32
0.0
 13
197.978545
 23
235.856164
 33
0.0
  0
LINE
  5
2ED
330
1F
100
AcDbEntity
  8
CUT
100
AcDbLine
 10
267.8011105629501
 20
256.0191006095692
 30
0.0
 11
267.8011105629501
 21
256.0191006095692
 31
0.0
  0
ARC
  5
2EE
330
1F
100
AcDbEntity
  8
CUT
100
AcDbCircle
 10
267.6932235133651
 20
255.6451574407474
 30
0.0
 40
0.3891954637153895
100
AcDbArc
 50
25.85946907058284
 51
73.9065204846728
  0
LINE
  5
2EF
330
1F
100
AcDbEntity
  8
CUT
100
AcDbLine
 10
261.2715570022745
 20
246.9793785702003
 30
0.0
 11
261.2715570022745
 21
246.9793785702003
 31
0.0
  0
ARC
  5
2F0
330
1F
100
AcDbEntity
  8
CUT
100
AcDbCircle
 10
261.3908219055173
 20
247.3615562811241
 30
0.0
 40
0.4003547425377408
100
AcDbArc
 50
205.4176263572395
 51
252.6686002922982
  0
LINE
  5
2F1
330
1F
100
AcDbEntity
  8
CUT
100
AcDbLine
 10
260.1003849815684
 20
254.7888137812238
 30
0.0
 11
260.1003849815684
 21
254.7888137812238
 31
0.0
  0
ARC
  5
2F2
330
1F
100
AcDbEntity
  8
CUT
100
AcDbCircle
 10
260.5480776876098
 20
254.6685964845168
 30
0.0
 40
0.4635525401398899
100
AcDbArc
 50
163.861581498539
 51
164.9691499371824
  0
LINE
  5
2F3
330
1F
100
AcDbEntity
  8
CUT
100
AcDbLine
 10
268.7569643304655
 20
248.0725537315001
 30
0.0
 11
268.7569643304655
 21
248.0725537315001
 31
0.0
  0
ARC
  5
2F4
330
1F
100
AcDbEntity
  8
CUT
100
AcDbCircle
 10
261.8001752908675
 20
262.0521415314722
 30
0.0
 40
15.614921991435
100
AcDbArc
 50
293.8876291594983
 51
296.4567318469231
  0
LINE
  5
2F5
330
1F
100
AcDbEntity
  8
CUT
100
AcDbLine
 10
261.0292201835345
 20
247.1897188156762
 30
0.0
 11
261.0292201835345
 21
247.1897188156762
 31
0.0
  0
ARC
  5
2F6
330
1F
100
AcDbEntity
  8
CUT
100
AcDbCircle
 10
261.4592991091644
 20
247.3936503958789
 30
0.0
 40
0.4759789613784286
100
AcDbArc
 50
204.346052483039
 51
205.3690194737724
  0
LINE
  5
2F7
330
1F
100
AcDbEntity
  8
CUT
100
AcDbLine
 10
266.5326421121344
 20
256.1797052516144
 30
0.0
 11
266.5326421121344
 21
256.1797052516144
 31
0.0
  0
ARC
  5
2F8
330
1F
100
AcDbEntity
  8
CUT
100
AcDbCircle
 10
266.5582660476824
 20
251.2901192533271
 30
0.0
 40
4.889653139101007
100
AcDbArc
 50
75.37824491149102
 51
90.30025648844114
  0
LINE
  5
2F9
330
1F
100
AcDbEntity
  8
CUT
100
AcDbLine
 10
268.0434474912664
 20
255.8149110100166
 30
0.0
 11
268.0434474912664
 21
255.8149110100166
 31
0.0
  0
ARC
  5
2FA
330
1F
100
AcDbEntity
  8
CUT
100
AcDbCircle
 10
267.6702694692767
 20
255.634504675981
 30
0.0
 40
0.414497625392917
100
AcDbArc
 50
24.63842857754507
 51
25.80062593612517
  0
LINE
  5
2FB
330
1F
100
AcDbEntity
  8
CUT
100
AcDbLine
 10
267.7925959170248
 20
256.0214182962352
 30
0.0
 11
267.7925959170248
 21
256.0214182962352
 31
0.0
  0
ARC
  5
2FC
330
1F
100
AcDbEntity
  8
CUT
100
AcDbCircle
 10
267.6850738689755
 20
255.6096078407252
 30
0.0
 40
0.4256158386198622
100
AcDbArc
 50
74.1790260841271
 51
75.36698147965331
  0
LINE
  5
2FD
330
1F
100
AcDbEntity
  8
CUT
100
AcDbLine
 10
259.9284293110005
 20
253.5114983855942
 30
0.0
 11
259.9284293110005
 21
253.5114983855942
 31
0.0
  0
ARC
  5
2FE
330
1F
100
AcDbEntity
  8
CUT
100
AcDbCircle
 10
264.9658915100023
 20
253.4835536574154
 30
0.0
 40
5.037539708449422
100
AcDbArc
 50
164.9829555415887
 51
179.6821616724071
  0
LINE
  5
2FF
330
1F
100
AcDbEntity
  8
CUT
100
AcDbLine
 10
263.4758012707368
 20
255.9821863358461
 30
0.0
 11
263.4758012707368
 21
255.9821863358461
 31
0.0
  0
ARC
  5
300
330
1F
100
AcDbEntity
  8
CUT
100
AcDbCircle
 10
266.6644755070695
 20
230.3865374836218
 30
0.0
 40
25.79350467757
100
AcDbArc
 50
90.29284620724004
 51
97.10125124612332
  0
LINE
  5
301
330
1F
100
AcDbEntity
  8
CUT
100
AcDbLine
 10
268.9722933052213
 20
248.3316366992619
 30
0.0
 11
268.9722933052213
 21
248.3316366992619
 31
0.0
  0
ARC
  5
302
330
1F
100
AcDbEntity
  8
CUT
100
AcDbCircle
 10
268.589777341729
 20
248.4365166095834
 30
0.0
 40
0.3966336570634177
100
AcDbArc
 50
343.3974059380859
 51
344.6672026668259
  0
ARC
  5
303
330
1F
100
AcDbEntity
  8
CUT
100
AcDbCircle
 10
260.4839116210446
 20
254.6865224861036
 30
0.0
 40
0.3969328539702036
100
AcDbArc
 50
119.2470550816168
 51
163.7726738607154
  0
ARC
  5
304
330
1F
100
AcDbEntity
  8
CUT
100
AcDbCircle
 10
260.4745600658195
 20
254.7000840201151
 30
0.0
 40
0.3805342702203589
100
AcDbArc
 50
115.9343417434053
 51
119.0161478091048
  0
LINE
  5
305
330
1F
100
AcDbEntity
  8
CUT
100
AcDbLine
 10
260.7515390458221
 20
247.8424022658843
 30
0.0
 11
260.7515390458221
 21
247.8424022658843
 31
0.0
  0
ARC
  5
306
330
1F
100
AcDbEntity
  8
CUT
100
AcDbCircle
 10
270.1796669362985
 20
251.5957076816528
 30
0.0
 40
10.14775330125914
100
AcDbArc
 50
186.711069705314
 51
201.7073320847401
  0
LINE
  5
307
330
1F
100
AcDbEntity
  8
CUT
100
AcDbLine
 10
260.308136871818
 20
255.0422968943769
 30
0.0
 11
260.308136871818
 21
255.0422968943769
 31
0.0
  0
ARC
  5
308
330
1F
100
AcDbEntity
  8
CUT
100
AcDbCircle
 10
260.4984880192808
 20
254.6508707372568
 30
0.0
 40
0.4352562415614452
100
AcDbArc
 50
114.8298876369572
 51
115.9337266890107
  0
LINE
  5
309
330
1F
100
AcDbEntity
  8
CUT
100
AcDbLine
 10
261.0256490189756
 20
247.197430107112
 30
0.0
 11
261.0256490189756
 21
247.197430107112
 31
0.0
  0
ARC
  5
30A
330
1F
100
AcDbEntity
  8
CUT
100
AcDbCircle
 10
274.892509008666
 20
253.4715106948537
 30
0.0
 40
15.22018045869214
100
AcDbArc
 50
201.7060615414758
 51
204.3444417696352
  0
LINE
  5
30B
330
1F
100
AcDbEntity
  8
CUT
100
AcDbLine
 10
268.3211385501706
 20
255.1710291461273
 30
0.0
 11
268.3211385501706
 21
255.1710291461273
 31
0.0
  0
ARC
  5
30C
330
1F
100
AcDbEntity
  8
CUT
100
AcDbCircle
 10
259.1391116361213
 20
251.4656081351458
 30
0.0
 40
9.901503073723153
100
AcDbArc
 50
6.786801696410849
 51
21.97661479238257
  0
LINE
  5
30D
330
1F
100
AcDbEntity
  8
CUT
100
AcDbLine
 10
268.123347057326
 20
247.7747717593306
 30
0.0
 11
268.123347057326
 21
247.7747717593306
 31
0.0
  0
ARC
  5
30E
330
1F
100
AcDbEntity
  8
CUT
100
AcDbCircle
 10
264.0829608098004
 20
256.8486510745004
 30
0.0
 40
9.932774378564181
100
AcDbArc
 50
278.7669737107013
 51
294.0022917172355
  0
LINE
  5
30F
330
1F
100
AcDbEntity
  8
CUT
100
AcDbLine
 10
261.2800822061075
 20
246.9768658244705
 30
0.0
 11
261.2800822061075
 21
246.9768658244705
 31
0.0
  0
ARC
  5
310
330
1F
100
AcDbEntity
  8
CUT
100
AcDbCircle
 10
261.4002155562539
 20
247.4001708092349
 30
0.0
 40
0.4400217403081283
100
AcDbArc
 50
252.9988225250603
 51
254.1561337395732
  0
LINE
  5
311
330
1F
100
AcDbEntity
  8
CUT
100
AcDbLine
 10
260.3157133510867
 20
255.045890070717
 30
0.0
 11
260.3157133510867
 21
255.045890070717
 31
0.0
  0
ARC
  5
312
330
1F
100
AcDbEntity
  8
CUT
100
AcDbCircle
 10
266.650814387495
 20
241.3528968060232
 30
0.0
 40
15.08746399128928
100
AcDbArc
 50
112.2033821732209
 51
114.8277508021357
  0
LINE
  5
313
330
1F
100
AcDbEntity
  8
CUT
100
AcDbLine
 10
262.5400354838583
 20
246.7999839755787
 30
0.0
 11
262.5400354838583
 21
246.7999839755787
 31
0.0
  0
ARC
  5
314
330
1F
100
AcDbEntity
  8
CUT
100
AcDbCircle
 10
262.54822511023
 20
251.4340306479585
 30
0.0
 40
4.634053909027656
100
AcDbArc
 50
254.1180017179708
 51
269.8987428112931
  0
LINE
  5
315
330
1F
100
AcDbEntity
  8
CUT
100
AcDbLine
 10
268.9712324675021
 20
252.6357205554187
 30
0.0
 11
268.9712324675021
 21
252.6357205554187
 31
0.0
  0
ARC
  5
316
330
1F
100
AcDbEntity
  8
CUT
100
AcDbCircle
 10
244.4494389792958
 20
249.7146235180534
 30
0.0
 40
24.69516478543805
100
AcDbArc
 50
359.6925746933207
 51
6.793204236749848
  0
LINE
  5
317
330
1F
100
AcDbEntity
  8
CUT
100
AcDbLine
 10
260.9493305386667
 20
255.3215993803499
 30
0.0
 11
260.9493305386667
 21
255.3215993803499
 31
0.0
  0
ARC
  5
318
330
1F
100
AcDbEntity
  8
CUT
100
AcDbCircle
 10
264.7044661333175
 20
246.1214094865234
 30
0.0
 40
9.937028600979255
100
AcDbArc
 50
97.10251856064601
 51
112.2032438917935
  0
LINE
  5
319
330
1F
100
AcDbEntity
  8
CUT
100
AcDbLine
 10
265.5968763252559
 20
247.0319272489299
 30
0.0
 11
265.5968763252559
 21
247.0319272489299
 31
0.0
  0
ARC
  5
31A
330
1F
100
AcDbEntity
  8
CUT
100
AcDbCircle
 10
262.5427759673694
 20
267.0232890801
 30
0.0
 40
20.22330529020438
100
AcDbArc
 50
269.9922357825663
 51
278.6859751550945
  0
LINE
  5
31B
330
1F
100
AcDbEntity
  8
CUT
100
AcDbLine
 10
269.1442482849922
 20
249.5821201775924
 30
0.0
 11
269.1442482849922
 21
249.5821201775924
 31
0.0
  0
ARC
  5
31C
330
1F
100
AcDbEntity
  8
CUT
100
AcDbCircle
 10
264.3088310564107
 20
249.6100001490099
 30
0.0
 40
4.835497602860371
100
AcDbArc
 50
344.6704622496421
 51
359.6696485704346
  0
LINE
  5
31D
330
1F
100
AcDbEntity
  8
CUT
100
AcDbLine
 10
268.0470286037664
 20
255.8073042318349
 30
0.0
 11
268.0470286037664
 21
255.8073042318349
 31
0.0
  0
ARC
  5
31E
330
1F
100
AcDbEntity
  8
CUT
100
AcDbCircle
 10
254.4801588684462
 20
249.5854590760973
 30
0.0
 40
14.92552550355005
100
AcDbArc
 50
21.9766914741338
 51
24.63646454960937
  0
LINE
  5
31F
330
1F
100
AcDbEntity
  8
CUT
100
AcDbLine
 10
268.7645308029829
 20
248.0764152527925
 30
0.0
 11
268.7645308029829
 21
248.0764152527925
 31
0.0
  0
ARC
  5
320
330
1F
100
AcDbEntity
  8
CUT
100
AcDbCircle
 10
268.5730295956677
 20
248.4421570890719
 30
0.0
 40
0.412843557789387
100
AcDbArc
 50
296.4574356519277
 51
297.6364046204232
  0
LINE
  5
321
330
1F
100
AcDbEntity
  8
CUT
100
AcDbLine
 10
260.1014451284906
 20
250.4098146612497
 30
0.0
 11
260.1014451284906
 21
250.4098146612497
 31
0.0
  0
ARC
  5
322
330
1F
100
AcDbEntity
  8
CUT
100
AcDbCircle
 10
285.2646919030772
 20
253.3691195829114
 30
0.0
 40
25.33666264246568
100
AcDbArc
 50
179.6780259682859
 51
186.707417868663
  0
LINE
  5
323
330
1F
100
AcDbEntity
  8
CUT
100
AcDbLine
 10
268.9698751984307
 20
248.3231857786223
 30
0.0
 11
268.9698751984307
 21
248.3231857786223
 31
0.0
  0
ARC
  5
324
330
1F
100
AcDbEntity
  8
CUT
100
AcDbCircle
 10
268.5716080141728
 20
248.4457730588345
 30
0.0
 40
0.416706601011443
100
AcDbArc
 50
297.5789436018613
 51
342.8915503137641
  0
ENDSEC
  0
SECTION
  2
OBJECTS
  0
DICTIONARY
  5
C
330
0
100
AcDbDictionary
281
     1
  3
ACAD_CIP_PREVIOUS_PRODUCT_INFO
350
2AF
  3
ACAD_COLOR
350
2AA
  3
ACAD_DETAILVIEWSTYLE
350
2A6
  3
ACAD_GROUP
350
D
  3
ACAD_LAYOUT
350
1A
  3
ACAD_MATERIAL
350
43
  3
ACAD_MLEADERSTYLE
350
6B
  3
ACAD_MLINESTYLE
350
17
  3
ACAD_PLOTSETTINGS
350
19
  3
ACAD_PLOTSTYLENAME
350
E
  3
ACAD_SCALELIST
350
47
  3
ACAD_SECTIONVIEWSTYLE
350
2A7
  3
ACAD_TABLESTYLE
350
69
  3
ACAD_VISUALSTYLE
350
2A
  3
ACDB_RECOMPOSE_DATA
350
350
  3
AcDbVariableDictionary
350
263
  0
DICTIONARY
  5
333
330
10
100
AcDbDictionary
280
     1
281
     1
  3
ADSK_XREC_LAYER_RECONCILED
360
334
  0
DICTIONARY
  5
335
330
325
100
AcDbDictionary
280
     1
281
     1
  3
ADSK_XREC_LAYER_RECONCILED
360
336
  0
DICTIONARY
  5
337
330
326
100
AcDbDictionary
280
     1
281
     1
  3
ADSK_XREC_LAYER_RECONCILED
360
338
  0
DICTIONARY
  5
339
330
327
100
AcDbDictionary
280
     1
281
     1
  3
ADSK_XREC_LAYER_RECONCILED
360
33A
  0
DICTIONARY
  5
33B
330
329
100
AcDbDictionary
280
     1
281
     1
  3
ADSK_XREC_LAYER_RECONCILED
360
33C
  0
DICTIONARY
  5
33D
330
32A
100
AcDbDictionary
280
     1
281
     1
  3
ADSK_XREC_LAYER_RECONCILED
360
33E
  0
DICTIONARY
  5
33F
330
32C
100
AcDbDictionary
280
     1
281
     1
  3
ADSK_XREC_LAYER_RECONCILED
360
340
  0
DICTIONARY
  5
341
330
32D
100
AcDbDictionary
280
     1
281
     1
  3
ADSK_XREC_LAYER_RECONCILED
360
342
  0
DICTIONARY
  5
343
330
32E
100
AcDbDictionary
280
     1
281
     1
  3
ADSK_XREC_LAYER_RECONCILED
360
344
  0
DICTIONARY
  5
345
330
32F
100
AcDbDictionary
280
     1
281
     1
  3
ADSK_XREC_LAYER_RECONCILED
360
346
  0
DICTIONARY
  5
347
330
330
100
AcDbDictionary
280
     1
281
     1
  3
ADSK_XREC_LAYER_RECONCILED
360
348
  0
DICTIONARY
  5
349
330
331
100
AcDbDictionary
280
     1
281
     1
  3
ADSK_XREC_LAYER_RECONCILED
360
34A
  0
DICTIONARY
  5
2B0
330
1F
100
AcDbDictionary
280
     1
281
     1
  3
ACAD_SORTENTS
360
2B1
  0
XRECORD
  5
2AF
102
{ACAD_REACTORS
330
C
102
}
330
C
100
AcDbXrecord
280
     1
300
ACD
300
2019
300
87084ACD_2019_0F
  0
DICTIONARY
  5
2AA
102
{ACAD_REACTORS
330
C
102
}
330
C
100
AcDbDictionary
281
     1
  0
DICTIONARY
  5
2A6
102
{ACAD_REACTORS
330
C
102
}
330
C
100
AcDbDictionary
281
     1
  3
Metric50
350
2AC
  0
DICTIONARY
  5
D
102
{ACAD_REACTORS
330
C
102
}
330
C
100
AcDbDictionary
281
     1
  3
CENTERLINE
350
24E
  3
NULOVY_BOD
350
332
  0
DICTIONARY
  5
1A
102
{ACAD_REACTORS
330
C
102
}
330
C
100
AcDbDictionary
281
     1
  3
Layout1
350
1E
  3
Layout2
350
26
  3
Model
350
22
  0
DICTIONARY
  5
43
102
{ACAD_REACTORS
330
C
102
}
330
C
100
AcDbDictionary
281
     1
  3
ByBlock
350
45
  3
ByLayer
350
44
  3
Global
350
46
  0
DICTIONARY
  5
6B
102
{ACAD_REACTORS
330
C
102
}
330
C
100
AcDbDictionary
281
     1
  3
Standard
350
6C
  0
DICTIONARY
  5
17
102
{ACAD_REACTORS
330
C
102
}
330
C
100
AcDbDictionary
281
     1
  3
Standard
350
18
  0
DICTIONARY
  5
19
102
{ACAD_REACTORS
330
C
102
}
330
C
100
AcDbDictionary
281
     1
  0
ACDBDICTIONARYWDFLT
  5
E
102
{ACAD_REACTORS
330
C
102
}
330
C
100
AcDbDictionary
281
     1
  3
Normal
350
F
100
AcDbDictionaryWithDefault
340
F
  0
DICTIONARY
  5
47
102
{ACAD_REACTORS
330
C
102
}
330
C
100
AcDbDictionary
281
     1
  3
A0
350
48
  3
A1
350
49
  3
A2
350
4A
  3
A3
350
4B
  3
A4
350
4C
  3
A5
350
4D
  3
A6
350
4E
  3
A7
350
4F
  3
A8
350
50
  3
A9
350
51
  3
B0
350
52
  3
B1
350
53
  3
B2
350
54
  3
B3
350
55
  3
B4
350
56
  3
B5
350
57
  3
B6
350
58
  3
B7
350
59
  3
B8
350
5A
  3
B9
350
5B
  3
C0
350
5C
  3
C1
350
5D
  3
C2
350
5E
  3
C3
350
5F
  3
C4
350
60
  3
C5
350
61
  3
C6
350
62
  3
C7
350
63
  3
C8
350
64
  3
C9
350
65
  3
D0
350
66
  3
D1
350
67
  3
D2
350
68
  0
DICTIONARY
  5
2A7
102
{ACAD_REACTORS
330
C
102
}
330
C
100
AcDbDictionary
281
     1
  3
Metric50
350
2AB
  0
DICTIONARY
  5
69
102
{ACAD_REACTORS
330
C
102
}
330
C
100
AcDbDictionary
281
     1
  3
Standard
350
6A
  0
DICTIONARY
  5
2A
102
{ACAD_REACTORS
330
C
102
}
330
C
100
AcDbDictionary
281
     1
  3
2dWireframe
350
2F
  3
Basic
350
32
  3
Brighten
350
36
  3
ColorChange
350
3A
  3
Conceptual
350
34
  3
Dim
350
35
  3
EdgeColorOff
350
3D
  3
Facepattern
350
39
  3
Flat
350
2B
  3
FlatWithEdges
350
2C
  3
Gouraud
350
2D
  3
GouraudWithEdges
350
2E
  3
Hidden
350
31
  3
JitterOff
350
3B
  3
Linepattern
350
38
  3
OverhangOff
350
3C
  3
Realistic
350
33
  3
Shaded
350
42
  3
Shaded with edges
350
41
  3
Shades of Gray
350
3E
  3
Sketchy
350
3F
  3
Thicken
350
37
  3
Wireframe
350
30
  3
X-Ray
350
40
  0
XRECORD
  5
350
102
{ACAD_REACTORS
330
C
102
}
330
C
100
AcDbXrecord
280
     1
 90
        1
330
6A
  0
DICTIONARY
  5
263
102
{ACAD_REACTORS
330
C
102
}
330
C
100
AcDbDictionary
281
     1
  3
CANNOSCALE
350
264
  3
CMLEADERSTYLE
350
2A5
  3
CTABLESTYLE
350
2A4
  3
CVIEWDETAILSTYLE
350
34B
  3
CVIEWSECTIONSTYLE
350
34C
  3
MSLTSCALE
350
265
  3
XCLIPFRAME
350
34D
  0
XRECORD
  5
334
102
{ACAD_REACTORS
330
333
102
}
330
333
100
AcDbXrecord
280
     1
290
     1
  0
XRECORD
  5
336
102
{ACAD_REACTORS
330
335
102
}
330
335
100
AcDbXrecord
280
     1
290
     1
  0
XRECORD
  5
338
102
{ACAD_REACTORS
330
337
102
}
330
337
100
AcDbXrecord
280
     1
290
     1
  0
XRECORD
  5
33A
102
{ACAD_REACTORS
330
339
102
}
330
339
100
AcDbXrecord
280
     1
290
     1
  0
XRECORD
  5
33C
102
{ACAD_REACTORS
330
33B
102
}
330
33B
100
AcDbXrecord
280
     1
290
     1
  0
XRECORD
  5
33E
102
{ACAD_REACTORS
330
33D
102
}
330
33D
100
AcDbXrecord
280
     1
290
     1
  0
XRECORD
  5
340
102
{ACAD_REACTORS
330
33F
102
}
330
33F
100
AcDbXrecord
280
     1
290
     1
  0
XRECORD
  5
342
102
{ACAD_REACTORS
330
341
102
}
330
341
100
AcDbXrecord
280
     1
290
     1
  0
XRECORD
  5
344
102
{ACAD_REACTORS
330
343
102
}
330
343
100
AcDbXrecord
280
     1
290
     1
  0
XRECORD
  5
346
102
{ACAD_REACTORS
330
345
102
}
330
345
100
AcDbXrecord
280
     1
290
     1
  0
XRECORD
  5
348
102
{ACAD_REACTORS
330
347
102
}
330
347
100
AcDbXrecord
280
     1
290
     1
  0
XRECORD
  5
34A
102
{ACAD_REACTORS
330
349
102
}
330
349
100
AcDbXrecord
280
     1
290
     1
  0
SORTENTSTABLE
  5
2B1
102
{ACAD_REACTORS
330
2B0
102
}
330
2B0
100
AcDbSortentsTable
330
1F
331
2B2
  5
205
331
2B3
  5
235
331
2B4
  5
2B2
331
2B5
  5
2B3
331
2B6
  5
2B4
331
2B7
  5
2B5
331
2B8
  5
2B6
331
2B9
  5
2B7
331
2BA
  5
2B8
331
2BB
  5
2B9
331
2BC
  5
2BA
331
2BD
  5
2BB
331
2BE
  5
2C5
331
2BF
  5
2C6
331
2C0
  5
2C7
331
2C1
  5
2C8
331
2C2
  5
2C9
331
2C3
  5
2BD
331
2C4
  5
2BE
331
2C5
  5
2BF
331
2C6
  5
2C0
331
2C7
  5
2C1
331
2C8
  5
2C3
331
2C9
  5
2C4
  0
ACDBDETAILVIEWSTYLE
  5
2AC
102
{ACAD_XDICTIONARY
360
384
102
}
102
{ACAD_REACTORS
330
2A6
102
}
330
2A6
100
AcDbModelDocViewStyle
 70
     0
  3
Metric50
290
     0
100
AcDbDetailViewStyle
 70
     0
 71
     0
 90
        3
 71
     1
340
11
 62
   256
 40
5.0
340
0
 62
   256
 40
5.0
300

 40
0.0
280
     1
 71
     2
340
16
 90
       25
 62
   256
 71
     3
340
11
 62
   256
 40
5.0
 90
        0
 40
15.0
 90
        1
300
%<\AcVar ViewDetailId>% (%<\AcVar ViewScale \f "%sn">%)
 71
     4
340
16
 90
       25
 62
   256
340
16
 90
       25
 62
   256
280
     0
  0
GROUP
  5
24E
102
{ACAD_REACTORS
330
D
102
}
330
D
100
AcDbGroup
300

 70
     0
 71
     1
340
F8
  0
GROUP
  5
332
102
{ACAD_REACTORS
330
D
102
}
330
D
100
AcDbGroup
300

 70
     0
 71
     1
340
73
  0
LAYOUT
  5
1E
102
{ACAD_REACTORS
330
1A
102
}
330
1A
100
AcDbPlotSettings
  1

  2
none_device
  4

  6

 40
0.0
 41
0.0
 42
0.0
 43
0.0
 44
0.0
 45
0.0
 46
0.0
 47
0.0
 48
0.0
 49
0.0
140
0.0
141
0.0
142
1.0
143
1.0
 70
   688
 72
     0
 73
     0
 74
     5
  7

 75
    16
147
1.0
 76
     0
 77
     2
 78
   300
148
0.0
149
0.0
100
AcDbLayout
  1
Layout1
 70
     1
 71
     1
 10
-0.5
 20
-0.5
 11
5.0
 21
5.0
 12
0.0
 22
0.0
 32
0.0
 14
-0.5
 24
-0.5
 34
-0.5
 15
5.0
 25
5.0
 35
5.0
146
0.0
 13
0.0
 23
0.0
 33
0.0
 16
1.0
 26
0.0
 36
0.0
 17
0.0
 27
1.0
 37
0.0
 76
     0
330
1B
  0
LAYOUT
  5
26
102
{ACAD_REACTORS
330
1A
102
}
330
1A
100
AcDbPlotSettings
  1

  2
none_device
  4

  6

 40
0.0
 41
0.0
 42
0.0
 43
0.0
 44
0.0
 45
0.0
 46
0.0
 47
0.0
 48
0.0
 49
0.0
140
0.0
141
0.0
142
1.0
143
1.0
 70
   688
 72
     0
 73
     0
 74
     5
  7

 75
    16
147
1.0
 76
     0
 77
     2
 78
   300
148
0.0
149
0.0
100
AcDbLayout
  1
Layout2
 70
     1
 71
     2
 10
0.0
 20
0.0
 11
0.0
 21
0.0
 12
0.0
 22
0.0
 32
0.0
 14
0.0
 24
0.0
 34
0.0
 15
0.0
 25
0.0
 35
0.0
146
0.0
 13
0.0
 23
0.0
 33
0.0
 16
1.0
 26
0.0
 36
0.0
 17
0.0
 27
1.0
 37
0.0
 76
     0
330
23
  0
LAYOUT
  5
22
102
{ACAD_REACTORS
330
1A
102
}
330
1A
100
AcDbPlotSettings
  1

  2
none_device
  4
Letter_(8.50_x_11.00_Inches)
  6

 40
6.349999999999999
 41
6.349999999999999
 42
6.350005
 43
6.350005
 44
215.9
 45
279.4
 46
0.0
 47
0.0
 48
0.0
 49
0.0
140
0.0
141
0.0
142
1.0
143
1.0
 70
  1712
 72
     0
 73
     0
 74
     0
  7

 75
     0
147
1.0
 76
     0
 77
     2
 78
   300
148
0.0
149
0.0
100
AcDbLayout
  1
Model
 70
     1
 71
     0
 10
-0.5
 20
-0.5
 11
5.0
 21
5.0
 12
0.0
 22
0.0
 32
0.0
 14
-0.5
 24
-0.5
 34
-0.5
 15
5.0
 25
5.0
 35
5.0
146
0.0
 13
0.0
 23
0.0
 33
0.0
 16
1.0
 26
0.0
 36
0.0
 17
0.0
 27
1.0
 37
0.0
 76
     0
330
1F
331
29
  0
MATERIAL
  5
45
102
{ACAD_XDICTIONARY
360
299
102
}
102
{ACAD_REACTORS
330
43
102
}
330
43
100
AcDbMaterial
  1
ByBlock
  0
MATERIAL
  5
44
102
{ACAD_XDICTIONARY
360
297
102
}
102
{ACAD_REACTORS
330
43
102
}
330
43
100
AcDbMaterial
  1
ByLayer
  0
MATERIAL
  5
46
102
{ACAD_XDICTIONARY
360
29B
102
}
102
{ACAD_REACTORS
330
43
102
}
330
43
100
AcDbMaterial
  1
Global
  0
MLEADERSTYLE
  5
6C
102
{ACAD_REACTORS
330
6B
102
}
330
6B
100
AcDbMLeaderStyle
170
     2
171
     1
172
     0
 90
        2
 40
0.0
 41
0.0
173
     1
 91
-1056964608
340
14
 92
       -2
290
     1
 42
0.09
291
     1
 43
0.36
  3
Standard
 44
0.18
300

342
11
174
     1
178
     6
175
     1
176
     0
 93
-1056964608
 45
0.18
292
     0
297
     0
 46
0.18
 94
-1056964608
 47
1.0
 49
1.0
140
1.0
293
     1
141
0.0
294
     1
177
     0
142
1.0
295
     0
296
     0
143
0.125
1001
ACAD_MLEADERVER
1070
     2
  0
MLINESTYLE
  5
18
102
{ACAD_REACTORS
330
17
102
}
330
17
100
AcDbMlineStyle
  2
STANDARD
 70
     0
  3

 62
   256
 51
90.0
 52
90.0
 71
     2
 49
0.5
 62
   256
  6
BYLAYER
 49
-0.5
 62
   256
  6
BYLAYER
  0
ACDBPLACEHOLDER
  5
F
102
{ACAD_REACTORS
330
E
102
}
330
E
  0
SCALE
  5
48
102
{ACAD_REACTORS
330
47
102
}
330
47
100
AcDbScale
 70
     0
300
1:1
140
1.0
141
1.0
290
     1
  0
SCALE
  5
49
102
{ACAD_REACTORS
330
47
102
}
330
47
100
AcDbScale
 70
     0
300
1:2
140
1.0
141
2.0
290
     0
  0
SCALE
  5
4A
102
{ACAD_REACTORS
330
47
102
}
330
47
100
AcDbScale
 70
     0
300
1:4
140
1.0
141
4.0
290
     0
  0
SCALE
  5
4B
102
{ACAD_REACTORS
330
47
102
}
330
47
100
AcDbScale
 70
     0
300
1:5
140
1.0
141
5.0
290
     0
  0
SCALE
  5
4C
102
{ACAD_REACTORS
330
47
102
}
330
47
100
AcDbScale
 70
     0
300
1:8
140
1.0
141
8.0
290
     0
  0
SCALE
  5
4D
102
{ACAD_REACTORS
330
47
102
}
330
47
100
AcDbScale
 70
     0
300
1:10
140
1.0
141
10.0
290
     0
  0
SCALE
  5
4E
102
{ACAD_REACTORS
330
47
102
}
330
47
100
AcDbScale
 70
     0
300
1:16
140
1.0
141
16.0
290
     0
  0
SCALE
  5
4F
102
{ACAD_REACTORS
330
47
102
}
330
47
100
AcDbScale
 70
     0
300
1:20
140
1.0
141
20.0
290
     0
  0
SCALE
  5
50
102
{ACAD_REACTORS
330
47
102
}
330
47
100
AcDbScale
 70
     0
300
1:30
140
1.0
141
30.0
290
     0
  0
SCALE
  5
51
102
{ACAD_REACTORS
330
47
102
}
330
47
100
AcDbScale
 70
     0
300
1:40
140
1.0
141
40.0
290
     0
  0
SCALE
  5
52
102
{ACAD_REACTORS
330
47
102
}
330
47
100
AcDbScale
 70
     0
300
1:50
140
1.0
141
50.0
290
     0
  0
SCALE
  5
53
102
{ACAD_REACTORS
330
47
102
}
330
47
100
AcDbScale
 70
     0
300
1:100
140
1.0
141
100.0
290
     0
  0
SCALE
  5
54
102
{ACAD_REACTORS
330
47
102
}
330
47
100
AcDbScale
 70
     0
300
2:1
140
2.0
141
1.0
290
     0
  0
SCALE
  5
55
102
{ACAD_REACTORS
330
47
102
}
330
47
100
AcDbScale
 70
     0
300
4:1
140
4.0
141
1.0
290
     0
  0
SCALE
  5
56
102
{ACAD_REACTORS
330
47
102
}
330
47
100
AcDbScale
 70
     0
300
8:1
140
8.0
141
1.0
290
     0
  0
SCALE
  5
57
102
{ACAD_REACTORS
330
47
102
}
330
47
100
AcDbScale
 70
     0
300
10:1
140
10.0
141
1.0
290
     0
  0
SCALE
  5
58
102
{ACAD_REACTORS
330
47
102
}
330
47
100
AcDbScale
 70
     0
300
100:1
140
100.0
141
1.0
290
     0
  0
SCALE
  5
59
102
{ACAD_REACTORS
330
47
102
}
330
47
100
AcDbScale
 70
     0
300
1/128" = 1'-0"
140
0.007812
141
12.0
290
     0
  0
SCALE
  5
5A
102
{ACAD_REACTORS
330
47
102
}
330
47
100
AcDbScale
 70
     0
300
1/64" = 1'-0"
140
0.015625
141
12.0
290
     0
  0
SCALE
  5
5B
102
{ACAD_REACTORS
330
47
102
}
330
47
100
AcDbScale
 70
     0
300
1/32" = 1'-0"
140
0.03125
141
12.0
290
     0
  0
SCALE
  5
5C
102
{ACAD_REACTORS
330
47
102
}
330
47
100
AcDbScale
 70
     0
300
1/16" = 1'-0"
140
0.0625
141
12.0
290
     0
  0
SCALE
  5
5D
102
{ACAD_REACTORS
330
47
102
}
330
47
100
AcDbScale
 70
     0
300
3/32" = 1'-0"
140
0.09375
141
12.0
290
     0
  0
SCALE
  5
5E
102
{ACAD_REACTORS
330
47
102
}
330
47
100
AcDbScale
 70
     0
300
1/8" = 1'-0"
140
0.125
141
12.0
290
     0
  0
SCALE
  5
5F
102
{ACAD_REACTORS
330
47
102
}
330
47
100
AcDbScale
 70
     0
300
3/16" = 1'-0"
140
0.1875
141
12.0
290
     0
  0
SCALE
  5
60
102
{ACAD_REACTORS
330
47
102
}
330
47
100
AcDbScale
 70
     0
300
1/4" = 1'-0"
140
0.25
141
12.0
290
     0
  0
SCALE
  5
61
102
{ACAD_REACTORS
330
47
102
}
330
47
100
AcDbScale
 70
     0
300
3/8" = 1'-0"
140
0.375
141
12.0
290
     0
  0
SCALE
  5
62
102
{ACAD_REACTORS
330
47
102
}
330
47
100
AcDbScale
 70
     0
300
1/2" = 1'-0"
140
0.5
141
12.0
290
     0
  0
SCALE
  5
63
102
{ACAD_REACTORS
330
47
102
}
330
47
100
AcDbScale
 70
     0
300
3/4" = 1'-0"
140
0.75
141
12.0
290
     0
  0
SCALE
  5
64
102
{ACAD_REACTORS
330
47
102
}
330
47
100
AcDbScale
 70
     0
300
1" = 1'-0"
140
1.0
141
12.0
290
     0
  0
SCALE
  5
65
102
{ACAD_REACTORS
330
47
102
}
330
47
100
AcDbScale
 70
     0
300
1-1/2" = 1'-0"
140
1.5
141
12.0
290
     0
  0
SCALE
  5
66
102
{ACAD_REACTORS
330
47
102
}
330
47
100
AcDbScale
 70
     0
300
3" = 1'-0"
140
3.0
141
12.0
290
     0
  0
SCALE
  5
67
102
{ACAD_REACTORS
330
47
102
}
330
47
100
AcDbScale
 70
     0
300
6" = 1'-0"
140
6.0
141
12.0
290
     0
  0
SCALE
  5
68
102
{ACAD_REACTORS
330
47
102
}
330
47
100
AcDbScale
 70
     0
300
1'-0" = 1'-0"
140
12.0
141
12.0
290
     0
  0
ACDBSECTIONVIEWSTYLE
  5
2AB
102
{ACAD_XDICTIONARY
360
382
102
}
102
{ACAD_REACTORS
330
2A7
102
}
330
2A7
100
AcDbModelDocViewStyle
 70
     0
  3
Metric50
290
     0
100
AcDbSectionViewStyle
 70
     0
 71
     0
 90
      102
 71
     1
340
11
 62
   256
 40
5.0
340
0
340
0
 62
   256
 40
5.0
300
I, O, Q, S, X, Z
 40
10.0
 90
        0
 40
2.5
 90
        0
 71
     2
340
16
 90
       25
 62
   256
340
16
 90
       50
 62
   256
 40
5.0
 40
2.5
 40
5.0
 71
     3
340
11
 62
   256
 40
5.0
 90
        0
 40
15.0
 90
        1
300
%<\AcVar ViewSectionStartId>%-%<\AcVar ViewSectionEndId>% (%<\AcVar ViewScale \f "%sn">%)
 71
     4
 62
   256
 62
   257
300
ANSI31
 40
1.0
 90
        0
290
     0
290
     0
 90
        6
 40
0.0
 40
1.570796326794896
 40
0.2617993877991494
 40
1.308996938995747
 40
-0.2617993877991494
 40
1.832595714594046
  0
TABLESTYLE
  5
6A
102
{ACAD_XDICTIONARY
360
29D
102
}
102
{ACAD_REACTORS
330
69
102
}
330
69
100
AcDbTableStyle
  3
Standard
 70
     0
 71
     0
 40
0.06
 41
0.06
280
     0
281
     0
  7
Standard
140
0.18
170
     2
 62
     0
 63
     7
283
     0
274
    -2
284
     1
 64
     0
275
    -2
285
     1
 65
     0
276
    -2
286
     1
 66
     0
277
    -2
287
     1
 67
     0
278
    -2
288
     1
 68
     0
279
    -2
289
     1
 69
     0
  7
Standard
140
0.25
170
     5
 62
     0
 63
     7
283
     0
274
    -2
284
     1
 64
     0
275
    -2
285
     1
 65
     0
276
    -2
286
     1
 66
     0
277
    -2
287
     1
 67
     0
278
    -2
288
     1
 68
     0
279
    -2
289
     1
 69
     0
  7
Standard
140
0.18
170
     5
 62
     0
 63
     7
283
     0
274
    -2
284
     1
 64
     0
275
    -2
285
     1
 65
     0
276
    -2
286
     1
 66
     0
277
    -2
287
     1
 67
     0
278
    -2
288
     1
 68
     0
279
    -2
289
     1
 69
     0
  0
VISUALSTYLE
  5
2F
102
{ACAD_XDICTIONARY
360
359
102
}
102
{ACAD_REACTORS
330
2A
102
}
330
2A
100
AcDbVisualStyle
  2

 70
     4
 71
     0
 72
     2
 73
     0
 90
        0
 40
-0.6
 41
-30.0
 62
     5
 63
     7
421
 16777215
 74
     1
 91
        4
 64
     7
 65
   257
 75
     1
175
     1
 42
1.0
 92
        0
 66
   257
 43
1.0
 76
     1
 77
     6
 78
     2
 67
     7
 79
     5
170
     0
171
     0
290
     0
174
     0
 93
        1
 44
0.0
173
     0
291
     0
 45
0.0
1001
ACAD
1000
AcDbSavedByObjectVersion
1070
     0
  0
VISUALSTYLE
  5
32
102
{ACAD_XDICTIONARY
360
35F
102
}
102
{ACAD_REACTORS
330
2A
102
}
330
2A
100
AcDbVisualStyle
  2

 70
     7
 71
     1
 72
     0
 73
     1
 90
        0
 40
-0.6
 41
-30.0
 62
     5
 63
     7
421
 16777215
 74
     0
 91
        4
 64
     7
 65
   257
 75
     1
175
     1
 42
1.0
 92
        8
 66
     7
 43
1.0
 76
     1
 77
     6
 78
     2
 67
     7
 79
     5
170
     0
171
     0
290
     0
174
     0
 93
        1
 44
0.0
173
     0
291
     1
 45
0.0
1001
ACAD
1000
AcDbSavedByObjectVersion
1070
     0
  0
VISUALSTYLE
  5
36
102
{ACAD_XDICTIONARY
360
367
102
}
102
{ACAD_REACTORS
330
2A
102
}
330
2A
100
AcDbVisualStyle
  2

 70
    12
 71
     2
 72
     2
 73
     0
 90
        0
 40
-0.6
 41
-30.0
 62
     5
 63
     7
421
 16777215
 74
     1
 91
        4
 64
     7
 65
   257
 75
     1
175
     1
 42
1.0
 92
        8
 66
     7
 43
1.0
 76
     1
 77
     6
 78
     2
 67
     7
 79
     5
170
     0
171
     0
290
     0
174
     0
 93
        1
 44
50.0
173
     0
291
     1
 45
0.0
1001
ACAD
1000
AcDbSavedByObjectVersion
1070
     0
  0
VISUALSTYLE
  5
3A
102
{ACAD_XDICTIONARY
360
36F
102
}
102
{ACAD_REACTORS
330
2A
102
}
330
2A
100
AcDbVisualStyle
  2

 70
    16
 71
     2
 72
     2
 73
     3
 90
        0
 40
-0.6
 41
-30.0
 62
     5
 63
     8
421
  8421504
 74
     1
 91
        4
 64
     7
 65
   257
 75
     1
175
     1
 42
1.0
 92
        8
 66
     8
424
  8421504
 43
1.0
 76
     1
 77
     6
 78
     2
 67
     7
 79
     5
170
     0
171
     0
290
     0
174
     0
 93
        1
 44
0.0
173
     0
291
     1
 45
0.0
1001
ACAD
1000
AcDbSavedByObjectVersion
1070
     0
  0
VISUALSTYLE
  5
34
102
{ACAD_XDICTIONARY
360
363
102
}
102
{ACAD_REACTORS
330
2A
102
}
330
2A
100
AcDbVisualStyle
  2

 70
     9
 71
     3
 72
     2
 73
     0
 90
        0
 40
-0.6
 41
-30.0
 62
     5
 63
     7
421
 16777215
 74
     2
 91
        2
 64
     7
 65
   257
 75
     1
175
     1
 42
179.0
 92
        8
 66
     7
 43
1.0
 76
     1
 77
     6
 78
     2
 67
     7
 79
     3
170
     0
171
     0
290
     0
174
     0
 93
        1
 44
0.0
173
     0
291
     0
 45
0.0
1001
ACAD
1000
AcDbSavedByObjectVersion
1070
     0
  0
VISUALSTYLE
  5
35
102
{ACAD_XDICTIONARY
360
365
102
}
102
{ACAD_REACTORS
330
2A
102
}
330
2A
100
AcDbVisualStyle
  2

 70
    11
 71
     2
 72
     2
 73
     0
 90
        0
 40
-0.6
 41
-30.0
 62
     5
 63
     7
421
 16777215
 74
     1
 91
        4
 64
     7
 65
   257
 75
     1
175
     1
 42
1.0
 92
        8
 66
     7
 43
1.0
 76
     1
 77
     6
 78
     2
 67
     7
 79
     5
170
     0
171
     0
290
     0
174
     0
 93
        1
 44
-50.0
173
     0
291
     1
 45
0.0
1001
ACAD
1000
AcDbSavedByObjectVersion
1070
     0
  0
VISUALSTYLE
  5
3D
102
{ACAD_XDICTIONARY
360
375
102
}
102
{ACAD_REACTORS
330
2A
102
}
330
2A
100
AcDbVisualStyle
  2

 70
    22
 71
     2
 72
     2
 73
     0
 90
        0
 40
-0.6
 41
-30.0
 62
     5
 63
     7
421
 16777215
 74
     1
 91
        4
 64
     7
 65
   257
 75
     1
175
     1
 42
1.0
 92
        8
 66
     7
 43
1.0
 76
     1
 77
     6
 78
     2
 67
     7
 79
     5
170
     0
171
     0
290
     0
174
     0
 93
        1
 44
0.0
173
     0
291
     1
 45
0.0
1001
ACAD
1000
AcDbSavedByObjectVersion
1070
     0
  0
VISUALSTYLE
  5
39
102
{ACAD_XDICTIONARY
360
36D
102
}
102
{ACAD_REACTORS
330
2A
102
}
330
2A
100
AcDbVisualStyle
  2

 70
    15
 71
     2
 72
     2
 73
     0
 90
        0
 40
-0.6
 41
-30.0
 62
     5
 63
     7
421
 16777215
 74
     1
 91
        4
 64
     7
 65
   257
 75
     1
175
     1
 42
1.0
 92
        8
 66
     7
 43
1.0
 76
     1
 77
     6
 78
     2
 67
     7
 79
     5
170
     0
171
     0
290
     0
174
     0
 93
        1
 44
0.0
173
     0
291
     1
 45
0.0
1001
ACAD
1000
AcDbSavedByObjectVersion
1070
     0
  0
VISUALSTYLE
  5
2B
102
{ACAD_XDICTIONARY
360
351
102
}
102
{ACAD_REACTORS
330
2A
102
}
330
2A
100
AcDbVisualStyle
  2

 70
     0
 71
     2
 72
     1
 73
     1
 90
        2
 40
-0.6
 41
30.0
 62
     5
 63
     7
421
 16777215
 74
     0
 91
        0
 64
     7
 65
   257
 75
     1
175
     1
 42
1.0
 92
        8
 66
     7
 43
1.0
 76
     1
 77
     6
 78
     2
 67
     7
 79
     5
170
     0
171
     0
290
     0
174
     0
 93
       13
 44
0.0
173
     0
291
     1
 45
0.0
1001
ACAD
1000
AcDbSavedByObjectVersion
1070
     0
  0
VISUALSTYLE
  5
2C
102
{ACAD_XDICTIONARY
360
353
102
}
102
{ACAD_REACTORS
330
2A
102
}
330
2A
100
AcDbVisualStyle
  2

 70
     1
 71
     2
 72
     1
 73
     1
 90
        2
 40
-0.6
 41
30.0
 62
     5
 63
     7
421
 16777215
 74
     1
 91
        0
 64
     7
 65
   257
 75
     1
175
     1
 42
1.0
 92
        0
 66
   257
 43
1.0
 76
     1
 77
     6
 78
     2
 67
     7
 79
     5
170
     0
171
     0
290
     0
174
     0
 93
       13
 44
0.0
173
     0
291
     1
 45
0.0
1001
ACAD
1000
AcDbSavedByObjectVersion
1070
     0
  0
VISUALSTYLE
  5
2D
102
{ACAD_XDICTIONARY
360
355
102
}
102
{ACAD_REACTORS
330
2A
102
}
330
2A
100
AcDbVisualStyle
  2

 70
     2
 71
     2
 72
     2
 73
     1
 90
        2
 40
-0.6
 41
30.0
 62
     5
 63
     7
421
 16777215
 74
     0
 91
        0
 64
     7
 65
   257
 75
     1
175
     1
 42
1.0
 92
        0
 66
     7
 43
1.0
 76
     1
 77
     6
 78
     2
 67
     7
 79
     5
170
     0
171
     0
290
     0
174
     0
 93
       13
 44
0.0
173
     0
291
     1
 45
0.0
1001
ACAD
1000
AcDbSavedByObjectVersion
1070
     0
  0
VISUALSTYLE
  5
2E
102
{ACAD_XDICTIONARY
360
357
102
}
102
{ACAD_REACTORS
330
2A
102
}
330
2A
100
AcDbVisualStyle
  2

 70
     3
 71
     2
 72
     2
 73
     1
 90
        2
 40
-0.6
 41
30.0
 62
     5
 63
     7
421
 16777215
 74
     1
 91
        0
 64
     7
 65
   257
 75
     1
175
     1
 42
1.0
 92
        0
 66
   257
 43
1.0
 76
     1
 77
     6
 78
     2
 67
     7
 79
     5
170
     0
171
     0
290
     0
174
     0
 93
       13
 44
0.0
173
     0
291
     1
 45
0.0
1001
ACAD
1000
AcDbSavedByObjectVersion
1070
     0
  0
VISUALSTYLE
  5
31
102
{ACAD_XDICTIONARY
360
35D
102
}
102
{ACAD_REACTORS
330
2A
102
}
330
2A
100
AcDbVisualStyle
  2

 70
     6
 71
     1
 72
     2
 73
     2
 90
        0
 40
-0.6
 41
-30.0
 62
     5
 63
     7
421
 16777215
 74
     2
 91
        2
 64
     7
 65
   257
 75
     2
175
     1
 42
40.0
 92
        0
 66
   257
 43
1.0
 76
     1
 77
     6
 78
     2
 67
     7
 79
     3
170
     0
171
     0
290
     0
174
     0
 93
        1
 44
0.0
173
     0
291
     0
 45
0.0
1001
ACAD
1000
AcDbSavedByObjectVersion
1070
     0
  0
VISUALSTYLE
  5
3B
102
{ACAD_XDICTIONARY
360
371
102
}
102
{ACAD_REACTORS
330
2A
102
}
330
2A
100
AcDbVisualStyle
  2

 70
    20
 71
     2
 72
     2
 73
     0
 90
        0
 40
-0.6
 41
-30.0
 62
     5
 63
     7
421
 16777215
 74
     1
 91
        4
 64
     7
 65
   257
 75
     1
175
     1
 42
1.0
 92
       10
 66
     7
 43
1.0
 76
     1
 77
     6
 78
     2
 67
     7
 79
     5
170
     0
171
     0
290
     0
174
     0
 93
        1
 44
0.0
173
     0
291
     1
 45
0.0
1001
ACAD
1000
AcDbSavedByObjectVersion
1070
     0
  0
VISUALSTYLE
  5
38
102
{ACAD_XDICTIONARY
360
36B
102
}
102
{ACAD_REACTORS
330
2A
102
}
330
2A
100
AcDbVisualStyle
  2

 70
    14
 71
     2
 72
     2
 73
     0
 90
        0
 40
-0.6
 41
-30.0
 62
     5
 63
     7
421
 16777215
 74
     1
 91
        4
 64
     7
 65
   257
 75
     7
175
     7
 42
1.0
 92
        8
 66
     7
 43
1.0
 76
     1
 77
     6
 78
     2
 67
     7
 79
     5
170
     0
171
     0
290
     0
174
     0
 93
        1
 44
0.0
173
     0
291
     1
 45
0.0
1001
ACAD
1000
AcDbSavedByObjectVersion
1070
     0
  0
VISUALSTYLE
  5
3C
102
{ACAD_XDICTIONARY
360
373
102
}
102
{ACAD_REACTORS
330
2A
102
}
330
2A
100
AcDbVisualStyle
  2

 70
    21
 71
     2
 72
     2
 73
     0
 90
        0
 40
-0.6
 41
-30.0
 62
     5
 63
     7
421
 16777215
 74
     1
 91
        4
 64
     7
 65
   257
 75
     1
175
     1
 42
1.0
 92
        9
 66
     7
 43
1.0
 76
     1
 77
     6
 78
     2
 67
     7
 79
     5
170
     0
171
     0
290
     0
174
     0
 93
        1
 44
0.0
173
     0
291
     1
 45
0.0
1001
ACAD
1000
AcDbSavedByObjectVersion
1070
     0
  0
VISUALSTYLE
  5
33
102
{ACAD_XDICTIONARY
360
361
102
}
102
{ACAD_REACTORS
330
2A
102
}
330
2A
100
AcDbVisualStyle
  2

 70
     8
 71
     2
 72
     3
 73
     0
 90
        2
 40
-0.6
 41
30.0
 62
     5
 63
     7
421
 16777215
 74
     0
 91
        0
 64
     7
 65
   257
 75
     1
175
     1
 42
1.0
 92
        8
 66
   257
 43
1.0
 76
     1
 77
     6
 78
     2
 67
     7
 79
     3
170
     0
171
     0
290
     0
174
     0
 93
       13
 44
0.0
173
     0
291
     0
 45
0.0
1001
ACAD
1000
AcDbSavedByObjectVersion
1070
     0
  0
VISUALSTYLE
  5
42
102
{ACAD_XDICTIONARY
360
37F
102
}
102
{ACAD_REACTORS
330
2A
102
}
330
2A
100
AcDbVisualStyle
  2

 70
    27
 71
     2
 72
     2
 73
     1
 90
        2
 40
-0.6
 41
30.0
 62
     5
 63
     7
421
 16777215
 74
     0
 91
        4
 64
     7
 65
   257
 75
     1
175
     1
 42
1.0
 92
        8
 66
   257
 43
1.0
 76
     1
 77
     6
 78
     2
 67
     8
425
  7895160
 79
     3
170
     0
171
     0
290
     0
174
     0
 93
        5
 44
0.0
173
     0
291
     0
 45
0.0
1001
ACAD
1000
AcDbSavedByObjectVersion
1070
     0
  0
VISUALSTYLE
  5
41
102
{ACAD_XDICTIONARY
360
37D
102
}
102
{ACAD_REACTORS
330
2A
102
}
330
2A
100
AcDbVisualStyle
  2

 70
    26
 71
     2
 72
     2
 73
     1
 90
        2
 40
-0.6
 41
30.0
 62
     5
 63
     7
421
 16777215
 74
     1
 91
       10
 64
     7
 65
   257
 75
     2
175
     1
 42
1.0
 92
        8
 66
   257
 43
1.0
 76
     1
 77
     6
 78
     2
 67
     7
 79
     3
170
     0
171
     0
290
     0
174
     0
 93
        5
 44
0.0
173
     0
291
     0
 45
0.0
1001
ACAD
1000
AcDbSavedByObjectVersion
1070
     0
  0
VISUALSTYLE
  5
3E
102
{ACAD_XDICTIONARY
360
377
102
}
102
{ACAD_REACTORS
330
2A
102
}
330
2A
100
AcDbVisualStyle
  2

 70
    23
 71
     2
 72
     2
 73
     3
 90
        0
 40
-0.6
 41
-30.0
 62
     5
 63
     7
421
 16777215
 74
     2
 91
        2
 64
     7
 65
     7
 75
     1
175
     1
 42
40.0
 92
        8
 66
     7
 43
1.0
 76
     1
 77
     6
 78
     2
 67
     7
 79
     3
170
     0
171
     0
290
     0
174
     0
 93
        1
 44
0.0
173
     0
291
     0
 45
0.0
1001
ACAD
1000
AcDbSavedByObjectVersion
1070
     0
  0
VISUALSTYLE
  5
3F
102
{ACAD_XDICTIONARY
360
379
102
}
102
{ACAD_REACTORS
330
2A
102
}
330
2A
100
AcDbVisualStyle
  2

 70
    24
 71
     1
 72
     2
 73
     2
 90
        0
 40
-0.6
 41
-30.0
 62
     5
 63
     7
421
 16777215
 74
     2
 91
        2
 64
     7
 65
     7
 75
     1
175
     1
 42
40.0
 92
       11
 66
     7
 43
1.0
 76
     1
 77
     6
 78
     2
 67
     7
 79
     6
170
     0
171
     0
290
     0
174
     0
 93
        1
 44
0.0
173
     0
291
     0
 45
0.0
1001
ACAD
1000
AcDbSavedByObjectVersion
1070
     0
  0
VISUALSTYLE
  5
37
102
{ACAD_XDICTIONARY
360
369
102
}
102
{ACAD_REACTORS
330
2A
102
}
330
2A
100
AcDbVisualStyle
  2

 70
    13
 71
     2
 72
     2
 73
     0
 90
        0
 40
-0.6
 41
-30.0
 62
     5
 63
     7
421
 16777215
 74
     1
 91
        4
 64
     7
 65
   257
 75
     1
175
     1
 42
1.0
 92
       12
 66
     7
 43
1.0
 76
     1
 77
     6
 78
     2
 67
     7
 79
     5
170
     0
171
     0
290
     0
174
     0
 93
        1
 44
0.0
173
     0
291
     1
 45
0.0
1001
ACAD
1000
AcDbSavedByObjectVersion
1070
     0
  0
VISUALSTYLE
  5
30
102
{ACAD_XDICTIONARY
360
35B
102
}
102
{ACAD_REACTORS
330
2A
102
}
330
2A
100
AcDbVisualStyle
  2

 70
     5
 71
     0
 72
     2
 73
     0
 90
        0
 40
-0.6
 41
-30.0
 62
     5
 63
     7
421
 16777215
 74
     1
 91
        4
 64
     7
 65
   257
 75
     1
175
     1
 42
1.0
 92
        0
 66
   257
 43
1.0
 76
     1
 77
     6
 78
     2
 67
     7
 79
     3
170
     0
171
     0
290
     0
174
     0
 93
        1
 44
0.0
173
     0
291
     0
 45
0.0
1001
ACAD
1000
AcDbSavedByObjectVersion
1070
     0
  0
VISUALSTYLE
  5
40
102
{ACAD_XDICTIONARY
360
37B
102
}
102
{ACAD_REACTORS
330
2A
102
}
330
2A
100
AcDbVisualStyle
  2

 70
    25
 71
     2
 72
     2
 73
     1
 90
        1
 40
0.5
 41
-30.0
 62
     5
 63
     7
421
 16777215
 74
     1
 91
        0
 64
     7
 65
   257
 75
     1
175
     1
 42
1.0
 92
        8
 66
     7
 43
1.0
 76
     1
 77
     6
 78
     2
 67
     7
 79
     3
170
     0
171
     0
290
     0
174
     0
 93
       13
 44
0.0
173
     0
291
     0
 45
0.0
1001
ACAD
1000
AcDbSavedByObjectVersion
1070
     0
  0
DICTIONARYVAR
  5
264
102
{ACAD_REACTORS
330
263
102
}
330
263
100
DictionaryVariables
280
     0
  1
1:1
  0
DICTIONARYVAR
  5
2A5
102
{ACAD_REACTORS
330
263
102
}
330
263
100
DictionaryVariables
280
     0
  1
STANDARD
  0
DICTIONARYVAR
  5
2A4
102
{ACAD_REACTORS
330
263
102
}
330
263
100
DictionaryVariables
280
     0
  1
STANDARD
  0
DICTIONARYVAR
  5
34B
102
{ACAD_REACTORS
330
263
102
}
330
263
100
DictionaryVariables
280
     0
  1
Metric50
  0
DICTIONARYVAR
  5
34C
102
{ACAD_REACTORS
330
263
102
}
330
263
100
DictionaryVariables
280
     0
  1
Metric50
  0
DICTIONARYVAR
  5
265
102
{ACAD_REACTORS
330
263
102
}
330
263
100
DictionaryVariables
280
     0
  1
1
  0
DICTIONARYVAR
  5
34D
102
{ACAD_REACTORS
330
263
102
}
330
263
100
DictionaryVariables
280
     0
  1
2
  0
DICTIONARY
  5
384
330
2AC
100
AcDbDictionary
280
     1
281
     1
  3
ACAD_XREC_ROUNDTRIP
360
385
  0
DICTIONARY
  5
299
330
45
100
AcDbDictionary
280
     1
281
     1
  3
ACAD_XREC_ROUNDTRIP
360
29A
  0
DICTIONARY
  5
297
330
44
100
AcDbDictionary
280
     1
281
     1
  3
ACAD_XREC_ROUNDTRIP
360
298
  0
DICTIONARY
  5
29B
330
46
100
AcDbDictionary
280
     1
281
     1
  3
ACAD_XREC_ROUNDTRIP
360
29C
  0
DICTIONARY
  5
382
330
2AB
100
AcDbDictionary
280
     1
281
     1
  3
ACAD_XREC_ROUNDTRIP
360
383
  0
DICTIONARY
  5
29D
330
6A
100
AcDbDictionary
280
     1
281
     1
  3
ACAD_ROUNDTRIP_2008_TABLESTYLE_CELLSTYLEMAP
360
34F
  3
ACAD_XREC_ROUNDTRIP
360
381
  0
DICTIONARY
  5
359
330
2F
100
AcDbDictionary
280
     1
281
     1
  3
ACAD_XREC_ROUNDTRIP
360
35A
  0
DICTIONARY
  5
35F
330
32
100
AcDbDictionary
280
     1
281
     1
  3
ACAD_XREC_ROUNDTRIP
360
360
  0
DICTIONARY
  5
367
330
36
100
AcDbDictionary
280
     1
281
     1
  3
ACAD_XREC_ROUNDTRIP
360
368
  0
DICTIONARY
  5
36F
330
3A
100
AcDbDictionary
280
     1
281
     1
  3
ACAD_XREC_ROUNDTRIP
360
370
  0
DICTIONARY
  5
363
330
34
100
AcDbDictionary
280
     1
281
     1
  3
ACAD_XREC_ROUNDTRIP
360
364
  0
DICTIONARY
  5
365
330
35
100
AcDbDictionary
280
     1
281
     1
  3
ACAD_XREC_ROUNDTRIP
360
366
  0
DICTIONARY
  5
375
330
3D
100
AcDbDictionary
280
     1
281
     1
  3
ACAD_XREC_ROUNDTRIP
360
376
  0
DICTIONARY
  5
36D
330
39
100
AcDbDictionary
280
     1
281
     1
  3
ACAD_XREC_ROUNDTRIP
360
36E
  0
DICTIONARY
  5
351
330
2B
100
AcDbDictionary
280
     1
281
     1
  3
ACAD_XREC_ROUNDTRIP
360
352
  0
DICTIONARY
  5
353
330
2C
100
AcDbDictionary
280
     1
281
     1
  3
ACAD_XREC_ROUNDTRIP
360
354
  0
DICTIONARY
  5
355
330
2D
100
AcDbDictionary
280
     1
281
     1
  3
ACAD_XREC_ROUNDTRIP
360
356
  0
DICTIONARY
  5
357
330
2E
100
AcDbDictionary
280
     1
281
     1
  3
ACAD_XREC_ROUNDTRIP
360
358
  0
DICTIONARY
  5
35D
330
31
100
AcDbDictionary
280
     1
281
     1
  3
ACAD_XREC_ROUNDTRIP
360
35E
  0
DICTIONARY
  5
371
330
3B
100
AcDbDictionary
280
     1
281
     1
  3
ACAD_XREC_ROUNDTRIP
360
372
  0
DICTIONARY
  5
36B
330
38
100
AcDbDictionary
280
     1
281
     1
  3
ACAD_XREC_ROUNDTRIP
360
36C
  0
DICTIONARY
  5
373
330
3C
100
AcDbDictionary
280
     1
281
     1
  3
ACAD_XREC_ROUNDTRIP
360
374
  0
DICTIONARY
  5
361
330
33
100
AcDbDictionary
280
     1
281
     1
  3
ACAD_XREC_ROUNDTRIP
360
362
  0
DICTIONARY
  5
37F
330
42
100
AcDbDictionary
280
     1
281
     1
  3
ACAD_XREC_ROUNDTRIP
360
380
  0
DICTIONARY
  5
37D
330
41
100
AcDbDictionary
280
     1
281
     1
  3
ACAD_XREC_ROUNDTRIP
360
37E
  0
DICTIONARY
  5
377
330
3E
100
AcDbDictionary
280
     1
281
     1
  3
ACAD_XREC_ROUNDTRIP
360
378
  0
DICTIONARY
  5
379
330
3F
100
AcDbDictionary
280
     1
281
     1
  3
ACAD_XREC_ROUNDTRIP
360
37A
  0
DICTIONARY
  5
369
330
37
100
AcDbDictionary
280
     1
281
     1
  3
ACAD_XREC_ROUNDTRIP
360
36A
  0
DICTIONARY
  5
35B
330
30
100
AcDbDictionary
280
     1
281
     1
  3
ACAD_XREC_ROUNDTRIP
360
35C
  0
DICTIONARY
  5
37B
330
40
100
AcDbDictionary
280
     1
281
     1
  3
ACAD_XREC_ROUNDTRIP
360
37C
  0
XRECORD
  5
385
102
{ACAD_REACTORS
330
384
102
}
330
384
100
AcDbXrecord
280
     1
102
DISPLAYNAME
  1
Metric50
102
FLAGS
 90
        0
  0
XRECORD
  5
29A
102
{ACAD_REACTORS
330
299
102
}
330
299
100
AcDbXrecord
280
     1
102
MATERIAL
148
0.0
149
0.0
149
0.0
 93
        0
 94
      127
282
     0
 72
     1
 77
     1
171
     1
175
     1
179
     1
273
     0
  0
XRECORD
  5
298
102
{ACAD_REACTORS
330
297
102
}
330
297
100
AcDbXrecord
280
     1
102
MATERIAL
148
0.0
149
0.0
149
0.0
 93
        0
 94
      127
282
     0
 72
     1
 77
     1
171
     1
175
     1
179
     1
273
     0
  0
XRECORD
  5
29C
102
{ACAD_REACTORS
330
29B
102
}
330
29B
100
AcDbXrecord
280
     1
102
MATERIAL
148
0.0
149
0.0
149
0.0
 93
        0
 94
      127
282
     0
 72
     1
 77
     1
171
     1
175
     1
179
     1
273
     0
  0
XRECORD
  5
383
102
{ACAD_REACTORS
330
382
102
}
330
382
100
AcDbXrecord
280
     1
102
DISPLAYNAME
  1
Metric50
102
FLAGS
 90
        0
  0
CELLSTYLEMAP
  5
34F
102
{ACAD_REACTORS
330
29D
102
}
330
29D
100
AcDbCellStyleMap
 90
        3
300
CELLSTYLE
  1
TABLEFORMAT_BEGIN
 90
        5
170
     1
 91
        0
 92
    32768
 62
   257
 93
        1
300
CONTENTFORMAT
  1
CONTENTFORMAT_BEGIN
 90
        0
 91
        0
 92
        4
 93
        0
300

 40
0.0
140
1.0
 94
        5
 62
     0
340
11
144
0.25
309
CONTENTFORMAT_END
171
     1
301
MARGIN
  1
CELLMARGIN_BEGIN
 40
0.06
 40
0.06
 40
0.06
 40
0.06
 40
0.18
 40
0.18
309
CELLMARGIN_END
 94
        6
 95
        1
302
GRIDFORMAT
  1
GRIDFORMAT_BEGIN
 90
        0
 91
        1
 62
     0
 92
       -2
340
14
 93
        0
 40
0.045
309
GRIDFORMAT_END
 95
        2
302
GRIDFORMAT
  1
GRIDFORMAT_BEGIN
 90
        0
 91
        1
 62
     0
 92
       -2
340
14
 93
        0
 40
0.045
309
GRIDFORMAT_END
 95
        4
302
GRIDFORMAT
  1
GRIDFORMAT_BEGIN
 90
        0
 91
        1
 62
     0
 92
       -2
340
14
 93
        0
 40
0.045
309
GRIDFORMAT_END
 95
        8
302
GRIDFORMAT
  1
GRIDFORMAT_BEGIN
 90
        0
 91
        1
 62
     0
 92
       -2
340
14
 93
        0
 40
0.045
309
GRIDFORMAT_END
 95
       16
302
GRIDFORMAT
  1
GRIDFORMAT_BEGIN
 90
        0
 91
        1
 62
     0
 92
       -2
340
14
 93
        0
 40
0.045
309
GRIDFORMAT_END
 95
       32
302
GRIDFORMAT
  1
GRIDFORMAT_BEGIN
 90
        0
 91
        1
 62
     0
 92
       -2
340
14
 93
        0
 40
0.045
309
GRIDFORMAT_END
309
TABLEFORMAT_END
  1
CELLSTYLE_BEGIN
 90
        1
 91
        1
300
_TITLE
309
CELLSTYLE_END
300
CELLSTYLE
  1
TABLEFORMAT_BEGIN
 90
        5
170
     1
 91
        0
 92
        0
 62
   257
 93
        1
300
CONTENTFORMAT
  1
CONTENTFORMAT_BEGIN
 90
        0
 91
        0
 92
        4
 93
        0
300

 40
0.0
140
1.0
 94
        5
 62
     0
340
11
144
0.18
309
CONTENTFORMAT_END
171
     1
301
MARGIN
  1
CELLMARGIN_BEGIN
 40
0.06
 40
0.06
 40
0.06
 40
0.06
 40
0.18
 40
0.18
309
CELLMARGIN_END
 94
        6
 95
        1
302
GRIDFORMAT
  1
GRIDFORMAT_BEGIN
 90
        0
 91
        1
 62
     0
 92
       -2
340
14
 93
        0
 40
0.045
309
GRIDFORMAT_END
 95
        2
302
GRIDFORMAT
  1
GRIDFORMAT_BEGIN
 90
        0
 91
        1
 62
     0
 92
       -2
340
14
 93
        0
 40
0.045
309
GRIDFORMAT_END
 95
        4
302
GRIDFORMAT
  1
GRIDFORMAT_BEGIN
 90
        0
 91
        1
 62
     0
 92
       -2
340
14
 93
        0
 40
0.045
309
GRIDFORMAT_END
 95
        8
302
GRIDFORMAT
  1
GRIDFORMAT_BEGIN
 90
        0
 91
        1
 62
     0
 92
       -2
340
14
 93
        0
 40
0.045
309
GRIDFORMAT_END
 95
       16
302
GRIDFORMAT
  1
GRIDFORMAT_BEGIN
 90
        0
 91
        1
 62
     0
 92
       -2
340
14
 93
        0
 40
0.045
309
GRIDFORMAT_END
 95
       32
302
GRIDFORMAT
  1
GRIDFORMAT_BEGIN
 90
        0
 91
        1
 62
     0
 92
       -2
340
14
 93
        0
 40
0.045
309
GRIDFORMAT_END
309
TABLEFORMAT_END
  1
CELLSTYLE_BEGIN
 90
        2
 91
        1
300
_HEADER
309
CELLSTYLE_END
300
CELLSTYLE
  1
TABLEFORMAT_BEGIN
 90
        5
170
     1
 91
        0
 92
        0
 62
   257
 93
        1
300
CONTENTFORMAT
  1
CONTENTFORMAT_BEGIN
 90
        0
 91
        0
 92
        4
 93
        0
300

 40
0.0
140
1.0
 94
        2
 62
     0
340
11
144
0.18
309
CONTENTFORMAT_END
171
     1
301
MARGIN
  1
CELLMARGIN_BEGIN
 40
0.06
 40
0.06
 40
0.06
 40
0.06
 40
0.18
 40
0.18
309
CELLMARGIN_END
 94
        6
 95
        1
302
GRIDFORMAT
  1
GRIDFORMAT_BEGIN
 90
        0
 91
        1
 62
     0
 92
       -2
340
14
 93
        0
 40
0.045
309
GRIDFORMAT_END
 95
        2
302
GRIDFORMAT
  1
GRIDFORMAT_BEGIN
 90
        0
 91
        1
 62
     0
 92
       -2
340
14
 93
        0
 40
0.045
309
GRIDFORMAT_END
 95
        4
302
GRIDFORMAT
  1
GRIDFORMAT_BEGIN
 90
        0
 91
        1
 62
     0
 92
       -2
340
14
 93
        0
 40
0.045
309
GRIDFORMAT_END
 95
        8
302
GRIDFORMAT
  1
GRIDFORMAT_BEGIN
 90
        0
 91
        1
 62
     0
 92
       -2
340
14
 93
        0
 40
0.045
309
GRIDFORMAT_END
 95
       16
302
GRIDFORMAT
  1
GRIDFORMAT_BEGIN
 90
        0
 91
        1
 62
     0
 92
       -2
340
14
 93
        0
 40
0.045
309
GRIDFORMAT_END
 95
       32
302
GRIDFORMAT
  1
GRIDFORMAT_BEGIN
 90
        0
 91
        1
 62
     0
 92
       -2
340
14
 93
        0
 40
0.045
309
GRIDFORMAT_END
309
TABLEFORMAT_END
  1
CELLSTYLE_BEGIN
 90
        3
 91
        2
300
_DATA
309
CELLSTYLE_END
  0
XRECORD
  5
381
102
{ACAD_REACTORS
330
29D
102
}
330
29D
100
AcDbXrecord
280
     1
102
ACAD_ROUNDTRIP_PRE2007_TABLESTYLE
 90
        4
 91
        0
  1

 92
        4
 93
        0
  2

 94
        4
 95
        0
  3

  0
XRECORD
  5
35A
102
{ACAD_REACTORS
330
359
102
}
330
359
100
AcDbXrecord
280
     1
102
RTVSPost2010Prop28
280
     1
102
RTVSPost2010PropOp28
 70
     1
102
RTVSPost2010Prop29
280
     1
102
RTVSPost2010PropOp29
 70
     1
102
RTVSPost2010Prop30
280
     0
102
RTVSPost2010PropOp30
 70
     1
102
RTVSPost2010Prop31
280
     0
102
RTVSPost2010PropOp31
 70
     1
102
RTVSPost2010Prop32
280
     0
102
RTVSPost2010PropOp32
 70
     1
102
RTVSPost2010Prop33
280
     0
102
RTVSPost2010PropOp33
 70
     1
102
RTVSPost2010Prop34
280
     0
102
RTVSPost2010PropOp34
 70
     1
102
RTVSPost2010Prop35
280
     0
102
RTVSPost2010PropOp35
 70
     1
102
RTVSPost2010Prop36
280
     0
102
RTVSPost2010PropOp36
 70
     1
102
RTVSPost2010Prop37
 90
       50
102
RTVSPost2010PropOp37
 70
     1
102
RTVSPost2010Prop38
140
0.0
102
RTVSPost2010PropOp38
 70
     1
102
RTVSPost2010Prop39
140
1.0
102
RTVSPost2010PropOp39
 70
     1
102
RTVSPost2010Prop40
 90
        0
102
RTVSPost2010PropOp40
 70
     1
102
RTVSPost2010Prop41ColorIndex
 90
       18
102
RTVSPost2010Prop41ColorRGB
 90
        0
102
RTVSPost2010PropOp41
 70
     1
102
RTVSPost2010Prop42
 90
       50
102
RTVSPost2010PropOp42
 70
     1
102
RTVSPost2010Prop43
 90
        3
102
RTVSPost2010PropOp43
 70
     1
102
RTVSPost2010Prop44ColorIndex
 90
        5
102
RTVSPost2010Prop44ColorRGB
 90
      255
102
RTVSPost2010PropOp44
 70
     1
102
RTVSPost2010Prop45
280
     0
102
RTVSPost2010PropOp45
 70
     1
102
RTVSPost2010Prop46
 90
       50
102
RTVSPost2010PropOp46
 70
     1
102
RTVSPost2010Prop47
 90
       50
102
RTVSPost2010PropOp47
 70
     1
102
RTVSPost2010Prop48
 90
       50
102
RTVSPost2010PropOp48
 70
     1
102
RTVSPost2010Prop49
280
     0
102
RTVSPost2010PropOp49
 70
     1
102
RTVSPost2010Prop50
 90
       50
102
RTVSPost2010PropOp50
 70
     1
102
RTVSPost2010Prop51ColorIndex
 90
      256
102
RTVSPost2010Prop51ColorRGB
 90
-16777216
102
RTVSPost2010PropOp51
 70
     0
102
RTVSPost2010Prop52
140
1.0
102
RTVSPost2010PropOp52
 70
     0
102
RTVSPost2010Prop53
 90
        2
102
RTVSPost2010PropOp53
 70
     1
102
RTVSPost2010Prop54
  1
strokes_ogs.tif
102
RTVSPost2010PropOp54
 70
     1
102
RTVSPost2010Prop55
280
     0
102
RTVSPost2010PropOp55
 70
     1
102
RTVSPost2010Prop56
140
1.0
102
RTVSPost2010PropOp56
 70
     1
102
RTVSPost2010Prop57
140
1.0
102
RTVSPost2010PropOp57
 70
     1
102
RTVSPropertyOp0
 70
     1
102
RTVSPropertyOp1
 70
     1
102
RTVSPropertyOp2
 70
     1
102
RTVSPropertyOp3
 70
     1
102
RTVSPropertyOp4
 70
     1
102
RTVSPropertyOp5
 70
     1
102
RTVSPropertyOp6
 70
     1
102
RTVSPropertyOp7
 70
     1
102
RTVSPropertyOp8
 70
     1
102
RTVSPropertyOp9
 70
     1
102
RTVSPropertyOp10
 70
     1
102
RTVSPropertyOp11
 70
     1
102
RTVSPropertyOp12
 70
     1
102
RTVSPropertyOp13
 70
     1
102
RTVSPropertyOp14
 70
     1
102
RTVSPropertyOp15
 70
     1
102
RTVSPropertyOp16
 70
     1
102
RTVSPropertyOp17
 70
     1
102
RTVSPropertyOp18
 70
     1
102
RTVSPropertyOp19
 70
     1
102
RTVSPropertyOp20
 70
     1
102
RTVSPropertyOp21
 70
     1
102
RTVSPropertyOp22
 70
     1
102
RTVSPropertyOp23
 70
     1
102
RTVSPropertyOp24
 70
     1
102
RTVSPropertyOp25
 70
     1
102
RTVSPropertyOp26
 70
     1
102
RTVSPropertyOp27
 70
     1
102
RTVSPropertyOp28
 70
     1
102
RTVSPropertyOp29
 70
     1
102
RTVSPropertyOp30
 70
     1
102
RTVSPropertyOp31
 70
     1
102
RTVSPropertyOp32
 70
     1
102
RTVSPropertyOp33
 70
     1
102
RTVSPropertyOp34
 70
     1
102
RTVSPropertyOp35
 70
     1
102
RTVSPropertyOp36
 70
     1
102
RTVSPropertyOp37
 70
     1
102
RTVSPropertyOp38
 70
     1
102
RTVSPropertyOp39
 70
     1
102
RTVSPropertyOp40
 70
     1
102
RTVSPropertyOp41
 70
     1
102
RTVSPropertyOp42
 70
     1
102
RTVSPropertyOp43
 70
     1
102
RTVSPropertyOp44
 70
     1
102
RTVSPropertyOp45
 70
     1
102
RTVSPropertyOp46
 70
     1
102
RTVSPropertyOp47
 70
     1
102
RTVSPropertyOp48
 70
     1
102
RTVSPropertyOp49
 70
     1
102
RTVSPropertyOp50
 70
     1
102
RTVSPropertyOp51
 70
     0
102
RTVSPropertyOp52
 70
     0
102
RTVSPropertyOp53
 70
     1
102
RTVSPropertyOp54
 70
     1
102
RTVSPropertyOp55
 70
     1
102
RTVSPropertyOp56
 70
     1
102
RTVSPropertyOp57
 70
     1
102
RTVSPropertyOp58
 70
     1
102
RTVSPropertyOp59
 70
     1
102
RTVSPropertyOp60
 70
     1
102
RTVSPropertyOp61
 70
     1
102
RTVSPropertyOp62
 70
     1
  0
XRECORD
  5
360
102
{ACAD_REACTORS
330
35F
102
}
330
35F
100
AcDbXrecord
280
     1
102
RTVSPost2010Prop28
280
     0
102
RTVSPost2010PropOp28
 70
     1
102
RTVSPost2010Prop29
280
     1
102
RTVSPost2010PropOp29
 70
     1
102
RTVSPost2010Prop30
280
     1
102
RTVSPost2010PropOp30
 70
     1
102
RTVSPost2010Prop31
280
     0
102
RTVSPost2010PropOp31
 70
     1
102
RTVSPost2010Prop32
280
     0
102
RTVSPost2010PropOp32
 70
     1
102
RTVSPost2010Prop33
280
     0
102
RTVSPost2010PropOp33
 70
     1
102
RTVSPost2010Prop34
280
     0
102
RTVSPost2010PropOp34
 70
     1
102
RTVSPost2010Prop35
280
     0
102
RTVSPost2010PropOp35
 70
     1
102
RTVSPost2010Prop36
280
     0
102
RTVSPost2010PropOp36
 70
     1
102
RTVSPost2010Prop37
 90
       50
102
RTVSPost2010PropOp37
 70
     1
102
RTVSPost2010Prop38
140
0.0
102
RTVSPost2010PropOp38
 70
     1
102
RTVSPost2010Prop39
140
1.0
102
RTVSPost2010PropOp39
 70
     1
102
RTVSPost2010Prop40
 90
        0
102
RTVSPost2010PropOp40
 70
     1
102
RTVSPost2010Prop41ColorIndex
 90
       18
102
RTVSPost2010Prop41ColorRGB
 90
        0
102
RTVSPost2010PropOp41
 70
     1
102
RTVSPost2010Prop42
 90
       50
102
RTVSPost2010PropOp42
 70
     1
102
RTVSPost2010Prop43
 90
        3
102
RTVSPost2010PropOp43
 70
     1
102
RTVSPost2010Prop44ColorIndex
 90
        5
102
RTVSPost2010Prop44ColorRGB
 90
      255
102
RTVSPost2010PropOp44
 70
     1
102
RTVSPost2010Prop45
280
     0
102
RTVSPost2010PropOp45
 70
     1
102
RTVSPost2010Prop46
 90
       50
102
RTVSPost2010PropOp46
 70
     1
102
RTVSPost2010Prop47
 90
       50
102
RTVSPost2010PropOp47
 70
     1
102
RTVSPost2010Prop48
 90
       50
102
RTVSPost2010PropOp48
 70
     1
102
RTVSPost2010Prop49
280
     0
102
RTVSPost2010PropOp49
 70
     1
102
RTVSPost2010Prop50
 90
       50
102
RTVSPost2010PropOp50
 70
     1
102
RTVSPost2010Prop51ColorIndex
 90
      256
102
RTVSPost2010Prop51ColorRGB
 90
-16777216
102
RTVSPost2010PropOp51
 70
     0
102
RTVSPost2010Prop52
140
1.0
102
RTVSPost2010PropOp52
 70
     0
102
RTVSPost2010Prop53
 90
        2
102
RTVSPost2010PropOp53
 70
     1
102
RTVSPost2010Prop54
  1
strokes_ogs.tif
102
RTVSPost2010PropOp54
 70
     1
102
RTVSPost2010Prop55
280
     0
102
RTVSPost2010PropOp55
 70
     1
102
RTVSPost2010Prop56
140
1.0
102
RTVSPost2010PropOp56
 70
     1
102
RTVSPost2010Prop57
140
1.0
102
RTVSPost2010PropOp57
 70
     1
102
RTVSPropertyOp0
 70
     1
102
RTVSPropertyOp1
 70
     1
102
RTVSPropertyOp2
 70
     1
102
RTVSPropertyOp3
 70
     1
102
RTVSPropertyOp4
 70
     1
102
RTVSPropertyOp5
 70
     1
102
RTVSPropertyOp6
 70
     1
102
RTVSPropertyOp7
 70
     1
102
RTVSPropertyOp8
 70
     1
102
RTVSPropertyOp9
 70
     1
102
RTVSPropertyOp10
 70
     1
102
RTVSPropertyOp11
 70
     1
102
RTVSPropertyOp12
 70
     1
102
RTVSPropertyOp13
 70
     1
102
RTVSPropertyOp14
 70
     1
102
RTVSPropertyOp15
 70
     1
102
RTVSPropertyOp16
 70
     1
102
RTVSPropertyOp17
 70
     1
102
RTVSPropertyOp18
 70
     1
102
RTVSPropertyOp19
 70
     1
102
RTVSPropertyOp20
 70
     1
102
RTVSPropertyOp21
 70
     1
102
RTVSPropertyOp22
 70
     1
102
RTVSPropertyOp23
 70
     1
102
RTVSPropertyOp24
 70
     1
102
RTVSPropertyOp25
 70
     1
102
RTVSPropertyOp26
 70
     1
102
RTVSPropertyOp27
 70
     1
102
RTVSPropertyOp28
 70
     1
102
RTVSPropertyOp29
 70
     1
102
RTVSPropertyOp30
 70
     1
102
RTVSPropertyOp31
 70
     1
102
RTVSPropertyOp32
 70
     1
102
RTVSPropertyOp33
 70
     1
102
RTVSPropertyOp34
 70
     1
102
RTVSPropertyOp35
 70
     1
102
RTVSPropertyOp36
 70
     1
102
RTVSPropertyOp37
 70
     1
102
RTVSPropertyOp38
 70
     1
102
RTVSPropertyOp39
 70
     1
102
RTVSPropertyOp40
 70
     1
102
RTVSPropertyOp41
 70
     1
102
RTVSPropertyOp42
 70
     1
102
RTVSPropertyOp43
 70
     1
102
RTVSPropertyOp44
 70
     1
102
RTVSPropertyOp45
 70
     1
102
RTVSPropertyOp46
 70
     1
102
RTVSPropertyOp47
 70
     1
102
RTVSPropertyOp48
 70
     1
102
RTVSPropertyOp49
 70
     1
102
RTVSPropertyOp50
 70
     1
102
RTVSPropertyOp51
 70
     0
102
RTVSPropertyOp52
 70
     0
102
RTVSPropertyOp53
 70
     1
102
RTVSPropertyOp54
 70
     1
102
RTVSPropertyOp55
 70
     1
102
RTVSPropertyOp56
 70
     1
102
RTVSPropertyOp57
 70
     1
102
RTVSPropertyOp58
 70
     1
102
RTVSPropertyOp59
 70
     1
102
RTVSPropertyOp60
 70
     1
102
RTVSPropertyOp61
 70
     1
102
RTVSPropertyOp62
 70
     1
  0
XRECORD
  5
368
102
{ACAD_REACTORS
330
367
102
}
330
367
100
AcDbXrecord
280
     1
102
RTVSPost2010Prop28
280
     0
102
RTVSPost2010PropOp28
 70
     1
102
RTVSPost2010Prop29
280
     1
102
RTVSPost2010PropOp29
 70
     1
102
RTVSPost2010Prop30
280
     1
102
RTVSPost2010PropOp30
 70
     1
102
RTVSPost2010Prop31
280
     0
102
RTVSPost2010PropOp31
 70
     1
102
RTVSPost2010Prop32
280
     0
102
RTVSPost2010PropOp32
 70
     1
102
RTVSPost2010Prop33
280
     0
102
RTVSPost2010PropOp33
 70
     1
102
RTVSPost2010Prop34
280
     0
102
RTVSPost2010PropOp34
 70
     1
102
RTVSPost2010Prop35
280
     0
102
RTVSPost2010PropOp35
 70
     1
102
RTVSPost2010Prop36
280
     0
102
RTVSPost2010PropOp36
 70
     1
102
RTVSPost2010Prop37
 90
       50
102
RTVSPost2010PropOp37
 70
     1
102
RTVSPost2010Prop38
140
0.0
102
RTVSPost2010PropOp38
 70
     1
102
RTVSPost2010Prop39
140
1.0
102
RTVSPost2010PropOp39
 70
     1
102
RTVSPost2010Prop40
 90
        0
102
RTVSPost2010PropOp40
 70
     1
102
RTVSPost2010Prop41ColorIndex
 90
       18
102
RTVSPost2010Prop41ColorRGB
 90
        0
102
RTVSPost2010PropOp41
 70
     1
102
RTVSPost2010Prop42
 90
       50
102
RTVSPost2010PropOp42
 70
     1
102
RTVSPost2010Prop43
 90
        3
102
RTVSPost2010PropOp43
 70
     1
102
RTVSPost2010Prop44ColorIndex
 90
        5
102
RTVSPost2010Prop44ColorRGB
 90
      255
102
RTVSPost2010PropOp44
 70
     1
102
RTVSPost2010Prop45
280
     0
102
RTVSPost2010PropOp45
 70
     1
102
RTVSPost2010Prop46
 90
       50
102
RTVSPost2010PropOp46
 70
     1
102
RTVSPost2010Prop47
 90
       50
102
RTVSPost2010PropOp47
 70
     1
102
RTVSPost2010Prop48
 90
       50
102
RTVSPost2010PropOp48
 70
     1
102
RTVSPost2010Prop49
280
     0
102
RTVSPost2010PropOp49
 70
     1
102
RTVSPost2010Prop50
 90
       50
102
RTVSPost2010PropOp50
 70
     1
102
RTVSPost2010Prop51ColorIndex
 90
      256
102
RTVSPost2010Prop51ColorRGB
 90
-16777216
102
RTVSPost2010PropOp51
 70
     0
102
RTVSPost2010Prop52
140
1.0
102
RTVSPost2010PropOp52
 70
     0
102
RTVSPost2010Prop53
 90
        2
102
RTVSPost2010PropOp53
 70
     1
102
RTVSPost2010Prop54
  1
strokes_ogs.tif
102
RTVSPost2010PropOp54
 70
     1
102
RTVSPost2010Prop55
280
     0
102
RTVSPost2010PropOp55
 70
     1
102
RTVSPost2010Prop56
140
1.0
102
RTVSPost2010PropOp56
 70
     1
102
RTVSPost2010Prop57
140
1.0
102
RTVSPost2010PropOp57
 70
     1
102
RTVSPropertyOp0
 70
     1
102
RTVSPropertyOp1
 70
     1
102
RTVSPropertyOp2
 70
     1
102
RTVSPropertyOp3
 70
     1
102
RTVSPropertyOp4
 70
     1
102
RTVSPropertyOp5
 70
     1
102
RTVSPropertyOp6
 70
     1
102
RTVSPropertyOp7
 70
     1
102
RTVSPropertyOp8
 70
     1
102
RTVSPropertyOp9
 70
     1
102
RTVSPropertyOp10
 70
     1
102
RTVSPropertyOp11
 70
     1
102
RTVSPropertyOp12
 70
     1
102
RTVSPropertyOp13
 70
     1
102
RTVSPropertyOp14
 70
     1
102
RTVSPropertyOp15
 70
     1
102
RTVSPropertyOp16
 70
     1
102
RTVSPropertyOp17
 70
     1
102
RTVSPropertyOp18
 70
     1
102
RTVSPropertyOp19
 70
     1
102
RTVSPropertyOp20
 70
     1
102
RTVSPropertyOp21
 70
     1
102
RTVSPropertyOp22
 70
     1
102
RTVSPropertyOp23
 70
     1
102
RTVSPropertyOp24
 70
     1
102
RTVSPropertyOp25
 70
     1
102
RTVSPropertyOp26
 70
     1
102
RTVSPropertyOp27
 70
     1
102
RTVSPropertyOp28
 70
     1
102
RTVSPropertyOp29
 70
     1
102
RTVSPropertyOp30
 70
     1
102
RTVSPropertyOp31
 70
     1
102
RTVSPropertyOp32
 70
     1
102
RTVSPropertyOp33
 70
     1
102
RTVSPropertyOp34
 70
     1
102
RTVSPropertyOp35
 70
     1
102
RTVSPropertyOp36
 70
     1
102
RTVSPropertyOp37
 70
     1
102
RTVSPropertyOp38
 70
     1
102
RTVSPropertyOp39
 70
     1
102
RTVSPropertyOp40
 70
     1
102
RTVSPropertyOp41
 70
     1
102
RTVSPropertyOp42
 70
     1
102
RTVSPropertyOp43
 70
     1
102
RTVSPropertyOp44
 70
     1
102
RTVSPropertyOp45
 70
     1
102
RTVSPropertyOp46
 70
     1
102
RTVSPropertyOp47
 70
     1
102
RTVSPropertyOp48
 70
     1
102
RTVSPropertyOp49
 70
     1
102
RTVSPropertyOp50
 70
     1
102
RTVSPropertyOp51
 70
     0
102
RTVSPropertyOp52
 70
     0
102
RTVSPropertyOp53
 70
     1
102
RTVSPropertyOp54
 70
     1
102
RTVSPropertyOp55
 70
     1
102
RTVSPropertyOp56
 70
     1
102
RTVSPropertyOp57
 70
     1
102
RTVSPropertyOp58
 70
     1
102
RTVSPropertyOp59
 70
     1
102
RTVSPropertyOp60
 70
     1
102
RTVSPropertyOp61
 70
     1
102
RTVSPropertyOp62
 70
     1
  0
XRECORD
  5
370
102
{ACAD_REACTORS
330
36F
102
}
330
36F
100
AcDbXrecord
280
     1
102
RTVSPost2010Prop28
280
     0
102
RTVSPost2010PropOp28
 70
     1
102
RTVSPost2010Prop29
280
     1
102
RTVSPost2010PropOp29
 70
     1
102
RTVSPost2010Prop30
280
     1
102
RTVSPost2010PropOp30
 70
     1
102
RTVSPost2010Prop31
280
     0
102
RTVSPost2010PropOp31
 70
     1
102
RTVSPost2010Prop32
280
     0
102
RTVSPost2010PropOp32
 70
     1
102
RTVSPost2010Prop33
280
     0
102
RTVSPost2010PropOp33
 70
     1
102
RTVSPost2010Prop34
280
     0
102
RTVSPost2010PropOp34
 70
     1
102
RTVSPost2010Prop35
280
     0
102
RTVSPost2010PropOp35
 70
     1
102
RTVSPost2010Prop36
280
     0
102
RTVSPost2010PropOp36
 70
     1
102
RTVSPost2010Prop37
 90
       50
102
RTVSPost2010PropOp37
 70
     1
102
RTVSPost2010Prop38
140
0.0
102
RTVSPost2010PropOp38
 70
     1
102
RTVSPost2010Prop39
140
1.0
102
RTVSPost2010PropOp39
 70
     1
102
RTVSPost2010Prop40
 90
        0
102
RTVSPost2010PropOp40
 70
     1
102
RTVSPost2010Prop41ColorIndex
 90
       18
102
RTVSPost2010Prop41ColorRGB
 90
        0
102
RTVSPost2010PropOp41
 70
     1
102
RTVSPost2010Prop42
 90
       50
102
RTVSPost2010PropOp42
 70
     1
102
RTVSPost2010Prop43
 90
        3
102
RTVSPost2010PropOp43
 70
     1
102
RTVSPost2010Prop44ColorIndex
 90
        5
102
RTVSPost2010Prop44ColorRGB
 90
      255
102
RTVSPost2010PropOp44
 70
     1
102
RTVSPost2010Prop45
280
     0
102
RTVSPost2010PropOp45
 70
     1
102
RTVSPost2010Prop46
 90
       50
102
RTVSPost2010PropOp46
 70
     1
102
RTVSPost2010Prop47
 90
       50
102
RTVSPost2010PropOp47
 70
     1
102
RTVSPost2010Prop48
 90
       50
102
RTVSPost2010PropOp48
 70
     1
102
RTVSPost2010Prop49
280
     0
102
RTVSPost2010PropOp49
 70
     1
102
RTVSPost2010Prop50
 90
       50
102
RTVSPost2010PropOp50
 70
     1
102
RTVSPost2010Prop51ColorIndex
 90
      256
102
RTVSPost2010Prop51ColorRGB
 90
-16777216
102
RTVSPost2010PropOp51
 70
     0
102
RTVSPost2010Prop52
140
1.0
102
RTVSPost2010PropOp52
 70
     0
102
RTVSPost2010Prop53
 90
        2
102
RTVSPost2010PropOp53
 70
     1
102
RTVSPost2010Prop54
  1
strokes_ogs.tif
102
RTVSPost2010PropOp54
 70
     1
102
RTVSPost2010Prop55
280
     0
102
RTVSPost2010PropOp55
 70
     1
102
RTVSPost2010Prop56
140
1.0
102
RTVSPost2010PropOp56
 70
     1
102
RTVSPost2010Prop57
140
1.0
102
RTVSPost2010PropOp57
 70
     1
102
RTVSPropertyOp0
 70
     1
102
RTVSPropertyOp1
 70
     1
102
RTVSPropertyOp2
 70
     1
102
RTVSPropertyOp3
 70
     1
102
RTVSPropertyOp4
 70
     1
102
RTVSPropertyOp5
 70
     1
102
RTVSPropertyOp6
 70
     1
102
RTVSPropertyOp7
 70
     1
102
RTVSPropertyOp8
 70
     1
102
RTVSPropertyOp9
 70
     1
102
RTVSPropertyOp10
 70
     1
102
RTVSPropertyOp11
 70
     1
102
RTVSPropertyOp12
 70
     1
102
RTVSPropertyOp13
 70
     1
102
RTVSPropertyOp14
 70
     1
102
RTVSPropertyOp15
 70
     1
102
RTVSPropertyOp16
 70
     1
102
RTVSPropertyOp17
 70
     1
102
RTVSPropertyOp18
 70
     1
102
RTVSPropertyOp19
 70
     1
102
RTVSPropertyOp20
 70
     1
102
RTVSPropertyOp21
 70
     1
102
RTVSPropertyOp22
 70
     1
102
RTVSPropertyOp23
 70
     1
102
RTVSPropertyOp24
 70
     1
102
RTVSPropertyOp25
 70
     1
102
RTVSPropertyOp26
 70
     1
102
RTVSPropertyOp27
 70
     1
102
RTVSPropertyOp28
 70
     1
102
RTVSPropertyOp29
 70
     1
102
RTVSPropertyOp30
 70
     1
102
RTVSPropertyOp31
 70
     1
102
RTVSPropertyOp32
 70
     1
102
RTVSPropertyOp33
 70
     1
102
RTVSPropertyOp34
 70
     1
102
RTVSPropertyOp35
 70
     1
102
RTVSPropertyOp36
 70
     1
102
RTVSPropertyOp37
 70
     1
102
RTVSPropertyOp38
 70
     1
102
RTVSPropertyOp39
 70
     1
102
RTVSPropertyOp40
 70
     1
102
RTVSPropertyOp41
 70
     1
102
RTVSPropertyOp42
 70
     1
102
RTVSPropertyOp43
 70
     1
102
RTVSPropertyOp44
 70
     1
102
RTVSPropertyOp45
 70
     1
102
RTVSPropertyOp46
 70
     1
102
RTVSPropertyOp47
 70
     1
102
RTVSPropertyOp48
 70
     1
102
RTVSPropertyOp49
 70
     1
102
RTVSPropertyOp50
 70
     1
102
RTVSPropertyOp51
 70
     0
102
RTVSPropertyOp52
 70
     0
102
RTVSPropertyOp53
 70
     1
102
RTVSPropertyOp54
 70
     1
102
RTVSPropertyOp55
 70
     1
102
RTVSPropertyOp56
 70
     1
102
RTVSPropertyOp57
 70
     1
102
RTVSPropertyOp58
 70
     1
102
RTVSPropertyOp59
 70
     1
102
RTVSPropertyOp60
 70
     1
102
RTVSPropertyOp61
 70
     1
102
RTVSPropertyOp62
 70
     1
  0
XRECORD
  5
364
102
{ACAD_REACTORS
330
363
102
}
330
363
100
AcDbXrecord
280
     1
102
RTVSPost2010Prop28
280
     0
102
RTVSPost2010PropOp28
 70
     1
102
RTVSPost2010Prop29
280
     1
102
RTVSPost2010PropOp29
 70
     1
102
RTVSPost2010Prop30
280
     1
102
RTVSPost2010PropOp30
 70
     1
102
RTVSPost2010Prop31
280
     0
102
RTVSPost2010PropOp31
 70
     1
102
RTVSPost2010Prop32
280
     0
102
RTVSPost2010PropOp32
 70
     1
102
RTVSPost2010Prop33
280
     0
102
RTVSPost2010PropOp33
 70
     1
102
RTVSPost2010Prop34
280
     0
102
RTVSPost2010PropOp34
 70
     1
102
RTVSPost2010Prop35
280
     0
102
RTVSPost2010PropOp35
 70
     1
102
RTVSPost2010Prop36
280
     0
102
RTVSPost2010PropOp36
 70
     1
102
RTVSPost2010Prop37
 90
       50
102
RTVSPost2010PropOp37
 70
     1
102
RTVSPost2010Prop38
140
0.0
102
RTVSPost2010PropOp38
 70
     1
102
RTVSPost2010Prop39
140
1.0
102
RTVSPost2010PropOp39
 70
     1
102
RTVSPost2010Prop40
 90
        0
102
RTVSPost2010PropOp40
 70
     1
102
RTVSPost2010Prop41ColorIndex
 90
       18
102
RTVSPost2010Prop41ColorRGB
 90
        0
102
RTVSPost2010PropOp41
 70
     1
102
RTVSPost2010Prop42
 90
       50
102
RTVSPost2010PropOp42
 70
     1
102
RTVSPost2010Prop43
 90
        3
102
RTVSPost2010PropOp43
 70
     1
102
RTVSPost2010Prop44ColorIndex
 90
        5
102
RTVSPost2010Prop44ColorRGB
 90
      255
102
RTVSPost2010PropOp44
 70
     1
102
RTVSPost2010Prop45
280
     0
102
RTVSPost2010PropOp45
 70
     1
102
RTVSPost2010Prop46
 90
       50
102
RTVSPost2010PropOp46
 70
     1
102
RTVSPost2010Prop47
 90
       50
102
RTVSPost2010PropOp47
 70
     1
102
RTVSPost2010Prop48
 90
       50
102
RTVSPost2010PropOp48
 70
     1
102
RTVSPost2010Prop49
280
     0
102
RTVSPost2010PropOp49
 70
     1
102
RTVSPost2010Prop50
 90
       50
102
RTVSPost2010PropOp50
 70
     1
102
RTVSPost2010Prop51ColorIndex
 90
      256
102
RTVSPost2010Prop51ColorRGB
 90
-16777216
102
RTVSPost2010PropOp51
 70
     0
102
RTVSPost2010Prop52
140
1.0
102
RTVSPost2010PropOp52
 70
     0
102
RTVSPost2010Prop53
 90
        2
102
RTVSPost2010PropOp53
 70
     1
102
RTVSPost2010Prop54
  1
strokes_ogs.tif
102
RTVSPost2010PropOp54
 70
     1
102
RTVSPost2010Prop55
280
     0
102
RTVSPost2010PropOp55
 70
     1
102
RTVSPost2010Prop56
140
1.0
102
RTVSPost2010PropOp56
 70
     1
102
RTVSPost2010Prop57
140
1.0
102
RTVSPost2010PropOp57
 70
     1
102
RTVSPropertyOp0
 70
     1
102
RTVSPropertyOp1
 70
     1
102
RTVSPropertyOp2
 70
     1
102
RTVSPropertyOp3
 70
     1
102
RTVSPropertyOp4
 70
     1
102
RTVSPropertyOp5
 70
     1
102
RTVSPropertyOp6
 70
     1
102
RTVSPropertyOp7
 70
     1
102
RTVSPropertyOp8
 70
     1
102
RTVSPropertyOp9
 70
     1
102
RTVSPropertyOp10
 70
     1
102
RTVSPropertyOp11
 70
     1
102
RTVSPropertyOp12
 70
     1
102
RTVSPropertyOp13
 70
     1
102
RTVSPropertyOp14
 70
     1
102
RTVSPropertyOp15
 70
     1
102
RTVSPropertyOp16
 70
     1
102
RTVSPropertyOp17
 70
     1
102
RTVSPropertyOp18
 70
     1
102
RTVSPropertyOp19
 70
     1
102
RTVSPropertyOp20
 70
     1
102
RTVSPropertyOp21
 70
     1
102
RTVSPropertyOp22
 70
     1
102
RTVSPropertyOp23
 70
     1
102
RTVSPropertyOp24
 70
     1
102
RTVSPropertyOp25
 70
     1
102
RTVSPropertyOp26
 70
     1
102
RTVSPropertyOp27
 70
     1
102
RTVSPropertyOp28
 70
     1
102
RTVSPropertyOp29
 70
     1
102
RTVSPropertyOp30
 70
     1
102
RTVSPropertyOp31
 70
     1
102
RTVSPropertyOp32
 70
     1
102
RTVSPropertyOp33
 70
     1
102
RTVSPropertyOp34
 70
     1
102
RTVSPropertyOp35
 70
     1
102
RTVSPropertyOp36
 70
     1
102
RTVSPropertyOp37
 70
     1
102
RTVSPropertyOp38
 70
     1
102
RTVSPropertyOp39
 70
     1
102
RTVSPropertyOp40
 70
     1
102
RTVSPropertyOp41
 70
     1
102
RTVSPropertyOp42
 70
     1
102
RTVSPropertyOp43
 70
     1
102
RTVSPropertyOp44
 70
     1
102
RTVSPropertyOp45
 70
     1
102
RTVSPropertyOp46
 70
     1
102
RTVSPropertyOp47
 70
     1
102
RTVSPropertyOp48
 70
     1
102
RTVSPropertyOp49
 70
     1
102
RTVSPropertyOp50
 70
     1
102
RTVSPropertyOp51
 70
     0
102
RTVSPropertyOp52
 70
     0
102
RTVSPropertyOp53
 70
     1
102
RTVSPropertyOp54
 70
     1
102
RTVSPropertyOp55
 70
     1
102
RTVSPropertyOp56
 70
     1
102
RTVSPropertyOp57
 70
     1
102
RTVSPropertyOp58
 70
     1
102
RTVSPropertyOp59
 70
     1
102
RTVSPropertyOp60
 70
     1
102
RTVSPropertyOp61
 70
     1
102
RTVSPropertyOp62
 70
     1
  0
XRECORD
  5
366
102
{ACAD_REACTORS
330
365
102
}
330
365
100
AcDbXrecord
280
     1
102
RTVSPost2010Prop28
280
     0
102
RTVSPost2010PropOp28
 70
     1
102
RTVSPost2010Prop29
280
     1
102
RTVSPost2010PropOp29
 70
     1
102
RTVSPost2010Prop30
280
     1
102
RTVSPost2010PropOp30
 70
     1
102
RTVSPost2010Prop31
280
     0
102
RTVSPost2010PropOp31
 70
     1
102
RTVSPost2010Prop32
280
     0
102
RTVSPost2010PropOp32
 70
     1
102
RTVSPost2010Prop33
280
     0
102
RTVSPost2010PropOp33
 70
     1
102
RTVSPost2010Prop34
280
     0
102
RTVSPost2010PropOp34
 70
     1
102
RTVSPost2010Prop35
280
     0
102
RTVSPost2010PropOp35
 70
     1
102
RTVSPost2010Prop36
280
     0
102
RTVSPost2010PropOp36
 70
     1
102
RTVSPost2010Prop37
 90
       50
102
RTVSPost2010PropOp37
 70
     1
102
RTVSPost2010Prop38
140
0.0
102
RTVSPost2010PropOp38
 70
     1
102
RTVSPost2010Prop39
140
1.0
102
RTVSPost2010PropOp39
 70
     1
102
RTVSPost2010Prop40
 90
        0
102
RTVSPost2010PropOp40
 70
     1
102
RTVSPost2010Prop41ColorIndex
 90
       18
102
RTVSPost2010Prop41ColorRGB
 90
        0
102
RTVSPost2010PropOp41
 70
     1
102
RTVSPost2010Prop42
 90
       50
102
RTVSPost2010PropOp42
 70
     1
102
RTVSPost2010Prop43
 90
        3
102
RTVSPost2010PropOp43
 70
     1
102
RTVSPost2010Prop44ColorIndex
 90
        5
102
RTVSPost2010Prop44ColorRGB
 90
      255
102
RTVSPost2010PropOp44
 70
     1
102
RTVSPost2010Prop45
280
     0
102
RTVSPost2010PropOp45
 70
     1
102
RTVSPost2010Prop46
 90
       50
102
RTVSPost2010PropOp46
 70
     1
102
RTVSPost2010Prop47
 90
       50
102
RTVSPost2010PropOp47
 70
     1
102
RTVSPost2010Prop48
 90
       50
102
RTVSPost2010PropOp48
 70
     1
102
RTVSPost2010Prop49
280
     0
102
RTVSPost2010PropOp49
 70
     1
102
RTVSPost2010Prop50
 90
       50
102
RTVSPost2010PropOp50
 70
     1
102
RTVSPost2010Prop51ColorIndex
 90
      256
102
RTVSPost2010Prop51ColorRGB
 90
-16777216
102
RTVSPost2010PropOp51
 70
     0
102
RTVSPost2010Prop52
140
1.0
102
RTVSPost2010PropOp52
 70
     0
102
RTVSPost2010Prop53
 90
        2
102
RTVSPost2010PropOp53
 70
     1
102
RTVSPost2010Prop54
  1
strokes_ogs.tif
102
RTVSPost2010PropOp54
 70
     1
102
RTVSPost2010Prop55
280
     0
102
RTVSPost2010PropOp55
 70
     1
102
RTVSPost2010Prop56
140
1.0
102
RTVSPost2010PropOp56
 70
     1
102
RTVSPost2010Prop57
140
1.0
102
RTVSPost2010PropOp57
 70
     1
102
RTVSPropertyOp0
 70
     1
102
RTVSPropertyOp1
 70
     1
102
RTVSPropertyOp2
 70
     1
102
RTVSPropertyOp3
 70
     1
102
RTVSPropertyOp4
 70
     1
102
RTVSPropertyOp5
 70
     1
102
RTVSPropertyOp6
 70
     1
102
RTVSPropertyOp7
 70
     1
102
RTVSPropertyOp8
 70
     1
102
RTVSPropertyOp9
 70
     1
102
RTVSPropertyOp10
 70
     1
102
RTVSPropertyOp11
 70
     1
102
RTVSPropertyOp12
 70
     1
102
RTVSPropertyOp13
 70
     1
102
RTVSPropertyOp14
 70
     1
102
RTVSPropertyOp15
 70
     1
102
RTVSPropertyOp16
 70
     1
102
RTVSPropertyOp17
 70
     1
102
RTVSPropertyOp18
 70
     1
102
RTVSPropertyOp19
 70
     1
102
RTVSPropertyOp20
 70
     1
102
RTVSPropertyOp21
 70
     1
102
RTVSPropertyOp22
 70
     1
102
RTVSPropertyOp23
 70
     1
102
RTVSPropertyOp24
 70
     1
102
RTVSPropertyOp25
 70
     1
102
RTVSPropertyOp26
 70
     1
102
RTVSPropertyOp27
 70
     1
102
RTVSPropertyOp28
 70
     1
102
RTVSPropertyOp29
 70
     1
102
RTVSPropertyOp30
 70
     1
102
RTVSPropertyOp31
 70
     1
102
RTVSPropertyOp32
 70
     1
102
RTVSPropertyOp33
 70
     1
102
RTVSPropertyOp34
 70
     1
102
RTVSPropertyOp35
 70
     1
102
RTVSPropertyOp36
 70
     1
102
RTVSPropertyOp37
 70
     1
102
RTVSPropertyOp38
 70
     1
102
RTVSPropertyOp39
 70
     1
102
RTVSPropertyOp40
 70
     1
102
RTVSPropertyOp41
 70
     1
102
RTVSPropertyOp42
 70
     1
102
RTVSPropertyOp43
 70
     1
102
RTVSPropertyOp44
 70
     1
102
RTVSPropertyOp45
 70
     1
102
RTVSPropertyOp46
 70
     1
102
RTVSPropertyOp47
 70
     1
102
RTVSPropertyOp48
 70
     1
102
RTVSPropertyOp49
 70
     1
102
RTVSPropertyOp50
 70
     1
102
RTVSPropertyOp51
 70
     0
102
RTVSPropertyOp52
 70
     0
102
RTVSPropertyOp53
 70
     1
102
RTVSPropertyOp54
 70
     1
102
RTVSPropertyOp55
 70
     1
102
RTVSPropertyOp56
 70
     1
102
RTVSPropertyOp57
 70
     1
102
RTVSPropertyOp58
 70
     1
102
RTVSPropertyOp59
 70
     1
102
RTVSPropertyOp60
 70
     1
102
RTVSPropertyOp61
 70
     1
102
RTVSPropertyOp62
 70
     1
  0
XRECORD
  5
376
102
{ACAD_REACTORS
330
375
102
}
330
375
100
AcDbXrecord
280
     1
102
RTVSPost2010Prop28
280
     0
102
RTVSPost2010PropOp28
 70
     0
102
RTVSPost2010Prop29
280
     1
102
RTVSPost2010PropOp29
 70
     0
102
RTVSPost2010Prop30
280
     1
102
RTVSPost2010PropOp30
 70
     0
102
RTVSPost2010Prop31
280
     0
102
RTVSPost2010PropOp31
 70
     0
102
RTVSPost2010Prop32
280
     0
102
RTVSPost2010PropOp32
 70
     0
102
RTVSPost2010Prop33
280
     0
102
RTVSPost2010PropOp33
 70
     0
102
RTVSPost2010Prop34
280
     0
102
RTVSPost2010PropOp34
 70
     0
102
RTVSPost2010Prop35
280
     0
102
RTVSPost2010PropOp35
 70
     0
102
RTVSPost2010Prop36
280
     0
102
RTVSPost2010PropOp36
 70
     0
102
RTVSPost2010Prop37
 90
       50
102
RTVSPost2010PropOp37
 70
     0
102
RTVSPost2010Prop38
140
0.0
102
RTVSPost2010PropOp38
 70
     0
102
RTVSPost2010Prop39
140
1.0
102
RTVSPost2010PropOp39
 70
     0
102
RTVSPost2010Prop40
 90
        0
102
RTVSPost2010PropOp40
 70
     0
102
RTVSPost2010Prop41ColorIndex
 90
       18
102
RTVSPost2010Prop41ColorRGB
 90
        0
102
RTVSPost2010PropOp41
 70
     0
102
RTVSPost2010Prop42
 90
       50
102
RTVSPost2010PropOp42
 70
     0
102
RTVSPost2010Prop43
 90
        3
102
RTVSPost2010PropOp43
 70
     0
102
RTVSPost2010Prop44ColorIndex
 90
        5
102
RTVSPost2010Prop44ColorRGB
 90
      255
102
RTVSPost2010PropOp44
 70
     0
102
RTVSPost2010Prop45
280
     0
102
RTVSPost2010PropOp45
 70
     0
102
RTVSPost2010Prop46
 90
       50
102
RTVSPost2010PropOp46
 70
     0
102
RTVSPost2010Prop47
 90
       50
102
RTVSPost2010PropOp47
 70
     0
102
RTVSPost2010Prop48
 90
       50
102
RTVSPost2010PropOp48
 70
     0
102
RTVSPost2010Prop49
280
     0
102
RTVSPost2010PropOp49
 70
     0
102
RTVSPost2010Prop50
 90
       50
102
RTVSPost2010PropOp50
 70
     0
102
RTVSPost2010Prop51ColorIndex
 90
      256
102
RTVSPost2010Prop51ColorRGB
 90
-16777216
102
RTVSPost2010PropOp51
 70
     0
102
RTVSPost2010Prop52
140
1.0
102
RTVSPost2010PropOp52
 70
     0
102
RTVSPost2010Prop53
 90
        2
102
RTVSPost2010PropOp53
 70
     0
102
RTVSPost2010Prop54
  1
strokes_ogs.tif
102
RTVSPost2010PropOp54
 70
     0
102
RTVSPost2010Prop55
280
     0
102
RTVSPost2010PropOp55
 70
     0
102
RTVSPost2010Prop56
140
1.0
102
RTVSPost2010PropOp56
 70
     0
102
RTVSPost2010Prop57
140
1.0
102
RTVSPost2010PropOp57
 70
     0
102
RTVSPropertyOp0
 70
     0
102
RTVSPropertyOp1
 70
     0
102
RTVSPropertyOp2
 70
     0
102
RTVSPropertyOp3
 70
     0
102
RTVSPropertyOp4
 70
     0
102
RTVSPropertyOp5
 70
     0
102
RTVSPropertyOp6
 70
     0
102
RTVSPropertyOp7
 70
     0
102
RTVSPropertyOp8
 70
     0
102
RTVSPropertyOp9
 70
     0
102
RTVSPropertyOp10
 70
     0
102
RTVSPropertyOp11
 70
     0
102
RTVSPropertyOp12
 70
     0
102
RTVSPropertyOp13
 70
     0
102
RTVSPropertyOp14
 70
     2
102
RTVSPropertyOp15
 70
     0
102
RTVSPropertyOp16
 70
     0
102
RTVSPropertyOp17
 70
     0
102
RTVSPropertyOp18
 70
     0
102
RTVSPropertyOp19
 70
     0
102
RTVSPropertyOp20
 70
     0
102
RTVSPropertyOp21
 70
     0
102
RTVSPropertyOp22
 70
     0
102
RTVSPropertyOp23
 70
     0
102
RTVSPropertyOp24
 70
     0
102
RTVSPropertyOp25
 70
     0
102
RTVSPropertyOp26
 70
     0
102
RTVSPropertyOp27
 70
     0
102
RTVSPropertyOp28
 70
     0
102
RTVSPropertyOp29
 70
     0
102
RTVSPropertyOp30
 70
     0
102
RTVSPropertyOp31
 70
     0
102
RTVSPropertyOp32
 70
     0
102
RTVSPropertyOp33
 70
     0
102
RTVSPropertyOp34
 70
     0
102
RTVSPropertyOp35
 70
     0
102
RTVSPropertyOp36
 70
     0
102
RTVSPropertyOp37
 70
     0
102
RTVSPropertyOp38
 70
     0
102
RTVSPropertyOp39
 70
     0
102
RTVSPropertyOp40
 70
     0
102
RTVSPropertyOp41
 70
     0
102
RTVSPropertyOp42
 70
     0
102
RTVSPropertyOp43
 70
     0
102
RTVSPropertyOp44
 70
     0
102
RTVSPropertyOp45
 70
     0
102
RTVSPropertyOp46
 70
     0
102
RTVSPropertyOp47
 70
     0
102
RTVSPropertyOp48
 70
     0
102
RTVSPropertyOp49
 70
     0
102
RTVSPropertyOp50
 70
     0
102
RTVSPropertyOp51
 70
     0
102
RTVSPropertyOp52
 70
     0
102
RTVSPropertyOp53
 70
     0
102
RTVSPropertyOp54
 70
     0
102
RTVSPropertyOp55
 70
     0
102
RTVSPropertyOp56
 70
     0
102
RTVSPropertyOp57
 70
     0
102
RTVSPropertyOp58
 70
     1
102
RTVSPropertyOp59
 70
     1
102
RTVSPropertyOp60
 70
     1
102
RTVSPropertyOp61
 70
     1
102
RTVSPropertyOp62
 70
     1
  0
XRECORD
  5
36E
102
{ACAD_REACTORS
330
36D
102
}
330
36D
100
AcDbXrecord
280
     1
102
RTVSPost2010Prop28
280
     0
102
RTVSPost2010PropOp28
 70
     1
102
RTVSPost2010Prop29
280
     1
102
RTVSPost2010PropOp29
 70
     1
102
RTVSPost2010Prop30
280
     1
102
RTVSPost2010PropOp30
 70
     1
102
RTVSPost2010Prop31
280
     0
102
RTVSPost2010PropOp31
 70
     1
102
RTVSPost2010Prop32
280
     0
102
RTVSPost2010PropOp32
 70
     1
102
RTVSPost2010Prop33
280
     0
102
RTVSPost2010PropOp33
 70
     1
102
RTVSPost2010Prop34
280
     0
102
RTVSPost2010PropOp34
 70
     1
102
RTVSPost2010Prop35
280
     0
102
RTVSPost2010PropOp35
 70
     1
102
RTVSPost2010Prop36
280
     0
102
RTVSPost2010PropOp36
 70
     1
102
RTVSPost2010Prop37
 90
       50
102
RTVSPost2010PropOp37
 70
     1
102
RTVSPost2010Prop38
140
0.0
102
RTVSPost2010PropOp38
 70
     1
102
RTVSPost2010Prop39
140
1.0
102
RTVSPost2010PropOp39
 70
     1
102
RTVSPost2010Prop40
 90
        0
102
RTVSPost2010PropOp40
 70
     1
102
RTVSPost2010Prop41ColorIndex
 90
       18
102
RTVSPost2010Prop41ColorRGB
 90
        0
102
RTVSPost2010PropOp41
 70
     1
102
RTVSPost2010Prop42
 90
       50
102
RTVSPost2010PropOp42
 70
     1
102
RTVSPost2010Prop43
 90
        3
102
RTVSPost2010PropOp43
 70
     1
102
RTVSPost2010Prop44ColorIndex
 90
        5
102
RTVSPost2010Prop44ColorRGB
 90
      255
102
RTVSPost2010PropOp44
 70
     1
102
RTVSPost2010Prop45
280
     0
102
RTVSPost2010PropOp45
 70
     1
102
RTVSPost2010Prop46
 90
       50
102
RTVSPost2010PropOp46
 70
     1
102
RTVSPost2010Prop47
 90
       50
102
RTVSPost2010PropOp47
 70
     1
102
RTVSPost2010Prop48
 90
       50
102
RTVSPost2010PropOp48
 70
     1
102
RTVSPost2010Prop49
280
     0
102
RTVSPost2010PropOp49
 70
     1
102
RTVSPost2010Prop50
 90
       50
102
RTVSPost2010PropOp50
 70
     1
102
RTVSPost2010Prop51ColorIndex
 90
      256
102
RTVSPost2010Prop51ColorRGB
 90
-16777216
102
RTVSPost2010PropOp51
 70
     0
102
RTVSPost2010Prop52
140
1.0
102
RTVSPost2010PropOp52
 70
     0
102
RTVSPost2010Prop53
 90
        2
102
RTVSPost2010PropOp53
 70
     1
102
RTVSPost2010Prop54
  1
strokes_ogs.tif
102
RTVSPost2010PropOp54
 70
     1
102
RTVSPost2010Prop55
280
     0
102
RTVSPost2010PropOp55
 70
     1
102
RTVSPost2010Prop56
140
1.0
102
RTVSPost2010PropOp56
 70
     1
102
RTVSPost2010Prop57
140
1.0
102
RTVSPost2010PropOp57
 70
     1
102
RTVSPropertyOp0
 70
     1
102
RTVSPropertyOp1
 70
     1
102
RTVSPropertyOp2
 70
     1
102
RTVSPropertyOp3
 70
     1
102
RTVSPropertyOp4
 70
     1
102
RTVSPropertyOp5
 70
     1
102
RTVSPropertyOp6
 70
     1
102
RTVSPropertyOp7
 70
     1
102
RTVSPropertyOp8
 70
     1
102
RTVSPropertyOp9
 70
     1
102
RTVSPropertyOp10
 70
     1
102
RTVSPropertyOp11
 70
     1
102
RTVSPropertyOp12
 70
     1
102
RTVSPropertyOp13
 70
     1
102
RTVSPropertyOp14
 70
     1
102
RTVSPropertyOp15
 70
     1
102
RTVSPropertyOp16
 70
     1
102
RTVSPropertyOp17
 70
     1
102
RTVSPropertyOp18
 70
     1
102
RTVSPropertyOp19
 70
     1
102
RTVSPropertyOp20
 70
     1
102
RTVSPropertyOp21
 70
     1
102
RTVSPropertyOp22
 70
     1
102
RTVSPropertyOp23
 70
     1
102
RTVSPropertyOp24
 70
     1
102
RTVSPropertyOp25
 70
     1
102
RTVSPropertyOp26
 70
     1
102
RTVSPropertyOp27
 70
     1
102
RTVSPropertyOp28
 70
     1
102
RTVSPropertyOp29
 70
     1
102
RTVSPropertyOp30
 70
     1
102
RTVSPropertyOp31
 70
     1
102
RTVSPropertyOp32
 70
     1
102
RTVSPropertyOp33
 70
     1
102
RTVSPropertyOp34
 70
     1
102
RTVSPropertyOp35
 70
     1
102
RTVSPropertyOp36
 70
     1
102
RTVSPropertyOp37
 70
     1
102
RTVSPropertyOp38
 70
     1
102
RTVSPropertyOp39
 70
     1
102
RTVSPropertyOp40
 70
     1
102
RTVSPropertyOp41
 70
     1
102
RTVSPropertyOp42
 70
     1
102
RTVSPropertyOp43
 70
     1
102
RTVSPropertyOp44
 70
     1
102
RTVSPropertyOp45
 70
     1
102
RTVSPropertyOp46
 70
     1
102
RTVSPropertyOp47
 70
     1
102
RTVSPropertyOp48
 70
     1
102
RTVSPropertyOp49
 70
     1
102
RTVSPropertyOp50
 70
     1
102
RTVSPropertyOp51
 70
     0
102
RTVSPropertyOp52
 70
     0
102
RTVSPropertyOp53
 70
     1
102
RTVSPropertyOp54
 70
     1
102
RTVSPropertyOp55
 70
     1
102
RTVSPropertyOp56
 70
     1
102
RTVSPropertyOp57
 70
     1
102
RTVSPropertyOp58
 70
     1
102
RTVSPropertyOp59
 70
     1
102
RTVSPropertyOp60
 70
     1
102
RTVSPropertyOp61
 70
     1
102
RTVSPropertyOp62
 70
     1
  0
XRECORD
  5
352
102
{ACAD_REACTORS
330
351
102
}
330
351
100
AcDbXrecord
280
     1
102
RTVSPost2010Prop28
280
     0
102
RTVSPost2010PropOp28
 70
     1
102
RTVSPost2010Prop29
280
     1
102
RTVSPost2010PropOp29
 70
     1
102
RTVSPost2010Prop30
280
     1
102
RTVSPost2010PropOp30
 70
     1
102
RTVSPost2010Prop31
280
     0
102
RTVSPost2010PropOp31
 70
     1
102
RTVSPost2010Prop32
280
     0
102
RTVSPost2010PropOp32
 70
     1
102
RTVSPost2010Prop33
280
     0
102
RTVSPost2010PropOp33
 70
     1
102
RTVSPost2010Prop34
280
     0
102
RTVSPost2010PropOp34
 70
     1
102
RTVSPost2010Prop35
280
     0
102
RTVSPost2010PropOp35
 70
     1
102
RTVSPost2010Prop36
280
     0
102
RTVSPost2010PropOp36
 70
     1
102
RTVSPost2010Prop37
 90
       50
102
RTVSPost2010PropOp37
 70
     1
102
RTVSPost2010Prop38
140
0.0
102
RTVSPost2010PropOp38
 70
     1
102
RTVSPost2010Prop39
140
1.0
102
RTVSPost2010PropOp39
 70
     1
102
RTVSPost2010Prop40
 90
        0
102
RTVSPost2010PropOp40
 70
     1
102
RTVSPost2010Prop41ColorIndex
 90
       18
102
RTVSPost2010Prop41ColorRGB
 90
        0
102
RTVSPost2010PropOp41
 70
     1
102
RTVSPost2010Prop42
 90
       50
102
RTVSPost2010PropOp42
 70
     1
102
RTVSPost2010Prop43
 90
        3
102
RTVSPost2010PropOp43
 70
     1
102
RTVSPost2010Prop44ColorIndex
 90
        5
102
RTVSPost2010Prop44ColorRGB
 90
      255
102
RTVSPost2010PropOp44
 70
     1
102
RTVSPost2010Prop45
280
     0
102
RTVSPost2010PropOp45
 70
     1
102
RTVSPost2010Prop46
 90
       50
102
RTVSPost2010PropOp46
 70
     1
102
RTVSPost2010Prop47
 90
       50
102
RTVSPost2010PropOp47
 70
     1
102
RTVSPost2010Prop48
 90
       50
102
RTVSPost2010PropOp48
 70
     1
102
RTVSPost2010Prop49
280
     0
102
RTVSPost2010PropOp49
 70
     1
102
RTVSPost2010Prop50
 90
       50
102
RTVSPost2010PropOp50
 70
     1
102
RTVSPost2010Prop51ColorIndex
 90
      256
102
RTVSPost2010Prop51ColorRGB
 90
-16777216
102
RTVSPost2010PropOp51
 70
     0
102
RTVSPost2010Prop52
140
1.0
102
RTVSPost2010PropOp52
 70
     0
102
RTVSPost2010Prop53
 90
        2
102
RTVSPost2010PropOp53
 70
     1
102
RTVSPost2010Prop54
  1
strokes_ogs.tif
102
RTVSPost2010PropOp54
 70
     1
102
RTVSPost2010Prop55
280
     0
102
RTVSPost2010PropOp55
 70
     1
102
RTVSPost2010Prop56
140
1.0
102
RTVSPost2010PropOp56
 70
     1
102
RTVSPost2010Prop57
140
1.0
102
RTVSPost2010PropOp57
 70
     1
102
RTVSPropertyOp0
 70
     1
102
RTVSPropertyOp1
 70
     1
102
RTVSPropertyOp2
 70
     1
102
RTVSPropertyOp3
 70
     1
102
RTVSPropertyOp4
 70
     1
102
RTVSPropertyOp5
 70
     1
102
RTVSPropertyOp6
 70
     1
102
RTVSPropertyOp7
 70
     1
102
RTVSPropertyOp8
 70
     1
102
RTVSPropertyOp9
 70
     1
102
RTVSPropertyOp10
 70
     1
102
RTVSPropertyOp11
 70
     1
102
RTVSPropertyOp12
 70
     1
102
RTVSPropertyOp13
 70
     1
102
RTVSPropertyOp14
 70
     1
102
RTVSPropertyOp15
 70
     1
102
RTVSPropertyOp16
 70
     1
102
RTVSPropertyOp17
 70
     1
102
RTVSPropertyOp18
 70
     1
102
RTVSPropertyOp19
 70
     1
102
RTVSPropertyOp20
 70
     1
102
RTVSPropertyOp21
 70
     1
102
RTVSPropertyOp22
 70
     1
102
RTVSPropertyOp23
 70
     1
102
RTVSPropertyOp24
 70
     1
102
RTVSPropertyOp25
 70
     1
102
RTVSPropertyOp26
 70
     1
102
RTVSPropertyOp27
 70
     1
102
RTVSPropertyOp28
 70
     1
102
RTVSPropertyOp29
 70
     1
102
RTVSPropertyOp30
 70
     1
102
RTVSPropertyOp31
 70
     1
102
RTVSPropertyOp32
 70
     1
102
RTVSPropertyOp33
 70
     1
102
RTVSPropertyOp34
 70
     1
102
RTVSPropertyOp35
 70
     1
102
RTVSPropertyOp36
 70
     1
102
RTVSPropertyOp37
 70
     1
102
RTVSPropertyOp38
 70
     1
102
RTVSPropertyOp39
 70
     1
102
RTVSPropertyOp40
 70
     1
102
RTVSPropertyOp41
 70
     1
102
RTVSPropertyOp42
 70
     1
102
RTVSPropertyOp43
 70
     1
102
RTVSPropertyOp44
 70
     1
102
RTVSPropertyOp45
 70
     1
102
RTVSPropertyOp46
 70
     1
102
RTVSPropertyOp47
 70
     1
102
RTVSPropertyOp48
 70
     1
102
RTVSPropertyOp49
 70
     1
102
RTVSPropertyOp50
 70
     1
102
RTVSPropertyOp51
 70
     0
102
RTVSPropertyOp52
 70
     0
102
RTVSPropertyOp53
 70
     1
102
RTVSPropertyOp54
 70
     1
102
RTVSPropertyOp55
 70
     1
102
RTVSPropertyOp56
 70
     1
102
RTVSPropertyOp57
 70
     1
102
RTVSPropertyOp58
 70
     1
102
RTVSPropertyOp59
 70
     1
102
RTVSPropertyOp60
 70
     1
102
RTVSPropertyOp61
 70
     1
102
RTVSPropertyOp62
 70
     1
  0
XRECORD
  5
354
102
{ACAD_REACTORS
330
353
102
}
330
353
100
AcDbXrecord
280
     1
102
RTVSPost2010Prop28
280
     0
102
RTVSPost2010PropOp28
 70
     1
102
RTVSPost2010Prop29
280
     1
102
RTVSPost2010PropOp29
 70
     1
102
RTVSPost2010Prop30
280
     1
102
RTVSPost2010PropOp30
 70
     1
102
RTVSPost2010Prop31
280
     0
102
RTVSPost2010PropOp31
 70
     1
102
RTVSPost2010Prop32
280
     0
102
RTVSPost2010PropOp32
 70
     1
102
RTVSPost2010Prop33
280
     0
102
RTVSPost2010PropOp33
 70
     1
102
RTVSPost2010Prop34
280
     0
102
RTVSPost2010PropOp34
 70
     1
102
RTVSPost2010Prop35
280
     0
102
RTVSPost2010PropOp35
 70
     1
102
RTVSPost2010Prop36
280
     0
102
RTVSPost2010PropOp36
 70
     1
102
RTVSPost2010Prop37
 90
       50
102
RTVSPost2010PropOp37
 70
     1
102
RTVSPost2010Prop38
140
0.0
102
RTVSPost2010PropOp38
 70
     1
102
RTVSPost2010Prop39
140
1.0
102
RTVSPost2010PropOp39
 70
     1
102
RTVSPost2010Prop40
 90
        0
102
RTVSPost2010PropOp40
 70
     1
102
RTVSPost2010Prop41ColorIndex
 90
       18
102
RTVSPost2010Prop41ColorRGB
 90
        0
102
RTVSPost2010PropOp41
 70
     1
102
RTVSPost2010Prop42
 90
       50
102
RTVSPost2010PropOp42
 70
     1
102
RTVSPost2010Prop43
 90
        3
102
RTVSPost2010PropOp43
 70
     1
102
RTVSPost2010Prop44ColorIndex
 90
        5
102
RTVSPost2010Prop44ColorRGB
 90
      255
102
RTVSPost2010PropOp44
 70
     1
102
RTVSPost2010Prop45
280
     0
102
RTVSPost2010PropOp45
 70
     1
102
RTVSPost2010Prop46
 90
       50
102
RTVSPost2010PropOp46
 70
     1
102
RTVSPost2010Prop47
 90
       50
102
RTVSPost2010PropOp47
 70
     1
102
RTVSPost2010Prop48
 90
       50
102
RTVSPost2010PropOp48
 70
     1
102
RTVSPost2010Prop49
280
     0
102
RTVSPost2010PropOp49
 70
     1
102
RTVSPost2010Prop50
 90
       50
102
RTVSPost2010PropOp50
 70
     1
102
RTVSPost2010Prop51ColorIndex
 90
      256
102
RTVSPost2010Prop51ColorRGB
 90
-16777216
102
RTVSPost2010PropOp51
 70
     0
102
RTVSPost2010Prop52
140
1.0
102
RTVSPost2010PropOp52
 70
     0
102
RTVSPost2010Prop53
 90
        2
102
RTVSPost2010PropOp53
 70
     1
102
RTVSPost2010Prop54
  1
strokes_ogs.tif
102
RTVSPost2010PropOp54
 70
     1
102
RTVSPost2010Prop55
280
     0
102
RTVSPost2010PropOp55
 70
     1
102
RTVSPost2010Prop56
140
1.0
102
RTVSPost2010PropOp56
 70
     1
102
RTVSPost2010Prop57
140
1.0
102
RTVSPost2010PropOp57
 70
     1
102
RTVSPropertyOp0
 70
     1
102
RTVSPropertyOp1
 70
     1
102
RTVSPropertyOp2
 70
     1
102
RTVSPropertyOp3
 70
     1
102
RTVSPropertyOp4
 70
     1
102
RTVSPropertyOp5
 70
     1
102
RTVSPropertyOp6
 70
     1
102
RTVSPropertyOp7
 70
     1
102
RTVSPropertyOp8
 70
     1
102
RTVSPropertyOp9
 70
     1
102
RTVSPropertyOp10
 70
     1
102
RTVSPropertyOp11
 70
     1
102
RTVSPropertyOp12
 70
     1
102
RTVSPropertyOp13
 70
     1
102
RTVSPropertyOp14
 70
     1
102
RTVSPropertyOp15
 70
     1
102
RTVSPropertyOp16
 70
     1
102
RTVSPropertyOp17
 70
     1
102
RTVSPropertyOp18
 70
     1
102
RTVSPropertyOp19
 70
     1
102
RTVSPropertyOp20
 70
     1
102
RTVSPropertyOp21
 70
     1
102
RTVSPropertyOp22
 70
     1
102
RTVSPropertyOp23
 70
     1
102
RTVSPropertyOp24
 70
     1
102
RTVSPropertyOp25
 70
     1
102
RTVSPropertyOp26
 70
     1
102
RTVSPropertyOp27
 70
     1
102
RTVSPropertyOp28
 70
     1
102
RTVSPropertyOp29
 70
     1
102
RTVSPropertyOp30
 70
     1
102
RTVSPropertyOp31
 70
     1
102
RTVSPropertyOp32
 70
     1
102
RTVSPropertyOp33
 70
     1
102
RTVSPropertyOp34
 70
     1
102
RTVSPropertyOp35
 70
     1
102
RTVSPropertyOp36
 70
     1
102
RTVSPropertyOp37
 70
     1
102
RTVSPropertyOp38
 70
     1
102
RTVSPropertyOp39
 70
     1
102
RTVSPropertyOp40
 70
     1
102
RTVSPropertyOp41
 70
     1
102
RTVSPropertyOp42
 70
     1
102
RTVSPropertyOp43
 70
     1
102
RTVSPropertyOp44
 70
     1
102
RTVSPropertyOp45
 70
     1
102
RTVSPropertyOp46
 70
     1
102
RTVSPropertyOp47
 70
     1
102
RTVSPropertyOp48
 70
     1
102
RTVSPropertyOp49
 70
     1
102
RTVSPropertyOp50
 70
     1
102
RTVSPropertyOp51
 70
     0
102
RTVSPropertyOp52
 70
     0
102
RTVSPropertyOp53
 70
     1
102
RTVSPropertyOp54
 70
     1
102
RTVSPropertyOp55
 70
     1
102
RTVSPropertyOp56
 70
     1
102
RTVSPropertyOp57
 70
     1
102
RTVSPropertyOp58
 70
     1
102
RTVSPropertyOp59
 70
     1
102
RTVSPropertyOp60
 70
     1
102
RTVSPropertyOp61
 70
     1
102
RTVSPropertyOp62
 70
     1
  0
XRECORD
  5
356
102
{ACAD_REACTORS
330
355
102
}
330
355
100
AcDbXrecord
280
     1
102
RTVSPost2010Prop28
280
     0
102
RTVSPost2010PropOp28
 70
     1
102
RTVSPost2010Prop29
280
     1
102
RTVSPost2010PropOp29
 70
     1
102
RTVSPost2010Prop30
280
     1
102
RTVSPost2010PropOp30
 70
     1
102
RTVSPost2010Prop31
280
     0
102
RTVSPost2010PropOp31
 70
     1
102
RTVSPost2010Prop32
280
     0
102
RTVSPost2010PropOp32
 70
     1
102
RTVSPost2010Prop33
280
     0
102
RTVSPost2010PropOp33
 70
     1
102
RTVSPost2010Prop34
280
     0
102
RTVSPost2010PropOp34
 70
     1
102
RTVSPost2010Prop35
280
     0
102
RTVSPost2010PropOp35
 70
     1
102
RTVSPost2010Prop36
280
     0
102
RTVSPost2010PropOp36
 70
     1
102
RTVSPost2010Prop37
 90
       50
102
RTVSPost2010PropOp37
 70
     1
102
RTVSPost2010Prop38
140
0.0
102
RTVSPost2010PropOp38
 70
     1
102
RTVSPost2010Prop39
140
1.0
102
RTVSPost2010PropOp39
 70
     1
102
RTVSPost2010Prop40
 90
        0
102
RTVSPost2010PropOp40
 70
     1
102
RTVSPost2010Prop41ColorIndex
 90
       18
102
RTVSPost2010Prop41ColorRGB
 90
        0
102
RTVSPost2010PropOp41
 70
     1
102
RTVSPost2010Prop42
 90
       50
102
RTVSPost2010PropOp42
 70
     1
102
RTVSPost2010Prop43
 90
        3
102
RTVSPost2010PropOp43
 70
     1
102
RTVSPost2010Prop44ColorIndex
 90
        5
102
RTVSPost2010Prop44ColorRGB
 90
      255
102
RTVSPost2010PropOp44
 70
     1
102
RTVSPost2010Prop45
280
     0
102
RTVSPost2010PropOp45
 70
     1
102
RTVSPost2010Prop46
 90
       50
102
RTVSPost2010PropOp46
 70
     1
102
RTVSPost2010Prop47
 90
       50
102
RTVSPost2010PropOp47
 70
     1
102
RTVSPost2010Prop48
 90
       50
102
RTVSPost2010PropOp48
 70
     1
102
RTVSPost2010Prop49
280
     0
102
RTVSPost2010PropOp49
 70
     1
102
RTVSPost2010Prop50
 90
       50
102
RTVSPost2010PropOp50
 70
     1
102
RTVSPost2010Prop51ColorIndex
 90
      256
102
RTVSPost2010Prop51ColorRGB
 90
-16777216
102
RTVSPost2010PropOp51
 70
     0
102
RTVSPost2010Prop52
140
1.0
102
RTVSPost2010PropOp52
 70
     0
102
RTVSPost2010Prop53
 90
        2
102
RTVSPost2010PropOp53
 70
     1
102
RTVSPost2010Prop54
  1
strokes_ogs.tif
102
RTVSPost2010PropOp54
 70
     1
102
RTVSPost2010Prop55
280
     0
102
RTVSPost2010PropOp55
 70
     1
102
RTVSPost2010Prop56
140
1.0
102
RTVSPost2010PropOp56
 70
     1
102
RTVSPost2010Prop57
140
1.0
102
RTVSPost2010PropOp57
 70
     1
102
RTVSPropertyOp0
 70
     1
102
RTVSPropertyOp1
 70
     1
102
RTVSPropertyOp2
 70
     1
102
RTVSPropertyOp3
 70
     1
102
RTVSPropertyOp4
 70
     1
102
RTVSPropertyOp5
 70
     1
102
RTVSPropertyOp6
 70
     1
102
RTVSPropertyOp7
 70
     1
102
RTVSPropertyOp8
 70
     1
102
RTVSPropertyOp9
 70
     1
102
RTVSPropertyOp10
 70
     1
102
RTVSPropertyOp11
 70
     1
102
RTVSPropertyOp12
 70
     1
102
RTVSPropertyOp13
 70
     1
102
RTVSPropertyOp14
 70
     1
102
RTVSPropertyOp15
 70
     1
102
RTVSPropertyOp16
 70
     1
102
RTVSPropertyOp17
 70
     1
102
RTVSPropertyOp18
 70
     1
102
RTVSPropertyOp19
 70
     1
102
RTVSPropertyOp20
 70
     1
102
RTVSPropertyOp21
 70
     1
102
RTVSPropertyOp22
 70
     1
102
RTVSPropertyOp23
 70
     1
102
RTVSPropertyOp24
 70
     1
102
RTVSPropertyOp25
 70
     1
102
RTVSPropertyOp26
 70
     1
102
RTVSPropertyOp27
 70
     1
102
RTVSPropertyOp28
 70
     1
102
RTVSPropertyOp29
 70
     1
102
RTVSPropertyOp30
 70
     1
102
RTVSPropertyOp31
 70
     1
102
RTVSPropertyOp32
 70
     1
102
RTVSPropertyOp33
 70
     1
102
RTVSPropertyOp34
 70
     1
102
RTVSPropertyOp35
 70
     1
102
RTVSPropertyOp36
 70
     1
102
RTVSPropertyOp37
 70
     1
102
RTVSPropertyOp38
 70
     1
102
RTVSPropertyOp39
 70
     1
102
RTVSPropertyOp40
 70
     1
102
RTVSPropertyOp41
 70
     1
102
RTVSPropertyOp42
 70
     1
102
RTVSPropertyOp43
 70
     1
102
RTVSPropertyOp44
 70
     1
102
RTVSPropertyOp45
 70
     1
102
RTVSPropertyOp46
 70
     1
102
RTVSPropertyOp47
 70
     1
102
RTVSPropertyOp48
 70
     1
102
RTVSPropertyOp49
 70
     1
102
RTVSPropertyOp50
 70
     1
102
RTVSPropertyOp51
 70
     0
102
RTVSPropertyOp52
 70
     0
102
RTVSPropertyOp53
 70
     1
102
RTVSPropertyOp54
 70
     1
102
RTVSPropertyOp55
 70
     1
102
RTVSPropertyOp56
 70
     1
102
RTVSPropertyOp57
 70
     1
102
RTVSPropertyOp58
 70
     1
102
RTVSPropertyOp59
 70
     1
102
RTVSPropertyOp60
 70
     1
102
RTVSPropertyOp61
 70
     1
102
RTVSPropertyOp62
 70
     1
  0
XRECORD
  5
358
102
{ACAD_REACTORS
330
357
102
}
330
357
100
AcDbXrecord
280
     1
102
RTVSPost2010Prop28
280
     0
102
RTVSPost2010PropOp28
 70
     1
102
RTVSPost2010Prop29
280
     1
102
RTVSPost2010PropOp29
 70
     1
102
RTVSPost2010Prop30
280
     1
102
RTVSPost2010PropOp30
 70
     1
102
RTVSPost2010Prop31
280
     0
102
RTVSPost2010PropOp31
 70
     1
102
RTVSPost2010Prop32
280
     0
102
RTVSPost2010PropOp32
 70
     1
102
RTVSPost2010Prop33
280
     0
102
RTVSPost2010PropOp33
 70
     1
102
RTVSPost2010Prop34
280
     0
102
RTVSPost2010PropOp34
 70
     1
102
RTVSPost2010Prop35
280
     0
102
RTVSPost2010PropOp35
 70
     1
102
RTVSPost2010Prop36
280
     0
102
RTVSPost2010PropOp36
 70
     1
102
RTVSPost2010Prop37
 90
       50
102
RTVSPost2010PropOp37
 70
     1
102
RTVSPost2010Prop38
140
0.0
102
RTVSPost2010PropOp38
 70
     1
102
RTVSPost2010Prop39
140
1.0
102
RTVSPost2010PropOp39
 70
     1
102
RTVSPost2010Prop40
 90
        0
102
RTVSPost2010PropOp40
 70
     1
102
RTVSPost2010Prop41ColorIndex
 90
       18
102
RTVSPost2010Prop41ColorRGB
 90
        0
102
RTVSPost2010PropOp41
 70
     1
102
RTVSPost2010Prop42
 90
       50
102
RTVSPost2010PropOp42
 70
     1
102
RTVSPost2010Prop43
 90
        3
102
RTVSPost2010PropOp43
 70
     1
102
RTVSPost2010Prop44ColorIndex
 90
        5
102
RTVSPost2010Prop44ColorRGB
 90
      255
102
RTVSPost2010PropOp44
 70
     1
102
RTVSPost2010Prop45
280
     0
102
RTVSPost2010PropOp45
 70
     1
102
RTVSPost2010Prop46
 90
       50
102
RTVSPost2010PropOp46
 70
     1
102
RTVSPost2010Prop47
 90
       50
102
RTVSPost2010PropOp47
 70
     1
102
RTVSPost2010Prop48
 90
       50
102
RTVSPost2010PropOp48
 70
     1
102
RTVSPost2010Prop49
280
     0
102
RTVSPost2010PropOp49
 70
     1
102
RTVSPost2010Prop50
 90
       50
102
RTVSPost2010PropOp50
 70
     1
102
RTVSPost2010Prop51ColorIndex
 90
      256
102
RTVSPost2010Prop51ColorRGB
 90
-16777216
102
RTVSPost2010PropOp51
 70
     0
102
RTVSPost2010Prop52
140
1.0
102
RTVSPost2010PropOp52
 70
     0
102
RTVSPost2010Prop53
 90
        2
102
RTVSPost2010PropOp53
 70
     1
102
RTVSPost2010Prop54
  1
strokes_ogs.tif
102
RTVSPost2010PropOp54
 70
     1
102
RTVSPost2010Prop55
280
     0
102
RTVSPost2010PropOp55
 70
     1
102
RTVSPost2010Prop56
140
1.0
102
RTVSPost2010PropOp56
 70
     1
102
RTVSPost2010Prop57
140
1.0
102
RTVSPost2010PropOp57
 70
     1
102
RTVSPropertyOp0
 70
     1
102
RTVSPropertyOp1
 70
     1
102
RTVSPropertyOp2
 70
     1
102
RTVSPropertyOp3
 70
     1
102
RTVSPropertyOp4
 70
     1
102
RTVSPropertyOp5
 70
     1
102
RTVSPropertyOp6
 70
     1
102
RTVSPropertyOp7
 70
     1
102
RTVSPropertyOp8
 70
     1
102
RTVSPropertyOp9
 70
     1
102
RTVSPropertyOp10
 70
     1
102
RTVSPropertyOp11
 70
     1
102
RTVSPropertyOp12
 70
     1
102
RTVSPropertyOp13
 70
     1
102
RTVSPropertyOp14
 70
     1
102
RTVSPropertyOp15
 70
     1
102
RTVSPropertyOp16
 70
     1
102
RTVSPropertyOp17
 70
     1
102
RTVSPropertyOp18
 70
     1
102
RTVSPropertyOp19
 70
     1
102
RTVSPropertyOp20
 70
     1
102
RTVSPropertyOp21
 70
     1
102
RTVSPropertyOp22
 70
     1
102
RTVSPropertyOp23
 70
     1
102
RTVSPropertyOp24
 70
     1
102
RTVSPropertyOp25
 70
     1
102
RTVSPropertyOp26
 70
     1
102
RTVSPropertyOp27
 70
     1
102
RTVSPropertyOp28
 70
     1
102
RTVSPropertyOp29
 70
     1
102
RTVSPropertyOp30
 70
     1
102
RTVSPropertyOp31
 70
     1
102
RTVSPropertyOp32
 70
     1
102
RTVSPropertyOp33
 70
     1
102
RTVSPropertyOp34
 70
     1
102
RTVSPropertyOp35
 70
     1
102
RTVSPropertyOp36
 70
     1
102
RTVSPropertyOp37
 70
     1
102
RTVSPropertyOp38
 70
     1
102
RTVSPropertyOp39
 70
     1
102
RTVSPropertyOp40
 70
     1
102
RTVSPropertyOp41
 70
     1
102
RTVSPropertyOp42
 70
     1
102
RTVSPropertyOp43
 70
     1
102
RTVSPropertyOp44
 70
     1
102
RTVSPropertyOp45
 70
     1
102
RTVSPropertyOp46
 70
     1
102
RTVSPropertyOp47
 70
     1
102
RTVSPropertyOp48
 70
     1
102
RTVSPropertyOp49
 70
     1
102
RTVSPropertyOp50
 70
     1
102
RTVSPropertyOp51
 70
     0
102
RTVSPropertyOp52
 70
     0
102
RTVSPropertyOp53
 70
     1
102
RTVSPropertyOp54
 70
     1
102
RTVSPropertyOp55
 70
     1
102
RTVSPropertyOp56
 70
     1
102
RTVSPropertyOp57
 70
     1
102
RTVSPropertyOp58
 70
     1
102
RTVSPropertyOp59
 70
     1
102
RTVSPropertyOp60
 70
     1
102
RTVSPropertyOp61
 70
     1
102
RTVSPropertyOp62
 70
     1
  0
XRECORD
  5
35E
102
{ACAD_REACTORS
330
35D
102
}
330
35D
100
AcDbXrecord
280
     1
102
RTVSPost2010Prop28
280
     0
102
RTVSPost2010PropOp28
 70
     1
102
RTVSPost2010Prop29
280
     1
102
RTVSPost2010PropOp29
 70
     1
102
RTVSPost2010Prop30
280
     1
102
RTVSPost2010PropOp30
 70
     1
102
RTVSPost2010Prop31
280
     0
102
RTVSPost2010PropOp31
 70
     1
102
RTVSPost2010Prop32
280
     0
102
RTVSPost2010PropOp32
 70
     1
102
RTVSPost2010Prop33
280
     0
102
RTVSPost2010PropOp33
 70
     1
102
RTVSPost2010Prop34
280
     0
102
RTVSPost2010PropOp34
 70
     1
102
RTVSPost2010Prop35
280
     0
102
RTVSPost2010PropOp35
 70
     1
102
RTVSPost2010Prop36
280
     0
102
RTVSPost2010PropOp36
 70
     1
102
RTVSPost2010Prop37
 90
       50
102
RTVSPost2010PropOp37
 70
     1
102
RTVSPost2010Prop38
140
0.0
102
RTVSPost2010PropOp38
 70
     1
102
RTVSPost2010Prop39
140
1.0
102
RTVSPost2010PropOp39
 70
     1
102
RTVSPost2010Prop40
 90
        0
102
RTVSPost2010PropOp40
 70
     1
102
RTVSPost2010Prop41ColorIndex
 90
       18
102
RTVSPost2010Prop41ColorRGB
 90
        0
102
RTVSPost2010PropOp41
 70
     1
102
RTVSPost2010Prop42
 90
       50
102
RTVSPost2010PropOp42
 70
     1
102
RTVSPost2010Prop43
 90
        3
102
RTVSPost2010PropOp43
 70
     1
102
RTVSPost2010Prop44ColorIndex
 90
        5
102
RTVSPost2010Prop44ColorRGB
 90
      255
102
RTVSPost2010PropOp44
 70
     1
102
RTVSPost2010Prop45
280
     0
102
RTVSPost2010PropOp45
 70
     1
102
RTVSPost2010Prop46
 90
       50
102
RTVSPost2010PropOp46
 70
     1
102
RTVSPost2010Prop47
 90
       50
102
RTVSPost2010PropOp47
 70
     1
102
RTVSPost2010Prop48
 90
       50
102
RTVSPost2010PropOp48
 70
     1
102
RTVSPost2010Prop49
280
     0
102
RTVSPost2010PropOp49
 70
     1
102
RTVSPost2010Prop50
 90
       50
102
RTVSPost2010PropOp50
 70
     1
102
RTVSPost2010Prop51ColorIndex
 90
      256
102
RTVSPost2010Prop51ColorRGB
 90
-16777216
102
RTVSPost2010PropOp51
 70
     0
102
RTVSPost2010Prop52
140
1.0
102
RTVSPost2010PropOp52
 70
     0
102
RTVSPost2010Prop53
 90
        2
102
RTVSPost2010PropOp53
 70
     1
102
RTVSPost2010Prop54
  1
strokes_ogs.tif
102
RTVSPost2010PropOp54
 70
     1
102
RTVSPost2010Prop55
280
     0
102
RTVSPost2010PropOp55
 70
     1
102
RTVSPost2010Prop56
140
1.0
102
RTVSPost2010PropOp56
 70
     1
102
RTVSPost2010Prop57
140
1.0
102
RTVSPost2010PropOp57
 70
     1
102
RTVSPropertyOp0
 70
     1
102
RTVSPropertyOp1
 70
     1
102
RTVSPropertyOp2
 70
     1
102
RTVSPropertyOp3
 70
     1
102
RTVSPropertyOp4
 70
     1
102
RTVSPropertyOp5
 70
     1
102
RTVSPropertyOp6
 70
     1
102
RTVSPropertyOp7
 70
     1
102
RTVSPropertyOp8
 70
     1
102
RTVSPropertyOp9
 70
     1
102
RTVSPropertyOp10
 70
     1
102
RTVSPropertyOp11
 70
     1
102
RTVSPropertyOp12
 70
     1
102
RTVSPropertyOp13
 70
     1
102
RTVSPropertyOp14
 70
     1
102
RTVSPropertyOp15
 70
     1
102
RTVSPropertyOp16
 70
     1
102
RTVSPropertyOp17
 70
     1
102
RTVSPropertyOp18
 70
     1
102
RTVSPropertyOp19
 70
     1
102
RTVSPropertyOp20
 70
     1
102
RTVSPropertyOp21
 70
     1
102
RTVSPropertyOp22
 70
     1
102
RTVSPropertyOp23
 70
     1
102
RTVSPropertyOp24
 70
     1
102
RTVSPropertyOp25
 70
     1
102
RTVSPropertyOp26
 70
     1
102
RTVSPropertyOp27
 70
     1
102
RTVSPropertyOp28
 70
     1
102
RTVSPropertyOp29
 70
     1
102
RTVSPropertyOp30
 70
     1
102
RTVSPropertyOp31
 70
     1
102
RTVSPropertyOp32
 70
     1
102
RTVSPropertyOp33
 70
     1
102
RTVSPropertyOp34
 70
     1
102
RTVSPropertyOp35
 70
     1
102
RTVSPropertyOp36
 70
     1
102
RTVSPropertyOp37
 70
     1
102
RTVSPropertyOp38
 70
     1
102
RTVSPropertyOp39
 70
     1
102
RTVSPropertyOp40
 70
     1
102
RTVSPropertyOp41
 70
     1
102
RTVSPropertyOp42
 70
     1
102
RTVSPropertyOp43
 70
     1
102
RTVSPropertyOp44
 70
     1
102
RTVSPropertyOp45
 70
     1
102
RTVSPropertyOp46
 70
     1
102
RTVSPropertyOp47
 70
     1
102
RTVSPropertyOp48
 70
     1
102
RTVSPropertyOp49
 70
     1
102
RTVSPropertyOp50
 70
     1
102
RTVSPropertyOp51
 70
     0
102
RTVSPropertyOp52
 70
     0
102
RTVSPropertyOp53
 70
     1
102
RTVSPropertyOp54
 70
     1
102
RTVSPropertyOp55
 70
     1
102
RTVSPropertyOp56
 70
     1
102
RTVSPropertyOp57
 70
     1
102
RTVSPropertyOp58
 70
     1
102
RTVSPropertyOp59
 70
     1
102
RTVSPropertyOp60
 70
     1
102
RTVSPropertyOp61
 70
     1
102
RTVSPropertyOp62
 70
     1
  0
XRECORD
  5
372
102
{ACAD_REACTORS
330
371
102
}
330
371
100
AcDbXrecord
280
     1
102
RTVSPost2010Prop28
280
     0
102
RTVSPost2010PropOp28
 70
     0
102
RTVSPost2010Prop29
280
     1
102
RTVSPost2010PropOp29
 70
     0
102
RTVSPost2010Prop30
280
     1
102
RTVSPost2010PropOp30
 70
     0
102
RTVSPost2010Prop31
280
     0
102
RTVSPost2010PropOp31
 70
     0
102
RTVSPost2010Prop32
280
     0
102
RTVSPost2010PropOp32
 70
     0
102
RTVSPost2010Prop33
280
     0
102
RTVSPost2010PropOp33
 70
     0
102
RTVSPost2010Prop34
280
     0
102
RTVSPost2010PropOp34
 70
     0
102
RTVSPost2010Prop35
280
     0
102
RTVSPost2010PropOp35
 70
     0
102
RTVSPost2010Prop36
280
     0
102
RTVSPost2010PropOp36
 70
     0
102
RTVSPost2010Prop37
 90
       50
102
RTVSPost2010PropOp37
 70
     0
102
RTVSPost2010Prop38
140
0.0
102
RTVSPost2010PropOp38
 70
     0
102
RTVSPost2010Prop39
140
1.0
102
RTVSPost2010PropOp39
 70
     0
102
RTVSPost2010Prop40
 90
        0
102
RTVSPost2010PropOp40
 70
     0
102
RTVSPost2010Prop41ColorIndex
 90
       18
102
RTVSPost2010Prop41ColorRGB
 90
        0
102
RTVSPost2010PropOp41
 70
     0
102
RTVSPost2010Prop42
 90
       50
102
RTVSPost2010PropOp42
 70
     0
102
RTVSPost2010Prop43
 90
        3
102
RTVSPost2010PropOp43
 70
     0
102
RTVSPost2010Prop44ColorIndex
 90
        5
102
RTVSPost2010Prop44ColorRGB
 90
      255
102
RTVSPost2010PropOp44
 70
     0
102
RTVSPost2010Prop45
280
     0
102
RTVSPost2010PropOp45
 70
     0
102
RTVSPost2010Prop46
 90
       50
102
RTVSPost2010PropOp46
 70
     0
102
RTVSPost2010Prop47
 90
       50
102
RTVSPost2010PropOp47
 70
     0
102
RTVSPost2010Prop48
 90
       50
102
RTVSPost2010PropOp48
 70
     0
102
RTVSPost2010Prop49
280
     0
102
RTVSPost2010PropOp49
 70
     0
102
RTVSPost2010Prop50
 90
       50
102
RTVSPost2010PropOp50
 70
     0
102
RTVSPost2010Prop51ColorIndex
 90
      256
102
RTVSPost2010Prop51ColorRGB
 90
-16777216
102
RTVSPost2010PropOp51
 70
     0
102
RTVSPost2010Prop52
140
1.0
102
RTVSPost2010PropOp52
 70
     0
102
RTVSPost2010Prop53
 90
        2
102
RTVSPost2010PropOp53
 70
     0
102
RTVSPost2010Prop54
  1
strokes_ogs.tif
102
RTVSPost2010PropOp54
 70
     0
102
RTVSPost2010Prop55
280
     0
102
RTVSPost2010PropOp55
 70
     0
102
RTVSPost2010Prop56
140
1.0
102
RTVSPost2010PropOp56
 70
     0
102
RTVSPost2010Prop57
140
1.0
102
RTVSPost2010PropOp57
 70
     0
102
RTVSPropertyOp0
 70
     0
102
RTVSPropertyOp1
 70
     0
102
RTVSPropertyOp2
 70
     0
102
RTVSPropertyOp3
 70
     0
102
RTVSPropertyOp4
 70
     0
102
RTVSPropertyOp5
 70
     0
102
RTVSPropertyOp6
 70
     0
102
RTVSPropertyOp7
 70
     0
102
RTVSPropertyOp8
 70
     0
102
RTVSPropertyOp9
 70
     0
102
RTVSPropertyOp10
 70
     0
102
RTVSPropertyOp11
 70
     0
102
RTVSPropertyOp12
 70
     0
102
RTVSPropertyOp13
 70
     0
102
RTVSPropertyOp14
 70
     2
102
RTVSPropertyOp15
 70
     0
102
RTVSPropertyOp16
 70
     0
102
RTVSPropertyOp17
 70
     0
102
RTVSPropertyOp18
 70
     0
102
RTVSPropertyOp19
 70
     0
102
RTVSPropertyOp20
 70
     0
102
RTVSPropertyOp21
 70
     0
102
RTVSPropertyOp22
 70
     0
102
RTVSPropertyOp23
 70
     0
102
RTVSPropertyOp24
 70
     0
102
RTVSPropertyOp25
 70
     0
102
RTVSPropertyOp26
 70
     0
102
RTVSPropertyOp27
 70
     0
102
RTVSPropertyOp28
 70
     0
102
RTVSPropertyOp29
 70
     0
102
RTVSPropertyOp30
 70
     0
102
RTVSPropertyOp31
 70
     0
102
RTVSPropertyOp32
 70
     0
102
RTVSPropertyOp33
 70
     0
102
RTVSPropertyOp34
 70
     0
102
RTVSPropertyOp35
 70
     0
102
RTVSPropertyOp36
 70
     0
102
RTVSPropertyOp37
 70
     0
102
RTVSPropertyOp38
 70
     0
102
RTVSPropertyOp39
 70
     0
102
RTVSPropertyOp40
 70
     0
102
RTVSPropertyOp41
 70
     0
102
RTVSPropertyOp42
 70
     0
102
RTVSPropertyOp43
 70
     0
102
RTVSPropertyOp44
 70
     0
102
RTVSPropertyOp45
 70
     0
102
RTVSPropertyOp46
 70
     0
102
RTVSPropertyOp47
 70
     0
102
RTVSPropertyOp48
 70
     0
102
RTVSPropertyOp49
 70
     0
102
RTVSPropertyOp50
 70
     0
102
RTVSPropertyOp51
 70
     0
102
RTVSPropertyOp52
 70
     0
102
RTVSPropertyOp53
 70
     0
102
RTVSPropertyOp54
 70
     0
102
RTVSPropertyOp55
 70
     0
102
RTVSPropertyOp56
 70
     0
102
RTVSPropertyOp57
 70
     0
102
RTVSPropertyOp58
 70
     1
102
RTVSPropertyOp59
 70
     1
102
RTVSPropertyOp60
 70
     1
102
RTVSPropertyOp61
 70
     1
102
RTVSPropertyOp62
 70
     1
  0
XRECORD
  5
36C
102
{ACAD_REACTORS
330
36B
102
}
330
36B
100
AcDbXrecord
280
     1
102
RTVSPost2010Prop28
280
     0
102
RTVSPost2010PropOp28
 70
     1
102
RTVSPost2010Prop29
280
     1
102
RTVSPost2010PropOp29
 70
     1
102
RTVSPost2010Prop30
280
     1
102
RTVSPost2010PropOp30
 70
     1
102
RTVSPost2010Prop31
280
     0
102
RTVSPost2010PropOp31
 70
     1
102
RTVSPost2010Prop32
280
     0
102
RTVSPost2010PropOp32
 70
     1
102
RTVSPost2010Prop33
280
     0
102
RTVSPost2010PropOp33
 70
     1
102
RTVSPost2010Prop34
280
     0
102
RTVSPost2010PropOp34
 70
     1
102
RTVSPost2010Prop35
280
     0
102
RTVSPost2010PropOp35
 70
     1
102
RTVSPost2010Prop36
280
     0
102
RTVSPost2010PropOp36
 70
     1
102
RTVSPost2010Prop37
 90
       50
102
RTVSPost2010PropOp37
 70
     1
102
RTVSPost2010Prop38
140
0.0
102
RTVSPost2010PropOp38
 70
     1
102
RTVSPost2010Prop39
140
1.0
102
RTVSPost2010PropOp39
 70
     1
102
RTVSPost2010Prop40
 90
        0
102
RTVSPost2010PropOp40
 70
     1
102
RTVSPost2010Prop41ColorIndex
 90
       18
102
RTVSPost2010Prop41ColorRGB
 90
        0
102
RTVSPost2010PropOp41
 70
     1
102
RTVSPost2010Prop42
 90
       50
102
RTVSPost2010PropOp42
 70
     1
102
RTVSPost2010Prop43
 90
        3
102
RTVSPost2010PropOp43
 70
     1
102
RTVSPost2010Prop44ColorIndex
 90
        5
102
RTVSPost2010Prop44ColorRGB
 90
      255
102
RTVSPost2010PropOp44
 70
     1
102
RTVSPost2010Prop45
280
     0
102
RTVSPost2010PropOp45
 70
     1
102
RTVSPost2010Prop46
 90
       50
102
RTVSPost2010PropOp46
 70
     1
102
RTVSPost2010Prop47
 90
       50
102
RTVSPost2010PropOp47
 70
     1
102
RTVSPost2010Prop48
 90
       50
102
RTVSPost2010PropOp48
 70
     1
102
RTVSPost2010Prop49
280
     0
102
RTVSPost2010PropOp49
 70
     1
102
RTVSPost2010Prop50
 90
       50
102
RTVSPost2010PropOp50
 70
     1
102
RTVSPost2010Prop51ColorIndex
 90
      256
102
RTVSPost2010Prop51ColorRGB
 90
-16777216
102
RTVSPost2010PropOp51
 70
     0
102
RTVSPost2010Prop52
140
1.0
102
RTVSPost2010PropOp52
 70
     0
102
RTVSPost2010Prop53
 90
        2
102
RTVSPost2010PropOp53
 70
     1
102
RTVSPost2010Prop54
  1
strokes_ogs.tif
102
RTVSPost2010PropOp54
 70
     1
102
RTVSPost2010Prop55
280
     0
102
RTVSPost2010PropOp55
 70
     1
102
RTVSPost2010Prop56
140
1.0
102
RTVSPost2010PropOp56
 70
     1
102
RTVSPost2010Prop57
140
1.0
102
RTVSPost2010PropOp57
 70
     1
102
RTVSPropertyOp0
 70
     1
102
RTVSPropertyOp1
 70
     1
102
RTVSPropertyOp2
 70
     1
102
RTVSPropertyOp3
 70
     1
102
RTVSPropertyOp4
 70
     1
102
RTVSPropertyOp5
 70
     1
102
RTVSPropertyOp6
 70
     1
102
RTVSPropertyOp7
 70
     1
102
RTVSPropertyOp8
 70
     1
102
RTVSPropertyOp9
 70
     1
102
RTVSPropertyOp10
 70
     1
102
RTVSPropertyOp11
 70
     1
102
RTVSPropertyOp12
 70
     1
102
RTVSPropertyOp13
 70
     1
102
RTVSPropertyOp14
 70
     1
102
RTVSPropertyOp15
 70
     1
102
RTVSPropertyOp16
 70
     1
102
RTVSPropertyOp17
 70
     1
102
RTVSPropertyOp18
 70
     1
102
RTVSPropertyOp19
 70
     1
102
RTVSPropertyOp20
 70
     1
102
RTVSPropertyOp21
 70
     1
102
RTVSPropertyOp22
 70
     1
102
RTVSPropertyOp23
 70
     1
102
RTVSPropertyOp24
 70
     1
102
RTVSPropertyOp25
 70
     1
102
RTVSPropertyOp26
 70
     1
102
RTVSPropertyOp27
 70
     1
102
RTVSPropertyOp28
 70
     1
102
RTVSPropertyOp29
 70
     1
102
RTVSPropertyOp30
 70
     1
102
RTVSPropertyOp31
 70
     1
102
RTVSPropertyOp32
 70
     1
102
RTVSPropertyOp33
 70
     1
102
RTVSPropertyOp34
 70
     1
102
RTVSPropertyOp35
 70
     1
102
RTVSPropertyOp36
 70
     1
102
RTVSPropertyOp37
 70
     1
102
RTVSPropertyOp38
 70
     1
102
RTVSPropertyOp39
 70
     1
102
RTVSPropertyOp40
 70
     1
102
RTVSPropertyOp41
 70
     1
102
RTVSPropertyOp42
 70
     1
102
RTVSPropertyOp43
 70
     1
102
RTVSPropertyOp44
 70
     1
102
RTVSPropertyOp45
 70
     1
102
RTVSPropertyOp46
 70
     1
102
RTVSPropertyOp47
 70
     1
102
RTVSPropertyOp48
 70
     1
102
RTVSPropertyOp49
 70
     1
102
RTVSPropertyOp50
 70
     1
102
RTVSPropertyOp51
 70
     0
102
RTVSPropertyOp52
 70
     0
102
RTVSPropertyOp53
 70
     1
102
RTVSPropertyOp54
 70
     1
102
RTVSPropertyOp55
 70
     1
102
RTVSPropertyOp56
 70
     1
102
RTVSPropertyOp57
 70
     1
102
RTVSPropertyOp58
 70
     1
102
RTVSPropertyOp59
 70
     1
102
RTVSPropertyOp60
 70
     1
102
RTVSPropertyOp61
 70
     1
102
RTVSPropertyOp62
 70
     1
  0
XRECORD
  5
374
102
{ACAD_REACTORS
330
373
102
}
330
373
100
AcDbXrecord
280
     1
102
RTVSPost2010Prop28
280
     0
102
RTVSPost2010PropOp28
 70
     0
102
RTVSPost2010Prop29
280
     1
102
RTVSPost2010PropOp29
 70
     0
102
RTVSPost2010Prop30
280
     1
102
RTVSPost2010PropOp30
 70
     0
102
RTVSPost2010Prop31
280
     0
102
RTVSPost2010PropOp31
 70
     0
102
RTVSPost2010Prop32
280
     0
102
RTVSPost2010PropOp32
 70
     0
102
RTVSPost2010Prop33
280
     0
102
RTVSPost2010PropOp33
 70
     0
102
RTVSPost2010Prop34
280
     0
102
RTVSPost2010PropOp34
 70
     0
102
RTVSPost2010Prop35
280
     0
102
RTVSPost2010PropOp35
 70
     0
102
RTVSPost2010Prop36
280
     0
102
RTVSPost2010PropOp36
 70
     0
102
RTVSPost2010Prop37
 90
       50
102
RTVSPost2010PropOp37
 70
     0
102
RTVSPost2010Prop38
140
0.0
102
RTVSPost2010PropOp38
 70
     0
102
RTVSPost2010Prop39
140
1.0
102
RTVSPost2010PropOp39
 70
     0
102
RTVSPost2010Prop40
 90
        0
102
RTVSPost2010PropOp40
 70
     0
102
RTVSPost2010Prop41ColorIndex
 90
       18
102
RTVSPost2010Prop41ColorRGB
 90
        0
102
RTVSPost2010PropOp41
 70
     0
102
RTVSPost2010Prop42
 90
       50
102
RTVSPost2010PropOp42
 70
     0
102
RTVSPost2010Prop43
 90
        3
102
RTVSPost2010PropOp43
 70
     0
102
RTVSPost2010Prop44ColorIndex
 90
        5
102
RTVSPost2010Prop44ColorRGB
 90
      255
102
RTVSPost2010PropOp44
 70
     0
102
RTVSPost2010Prop45
280
     0
102
RTVSPost2010PropOp45
 70
     0
102
RTVSPost2010Prop46
 90
       50
102
RTVSPost2010PropOp46
 70
     0
102
RTVSPost2010Prop47
 90
       50
102
RTVSPost2010PropOp47
 70
     0
102
RTVSPost2010Prop48
 90
       50
102
RTVSPost2010PropOp48
 70
     0
102
RTVSPost2010Prop49
280
     0
102
RTVSPost2010PropOp49
 70
     0
102
RTVSPost2010Prop50
 90
       50
102
RTVSPost2010PropOp50
 70
     0
102
RTVSPost2010Prop51ColorIndex
 90
      256
102
RTVSPost2010Prop51ColorRGB
 90
-16777216
102
RTVSPost2010PropOp51
 70
     0
102
RTVSPost2010Prop52
140
1.0
102
RTVSPost2010PropOp52
 70
     0
102
RTVSPost2010Prop53
 90
        2
102
RTVSPost2010PropOp53
 70
     0
102
RTVSPost2010Prop54
  1
strokes_ogs.tif
102
RTVSPost2010PropOp54
 70
     0
102
RTVSPost2010Prop55
280
     0
102
RTVSPost2010PropOp55
 70
     0
102
RTVSPost2010Prop56
140
1.0
102
RTVSPost2010PropOp56
 70
     0
102
RTVSPost2010Prop57
140
1.0
102
RTVSPost2010PropOp57
 70
     0
102
RTVSPropertyOp0
 70
     0
102
RTVSPropertyOp1
 70
     0
102
RTVSPropertyOp2
 70
     0
102
RTVSPropertyOp3
 70
     0
102
RTVSPropertyOp4
 70
     0
102
RTVSPropertyOp5
 70
     0
102
RTVSPropertyOp6
 70
     0
102
RTVSPropertyOp7
 70
     0
102
RTVSPropertyOp8
 70
     0
102
RTVSPropertyOp9
 70
     0
102
RTVSPropertyOp10
 70
     0
102
RTVSPropertyOp11
 70
     0
102
RTVSPropertyOp12
 70
     0
102
RTVSPropertyOp13
 70
     0
102
RTVSPropertyOp14
 70
     2
102
RTVSPropertyOp15
 70
     0
102
RTVSPropertyOp16
 70
     0
102
RTVSPropertyOp17
 70
     0
102
RTVSPropertyOp18
 70
     0
102
RTVSPropertyOp19
 70
     0
102
RTVSPropertyOp20
 70
     0
102
RTVSPropertyOp21
 70
     0
102
RTVSPropertyOp22
 70
     0
102
RTVSPropertyOp23
 70
     0
102
RTVSPropertyOp24
 70
     0
102
RTVSPropertyOp25
 70
     0
102
RTVSPropertyOp26
 70
     0
102
RTVSPropertyOp27
 70
     0
102
RTVSPropertyOp28
 70
     0
102
RTVSPropertyOp29
 70
     0
102
RTVSPropertyOp30
 70
     0
102
RTVSPropertyOp31
 70
     0
102
RTVSPropertyOp32
 70
     0
102
RTVSPropertyOp33
 70
     0
102
RTVSPropertyOp34
 70
     0
102
RTVSPropertyOp35
 70
     0
102
RTVSPropertyOp36
 70
     0
102
RTVSPropertyOp37
 70
     0
102
RTVSPropertyOp38
 70
     0
102
RTVSPropertyOp39
 70
     0
102
RTVSPropertyOp40
 70
     0
102
RTVSPropertyOp41
 70
     0
102
RTVSPropertyOp42
 70
     0
102
RTVSPropertyOp43
 70
     0
102
RTVSPropertyOp44
 70
     0
102
RTVSPropertyOp45
 70
     0
102
RTVSPropertyOp46
 70
     0
102
RTVSPropertyOp47
 70
     0
102
RTVSPropertyOp48
 70
     0
102
RTVSPropertyOp49
 70
     0
102
RTVSPropertyOp50
 70
     0
102
RTVSPropertyOp51
 70
     0
102
RTVSPropertyOp52
 70
     0
102
RTVSPropertyOp53
 70
     0
102
RTVSPropertyOp54
 70
     0
102
RTVSPropertyOp55
 70
     0
102
RTVSPropertyOp56
 70
     0
102
RTVSPropertyOp57
 70
     0
102
RTVSPropertyOp58
 70
     1
102
RTVSPropertyOp59
 70
     1
102
RTVSPropertyOp60
 70
     1
102
RTVSPropertyOp61
 70
     1
102
RTVSPropertyOp62
 70
     1
  0
XRECORD
  5
362
102
{ACAD_REACTORS
330
361
102
}
330
361
100
AcDbXrecord
280
     1
102
RTVSPost2010Prop28
280
     0
102
RTVSPost2010PropOp28
 70
     1
102
RTVSPost2010Prop29
280
     1
102
RTVSPost2010PropOp29
 70
     1
102
RTVSPost2010Prop30
280
     1
102
RTVSPost2010PropOp30
 70
     1
102
RTVSPost2010Prop31
280
     0
102
RTVSPost2010PropOp31
 70
     1
102
RTVSPost2010Prop32
280
     0
102
RTVSPost2010PropOp32
 70
     1
102
RTVSPost2010Prop33
280
     0
102
RTVSPost2010PropOp33
 70
     1
102
RTVSPost2010Prop34
280
     0
102
RTVSPost2010PropOp34
 70
     1
102
RTVSPost2010Prop35
280
     0
102
RTVSPost2010PropOp35
 70
     1
102
RTVSPost2010Prop36
280
     0
102
RTVSPost2010PropOp36
 70
     1
102
RTVSPost2010Prop37
 90
       50
102
RTVSPost2010PropOp37
 70
     1
102
RTVSPost2010Prop38
140
0.0
102
RTVSPost2010PropOp38
 70
     1
102
RTVSPost2010Prop39
140
1.0
102
RTVSPost2010PropOp39
 70
     1
102
RTVSPost2010Prop40
 90
        0
102
RTVSPost2010PropOp40
 70
     1
102
RTVSPost2010Prop41ColorIndex
 90
       18
102
RTVSPost2010Prop41ColorRGB
 90
        0
102
RTVSPost2010PropOp41
 70
     1
102
RTVSPost2010Prop42
 90
       50
102
RTVSPost2010PropOp42
 70
     1
102
RTVSPost2010Prop43
 90
        3
102
RTVSPost2010PropOp43
 70
     1
102
RTVSPost2010Prop44ColorIndex
 90
        5
102
RTVSPost2010Prop44ColorRGB
 90
      255
102
RTVSPost2010PropOp44
 70
     1
102
RTVSPost2010Prop45
280
     0
102
RTVSPost2010PropOp45
 70
     1
102
RTVSPost2010Prop46
 90
       50
102
RTVSPost2010PropOp46
 70
     1
102
RTVSPost2010Prop47
 90
       50
102
RTVSPost2010PropOp47
 70
     1
102
RTVSPost2010Prop48
 90
       50
102
RTVSPost2010PropOp48
 70
     1
102
RTVSPost2010Prop49
280
     0
102
RTVSPost2010PropOp49
 70
     1
102
RTVSPost2010Prop50
 90
       50
102
RTVSPost2010PropOp50
 70
     1
102
RTVSPost2010Prop51ColorIndex
 90
      256
102
RTVSPost2010Prop51ColorRGB
 90
-16777216
102
RTVSPost2010PropOp51
 70
     0
102
RTVSPost2010Prop52
140
1.0
102
RTVSPost2010PropOp52
 70
     0
102
RTVSPost2010Prop53
 90
        2
102
RTVSPost2010PropOp53
 70
     1
102
RTVSPost2010Prop54
  1
strokes_ogs.tif
102
RTVSPost2010PropOp54
 70
     1
102
RTVSPost2010Prop55
280
     0
102
RTVSPost2010PropOp55
 70
     1
102
RTVSPost2010Prop56
140
1.0
102
RTVSPost2010PropOp56
 70
     1
102
RTVSPost2010Prop57
140
1.0
102
RTVSPost2010PropOp57
 70
     1
102
RTVSPropertyOp0
 70
     1
102
RTVSPropertyOp1
 70
     1
102
RTVSPropertyOp2
 70
     1
102
RTVSPropertyOp3
 70
     1
102
RTVSPropertyOp4
 70
     1
102
RTVSPropertyOp5
 70
     1
102
RTVSPropertyOp6
 70
     1
102
RTVSPropertyOp7
 70
     1
102
RTVSPropertyOp8
 70
     1
102
RTVSPropertyOp9
 70
     1
102
RTVSPropertyOp10
 70
     1
102
RTVSPropertyOp11
 70
     1
102
RTVSPropertyOp12
 70
     1
102
RTVSPropertyOp13
 70
     1
102
RTVSPropertyOp14
 70
     1
102
RTVSPropertyOp15
 70
     1
102
RTVSPropertyOp16
 70
     1
102
RTVSPropertyOp17
 70
     1
102
RTVSPropertyOp18
 70
     1
102
RTVSPropertyOp19
 70
     1
102
RTVSPropertyOp20
 70
     1
102
RTVSPropertyOp21
 70
     1
102
RTVSPropertyOp22
 70
     1
102
RTVSPropertyOp23
 70
     1
102
RTVSPropertyOp24
 70
     1
102
RTVSPropertyOp25
 70
     1
102
RTVSPropertyOp26
 70
     1
102
RTVSPropertyOp27
 70
     1
102
RTVSPropertyOp28
 70
     1
102
RTVSPropertyOp29
 70
     1
102
RTVSPropertyOp30
 70
     1
102
RTVSPropertyOp31
 70
     1
102
RTVSPropertyOp32
 70
     1
102
RTVSPropertyOp33
 70
     1
102
RTVSPropertyOp34
 70
     1
102
RTVSPropertyOp35
 70
     1
102
RTVSPropertyOp36
 70
     1
102
RTVSPropertyOp37
 70
     1
102
RTVSPropertyOp38
 70
     1
102
RTVSPropertyOp39
 70
     1
102
RTVSPropertyOp40
 70
     1
102
RTVSPropertyOp41
 70
     1
102
RTVSPropertyOp42
 70
     1
102
RTVSPropertyOp43
 70
     1
102
RTVSPropertyOp44
 70
     1
102
RTVSPropertyOp45
 70
     1
102
RTVSPropertyOp46
 70
     1
102
RTVSPropertyOp47
 70
     1
102
RTVSPropertyOp48
 70
     1
102
RTVSPropertyOp49
 70
     1
102
RTVSPropertyOp50
 70
     1
102
RTVSPropertyOp51
 70
     0
102
RTVSPropertyOp52
 70
     0
102
RTVSPropertyOp53
 70
     1
102
RTVSPropertyOp54
 70
     1
102
RTVSPropertyOp55
 70
     1
102
RTVSPropertyOp56
 70
     1
102
RTVSPropertyOp57
 70
     1
102
RTVSPropertyOp58
 70
     1
102
RTVSPropertyOp59
 70
     1
102
RTVSPropertyOp60
 70
     1
102
RTVSPropertyOp61
 70
     1
102
RTVSPropertyOp62
 70
     1
  0
XRECORD
  5
380
102
{ACAD_REACTORS
330
37F
102
}
330
37F
100
AcDbXrecord
280
     1
102
RTVSPost2010Prop28
280
     0
102
RTVSPost2010PropOp28
 70
     1
102
RTVSPost2010Prop29
280
     1
102
RTVSPost2010PropOp29
 70
     1
102
RTVSPost2010Prop30
280
     1
102
RTVSPost2010PropOp30
 70
     1
102
RTVSPost2010Prop31
280
     0
102
RTVSPost2010PropOp31
 70
     1
102
RTVSPost2010Prop32
280
     0
102
RTVSPost2010PropOp32
 70
     1
102
RTVSPost2010Prop33
280
     0
102
RTVSPost2010PropOp33
 70
     1
102
RTVSPost2010Prop34
280
     0
102
RTVSPost2010PropOp34
 70
     1
102
RTVSPost2010Prop35
280
     0
102
RTVSPost2010PropOp35
 70
     1
102
RTVSPost2010Prop36
280
     0
102
RTVSPost2010PropOp36
 70
     1
102
RTVSPost2010Prop37
 90
       50
102
RTVSPost2010PropOp37
 70
     1
102
RTVSPost2010Prop38
140
0.0
102
RTVSPost2010PropOp38
 70
     1
102
RTVSPost2010Prop39
140
1.0
102
RTVSPost2010PropOp39
 70
     1
102
RTVSPost2010Prop40
 90
        0
102
RTVSPost2010PropOp40
 70
     1
102
RTVSPost2010Prop41ColorIndex
 90
       18
102
RTVSPost2010Prop41ColorRGB
 90
        0
102
RTVSPost2010PropOp41
 70
     1
102
RTVSPost2010Prop42
 90
       50
102
RTVSPost2010PropOp42
 70
     1
102
RTVSPost2010Prop43
 90
        3
102
RTVSPost2010PropOp43
 70
     1
102
RTVSPost2010Prop44ColorIndex
 90
        5
102
RTVSPost2010Prop44ColorRGB
 90
      255
102
RTVSPost2010PropOp44
 70
     1
102
RTVSPost2010Prop45
280
     0
102
RTVSPost2010PropOp45
 70
     1
102
RTVSPost2010Prop46
 90
       50
102
RTVSPost2010PropOp46
 70
     1
102
RTVSPost2010Prop47
 90
       50
102
RTVSPost2010PropOp47
 70
     1
102
RTVSPost2010Prop48
 90
       50
102
RTVSPost2010PropOp48
 70
     1
102
RTVSPost2010Prop49
280
     0
102
RTVSPost2010PropOp49
 70
     1
102
RTVSPost2010Prop50
 90
       50
102
RTVSPost2010PropOp50
 70
     1
102
RTVSPost2010Prop51ColorIndex
 90
      256
102
RTVSPost2010Prop51ColorRGB
 90
-16777216
102
RTVSPost2010PropOp51
 70
     0
102
RTVSPost2010Prop52
140
1.0
102
RTVSPost2010PropOp52
 70
     0
102
RTVSPost2010Prop53
 90
        2
102
RTVSPost2010PropOp53
 70
     1
102
RTVSPost2010Prop54
  1
strokes_ogs.tif
102
RTVSPost2010PropOp54
 70
     1
102
RTVSPost2010Prop55
280
     0
102
RTVSPost2010PropOp55
 70
     1
102
RTVSPost2010Prop56
140
1.0
102
RTVSPost2010PropOp56
 70
     1
102
RTVSPost2010Prop57
140
1.0
102
RTVSPost2010PropOp57
 70
     1
102
RTVSPropertyOp0
 70
     1
102
RTVSPropertyOp1
 70
     1
102
RTVSPropertyOp2
 70
     1
102
RTVSPropertyOp3
 70
     1
102
RTVSPropertyOp4
 70
     1
102
RTVSPropertyOp5
 70
     1
102
RTVSPropertyOp6
 70
     1
102
RTVSPropertyOp7
 70
     1
102
RTVSPropertyOp8
 70
     1
102
RTVSPropertyOp9
 70
     1
102
RTVSPropertyOp10
 70
     1
102
RTVSPropertyOp11
 70
     1
102
RTVSPropertyOp12
 70
     1
102
RTVSPropertyOp13
 70
     1
102
RTVSPropertyOp14
 70
     1
102
RTVSPropertyOp15
 70
     1
102
RTVSPropertyOp16
 70
     1
102
RTVSPropertyOp17
 70
     1
102
RTVSPropertyOp18
 70
     1
102
RTVSPropertyOp19
 70
     1
102
RTVSPropertyOp20
 70
     1
102
RTVSPropertyOp21
 70
     1
102
RTVSPropertyOp22
 70
     1
102
RTVSPropertyOp23
 70
     1
102
RTVSPropertyOp24
 70
     1
102
RTVSPropertyOp25
 70
     1
102
RTVSPropertyOp26
 70
     1
102
RTVSPropertyOp27
 70
     1
102
RTVSPropertyOp28
 70
     1
102
RTVSPropertyOp29
 70
     1
102
RTVSPropertyOp30
 70
     1
102
RTVSPropertyOp31
 70
     1
102
RTVSPropertyOp32
 70
     1
102
RTVSPropertyOp33
 70
     1
102
RTVSPropertyOp34
 70
     1
102
RTVSPropertyOp35
 70
     1
102
RTVSPropertyOp36
 70
     1
102
RTVSPropertyOp37
 70
     1
102
RTVSPropertyOp38
 70
     1
102
RTVSPropertyOp39
 70
     1
102
RTVSPropertyOp40
 70
     1
102
RTVSPropertyOp41
 70
     1
102
RTVSPropertyOp42
 70
     1
102
RTVSPropertyOp43
 70
     1
102
RTVSPropertyOp44
 70
     1
102
RTVSPropertyOp45
 70
     1
102
RTVSPropertyOp46
 70
     1
102
RTVSPropertyOp47
 70
     1
102
RTVSPropertyOp48
 70
     1
102
RTVSPropertyOp49
 70
     1
102
RTVSPropertyOp50
 70
     1
102
RTVSPropertyOp51
 70
     0
102
RTVSPropertyOp52
 70
     0
102
RTVSPropertyOp53
 70
     1
102
RTVSPropertyOp54
 70
     1
102
RTVSPropertyOp55
 70
     1
102
RTVSPropertyOp56
 70
     1
102
RTVSPropertyOp57
 70
     1
102
RTVSPropertyOp58
 70
     1
102
RTVSPropertyOp59
 70
     1
102
RTVSPropertyOp60
 70
     1
102
RTVSPropertyOp61
 70
     1
102
RTVSPropertyOp62
 70
     1
  0
XRECORD
  5
37E
102
{ACAD_REACTORS
330
37D
102
}
330
37D
100
AcDbXrecord
280
     1
102
RTVSPost2010Prop28
280
     0
102
RTVSPost2010PropOp28
 70
     1
102
RTVSPost2010Prop29
280
     1
102
RTVSPost2010PropOp29
 70
     1
102
RTVSPost2010Prop30
280
     1
102
RTVSPost2010PropOp30
 70
     1
102
RTVSPost2010Prop31
280
     0
102
RTVSPost2010PropOp31
 70
     1
102
RTVSPost2010Prop32
280
     0
102
RTVSPost2010PropOp32
 70
     1
102
RTVSPost2010Prop33
280
     0
102
RTVSPost2010PropOp33
 70
     1
102
RTVSPost2010Prop34
280
     0
102
RTVSPost2010PropOp34
 70
     1
102
RTVSPost2010Prop35
280
     0
102
RTVSPost2010PropOp35
 70
     1
102
RTVSPost2010Prop36
280
     0
102
RTVSPost2010PropOp36
 70
     1
102
RTVSPost2010Prop37
 90
       50
102
RTVSPost2010PropOp37
 70
     1
102
RTVSPost2010Prop38
140
0.0
102
RTVSPost2010PropOp38
 70
     1
102
RTVSPost2010Prop39
140
1.0
102
RTVSPost2010PropOp39
 70
     1
102
RTVSPost2010Prop40
 90
        0
102
RTVSPost2010PropOp40
 70
     1
102
RTVSPost2010Prop41ColorIndex
 90
       18
102
RTVSPost2010Prop41ColorRGB
 90
        0
102
RTVSPost2010PropOp41
 70
     1
102
RTVSPost2010Prop42
 90
       50
102
RTVSPost2010PropOp42
 70
     1
102
RTVSPost2010Prop43
 90
        3
102
RTVSPost2010PropOp43
 70
     1
102
RTVSPost2010Prop44ColorIndex
 90
        5
102
RTVSPost2010Prop44ColorRGB
 90
      255
102
RTVSPost2010PropOp44
 70
     1
102
RTVSPost2010Prop45
280
     0
102
RTVSPost2010PropOp45
 70
     1
102
RTVSPost2010Prop46
 90
       50
102
RTVSPost2010PropOp46
 70
     1
102
RTVSPost2010Prop47
 90
       50
102
RTVSPost2010PropOp47
 70
     1
102
RTVSPost2010Prop48
 90
       50
102
RTVSPost2010PropOp48
 70
     1
102
RTVSPost2010Prop49
280
     0
102
RTVSPost2010PropOp49
 70
     1
102
RTVSPost2010Prop50
 90
       50
102
RTVSPost2010PropOp50
 70
     1
102
RTVSPost2010Prop51ColorIndex
 90
      256
102
RTVSPost2010Prop51ColorRGB
 90
-16777216
102
RTVSPost2010PropOp51
 70
     0
102
RTVSPost2010Prop52
140
1.0
102
RTVSPost2010PropOp52
 70
     0
102
RTVSPost2010Prop53
 90
        2
102
RTVSPost2010PropOp53
 70
     1
102
RTVSPost2010Prop54
  1
strokes_ogs.tif
102
RTVSPost2010PropOp54
 70
     1
102
RTVSPost2010Prop55
280
     0
102
RTVSPost2010PropOp55
 70
     1
102
RTVSPost2010Prop56
140
1.0
102
RTVSPost2010PropOp56
 70
     1
102
RTVSPost2010Prop57
140
1.0
102
RTVSPost2010PropOp57
 70
     1
102
RTVSPropertyOp0
 70
     1
102
RTVSPropertyOp1
 70
     1
102
RTVSPropertyOp2
 70
     1
102
RTVSPropertyOp3
 70
     1
102
RTVSPropertyOp4
 70
     1
102
RTVSPropertyOp5
 70
     1
102
RTVSPropertyOp6
 70
     1
102
RTVSPropertyOp7
 70
     1
102
RTVSPropertyOp8
 70
     1
102
RTVSPropertyOp9
 70
     1
102
RTVSPropertyOp10
 70
     1
102
RTVSPropertyOp11
 70
     1
102
RTVSPropertyOp12
 70
     1
102
RTVSPropertyOp13
 70
     1
102
RTVSPropertyOp14
 70
     1
102
RTVSPropertyOp15
 70
     1
102
RTVSPropertyOp16
 70
     1
102
RTVSPropertyOp17
 70
     1
102
RTVSPropertyOp18
 70
     1
102
RTVSPropertyOp19
 70
     1
102
RTVSPropertyOp20
 70
     1
102
RTVSPropertyOp21
 70
     1
102
RTVSPropertyOp22
 70
     1
102
RTVSPropertyOp23
 70
     1
102
RTVSPropertyOp24
 70
     1
102
RTVSPropertyOp25
 70
     1
102
RTVSPropertyOp26
 70
     1
102
RTVSPropertyOp27
 70
     1
102
RTVSPropertyOp28
 70
     1
102
RTVSPropertyOp29
 70
     1
102
RTVSPropertyOp30
 70
     1
102
RTVSPropertyOp31
 70
     1
102
RTVSPropertyOp32
 70
     1
102
RTVSPropertyOp33
 70
     1
102
RTVSPropertyOp34
 70
     1
102
RTVSPropertyOp35
 70
     1
102
RTVSPropertyOp36
 70
     1
102
RTVSPropertyOp37
 70
     1
102
RTVSPropertyOp38
 70
     1
102
RTVSPropertyOp39
 70
     1
102
RTVSPropertyOp40
 70
     1
102
RTVSPropertyOp41
 70
     1
102
RTVSPropertyOp42
 70
     1
102
RTVSPropertyOp43
 70
     1
102
RTVSPropertyOp44
 70
     1
102
RTVSPropertyOp45
 70
     1
102
RTVSPropertyOp46
 70
     1
102
RTVSPropertyOp47
 70
     1
102
RTVSPropertyOp48
 70
     1
102
RTVSPropertyOp49
 70
     1
102
RTVSPropertyOp50
 70
     1
102
RTVSPropertyOp51
 70
     0
102
RTVSPropertyOp52
 70
     0
102
RTVSPropertyOp53
 70
     1
102
RTVSPropertyOp54
 70
     1
102
RTVSPropertyOp55
 70
     1
102
RTVSPropertyOp56
 70
     1
102
RTVSPropertyOp57
 70
     1
102
RTVSPropertyOp58
 70
     1
102
RTVSPropertyOp59
 70
     1
102
RTVSPropertyOp60
 70
     1
102
RTVSPropertyOp61
 70
     1
102
RTVSPropertyOp62
 70
     1
  0
XRECORD
  5
378
102
{ACAD_REACTORS
330
377
102
}
330
377
100
AcDbXrecord
280
     1
102
RTVSPost2010Prop28
280
     0
102
RTVSPost2010PropOp28
 70
     1
102
RTVSPost2010Prop29
280
     1
102
RTVSPost2010PropOp29
 70
     1
102
RTVSPost2010Prop30
280
     1
102
RTVSPost2010PropOp30
 70
     1
102
RTVSPost2010Prop31
280
     0
102
RTVSPost2010PropOp31
 70
     1
102
RTVSPost2010Prop32
280
     0
102
RTVSPost2010PropOp32
 70
     1
102
RTVSPost2010Prop33
280
     0
102
RTVSPost2010PropOp33
 70
     1
102
RTVSPost2010Prop34
280
     0
102
RTVSPost2010PropOp34
 70
     1
102
RTVSPost2010Prop35
280
     0
102
RTVSPost2010PropOp35
 70
     1
102
RTVSPost2010Prop36
280
     0
102
RTVSPost2010PropOp36
 70
     1
102
RTVSPost2010Prop37
 90
       50
102
RTVSPost2010PropOp37
 70
     1
102
RTVSPost2010Prop38
140
0.0
102
RTVSPost2010PropOp38
 70
     1
102
RTVSPost2010Prop39
140
1.0
102
RTVSPost2010PropOp39
 70
     1
102
RTVSPost2010Prop40
 90
        0
102
RTVSPost2010PropOp40
 70
     1
102
RTVSPost2010Prop41ColorIndex
 90
       18
102
RTVSPost2010Prop41ColorRGB
 90
        0
102
RTVSPost2010PropOp41
 70
     1
102
RTVSPost2010Prop42
 90
       50
102
RTVSPost2010PropOp42
 70
     1
102
RTVSPost2010Prop43
 90
        3
102
RTVSPost2010PropOp43
 70
     1
102
RTVSPost2010Prop44ColorIndex
 90
        5
102
RTVSPost2010Prop44ColorRGB
 90
      255
102
RTVSPost2010PropOp44
 70
     1
102
RTVSPost2010Prop45
280
     0
102
RTVSPost2010PropOp45
 70
     1
102
RTVSPost2010Prop46
 90
       50
102
RTVSPost2010PropOp46
 70
     1
102
RTVSPost2010Prop47
 90
       50
102
RTVSPost2010PropOp47
 70
     1
102
RTVSPost2010Prop48
 90
       50
102
RTVSPost2010PropOp48
 70
     1
102
RTVSPost2010Prop49
280
     0
102
RTVSPost2010PropOp49
 70
     1
102
RTVSPost2010Prop50
 90
       50
102
RTVSPost2010PropOp50
 70
     1
102
RTVSPost2010Prop51ColorIndex
 90
      256
102
RTVSPost2010Prop51ColorRGB
 90
-16777216
102
RTVSPost2010PropOp51
 70
     0
102
RTVSPost2010Prop52
140
1.0
102
RTVSPost2010PropOp52
 70
     0
102
RTVSPost2010Prop53
 90
        2
102
RTVSPost2010PropOp53
 70
     1
102
RTVSPost2010Prop54
  1
strokes_ogs.tif
102
RTVSPost2010PropOp54
 70
     1
102
RTVSPost2010Prop55
280
     0
102
RTVSPost2010PropOp55
 70
     1
102
RTVSPost2010Prop56
140
1.0
102
RTVSPost2010PropOp56
 70
     1
102
RTVSPost2010Prop57
140
1.0
102
RTVSPost2010PropOp57
 70
     1
102
RTVSPropertyOp0
 70
     1
102
RTVSPropertyOp1
 70
     1
102
RTVSPropertyOp2
 70
     1
102
RTVSPropertyOp3
 70
     1
102
RTVSPropertyOp4
 70
     1
102
RTVSPropertyOp5
 70
     1
102
RTVSPropertyOp6
 70
     1
102
RTVSPropertyOp7
 70
     1
102
RTVSPropertyOp8
 70
     1
102
RTVSPropertyOp9
 70
     1
102
RTVSPropertyOp10
 70
     1
102
RTVSPropertyOp11
 70
     1
102
RTVSPropertyOp12
 70
     1
102
RTVSPropertyOp13
 70
     1
102
RTVSPropertyOp14
 70
     1
102
RTVSPropertyOp15
 70
     1
102
RTVSPropertyOp16
 70
     1
102
RTVSPropertyOp17
 70
     1
102
RTVSPropertyOp18
 70
     1
102
RTVSPropertyOp19
 70
     1
102
RTVSPropertyOp20
 70
     1
102
RTVSPropertyOp21
 70
     1
102
RTVSPropertyOp22
 70
     1
102
RTVSPropertyOp23
 70
     1
102
RTVSPropertyOp24
 70
     1
102
RTVSPropertyOp25
 70
     1
102
RTVSPropertyOp26
 70
     1
102
RTVSPropertyOp27
 70
     1
102
RTVSPropertyOp28
 70
     1
102
RTVSPropertyOp29
 70
     1
102
RTVSPropertyOp30
 70
     1
102
RTVSPropertyOp31
 70
     1
102
RTVSPropertyOp32
 70
     1
102
RTVSPropertyOp33
 70
     1
102
RTVSPropertyOp34
 70
     1
102
RTVSPropertyOp35
 70
     1
102
RTVSPropertyOp36
 70
     1
102
RTVSPropertyOp37
 70
     1
102
RTVSPropertyOp38
 70
     1
102
RTVSPropertyOp39
 70
     1
102
RTVSPropertyOp40
 70
     1
102
RTVSPropertyOp41
 70
     1
102
RTVSPropertyOp42
 70
     1
102
RTVSPropertyOp43
 70
     1
102
RTVSPropertyOp44
 70
     1
102
RTVSPropertyOp45
 70
     1
102
RTVSPropertyOp46
 70
     1
102
RTVSPropertyOp47
 70
     1
102
RTVSPropertyOp48
 70
     1
102
RTVSPropertyOp49
 70
     1
102
RTVSPropertyOp50
 70
     1
102
RTVSPropertyOp51
 70
     0
102
RTVSPropertyOp52
 70
     0
102
RTVSPropertyOp53
 70
     1
102
RTVSPropertyOp54
 70
     1
102
RTVSPropertyOp55
 70
     1
102
RTVSPropertyOp56
 70
     1
102
RTVSPropertyOp57
 70
     1
102
RTVSPropertyOp58
 70
     1
102
RTVSPropertyOp59
 70
     1
102
RTVSPropertyOp60
 70
     1
102
RTVSPropertyOp61
 70
     1
102
RTVSPropertyOp62
 70
     1
  0
XRECORD
  5
37A
102
{ACAD_REACTORS
330
379
102
}
330
379
100
AcDbXrecord
280
     1
102
RTVSPost2010Prop28
280
     0
102
RTVSPost2010PropOp28
 70
     1
102
RTVSPost2010Prop29
280
     1
102
RTVSPost2010PropOp29
 70
     1
102
RTVSPost2010Prop30
280
     1
102
RTVSPost2010PropOp30
 70
     1
102
RTVSPost2010Prop31
280
     0
102
RTVSPost2010PropOp31
 70
     1
102
RTVSPost2010Prop32
280
     0
102
RTVSPost2010PropOp32
 70
     1
102
RTVSPost2010Prop33
280
     0
102
RTVSPost2010PropOp33
 70
     1
102
RTVSPost2010Prop34
280
     0
102
RTVSPost2010PropOp34
 70
     1
102
RTVSPost2010Prop35
280
     0
102
RTVSPost2010PropOp35
 70
     1
102
RTVSPost2010Prop36
280
     0
102
RTVSPost2010PropOp36
 70
     1
102
RTVSPost2010Prop37
 90
       50
102
RTVSPost2010PropOp37
 70
     1
102
RTVSPost2010Prop38
140
0.0
102
RTVSPost2010PropOp38
 70
     1
102
RTVSPost2010Prop39
140
1.0
102
RTVSPost2010PropOp39
 70
     1
102
RTVSPost2010Prop40
 90
        0
102
RTVSPost2010PropOp40
 70
     1
102
RTVSPost2010Prop41ColorIndex
 90
       18
102
RTVSPost2010Prop41ColorRGB
 90
        0
102
RTVSPost2010PropOp41
 70
     1
102
RTVSPost2010Prop42
 90
       50
102
RTVSPost2010PropOp42
 70
     1
102
RTVSPost2010Prop43
 90
        3
102
RTVSPost2010PropOp43
 70
     1
102
RTVSPost2010Prop44ColorIndex
 90
        5
102
RTVSPost2010Prop44ColorRGB
 90
      255
102
RTVSPost2010PropOp44
 70
     1
102
RTVSPost2010Prop45
280
     0
102
RTVSPost2010PropOp45
 70
     1
102
RTVSPost2010Prop46
 90
       50
102
RTVSPost2010PropOp46
 70
     1
102
RTVSPost2010Prop47
 90
       50
102
RTVSPost2010PropOp47
 70
     1
102
RTVSPost2010Prop48
 90
       50
102
RTVSPost2010PropOp48
 70
     1
102
RTVSPost2010Prop49
280
     0
102
RTVSPost2010PropOp49
 70
     1
102
RTVSPost2010Prop50
 90
       50
102
RTVSPost2010PropOp50
 70
     1
102
RTVSPost2010Prop51ColorIndex
 90
      256
102
RTVSPost2010Prop51ColorRGB
 90
-16777216
102
RTVSPost2010PropOp51
 70
     0
102
RTVSPost2010Prop52
140
1.0
102
RTVSPost2010PropOp52
 70
     0
102
RTVSPost2010Prop53
 90
        2
102
RTVSPost2010PropOp53
 70
     1
102
RTVSPost2010Prop54
  1
strokes_ogs.tif
102
RTVSPost2010PropOp54
 70
     1
102
RTVSPost2010Prop55
280
     0
102
RTVSPost2010PropOp55
 70
     1
102
RTVSPost2010Prop56
140
1.0
102
RTVSPost2010PropOp56
 70
     1
102
RTVSPost2010Prop57
140
1.0
102
RTVSPost2010PropOp57
 70
     1
102
RTVSPropertyOp0
 70
     1
102
RTVSPropertyOp1
 70
     1
102
RTVSPropertyOp2
 70
     1
102
RTVSPropertyOp3
 70
     1
102
RTVSPropertyOp4
 70
     1
102
RTVSPropertyOp5
 70
     1
102
RTVSPropertyOp6
 70
     1
102
RTVSPropertyOp7
 70
     1
102
RTVSPropertyOp8
 70
     1
102
RTVSPropertyOp9
 70
     1
102
RTVSPropertyOp10
 70
     1
102
RTVSPropertyOp11
 70
     1
102
RTVSPropertyOp12
 70
     1
102
RTVSPropertyOp13
 70
     1
102
RTVSPropertyOp14
 70
     1
102
RTVSPropertyOp15
 70
     1
102
RTVSPropertyOp16
 70
     1
102
RTVSPropertyOp17
 70
     1
102
RTVSPropertyOp18
 70
     1
102
RTVSPropertyOp19
 70
     1
102
RTVSPropertyOp20
 70
     1
102
RTVSPropertyOp21
 70
     1
102
RTVSPropertyOp22
 70
     1
102
RTVSPropertyOp23
 70
     1
102
RTVSPropertyOp24
 70
     1
102
RTVSPropertyOp25
 70
     1
102
RTVSPropertyOp26
 70
     1
102
RTVSPropertyOp27
 70
     1
102
RTVSPropertyOp28
 70
     1
102
RTVSPropertyOp29
 70
     1
102
RTVSPropertyOp30
 70
     1
102
RTVSPropertyOp31
 70
     1
102
RTVSPropertyOp32
 70
     1
102
RTVSPropertyOp33
 70
     1
102
RTVSPropertyOp34
 70
     1
102
RTVSPropertyOp35
 70
     1
102
RTVSPropertyOp36
 70
     1
102
RTVSPropertyOp37
 70
     1
102
RTVSPropertyOp38
 70
     1
102
RTVSPropertyOp39
 70
     1
102
RTVSPropertyOp40
 70
     1
102
RTVSPropertyOp41
 70
     1
102
RTVSPropertyOp42
 70
     1
102
RTVSPropertyOp43
 70
     1
102
RTVSPropertyOp44
 70
     1
102
RTVSPropertyOp45
 70
     1
102
RTVSPropertyOp46
 70
     1
102
RTVSPropertyOp47
 70
     1
102
RTVSPropertyOp48
 70
     1
102
RTVSPropertyOp49
 70
     1
102
RTVSPropertyOp50
 70
     1
102
RTVSPropertyOp51
 70
     0
102
RTVSPropertyOp52
 70
     0
102
RTVSPropertyOp53
 70
     1
102
RTVSPropertyOp54
 70
     1
102
RTVSPropertyOp55
 70
     1
102
RTVSPropertyOp56
 70
     1
102
RTVSPropertyOp57
 70
     1
102
RTVSPropertyOp58
 70
     1
102
RTVSPropertyOp59
 70
     1
102
RTVSPropertyOp60
 70
     1
102
RTVSPropertyOp61
 70
     1
102
RTVSPropertyOp62
 70
     1
  0
XRECORD
  5
36A
102
{ACAD_REACTORS
330
369
102
}
330
369
100
AcDbXrecord
280
     1
102
RTVSPost2010Prop28
280
     0
102
RTVSPost2010PropOp28
 70
     1
102
RTVSPost2010Prop29
280
     1
102
RTVSPost2010PropOp29
 70
     1
102
RTVSPost2010Prop30
280
     1
102
RTVSPost2010PropOp30
 70
     1
102
RTVSPost2010Prop31
280
     0
102
RTVSPost2010PropOp31
 70
     1
102
RTVSPost2010Prop32
280
     0
102
RTVSPost2010PropOp32
 70
     1
102
RTVSPost2010Prop33
280
     0
102
RTVSPost2010PropOp33
 70
     1
102
RTVSPost2010Prop34
280
     0
102
RTVSPost2010PropOp34
 70
     1
102
RTVSPost2010Prop35
280
     0
102
RTVSPost2010PropOp35
 70
     1
102
RTVSPost2010Prop36
280
     0
102
RTVSPost2010PropOp36
 70
     1
102
RTVSPost2010Prop37
 90
       50
102
RTVSPost2010PropOp37
 70
     1
102
RTVSPost2010Prop38
140
0.0
102
RTVSPost2010PropOp38
 70
     1
102
RTVSPost2010Prop39
140
1.0
102
RTVSPost2010PropOp39
 70
     1
102
RTVSPost2010Prop40
 90
        0
102
RTVSPost2010PropOp40
 70
     1
102
RTVSPost2010Prop41ColorIndex
 90
       18
102
RTVSPost2010Prop41ColorRGB
 90
        0
102
RTVSPost2010PropOp41
 70
     1
102
RTVSPost2010Prop42
 90
       50
102
RTVSPost2010PropOp42
 70
     1
102
RTVSPost2010Prop43
 90
        3
102
RTVSPost2010PropOp43
 70
     1
102
RTVSPost2010Prop44ColorIndex
 90
        5
102
RTVSPost2010Prop44ColorRGB
 90
      255
102
RTVSPost2010PropOp44
 70
     1
102
RTVSPost2010Prop45
280
     0
102
RTVSPost2010PropOp45
 70
     1
102
RTVSPost2010Prop46
 90
       50
102
RTVSPost2010PropOp46
 70
     1
102
RTVSPost2010Prop47
 90
       50
102
RTVSPost2010PropOp47
 70
     1
102
RTVSPost2010Prop48
 90
       50
102
RTVSPost2010PropOp48
 70
     1
102
RTVSPost2010Prop49
280
     0
102
RTVSPost2010PropOp49
 70
     1
102
RTVSPost2010Prop50
 90
       50
102
RTVSPost2010PropOp50
 70
     1
102
RTVSPost2010Prop51ColorIndex
 90
      256
102
RTVSPost2010Prop51ColorRGB
 90
-16777216
102
RTVSPost2010PropOp51
 70
     0
102
RTVSPost2010Prop52
140
1.0
102
RTVSPost2010PropOp52
 70
     0
102
RTVSPost2010Prop53
 90
        2
102
RTVSPost2010PropOp53
 70
     1
102
RTVSPost2010Prop54
  1
strokes_ogs.tif
102
RTVSPost2010PropOp54
 70
     1
102
RTVSPost2010Prop55
280
     0
102
RTVSPost2010PropOp55
 70
     1
102
RTVSPost2010Prop56
140
1.0
102
RTVSPost2010PropOp56
 70
     1
102
RTVSPost2010Prop57
140
1.0
102
RTVSPost2010PropOp57
 70
     1
102
RTVSPropertyOp0
 70
     1
102
RTVSPropertyOp1
 70
     1
102
RTVSPropertyOp2
 70
     1
102
RTVSPropertyOp3
 70
     1
102
RTVSPropertyOp4
 70
     1
102
RTVSPropertyOp5
 70
     1
102
RTVSPropertyOp6
 70
     1
102
RTVSPropertyOp7
 70
     1
102
RTVSPropertyOp8
 70
     1
102
RTVSPropertyOp9
 70
     1
102
RTVSPropertyOp10
 70
     1
102
RTVSPropertyOp11
 70
     1
102
RTVSPropertyOp12
 70
     1
102
RTVSPropertyOp13
 70
     1
102
RTVSPropertyOp14
 70
     1
102
RTVSPropertyOp15
 70
     1
102
RTVSPropertyOp16
 70
     1
102
RTVSPropertyOp17
 70
     1
102
RTVSPropertyOp18
 70
     1
102
RTVSPropertyOp19
 70
     1
102
RTVSPropertyOp20
 70
     1
102
RTVSPropertyOp21
 70
     1
102
RTVSPropertyOp22
 70
     1
102
RTVSPropertyOp23
 70
     1
102
RTVSPropertyOp24
 70
     1
102
RTVSPropertyOp25
 70
     1
102
RTVSPropertyOp26
 70
     1
102
RTVSPropertyOp27
 70
     1
102
RTVSPropertyOp28
 70
     1
102
RTVSPropertyOp29
 70
     1
102
RTVSPropertyOp30
 70
     1
102
RTVSPropertyOp31
 70
     1
102
RTVSPropertyOp32
 70
     1
102
RTVSPropertyOp33
 70
     1
102
RTVSPropertyOp34
 70
     1
102
RTVSPropertyOp35
 70
     1
102
RTVSPropertyOp36
 70
     1
102
RTVSPropertyOp37
 70
     1
102
RTVSPropertyOp38
 70
     1
102
RTVSPropertyOp39
 70
     1
102
RTVSPropertyOp40
 70
     1
102
RTVSPropertyOp41
 70
     1
102
RTVSPropertyOp42
 70
     1
102
RTVSPropertyOp43
 70
     1
102
RTVSPropertyOp44
 70
     1
102
RTVSPropertyOp45
 70
     1
102
RTVSPropertyOp46
 70
     1
102
RTVSPropertyOp47
 70
     1
102
RTVSPropertyOp48
 70
     1
102
RTVSPropertyOp49
 70
     1
102
RTVSPropertyOp50
 70
     1
102
RTVSPropertyOp51
 70
     0
102
RTVSPropertyOp52
 70
     0
102
RTVSPropertyOp53
 70
     1
102
RTVSPropertyOp54
 70
     1
102
RTVSPropertyOp55
 70
     1
102
RTVSPropertyOp56
 70
     1
102
RTVSPropertyOp57
 70
     1
102
RTVSPropertyOp58
 70
     1
102
RTVSPropertyOp59
 70
     1
102
RTVSPropertyOp60
 70
     1
102
RTVSPropertyOp61
 70
     1
102
RTVSPropertyOp62
 70
     1
  0
XRECORD
  5
35C
102
{ACAD_REACTORS
330
35B
102
}
330
35B
100
AcDbXrecord
280
     1
102
RTVSPost2010Prop28
280
     0
102
RTVSPost2010PropOp28
 70
     1
102
RTVSPost2010Prop29
280
     1
102
RTVSPost2010PropOp29
 70
     1
102
RTVSPost2010Prop30
280
     1
102
RTVSPost2010PropOp30
 70
     1
102
RTVSPost2010Prop31
280
     0
102
RTVSPost2010PropOp31
 70
     1
102
RTVSPost2010Prop32
280
     0
102
RTVSPost2010PropOp32
 70
     1
102
RTVSPost2010Prop33
280
     0
102
RTVSPost2010PropOp33
 70
     1
102
RTVSPost2010Prop34
280
     0
102
RTVSPost2010PropOp34
 70
     1
102
RTVSPost2010Prop35
280
     0
102
RTVSPost2010PropOp35
 70
     1
102
RTVSPost2010Prop36
280
     0
102
RTVSPost2010PropOp36
 70
     1
102
RTVSPost2010Prop37
 90
       50
102
RTVSPost2010PropOp37
 70
     1
102
RTVSPost2010Prop38
140
0.0
102
RTVSPost2010PropOp38
 70
     1
102
RTVSPost2010Prop39
140
1.0
102
RTVSPost2010PropOp39
 70
     1
102
RTVSPost2010Prop40
 90
        0
102
RTVSPost2010PropOp40
 70
     1
102
RTVSPost2010Prop41ColorIndex
 90
       18
102
RTVSPost2010Prop41ColorRGB
 90
        0
102
RTVSPost2010PropOp41
 70
     1
102
RTVSPost2010Prop42
 90
       50
102
RTVSPost2010PropOp42
 70
     1
102
RTVSPost2010Prop43
 90
        3
102
RTVSPost2010PropOp43
 70
     1
102
RTVSPost2010Prop44ColorIndex
 90
        5
102
RTVSPost2010Prop44ColorRGB
 90
      255
102
RTVSPost2010PropOp44
 70
     1
102
RTVSPost2010Prop45
280
     0
102
RTVSPost2010PropOp45
 70
     1
102
RTVSPost2010Prop46
 90
       50
102
RTVSPost2010PropOp46
 70
     1
102
RTVSPost2010Prop47
 90
       50
102
RTVSPost2010PropOp47
 70
     1
102
RTVSPost2010Prop48
 90
       50
102
RTVSPost2010PropOp48
 70
     1
102
RTVSPost2010Prop49
280
     0
102
RTVSPost2010PropOp49
 70
     1
102
RTVSPost2010Prop50
 90
       50
102
RTVSPost2010PropOp50
 70
     1
102
RTVSPost2010Prop51ColorIndex
 90
      256
102
RTVSPost2010Prop51ColorRGB
 90
-16777216
102
RTVSPost2010PropOp51
 70
     0
102
RTVSPost2010Prop52
140
1.0
102
RTVSPost2010PropOp52
 70
     0
102
RTVSPost2010Prop53
 90
        2
102
RTVSPost2010PropOp53
 70
     1
102
RTVSPost2010Prop54
  1
strokes_ogs.tif
102
RTVSPost2010PropOp54
 70
     1
102
RTVSPost2010Prop55
280
     0
102
RTVSPost2010PropOp55
 70
     1
102
RTVSPost2010Prop56
140
1.0
102
RTVSPost2010PropOp56
 70
     1
102
RTVSPost2010Prop57
140
1.0
102
RTVSPost2010PropOp57
 70
     1
102
RTVSPropertyOp0
 70
     1
102
RTVSPropertyOp1
 70
     1
102
RTVSPropertyOp2
 70
     1
102
RTVSPropertyOp3
 70
     1
102
RTVSPropertyOp4
 70
     1
102
RTVSPropertyOp5
 70
     1
102
RTVSPropertyOp6
 70
     1
102
RTVSPropertyOp7
 70
     1
102
RTVSPropertyOp8
 70
     1
102
RTVSPropertyOp9
 70
     1
102
RTVSPropertyOp10
 70
     1
102
RTVSPropertyOp11
 70
     1
102
RTVSPropertyOp12
 70
     1
102
RTVSPropertyOp13
 70
     1
102
RTVSPropertyOp14
 70
     1
102
RTVSPropertyOp15
 70
     1
102
RTVSPropertyOp16
 70
     1
102
RTVSPropertyOp17
 70
     1
102
RTVSPropertyOp18
 70
     1
102
RTVSPropertyOp19
 70
     1
102
RTVSPropertyOp20
 70
     1
102
RTVSPropertyOp21
 70
     1
102
RTVSPropertyOp22
 70
     1
102
RTVSPropertyOp23
 70
     1
102
RTVSPropertyOp24
 70
     1
102
RTVSPropertyOp25
 70
     1
102
RTVSPropertyOp26
 70
     1
102
RTVSPropertyOp27
 70
     1
102
RTVSPropertyOp28
 70
     1
102
RTVSPropertyOp29
 70
     1
102
RTVSPropertyOp30
 70
     1
102
RTVSPropertyOp31
 70
     1
102
RTVSPropertyOp32
 70
     1
102
RTVSPropertyOp33
 70
     1
102
RTVSPropertyOp34
 70
     1
102
RTVSPropertyOp35
 70
     1
102
RTVSPropertyOp36
 70
     1
102
RTVSPropertyOp37
 70
     1
102
RTVSPropertyOp38
 70
     1
102
RTVSPropertyOp39
 70
     1
102
RTVSPropertyOp40
 70
     1
102
RTVSPropertyOp41
 70
     1
102
RTVSPropertyOp42
 70
     1
102
RTVSPropertyOp43
 70
     1
102
RTVSPropertyOp44
 70
     1
102
RTVSPropertyOp45
 70
     1
102
RTVSPropertyOp46
 70
     1
102
RTVSPropertyOp47
 70
     1
102
RTVSPropertyOp48
 70
     1
102
RTVSPropertyOp49
 70
     1
102
RTVSPropertyOp50
 70
     1
102
RTVSPropertyOp51
 70
     0
102
RTVSPropertyOp52
 70
     0
102
RTVSPropertyOp53
 70
     1
102
RTVSPropertyOp54
 70
     1
102
RTVSPropertyOp55
 70
     1
102
RTVSPropertyOp56
 70
     1
102
RTVSPropertyOp57
 70
     1
102
RTVSPropertyOp58
 70
     1
102
RTVSPropertyOp59
 70
     1
102
RTVSPropertyOp60
 70
     1
102
RTVSPropertyOp61
 70
     1
102
RTVSPropertyOp62
 70
     1
  0
XRECORD
  5
37C
102
{ACAD_REACTORS
330
37B
102
}
330
37B
100
AcDbXrecord
280
     1
102
RTVSPost2010Prop28
280
     0
102
RTVSPost2010PropOp28
 70
     1
102
RTVSPost2010Prop29
280
     1
102
RTVSPost2010PropOp29
 70
     1
102
RTVSPost2010Prop30
280
     1
102
RTVSPost2010PropOp30
 70
     1
102
RTVSPost2010Prop31
280
     0
102
RTVSPost2010PropOp31
 70
     1
102
RTVSPost2010Prop32
280
     0
102
RTVSPost2010PropOp32
 70
     1
102
RTVSPost2010Prop33
280
     0
102
RTVSPost2010PropOp33
 70
     1
102
RTVSPost2010Prop34
280
     0
102
RTVSPost2010PropOp34
 70
     1
102
RTVSPost2010Prop35
280
     0
102
RTVSPost2010PropOp35
 70
     1
102
RTVSPost2010Prop36
280
     0
102
RTVSPost2010PropOp36
 70
     1
102
RTVSPost2010Prop37
 90
       50
102
RTVSPost2010PropOp37
 70
     1
102
RTVSPost2010Prop38
140
0.0
102
RTVSPost2010PropOp38
 70
     1
102
RTVSPost2010Prop39
140
1.0
102
RTVSPost2010PropOp39
 70
     1
102
RTVSPost2010Prop40
 90
        0
102
RTVSPost2010PropOp40
 70
     1
102
RTVSPost2010Prop41ColorIndex
 90
       18
102
RTVSPost2010Prop41ColorRGB
 90
        0
102
RTVSPost2010PropOp41
 70
     1
102
RTVSPost2010Prop42
 90
       50
102
RTVSPost2010PropOp42
 70
     1
102
RTVSPost2010Prop43
 90
        3
102
RTVSPost2010PropOp43
 70
     1
102
RTVSPost2010Prop44ColorIndex
 90
        5
102
RTVSPost2010Prop44ColorRGB
 90
      255
102
RTVSPost2010PropOp44
 70
     1
102
RTVSPost2010Prop45
280
     0
102
RTVSPost2010PropOp45
 70
     1
102
RTVSPost2010Prop46
 90
       50
102
RTVSPost2010PropOp46
 70
     1
102
RTVSPost2010Prop47
 90
       50
102
RTVSPost2010PropOp47
 70
     1
102
RTVSPost2010Prop48
 90
       50
102
RTVSPost2010PropOp48
 70
     1
102
RTVSPost2010Prop49
280
     0
102
RTVSPost2010PropOp49
 70
     1
102
RTVSPost2010Prop50
 90
       50
102
RTVSPost2010PropOp50
 70
     1
102
RTVSPost2010Prop51ColorIndex
 90
      256
102
RTVSPost2010Prop51ColorRGB
 90
-16777216
102
RTVSPost2010PropOp51
 70
     0
102
RTVSPost2010Prop52
140
1.0
102
RTVSPost2010PropOp52
 70
     0
102
RTVSPost2010Prop53
 90
        2
102
RTVSPost2010PropOp53
 70
     1
102
RTVSPost2010Prop54
  1
strokes_ogs.tif
102
RTVSPost2010PropOp54
 70
     1
102
RTVSPost2010Prop55
280
     0
102
RTVSPost2010PropOp55
 70
     1
102
RTVSPost2010Prop56
140
1.0
102
RTVSPost2010PropOp56
 70
     1
102
RTVSPost2010Prop57
140
1.0
102
RTVSPost2010PropOp57
 70
     1
102
RTVSPropertyOp0
 70
     1
102
RTVSPropertyOp1
 70
     1
102
RTVSPropertyOp2
 70
     1
102
RTVSPropertyOp3
 70
     1
102
RTVSPropertyOp4
 70
     1
102
RTVSPropertyOp5
 70
     1
102
RTVSPropertyOp6
 70
     1
102
RTVSPropertyOp7
 70
     1
102
RTVSPropertyOp8
 70
     1
102
RTVSPropertyOp9
 70
     1
102
RTVSPropertyOp10
 70
     1
102
RTVSPropertyOp11
 70
     1
102
RTVSPropertyOp12
 70
     1
102
RTVSPropertyOp13
 70
     1
102
RTVSPropertyOp14
 70
     1
102
RTVSPropertyOp15
 70
     1
102
RTVSPropertyOp16
 70
     1
102
RTVSPropertyOp17
 70
     1
102
RTVSPropertyOp18
 70
     1
102
RTVSPropertyOp19
 70
     1
102
RTVSPropertyOp20
 70
     1
102
RTVSPropertyOp21
 70
     1
102
RTVSPropertyOp22
 70
     1
102
RTVSPropertyOp23
 70
     1
102
RTVSPropertyOp24
 70
     1
102
RTVSPropertyOp25
 70
     1
102
RTVSPropertyOp26
 70
     1
102
RTVSPropertyOp27
 70
     1
102
RTVSPropertyOp28
 70
     1
102
RTVSPropertyOp29
 70
     1
102
RTVSPropertyOp30
 70
     1
102
RTVSPropertyOp31
 70
     1
102
RTVSPropertyOp32
 70
     1
102
RTVSPropertyOp33
 70
     1
102
RTVSPropertyOp34
 70
     1
102
RTVSPropertyOp35
 70
     1
102
RTVSPropertyOp36
 70
     1
102
RTVSPropertyOp37
 70
     1
102
RTVSPropertyOp38
 70
     1
102
RTVSPropertyOp39
 70
     1
102
RTVSPropertyOp40
 70
     1
102
RTVSPropertyOp41
 70
     1
102
RTVSPropertyOp42
 70
     1
102
RTVSPropertyOp43
 70
     1
102
RTVSPropertyOp44
 70
     1
102
RTVSPropertyOp45
 70
     1
102
RTVSPropertyOp46
 70
     1
102
RTVSPropertyOp47
 70
     1
102
RTVSPropertyOp48
 70
     1
102
RTVSPropertyOp49
 70
     1
102
RTVSPropertyOp50
 70
     1
102
RTVSPropertyOp51
 70
     0
102
RTVSPropertyOp52
 70
     0
102
RTVSPropertyOp53
 70
     1
102
RTVSPropertyOp54
 70
     1
102
RTVSPropertyOp55
 70
     1
102
RTVSPropertyOp56
 70
     1
102
RTVSPropertyOp57
 70
     1
102
RTVSPropertyOp58
 70
     1
102
RTVSPropertyOp59
 70
     1
102
RTVSPropertyOp60
 70
     1
102
RTVSPropertyOp61
 70
     1
102
RTVSPropertyOp62
 70
     1
  0
ENDSEC
  0
EOF
