  0
SECTION
  2
HEADER
  9
$ACADVER
  1
AC1018
  9
$ACADMAINTVER
 70
   104
  9
$DWGCODEPAGE
  3
ANSI_1250
  9
$LASTSAVEDBY
  1
hc7230
  9
$INSBASE
 10
0.0
 20
0.0
 30
0.0
  9
$EXTMIN
 10
163.4925353333333
 20
213.1691216666665
 30
0.0
  9
$EXTMAX
 10
334.387067
 20
297.4554926666666
 30
0.0
  9
$LIMMIN
 10
-0.5
 20
-0.5
  9
$LIMMAX
 10
5.0
 20
5.0
  9
$ORTHOMODE
 70
     0
  9
$REGENMODE
 70
     1
  9
$FILLMODE
 70
     1
  9
$QTEXTMODE
 70
     0
  9
$MIRRTEXT
 70
     1
  9
$LTSCALE
 40
1.0
  9
$ATTMODE
 70
     1
  9
$TEXTSIZE
 40
0.2
  9
$TRACEWID
 40
0.05
  9
$TEXTSTYLE
  7
Standard
  9
$CLAYER
  8
0
  9
$CELTYPE
  6
ByLayer
  9
$CECOLOR
 62
   256
  9
$CELTSCALE
 40
1.0
  9
$DISPSILH
 70
     0
  9
$DIMSCALE
 40
1.0
  9
$DIMASZ
 40
0.18
  9
$DIMEXO
 40
0.0625
  9
$DIMDLI
 40
0.38
  9
$DIMRND
 40
0.0
  9
$DIMDLE
 40
0.0
  9
$DIMEXE
 40
0.18
  9
$DIMTP
 40
0.0
  9
$DIMTM
 40
0.0
  9
$DIMTXT
 40
0.18
  9
$DIMCEN
 40
0.09
  9
$DIMTSZ
 40
0.0
  9
$DIMTOL
 70
     0
  9
$DIMLIM
 70
     0
  9
$DIMTIH
 70
     1
  9
$DIMTOH
 70
     1
  9
$DIMSE1
 70
     0
  9
$DIMSE2
 70
     0
  9
$DIMTAD
 70
     0
  9
$DIMZIN
 70
     0
  9
$DIMBLK
  1

  9
$DIMASO
 70
     1
  9
$DIMSHO
 70
     1
  9
$DIMPOST
  1

  9
$DIMAPOST
  1

  9
$DIMALT
 70
     0
  9
$DIMALTD
 70
     2
  9
$DIMALTF
 40
25.4
  9
$DIMLFAC
 40
1.0
  9
$DIMTOFL
 70
     0
  9
$DIMTVP
 40
0.0
  9
$DIMTIX
 70
     0
  9
$DIMSOXD
 70
     0
  9
$DIMSAH
 70
     0
  9
$DIMBLK1
  1

  9
$DIMBLK2
  1

  9
$DIMSTYLE
  2
Standard
  9
$DIMCLRD
 70
     0
  9
$DIMCLRE
 70
     0
  9
$DIMCLRT
 70
     0
  9
$DIMTFAC
 40
1.0
  9
$DIMGAP
 40
0.09
  9
$DIMJUST
 70
     0
  9
$DIMSD1
 70
     0
  9
$DIMSD2
 70
     0
  9
$DIMTOLJ
 70
     1
  9
$DIMTZIN
 70
     0
  9
$DIMALTZ
 70
     0
  9
$DIMALTTZ
 70
     0
  9
$DIMUPT
 70
     0
  9
$DIMDEC
 70
     4
  9
$DIMTDEC
 70
     4
  9
$DIMALTU
 70
     2
  9
$DIMALTTD
 70
     2
  9
$DIMTXSTY
  7
Standard
  9
$DIMAUNIT
 70
     0
  9
$DIMADEC
 70
     0
  9
$DIMALTRND
 40
0.0
  9
$DIMAZIN
 70
     0
  9
$DIMDSEP
 70
    46
  9
$DIMATFIT
 70
     3
  9
$DIMFRAC
 70
     0
  9
$DIMLDRBLK
  1

  9
$DIMLUNIT
 70
     2
  9
$DIMLWD
 70
    -2
  9
$DIMLWE
 70
    -2
  9
$DIMTMOVE
 70
     0
  9
$LUNITS
 70
     2
  9
$LUPREC
 70
     4
  9
$SKETCHINC
 40
0.1
  9
$FILLETRAD
 40
0.5
  9
$AUNITS
 70
     0
  9
$AUPREC
 70
     0
  9
$MENU
  1
.
  9
$ELEVATION
 40
0.0
  9
$PELEVATION
 40
0.0
  9
$THICKNESS
 40
0.0
  9
$LIMCHECK
 70
     0
  9
$CHAMFERA
 40
0.0
  9
$CHAMFERB
 40
0.0
  9
$CHAMFERC
 40
0.0
  9
$CHAMFERD
 40
0.0
  9
$SKPOLY
 70
     0
  9
$TDCREATE
 40
2458836.424236111
  9
$TDUCREATE
 40
2458836.382580579
  9
$TDUPDATE
 40
2458836.426296296
  9
$TDUUPDATE
 40
2458836.384629630
  9
$TDINDWG
 40
0.0002893634
  9
$TDUSRTIMER
 40
0.0002893634
  9
$USRTIMER
 70
     1
  9
$ANGBASE
 50
0.0
  9
$ANGDIR
 70
     0
  9
$PDMODE
 70
     0
  9
$PDSIZE
 40
0.0
  9
$PLINEWID
 40
0.0
  9
$SPLFRAME
 70
     0
  9
$SPLINETYPE
 70
     6
  9
$SPLINESEGS
 70
     8
  9
$HANDSEED
  5
38B
  9
$SURFTAB1
 70
     6
  9
$SURFTAB2
 70
     6
  9
$SURFTYPE
 70
     6
  9
$SURFU
 70
     6
  9
$SURFV
 70
     6
  9
$UCSBASE
  2

  9
$UCSNAME
  2

  9
$UCSORG
 10
237.144248
 20
243.731161
 30
0.0
  9
$UCSXDIR
 10
1.0
 20
0.0
 30
0.0
  9
$UCSYDIR
 10
0.0
 20
1.0
 30
0.0
  9
$UCSORTHOREF
  2

  9
$UCSORTHOVIEW
 70
     0
  9
$UCSORGTOP
 10
0.0
 20
0.0
 30
0.0
  9
$UCSORGBOTTOM
 10
0.0
 20
0.0
 30
0.0
  9
$UCSORGLEFT
 10
0.0
 20
0.0
 30
0.0
  9
$UCSORGRIGHT
 10
0.0
 20
0.0
 30
0.0
  9
$UCSORGFRONT
 10
0.0
 20
0.0
 30
0.0
  9
$UCSORGBACK
 10
0.0
 20
0.0
 30
0.0
  9
$PUCSBASE
  2

  9
$PUCSNAME
  2

  9
$PUCSORG
 10
0.0
 20
0.0
 30
0.0
  9
$PUCSXDIR
 10
1.0
 20
0.0
 30
0.0
  9
$PUCSYDIR
 10
0.0
 20
1.0
 30
0.0
  9
$PUCSORTHOREF
  2

  9
$PUCSORTHOVIEW
 70
     0
  9
$PUCSORGTOP
 10
0.0
 20
0.0
 30
0.0
  9
$PUCSORGBOTTOM
 10
0.0
 20
0.0
 30
0.0
  9
$PUCSORGLEFT
 10
0.0
 20
0.0
 30
0.0
  9
$PUCSORGRIGHT
 10
0.0
 20
0.0
 30
0.0
  9
$PUCSORGFRONT
 10
0.0
 20
0.0
 30
0.0
  9
$PUCSORGBACK
 10
0.0
 20
0.0
 30
0.0
  9
$USERI1
 70
     0
  9
$USERI2
 70
     0
  9
$USERI3
 70
     0
  9
$USERI4
 70
     0
  9
$USERI5
 70
     0
  9
$USERR1
 40
0.0
  9
$USERR2
 40
0.0
  9
$USERR3
 40
0.0
  9
$USERR4
 40
0.0
  9
$USERR5
 40
0.0
  9
$WORLDVIEW
 70
     1
  9
$SHADEDGE
 70
     3
  9
$SHADEDIF
 70
    70
  9
$TILEMODE
 70
     1
  9
$MAXACTVP
 70
    64
  9
$PINSBASE
 10
0.0
 20
0.0
 30
0.0
  9
$PLIMCHECK
 70
     0
  9
$PEXTMIN
 10
-0.5
 20
-0.5
 30
-0.5
  9
$PEXTMAX
 10
5.0
 20
5.0
 30
5.0
  9
$PLIMMIN
 10
-0.5
 20
-0.5
  9
$PLIMMAX
 10
5.0
 20
5.0
  9
$UNITMODE
 70
     0
  9
$VISRETAIN
 70
     1
  9
$PLINEGEN
 70
     0
  9
$PSLTSCALE
 70
     1
  9
$TREEDEPTH
 70
  3020
  9
$CMLSTYLE
  2
Standard
  9
$CMLJUST
 70
     0
  9
$CMLSCALE
 40
1.0
  9
$PROXYGRAPHICS
 70
     1
  9
$MEASUREMENT
 70
     1
  9
$CELWEIGHT
370
    13
  9
$ENDCAPS
280
     0
  9
$JOINSTYLE
280
     0
  9
$LWDISPLAY
290
     0
  9
$INSUNITS
 70
     4
  9
$HYPERLINKBASE
  1

  9
$STYLESHEET
  1

  9
$XEDIT
290
     1
  9
$CEPSNTYPE
380
     0
  9
$PSTYLEMODE
290
     1
  9
$FINGERPRINTGUID
  2
{EB1181BA-BC81-44BF-9A9F-37A70C65AD87}
  9
$VERSIONGUID
  2
{2FB14B79-5553-AE44-93E4-D70E848D1F4C}
  9
$EXTNAMES
290
     1
  9
$PSVPSCALE
 40
0.0
  9
$OLESTARTUP
290
     0
  9
$SORTENTS
280
   127
  9
$INDEXCTL
280
     0
  9
$HIDETEXT
280
     1
  9
$XCLIPFRAME
290
     0
  9
$HALOGAP
280
     0
  9
$OBSCOLOR
 70
   257
  9
$OBSLTYPE
280
     0
  9
$INTERSECTIONDISPLAY
280
     0
  9
$INTERSECTIONCOLOR
 70
   257
  9
$DIMASSOC
280
     2
  9
$PROJECTNAME
  1

  0
ENDSEC
  0
SECTION
  2
CLASSES
  0
CLASS
  1
ACDBDICTIONARYWDFLT
  2
AcDbDictionaryWithDefault
  3
ObjectDBX Classes
 90
        0
 91
        1
280
     0
281
     0
  0
CLASS
  1
VISUALSTYLE
  2
AcDbVisualStyle
  3
ObjectDBX Classes
 90
     4095
 91
       24
280
     0
281
     0
  0
CLASS
  1
MATERIAL
  2
AcDbMaterial
  3
ObjectDBX Classes
 90
     1153
 91
        3
280
     0
281
     0
  0
CLASS
  1
SCALE
  2
AcDbScale
  3
ObjectDBX Classes
 90
     1153
 91
       33
280
     0
281
     0
  0
CLASS
  1
TABLESTYLE
  2
AcDbTableStyle
  3
ObjectDBX Classes
 90
     4095
 91
        1
280
     0
281
     0
  0
CLASS
  1
MLEADERSTYLE
  2
AcDbMLeaderStyle
  3
ACDB_MLEADERSTYLE_CLASS
 90
     4095
 91
        1
280
     0
281
     0
  0
CLASS
  1
SUN
  2
AcDbSun
  3
SCENEOE
 90
     1153
 91
        0
280
     0
281
     0
  0
CLASS
  1
DIMASSOC
  2
AcDbDimAssoc
  3
"AcDbDimAssoc|Product Desc:     AcDim ARX App For Dimension|Company:          Autodesk, Inc.|WEB Address:      www.autodesk.com"
 90
        0
 91
        6
280
     0
281
     0
  0
CLASS
  1
DICTIONARYVAR
  2
AcDbDictionaryVar
  3
ObjectDBX Classes
 90
        0
 91
        8
280
     0
281
     0
  0
CLASS
  1
CELLSTYLEMAP
  2
AcDbCellStyleMap
  3
ObjectDBX Classes
 90
     1152
 91
        2
280
     0
281
     0
  0
CLASS
  1
ACDBSECTIONVIEWSTYLE
  2
AcDbSectionViewStyle
  3
ObjectDBX Classes
 90
     1025
 91
        1
280
     0
281
     0
  0
CLASS
  1
ACDBDETAILVIEWSTYLE
  2
AcDbDetailViewStyle
  3
ObjectDBX Classes
 90
     1025
 91
        1
280
     0
281
     0
  0
CLASS
  1
SORTENTSTABLE
  2
AcDbSortentsTable
  3
ObjectDBX Classes
 90
        0
 91
        1
280
     0
281
     0
  0
ENDSEC
  0
SECTION
  2
TABLES
  0
TABLE
  2
VPORT
  5
8
330
0
100
AcDbSymbolTable
 70
    16
  0
VPORT
  5
29
330
8
100
AcDbSymbolTableRecord
100
AcDbViewportTableRecord
  2
*Active
 70
     0
 10
0.0
 20
0.0
 11
1.0
 21
1.0
 12
281.1848757172537
 22
266.1832649278513
 13
0.0
 23
0.0
 14
0.5
 24
0.5
 15
0.5
 25
0.5
 16
0.0
 26
0.0
 36
1.0
 17
0.0
 27
0.0
 37
0.0
 40
202.0293631373626
 41
2.283154121863799
 42
50.0
 43
290.321299
 44
-290.321299
 50
0.0
 51
0.0
 71
     0
 72
   100
 73
     1
 74
     3
 75
     0
 76
     0
 77
     0
 78
     0
281
     0
 65
     1
110
237.144248
120
243.731161
130
0.0
111
1.0
121
0.0
131
0.0
112
0.0
122
1.0
132
0.0
 79
     0
146
0.0
1001
ACAD_NAV_VCDISPLAY
1070
     3
  0
VPORT
  5
24F
330
8
100
AcDbSymbolTableRecord
100
AcDbViewportTableRecord
  2
L1
 70
     0
 10
0.0
 20
0.0
 11
1.0
 21
1.0
 12
248.435585
 22
255.321472
 13
0.0
 23
0.0
 14
0.5
 24
0.5
 15
0.5
 25
0.5
 16
0.0
 26
0.0
 36
1.0
 17
0.0
 27
0.0
 37
0.0
 40
209.020833
 41
0.084952
 42
50.0
 43
290.321299
 44
-290.321299
 50
0.0
 51
0.0
 71
     0
 72
   100
 73
     1
 74
     3
 75
     0
 76
     0
 77
     0
 78
     0
281
     0
 65
     1
110
0.0
120
0.0
130
0.0
111
1.0
121
0.0
131
0.0
112
0.0
122
1.0
132
0.0
 79
     0
146
0.0
  0
VPORT
  5
250
330
8
100
AcDbSymbolTableRecord
100
AcDbViewportTableRecord
  2
L2
 70
     0
 10
0.0
 20
0.0
 11
0.5
 21
1.0
 12
0.0
 22
0.0
 13
0.0
 23
0.0
 14
0.5
 24
0.5
 15
0.5
 25
0.5
 16
0.0
 26
-1.0
 36
0.0
 17
0.0
 27
0.0
 37
0.0
 40
1496.710499
 41
0.011864
 42
50.0
 43
774.8657309999999
 44
-774.8657309999999
 50
0.0
 51
0.0
 71
     0
 72
   100
 73
     1
 74
     3
 75
     0
 76
     0
 77
     0
 78
     0
281
     0
 65
     1
110
0.0
120
0.0
130
0.0
111
1.0
121
0.0
131
0.0
112
0.0
122
1.0
132
0.0
 79
     0
146
0.0
  0
VPORT
  5
251
330
8
100
AcDbSymbolTableRecord
100
AcDbViewportTableRecord
  2
L2
 70
     0
 10
0.5
 20
0.0
 11
1.0
 21
1.0
 12
0.0
 22
0.0
 13
0.0
 23
0.0
 14
0.5
 24
0.5
 15
0.5
 25
0.5
 16
1.0
 26
0.0
 36
0.0
 17
0.0
 27
0.0
 37
0.0
 40
1496.710499
 41
0.011864
 42
50.0
 43
755.6176329999999
 44
-755.6176329999999
 50
0.0
 51
0.0
 71
     0
 72
   100
 73
     1
 74
     3
 75
     0
 76
     0
 77
     0
 78
     0
281
     0
 65
     1
110
0.0
120
0.0
130
0.0
111
1.0
121
0.0
131
0.0
112
0.0
122
1.0
132
0.0
 79
     0
146
0.0
  0
VPORT
  5
252
330
8
100
AcDbSymbolTableRecord
100
AcDbViewportTableRecord
  2
L3
 70
     0
 10
0.0
 20
0.5
 11
1.0
 21
1.0
 12
248.435585
 22
255.321472
 13
0.0
 23
0.0
 14
0.5
 24
0.5
 15
0.5
 25
0.5
 16
0.0
 26
0.0
 36
1.0
 17
0.0
 27
0.0
 37
0.0
 40
209.020833
 41
0.084952
 42
50.0
 43
290.321299
 44
-290.321299
 50
0.0
 51
0.0
 71
     0
 72
   100
 73
     1
 74
     3
 75
     0
 76
     0
 77
     0
 78
     0
281
     0
 65
     1
110
0.0
120
0.0
130
0.0
111
1.0
121
0.0
131
0.0
112
0.0
122
1.0
132
0.0
 79
     0
146
0.0
  0
VPORT
  5
253
330
8
100
AcDbSymbolTableRecord
100
AcDbViewportTableRecord
  2
L3
 70
     0
 10
0.0
 20
0.0
 11
1.0
 21
0.5
 12
0.0
 22
0.0
 13
0.0
 23
0.0
 14
0.5
 24
0.5
 15
0.5
 25
0.5
 16
0.0
 26
-1.0
 36
0.0
 17
0.0
 27
0.0
 37
0.0
 40
1496.710499
 41
0.011864
 42
50.0
 43
774.8657309999999
 44
-774.8657309999999
 50
0.0
 51
0.0
 71
     0
 72
   100
 73
     1
 74
     3
 75
     0
 76
     0
 77
     0
 78
     0
281
     0
 65
     1
110
0.0
120
0.0
130
0.0
111
1.0
121
0.0
131
0.0
112
0.0
122
1.0
132
0.0
 79
     0
146
0.0
  0
VPORT
  5
254
330
8
100
AcDbSymbolTableRecord
100
AcDbViewportTableRecord
  2
L4
 70
     0
 10
0.0
 20
0.5
 11
0.5
 21
1.0
 12
248.435585
 22
255.321472
 13
0.0
 23
0.0
 14
0.5
 24
0.5
 15
0.5
 25
0.5
 16
0.0
 26
0.0
 36
1.0
 17
0.0
 27
0.0
 37
0.0
 40
209.020833
 41
0.084952
 42
50.0
 43
290.321299
 44
-290.321299
 50
0.0
 51
0.0
 71
     0
 72
   100
 73
     1
 74
     3
 75
     0
 76
     0
 77
     0
 78
     0
281
     0
 65
     1
110
0.0
120
0.0
130
0.0
111
1.0
121
0.0
131
0.0
112
0.0
122
1.0
132
0.0
 79
     0
146
0.0
  0
VPORT
  5
255
330
8
100
AcDbSymbolTableRecord
100
AcDbViewportTableRecord
  2
L4
 70
     0
 10
0.0
 20
0.0
 11
0.5
 21
0.5
 12
0.0
 22
0.0
 13
0.0
 23
0.0
 14
0.5
 24
0.5
 15
0.5
 25
0.5
 16
0.0
 26
-1.0
 36
0.0
 17
0.0
 27
0.0
 37
0.0
 40
1496.710499
 41
0.011864
 42
50.0
 43
774.8657309999999
 44
-774.8657309999999
 50
0.0
 51
0.0
 71
     0
 72
   100
 73
     1
 74
     3
 75
     0
 76
     0
 77
     0
 78
     0
281
     0
 65
     1
110
0.0
120
0.0
130
0.0
111
1.0
121
0.0
131
0.0
112
0.0
122
1.0
132
0.0
 79
     0
146
0.0
  0
VPORT
  5
256
330
8
100
AcDbSymbolTableRecord
100
AcDbViewportTableRecord
  2
L4
 70
     0
 10
0.5
 20
0.0
 11
1.0
 21
0.5
 12
0.0
 22
0.0
 13
0.0
 23
0.0
 14
0.5
 24
0.5
 15
0.5
 25
0.5
 16
1.0
 26
0.0
 36
0.0
 17
0.0
 27
0.0
 37
0.0
 40
1496.710499
 41
0.011864
 42
50.0
 43
755.6176329999999
 44
-755.6176329999999
 50
0.0
 51
0.0
 71
     0
 72
   100
 73
     1
 74
     3
 75
     0
 76
     0
 77
     0
 78
     0
281
     0
 65
     1
110
0.0
120
0.0
130
0.0
111
1.0
121
0.0
131
0.0
112
0.0
122
1.0
132
0.0
 79
     0
146
0.0
  0
VPORT
  5
257
330
8
100
AcDbSymbolTableRecord
100
AcDbViewportTableRecord
  2
L4
 70
     0
 10
0.5
 20
0.5
 11
1.0
 21
1.0
 12
0.0
 22
0.0
 13
0.0
 23
0.0
 14
0.5
 24
0.5
 15
0.5
 25
0.5
 16
0.5773502691896259
 26
-0.5773502691896259
 36
0.5773502691896259
 17
0.0
 27
0.0
 37
0.0
 40
1471.467242
 41
0.012067
 42
50.0
 43
766.783745
 44
-766.783745
 50
0.0
 51
0.0
 71
     0
 72
   100
 73
     1
 74
     3
 75
     0
 76
     0
 77
     0
 78
     0
281
     0
 65
     1
110
0.0
120
0.0
130
0.0
111
1.0
121
0.0
131
0.0
112
0.0
122
1.0
132
0.0
 79
     0
146
0.0
  0
VPORT
  5
258
330
8
100
AcDbSymbolTableRecord
100
AcDbViewportTableRecord
  2
L6
 70
     0
 10
0.0
 20
0.5
 11
0.333333
 21
1.0
 12
0.0
 22
0.0
 13
0.0
 23
0.0
 14
0.5
 24
0.5
 15
0.5
 25
0.5
 16
0.7188730927569434
 26
-0.5850486126764433
 36
0.3754192287502549
 17
0.0
 27
0.0
 37
0.0
 40
1553.790414
 41
0.011428
 42
50.0
 43
804.2324119999999
 44
-804.2324119999999
 50
0.0
 51
0.0
 71
     0
 72
   100
 73
     1
 74
     3
 75
     0
 76
     0
 77
     0
 78
     0
281
     0
 65
     1
110
0.0
120
0.0
130
0.0
111
1.0
121
0.0
131
0.0
112
0.0
122
1.0
132
0.0
 79
     0
146
0.0
  0
VPORT
  5
259
330
8
100
AcDbSymbolTableRecord
100
AcDbViewportTableRecord
  2
L6
 70
     0
 10
0.0
 20
0.0
 11
0.333333
 21
0.5
 12
0.0
 22
0.0
 13
0.0
 23
0.0
 14
0.5
 24
0.5
 15
0.5
 25
0.5
 16
-1.0
 26
0.0
 36
0.0
 17
0.0
 27
0.0
 37
0.0
 40
1496.710499
 41
0.011864
 42
50.0
 43
755.6176329999999
 44
-755.6176329999999
 50
0.0
 51
0.0
 71
     0
 72
   100
 73
     1
 74
     3
 75
     0
 76
     0
 77
     0
 78
     0
281
     0
 65
     1
110
0.0
120
0.0
130
0.0
111
1.0
121
0.0
131
0.0
112
0.0
122
1.0
132
0.0
 79
     0
146
0.0
  0
VPORT
  5
25A
330
8
100
AcDbSymbolTableRecord
100
AcDbViewportTableRecord
  2
L6
 70
     0
 10
0.333333
 20
0.5
 11
0.666667
 21
1.0
 12
248.435585
 22
255.321472
 13
0.0
 23
0.0
 14
0.5
 24
0.5
 15
0.5
 25
0.5
 16
0.0
 26
0.0
 36
1.0
 17
0.0
 27
0.0
 37
0.0
 40
209.020833
 41
0.084952
 42
50.0
 43
290.321299
 44
-290.321299
 50
0.0
 51
0.0
 71
     0
 72
   100
 73
     1
 74
     3
 75
     0
 76
     0
 77
     0
 78
     0
281
     0
 65
     1
110
0.0
120
0.0
130
0.0
111
1.0
121
0.0
131
0.0
112
0.0
122
1.0
132
0.0
 79
     0
146
0.0
  0
VPORT
  5
25B
330
8
100
AcDbSymbolTableRecord
100
AcDbViewportTableRecord
  2
L6
 70
     0
 10
0.333333
 20
0.0
 11
0.666667
 21
0.5
 12
0.0
 22
0.0
 13
0.0
 23
0.0
 14
0.5
 24
0.5
 15
0.5
 25
0.5
 16
0.0
 26
-1.0
 36
0.0
 17
0.0
 27
0.0
 37
0.0
 40
1496.710499
 41
0.011864
 42
50.0
 43
774.8657309999999
 44
-774.8657309999999
 50
0.0
 51
0.0
 71
     0
 72
   100
 73
     1
 74
     3
 75
     0
 76
     0
 77
     0
 78
     0
281
     0
 65
     1
110
0.0
120
0.0
130
0.0
111
1.0
121
0.0
131
0.0
112
0.0
122
1.0
132
0.0
 79
     0
146
0.0
  0
VPORT
  5
25C
330
8
100
AcDbSymbolTableRecord
100
AcDbViewportTableRecord
  2
L6
 70
     0
 10
0.666667
 20
0.5
 11
1.0
 21
1.0
 12
0.0
 22
0.0
 13
0.0
 23
0.0
 14
0.5
 24
0.5
 15
0.5
 25
0.5
 16
0.5773502691896259
 26
-0.5773502691896259
 36
0.5773502691896259
 17
0.0
 27
0.0
 37
0.0
 40
1471.467242
 41
0.012067
 42
50.0
 43
766.783745
 44
-766.783745
 50
0.0
 51
0.0
 71
     0
 72
   100
 73
     1
 74
     3
 75
     0
 76
     0
 77
     0
 78
     0
281
     0
 65
     1
110
0.0
120
0.0
130
0.0
111
1.0
121
0.0
131
0.0
112
0.0
122
1.0
132
0.0
 79
     0
146
0.0
  0
VPORT
  5
25D
330
8
100
AcDbSymbolTableRecord
100
AcDbViewportTableRecord
  2
L6
 70
     0
 10
0.666667
 20
0.0
 11
1.0
 21
0.5
 12
0.0
 22
0.0
 13
0.0
 23
0.0
 14
0.5
 24
0.5
 15
0.5
 25
0.5
 16
1.0
 26
0.0
 36
0.0
 17
0.0
 27
0.0
 37
0.0
 40
1496.710499
 41
0.011864
 42
50.0
 43
755.6176329999999
 44
-755.6176329999999
 50
0.0
 51
0.0
 71
     0
 72
   100
 73
     1
 74
     3
 75
     0
 76
     0
 77
     0
 78
     0
281
     0
 65
     1
110
0.0
120
0.0
130
0.0
111
1.0
121
0.0
131
0.0
112
0.0
122
1.0
132
0.0
 79
     0
146
0.0
  0
ENDTAB
  0
TABLE
  2
LTYPE
  5
5
330
0
100
AcDbSymbolTable
 70
     7
  0
LTYPE
  5
14
330
5
100
AcDbSymbolTableRecord
100
AcDbLinetypeTableRecord
  2
ByBlock
 70
     0
  3

 72
    65
 73
     0
 40
0.0
  0
LTYPE
  5
15
330
5
100
AcDbSymbolTableRecord
100
AcDbLinetypeTableRecord
  2
ByLayer
 70
     0
  3

 72
    65
 73
     0
 40
0.0
  0
LTYPE
  5
16
330
5
100
AcDbSymbolTableRecord
100
AcDbLinetypeTableRecord
  2
Continuous
 70
     0
  3
Solid line
 72
    65
 73
     0
 40
0.0
  0
LTYPE
  5
6E
330
5
100
AcDbSymbolTableRecord
100
AcDbLinetypeTableRecord
  2
CENTER
 70
     0
  3
____ _ ____ _ ____ _ ____
 72
    65
 73
     4
 40
47.4
 49
22.0
 74
     4
 75
     0
340
0
 46
0.0
 50
0.0
 44
0.0
 45
0.0
 49
-8.5
 74
     4
 75
     0
340
0
 46
0.0
 50
0.0
 44
0.0
 45
0.0
 49
8.5
 74
     4
 75
     0
340
0
 46
0.0
 50
0.0
 44
0.0
 45
0.0
 49
-8.5
 74
     4
 75
     0
340
0
 46
0.0
 50
0.0
 44
0.0
 45
0.0
  0
LTYPE
  5
6F
330
5
100
AcDbSymbolTableRecord
100
AcDbLinetypeTableRecord
  2
DASHDOT
 70
     0
  3
_._._._._._._._._._._._._._._._.
 72
    65
 73
     4
 40
70.0
 49
31.0
 74
     4
 75
     0
340
0
 46
0.0
 50
0.0
 44
0.0
 45
0.0
 49
-13.0
 74
     4
 75
     0
340
0
 46
0.0
 50
0.0
 44
0.0
 45
0.0
 49
13.0
 74
     4
 75
     0
340
0
 46
0.0
 50
0.0
 44
0.0
 45
0.0
 49
-13.0
 74
     4
 75
     0
340
0
 46
0.0
 50
0.0
 44
0.0
 45
0.0
  0
LTYPE
  5
70
330
5
100
AcDbSymbolTableRecord
100
AcDbLinetypeTableRecord
  2
DASHED
 70
     0
  3
__ __ __ __ __ __ __ __ __
 72
    65
 73
     2
 40
25.72
 49
12.86
 74
     4
 75
     0
340
0
 46
0.0
 50
0.0
 44
0.0
 45
0.0
 49
-12.86
 74
     4
 75
     0
340
0
 46
0.0
 50
0.0
 44
0.0
 45
0.0
  0
LTYPE
  5
71
330
5
100
AcDbSymbolTableRecord
100
AcDbLinetypeTableRecord
  2
DOT
 70
     0
  3
.........................
 72
    65
 73
     2
 40
10.0
 49
0.0
 74
     4
 75
     0
340
0
 46
0.0
 50
0.0
 44
0.0
 45
0.0
 49
-10.0
 74
     4
 75
     0
340
0
 46
0.0
 50
0.0
 44
0.0
 45
0.0
  0
LTYPE
  5
72
330
5
100
AcDbSymbolTableRecord
100
AcDbLinetypeTableRecord
  2
PHANTOM
 70
     0
  3
____ _ _ ____ _ _ _____ _ _ ____
 72
    65
 73
     6
 40
50.5
 49
18.0
 74
     4
 75
     0
340
0
 46
0.0
 50
0.0
 44
0.0
 45
0.0
 49
-6.5
 74
     4
 75
     0
340
0
 46
0.0
 50
0.0
 44
0.0
 45
0.0
 49
6.5
 74
     4
 75
     0
340
0
 46
0.0
 50
0.0
 44
0.0
 45
0.0
 49
-6.5
 74
     4
 75
     0
340
0
 46
0.0
 50
0.0
 44
0.0
 45
0.0
 49
6.5
 74
     4
 75
     0
340
0
 46
0.0
 50
0.0
 44
0.0
 45
0.0
 49
-6.5
 74
     4
 75
     0
340
0
 46
0.0
 50
0.0
 44
0.0
 45
0.0
  0
LTYPE
  5
32D
330
5
100
AcDbSymbolTableRecord
100
AcDbLinetypeTableRecord
  2
CENTER2
 70
     0
  3
Center (.5x) ___ _ ___ _ ___ _ ___ _ ___ _ ___
 72
    65
 73
     4
 40
1.125
 49
0.75
 74
     0
 49
-0.125
 74
     0
 49
0.125
 74
     0
 49
-0.125
 74
     0
  0
ENDTAB
  0
TABLE
  2
LAYER
  5
2
330
0
100
AcDbSymbolTable
 70
    21
  0
LAYER
  5
10
102
{ACAD_XDICTIONARY
360
338
102
}
330
2
100
AcDbSymbolTableRecord
100
AcDbLayerTableRecord
  2
0
 70
     0
 62
     7
  6
Continuous
370
    -3
390
F
  0
LAYER
  5
1BF
330
2
100
AcDbSymbolTableRecord
100
AcDbLayerTableRecord
  2
Defpoints
 70
     0
 62
     7
  6
Continuous
290
     0
370
    -3
390
F
  0
LAYER
  5
32A
102
{ACAD_XDICTIONARY
360
33A
102
}
330
2
100
AcDbSymbolTableRecord
100
AcDbLayerTableRecord
  2
1
 70
     0
 62
     4
  6
Continuous
370
    -3
390
F
  0
LAYER
  5
32B
102
{ACAD_XDICTIONARY
360
33C
102
}
330
2
100
AcDbSymbolTableRecord
100
AcDbLayerTableRecord
  2
2
 70
     0
 62
     7
  6
Continuous
370
    -3
390
F
  0
LAYER
  5
32C
102
{ACAD_XDICTIONARY
360
33E
102
}
330
2
100
AcDbSymbolTableRecord
100
AcDbLayerTableRecord
  2
4
 70
     0
 62
     2
  6
CENTER2
370
    -3
390
F
  0
LAYER
  5
32E
102
{ACAD_XDICTIONARY
360
340
102
}
330
2
100
AcDbSymbolTableRecord
100
AcDbLayerTableRecord
  2
SK1
 70
     0
 62
     4
  6
Continuous
370
    -3
390
F
  0
LAYER
  5
32F
102
{ACAD_XDICTIONARY
360
342
102
}
330
2
100
AcDbSymbolTableRecord
100
AcDbLayerTableRecord
  2
SK2
 70
     0
 62
     7
  6
Continuous
370
    -3
390
F
  0
LAYER
  5
331
102
{ACAD_XDICTIONARY
360
344
102
}
330
2
100
AcDbSymbolTableRecord
100
AcDbLayerTableRecord
  2
SK4
 70
     0
 62
     2
  6
CENTER2
370
    -3
390
F
  0
LAYER
  5
332
102
{ACAD_XDICTIONARY
360
346
102
}
330
2
100
AcDbSymbolTableRecord
100
AcDbLayerTableRecord
  2
SK6
 70
     0
 62
     5
  6
Continuous
370
    -3
390
F
  0
LAYER
  5
333
102
{ACAD_XDICTIONARY
360
348
102
}
330
2
100
AcDbSymbolTableRecord
100
AcDbLayerTableRecord
  2
CUT
 70
     0
 62
     1
  6
Continuous
370
    -3
390
F
  0
LAYER
  5
334
102
{ACAD_XDICTIONARY
360
34A
102
}
330
2
100
AcDbSymbolTableRecord
100
AcDbLayerTableRecord
  2
NOCUT
 70
     0
 62
     7
  6
Continuous
370
    -3
390
F
  0
LAYER
  5
335
102
{ACAD_XDICTIONARY
360
34C
102
}
330
2
100
AcDbSymbolTableRecord
100
AcDbLayerTableRecord
  2
80
 70
     0
 62
     6
  6
Continuous
370
    -3
390
F
  0
LAYER
  5
336
102
{ACAD_XDICTIONARY
360
34E
102
}
330
2
100
AcDbSymbolTableRecord
100
AcDbLayerTableRecord
  2
81
 70
     0
 62
     3
  6
Continuous
370
    -3
390
F
  0
ENDTAB
  0
TABLE
  2
STYLE
  5
3
330
0
100
AcDbSymbolTable
 70
     3
  0
STYLE
  5
11
330
3
100
AcDbSymbolTableRecord
100
AcDbTextStyleTableRecord
  2
Standard
 70
     0
 40
0.0
 41
1.0
 50
0.0
 71
     0
 42
0.2
  3
txt
  4

  0
STYLE
  5
1B9
330
3
100
AcDbSymbolTableRecord
100
AcDbTextStyleTableRecord
  2
cesky
 70
     0
 40
0.0
 41
1.0
 50
0.0
 71
     0
 42
0.2
  3
simplex.shx
  4

  0
STYLE
  5
1BA
330
3
100
AcDbSymbolTableRecord
100
AcDbTextStyleTableRecord
  2
DWGDirectTextStyle
 70
     0
 40
0.0
 41
1.0
 50
0.0
 71
     0
 42
0.2
  3
simplex
  4

  0
ENDTAB
  0
TABLE
  2
VIEW
  5
6
330
0
100
AcDbSymbolTable
 70
     0
  0
ENDTAB
  0
TABLE
  2
UCS
  5
7
330
0
100
AcDbSymbolTable
 70
     0
  0
ENDTAB
  0
TABLE
  2
APPID
  5
9
330
0
100
AcDbSymbolTable
 70
     7
  0
APPID
  5
12
330
9
100
AcDbSymbolTableRecord
100
AcDbRegAppTableRecord
  2
ACAD
 70
     0
  0
APPID
  5
1BB
330
9
100
AcDbSymbolTableRecord
100
AcDbRegAppTableRecord
  2
ACAD_DSTYLE_DIMBREAK
 70
     0
  0
APPID
  5
25E
330
9
100
AcDbSymbolTableRecord
100
AcDbRegAppTableRecord
  2
ACAD_DSTYLE_DIM_LINETYPE
 70
     0
  0
APPID
  5
25F
330
9
100
AcDbSymbolTableRecord
100
AcDbRegAppTableRecord
  2
ACAD_DSTYLE_DIM_EXT1_LINETYPE
 70
     0
  0
APPID
  5
260
330
9
100
AcDbSymbolTableRecord
100
AcDbRegAppTableRecord
  2
ACAD_DSTYLE_DIM_EXT2_LINETYPE
 70
     0
  0
APPID
  5
2A0
330
9
100
AcDbSymbolTableRecord
100
AcDbRegAppTableRecord
  2
ACAD_MLEADERVER
 70
     0
  0
APPID
  5
353
330
9
100
AcDbSymbolTableRecord
100
AcDbRegAppTableRecord
  2
ACAD_NAV_VCDISPLAY
 70
     0
  0
ENDTAB
  0
TABLE
  2
DIMSTYLE
  5
A
330
0
100
AcDbSymbolTable
 70
     1
100
AcDbDimStyleTable
 71
     0
  0
DIMSTYLE
105
27
330
A
100
AcDbSymbolTableRecord
100
AcDbDimStyleTableRecord
  2
Standard
 70
     0
340
11
1001
ACAD_DSTYLE_DIMBREAK
1070
   391
1040
6.349999999999999
  0
ENDTAB
  0
TABLE
  2
BLOCK_RECORD
  5
1
330
0
100
AcDbSymbolTable
 70
    13
  0
BLOCK_RECORD
  5
1F
102
{ACAD_XDICTIONARY
360
2B0
102
}
330
1
100
AcDbSymbolTableRecord
100
AcDbBlockTableRecord
  2
*Model_Space
340
22
  0
BLOCK_RECORD
  5
1B
330
1
100
AcDbSymbolTableRecord
100
AcDbBlockTableRecord
  2
*Paper_Space
340
1E
  0
BLOCK_RECORD
  5
23
330
1
100
AcDbSymbolTableRecord
100
AcDbBlockTableRecord
  2
*Paper_Space0
340
26
  0
BLOCK_RECORD
  5
1C0
330
1
100
AcDbSymbolTableRecord
100
AcDbBlockTableRecord
  2
*D1
340
0
  0
BLOCK_RECORD
  5
1CC
330
1
100
AcDbSymbolTableRecord
100
AcDbBlockTableRecord
  2
_U0
340
0
  0
BLOCK_RECORD
  5
1D8
330
1
100
AcDbSymbolTableRecord
100
AcDbBlockTableRecord
  2
*D3
340
0
  0
BLOCK_RECORD
  5
1E6
330
1
100
AcDbSymbolTableRecord
100
AcDbBlockTableRecord
  2
_U1
340
0
  0
BLOCK_RECORD
  5
1F2
330
1
100
AcDbSymbolTableRecord
100
AcDbBlockTableRecord
  2
*D5
340
0
  0
BLOCK_RECORD
  5
1FE
330
1
100
AcDbSymbolTableRecord
100
AcDbBlockTableRecord
  2
_U2
340
0
  0
BLOCK_RECORD
  5
20A
330
1
100
AcDbSymbolTableRecord
100
AcDbBlockTableRecord
  2
*D7
340
0
  0
BLOCK_RECORD
  5
216
330
1
100
AcDbSymbolTableRecord
100
AcDbBlockTableRecord
  2
_U3
340
0
  0
BLOCK_RECORD
  5
222
330
1
100
AcDbSymbolTableRecord
100
AcDbBlockTableRecord
  2
*D9
340
0
  0
BLOCK_RECORD
  5
22D
330
1
100
AcDbSymbolTableRecord
100
AcDbBlockTableRecord
  2
_U4
340
0
  0
BLOCK_RECORD
  5
238
330
1
100
AcDbSymbolTableRecord
100
AcDbBlockTableRecord
  2
*D11
340
0
  0
BLOCK_RECORD
  5
244
330
1
100
AcDbSymbolTableRecord
100
AcDbBlockTableRecord
  2
_U5
340
0
  0
ENDTAB
  0
ENDSEC
  0
SECTION
  2
BLOCKS
  0
BLOCK
  5
20
330
1F
100
AcDbEntity
  8
0
100
AcDbBlockBegin
  2
*Model_Space
 70
     0
 10
0.0
 20
0.0
 30
0.0
  3
*Model_Space
  1

  0
ENDBLK
  5
21
330
1F
100
AcDbEntity
  8
0
100
AcDbBlockEnd
  0
BLOCK
  5
1C
330
1B
100
AcDbEntity
 67
     1
  8
0
100
AcDbBlockBegin
  2
*Paper_Space
 70
     0
 10
0.0
 20
0.0
 30
0.0
  3
*Paper_Space
  1

  0
ENDBLK
  5
1D
330
1B
100
AcDbEntity
 67
     1
  8
0
100
AcDbBlockEnd
  0
BLOCK
  5
24
330
23
100
AcDbEntity
 67
     1
  8
0
100
AcDbBlockBegin
  2
*Paper_Space0
 70
     0
 10
0.0
 20
0.0
 30
0.0
  3
*Paper_Space0
  1

  0
ENDBLK
  5
25
330
23
100
AcDbEntity
 67
     1
  8
0
100
AcDbBlockEnd
  0
BLOCK
  5
1C1
330
1C0
100
AcDbEntity
  8
0
100
AcDbBlockBegin
  2
*D1
 70
     1
 10
0.0
 20
0.0
 30
0.0
  3
*D1
  1

  0
LINE
  5
1C3
330
1C0
100
AcDbEntity
  8
0
 62
   254
370
    -2
100
AcDbLine
 10
320.144248
 20
258.231161
 30
0.0
 11
320.144248
 21
274.397388
 31
0.0
  0
LINE
  5
1C4
330
1C0
100
AcDbEntity
  8
0
 62
   254
370
    -2
100
AcDbLine
 10
237.144248
 20
242.731588
 30
0.0
 11
237.144248
 21
274.397388
 31
0.0
  0
LINE
  5
1C5
330
1C0
100
AcDbEntity
  8
0
 62
   254
370
    -2
100
AcDbLine
 10
316.644248
 20
273.397388
 30
0.0
 11
240.644248
 21
273.397388
 31
0.0
  0
SOLID
  5
1C6
330
1C0
100
AcDbEntity
  8
0
 62
   254
100
AcDbTrace
 10
316.644248
 20
272.814055
 30
0.0
 11
316.644248
 21
273.980722
 31
0.0
 12
320.144248
 22
273.397388
 32
0.0
 13
320.144248
 23
273.397388
 33
0.0
  0
SOLID
  5
1C7
330
1C0
100
AcDbEntity
  8
0
 62
   254
100
AcDbTrace
 10
240.644248
 20
273.980722
 30
0.0
 11
240.644248
 21
272.814055
 31
0.0
 12
237.144248
 22
273.397388
 32
0.0
 13
237.144248
 23
273.397388
 33
0.0
  0
MTEXT
  5
1C8
330
1C0
100
AcDbEntity
  8
0
 62
   254
370
    13
100
AcDbMText
 10
278.644248
 20
278.647388
 30
0.0
 40
3.5
 41
0.0
 71
     5
 72
     1
  1
\A1;83
  7
cesky
 73
     1
 44
1.0
  0
POINT
  5
1C9
330
1C0
100
AcDbEntity
  8
Defpoints
 62
     0
100
AcDbPoint
 10
320.144248
 20
258.231161
 30
0.0
  0
POINT
  5
1CA
330
1C0
100
AcDbEntity
  8
Defpoints
 62
     0
100
AcDbPoint
 10
237.144248
 20
242.731588
 30
0.0
  0
POINT
  5
1CB
330
1C0
100
AcDbEntity
  8
Defpoints
 62
     0
100
AcDbPoint
 10
237.144248
 20
273.397388
 30
0.0
  0
ENDBLK
  5
1C2
330
1C0
100
AcDbEntity
  8
0
100
AcDbBlockEnd
  0
BLOCK
  5
1D3
330
1CC
100
AcDbEntity
  8
0
100
AcDbBlockBegin
  2
_U0
 70
     0
 10
0.0
 20
0.0
 30
0.0
  3
_U0
  1

  0
ENDBLK
  5
1D4
330
1CC
100
AcDbEntity
  8
0
100
AcDbBlockEnd
  0
BLOCK
  5
1D9
330
1D8
100
AcDbEntity
  8
0
100
AcDbBlockBegin
  2
*D3
 70
     1
 10
0.0
 20
0.0
 30
0.0
  3
*D3
  1

  0
LINE
  5
1DB
330
1D8
100
AcDbEntity
  8
0
 62
   254
370
    -2
100
AcDbLine
 10
320.144248
 20
254.231161
 30
0.0
 11
320.144248
 21
263.945773
 31
0.0
  0
LINE
  5
1DC
330
1D8
100
AcDbEntity
  8
0
 62
   254
370
    -2
100
AcDbLine
 10
319.029177
 20
255.822294
 30
0.0
 11
319.029177
 21
263.945773
 31
0.0
  0
LINE
  5
1DD
330
1D8
100
AcDbEntity
  8
0
 62
   254
370
    -2
100
AcDbLine
 10
319.029177
 20
262.945773
 30
0.0
 11
304.195844
 21
262.945773
 31
0.0
  0
LINE
  5
1DE
330
1D8
100
AcDbEntity
  8
0
 62
   254
370
    -2
100
AcDbLine
 10
323.644248
 20
262.945773
 30
0.0
 11
327.144248
 21
262.945773
 31
0.0
  0
LINE
  5
1DF
330
1D8
100
AcDbEntity
  8
0
 62
   254
370
    -2
100
AcDbLine
 10
315.529177
 20
262.945773
 30
0.0
 11
312.029177
 21
262.945773
 31
0.0
  0
SOLID
  5
1E0
330
1D8
100
AcDbEntity
  8
0
 62
   254
100
AcDbTrace
 10
323.644248
 20
263.529106
 30
0.0
 11
323.644248
 21
262.362439
 31
0.0
 12
320.144248
 22
262.945773
 32
0.0
 13
320.144248
 23
262.945773
 33
0.0
  0
SOLID
  5
1E1
330
1D8
100
AcDbEntity
  8
0
 62
   254
100
AcDbTrace
 10
315.529177
 20
262.362439
 30
0.0
 11
315.529177
 21
263.529106
 31
0.0
 12
319.029177
 22
262.945773
 32
0.0
 13
319.029177
 23
262.945773
 33
0.0
  0
MTEXT
  5
1E2
330
1D8
100
AcDbEntity
  8
0
 62
   254
370
    13
100
AcDbMText
 10
308.11251
 20
268.195773
 30
0.0
 40
3.5
 41
0.0
 71
     5
 72
     1
  1
\A1;1
  7
cesky
 73
     1
 44
1.0
  0
POINT
  5
1E3
330
1D8
100
AcDbEntity
  8
Defpoints
 62
     0
100
AcDbPoint
 10
320.144248
 20
254.231161
 30
0.0
  0
POINT
  5
1E4
330
1D8
100
AcDbEntity
  8
Defpoints
 62
     0
100
AcDbPoint
 10
319.029177
 20
255.822294
 30
0.0
  0
POINT
  5
1E5
330
1D8
100
AcDbEntity
  8
Defpoints
 62
     0
100
AcDbPoint
 10
319.029177
 20
262.945773
 30
0.0
  0
ENDBLK
  5
1DA
330
1D8
100
AcDbEntity
  8
0
100
AcDbBlockEnd
  0
BLOCK
  5
1ED
330
1E6
100
AcDbEntity
  8
0
100
AcDbBlockBegin
  2
_U1
 70
     0
 10
0.0
 20
0.0
 30
0.0
  3
_U1
  1

  0
ENDBLK
  5
1EE
330
1E6
100
AcDbEntity
  8
0
100
AcDbBlockEnd
  0
BLOCK
  5
1F3
330
1F2
100
AcDbEntity
  8
0
100
AcDbBlockBegin
  2
*D5
 70
     1
 10
0.0
 20
0.0
 30
0.0
  3
*D5
  1

  0
LINE
  5
1F5
330
1F2
100
AcDbEntity
  8
0
 62
    95
370
    -2
100
AcDbLine
 10
181.144248
 20
243.731161
 30
0.0
 11
181.144248
 21
293.914659
 31
0.0
  0
LINE
  5
1F6
330
1F2
100
AcDbEntity
  8
0
 62
    95
370
    -2
100
AcDbLine
 10
320.144248
 20
258.231161
 30
0.0
 11
320.144248
 21
293.914659
 31
0.0
  0
LINE
  5
1F7
330
1F2
100
AcDbEntity
  8
0
 62
    95
370
    -2
100
AcDbLine
 10
184.644248
 20
292.914659
 30
0.0
 11
316.644248
 21
292.914659
 31
0.0
  0
SOLID
  5
1F8
330
1F2
100
AcDbEntity
  8
0
 62
    95
100
AcDbTrace
 10
184.644248
 20
293.497992
 30
0.0
 11
184.644248
 21
292.331326
 31
0.0
 12
181.144248
 22
292.914659
 32
0.0
 13
181.144248
 23
292.914659
 33
0.0
  0
SOLID
  5
1F9
330
1F2
100
AcDbEntity
  8
0
 62
    95
100
AcDbTrace
 10
316.644248
 20
292.331326
 30
0.0
 11
316.644248
 21
293.497992
 31
0.0
 12
320.144248
 22
292.914659
 32
0.0
 13
320.144248
 23
292.914659
 33
0.0
  0
MTEXT
  5
1FA
330
1F2
100
AcDbEntity
  8
0
 62
    95
370
    13
100
AcDbMText
 10
250.644248
 20
298.164659
 30
0.0
 40
3.5
 41
0.0
 71
     5
 72
     1
  1
\A1;139
  7
cesky
 73
     1
 44
1.0
  0
POINT
  5
1FB
330
1F2
100
AcDbEntity
  8
Defpoints
 62
     0
100
AcDbPoint
 10
181.144248
 20
243.731161
 30
0.0
  0
POINT
  5
1FC
330
1F2
100
AcDbEntity
  8
Defpoints
 62
     0
100
AcDbPoint
 10
320.144248
 20
258.231161
 30
0.0
  0
POINT
  5
1FD
330
1F2
100
AcDbEntity
  8
Defpoints
 62
     0
100
AcDbPoint
 10
320.144248
 20
292.914659
 30
0.0
  0
ENDBLK
  5
1F4
330
1F2
100
AcDbEntity
  8
0
100
AcDbBlockEnd
  0
BLOCK
  5
205
330
1FE
100
AcDbEntity
  8
0
100
AcDbBlockBegin
  2
_U2
 70
     0
 10
0.0
 20
0.0
 30
0.0
  3
_U2
  1

  0
ENDBLK
  5
206
330
1FE
100
AcDbEntity
  8
0
100
AcDbBlockEnd
  0
BLOCK
  5
20B
330
20A
100
AcDbEntity
  8
0
100
AcDbBlockBegin
  2
*D7
 70
     1
 10
0.0
 20
0.0
 30
0.0
  3
*D7
  1

  0
LINE
  5
20D
330
20A
100
AcDbEntity
  8
0
 62
    95
370
    -2
100
AcDbLine
 10
237.144248
 20
243.731161
 30
0.0
 11
237.144248
 21
283.923955
 31
0.0
  0
LINE
  5
20E
330
20A
100
AcDbEntity
  8
0
 62
    95
370
    -2
100
AcDbLine
 10
320.144248
 20
258.231161
 30
0.0
 11
320.144248
 21
283.923955
 31
0.0
  0
LINE
  5
20F
330
20A
100
AcDbEntity
  8
0
 62
    95
370
    -2
100
AcDbLine
 10
240.644248
 20
282.923955
 30
0.0
 11
316.644248
 21
282.923955
 31
0.0
  0
SOLID
  5
210
330
20A
100
AcDbEntity
  8
0
 62
    95
100
AcDbTrace
 10
240.644248
 20
283.507288
 30
0.0
 11
240.644248
 21
282.340622
 31
0.0
 12
237.144248
 22
282.923955
 32
0.0
 13
237.144248
 23
282.923955
 33
0.0
  0
SOLID
  5
211
330
20A
100
AcDbEntity
  8
0
 62
    95
100
AcDbTrace
 10
316.644248
 20
282.340622
 30
0.0
 11
316.644248
 21
283.507288
 31
0.0
 12
320.144248
 22
282.923955
 32
0.0
 13
320.144248
 23
282.923955
 33
0.0
  0
MTEXT
  5
212
330
20A
100
AcDbEntity
  8
0
 62
    95
370
    13
100
AcDbMText
 10
278.644248
 20
288.173955
 30
0.0
 40
3.5
 41
0.0
 71
     5
 72
     1
  1
\A1;83
  7
cesky
 73
     1
 44
1.0
  0
POINT
  5
213
330
20A
100
AcDbEntity
  8
Defpoints
 62
     0
100
AcDbPoint
 10
237.144248
 20
243.731161
 30
0.0
  0
POINT
  5
214
330
20A
100
AcDbEntity
  8
Defpoints
 62
     0
100
AcDbPoint
 10
320.144248
 20
258.231161
 30
0.0
  0
POINT
  5
215
330
20A
100
AcDbEntity
  8
Defpoints
 62
     0
100
AcDbPoint
 10
320.144248
 20
282.923955
 30
0.0
  0
ENDBLK
  5
20C
330
20A
100
AcDbEntity
  8
0
100
AcDbBlockEnd
  0
BLOCK
  5
21D
330
216
100
AcDbEntity
  8
0
100
AcDbBlockBegin
  2
_U3
 70
     0
 10
0.0
 20
0.0
 30
0.0
  3
_U3
  1

  0
ENDBLK
  5
21E
330
216
100
AcDbEntity
  8
0
100
AcDbBlockEnd
  0
BLOCK
  5
223
330
222
100
AcDbEntity
  8
0
100
AcDbBlockBegin
  2
*D9
 70
     1
 10
0.0
 20
0.0
 30
0.0
  3
*D9
  1

  0
LINE
  5
225
330
222
100
AcDbEntity
  8
0
 62
   254
370
    -2
100
AcDbLine
 10
251.911615
 20
243.731161
 30
0.0
 11
334.387067
 21
243.731161
 31
0.0
  0
LINE
  5
226
330
222
100
AcDbEntity
  8
0
 62
   254
370
    -2
100
AcDbLine
 10
322.144248
 20
256.231161
 30
0.0
 11
334.387067
 21
256.231161
 31
0.0
  0
LINE
  5
227
330
222
100
AcDbEntity
  8
0
 62
   254
370
    -2
100
AcDbLine
 10
333.387067
 20
259.731161
 30
0.0
 11
333.387067
 21
263.231161
 31
0.0
  0
SOLID
  5
228
330
222
100
AcDbEntity
  8
0
 62
   254
100
AcDbTrace
 10
332.803733
 20
259.731161
 30
0.0
 11
333.9704
 21
259.731161
 31
0.0
 12
333.387067
 22
256.231161
 32
0.0
 13
333.387067
 23
256.231161
 33
0.0
  0
MTEXT
  5
229
330
222
100
AcDbEntity
  8
0
 62
   254
370
    13
100
AcDbMText
 10
328.137067
 20
230.397828
 30
0.0
 40
3.5
 41
0.0
 71
     5
 72
     1
  1
\A1;25
  7
cesky
 11
0.0
 21
1.0
 31
0.0
 73
     1
 44
1.0
  0
POINT
  5
22A
330
222
100
AcDbEntity
  8
Defpoints
 62
     0
100
AcDbPoint
 10
251.911615
 20
243.731161
 30
0.0
  0
POINT
  5
22B
330
222
100
AcDbEntity
  8
Defpoints
 62
     0
100
AcDbPoint
 10
322.144248
 20
256.231161
 30
0.0
  0
POINT
  5
22C
330
222
100
AcDbEntity
  8
Defpoints
 62
     0
100
AcDbPoint
 10
333.387067
 20
256.231161
 30
0.0
  0
ENDBLK
  5
224
330
222
100
AcDbEntity
  8
0
100
AcDbBlockEnd
  0
BLOCK
  5
233
330
22D
100
AcDbEntity
  8
0
100
AcDbBlockBegin
  2
_U4
 70
     0
 10
0.0
 20
0.0
 30
0.0
  3
_U4
  1

  0
ENDBLK
  5
234
330
22D
100
AcDbEntity
  8
0
100
AcDbBlockEnd
  0
BLOCK
  5
239
330
238
100
AcDbEntity
  8
0
100
AcDbBlockBegin
  2
*D11
 70
     1
 10
0.0
 20
0.0
 30
0.0
  3
*D11
  1

  0
LINE
  5
23B
330
238
100
AcDbEntity
  8
0
 62
    95
370
    -2
100
AcDbLine
 10
202.644248
 20
256.231161
 30
0.0
 11
167.346619
 21
256.231161
 31
0.0
  0
LINE
  5
23C
330
238
100
AcDbEntity
  8
0
 62
    95
370
    -2
100
AcDbLine
 10
191.220829
 20
231.231161
 30
0.0
 11
167.346619
 21
231.231161
 31
0.0
  0
LINE
  5
23D
330
238
100
AcDbEntity
  8
0
 62
    95
370
    -2
100
AcDbLine
 10
168.346619
 20
252.731161
 30
0.0
 11
168.346619
 21
234.731161
 31
0.0
  0
SOLID
  5
23E
330
238
100
AcDbEntity
  8
0
 62
    95
100
AcDbTrace
 10
168.929952
 20
252.731161
 30
0.0
 11
167.763286
 21
252.731161
 31
0.0
 12
168.346619
 22
256.231161
 32
0.0
 13
168.346619
 23
256.231161
 33
0.0
  0
SOLID
  5
23F
330
238
100
AcDbEntity
  8
0
 62
    95
100
AcDbTrace
 10
167.763286
 20
234.731161
 30
0.0
 11
168.929952
 21
234.731161
 31
0.0
 12
168.346619
 22
231.231161
 32
0.0
 13
168.346619
 23
231.231161
 33
0.0
  0
MTEXT
  5
240
330
238
100
AcDbEntity
  8
0
 62
    95
370
    13
100
AcDbMText
 10
163.096619
 20
243.731161
 30
0.0
 40
3.5
 41
0.0
 71
     5
 72
     1
  1
\A1;25
  7
cesky
 11
0.0
 21
1.0
 31
0.0
 73
     1
 44
1.0
  0
POINT
  5
241
330
238
100
AcDbEntity
  8
Defpoints
 62
     0
100
AcDbPoint
 10
202.644248
 20
256.231161
 30
0.0
  0
POINT
  5
242
330
238
100
AcDbEntity
  8
Defpoints
 62
     0
100
AcDbPoint
 10
191.220829
 20
231.231161
 30
0.0
  0
POINT
  5
243
330
238
100
AcDbEntity
  8
Defpoints
 62
     0
100
AcDbPoint
 10
168.346619
 20
231.231161
 30
0.0
  0
ENDBLK
  5
23A
330
238
100
AcDbEntity
  8
0
100
AcDbBlockEnd
  0
BLOCK
  5
24C
330
244
100
AcDbEntity
  8
0
100
AcDbBlockBegin
  2
_U5
 70
     0
 10
0.0
 20
0.0
 30
0.0
  3
_U5
  1

  0
ENDBLK
  5
24D
330
244
100
AcDbEntity
  8
0
100
AcDbBlockEnd
  0
ENDSEC
  0
SECTION
  2
ENTITIES
  0
POINT
  5
73
102
{ACAD_REACTORS
330
337
102
}
330
1F
100
AcDbEntity
  8
80
100
AcDbPoint
 10
237.144248
 20
243.731161
 30
0.0
  0
POINT
  5
75
330
1F
100
AcDbEntity
  8
SK6
 60
     1
100
AcDbPoint
 10
238.442414
 20
243.731161
 30
0.0
  0
POINT
  5
77
330
1F
100
AcDbEntity
  8
SK6
 60
     1
100
AcDbPoint
 10
251.911615
 20
243.731161
 30
0.0
  0
POINT
  5
78
330
1F
100
AcDbEntity
  8
SK6
 60
     1
100
AcDbPoint
 10
181.144248
 20
243.731161
 30
0.0
  0
POINT
  5
79
330
1F
100
AcDbEntity
  8
SK6
 60
     1
100
AcDbPoint
 10
237.144248
 20
243.731161
 30
0.0
  0
LINE
  5
7A
330
1F
100
AcDbEntity
  8
1
100
AcDbLine
 10
251.911615
 20
255.042424
 30
0.0
 11
238.442414
 21
255.670121
 31
0.0
  0
LINE
  5
7C
330
1F
100
AcDbEntity
  8
1
100
AcDbLine
 10
238.442414
 20
231.792202
 30
0.0
 11
251.911615
 21
232.419899
 31
0.0
  0
LINE
  5
7D
330
1F
100
AcDbEntity
  8
SK1
100
AcDbLine
 10
237.144248
 20
256.231161
 30
0.0
 11
221.144248
 21
256.231161
 31
0.0
  0
LINE
  5
7E
330
1F
100
AcDbEntity
  8
SK1
100
AcDbLine
 10
181.144248
 20
233.231161
 30
0.0
 11
183.144248
 21
231.231161
 31
0.0
  0
LINE
  5
7F
330
1F
100
AcDbEntity
  8
1
100
AcDbLine
 10
314.381182
 20
252.085334
 30
0.0
 11
314.625091
 21
251.939945
 31
0.0
  0
LINE
  5
81
330
1F
100
AcDbEntity
  8
1
100
AcDbLine
 10
314.191444
 20
251.629772
 30
0.0
 11
314.435354
 21
251.484383
 31
0.0
  0
LINE
  5
82
330
1F
100
AcDbEntity
  8
1
100
AcDbLine
 10
314.976041
 20
252.457409
 30
0.0
 11
315.22627
 21
252.308254
 31
0.0
  0
LINE
  5
83
330
1F
100
AcDbEntity
  8
1
100
AcDbLine
 10
314.58462
 20
252.072733
 30
0.0
 11
314.839529
 21
251.920788
 31
0.0
  0
LINE
  5
84
330
1F
100
AcDbEntity
  8
1
100
AcDbLine
 10
314.972809
 20
252.375576
 30
0.0
 11
315.227718
 21
252.223631
 31
0.0
  0
LINE
  5
85
330
1F
100
AcDbEntity
  8
1
100
AcDbLine
 10
314.344561
 20
251.496347
 30
0.0
 11
314.59947
 21
251.344402
 31
0.0
  0
LINE
  5
86
330
1F
100
AcDbEntity
  8
1
100
AcDbLine
 10
314.348172
 20
250.949888
 30
0.0
 11
314.598401
 21
250.800733
 31
0.0
  0
LINE
  5
87
330
1F
100
AcDbEntity
  8
1
100
AcDbLine
 10
314.404114
 20
251.010134
 30
0.0
 11
314.659023
 21
250.858189
 31
0.0
  0
LINE
  5
88
330
1F
100
AcDbEntity
  8
1
100
AcDbLine
 10
315.013097
 20
252.578319
 30
0.0
 11
315.257006
 21
252.43293
 31
0.0
  0
LINE
  5
89
330
1F
100
AcDbEntity
  8
1
100
AcDbLine
 10
315.495722
 20
252.647296
 30
0.0
 11
315.530665
 21
252.626467
 31
0.0
  0
LINE
  5
8A
330
1F
100
AcDbEntity
  8
1
100
AcDbLine
 10
314.288389
 20
250.838286
 30
0.0
 11
314.532298
 21
250.692898
 31
0.0
  0
LINE
  5
8B
330
1F
100
AcDbEntity
  8
1
100
AcDbLine
 10
316.031177
 20
252.279478
 30
0.0
 11
316.286086
 21
252.127532
 31
0.0
  0
LINE
  5
8C
330
1F
100
AcDbEntity
  8
1
100
AcDbLine
 10
316.102931
 20
252.318853
 30
0.0
 11
316.353159
 21
252.169698
 31
0.0
  0
LINE
  5
8D
330
1F
100
AcDbEntity
  8
1
100
AcDbLine
 10
315.222423
 20
250.33765
 30
0.0
 11
315.477332
 21
250.185705
 31
0.0
  0
LINE
  5
8E
330
1F
100
AcDbEntity
  8
1
100
AcDbLine
 10
315.245246
 20
250.259541
 30
0.0
 11
315.470299
 21
250.125392
 31
0.0
  0
LINE
  5
8F
330
1F
100
AcDbEntity
  8
1
100
AcDbLine
 10
316.224581
 20
252.348796
 30
0.0
 11
316.301489
 21
252.302953
 31
0.0
  0
LINE
  5
90
330
1F
100
AcDbEntity
  8
1
100
AcDbLine
 10
316.5298180000001
 20
251.261693
 30
0.0
 11
316.596473
 21
251.221962
 31
0.0
  0
LINE
  5
91
330
1F
100
AcDbEntity
  8
1
100
AcDbLine
 10
316.300002
 20
250.709902
 30
0.0
 11
316.319457
 21
250.698305
 31
0.0
  0
LINE
  5
92
330
1F
100
AcDbEntity
  8
SK1
100
AcDbLine
 10
237.144248
 20
231.231161
 30
0.0
 11
237.144248
 21
256.231161
 31
0.0
  0
LINE
  5
93
330
1F
100
AcDbEntity
  8
SK1
100
AcDbLine
 10
181.144248
 20
233.231161
 30
0.0
 11
181.144248
 21
254.231161
 31
0.0
  0
LINE
  5
94
330
1F
100
AcDbEntity
  8
1
100
AcDbLine
 10
251.911615
 20
255.042424
 30
0.0
 11
251.911615
 21
232.419899
 31
0.0
  0
LINE
  5
95
330
1F
100
AcDbEntity
  8
1
100
AcDbLine
 10
238.442414
 20
231.792202
 30
0.0
 11
238.442414
 21
255.670121
 31
0.0
  0
LINE
  5
96
330
1F
100
AcDbEntity
  8
1
100
AcDbLine
 10
314.515239
 20
252.084221
 30
0.0
 11
314.766179
 21
251.934642
 31
0.0
  0
LINE
  5
97
330
1F
100
AcDbEntity
  8
1
100
AcDbLine
 10
314.566247
 20
251.375349
 30
0.0
 11
314.313556
 21
251.525972
 31
0.0
  0
LINE
  5
98
330
1F
100
AcDbEntity
  8
1
100
AcDbLine
 10
315.714091
 20
252.353273
 30
0.0
 11
315.973752
 21
252.198495
 31
0.0
  0
LINE
  5
99
330
1F
100
AcDbEntity
  8
1
100
AcDbLine
 10
315.351427
 20
250.292448
 30
0.0
 11
315.091766
 21
250.447225
 31
0.0
  0
LINE
  5
9A
330
1F
100
AcDbEntity
  8
1
100
AcDbLine
 10
316.492301
 20
251.274526
 30
0.0
 11
316.605065
 21
251.207311
 31
0.0
  0
LINE
  5
9B
330
1F
100
AcDbEntity
  8
1
100
AcDbLine
 10
316.323809
 20
250.696493
 30
0.0
 11
316.290618
 21
250.716277
 31
0.0
  0
LINE
  5
9C
330
1F
100
AcDbEntity
  8
1
100
AcDbLine
 10
316.668158
 20
253.090846
 30
0.0
 11
316.509645
 21
253.185332
 31
0.0
  0
LINE
  5
9D
330
1F
100
AcDbEntity
  8
1
100
AcDbLine
 10
314.359182
 20
249.577631
 30
0.0
 11
314.517695
 21
249.483145
 31
0.0
  0
LINE
  5
9E
330
1F
100
AcDbEntity
  8
1
100
AcDbLine
 10
252.377134
 20
232.43074
 30
0.0
 11
297.950258
 21
232.43074
 31
0.0
  0
LINE
  5
9F
330
1F
100
AcDbEntity
  8
1
100
AcDbLine
 10
297.950258
 20
255.031582
 30
0.0
 11
252.377134
 21
255.031582
 31
0.0
  0
LINE
  5
A0
330
1F
100
AcDbEntity
  8
1
100
AcDbLine
 10
319.788897
 20
248.335332
 30
0.0
 11
319.973519
 21
248.284322
 31
0.0
  0
LINE
  5
A2
330
1F
100
AcDbEntity
  8
1
100
AcDbLine
 10
319.768872
 20
248.035289
 30
0.0
 11
319.681793
 21
248.204999
 31
0.0
  0
LINE
  5
A3
330
1F
100
AcDbEntity
  8
1
100
AcDbLine
 10
320.144248
 20
237.893599
 30
0.0
 11
320.125011
 21
237.916179
 31
0.0
  0
LINE
  5
A4
330
1F
100
AcDbEntity
  8
1
100
AcDbLine
 10
317.513684
 20
231.281161
 30
0.0
 11
317.549963
 21
231.359097
 31
0.0
  0
LINE
  5
A5
330
1F
100
AcDbEntity
  8
1
100
AcDbLine
 10
319.128488
 20
239.721012
 30
0.0
 11
319.342283
 21
239.304993
 31
0.0
  0
LINE
  5
A6
330
1F
100
AcDbEntity
  8
1
100
AcDbLine
 10
319.305106
 20
232.273935
 30
0.0
 11
319.095201
 21
232.884297
 31
0.0
  0
LINE
  5
A7
330
1F
100
AcDbEntity
  8
1
100
AcDbLine
 10
319.962453
 20
234.810961
 30
0.0
 11
319.857713
 21
234.975386
 31
0.0
  0
LINE
  5
A8
330
1F
100
AcDbEntity
  8
1
100
AcDbLine
 10
319.129203
 20
239.309468
 30
0.0
 11
319.064229
 21
239.228904
 31
0.0
  0
LINE
  5
A9
330
1F
100
AcDbEntity
  8
1
100
AcDbLine
 10
311.93276
 20
232.230741
 30
0.0
 11
312.7033879999999
 21
233.214301
 31
0.0
  0
LINE
  5
AA
330
1F
100
AcDbEntity
  8
1
100
AcDbLine
 10
314.457353
 20
231.520742
 30
0.0
 11
314.697658
 21
231.95132
 31
0.0
  0
LINE
  5
AB
330
1F
100
AcDbEntity
  8
1
100
AcDbLine
 10
319.080528
 20
233.438008
 30
0.0
 11
319.064229
 21
239.228904
 31
0.0
  0
LINE
  5
AC
330
1F
100
AcDbEntity
  8
1
100
AcDbLine
 10
319.064229
 20
239.228904
 30
0.0
 11
319.009926
 21
239.229743
 31
0.0
  0
LINE
  5
AD
330
1F
100
AcDbEntity
  8
1
100
AcDbLine
 10
319.146097
 20
233.307308
 30
0.0
 11
319.080528
 21
233.438008
 31
0.0
  0
LINE
  5
AE
330
1F
100
AcDbEntity
  8
1
100
AcDbLine
 10
313.345547
 20
233.526674
 30
0.0
 11
319.080528
 21
233.438008
 31
0.0
  0
LINE
  5
AF
330
1F
100
AcDbEntity
  8
1
100
AcDbLine
 10
313.201891
 20
233.399209
 30
0.0
 11
313.345547
 21
233.526674
 31
0.0
  0
LINE
  5
B0
330
1F
100
AcDbEntity
  8
1
100
AcDbLine
 10
313.345323
 20
233.606118
 30
0.0
 11
313.345547
 21
233.526674
 31
0.0
  0
LINE
  5
B1
330
1F
100
AcDbEntity
  8
1
100
AcDbLine
 10
311.292367
 20
254.937609
 30
0.0
 11
311.356543
 21
254.78155
 31
0.0
  0
LINE
  5
B2
330
1F
100
AcDbEntity
  8
1
100
AcDbLine
 10
311.249439
 20
254.651218
 30
0.0
 11
311.087719
 21
254.688576
 31
0.0
  0
LINE
  5
B3
330
1F
100
AcDbEntity
  8
1
100
AcDbLine
 10
311.93276
 20
255.231582
 30
0.0
 11
311.989175
 21
255.071881
 31
0.0
  0
LINE
  5
B4
330
1F
100
AcDbEntity
  8
1
100
AcDbLine
 10
310.917
 20
253.404169
 30
0.0
 11
311.0850319999999
 21
253.413772
 31
0.0
  0
LINE
  5
B5
330
1F
100
AcDbEntity
  8
1
100
AcDbLine
 10
311.098795
 20
250.32153
 30
0.0
 11
311.265501
 21
250.35362
 31
0.0
  0
LINE
  5
B6
330
1F
100
AcDbEntity
  8
1
100
AcDbLine
 10
314.457353
 20
255.94158
 30
0.0
 11
314.467681
 21
255.768918
 31
0.0
  0
LINE
  5
B7
330
1F
100
AcDbEntity
  8
1
100
AcDbLine
 10
317.513684
 20
256.181161
 30
0.0
 11
317.5017180000001
 21
256.006752
 31
0.0
  0
LINE
  5
B8
330
1F
100
AcDbEntity
  8
1
100
AcDbLine
 10
318.724294
 20
255.863161
 30
0.0
 11
318.782649
 21
256.032045
 31
0.0
  0
LINE
  5
B9
330
1F
100
AcDbEntity
  8
1
100
AcDbLine
 10
319.025574
 20
255.829866
 30
0.0
 11
318.85143
 21
255.757348
 31
0.0
  0
LINE
  5
BA
330
1F
100
AcDbEntity
  8
1
100
AcDbLine
 10
319.305106
 20
255.188388
 30
0.0
 11
319.127487
 21
255.123642
 31
0.0
  0
LINE
  5
BB
330
1F
100
AcDbEntity
  8
1
100
AcDbLine
 10
319.962453
 20
252.651361
 30
0.0
 11
319.772835
 21
252.632929
 31
0.0
  0
LINE
  5
BC
330
1F
100
AcDbEntity
  8
1
100
AcDbLine
 10
319.128488
 20
247.74131
 30
0.0
 11
319.049161
 21
247.914669
 31
0.0
  0
LINE
  5
BD
330
1F
100
AcDbEntity
  8
1
100
AcDbLine
 10
320.144248
 20
249.568723
 30
0.0
 11
319.953304
 21
249.572777
 31
0.0
  0
LINE
  5
BE
330
1F
100
AcDbEntity
  8
80
100
AcDbLine
 10
236.144675
 20
243.731161
 30
0.0
 11
238.143822
 21
243.731161
 31
0.0
  0
LINE
  5
BF
330
1F
100
AcDbEntity
  8
80
100
AcDbLine
 10
237.144248
 20
242.731588
 30
0.0
 11
237.144248
 21
244.730735
 31
0.0
  0
LINE
  5
C0
330
1F
100
AcDbEntity
  8
SK1
100
AcDbLine
 10
205.144248
 20
256.231161
 30
0.0
 11
200.144248
 21
256.231161
 31
0.0
  0
LINE
  5
C1
330
1F
100
AcDbEntity
  8
SK1
100
AcDbLine
 10
183.144248
 20
231.231161
 30
0.0
 11
237.144248
 21
231.231161
 31
0.0
  0
LINE
  5
C2
330
1F
100
AcDbEntity
  8
81
100
AcDbLine
 10
320.144248
 20
254.231161
 30
0.0
 11
320.144248
 21
258.231161
 31
0.0
  0
LINE
  5
C3
330
1F
100
AcDbEntity
  8
81
100
AcDbLine
 10
318.144248
 20
256.231161
 30
0.0
 11
322.144248
 21
256.231161
 31
0.0
  0
LINE
  5
C4
330
1F
100
AcDbEntity
  8
1
100
AcDbLine
 10
313.69636
 20
249.32827
 30
0.0
 11
313.69636
 21
233.588929
 31
0.0
  0
LINE
  5
C5
330
1F
100
AcDbEntity
  8
1
100
AcDbLine
 10
313.131786
 20
233.614373
 30
0.0
 11
313.131786
 21
249.348116
 31
0.0
  0
LINE
  5
C6
330
1F
100
AcDbEntity
  8
1
100
AcDbLine
 10
252.377134
 20
232.43074
 30
0.0
 11
252.377134
 21
255.031582
 31
0.0
  0
LINE
  5
C7
330
1F
100
AcDbEntity
  8
SK1
100
AcDbLine
 10
219.144248
 20
254.231161
 30
0.0
 11
207.144248
 21
254.231161
 31
0.0
  0
LINE
  5
C8
330
1F
100
AcDbEntity
  8
SK1
100
AcDbLine
 10
207.144248
 20
254.231161
 30
0.0
 11
205.144248
 21
256.231161
 31
0.0
  0
LINE
  5
C9
330
1F
100
AcDbEntity
  8
SK1
100
AcDbLine
 10
219.144248
 20
254.231161
 30
0.0
 11
221.144248
 21
256.231161
 31
0.0
  0
LINE
  5
CA
330
1F
100
AcDbEntity
  8
SK1
100
AcDbLine
 10
200.144248
 20
256.231161
 30
0.0
 11
198.144248
 21
254.231161
 31
0.0
  0
LINE
  5
CB
330
1F
100
AcDbEntity
  8
SK1
100
AcDbLine
 10
198.144248
 20
254.231161
 30
0.0
 11
183.144248
 21
254.231161
 31
0.0
  0
LINE
  5
CC
330
1F
100
AcDbEntity
  8
1
100
AcDbLine
 10
318.538185
 20
233.512871
 30
0.0
 11
318.538185
 21
249.119419
 31
0.0
  0
LINE
  5
CD
330
1F
100
AcDbEntity
  8
SK1
100
AcDbLine
 10
183.144248
 20
231.231161
 30
0.0
 11
183.144248
 21
254.231161
 31
0.0
  0
LINE
  5
CE
330
1F
100
AcDbEntity
  8
1
100
AcDbLine
 10
318.088975
 20
235.249298
 30
0.0
 11
318.082564
 21
236.757991
 31
0.0
  0
LINE
  5
CF
330
1F
100
AcDbEntity
  8
1
100
AcDbLine
 10
318.082564
 20
236.757991
 30
0.0
 11
318.396014
 21
236.944831
 31
0.0
  0
LINE
  5
D0
330
1F
100
AcDbEntity
  8
1
100
AcDbLine
 10
319.009954
 20
248.965817
 30
0.0
 11
319.009954
 21
233.99869
 31
0.0
  0
LINE
  5
D1
330
1F
100
AcDbEntity
  8
NOCUT
100
AcDbLine
 10
296.876299
 20
243.731161
 30
0.0
 11
317.495477
 21
243.731161
 31
0.0
  0
LINE
  5
D3
330
1F
100
AcDbEntity
  8
NOCUT
100
AcDbLine
 10
296.876299
 20
243.731161
 30
0.0
 11
295.144248
 21
246.731161
 31
0.0
  0
LINE
  5
D4
330
1F
100
AcDbEntity
  8
NOCUT
100
AcDbLine
 10
183.144248
 20
246.731161
 30
0.0
 11
181.144248
 21
247.885862
 31
0.0
  0
LINE
  5
D5
330
1F
100
AcDbEntity
  8
NOCUT
100
AcDbLine
 10
181.144248
 20
247.885862
 30
0.0
 11
181.144248
 21
254.231161
 31
0.0
  0
LINE
  5
D6
330
1F
100
AcDbEntity
  8
NOCUT
100
AcDbLine
 10
181.144248
 20
254.231161
 30
0.0
 11
198.144248
 21
254.231161
 31
0.0
  0
LINE
  5
D7
330
1F
100
AcDbEntity
  8
NOCUT
100
AcDbLine
 10
198.144248
 20
254.231161
 30
0.0
 11
200.144248
 21
256.231161
 31
0.0
  0
LINE
  5
D8
330
1F
100
AcDbEntity
  8
NOCUT
100
AcDbLine
 10
200.144248
 20
256.231161
 30
0.0
 11
205.144248
 21
256.231161
 31
0.0
  0
LINE
  5
D9
330
1F
100
AcDbEntity
  8
NOCUT
100
AcDbLine
 10
205.144248
 20
256.231161
 30
0.0
 11
207.144248
 21
254.231161
 31
0.0
  0
LINE
  5
DA
330
1F
100
AcDbEntity
  8
NOCUT
100
AcDbLine
 10
207.144248
 20
254.231161
 30
0.0
 11
219.144248
 21
254.231161
 31
0.0
  0
LINE
  5
DB
330
1F
100
AcDbEntity
  8
NOCUT
100
AcDbLine
 10
219.144248
 20
254.231161
 30
0.0
 11
221.144248
 21
256.231161
 31
0.0
  0
LINE
  5
DC
330
1F
100
AcDbEntity
  8
NOCUT
100
AcDbLine
 10
221.144248
 20
256.231161
 30
0.0
 11
237.144248
 21
256.231161
 31
0.0
  0
LINE
  5
DD
330
1F
100
AcDbEntity
  8
NOCUT
100
AcDbLine
 10
238.442414
 20
255.670121
 30
0.0
 11
251.911615
 21
255.042424
 31
0.0
  0
LINE
  5
DE
330
1F
100
AcDbEntity
  8
NOCUT
100
AcDbLine
 10
252.377134
 20
255.031582
 30
0.0
 11
313.131786
 21
255.031582
 31
0.0
  0
LINE
  5
DF
330
1F
100
AcDbEntity
  8
NOCUT
100
AcDbLine
 10
313.69636
 20
255.015632
 30
0.0
 11
318.538185
 21
254.741839
 31
0.0
  0
LINE
  5
E0
330
1F
100
AcDbEntity
  8
NOCUT
100
AcDbLine
 10
318.729145
 20
248.982831
 30
0.0
 11
317.763426
 21
247.310158
 31
0.0
  0
LINE
  5
E1
330
1F
100
AcDbEntity
  8
NOCUT
100
AcDbLine
 10
319.009954
 20
254.241128
 30
0.0
 11
318.997085
 21
249.976796
 31
0.0
  0
LINE
  5
E2
330
1F
100
AcDbEntity
  8
NOCUT
100
AcDbLine
 10
317.495477
 20
246.310158
 30
0.0
 11
317.495477
 21
243.731161
 31
0.0
  0
LINE
  5
E3
330
1F
100
AcDbEntity
  8
NOCUT
100
AcDbLine
 10
295.144248
 20
246.731161
 30
0.0
 11
183.144248
 21
246.731161
 31
0.0
  0
LINE
  5
E4
102
{ACAD_REACTORS
330
24E
102
}
330
1F
100
AcDbEntity
  8
SK4
100
AcDbLine
 10
179.144248
 20
243.731161
 30
0.0
 11
240.644248
 21
243.731161
 31
0.0
  0
ARC
  5
E5
330
1F
100
AcDbEntity
  8
1
100
AcDbCircle
 10
238.535518
 20
229.79437
 30
0.0
 40
2.0
100
AcDbArc
 50
92.668192
 51
134.077814
  0
ARC
  5
E6
330
1F
100
AcDbEntity
  8
1
100
AcDbCircle
 10
238.535518
 20
257.6679529999999
 30
0.0
 40
2.0
100
AcDbArc
 50
225.922186
 51
267.331808
  0
ARC
  5
E7
330
1F
100
AcDbEntity
  8
1
100
AcDbCircle
 10
252.377134
 20
222.43074
 30
0.0
 40
10.0
100
AcDbArc
 50
90.0
 51
92.668192
  0
ARC
  5
E8
330
1F
100
AcDbEntity
  8
1
100
AcDbCircle
 10
252.377134
 20
265.0315819999999
 30
0.0
 40
10.0
100
AcDbArc
 50
267.331808
 51
270.0
  0
ARC
  5
E9
330
1F
100
AcDbEntity
  8
NOCUT
100
AcDbCircle
 10
238.535518
 20
257.6679529999999
 30
0.0
 40
2.0
100
AcDbArc
 50
225.922186
 51
267.331808
  0
ARC
  5
EA
330
1F
100
AcDbEntity
  8
NOCUT
100
AcDbCircle
 10
252.377134
 20
265.0315819999999
 30
0.0
 40
10.0
100
AcDbArc
 50
267.331808
 51
270.0
  0
ARC
  5
EB
330
1F
100
AcDbEntity
  8
NOCUT
100
AcDbCircle
 10
313.131786
 20
245.031582
 30
0.0
 40
10.0
100
AcDbArc
 50
86.76351099999999
 51
90.0
  0
ARC
  5
EC
330
1F
100
AcDbEntity
  8
NOCUT
100
AcDbCircle
 10
319.495477
 20
246.310158
 30
0.0
 40
2.0
100
AcDbArc
 50
150.0
 51
180.0
  0
ARC
  5
ED
330
1F
100
AcDbEntity
  8
NOCUT
100
AcDbCircle
 10
318.509957
 20
254.242636
 30
0.0
 40
0.5
100
AcDbArc
 50
359.827084
 51
86.76351099999999
  0
ARC
  5
EE
330
1F
100
AcDbEntity
  8
NOCUT
100
AcDbCircle
 10
316.997094
 20
249.982831
 30
0.0
 40
2.0
100
AcDbArc
 50
330.0
 51
359.827084
  0
ELLIPSE
  5
EF
330
1F
100
AcDbEntity
  8
1
100
AcDbEllipse
 10
316.508371
 20
236.721001
 30
0.0
 11
0.5632165454036197
 21
-0.9448741307621933
 31
0.0
210
0.0
220
0.0
230
0.9999999999999998
 40
0.9795739999999998
 41
0.0
 42
6.283185307179585
  0
ELLIPSE
  5
F0
330
1F
100
AcDbEntity
  8
1
100
AcDbEllipse
 10
315.592927
 20
251.286996
 30
0.0
 11
1.07523158667966
 21
1.803850613273269
 31
0.0
210
0.0
220
0.0
230
1.0
 40
0.9795739999999998
 41
3.828917216706609
 42
5.905412005688556
  0
ELLIPSE
  5
F1
330
1F
100
AcDbEntity
  8
1
100
AcDbEllipse
 10
315.592927
 20
251.286996
 30
0.0
 11
1.07523158667966
 21
1.803850613273269
 31
0.0
210
0.0
220
0.0
230
1.0
 40
0.9795739999999998
 41
3.1414976354187
 42
3.426008076088109
  0
ELLIPSE
  5
F2
330
1F
100
AcDbEntity
  8
1
100
AcDbEllipse
 10
315.592927
 20
251.286996
 30
0.0
 11
1.07523158667966
 21
1.803850613273269
 31
0.0
210
0.0
220
0.0
230
1.0
 40
0.9795739999999998
 41
5.90541200568857
 42
6.283185307179585
  0
ELLIPSE
  5
F3
330
1F
100
AcDbEntity
  8
1
100
AcDbEllipse
 10
316.025351
 20
252.378555
 30
0.0
 11
0.0511532244653618
 21
0.0858166523992181
 31
0.0
210
0.0
220
0.0
230
1.0
 40
0.9795739999999998
 41
3.747479816115345
 42
4.596414968525851
  0
ELLIPSE
  5
F4
330
1F
100
AcDbEntity
  8
1
100
AcDbEllipse
 10
316.1805109999999
 20
252.259151
 30
0.0
 11
0.0511532244653618
 21
0.0858166523992182
 31
0.0
210
0.0
220
0.0
230
1.0
 40
0.979574
 41
0.0822883869270083
 42
1.454822314936111
  0
ELLIPSE
  5
F5
330
1F
100
AcDbEntity
  8
1
100
AcDbEllipse
 10
315.979331
 20
251.849926
 30
0.0
 11
0.2846651922510939
 21
0.4775654733185143
 31
0.0
210
0.0
220
0.0
230
0.9999999999999998
 40
0.9795739999999998
 41
5.445350120936773
 42
6.365473694106619
  0
ELLIPSE
  5
F6
330
1F
100
AcDbEntity
  8
1
100
AcDbEllipse
 10
316.420767
 20
251.942034
 30
0.0
 11
0.0511532244653618
 21
0.085816652399218
 31
0.0
210
0.0
220
0.0
230
1.0
 40
0.9795739999999998
 41
4.072816192927716
 42
5.445350120936671
  0
ELLIPSE
  5
F7
330
1F
100
AcDbEntity
  8
1
100
AcDbEllipse
 10
316.494603
 20
251.759186
 30
0.0
 11
0.0511532244653618
 21
0.0858166523992181
 31
0.0
210
0.0
220
0.0
230
0.9999999999999996
 40
0.9795739999999998
 41
0.9312235393380367
 42
1.780158691748757
  0
ELLIPSE
  5
F8
330
1F
100
AcDbEntity
  8
1
100
AcDbEllipse
 10
316.918502
 20
251.616858
 30
0.0
 11
0.2846651922510938
 21
0.4775654733185142
 31
0.0
210
0.0
220
0.0
230
1.0
 40
0.9795739999999998
 41
1.780158691748682
 42
2.700282264918535
  0
ELLIPSE
  5
F9
330
1F
100
AcDbEntity
  8
1
100
AcDbEllipse
 10
316.543455
 20
251.360343
 30
0.0
 11
0.0511532244653618
 21
0.0858166523992181
 31
0.0
210
0.0
220
0.0
230
1.0
 40
0.9795739999999998
 41
2.700282264918494
 42
3.549217417329332
  0
ELLIPSE
  5
FA
330
1F
100
AcDbEntity
  8
1
100
AcDbEllipse
 10
316.516181
 20
251.163043
 30
0.0
 11
0.0511532244653618
 21
0.0858166523992182
 31
0.0
210
0.0
220
0.0
230
1.0
 40
0.979574
 41
5.318276142909941
 42
6.690810070919126
  0
ELLIPSE
  5
FB
330
1F
100
AcDbEntity
  8
1
100
AcDbEllipse
 10
316.067759
 20
251.127971
 30
0.0
 11
0.2846651922510939
 21
0.4775654733185143
 31
0.0
210
0.0
220
0.0
230
0.9999999999999998
 40
0.9795739999999998
 41
4.398152569740188
 42
5.318276142910012
  0
ELLIPSE
  5
FC
330
1F
100
AcDbEntity
  8
1
100
AcDbEllipse
 10
316.360539
 20
250.789344
 30
0.0
 11
0.0511532244653618
 21
0.085816652399218
 31
0.0
210
0.0
220
0.0
230
1.0
 40
0.9795739999999998
 41
3.025618641730964
 42
4.398152569740141
  0
ELLIPSE
  5
FD
330
1F
100
AcDbEntity
  8
1
100
AcDbEllipse
 10
316.239465
 20
250.63046
 30
0.0
 11
0.0511532244653618
 21
0.0858166523992181
 31
0.0
210
0.0
220
0.0
230
0.9999999999999996
 40
0.9795739999999998
 41
6.167211295320877
 42
7.016146447731893
  0
ELLIPSE
  5
FE
330
1F
100
AcDbEntity
  8
1
100
AcDbEllipse
 10
316.322675
 20
250.186268
 30
0.0
 11
0.2846651922510938
 21
0.4775654733185142
 31
0.0
210
0.0
220
0.0
230
1.0
 40
0.9795739999999998
 41
0.7329611405520913
 42
1.653084713721941
  0
ELLIPSE
  5
FF
330
1F
100
AcDbEntity
  8
1
100
AcDbEllipse
 10
315.921032
 20
250.382037
 30
0.0
 11
0.0511532244653618
 21
0.0858166523992181
 31
0.0
210
0.0
220
0.0
230
1.0
 40
0.9795739999999998
 41
1.653084713721786
 42
2.502019866132656
  0
ELLIPSE
  5
100
330
1F
100
AcDbEntity
  8
1
100
AcDbEllipse
 10
315.738599
 20
250.304141
 30
0.0
 11
0.0511532244653618
 21
0.0858166523992182
 31
0.0
210
0.0
220
0.0
230
1.0
 40
0.979574
 41
4.271078591713558
 42
5.643612519722652
  0
ELLIPSE
  5
101
330
1F
100
AcDbEntity
  8
1
100
AcDbEllipse
 10
315.491357
 20
250.678294
 30
0.0
 11
0.2846651922510939
 21
0.4775654733185143
 31
0.0
210
0.0
220
0.0
230
0.9999999999999998
 40
0.9795739999999998
 41
3.350955018543562
 42
4.271078591713434
  0
ELLIPSE
  5
102
330
1F
100
AcDbEntity
  8
1
100
AcDbEllipse
 10
315.3427
 20
250.247559
 30
0.0
 11
0.0511532244653618
 21
0.085816652399218
 31
0.0
210
0.0
220
0.0
230
1.0
 40
0.9795739999999998
 41
1.97842109053459
 42
3.350955018543412
  0
ELLIPSE
  5
103
330
1F
100
AcDbEntity
  8
1
100
AcDbEllipse
 10
315.147791
 20
250.271524
 30
0.0
 11
0.0511532244653618
 21
0.0858166523992181
 31
0.0
210
0.0
220
0.0
230
0.9999999999999996
 40
0.9795739999999998
 41
5.120013744124223
 42
5.968948896535044
  0
ELLIPSE
  5
104
330
1F
100
AcDbEntity
  8
1
100
AcDbEllipse
 10
314.807101
 20
249.96966
 30
0.0
 11
0.2846651922510938
 21
0.4775654733185142
 31
0.0
210
0.0
220
0.0
230
1.0
 40
0.9795739999999998
 41
5.968948896535099
 42
6.889072469704927
  0
ELLIPSE
  5
105
330
1F
100
AcDbEntity
  8
1
100
AcDbEllipse
 10
314.780507
 20
250.421943
 30
0.0
 11
0.0511532244653618
 21
0.0858166523992181
 31
0.0
210
0.0
220
0.0
230
1.0
 40
0.9795739999999998
 41
0.6058871625255341
 42
1.454822314936111
  0
ELLIPSE
  5
106
330
1F
100
AcDbEntity
  8
1
100
AcDbEllipse
 10
314.625347
 20
250.541347
 30
0.0
 11
0.0511532244653618
 21
0.0858166523992182
 31
0.0
210
0.0
220
0.0
230
1.0
 40
0.979574
 41
3.223881040516801
 42
4.596414968526054
  0
ELLIPSE
  5
107
330
1F
100
AcDbEntity
  8
1
100
AcDbEllipse
 10
305.643752
 20
249.303733
 30
0.0
 11
7.671126142715975
 21
12.86938159970314
 31
0.0
210
0.0
220
0.0
230
0.9999999999999998
 40
0.9795739999999998
 41
5.646817303785446
 42
5.693603778452901
  0
ELLIPSE
  5
108
330
1F
100
AcDbEntity
  8
1
100
AcDbEllipse
 10
319.598754
 20
248.383846
 30
0.0
 11
0.1024030082552056
 21
0.171795296502216
 31
0.0
210
0.0
220
0.0
230
1.0
 40
0.9795739999999998
 41
4.123374866377421
 42
4.994533208471704
  0
ELLIPSE
  5
109
330
1F
100
AcDbEntity
  8
1
100
AcDbEllipse
 10
315.824325
 20
253.480039
 30
0.0
 11
2.550975729955694
 21
4.279616774592336
 31
0.0
210
0.0
220
0.0
230
1.0
 40
0.979574
 41
1.854744943951022
 42
2.114603879486289
  0
ELLIPSE
  5
10A
330
1F
100
AcDbEntity
  8
1
100
AcDbEllipse
 10
317.499737
 20
251.225991
 30
0.0
 11
2.550975729955694
 21
4.279616774592336
 31
0.0
210
0.0
220
0.0
230
1.0
 40
0.979574
 41
0.28394861715658
 42
0.5438075526913961
  0
ELLIPSE
  5
10B
330
1F
100
AcDbEntity
  8
1
100
AcDbEllipse
 10
310.202938
 20
251.267611
 30
0.0
 11
5.111050936335835
 21
8.574499187147734
 31
0.0
210
0.0
220
0.0
230
1.0
 40
0.979574
 41
5.380703519018651
 42
5.646817303785449
  0
ELLIPSE
  5
10C
330
1F
100
AcDbEntity
  8
1
100
AcDbEllipse
 10
295.537602
 20
249.188291
 30
0.0
 11
12.79127655547626
 21
21.45914642481394
 31
0.0
210
0.0
220
0.0
230
0.9999999999999998
 40
0.9795739999999998
 41
5.256196533076082
 42
5.380703519018632
  0
ELLIPSE
  5
10D
330
1F
100
AcDbEntity
  8
1
100
AcDbEllipse
 10
315.236923
 20
237.969469
 30
0.0
 11
-2.550975729955819
 21
4.279616774592259
 31
0.0
210
0.0
220
0.0
230
1.0
 40
0.9795739999999998
 41
4.168581427693303
 42
4.428440363227213
  0
ELLIPSE
  5
10E
330
1F
100
AcDbEntity
  8
1
100
AcDbEllipse
 10
295.537602
 20
238.274032
 30
0.0
 11
-12.79127655547688
 21
21.45914642481356
 31
0.0
210
0.0
220
0.0
230
1.0
 40
0.9795739999999998
 41
4.044074441750754
 42
4.168581427693306
  0
ELLIPSE
  5
10F
330
1F
100
AcDbEntity
  8
1
100
AcDbEllipse
 10
317.499737
 20
236.236332
 30
0.0
 11
-2.550975729955819
 21
4.279616774592259
 31
0.0
210
0.0
220
0.0
230
1.0
 40
0.9795739999999998
 41
2.597785100898403
 42
2.857644036433216
  0
ELLIPSE
  5
110
330
1F
100
AcDbEntity
  8
1
100
AcDbEllipse
 10
317.44375
 20
256.127716
 30
0.0
 11
-12.79127655547688
 21
21.45914642481356
 31
0.0
210
0.0
220
0.0
230
1.0
 40
0.9795739999999998
 41
2.47327811495586
 42
2.597785100898411
  0
ELLIPSE
  5
111
330
1F
100
AcDbEntity
  8
1
100
AcDbEllipse
 10
313.548363
 20
226.02946
 30
0.0
 11
-7.671126142716353
 21
12.86938159970291
 31
0.0
210
0.0
220
0.0
230
1.0
 40
0.9795739999999998
 41
5.30197050911104
 42
5.348756983778837
  0
ELLIPSE
  5
112
330
1F
100
AcDbEntity
  8
1
100
AcDbEllipse
 10
305.643752
 20
238.15859
 30
0.0
 11
-7.671126142716353
 21
12.86938159970291
 31
0.0
210
0.0
220
0.0
230
1.0
 40
0.9795739999999998
 41
3.731174182316487
 42
3.777960656983941
  0
ELLIPSE
  5
113
330
1F
100
AcDbEntity
  8
1
100
AcDbEllipse
 10
315.410611
 20
230.598725
 30
0.0
 11
-5.111050936336087
 21
8.574499187147587
 31
0.0
210
0.0
220
0.0
230
1.0
 40
0.979574
 41
5.348756983778836
 42
5.361746626904224
  0
ELLIPSE
  5
114
330
1F
100
AcDbEntity
  8
1
100
AcDbEllipse
 10
310.202938
 20
236.194711
 30
0.0
 11
-5.111050936336087
 21
8.574499187147587
 31
0.0
210
0.0
220
0.0
230
1.0
 40
0.979574
 41
3.777960656983939
 42
4.044074441750738
  0
ELLIPSE
  5
115
330
1F
100
AcDbEntity
  8
1
100
AcDbEllipse
 10
316.149804
 20
237.5922
 30
0.0
 11
-1.900481359517353
 21
5.112283685282761
 31
0.0
210
0.0
220
0.0
230
1.0
 40
0.6465350000000001
 41
3.52387571960254
 42
3.955576201253603
  0
ELLIPSE
  5
116
330
1F
100
AcDbEntity
  8
1
100
AcDbEllipse
 10
310.396801
 20
241.652314
 30
0.0
 11
-4.849171018225611
 21
13.04424153039558
 31
0.0
210
0.0
220
0.0
230
1.0
 40
0.6465350000000001
 41
3.955576201174895
 42
4.194293898325153
  0
ELLIPSE
  5
117
330
1F
100
AcDbEntity
  8
1
100
AcDbEllipse
 10
318.202566
 20
238.654497
 30
0.0
 11
-0.9582710987409841
 21
2.577743622570696
 31
0.0
210
0.0
220
0.0
230
1.0
 40
0.6465350000000001
 41
4.194293898431163
 42
4.640932478328451
  0
ELLIPSE
  5
118
330
1F
100
AcDbEntity
  8
1
100
AcDbEllipse
 10
321.904111
 20
225.279213
 30
0.0
 11
-5.072189640672054
 21
13.64415975238458
 31
0.0
210
0.0
220
0.0
230
1.0
 40
0.6465350000000001
 41
5.984057377929802
 42
6.015860215512415
  0
ELLIPSE
  5
119
330
1F
100
AcDbEntity
  8
1
100
AcDbEllipse
 10
321.00185
 20
230.219012
 30
0.0
 11
-3.285793323225512
 21
8.838764603034471
 31
0.0
210
0.0
220
0.0
230
1.0
 40
0.6465350000000001
 41
6.015860224935257
 42
6.04941352576067
  0
ELLIPSE
  5
11A
330
1F
100
AcDbEntity
  8
1
100
AcDbEllipse
 10
317.512885
 20
245.922293
 30
0.0
 11
-7.671126142716353
 21
12.86938159970291
 31
0.0
210
0.0
220
0.0
230
1.0
 40
0.9795739999999998
 41
2.16037785552162
 42
2.207164330189046
  0
ELLIPSE
  5
11B
330
1F
100
AcDbEntity
  8
1
100
AcDbEllipse
 10
317.836186
 20
235.596045
 30
0.0
 11
-5.027101633920073
 21
3.675542247637229
 31
0.0
210
0.0
220
0.0
230
1.0
 40
0.6144350000000001
 41
4.897783135497346
 42
4.919988796678052
  0
ELLIPSE
  5
11C
330
1F
100
AcDbEntity
  8
1
100
AcDbEllipse
 10
315.650637
 20
241.353029
 30
0.0
 11
-5.111050936336087
 21
8.574499187147587
 31
0.0
210
0.0
220
0.0
230
1.0
 40
0.979574
 41
2.207164330189044
 42
2.473278114955845
  0
ELLIPSE
  5
11D
330
1F
100
AcDbEntity
  8
1
100
AcDbEllipse
 10
304.654811
 20
228.090533
 30
0.0
 11
-9.363911176588514
 21
-19.37009732961682
 31
0.0
210
0.0
220
0.0
230
1.0
 40
0.582986
 41
2.054211823967833
 42
2.086014666044896
  0
ELLIPSE
  5
11E
330
1F
100
AcDbEntity
  8
1
100
AcDbEllipse
 10
309.740626
 20
229.778867
 30
0.0
 11
-6.066002407499074
 21
-12.54806408855811
 31
0.0
210
0.0
220
0.0
230
1.0
 40
0.582986
 41
2.08601504879408
 42
2.119568340195639
  0
ELLIPSE
  5
11F
330
1F
100
AcDbEntity
  8
1
100
AcDbEllipse
 10
318.096172
 20
239.259259
 30
0.0
 11
-3.508533359100081
 21
-7.257716388503042
 31
0.0
210
0.0
220
0.0
230
1.0
 40
0.582986
 41
5.877215599143668
 42
6.308916080793004
  0
ELLIPSE
  5
120
330
1F
100
AcDbEntity
  8
1
100
AcDbEllipse
 10
323.369131
 20
250.597883
 30
0.0
 11
-8.952194237685873
 21
-18.51841786348446
 31
0.0
210
0.0
220
0.0
230
1.0
 40
0.582986
 41
0.0257307736143331
 42
0.2644484707856412
  0
ELLIPSE
  5
121
330
1F
100
AcDbEntity
  8
1
100
AcDbEllipse
 10
318.69992
 20
235.160978
 30
0.0
 11
-1.769091867297709
 21
-3.659525426751977
 31
0.0
210
0.0
220
0.0
230
1.0
 40
0.582986
 41
0.2644484707780326
 42
0.7110870506737492
  0
ELLIPSE
  5
122
330
1F
100
AcDbEntity
  8
1
100
AcDbEllipse
 10
309.100278
 20
241.161032
 30
0.0
 11
-14.40863593362007
 21
-3.333405832230469
 31
0.0
210
0.0
220
0.0
230
0.9999999999999998
 40
0.580574
 41
1.691615071650435
 42
1.723294606185398
  0
ELLIPSE
  5
123
330
1F
100
AcDbEntity
  8
1
100
AcDbEllipse
 10
305.207521
 20
243.731161
 30
0.0
 11
-66.71621789546229
 21
3.226900974754048
 31
0.0
210
0.0
220
0.0
230
1.0
 40
0.162328
 41
1.504137982434695
 42
1.668050011915974
  0
ELLIPSE
  5
124
330
1F
100
AcDbEntity
  8
1
100
AcDbEllipse
 10
310.559457
 20
243.731161
 30
0.0
 11
-1.451539501207038
 21
-11.25656777720644
 31
0.0
210
0.0
220
0.0
230
1.0
 40
0.685192
 41
0.2838330101814202
 42
0.4688504988868731
  0
ELLIPSE
  5
125
330
1F
100
AcDbEntity
  8
1
100
AcDbEllipse
 10
314.826526
 20
250.950572
 30
0.0
 11
0.2846651922510939
 21
0.4775654733185143
 31
0.0
210
0.0
220
0.0
230
0.9999999999999998
 40
0.9795739999999998
 41
2.303757467346989
 42
3.223881040516837
  0
ELLIPSE
  5
126
330
1F
100
AcDbEntity
  8
1
100
AcDbEllipse
 10
314.38509
 20
250.858464
 30
0.0
 11
0.0511532244653618
 21
0.085816652399218
 31
0.0
210
0.0
220
0.0
230
1.0
 40
0.9795739999999998
 41
0.9312235393379227
 42
2.30375746734683
  0
ELLIPSE
  5
127
330
1F
100
AcDbEntity
  8
1
100
AcDbEllipse
 10
314.311255
 20
251.041312
 30
0.0
 11
0.0511532244653618
 21
0.0858166523992181
 31
0.0
210
0.0
220
0.0
230
0.9999999999999996
 40
0.9795739999999998
 41
4.072816192927772
 42
4.921751345338481
  0
ELLIPSE
  5
128
330
1F
100
AcDbEntity
  8
1
100
AcDbEllipse
 10
313.887355
 20
251.18364
 30
0.0
 11
0.2846651922510938
 21
0.4775654733185142
 31
0.0
210
0.0
220
0.0
230
1.0
 40
0.9795739999999998
 41
4.921751345338457
 42
5.841874918508362
  0
ELLIPSE
  5
129
330
1F
100
AcDbEntity
  8
1
100
AcDbEllipse
 10
314.262403
 20
251.440155
 30
0.0
 11
0.0511532244653618
 21
0.0858166523992181
 31
0.0
210
0.0
220
0.0
230
1.0
 40
0.9795739999999998
 41
5.841874918508287
 42
6.690810070919126
  0
ELLIPSE
  5
12A
330
1F
100
AcDbEntity
  8
1
100
AcDbEllipse
 10
314.289676
 20
251.637455
 30
0.0
 11
0.0511532244653618
 21
0.0858166523992182
 31
0.0
210
0.0
220
0.0
230
1.0
 40
0.979574
 41
2.176683489320306
 42
3.549217417329371
  0
ELLIPSE
  5
12B
330
1F
100
AcDbEntity
  8
1
100
AcDbEllipse
 10
314.738098
 20
251.672527
 30
0.0
 11
0.2846651922510939
 21
0.4775654733185143
 31
0.0
210
0.0
220
0.0
230
0.9999999999999998
 40
0.9795739999999998
 41
1.256559916150371
 42
2.176683489320244
  0
ELLIPSE
  5
12C
330
1F
100
AcDbEntity
  8
1
100
AcDbEllipse
 10
314.4453180000001
 20
252.011154
 30
0.0
 11
0.0511532244653618
 21
0.085816652399218
 31
0.0
210
0.0
220
0.0
230
1.0
 40
0.9795739999999998
 41
6.167211295320814
 42
7.539745223329956
  0
ELLIPSE
  5
12D
330
1F
100
AcDbEntity
  8
1
100
AcDbEllipse
 10
314.566392
 20
252.170038
 30
0.0
 11
0.0511532244653618
 21
0.0858166523992181
 31
0.0
210
0.0
220
0.0
230
0.9999999999999996
 40
0.9795739999999998
 41
3.025618641731093
 42
3.874553794141944
  0
ELLIPSE
  5
12E
330
1F
100
AcDbEntity
  8
1
100
AcDbEllipse
 10
314.483183
 20
252.614229
 30
0.0
 11
0.2846651922510938
 21
0.4775654733185142
 31
0.0
210
0.0
220
0.0
230
1.0
 40
0.9795739999999998
 41
3.874553794141855
 42
4.794677367311721
  0
ELLIPSE
  5
12F
330
1F
100
AcDbEntity
  8
1
100
AcDbEllipse
 10
314.884825
 20
252.418461
 30
0.0
 11
0.0511532244653618
 21
0.0858166523992181
 31
0.0
210
0.0
220
0.0
230
1.0
 40
0.9795739999999998
 41
4.79467736731158
 42
5.643612519722524
  0
ELLIPSE
  5
130
330
1F
100
AcDbEntity
  8
1
100
AcDbEllipse
 10
315.067258
 20
252.496357
 30
0.0
 11
0.0511532244653618
 21
0.0858166523992182
 31
0.0
210
0.0
220
0.0
230
1.0
 40
0.979574
 41
1.12948593812386
 42
2.502019866132699
  0
ELLIPSE
  5
131
330
1F
100
AcDbEntity
  8
1
100
AcDbEllipse
 10
315.3145
 20
252.122204
 30
0.0
 11
0.2846651922510939
 21
0.4775654733185143
 31
0.0
210
0.0
220
0.0
230
0.9999999999999998
 40
0.9795739999999998
 41
0.2093623649537664
 42
1.129485938123647
  0
ELLIPSE
  5
132
330
1F
100
AcDbEntity
  8
1
100
AcDbEllipse
 10
315.463157
 20
252.552939
 30
0.0
 11
0.0511532244653618
 21
0.085816652399218
 31
0.0
210
0.0
220
0.0
230
1.0
 40
0.9795739999999998
 41
5.120013744124376
 42
6.492547672133348
  0
ELLIPSE
  5
133
330
1F
100
AcDbEntity
  8
1
100
AcDbEllipse
 10
315.658066
 20
252.528974
 30
0.0
 11
0.0511532244653618
 21
0.0858166523992181
 31
0.0
210
0.0
220
0.0
230
0.9999999999999996
 40
0.9795739999999998
 41
1.978421090534574
 42
2.827356242945228
  0
ELLIPSE
  5
134
330
1F
100
AcDbEntity
  8
1
100
AcDbEllipse
 10
315.998756
 20
252.830838
 30
0.0
 11
0.2846651922510938
 21
0.4775654733185142
 31
0.0
210
0.0
220
0.0
230
1.0
 40
0.9795739999999998
 41
2.827356242945286
 42
3.747479816115162
  0
ELLIPSE
  5
135
330
1F
100
AcDbEntity
  8
1
100
AcDbEllipse
 10
315.402929
 20
251.400249
 30
0.0
 11
-0.8448248181054468
 21
-1.41731119614328
 31
0.0
210
0.0
220
0.0
230
1.0
 40
0.979574
 41
0.0
 42
6.283185307179585
  0
ELLIPSE
  5
136
330
1F
100
AcDbEntity
  8
1
100
AcDbEllipse
 10
315.434414
 20
251.381481
 30
0.0
 11
-1.07523158667966
 21
-1.803850613273266
 31
0.0
210
0.0
220
0.0
230
0.9999999999999998
 40
0.9795739999999998
 41
0.0
 42
6.283185307179585
  0
ELLIPSE
  5
137
330
1F
100
AcDbEntity
  8
1
100
AcDbEllipse
 10
317.512885
 20
241.54003
 30
0.0
 11
7.671126142715975
 21
12.86938159970314
 31
0.0
210
0.0
220
0.0
230
0.9999999999999998
 40
0.9795739999999998
 41
0.9344283234007582
 42
0.9812147980681839
  0
ELLIPSE
  5
138
330
1F
100
AcDbEntity
  8
1
100
AcDbEllipse
 10
315.650637
 20
246.109294
 30
0.0
 11
5.111050936335835
 21
8.574499187147734
 31
0.0
210
0.0
220
0.0
230
1.0
 40
0.979574
 41
0.6683145386339581
 42
0.9344283234007599
  0
ELLIPSE
  5
139
330
1F
100
AcDbEntity
  8
1
100
AcDbEllipse
 10
335.523646
 20
253.784601
 30
0.0
 11
12.79127655547626
 21
21.45914642481394
 31
0.0
210
0.0
220
0.0
230
0.9999999999999998
 40
0.9795739999999998
 41
2.114603879486289
 42
2.239110865428839
  0
ELLIPSE
  5
13A
330
1F
100
AcDbEntity
  8
1
100
AcDbEllipse
 10
320.85831
 20
251.705281
 30
0.0
 11
5.111050936335835
 21
8.574499187147734
 31
0.0
210
0.0
220
0.0
230
1.0
 40
0.979574
 41
2.239110865428854
 42
2.333697633689081
  0
ELLIPSE
  5
13B
330
1F
100
AcDbEntity
  8
1
100
AcDbEllipse
 10
317.44375
 20
231.334607
 30
0.0
 11
12.79127655547626
 21
21.45914642481394
 31
0.0
210
0.0
220
0.0
230
0.9999999999999998
 40
0.9795739999999998
 41
0.5438075526913935
 42
0.6683145386339425
  0
ELLIPSE
  5
13C
330
1F
100
AcDbEntity
  8
1
100
AcDbEllipse
 10
315.715211
 20
251.376418
 30
0.0
 11
-1.152033842871063
 21
-1.932697085649928
 31
0.0
210
0.0
220
0.0
230
0.9999999999999998
 40
0.9795739999999998
 41
2.747733160776953
 42
4.260802527527569
  0
ELLIPSE
  5
13D
330
1F
100
AcDbEntity
  8
1
100
AcDbEllipse
 10
315.715211
 20
251.376418
 30
0.0
 11
-1.152033842871063
 21
-1.932697085649928
 31
0.0
210
0.0
220
0.0
230
0.9999999999999998
 40
0.9795739999999998
 41
6.1861078198427
 42
6.283185307179585
  0
ELLIPSE
  5
13E
330
1F
100
AcDbEntity
  8
1
100
AcDbEllipse
 10
315.715211
 20
251.376418
 30
0.0
 11
-1.152033842871063
 21
-1.932697085649928
 31
0.0
210
0.0
220
0.0
230
0.9999999999999998
 40
0.9795739999999998
 41
0.0
 42
0.1903783937167494
  0
ELLIPSE
  5
13F
330
1F
100
AcDbEntity
  8
1
100
AcDbEllipse
 10
315.410611
 20
256.863598
 30
0.0
 11
5.111050936335835
 21
8.574499187147734
 31
0.0
210
0.0
220
0.0
230
1.0
 40
0.979574
 41
4.063031333865161
 42
4.076020976990549
  0
ELLIPSE
  5
140
330
1F
100
AcDbEntity
  8
1
100
AcDbEllipse
 10
313.548363
 20
261.432862
 30
0.0
 11
7.671126142715975
 21
12.86938159970314
 31
0.0
210
0.0
220
0.0
230
0.9999999999999998
 40
0.9795739999999998
 41
4.076020976990549
 42
4.122807451658348
  0
ELLIPSE
  5
141
330
1F
100
AcDbEntity
  8
1
100
AcDbEllipse
 10
315.236923
 20
249.492853
 30
0.0
 11
2.550975729955694
 21
4.279616774592336
 31
0.0
210
0.0
220
0.0
230
1.0
 40
0.979574
 41
4.996337597542173
 42
5.256196533076084
  0
ELLIPSE
  5
142
330
1F
100
AcDbEntity
  8
1
100
AcDbEllipse
 10
313.536907
 20
261.439691
 30
0.0
 11
-7.577822610885223
 21
-12.71285194116398
 31
0.0
210
0.0
220
0.0
230
1.0
 40
0.9795739999999998
 41
0.9344283234007582
 42
0.9817822127877068
  0
ELLIPSE
  5
143
330
1F
100
AcDbEntity
  8
1
100
AcDbEllipse
 10
315.225467
 20
249.499682
 30
0.0
 11
-2.457672198124936
 21
-4.123087116053183
 31
0.0
210
0.0
220
0.0
230
0.9999999999999998
 40
0.9795739999999998
 41
1.852940554881873
 42
2.114603879486289
  0
ELLIPSE
  5
144
330
1F
100
AcDbEntity
  8
1
100
AcDbEllipse
 10
295.526146
 20
249.19512
 30
0.0
 11
-12.69797302364551
 21
-21.30261676627478
 31
0.0
210
0.0
220
0.0
230
0.9999999999999996
 40
0.9795739999999998
 41
2.114603879486289
 42
2.239110865428839
  0
ELLIPSE
  5
145
330
1F
100
AcDbEntity
  8
1
100
AcDbEllipse
 10
310.191482
 20
251.27444
 30
0.0
 11
-5.01774740450508
 21
-8.417969528608582
 31
0.0
210
0.0
220
0.0
230
1.0
 40
0.9795739999999998
 41
2.239110865428858
 42
2.505224650195654
  0
ELLIPSE
  5
146
330
1F
100
AcDbEntity
  8
1
100
AcDbEllipse
 10
305.632296
 20
249.310562
 30
0.0
 11
-7.577822610885223
 21
-12.71285194116398
 31
0.0
210
0.0
220
0.0
230
1.0
 40
0.9795739999999998
 41
2.505224650195654
 42
2.552578539582603
  0
ELLIPSE
  5
147
330
1F
100
AcDbEntity
  8
1
100
AcDbEllipse
 10
318.672793
 20
255.67023
 30
0.0
 11
0.1024030082552056
 21
0.171795296502216
 31
0.0
210
0.0
220
0.0
230
1.0
 40
0.9795739999999998
 41
5.694171193172496
 42
6.56532953526657
  0
ELLIPSE
  5
148
330
1F
100
AcDbEntity
  8
1
100
AcDbEllipse
 10
317.488281
 20
251.232819
 30
0.0
 11
-2.457672198124936
 21
-4.123087116053183
 31
0.0
210
0.0
220
0.0
230
0.9999999999999998
 40
0.9795739999999998
 41
3.423736881676776
 42
3.685400206281191
  0
ELLIPSE
  5
149
330
1F
100
AcDbEntity
  8
1
100
AcDbEllipse
 10
317.432294
 20
231.341436
 30
0.0
 11
-12.69797302364551
 21
-21.30261676627478
 31
0.0
210
0.0
220
0.0
230
0.9999999999999996
 40
0.9795739999999998
 41
3.685400206281186
 42
3.809907192223734
  0
ELLIPSE
  5
14A
330
1F
100
AcDbEntity
  8
1
100
AcDbEllipse
 10
315.639181
 20
246.116123
 30
0.0
 11
-5.01774740450508
 21
-8.417969528608582
 31
0.0
210
0.0
220
0.0
230
1.0
 40
0.9795739999999998
 41
3.809907192223749
 42
4.076020976990549
  0
ELLIPSE
  5
14B
330
1F
100
AcDbEntity
  8
1
100
AcDbEllipse
 10
317.501429
 20
241.546858
 30
0.0
 11
-7.577822610885223
 21
-12.71285194116398
 31
0.0
210
0.0
220
0.0
230
1.0
 40
0.9795739999999998
 41
4.076020976990549
 42
4.123374866377501
  0
ELLIPSE
  5
14C
330
1F
100
AcDbEntity
  8
1
100
AcDbEllipse
 10
311.439582
 20
254.602703
 30
0.0
 11
0.1024030082552056
 21
0.171795296502216
 31
0.0
210
0.0
220
0.0
230
1.0
 40
0.9795739999999998
 41
0.9817822127877073
 42
1.852940554881886
  0
ELLIPSE
  5
14D
330
1F
100
AcDbEntity
  8
1
100
AcDbEllipse
 10
315.812869
 20
253.486867
 30
0.0
 11
-2.457672198124936
 21
-4.123087116053183
 31
0.0
210
0.0
220
0.0
230
0.9999999999999998
 40
0.9795739999999998
 41
4.994533208471667
 42
5.256196533076082
  0
ELLIPSE
  5
14E
330
1F
100
AcDbEntity
  8
1
100
AcDbEllipse
 10
335.51219
 20
253.79143
 30
0.0
 11
-12.69797302364551
 21
-21.30261676627478
 31
0.0
210
0.0
220
0.0
230
0.9999999999999996
 40
0.9795739999999998
 41
5.256196533076082
 42
5.380703519018632
  0
ELLIPSE
  5
14F
330
1F
100
AcDbEntity
  8
1
100
AcDbEllipse
 10
320.846854
 20
251.712109
 30
0.0
 11
-5.01774740450508
 21
-8.417969528608582
 31
0.0
210
0.0
220
0.0
230
1.0
 40
0.9795739999999998
 41
5.380703519018648
 42
5.480957704047745
  0
ELLIPSE
  5
150
330
1F
100
AcDbEntity
  8
1
100
AcDbEllipse
 10
315.399155
 20
256.870427
 30
0.0
 11
-5.01774740450508
 21
-8.417969528608582
 31
0.0
210
0.0
220
0.0
230
1.0
 40
0.9795739999999998
 41
0.9300415999809544
 42
0.9344283234007576
  0
ELLIPSE
  5
151
330
1F
100
AcDbEntity
  8
1
100
AcDbEllipse
 10
315.5191680000001
 20
251.493275
 30
0.0
 11
-1.20287674861244
 21
-2.017993135206459
 31
0.0
210
0.0
220
0.0
230
1.0
 40
0.9795739999999998
 41
3.685400308836993
 42
6.283185307179585
  0
ELLIPSE
  5
152
330
1F
100
AcDbEntity
  8
1
100
AcDbEllipse
 10
315.5191680000001
 20
251.493275
 30
0.0
 11
-1.20287674861244
 21
-2.017993135206459
 31
0.0
210
0.0
220
0.0
230
1.0
 40
0.9795739999999998
 41
0.0
 42
0.2066752679574082
  0
ELLIPSE
  5
153
330
1F
100
AcDbEntity
  8
1
100
AcDbEllipse
 10
315.5191680000001
 20
251.493275
 30
0.0
 11
-1.20287674861244
 21
-2.017993135206459
 31
0.0
210
0.0
220
0.0
230
1.0
 40
0.9795739999999998
 41
0.7625410789799093
 42
3.68540030883699
  0
ELLIPSE
  5
154
330
1F
100
AcDbEntity
  8
1
100
AcDbEllipse
 10
312.162329
 20
243.731161
 30
0.0
 11
-0.1631690607289171
 21
-11.30038491089952
 31
0.0
210
0.0
220
0.0
230
1.0
 40
0.17482
 41
0.3832478235358143
 42
0.4410356976218285
  0
ELLIPSE
  5
155
330
1F
100
AcDbEntity
  8
1
100
AcDbEllipse
 10
402.7407109999999
 20
243.731139
 30
0.0
 11
-371.4837997480028
 21
10.87171385033202
 31
0.0
210
0.0
220
0.0
230
1.0
 40
0.0083
 41
4.956253543358543
 42
4.965897094987427
  0
ELLIPSE
  5
156
330
1F
100
AcDbEntity
  8
1
100
AcDbEllipse
 10
305.207521
 20
243.731161
 30
0.0
 11
-66.71621789152564
 21
-3.226900974545073
 31
0.0
210
0.0
220
0.0
230
1.0
 40
0.162328
 41
4.615135295259559
 42
4.77904732475054
  0
ELLIPSE
  5
157
330
1F
100
AcDbEntity
  8
1
100
AcDbEllipse
 10
315.103365
 20
244.108841
 30
0.0
 11
-63.89591448892657
 21
1.204028010187456
 31
0.0
210
0.0
220
0.0
230
0.9999999999999998
 40
0.165027
 41
1.551884083389872
 42
1.627688184265965
  0
ELLIPSE
  5
158
330
1F
100
AcDbEntity
  8
1
100
AcDbEllipse
 10
311.555501
 20
247.378572
 30
0.0
 11
-0.3046601632366807
 21
-8.307102622434339
 31
0.0
210
0.0
220
0.0
230
1.0
 40
0.177607
 41
3.703174410033951
 42
4.469634312051452
  0
ELLIPSE
  5
159
330
1F
100
AcDbEntity
  8
1
100
AcDbEllipse
 10
311.794959
 20
261.108816
 30
0.0
 11
-11.44362830253432
 21
-6.971611813163109
 31
0.0
210
0.0
220
0.0
230
0.9999999999999998
 40
0.9470860000000001
 41
6.266220527307544
 42
6.631894583254078
  0
ELLIPSE
  5
15A
330
1F
100
AcDbEntity
  8
1
100
AcDbEllipse
 10
316.605123
 20
236.778672
 30
0.0
 11
0.640018801595023
 21
-1.073720603138857
 31
0.0
210
0.0
220
0.0
230
0.9999999999999998
 40
0.9795739999999998
 41
4.118703763598897
 42
4.183891801834504
  0
ELLIPSE
  5
15B
330
1F
100
AcDbEntity
  8
1
100
AcDbEllipse
 10
316.605123
 20
236.778672
 30
0.0
 11
0.640018801595023
 21
-1.073720603138857
 31
0.0
210
0.0
220
0.0
230
0.9999999999999998
 40
0.9795739999999998
 41
4.183891801834503
 42
6.283185307179585
  0
ELLIPSE
  5
15C
330
1F
100
AcDbEntity
  8
1
100
AcDbEllipse
 10
316.605123
 20
236.778672
 30
0.0
 11
0.640018801595023
 21
-1.073720603138857
 31
0.0
210
0.0
220
0.0
230
0.9999999999999998
 40
0.9795739999999998
 41
0.0
 42
3.885833285255733
  0
ELLIPSE
  5
15D
330
1F
100
AcDbEntity
  8
1
100
AcDbEllipse
 10
316.605123
 20
236.778672
 30
0.0
 11
-0.7680225619140782
 21
1.288464723766593
 31
0.0
210
0.0
220
0.0
230
1.0
 40
0.9795739999999998
 41
4.170030050972498
 42
6.116835982000816
  0
ELLIPSE
  5
15E
330
1F
100
AcDbEntity
  8
1
100
AcDbEllipse
 10
311.527764
 20
261.5474049999999
 30
0.0
 11
12.8100316819414
 21
7.804043074436321
 31
0.0
210
0.0
220
0.0
230
1.0
 40
0.9470860000000001
 41
3.064677671374338
 42
3.077862452815043
  0
ELLIPSE
  5
15F
330
1F
100
AcDbEntity
  8
1
100
AcDbEllipse
 10
316.95379
 20
243.722375
 30
0.0
 11
-0.1602873852118939
 21
-11.099693371752
 31
0.0
210
0.0
220
0.0
230
1.0
 40
0.174829
 41
0.7048238807327858
 42
0.9164973298393748
  0
ELLIPSE
  5
160
330
1F
100
AcDbEntity
  8
1
100
AcDbEllipse
 10
334.487604
 20
244.071894
 30
0.0
 11
-57.64523393637473
 21
1.086242773620865
 31
0.0
210
0.0
220
0.0
230
1.0
 40
0.165027
 41
1.231509069358972
 42
1.285448680907489
  0
ELLIPSE
  5
161
330
1F
100
AcDbEntity
  8
1
100
AcDbEllipse
 10
313.9076839999999
 20
243.722239
 30
0.0
 11
-0.1627746651261746
 21
-11.27193420384889
 31
0.0
210
0.0
220
0.0
230
0.9999999999999996
 40
0.174829
 41
0.750965681814869
 42
0.9294037677491607
  0
SPLINE
  5
162
330
1F
100
AcDbEntity
  8
1
100
AcDbSpline
210
0.0
220
0.0
230
1.0
 70
     8
 71
     3
 72
    21
 73
    17
 74
     0
 42
0.000000001
 43
0.0000000001
 40
0.0
 40
0.0
 40
0.0
 40
0.0
 40
0.2500000000000037
 40
0.2500000000000037
 40
0.3125000000000128
 40
0.3125000000000128
 40
0.375000000000022
 40
0.375000000000022
 40
0.5000000000000304
 40
0.6250000000000389
 40
0.6250000000000389
 40
0.6875000000000432
 40
0.6875000000000432
 40
0.7500000000000475
 40
0.7500000000000475
 40
1.0
 40
1.0
 40
1.0
 40
1.0
 10
314.4353536434803
 20
251.4843832256337
 30
0.0
 10
314.4321555986006
 20
251.5273086930202
 30
0.0
 10
314.43397916472
 20
251.5699452484305
 30
0.0
 10
314.4425230021457
 20
251.6228823659837
 30
0.0
 10
314.4445553245053
 20
251.6334735079629
 30
0.0
 10
314.4492112040855
 20
251.654381457544
 30
0.0
 10
314.4518375306002
 20
251.6647237649037
 30
0.0
 10
314.4605952291989
 20
251.6954218723287
 30
0.0
 10
314.4746097074431
 20
251.7354779865369
 30
0.0
 10
314.4932669845364
 20
251.7737969406837
 30
0.0
 10
314.5090594722611
 20
251.8018627828408
 30
0.0
 10
314.5146160154659
 20
251.8110858472953
 30
0.0
 10
314.5261829089216
 20
251.8290664888419
 30
0.0
 10
314.5322095258722
 20
251.8378537252231
 30
0.0
 10
314.5635368749417
 20
251.8807924115209
 30
0.0
 10
314.5923730707481
 20
251.9119910348367
 30
0.0
 10
314.6250911325666
 20
251.9399452449136
 30
0.0
  0
SPLINE
  5
163
330
1F
100
AcDbEntity
  8
1
100
AcDbSpline
210
0.0
220
0.0
230
1.0
 70
     8
 71
     3
 72
    20
 73
    16
 74
     0
 42
0.000000001
 43
0.0000000001
 40
0.0
 40
0.0
 40
0.0
 40
0.0
 40
0.1367152126768188
 40
0.1367152126768188
 40
0.2734304253536378
 40
0.2734304253536378
 40
0.4101456380304567
 40
0.4101456380304567
 40
0.5468608507072755
 40
0.5468608507072755
 40
0.6835760633840944
 40
0.6835760633840944
 40
0.8202912760609132
 40
0.8202912760609132
 40
1.0
 40
1.0
 40
1.0
 40
1.0
 10
314.6250911325667
 20
251.9399452449136
 30
0.0
 10
314.629645234264
 20
251.9438362552145
 30
0.0
 10
314.6344902982981
 20
251.9472484865451
 30
0.0
 10
314.6447309532146
 20
251.9531666449723
 30
0.0
 10
314.650184125648
 20
251.9556901402756
 30
0.0
 10
314.6613463442417
 20
251.959692704624
 30
0.0
 10
314.6670356820587
 20
251.961178744862
 30
0.0
 10
314.6786195916155
 20
251.9631710684437
 30
0.0
 10
314.6845686164054
 20
251.9636756161908
 30
0.0
 10
314.6964045645615
 20
251.9636728102228
 30
0.0
 10
314.7022493365472
 20
251.9631761767194
 30
0.0
 10
314.7137993647917
 20
251.9612438694733
 30
0.0
 10
314.7195325683209
 20
251.9597981992321
 30
0.0
 10
314.7324926323647
 20
251.9553795956962
 30
0.0
 10
314.739470802297
 20
251.9521481935718
 30
0.0
 10
314.7460692781083
 20
251.9482005926985
 30
0.0
  0
SPLINE
  5
164
330
1F
100
AcDbEntity
  8
1
100
AcDbSpline
210
0.0
220
0.0
230
1.0
 70
     8
 71
     3
 72
    14
 73
    10
 74
     0
 42
0.000000001
 43
0.0000000001
 40
0.0
 40
0.0
 40
0.0
 40
0.0
 40
0.289693659721769
 40
0.289693659721769
 40
0.579387319443538
 40
0.579387319443538
 40
0.8690809791653071
 40
0.8690809791653071
 40
1.0
 40
1.0
 40
1.0
 40
1.0
 10
314.8395292524963
 20
251.9207877820068
 30
0.0
 10
314.8321732244974
 20
251.9194880606311
 30
0.0
 10
314.824675110392
 20
251.9190098035325
 30
0.0
 10
314.8099494856155
 20
251.9196104057777
 30
0.0
 10
314.8027017081977
 20
251.9206713235221
 30
0.0
 10
314.7884274459229
 20
251.9242666488006
 30
0.0
 10
314.7814149843094
 20
251.9268205203439
 30
0.0
 10
314.7718485348778
 20
251.931427146529
 30
0.0
 10
314.7689398723583
 20
251.932990921345
 30
0.0
 10
314.7661011700055
 20
251.9346865274776
 30
0.0
  0
SPLINE
  5
165
330
1F
100
AcDbEntity
  8
1
100
AcDbSpline
210
0.0
220
0.0
230
1.0
 70
     8
 71
     3
 72
    12
 73
     8
 74
     0
 42
0.000000001
 43
0.0000000001
 40
0.0
 40
0.0
 40
0.0
 40
0.0
 40
0.1175411227693458
 40
0.1175411227693458
 40
0.5587705613846729
 40
0.5587705613846729
 40
1.0
 40
1.0
 40
1.0
 40
1.0
 10
314.4463951189529
 20
251.4458811515839
 30
0.0
 10
314.4456653280374
 20
251.4472809656508
 30
0.0
 10
314.4449663836742
 20
251.4487009984705
 30
0.0
 10
314.4417925474945
 20
251.4555491247471
 30
0.0
 10
314.4397725518766
 20
251.4611665104553
 30
0.0
 10
314.4367840666994
 20
251.472582142913
 30
0.0
 10
314.4357982348785
 20
251.4784157379091
 30
0.0
 10
314.4353536434803
 20
251.4843832256337
 30
0.0
  0
SPLINE
  5
166
330
1F
100
AcDbEntity
  8
1
100
AcDbSpline
210
0.0
220
0.0
230
1.0
 70
     8
 71
     3
 72
    12
 73
     8
 74
     0
 42
0.000000001
 43
0.0000000001
 40
0.0
 40
0.0
 40
0.0
 40
0.0
 40
0.0295978410673387
 40
0.0295978410673387
 40
0.5147989205336695
 40
0.5147989205336695
 40
1.0
 40
1.0
 40
1.0
 40
1.0
 10
314.5663002349008
 20
251.3753170774768
 30
0.0
 10
314.5666852649817
 20
251.375087355862
 30
0.0
 10
314.5670690948363
 20
251.374855164935
 30
0.0
 10
314.5737242074443
 20
251.3707736606534
 30
0.0
 10
314.5796882808907
 20
251.366225528766
 30
0.0
 10
314.5904005091173
 20
251.3561361950765
 30
0.0
 10
314.5952244076245
 20
251.3505590575408
 30
0.0
 10
314.5994698542723
 20
251.3444022467671
 30
0.0
  0
SPLINE
  5
167
330
1F
100
AcDbEntity
  8
1
100
AcDbSpline
210
0.0
220
0.0
230
1.0
 70
     8
 71
     3
 72
    22
 73
    18
 74
     0
 42
0.000000001
 43
0.0000000001
 40
0.0
 40
0.0
 40
0.0
 40
0.0
 40
0.125
 40
0.125
 40
0.25
 40
0.25
 40
0.375
 40
0.375
 40
0.5
 40
0.5
 40
0.625
 40
0.625
 40
0.75
 40
0.75
 40
0.875
 40
0.875
 40
1.0
 40
1.0
 40
1.0
 40
1.0
 10
315.2262696120853
 20
252.3082538406864
 30
0.0
 10
315.2238403175999
 20
252.3136056885836
 30
0.0
 10
315.2218543261014
 20
252.3191240430918
 30
0.0
 10
315.2188103406691
 20
252.3302934586941
 30
0.0
 10
315.2177397782793
 20
252.3359700652965
 30
0.0
 10
315.2165276016771
 20
252.3475117141954
 30
0.0
 10
315.2163970876791
 20
252.3533747183805
 30
0.0
 10
315.2171032405872
 20
252.3648888062349
 30
0.0
 10
315.2179319153308
 20
252.3705907132246
 30
0.0
 10
315.2205816942483
 20
252.3818780989842
 30
0.0
 10
315.2224074987348
 20
252.3874370384066
 30
0.0
 10
315.2269549670643
 20
252.3980312965489
 30
0.0
 10
315.2296863251751
 20
252.4031171332113
 30
0.0
 10
315.2361163766943
 20
252.4128405356932
 30
0.0
 10
315.239771608041
 20
252.4173987872347
 30
0.0
 10
315.2478045001994
 20
252.4257226531516
 30
0.0
 10
315.2522024026822
 20
252.4295204353177
 30
0.0
 10
315.257006078969
 20
252.4329302273892
 30
0.0
  0
SPLINE
  5
168
330
1F
100
AcDbEntity
  8
1
100
AcDbSpline
210
0.0
220
0.0
230
1.0
 70
     8
 71
     3
 72
    14
 73
    10
 74
     0
 42
0.000000001
 43
0.0000000001
 40
0.0
 40
0.0
 40
0.0
 40
0.0
 40
0.25
 40
0.25
 40
0.5
 40
0.5
 40
0.75
 40
0.75
 40
1.0
 40
1.0
 40
1.0
 40
1.0
 10
315.2262696120851
 20
252.3082538406856
 30
0.0
 10
315.2293086787549
 20
252.3015586365173
 30
0.0
 10
315.2316645856293
 20
252.2945797469144
 30
0.0
 10
315.234912980892
 20
252.2803813293473
 30
0.0
 10
315.2358050089103
 20
252.273215251428
 30
0.0
 10
315.2361073280904
 20
252.2587459219126
 30
0.0
 10
315.2354937325177
 20
252.2514111544192
 30
0.0
 10
315.2327559139869
 20
252.2372532523801
 30
0.0
 10
315.2306425238693
 20
252.23034824938
 30
0.0
 10
315.227717764936
 20
252.2236309226728
 30
0.0
  0
SPLINE
  5
169
330
1F
100
AcDbEntity
  8
1
100
AcDbSpline
210
0.0
220
0.0
230
1.0
 70
     8
 71
     3
 72
    21
 73
    17
 74
     0
 42
0.000000001
 43
0.0000000001
 40
0.0
 40
0.0
 40
0.0
 40
0.0
 40
0.2500000000001023
 40
0.2500000000001023
 40
0.3125000000001337
 40
0.3125000000001337
 40
0.3750000000001651
 40
0.3750000000001651
 40
0.5000000000001719
 40
0.6250000000001787
 40
0.6250000000001787
 40
0.6875000000001475
 40
0.6875000000001475
 40
0.7500000000001164
 40
0.7500000000001164
 40
1.0
 40
1.0
 40
1.0
 40
1.0
 10
315.227717764936
 20
252.2236309226728
 30
0.0
 10
315.2107480749141
 20
252.184656444916
 30
0.0
 10
315.1894327023807
 20
252.1483115953115
 30
0.0
 10
315.1571100522556
 20
252.1062224638571
 30
0.0
 10
315.1503580200398
 20
252.09797394476
 30
0.0
 10
315.1362576824391
 20
252.0818262795849
 30
0.0
 10
315.1288892462882
 20
252.0739101607477
 30
0.0
 10
315.1062027756495
 20
252.0510472630802
 30
0.0
 10
315.0742296262065
 20
252.0226946356352
 30
0.0
 10
315.0388770402466
 20
251.9985133633259
 30
0.0
 10
315.011076049237
 20
251.9819673791582
 30
0.0
 10
315.0015590480875
 20
251.97670021211
 30
0.0
 10
314.9822703061158
 20
251.9668015512225
 30
0.0
 10
314.9725185420824
 20
251.9621769286645
 30
0.0
 10
314.923240873269
 20
251.9406202493089
 30
0.0
 10
314.8821798619108
 20
251.9283236299874
 30
0.0
 10
314.8395292524963
 20
251.9207877820068
 30
0.0
  0
SPLINE
  5
16A
330
1F
100
AcDbEntity
  8
1
100
AcDbSpline
210
0.0
220
0.0
230
1.0
 70
     8
 71
     3
 72
    20
 73
    16
 74
     0
 42
0.000000001
 43
0.0000000001
 40
0.0
 40
0.0
 40
0.0
 40
0.0
 40
0.1250000000000275
 40
0.1250000000000275
 40
0.250000000000055
 40
0.250000000000055
 40
0.3750000000000825
 40
0.3750000000000825
 40
0.50000000000011
 40
0.50000000000011
 40
0.6250000000001375
 40
0.6250000000001375
 40
0.7500000000001649
 40
0.7500000000001649
 40
1.0
 40
1.0
 40
1.0
 40
1.0
 10
314.5322982248262
 20
250.6928978541818
 30
0.0
 10
314.5313069354783
 20
250.698650595908
 30
0.0
 10
314.5308755510198
 20
250.7043929338008
 30
0.0
 10
314.5310725740557
 20
250.7158568317138
 30
0.0
 10
314.531715553277
 20
250.721634694604
 30
0.0
 10
314.534028094975
 20
250.7328552617147
 30
0.0
 10
314.5356815374573
 20
250.7382854453915
 30
0.0
 10
314.5399334936513
 20
250.7488015900653
 30
0.0
 10
314.5425615050281
 20
250.7539311800479
 30
0.0
 10
314.5486525970218
 20
250.7636093533185
 30
0.0
 10
314.5520848034538
 20
250.7681290612666
 30
0.0
 10
314.5596819945084
 20
250.7765611136394
 30
0.0
 10
314.5638699182575
 20
250.7804910667815
 30
0.0
 10
314.5774186516957
 20
250.7912212520044
 30
0.0
 10
314.5874276686312
 20
250.7967708175881
 30
0.0
 10
314.5984006853264
 20
250.8007329100843
 30
0.0
  0
SPLINE
  5
16B
330
1F
100
AcDbEntity
  8
1
100
AcDbSpline
210
0.0
220
0.0
230
1.0
 70
     8
 71
     3
 72
    21
 73
    17
 74
     0
 42
0.000000001
 43
0.0000000001
 40
0.0
 40
0.0
 40
0.0
 40
0.0
 40
0.2499999999999257
 40
0.2499999999999257
 40
0.3124999999999302
 40
0.3124999999999302
 40
0.3749999999999347
 40
0.3749999999999347
 40
0.4999999999999487
 40
0.6249999999999627
 40
0.6249999999999627
 40
0.6874999999999698
 40
0.6874999999999698
 40
0.7499999999999768
 40
0.7499999999999768
 40
1.0
 40
1.0
 40
1.0
 40
1.0
 10
314.5994698542723
 20
251.3444022467671
 30
0.0
 10
314.6241013871253
 20
251.308681226242
 30
0.0
 10
314.6442453022803
 20
251.2708344986983
 30
0.0
 10
314.6636442455194
 20
251.2207917163346
 30
0.0
 10
314.6672312506092
 20
251.2106446696694
 30
0.0
 10
314.673799591598
 20
251.1900641628189
 30
0.0
 10
314.6767851219282
 20
251.1796047011809
 30
0.0
 10
314.6846850702959
 20
251.1482573586628
 30
0.0
 10
314.6925075125359
 20
251.1062726061371
 30
0.0
 10
314.6950223575934
 20
251.0639248940122
 30
0.0
 10
314.6948861809071
 20
251.0320236430577
 30
0.0
 10
314.6944998497463
 20
251.0213280712761
 30
0.0
 10
314.6930521161922
 20
251.0000892602063
 30
0.0
 10
314.6919951125568
 20
250.9895662453748
 30
0.0
 10
314.6851025127156
 20
250.9374111668371
 30
0.0
 10
314.6745098971101
 20
250.8971421933083
 30
0.0
 10
314.6590233955139
 20
250.8581888240416
 30
0.0
  0
SPLINE
  5
16C
330
1F
100
AcDbEntity
  8
1
100
AcDbSpline
210
0.0
220
0.0
230
1.0
 70
     8
 71
     3
 72
    14
 73
    10
 74
     0
 42
0.000000001
 43
0.0000000001
 40
0.0
 40
0.0
 40
0.0
 40
0.0
 40
0.25
 40
0.25
 40
0.5
 40
0.5
 40
0.75
 40
0.75
 40
1.0
 40
1.0
 40
1.0
 40
1.0
 10
314.6590233955139
 20
250.8581888240416
 30
0.0
 10
314.6563524248393
 20
250.851470501873
 30
0.0
 10
314.6529046581128
 20
250.8450730158048
 30
0.0
 10
314.6448144117211
 20
250.8333254845128
 30
0.0
 10
314.6401768799812
 20
250.8279493042202
 30
0.0
 10
314.6297533234626
 20
250.8181569150516
 30
0.0
 10
314.6239578351252
 20
250.8137624656234
 30
0.0
 10
314.6117422785628
 20
250.806320040976
 30
0.0
 10
314.6052632132513
 20
250.8032108039171
 30
0.0
 10
314.5984006853263
 20
250.8007329100843
 30
0.0
  0
SPLINE
  5
16D
330
1F
100
AcDbEntity
  8
1
100
AcDbSpline
210
0.0
220
0.0
230
1.0
 70
     8
 71
     3
 72
    17
 73
    13
 74
     0
 42
0.000000001
 43
0.0000000001
 40
0.0
 40
0.0
 40
0.0
 40
0.0
 40
0.389929659299691
 40
0.389929659299691
 40
0.4874120741246686
 40
0.4874120741246686
 40
0.5848944889496465
 40
0.5848944889496465
 40
0.7798593185994763
 40
0.9748241482493058
 40
0.9748241482493058
 40
1.0
 40
1.0
 40
1.0
 40
1.0
 10
315.257006078969
 20
252.4329302273892
 30
0.0
 10
315.2915578421982
 20
252.4574560949297
 30
0.0
 10
315.3284769010392
 20
252.4775449155602
 30
0.0
 10
315.3775676914322
 20
252.4971148241623
 30
0.0
 10
315.3875567177518
 20
252.5007539652839
 30
0.0
 10
315.4076096077994
 20
252.5073871437021
 30
0.0
 10
315.417696320269
 20
252.5103917266289
 30
0.0
 10
315.4481337713997
 20
252.5184865665128
 30
0.0
 10
315.4891886825493
 20
252.5268352034059
 30
0.0
 10
315.5311796406143
 20
252.5303283734248
 30
0.0
 10
315.5551595739471
 20
252.5308839962538
 30
0.0
 10
315.5579046539709
 20
252.5309263740345
 30
0.0
 10
315.5606503567358
 20
252.5309476733163
 30
0.0
  0
SPLINE
  5
16E
330
1F
100
AcDbEntity
  8
1
100
AcDbSpline
210
0.0
220
0.0
230
1.0
 70
     8
 71
     3
 72
    15
 73
    11
 74
     0
 42
0.000000001
 43
0.0000000001
 40
0.0
 40
0.0
 40
0.0
 40
0.0
 40
0.0984638960430917
 40
0.3238479220323174
 40
0.3238479220323174
 40
0.4365399350269339
 40
0.4365399350269339
 40
0.5492319480215508
 40
0.5492319480215508
 40
1.0
 40
1.0
 40
1.0
 40
1.0
 10
314.6481531413062
 20
250.444163547414
 30
0.0
 10
314.6422806668607
 20
250.4511419748996
 30
0.0
 10
314.6235768158414
 20
250.4745685261315
 30
0.0
 10
314.6068755265861
 20
250.4995511734124
 30
0.0
 10
314.5909442889023
 20
250.5267995361675
 30
0.0
 10
314.5858976739574
 20
250.5360608605519
 30
0.0
 10
314.5764372251155
 20
250.5547299350643
 30
0.0
 10
314.572006316206
 20
250.5641661601911
 30
0.0
 10
314.5513218427557
 20
250.6118461188346
 30
0.0
 10
314.5394201379781
 20
250.6515673112419
 30
0.0
 10
314.5322982248262
 20
250.6928978541818
 30
0.0
  0
SPLINE
  5
16F
330
1F
100
AcDbEntity
  8
1
100
AcDbSpline
210
0.0
220
0.0
230
1.0
 70
     8
 71
     3
 72
    17
 73
    13
 74
     0
 42
0.000000001
 43
0.0000000001
 40
0.0
 40
0.0
 40
0.0
 40
0.0
 40
0.3800740652871052
 40
0.3800740652871052
 40
0.4750925816089399
 40
0.4750925816089399
 40
0.5701110979307743
 40
0.5701110979307743
 40
0.7601481305743299
 40
0.9501851632178855
 40
0.9501851632178855
 40
1.0
 40
1.0
 40
1.0
 40
1.0
 10
316.2860856078581
 20
252.1275324925303
 30
0.0
 10
316.2461789413464
 20
252.12326896332
 30
0.0
 10
316.2060738696069
 20
252.1239634826223
 30
0.0
 10
316.1555253747207
 20
252.1312178335259
 30
0.0
 10
316.1453947283846
 20
252.1329921423014
 30
0.0
 10
316.1250870291484
 20
252.1372098326323
 30
0.0
 10
316.1148858535349
 20
252.1396621020678
 30
0.0
 10
316.0846643097844
 20
252.1479289948765
 30
0.0
 10
316.0451114494451
 20
252.1614163457109
 30
0.0
 10
316.0070019577491
 20
252.1797271077838
 30
0.0
 10
315.9834184647116
 20
252.1928297007399
 30
0.0
 10
315.9785368730068
 20
252.1956412763122
 30
0.0
 10
315.973689300161
 20
252.1985330549179
 30
0.0
  0
SPLINE
  5
170
330
1F
100
AcDbEntity
  8
1
100
AcDbSpline
210
0.0
220
0.0
230
1.0
 70
     8
 71
     3
 72
    14
 73
    10
 74
     0
 42
0.000000001
 43
0.0000000001
 40
0.0
 40
0.0
 40
0.0
 40
0.0
 40
0.25
 40
0.25
 40
0.5
 40
0.5
 40
0.75
 40
0.75
 40
1.0
 40
1.0
 40
1.0
 40
1.0
 10
316.3531589500551
 20
252.169697954053
 30
0.0
 10
316.3493419530753
 20
252.1638457267507
 30
0.0
 10
316.3449504963545
 20
252.1584446418378
 30
0.0
 10
316.3352297993483
 20
252.1487853109876
 30
0.0
 10
316.3299434221477
 20
252.1445536250079
 30
0.0
 10
316.3185055503325
 20
252.1372985170842
 30
0.0
 10
316.3123163438725
 20
252.1342802450299
 30
0.0
 10
316.2995752705151
 20
252.1297890740623
 30
0.0
 10
316.2929634397118
 20
252.1282673030163
 30
0.0
 10
316.2860856078581
 20
252.1275324925303
 30
0.0
  0
SPLINE
  5
171
330
1F
100
AcDbEntity
  8
1
100
AcDbSpline
210
0.0
220
0.0
230
1.0
 70
     8
 71
     3
 72
    14
 73
    10
 74
     0
 42
0.000000001
 43
0.0000000001
 40
0.0
 40
0.0
 40
0.0
 40
0.0
 40
0.266658088099931
 40
0.266658088099931
 40
0.5333161761998621
 40
0.5333161761998621
 40
0.7999742642997932
 40
0.7999742642997932
 40
1.0
 40
1.0
 40
1.0
 40
1.0
 10
316.3531589500564
 20
252.1696979540537
 30
0.0
 10
316.3562100830469
 20
252.174375957176
 30
0.0
 10
316.3596201644393
 20
252.1787529964447
 30
0.0
 10
316.3670181778887
 20
252.186771939973
 30
0.0
 10
316.3710202051281
 20
252.1904370709175
 30
0.0
 10
316.3796466299552
 20
252.1970581802623
 30
0.0
 10
316.3842753802938
 20
252.2000038502121
 30
0.0
 10
316.3926565687643
 20
252.2043399602956
 30
0.0
 10
316.3963595804271
 20
252.2059528032609
 30
0.0
 10
316.4001764622974
 20
252.207311747276
 30
0.0
  0
SPLINE
  5
172
330
1F
100
AcDbEntity
  8
1
100
AcDbSpline
210
0.0
220
0.0
230
1.0
 70
     8
 71
     3
 72
    12
 73
     8
 74
     0
 42
0.000000001
 43
0.0000000001
 40
0.0
 40
0.0
 40
0.0
 40
0.0
 40
0.0868828444389307
 40
0.0868828444389307
 40
0.2695062755511428
 40
0.2695062755511428
 40
1.0
 40
1.0
 40
1.0
 40
1.0
 10
315.3516890503592
 20
250.2922908817582
 30
0.0
 10
315.3559425445312
 20
250.2897534325667
 30
0.0
 10
315.3601545661252
 20
250.287157960005
 30
0.0
 10
315.3730523234949
 20
250.2789493857515
 30
0.0
 10
315.3815384317865
 20
250.2731754128734
 30
0.0
 10
315.4227490247316
 20
250.2432772747798
 30
0.0
 10
315.4518619377004
 20
250.2161128786013
 30
0.0
 10
315.4773318402121
 20
250.1857048586595
 30
0.0
  0
SPLINE
  5
173
330
1F
100
AcDbEntity
  8
1
100
AcDbSpline
210
0.0
220
0.0
230
1.0
 70
     8
 71
     3
 72
    12
 73
     8
 74
     0
 42
0.000000001
 43
0.0000000001
 40
0.0
 40
0.0
 40
0.0
 40
0.0
 40
0.368348498255364
 40
0.368348498255364
 40
0.7366969965107281
 40
0.7366969965107281
 40
1.0
 40
1.0
 40
1.0
 40
1.0
 10
315.4773318402121
 20
250.1857048586595
 30
0.0
 10
315.4817247241244
 20
250.1804602802184
 30
0.0
 10
315.4854427578823
 20
250.1747391856635
 30
0.0
 10
315.4913659476449
 20
250.1628148993434
 30
0.0
 10
315.4935955734597
 20
250.1566045611932
 30
0.0
 10
315.4962061953339
 20
250.145538350021
 30
0.0
 10
315.4969211534788
 20
250.140801633504
 30
0.0
 10
315.4972598907219
 20
250.1360501894635
 30
0.0
  0
SPLINE
  5
174
330
1F
100
AcDbEntity
  8
1
100
AcDbSpline
210
0.0
220
0.0
230
1.0
 70
     8
 71
     3
 72
    18
 73
    14
 74
     0
 42
0.000000001
 43
0.0000000001
 40
0.0
 40
0.0
 40
0.0
 40
0.0
 40
0.25000000000002
 40
0.25000000000002
 40
0.3750000000000301
 40
0.3750000000000301
 40
0.5000000000000401
 40
0.5000000000000401
 40
0.7500000000000662
 40
0.7500000000000662
 40
0.875000000000033
 40
0.875000000000033
 40
1.0
 40
1.0
 40
1.0
 40
1.0
 10
319.9735191825678
 20
248.2843218796345
 30
0.0
 10
319.9658040031618
 20
248.2575666987493
 30
0.0
 10
319.9554970448459
 20
248.2320334089034
 30
0.0
 10
319.9362966893253
 20
248.1954967085933
 30
0.0
 10
319.9292681608637
 20
248.1836140803736
 30
0.0
 10
319.913917222018
 20
248.1604588462673
 30
0.0
 10
319.9056147882416
 20
248.1492332228209
 30
0.0
 10
319.8793426968957
 20
248.117244408267
 30
0.0
 10
319.8598574271299
 20
248.0978924088871
 30
0.0
 10
319.8276494205344
 20
248.0718495969705
 30
0.0
 10
319.8163730886735
 20
248.0636499845472
 30
0.0
 10
319.7931659847477
 20
248.0485459517062
 30
0.0
 10
319.7812009229358
 20
248.0416081459419
 30
0.0
 10
319.7688716655534
 20
248.0352891522927
 30
0.0
  0
SPLINE
  5
175
330
1F
100
AcDbEntity
  8
1
100
AcDbSpline
210
0.0
220
0.0
230
1.0
 70
     8
 71
     3
 72
     8
 73
     4
 74
     0
 42
0.000000001
 43
0.0000000001
 40
0.0
 40
0.0
 40
0.0
 40
0.0
 40
1.0
 40
1.0
 40
1.0
 40
1.0
 10
319.7613161327129
 20
239.4308090228023
 30
0.0
 10
319.763847854997
 20
239.4295760269648
 30
0.0
 10
319.7663666209697
 20
239.4283173540789
 30
0.0
 10
319.7688716655533
 20
239.4270334680893
 30
0.0
  0
SPLINE
  5
176
330
1F
100
AcDbEntity
  8
1
100
AcDbSpline
210
0.0
220
0.0
230
1.0
 70
     8
 71
     3
 72
    11
 73
     7
 74
     0
 42
0.000000001
 43
0.0000000001
 40
0.0
 40
0.0
 40
0.0
 40
0.0
 40
0.2544771780185968
 40
0.5059695619585653
 40
0.7544771590005186
 40
1.0
 40
1.0
 40
1.0
 40
1.0
 10
319.9759072487978
 20
239.1693489941387
 30
0.0
 10
319.9723990807714
 20
239.1625009079325
 30
0.0
 10
319.9654238924522
 20
239.1488850575644
 30
0.0
 10
319.954795898787
 20
239.1285481096632
 30
0.0
 10
319.9441404061278
 20
239.1084303454711
 30
0.0
 10
319.9369224975311
 20
239.0950764763266
 30
0.0
 10
319.9333353472499
 20
239.0884398814161
 30
0.0
  0
SPLINE
  5
177
330
1F
100
AcDbEntity
  8
1
100
AcDbSpline
210
0.0
220
0.0
230
1.0
 70
     8
 71
     3
 72
     8
 73
     4
 74
     0
 42
0.000000001
 43
0.0000000001
 40
0.0
 40
0.0
 40
0.0
 40
0.0
 40
1.0
 40
1.0
 40
1.0
 40
1.0
 10
319.9735191825678
 20
239.1780007407474
 30
0.0
 10
319.9743480475117
 20
239.1751263511403
 30
0.0
 10
319.9751460429825
 20
239.1722426273182
 30
0.0
 10
319.9759128085428
 20
239.1693505666719
 30
0.0
  0
SPLINE
  5
178
330
1F
100
AcDbEntity
  8
1
100
AcDbSpline
210
0.0
220
0.0
230
1.0
 70
     8
 71
     3
 72
    18
 73
    14
 74
     0
 42
0.000000001
 43
0.0000000001
 40
0.0
 40
0.0
 40
0.0
 40
0.0
 40
0.2499999999999788
 40
0.2499999999999788
 40
0.3749999999999682
 40
0.3749999999999682
 40
0.4999999999999576
 40
0.4999999999999576
 40
0.7499999999999303
 40
0.7499999999999303
 40
0.8749999999999651
 40
0.8749999999999651
 40
1.0
 40
1.0
 40
1.0
 40
1.0
 10
319.9735191825678
 20
239.1780007407474
 30
0.0
 10
319.9658040031618
 20
239.2047559216326
 30
0.0
 10
319.9554970448459
 20
239.2302892114785
 30
0.0
 10
319.9362966893251
 20
239.2668259117886
 30
0.0
 10
319.9292681608637
 20
239.2787085400083
 30
0.0
 10
319.913917222018
 20
239.3018637741146
 30
0.0
 10
319.9056147882416
 20
239.313089397561
 30
0.0
 10
319.8793426968957
 20
239.345078212115
 30
0.0
 10
319.8598574271299
 20
239.3644302114949
 30
0.0
 10
319.8276494205344
 20
239.3904730234115
 30
0.0
 10
319.8163730886735
 20
239.3986726358347
 30
0.0
 10
319.7931659847477
 20
239.4137766686758
 30
0.0
 10
319.7812009229358
 20
239.42071447444
 30
0.0
 10
319.7688716655534
 20
239.4270334680893
 30
0.0
  0
SPLINE
  5
179
330
1F
100
AcDbEntity
  8
1
100
AcDbSpline
210
0.0
220
0.0
230
1.0
 70
     8
 71
     3
 72
     8
 73
     4
 74
     0
 42
0.000000001
 43
0.0000000001
 40
0.0
 40
0.0
 40
0.0
 40
0.0
 40
1.0
 40
1.0
 40
1.0
 40
1.0
 10
318.7826485287898
 20
231.4302775440018
 30
0.0
 10
318.779818186215
 20
231.4294982991624
 30
0.0
 10
318.7769773463028
 20
231.4287475433307
 30
0.0
 10
318.7741269882064
 20
231.4280256137196
 30
0.0
  0
SPLINE
  5
17A
330
1F
100
AcDbEntity
  8
1
100
AcDbSpline
210
0.0
220
0.0
230
1.0
 70
     8
 71
     3
 72
    18
 73
    14
 74
     0
 42
0.000000001
 43
0.0000000001
 40
0.0
 40
0.0
 40
0.0
 40
0.0
 40
0.2500000000000815
 40
0.2500000000000815
 40
0.3750000000000712
 40
0.3750000000000712
 40
0.5000000000000611
 40
0.5000000000000611
 40
0.7500000000000304
 40
0.7500000000000304
 40
0.8750000000000152
 40
0.8750000000000152
 40
1.0
 40
1.0
 40
1.0
 40
1.0
 10
318.7826485287898
 20
231.4302775440018
 30
0.0
 10
318.8089937143496
 20
231.4375308532206
 30
0.0
 10
318.8340850447809
 20
231.4474379639866
 30
0.0
 10
318.8699125406046
 20
231.4661274611499
 30
0.0
 10
318.8815509945182
 20
231.4730006476979
 30
0.0
 10
318.904201862486
 20
231.4880716166926
 30
0.0
 10
318.9151681246528
 20
231.4962501438598
 30
0.0
 10
318.9463727552882
 20
231.5222050251704
 30
0.0
 10
318.9651883622035
 20
231.5415476881984
 30
0.0
 10
318.9904060528093
 20
231.5736460970803
 30
0.0
 10
318.9983262830084
 20
231.5849035423307
 30
0.0
 10
319.0128736803086
 20
231.6081094350671
 30
0.0
 10
319.0195332957074
 20
231.6200919353579
 30
0.0
 10
319.0255742406653
 20
231.6324568635461
 30
0.0
  0
SPLINE
  5
17B
330
1F
100
AcDbEntity
  8
1
100
AcDbSpline
210
0.0
220
0.0
230
1.0
 70
     8
 71
     3
 72
     8
 73
     4
 74
     0
 42
0.000000001
 43
0.0000000001
 40
0.0
 40
0.0
 40
0.0
 40
0.0
 40
1.0
 40
1.0
 40
1.0
 40
1.0
 10
319.0291783436686
 20
231.6400277962052
 30
0.0
 10
319.0280031498757
 20
231.6374930573164
 30
0.0
 10
319.0268016330369
 20
231.6349691556857
 30
0.0
 10
319.0255742406653
 20
231.6324568635462
 30
0.0
  0
SPLINE
  5
17C
330
1F
100
AcDbEntity
  8
1
100
AcDbSpline
210
0.0
220
0.0
230
1.0
 70
     8
 71
     3
 72
    11
 73
     7
 74
     0
 42
0.000000001
 43
0.0000000001
 40
0.0
 40
0.0
 40
0.0
 40
0.0
 40
0.2544771779012832
 40
0.5059695618021804
 40
0.7544771588832574
 40
1.0
 40
1.0
 40
1.0
 40
1.0
 10
318.7741251946192
 20
231.4280306992721
 30
0.0
 10
318.7722651240018
 20
231.4522909429476
 30
0.0
 10
318.7685667997635
 20
231.5005268789279
 30
0.0
 10
318.7630108080014
 20
231.5726681682846
 30
0.0
 10
318.7574934395674
 20
231.6440982711356
 30
0.0
 10
318.7538094578926
 20
231.691580416201
 30
0.0
 10
318.7519785957079
 20
231.7151780536286
 30
0.0
  0
SPLINE
  5
17D
330
1F
100
AcDbEntity
  8
1
100
AcDbSpline
210
0.0
220
0.0
230
1.0
 70
     8
 71
     3
 72
    15
 73
    11
 74
     0
 42
0.000000001
 43
0.0000000001
 40
0.0
 40
0.0
 40
0.0
 40
0.0
 40
0.1209042852960954
 40
0.242978254807775
 40
0.3662221795161489
 40
0.4906363213386127
 40
0.6162209334779084
 40
0.74297626075542
 40
0.8709025399295505
 40
1.0
 40
1.0
 40
1.0
 40
1.0
 10
319.6567200360367
 20
239.2838718671971
 30
0.0
 10
319.661220156621
 20
239.2897397526565
 30
0.0
 10
319.6702639340464
 20
239.301532292225
 30
0.0
 10
319.6835887664533
 20
239.319364086461
 30
0.0
 10
319.6968230348576
 20
239.3374080170269
 30
0.0
 10
319.7099449283106
 20
239.3556682704214
 30
0.0
 10
319.7229631788517
 20
239.3741432711862
 30
0.0
 10
319.73587223993
 20
239.3928341577673
 30
0.0
 10
319.7486928249988
 20
239.4117370845482
 30
0.0
 10
319.7570950467056
 20
239.4244316600603
 30
0.0
 10
319.7613153007741
 20
239.4308078705229
 30
0.0
  0
SPLINE
  5
17E
330
1F
100
AcDbEntity
  8
1
100
AcDbSpline
210
0.0
220
0.0
230
1.0
 70
     8
 71
     3
 72
    15
 73
    11
 74
     0
 42
0.000000001
 43
0.0000000001
 40
0.0
 40
0.0
 40
0.0
 40
0.0
 40
0.1209042850991216
 40
0.2429782544700805
 40
0.3662221790939999
 40
0.4906363208882878
 40
0.6162209330557002
 40
0.7429762604176302
 40
0.8709025397324934
 40
1.0
 40
1.0
 40
1.0
 40
1.0
 10
319.0057271539672
 20
232.2603680523309
 30
0.0
 10
319.006627799088
 20
232.235096247557
 30
0.0
 10
319.0084378025895
 20
232.1843081468189
 30
0.0
 10
319.0112135272319
 20
232.1080506111645
 30
0.0
 10
319.0140498611328
 20
232.0312700749197
 30
0.0
 10
319.0169502476375
 20
231.9539872239167
 30
0.0
 10
319.0199133841474
 20
231.8761936768622
 30
0.0
 10
319.022940210621
 20
231.79789465653
 30
0.0
 10
319.0260275444681
 20
231.7190703442811
 30
0.0
 10
319.0281240999863
 20
231.6664557121563
 30
0.0
 10
319.0291771544361
 20
231.6400285214569
 30
0.0
  0
SPLINE
  5
17F
330
1F
100
AcDbEntity
  8
1
100
AcDbSpline
210
0.0
220
0.0
230
1.0
 70
     8
 71
     3
 72
     8
 73
     4
 74
     0
 42
0.000000001
 43
0.0000000001
 40
0.0
 40
0.0
 40
0.0
 40
0.0
 40
1.0
 40
1.0
 40
1.0
 40
1.0
 10
311.2999322192006
 20
232.5209443693248
 30
0.0
 10
311.2974004889537
 20
232.522177360418
 30
0.0
 10
311.2948783566043
 20
232.5234340266906
 30
0.0
 10
311.2923665970066
 20
232.5247139100254
 30
0.0
  0
SPLINE
  5
180
330
1F
100
AcDbEntity
  8
1
100
AcDbSpline
210
0.0
220
0.0
230
1.0
 70
     8
 71
     3
 72
    14
 73
    10
 74
     0
 42
0.000000001
 43
0.0000000001
 40
0.0
 40
0.0
 40
0.0
 40
0.0
 40
0.0323251110345992
 40
0.0323251110345992
 40
0.516162555517394
 40
0.516162555517394
 40
0.7580812777586969
 40
0.7580812777586969
 40
1.0
 40
1.0
 40
1.0
 40
1.0
 10
311.1606967613573
 20
232.6321807624759
 30
0.0
 10
311.1618501127671
 20
232.6307363044359
 30
0.0
 10
311.1630120719457
 20
232.6293014347264
 30
0.0
 10
311.1816969566452
 20
232.6065507799821
 30
0.0
 10
311.2011986374292
 20
232.5872085628122
 30
0.0
 10
311.2334562798539
 20
232.5611953376088
 30
0.0
 10
311.2447534715778
 20
232.553008159244
 30
0.0
 10
311.2680103161257
 20
232.5379337755809
 30
0.0
 10
311.2800042898682
 20
232.5310132035171
 30
0.0
 10
311.2923665970065
 20
232.5247139100255
 30
0.0
  0
SPLINE
  5
181
330
1F
100
AcDbEntity
  8
1
100
AcDbSpline
210
0.0
220
0.0
230
1.0
 70
     8
 71
     3
 72
    24
 73
    20
 74
     0
 42
0.000000001
 43
0.0000000001
 40
0.0
 40
0.0
 40
0.0
 40
0.0
 40
0.2499999999999975
 40
0.2499999999999975
 40
0.4999999999999951
 40
0.4999999999999951
 40
0.6249999999999938
 40
0.6249999999999938
 40
0.7499999999999925
 40
0.7499999999999925
 40
0.8124999999999918
 40
0.8124999999999918
 40
0.8749999999999909
 40
0.8749999999999909
 40
0.9374999999999904
 40
0.9374999999999904
 40
0.9687499999999952
 40
0.9687499999999952
 40
1.0
 40
1.0
 40
1.0
 40
1.0
 10
319.6567366894817
 20
239.2838759674474
 30
0.0
 10
319.6800523059663
 20
239.2817908956969
 30
0.0
 10
319.7033920612038
 20
239.2779745395408
 30
0.0
 10
319.7501359120991
 20
239.2657285488836
 30
0.0
 10
319.7735606323945
 20
239.2573391276114
 30
0.0
 10
319.8086290447965
 20
239.2394623964077
 30
0.0
 10
319.8203102644706
 20
239.2326100568064
 30
0.0
 10
319.8436496096143
 20
239.2164047495519
 30
0.0
 10
319.8553230155819
 20
239.2070590207252
 30
0.0
 10
319.8726743468166
 20
239.190210258233
 30
0.0
 10
319.8784350180323
 20
239.1841142812635
 30
0.0
 10
319.8898933845337
 20
239.1706148261381
 30
0.0
 10
319.8955915199135
 20
239.1632204847546
 30
0.0
 10
319.9068940451482
 20
239.146485463659
 30
0.0
 10
319.9124942331776
 20
239.137162045079
 30
0.0
 10
319.9205920983267
 20
239.1210485865864
 30
0.0
 10
319.9232457529273
 20
239.1153101122746
 30
0.0
 10
319.9284243945876
 20
239.102797475853
 30
0.0
 10
319.9309505353558
 20
239.0960326003603
 30
0.0
 10
319.9333765427186
 20
239.0884617177745
 30
0.0
  0
SPLINE
  5
182
330
1F
100
AcDbEntity
  8
1
100
AcDbSpline
210
0.0
220
0.0
230
1.0
 70
     8
 71
     3
 72
    11
 73
     7
 74
     0
 42
0.000000001
 43
0.0000000001
 40
0.0
 40
0.0
 40
0.0
 40
0.0
 40
0.0394649712069831
 40
0.3567124256802726
 40
0.6768905775619182
 40
1.0
 40
1.0
 40
1.0
 40
1.0
 10
311.5931478560275
 20
232.7308862863225
 30
0.0
 10
311.589277171156
 20
232.7281278107978
 30
0.0
 10
311.5542962174587
 20
232.703193514603
 30
0.0
 10
311.48800351669
 20
232.6558574847437
 30
0.0
 10
311.3941255324683
 20
232.5886382088908
 30
0.0
 10
311.3314256677015
 20
232.5435781256855
 30
0.0
 10
311.2999328829806
 20
232.5209454213699
 30
0.0
  0
SPLINE
  5
183
330
1F
100
AcDbEntity
  8
1
100
AcDbSpline
210
0.0
220
0.0
230
1.0
 70
     8
 71
     3
 72
    24
 73
    20
 74
     0
 42
0.000000001
 43
0.0000000001
 40
0.0
 40
0.0
 40
0.0
 40
0.0
 40
0.2499999999999911
 40
0.2499999999999911
 40
0.4999999999999822
 40
0.4999999999999822
 40
0.6249999999999814
 40
0.6249999999999814
 40
0.7499999999999805
 40
0.7499999999999805
 40
0.8124999999999797
 40
0.8124999999999797
 40
0.874999999999979
 40
0.874999999999979
 40
0.9374999999999783
 40
0.9374999999999783
 40
0.9687499999999891
 40
0.9687499999999891
 40
1.0
 40
1.0
 40
1.0
 40
1.0
 10
319.0057294205637
 20
232.260342498159
 30
0.0
 10
318.9985813965405
 20
232.2140893002165
 30
0.0
 10
318.9897146023685
 20
232.1678243508071
 30
0.0
 10
318.9674010827785
 20
232.0752631215479
 30
0.0
 10
318.953989658993
 20
232.0289250433494
 30
0.0
 10
318.9286492499072
 20
231.959664893624
 30
0.0
 10
318.9193199919329
 20
231.9366132338195
 30
0.0
 10
318.898191563883
 20
231.8906080350043
 30
0.0
 10
318.8863962261217
 20
231.8676240028874
 30
0.0
 10
318.8659367384558
 20
231.8335223837179
 30
0.0
 10
318.8586471515084
 20
231.8222110839397
 30
0.0
 10
318.8427876365964
 20
231.7997408598934
 30
0.0
 10
318.8342266556104
 20
231.7885808708105
 30
0.0
 10
318.8151987857747
 20
231.7664877178433
 30
0.0
 10
318.8047498970752
 20
231.7555625365741
 30
0.0
 10
318.7870360371367
 20
231.739819742951
 30
0.0
 10
318.7807778190545
 20
231.7346704351373
 30
0.0
 10
318.7672643890865
 20
231.7246489549941
 30
0.0
 10
318.7600181168634
 20
231.7197742977
 30
0.0
 10
318.7519959505158
 20
231.7151153165613
 30
0.0
  0
SPLINE
  5
184
330
1F
100
AcDbEntity
  8
1
100
AcDbSpline
210
0.0
220
0.0
230
1.0
 70
     8
 71
     3
 72
    18
 73
    14
 74
     0
 42
0.000000001
 43
0.0000000001
 40
0.0
 40
0.0
 40
0.0
 40
0.0
 40
0.0262799321711168
 40
0.0262799321711168
 40
0.2697099491283389
 40
0.5131399660855602
 40
0.5131399660855602
 40
0.5739974703248651
 40
0.5739974703248651
 40
0.6348549745641691
 40
0.7565699830427797
 40
0.7565699830427797
 40
1.0
 40
1.0
 40
1.0
 40
1.0
 10
297.9501917206899
 20
232.4307402049119
 30
0.0
 10
297.9505824421188
 20
232.4307397114426
 30
0.0
 10
297.9510220044891
 20
232.4308159030186
 30
0.0
 10
297.9560291458088
 20
232.4323843434409
 30
0.0
 10
297.973361607983
 20
232.4483665984407
 30
0.0
 10
298.0061330610018
 20
232.4907685765683
 30
0.0
 10
298.0312218887865
 20
232.5256526543993
 30
0.0
 10
298.0364681493961
 20
232.5330457925643
 30
0.0
 10
298.0473918894066
 20
232.5486360222967
 30
0.0
 10
298.0644322146907
 20
232.5732380433851
 30
0.0
 10
298.0834031091799
 20
232.6014730001277
 30
0.0
 10
298.1238500147723
 20
232.6627541165147
 30
0.0
 10
298.1541481112655
 20
232.7100189335241
 30
0.0
 10
298.1876793394611
 20
232.7636597981149
 30
0.0
  0
SPLINE
  5
185
330
1F
100
AcDbEntity
  8
1
100
AcDbSpline
210
0.0
220
0.0
230
1.0
 70
     8
 71
     3
 72
    44
 73
    40
 74
     0
 42
0.000000001
 43
0.0000000001
 40
0.0
 40
0.0
 40
0.0
 40
0.0
 40
0.062500000000008
 40
0.062500000000008
 40
0.125000000000016
 40
0.125000000000016
 40
0.2500000000000164
 40
0.2500000000000164
 40
0.2812500000000183
 40
0.2812500000000183
 40
0.3125000000000203
 40
0.3125000000000203
 40
0.3750000000000243
 40
0.3750000000000243
 40
0.5000000000000325
 40
0.5000000000000325
 40
0.5312500000000297
 40
0.5312500000000297
 40
0.5625000000000268
 40
0.5625000000000268
 40
0.6250000000000214
 40
0.6875000000000159
 40
0.6875000000000159
 40
0.7500000000000103
 40
0.7500000000000103
 40
0.7656250000000091
 40
0.7656250000000091
 40
0.7812500000000077
 40
0.7812500000000077
 40
0.8125000000000085
 40
0.8125000000000085
 40
0.875000000000006
 40
0.9375000000000035
 40
0.9375000000000035
 40
0.9687500000000014
 40
0.9687500000000014
 40
0.9843750000000007
 40
0.9843750000000007
 40
1.0
 40
1.0
 40
1.0
 40
1.0
 10
300.2409688800477
 20
233.1402585422985
 30
0.0
 10
300.1856074853439
 20
233.1435378837731
 30
0.0
 10
300.1293870020925
 20
233.1460564538216
 30
0.0
 10
300.0175099547203
 20
233.1494409890142
 30
0.0
 10
299.9616727721813
 20
233.150323441407
 30
0.0
 10
299.7944609575394
 20
233.1505627716659
 30
0.0
 10
299.6833833676472
 20
233.1475249681216
 30
0.0
 10
299.5450567894952
 20
233.1396132633276
 30
0.0
 10
299.5174177092885
 20
233.1378241345834
 30
0.0
 10
299.4621935600136
 20
233.1338247059668
 30
0.0
 10
299.4346429798368
 20
233.1316156144811
 30
0.0
 10
299.3529198322468
 20
233.124427057869
 30
0.0
 10
299.2993993362595
 20
233.1188681849674
 30
0.0
 10
299.1417224943737
 20
233.0999749875271
 30
0.0
 10
299.0404186984965
 20
233.0844387155213
 30
0.0
 10
298.9189883693695
 20
233.0614070030764
 30
0.0
 10
298.8949648347601
 20
233.0566189187572
 30
0.0
 10
298.8474651572552
 20
233.046675755176
 30
0.0
 10
298.8239631964235
 20
233.0415130115812
 30
0.0
 10
298.7551983329946
 20
233.025677634747
 30
0.0
 10
298.6675500061107
 20
233.0035208881313
 30
0.0
 10
298.5880448580389
 20
232.9794702049349
 30
0.0
 10
298.5127784541768
 20
232.9545434454707
 30
0.0
 10
298.4772632584189
 20
232.9416420731513
 30
0.0
 10
298.435721454035
 20
232.9249968381855
 30
0.0
 10
298.4275561588283
 20
232.9216418021543
 30
0.0
 10
298.4115187843539
 20
232.9148802136243
 30
0.0
 10
298.4036320277003
 20
232.9114669957497
 30
0.0
 10
298.3805655372827
 20
232.901214530132
 30
0.0
 10
298.3659651288202
 20
232.8943582562823
 30
0.0
 10
298.3244733842597
 20
232.873746080364
 30
0.0
 10
298.2752978214444
 20
232.8461487301327
 30
0.0
 10
298.2384809441132
 20
232.8185118962854
 30
0.0
 10
298.215685633802
 20
232.7978294810491
 30
0.0
 10
298.2088917741064
 20
232.79094277414
 30
0.0
 10
298.1999476084865
 20
232.7806305087388
 30
0.0
 10
298.1971772537043
 20
232.7771985475608
 30
0.0
 10
298.1920948244244
 20
232.770394223393
 30
0.0
 10
298.1897769020978
 20
232.7670153290458
 30
0.0
 10
298.1876793394611
 20
232.7636597981149
 30
0.0
  0
SPLINE
  5
186
330
1F
100
AcDbEntity
  8
1
100
AcDbSpline
210
0.0
220
0.0
230
1.0
 70
     8
 71
     3
 72
     8
 73
     4
 74
     0
 42
0.000000001
 43
0.0000000001
 40
0.0
 40
0.0
 40
0.0
 40
0.0
 40
1.0
 40
1.0
 40
1.0
 40
1.0
 10
311.3258973861245
 20
232.6464584041356
 30
0.0
 10
311.2710377898054
 20
232.6445589605107
 30
0.0
 10
311.2172021372747
 20
232.6420928234132
 30
0.0
 10
311.164355479816
 20
232.6391086037528
 30
0.0
  0
SPLINE
  5
187
330
1F
100
AcDbEntity
  8
1
100
AcDbSpline
210
0.0
220
0.0
230
1.0
 70
     8
 71
     3
 72
    18
 73
    14
 74
     0
 42
0.000000001
 43
0.0000000001
 40
0.0
 40
0.0
 40
0.0
 40
0.0
 40
0.2500000000000066
 40
0.2500000000000066
 40
0.3749999999999876
 40
0.3749999999999876
 40
0.4999999999999688
 40
0.4999999999999688
 40
0.7499999999999308
 40
0.7499999999999308
 40
0.8749999999999653
 40
0.8749999999999653
 40
1.0
 40
1.0
 40
1.0
 40
1.0
 10
311.0877189704118
 20
254.6885760483329
 30
0.0
 10
311.0953679273593
 20
254.7153707028188
 30
0.0
 10
311.1056257866201
 20
254.7409332594203
 30
0.0
 10
311.1247764773793
 20
254.7774995636897
 30
0.0
 10
311.1317924862711
 20
254.7893896545212
 30
0.0
 10
311.1471266255289
 20
254.8125549024544
 30
0.0
 10
311.1554248643553
 20
254.8237830264086
 30
0.0
 10
311.1816969566452
 20
254.8557718403998
 30
0.0
 10
311.2011986374292
 20
254.8751140575698
 30
0.0
 10
311.2334562798539
 20
254.9011272827731
 30
0.0
 10
311.2447534715779
 20
254.9093144611379
 30
0.0
 10
311.2680103161257
 20
254.924388844801
 30
0.0
 10
311.2800042898683
 20
254.9313094168648
 30
0.0
 10
311.2923665970065
 20
254.9376087103564
 30
0.0
  0
SPLINE
  5
188
330
1F
100
AcDbEntity
  8
1
100
AcDbSpline
210
0.0
220
0.0
230
1.0
 70
     8
 71
     3
 72
     8
 73
     4
 74
     0
 42
0.000000001
 43
0.0000000001
 40
0.0
 40
0.0
 40
0.0
 40
0.0
 40
1.0
 40
1.0
 40
1.0
 40
1.0
 10
311.2999322192006
 20
254.9413782510571
 30
0.0
 10
311.2974004889537
 20
254.9401452599639
 30
0.0
 10
311.2948783566043
 20
254.9388885936913
 30
0.0
 10
311.2923665970066
 20
254.9376087103565
 30
0.0
  0
SPLINE
  5
189
330
1F
100
AcDbEntity
  8
1
100
AcDbSpline
210
0.0
220
0.0
230
1.0
 70
     8
 71
     3
 72
     8
 73
     4
 74
     0
 42
0.000000001
 43
0.0000000001
 40
0.0
 40
0.0
 40
0.0
 40
0.0
 40
1.0
 40
1.0
 40
1.0
 40
1.0
 10
311.0877189704118
 20
254.6885760483329
 30
0.0
 10
311.0868972199464
 20
254.6856974179595
 30
0.0
 10
311.0861028019327
 20
254.6828115617036
 30
0.0
 10
311.0853360660061
 20
254.6799194833952
 30
0.0
  0
SPLINE
  5
18A
330
1F
100
AcDbEntity
  8
1
100
AcDbSpline
210
0.0
220
0.0
230
1.0
 70
     8
 71
     3
 72
     8
 73
     4
 74
     0
 42
0.000000001
 43
0.0000000001
 40
0.0
 40
0.0
 40
0.0
 40
0.0
 40
1.0
 40
1.0
 40
1.0
 40
1.0
 10
318.7826485287898
 20
256.0320450763801
 30
0.0
 10
318.779818186215
 20
256.0328243212195
 30
0.0
 10
318.7769773463028
 20
256.0335750770512
 30
0.0
 10
318.7741269882065
 20
256.0342970066623
 30
0.0
  0
SPLINE
  5
18B
330
1F
100
AcDbEntity
  8
1
100
AcDbSpline
210
0.0
220
0.0
230
1.0
 70
     8
 71
     3
 72
    18
 73
    14
 74
     0
 42
0.000000001
 43
0.0000000001
 40
0.0
 40
0.0
 40
0.0
 40
0.0
 40
0.2499999999999077
 40
0.2499999999999077
 40
0.3749999999999198
 40
0.3749999999999198
 40
0.4999999999999319
 40
0.4999999999999319
 40
0.7499999999999659
 40
0.7499999999999659
 40
0.8749999999999829
 40
0.8749999999999829
 40
1.0
 40
1.0
 40
1.0
 40
1.0
 10
318.7826485287898
 20
256.0320450763801
 30
0.0
 10
318.8089937143496
 20
256.0247917671614
 30
0.0
 10
318.8340850447809
 20
256.0148846563953
 30
0.0
 10
318.8699125406046
 20
255.9961951592321
 30
0.0
 10
318.8815509945182
 20
255.989321972684
 30
0.0
 10
318.9042018624861
 20
255.9742510036893
 30
0.0
 10
318.9151681246528
 20
255.9660724765221
 30
0.0
 10
318.9463727552882
 20
255.9401175952117
 30
0.0
 10
318.9651883622035
 20
255.9207749321836
 30
0.0
 10
318.9904060528092
 20
255.8886765233017
 30
0.0
 10
318.9983262830083
 20
255.8774190780512
 30
0.0
 10
319.0128736803086
 20
255.8542131853148
 30
0.0
 10
319.0195332957074
 20
255.842230685024
 30
0.0
 10
319.0255742406653
 20
255.8298657568358
 30
0.0
  0
SPLINE
  5
18C
330
1F
100
AcDbEntity
  8
1
100
AcDbSpline
210
0.0
220
0.0
230
1.0
 70
     8
 71
     3
 72
     8
 73
     4
 74
     0
 42
0.000000001
 43
0.0000000001
 40
0.0
 40
0.0
 40
0.0
 40
0.0
 40
1.0
 40
1.0
 40
1.0
 40
1.0
 10
319.0291783436687
 20
255.8222948241767
 30
0.0
 10
319.0280031498757
 20
255.8248295630655
 30
0.0
 10
319.0268016330369
 20
255.8273534646962
 30
0.0
 10
319.0255742406653
 20
255.8298657568357
 30
0.0
  0
SPLINE
  5
18D
330
1F
100
AcDbEntity
  8
1
100
AcDbSpline
210
0.0
220
0.0
230
1.0
 70
     8
 71
     3
 72
     8
 73
     4
 74
     0
 42
0.000000001
 43
0.0000000001
 40
0.0
 40
0.0
 40
0.0
 40
0.0
 40
1.0
 40
1.0
 40
1.0
 40
1.0
 10
319.761316132713
 20
248.0315135975796
 30
0.0
 10
319.763847854997
 20
248.0327465934171
 30
0.0
 10
319.7663666209697
 20
248.0340052663031
 30
0.0
 10
319.7688716655533
 20
248.0352891522926
 30
0.0
  0
SPLINE
  5
18E
330
1F
100
AcDbEntity
  8
1
100
AcDbSpline
210
0.0
220
0.0
230
1.0
 70
     8
 71
     3
 72
     8
 73
     4
 74
     0
 42
0.000000001
 43
0.0000000001
 40
0.0
 40
0.0
 40
0.0
 40
0.0
 40
1.0
 40
1.0
 40
1.0
 40
1.0
 10
319.9735191825678
 20
248.2843218796345
 30
0.0
 10
319.9743480475117
 20
248.2871962692416
 30
0.0
 10
319.9751460429825
 20
248.2900799930638
 30
0.0
 10
319.9759128085428
 20
248.2929720537101
 30
0.0
  0
SPLINE
  5
191
330
1F
100
AcDbEntity
  8
1
100
AcDbSpline
210
0.0
220
0.0
230
1.0
 70
     8
 71
     3
 72
    27
 73
    23
 74
     0
 42
0.000000001
 43
0.0000000001
 40
0.0
 40
0.0
 40
0.0
 40
0.0
 40
0.124999999999971
 40
0.124999999999971
 40
0.1875000000000052
 40
0.1875000000000052
 40
0.2500000000000395
 40
0.2500000000000395
 40
0.3750000000000115
 40
0.3750000000000115
 40
0.4375000000000008
 40
0.4375000000000008
 40
0.4999999999999902
 40
0.4999999999999902
 40
0.6249999999999688
 40
0.6249999999999688
 40
0.6874999999999602
 40
0.6874999999999602
 40
0.7499999999999517
 40
0.7499999999999517
 40
0.8749999999999758
 40
1.0
 40
1.0
 40
1.0
 40
1.0
 10
313.1317861285456
 20
233.6143727298443
 30
0.0
 10
313.1146158193885
 20
233.6137881843238
 30
0.0
 10
313.0978365933184
 20
233.612515479841
 30
0.0
 10
313.0732228452733
 20
233.6096341750997
 30
0.0
 10
313.0651113193568
 20
233.6085107921579
 30
0.0
 10
313.0490752770402
 20
233.6059378852916
 30
0.0
 10
313.0411183076587
 20
233.6044814635895
 30
0.0
 10
313.0177713072712
 20
233.5996624675061
 30
0.0
 10
313.0030466019539
 20
233.5958905478891
 30
0.0
 10
312.9821458047275
 20
233.5894545330607
 30
0.0
 10
312.9753777409743
 20
233.5871787503339
 30
0.0
 10
312.9622401023897
 20
233.5823680216128
 30
0.0
 10
312.9558449962392
 20
233.5798210888474
 30
0.0
 10
312.9375468582911
 20
233.5719109322197
 30
0.0
 10
312.9264691957622
 20
233.566267709069
 30
0.0
 10
312.9114491881988
 20
233.5572893896348
 30
0.0
 10
312.9067100831451
 20
233.5542105316733
 30
0.0
 10
312.8977697166196
 20
233.5478818576287
 30
0.0
 10
312.89355668027
 20
233.5446200734015
 30
0.0
 10
312.8819260224266
 20
233.5347400943975
 30
0.0
 10
312.8689640960621
 20
233.5212393254369
 30
0.0
 10
312.8608704937044
 20
233.5071363644342
 30
0.0
 10
312.8580838661898
 20
233.4999330550058
 30
0.0
  0
SPLINE
  5
192
330
1F
100
AcDbEntity
  8
1
100
AcDbSpline
210
0.0
220
0.0
230
1.0
 70
     8
 71
     3
 72
    74
 73
    70
 74
     0
 42
0.000000001
 43
0.0000000001
 40
0.0
 40
0.0
 40
0.0
 40
0.0
 40
0.0624999999999832
 40
0.0624999999999832
 40
0.1249999999999664
 40
0.1249999999999664
 40
0.1874999999999496
 40
0.1874999999999496
 40
0.2187499999999412
 40
0.2187499999999412
 40
0.22656249999994
 40
0.22656249999994
 40
0.2343749999999389
 40
0.2499999999999383
 40
0.2499999999999383
 40
0.3124999999999398
 40
0.3124999999999398
 40
0.3437499999999405
 40
0.3437499999999405
 40
0.3749999999999413
 40
0.3749999999999413
 40
0.390624999999941
 40
0.390624999999941
 40
0.3984374999999415
 40
0.3984374999999415
 40
0.4062499999999421
 40
0.4374999999999459
 40
0.4374999999999459
 40
0.4999999999999517
 40
0.4999999999999517
 40
0.5312499999999539
 40
0.5312499999999539
 40
0.5390624999999547
 40
0.5390624999999547
 40
0.5468749999999555
 40
0.5624999999999573
 40
0.5624999999999573
 40
0.6249999999999626
 40
0.6249999999999626
 40
0.6562499999999656
 40
0.6562499999999656
 40
0.6718749999999672
 40
0.6718749999999672
 40
0.679687499999968
 40
0.679687499999968
 40
0.687499999999969
 40
0.7187499999999721
 40
0.7187499999999721
 40
0.7499999999999752
 40
0.7812499999999785
 40
0.7812499999999785
 40
0.7968749999999801
 40
0.8046874999999808
 40
0.8046874999999808
 40
0.8124999999999815
 40
0.8124999999999815
 40
0.8437499999999847
 40
0.8437499999999847
 40
0.8749999999999879
 40
0.8749999999999879
 40
0.9062499999999909
 40
0.9374999999999939
 40
0.9374999999999939
 40
0.9453124999999948
 40
0.9453124999999948
 40
0.9531249999999955
 40
0.9687499999999969
 40
0.9687499999999969
 40
1.0
 40
1.0
 40
1.0
 40
1.0
 10
309.6593697630102
 20
249.4424139218284
 30
0.0
 10
309.2110249731849
 20
249.4545701887246
 30
0.0
 10
308.7666107921102
 20
249.4840777639369
 30
0.0
 10
307.8855443302439
 20
249.576773904048
 30
0.0
 10
307.4488916635628
 20
249.6399628639782
 30
0.0
 10
306.5835213660655
 20
249.7995074975296
 30
0.0
 10
306.1548018842424
 20
249.8958621684948
 30
0.0
 10
305.518030997559
 20
250.0652680901189
 30
0.0
 10
305.3068279568796
 20
250.1258864885703
 30
0.0
 10
305.0442009134159
 20
250.206879303963
 30
0.0
 10
304.991787576294
 20
250.2233259765138
 30
0.0
 10
304.8873754684482
 20
250.2566516568746
 30
0.0
 10
304.7312943304199
 20
250.3073147633768
 30
0.0
 10
304.5768274756608
 20
250.3599768764066
 30
0.0
 10
304.0655470613708
 20
250.5398519504432
 30
0.0
 10
303.6680384495082
 20
250.6976200383875
 30
0.0
 10
303.0898629900923
 20
250.9530765208011
 30
0.0
 10
302.9001589787575
 20
251.0413634939948
 30
0.0
 10
302.5270145671299
 20
251.2238674004898
 30
0.0
 10
302.3435738512966
 20
251.3180848636127
 30
0.0
 10
302.0733256946682
 20
251.4635881195819
 30
0.0
 10
301.984062340564
 20
251.5127851632367
 30
0.0
 10
301.8514286422228
 20
251.5875881530252
 30
0.0
 10
301.8074033379268
 20
251.6127044305341
 30
0.0
 10
301.7198875782912
 20
251.6632036944807
 30
0.0
 10
301.5027668496897
 20
251.7899255835661
 30
0.0
 10
301.2939871459993
 20
251.9188614399571
 30
0.0
 10
300.8090189501885
 20
252.2313145378893
 30
0.0
 10
300.5071468408099
 20
252.4436645479684
 30
0.0
 10
300.0873964824991
 20
252.7627944705942
 30
0.0
 10
299.9529968079179
 20
252.8692638293715
 30
0.0
 10
299.7920488064668
 20
253.0018074072021
 30
0.0
 10
299.7601819339005
 20
253.0283139417885
 30
0.0
 10
299.6973006494716
 20
253.0811344566396
 30
0.0
 10
299.6043853525583
 20
253.1599672348793
 30
0.0
 10
299.5156375765726
 20
253.2375356238662
 30
0.0
 10
299.2288538163584
 20
253.4929759123927
 30
0.0
 10
299.0283082226582
 20
253.6873552280768
 30
0.0
 10
298.767268001398
 20
253.9579042984836
 30
0.0
 10
298.6868948275848
 20
254.0445815487522
 30
0.0
 10
298.5759482964129
 20
254.1685263759181
 30
0.0
 10
298.5405689974523
 20
254.2088289192996
 30
0.0
 10
298.4898673051479
 20
254.267656275147
 30
0.0
 10
298.4733511082119
 20
254.2870063682849
 30
0.0
 10
298.4411468723458
 20
254.325092852484
 30
0.0
 10
298.362890762205
 20
254.41855824939
 30
0.0
 10
298.2955807621092
 20
254.5032178381122
 30
0.0
 10
298.2005483388008
 20
254.6270827588983
 30
0.0
 10
298.1181811891373
 20
254.7393579079216
 30
0.0
 10
298.0589509129886
 20
254.8276975276519
 30
0.0
 10
298.022545015305
 20
254.8846288947441
 30
0.0
 10
298.0063487257957
 20
254.9107626500088
 30
0.0
 10
297.993060403364
 20
254.9333220672912
 30
0.0
 10
297.9848378688713
 20
254.9475579952491
 30
0.0
 10
297.9810503867604
 20
254.9542645237819
 30
0.0
 10
297.9637302018893
 20
254.9856662509378
 30
0.0
 10
297.9549882081135
 20
255.0040579781464
 30
0.0
 10
297.9466175433939
 20
255.0276097583438
 30
0.0
 10
297.9469906323961
 20
255.0327695071559
 30
0.0
 10
297.9560291458088
 20
255.0299382769411
 30
0.0
 10
297.973361607983
 20
255.0139560219413
 30
0.0
 10
298.0061330610018
 20
254.9715540438136
 30
0.0
 10
298.0312218887865
 20
254.9366699659827
 30
0.0
 10
298.0364681493961
 20
254.9292768278176
 30
0.0
 10
298.0473918894066
 20
254.9136865980852
 30
0.0
 10
298.0644322146907
 20
254.8890845769968
 30
0.0
 10
298.0834031091799
 20
254.8608496202542
 30
0.0
 10
298.1238500147723
 20
254.7995685038673
 30
0.0
 10
298.1541481112655
 20
254.7523036868579
 30
0.0
 10
298.1876793394611
 20
254.698662822267
 30
0.0
  0
SPLINE
  5
193
330
1F
100
AcDbEntity
  8
1
100
AcDbSpline
210
0.0
220
0.0
230
1.0
 70
     8
 71
     3
 72
    42
 73
    38
 74
     0
 42
0.000000001
 43
0.0000000001
 40
0.0
 40
0.0
 40
0.0
 40
0.0
 40
0.1250000000000253
 40
0.1250000000000253
 40
0.1875000000000458
 40
0.1875000000000458
 40
0.2187500000000483
 40
0.2187500000000483
 40
0.2500000000000508
 40
0.2500000000000508
 40
0.3750000000000375
 40
0.3750000000000375
 40
0.4375000000000272
 40
0.4375000000000272
 40
0.4687500000000221
 40
0.4687500000000221
 40
0.5000000000000169
 40
0.5000000000000169
 40
0.6249999999999974
 40
0.6249999999999974
 40
0.6874999999999876
 40
0.6874999999999876
 40
0.7031249999999853
 40
0.7031249999999853
 40
0.7187499999999828
 40
0.7187499999999828
 40
0.7499999999999824
 40
0.7499999999999824
 40
0.812499999999987
 40
0.812499999999987
 40
0.8749999999999914
 40
0.8749999999999914
 40
0.9062499999999939
 40
0.9062499999999939
 40
0.9374999999999968
 40
0.9374999999999968
 40
1.0
 40
1.0
 40
1.0
 40
1.0
 10
300.2409688800479
 20
254.3220640780835
 30
0.0
 10
300.1303918679121
 20
254.3155140302754
 30
0.0
 10
300.0193036732667
 20
254.3121160143926
 30
0.0
 10
299.8519078579603
 20
254.3118253039039
 30
0.0
 10
299.7959812485079
 20
254.3125322540764
 30
0.0
 10
299.7118923817609
 20
254.3148366961454
 30
0.0
 10
299.683776198295
 20
254.3158147437128
 30
0.0
 10
299.6277261082285
 20
254.3181842702435
 30
0.0
 10
299.5998754516836
 20
254.3195713469389
 30
0.0
 10
299.461485661889
 20
254.3274998455597
 30
0.0
 10
299.3535133004852
 20
254.3370036011996
 30
0.0
 10
299.1957839439228
 20
254.3558536128369
 30
0.0
 10
299.1439168688748
 20
254.3629059416452
 30
0.0
 10
299.0672433102414
 20
254.374652437638
 30
0.0
 10
299.0418736734747
 20
254.3787628516143
 30
0.0
 10
298.9915265342422
 20
254.3873793202845
 30
0.0
 10
298.9667297944036
 20
254.3918548816373
 30
0.0
 10
298.8449732011487
 20
254.4149770571765
 30
0.0
 10
298.7542607902583
 20
254.4359026031978
 30
0.0
 10
298.6288111365587
 20
254.470529800789
 30
0.0
 10
298.5887770539856
 20
254.4826152195986
 30
0.0
 10
298.5411420607281
 20
254.498384402692
 30
0.0
 10
298.5317358299509
 20
254.5015714333989
 30
0.0
 10
298.5131710672591
 20
254.5080117842611
 30
0.0
 10
298.5040010095377
 20
254.5112695329596
 30
0.0
 10
298.477062846639
 20
254.5210717147987
 30
0.0
 10
298.4598098210531
 20
254.527663849794
 30
0.0
 10
298.410156154762
 20
254.5475902720805
 30
0.0
 10
298.3798551619768
 20
254.561073974198
 30
0.0
 10
298.3249312227012
 20
254.5883393189569
 30
0.0
 10
298.300307401159
 20
254.6021210821835
 30
0.0
 10
298.2678322637873
 20
254.6229551844021
 30
0.0
 10
298.2577522463944
 20
254.6299269231071
 30
0.0
 10
298.2391378131339
 20
254.6439155986105
 30
0.0
 10
298.230602765611
 20
254.6509398607037
 30
0.0
 10
298.2077456737775
 20
254.6717359070041
 30
0.0
 10
298.196007213576
 20
254.685340483905
 30
0.0
 10
298.1876793394611
 20
254.698662822267
 30
0.0
  0
SPLINE
  5
194
330
1F
100
AcDbEntity
  8
1
100
AcDbSpline
210
0.0
220
0.0
230
1.0
 70
     8
 71
     3
 72
     8
 73
     4
 74
     0
 42
0.000000001
 43
0.0000000001
 40
0.0
 40
0.0
 40
0.0
 40
0.0
 40
1.0
 40
1.0
 40
1.0
 40
1.0
 10
313.6963596824807
 20
249.3282697011243
 30
0.0
 10
313.5082866160597
 20
249.3363786833042
 30
0.0
 10
313.3200954267791
 20
249.3429939911985
 30
0.0
 10
313.1317861285456
 20
249.3481158006599
 30
0.0
  0
SPLINE
  5
195
330
1F
100
AcDbEntity
  8
1
100
AcDbSpline
210
0.0
220
0.0
230
1.0
 70
     8
 71
     3
 72
     8
 73
     4
 74
     0
 42
0.000000001
 43
0.0000000001
 40
0.0
 40
0.0
 40
0.0
 40
0.0
 40
1.0
 40
1.0
 40
1.0
 40
1.0
 10
313.2050235112613
 20
233.612877371174
 30
0.0
 10
313.1808479507873
 20
233.6147038371249
 30
0.0
 10
313.1564372125938
 20
233.6152119506697
 30
0.0
 10
313.1317861285484
 20
233.6143727298602
 30
0.0
  0
SPLINE
  5
196
330
1F
100
AcDbEntity
  8
1
100
AcDbSpline
210
0.0
220
0.0
230
1.0
 70
     8
 71
     3
 72
     8
 73
     4
 74
     0
 42
0.000000001
 43
0.0000000001
 40
0.0
 40
0.0
 40
0.0
 40
0.0
 40
1.0
 40
1.0
 40
1.0
 40
1.0
 10
313.2050235112613
 20
233.612877371174
 30
0.0
 10
313.3686667013695
 20
233.6005141122065
 30
0.0
 10
313.5324453690561
 20
233.5925294711441
 30
0.0
 10
313.6963596824807
 20
233.5889288828785
 30
0.0
  0
SPLINE
  5
197
330
1F
100
AcDbEntity
  8
SK1
100
AcDbSpline
210
0.0
220
0.0
230
1.0
 70
    24
 71
     3
 72
    24
 73
    20
 74
     0
 42
0.000000001
 43
0.0000000001
 40
0.0
 40
0.0
 40
0.0
 40
0.0
 40
0.1250506472370974
 40
0.1250506472370974
 40
0.2501012944741948
 40
0.2501012944741948
 40
0.3751519417112922
 40
0.3751519417112922
 40
0.5002025889483896
 40
0.5002025889483896
 40
0.5627279125669378
 40
0.5627279125669378
 40
0.625253236185486
 40
0.625253236185486
 40
0.7503038834225825
 40
0.7503038834225825
 40
0.8753545306596787
 40
0.8753545306596787
 40
1.0
 40
1.0
 40
1.0
 40
1.0
 10
183.1442482849923
 20
254.231161310191
 30
0.0
 10
183.0023758348594
 20
254.231161310191
 30
0.0
 10
182.8651168771813
 20
254.231161310191
 30
0.0
 10
182.6013546893261
 20
254.231161310191
 30
0.0
 10
182.4748499370598
 20
254.231161310191
 30
0.0
 10
182.2344102301662
 20
254.231161310191
 30
0.0
 10
182.1204737530448
 20
254.231161310191
 30
0.0
 10
181.9073190312837
 20
254.231161310191
 30
0.0
 10
181.808099499385
 20
254.231161310191
 30
0.0
 10
181.6722033869065
 20
254.231161310191
 30
0.0
 10
181.6290632903418
 20
254.231161310191
 30
0.0
 10
181.5474543219997
 20
254.231161310191
 30
0.0
 10
181.509205718166
 20
254.231161310191
 30
0.0
 10
181.4024999711428
 20
254.231161310191
 30
0.0
 10
181.3420777143546
 20
254.231161310191
 30
0.0
 10
181.2443571940052
 20
254.231161310191
 30
0.0
 10
181.207063302361
 20
254.231161310191
 30
0.0
 10
181.1570880130289
 20
254.231161310191
 30
0.0
 10
181.1443201626399
 20
254.231161310191
 30
0.0
 10
181.1442532850139
 20
254.231161310191
 30
0.0
  0
SPLINE
  5
198
330
1F
100
AcDbEntity
  8
1
100
AcDbSpline
210
0.0
220
0.0
230
1.0
 70
     8
 71
     3
 72
    32
 73
    28
 74
     0
 42
0.000000001
 43
0.0000000001
 40
0.0
 40
0.0
 40
0.0
 40
0.0
 40
0.0625000000000324
 40
0.0625000000000324
 40
0.1250000000000649
 40
0.1250000000000649
 40
0.2500000000001297
 40
0.2500000000001297
 40
0.3125000000001626
 40
0.3125000000001626
 40
0.3750000000001955
 40
0.3750000000001955
 40
0.500000000000234
 40
0.500000000000234
 40
0.5625000000002345
 40
0.5625000000002345
 40
0.6250000000002351
 40
0.6250000000002351
 40
0.7500000000002318
 40
0.7500000000002318
 40
0.7812500000001964
 40
0.7812500000001964
 40
0.8125000000001609
 40
0.8125000000001609
 40
0.8750000000000898
 40
0.8750000000000898
 40
1.0
 40
1.0
 40
1.0
 40
1.0
 10
319.0099543224361
 20
248.9658168221374
 30
0.0
 10
319.0100009741089
 20
248.9701663726347
 30
0.0
 10
319.0093323814939
 20
248.9745387225242
 30
0.0
 10
319.0065393132764
 20
248.9833298305694
 30
0.0
 10
319.0044008214212
 20
248.9877688471336
 30
0.0
 10
318.9958068606294
 20
249.0010085513013
 30
0.0
 10
318.9872731411404
 20
249.0096542116589
 30
0.0
 10
318.9703500727182
 20
249.0223569126358
 30
0.0
 10
318.9640175211376
 20
249.0265465613075
 30
0.0
 10
318.9499281991899
 20
249.0348340348845
 30
0.0
 10
318.9421291326564
 20
249.0389490667812
 30
0.0
 10
318.9170173688903
 20
249.0509066124004
 30
0.0
 10
318.897920800704
 20
249.0584308616336
 30
0.0
 10
318.8657511975472
 20
249.0690476475937
 30
0.0
 10
318.854436765386
 20
249.0724742615887
 30
0.0
 10
318.8305778629505
 20
249.0790938223911
 30
0.0
 10
318.81810371906
 20
249.0822643198604
 30
0.0
 10
318.7796303879768
 20
249.0912227013795
 30
0.0
 10
318.7523775491255
 20
249.0965225012364
 30
0.0
 10
318.7162784765646
 20
249.1022949084866
 30
0.0
 10
318.7089561449409
 20
249.1034064097758
 30
0.0
 10
318.694102126495
 20
249.1055416404694
 30
0.0
 10
318.6865556019977
 20
249.1065670060445
 30
0.0
 10
318.6638391556389
 20
249.1094777551552
 30
0.0
 10
318.6485259330646
 20
249.1112086580311
 30
0.0
 10
318.6020909757512
 20
249.1157868277867
 30
0.0
 10
318.5704786169487
 20
249.1180253446256
 30
0.0
 10
318.5381852771366
 20
249.1194189228473
 30
0.0
  0
SPLINE
  5
199
330
1F
100
AcDbEntity
  8
1
100
AcDbSpline
210
0.0
220
0.0
230
1.0
 70
     8
 71
     3
 72
    31
 73
    27
 74
     0
 42
0.000000001
 43
0.0000000001
 40
0.0
 40
0.0
 40
0.0
 40
0.0
 40
0.1249999999999868
 40
0.1249999999999868
 40
0.1874999999999803
 40
0.1874999999999803
 40
0.2499999999999737
 40
0.2499999999999737
 40
0.3749999999999605
 40
0.3749999999999605
 40
0.4062499999999673
 40
0.4062499999999673
 40
0.4374999999999739
 40
0.4374999999999739
 40
0.4999999999999873
 40
0.4999999999999873
 40
0.6250000000000102
 40
0.6250000000000102
 40
0.6875000000000075
 40
0.6875000000000075
 40
0.7500000000000048
 40
0.8125000000000021
 40
0.8125000000000021
 40
0.8749999999999992
 40
0.8749999999999992
 40
1.0
 40
1.0
 40
1.0
 40
1.0
 10
318.5381852771366
 20
233.5128713392174
 30
0.0
 10
318.5699871193195
 20
233.5125710324597
 30
0.0
 10
318.60124233586
 20
233.5154032367057
 30
0.0
 10
318.6473196815925
 20
233.5242674481465
 30
0.0
 10
318.6625436494163
 20
233.5279966655754
 30
0.0
 10
318.6927124039225
 20
233.5370549851237
 30
0.0
 10
318.7076730148596
 20
233.5424025614363
 30
0.0
 10
318.7511119153882
 20
233.5605070807747
 30
0.0
 10
318.7785100207417
 20
233.5753963645569
 30
0.0
 10
318.8108090478024
 20
233.5975273318011
 30
0.0
 10
318.8171705832971
 20
233.6021310099273
 30
0.0
 10
318.8296937351355
 20
233.6116994388951
 30
0.0
 10
318.835868337505
 20
233.6166763504256
 30
0.0
 10
318.85389247224
 20
233.631991658032
 30
0.0
 10
318.8652988234336
 20
233.6427513410397
 30
0.0
 10
318.8977497942687
 20
233.6766237325411
 30
0.0
 10
318.9170419251263
 20
233.7013157307078
 30
0.0
 10
318.9424159877653
 20
233.7415656169672
 30
0.0
 10
318.9501799959648
 20
233.7553765809063
 30
0.0
 10
318.9642542873282
 20
233.7835407401779
 30
0.0
 10
318.9769179742857
 20
233.8123155845125
 30
0.0
 10
318.9868215147899
 20
233.8422853635884
 30
0.0
 10
318.9953389841221
 20
233.8728552066917
 30
0.0
 10
318.9989074734721
 20
233.8884921101499
 30
0.0
 10
319.0073413854149
 20
233.9353973831261
 30
0.0
 10
319.010046889962
 20
233.9669217338806
 30
0.0
 10
319.0099543224361
 20
233.9986898821415
 30
0.0
  0
SPLINE
  5
19A
330
1F
100
AcDbEntity
  8
1
100
AcDbSpline
210
0.0
220
0.0
230
1.0
 70
     8
 71
     3
 72
     8
 73
     4
 74
     0
 42
0.000000001
 43
0.0000000001
 40
0.0
 40
0.0
 40
0.0
 40
0.0
 40
1.0
 40
1.0
 40
1.0
 40
1.0
 10
318.5381852771366
 20
249.1194189228473
 30
0.0
 10
316.9242491018646
 20
249.189066296522
 30
0.0
 10
315.3103071092759
 20
249.2586825392184
 30
0.0
 10
313.6963596824807
 20
249.3282697011243
 30
0.0
  0
SPLINE
  5
19B
330
1F
100
AcDbEntity
  8
1
100
AcDbSpline
210
0.0
220
0.0
230
1.0
 70
     8
 71
     3
 72
    79
 73
    75
 74
     0
 42
0.000000001
 43
0.0000000001
 40
0.0
 40
0.0
 40
0.0
 40
0.0
 40
0.0624999999999945
 40
0.0624999999999945
 40
0.093749999999992
 40
0.093749999999992
 40
0.1093749999999908
 40
0.1093749999999908
 40
0.1249999999999896
 40
0.1249999999999896
 40
0.1874999999999836
 40
0.1874999999999836
 40
0.2031249999999842
 40
0.2031249999999842
 40
0.2187499999999847
 40
0.2187499999999847
 40
0.2499999999999886
 40
0.2499999999999886
 40
0.2812499999999926
 40
0.2812499999999926
 40
0.2968749999999923
 40
0.2968749999999923
 40
0.3124999999999922
 40
0.3124999999999922
 40
0.3437499999999974
 40
0.3437499999999974
 40
0.3750000000000026
 40
0.3750000000000026
 40
0.3906250000000017
 40
0.3906250000000017
 40
0.4062500000000007
 40
0.4062500000000007
 40
0.4375000000000058
 40
0.4687500000000109
 40
0.4687500000000109
 40
0.4765625000000123
 40
0.4765625000000123
 40
0.4843750000000136
 40
0.4843750000000136
 40
0.5000000000000164
 40
0.5000000000000164
 40
0.5312500000000217
 40
0.5312500000000217
 40
0.5468750000000245
 40
0.5468750000000245
 40
0.5625000000000272
 40
0.5625000000000272
 40
0.5937500000000325
 40
0.5937500000000325
 40
0.6250000000000378
 40
0.6250000000000378
 40
0.6406250000000405
 40
0.6406250000000405
 40
0.6562500000000435
 40
0.6562500000000435
 40
0.6875000000000427
 40
0.6875000000000427
 40
0.7187500000000418
 40
0.7187500000000418
 40
0.7343750000000388
 40
0.7343750000000388
 40
0.7500000000000357
 40
0.7500000000000357
 40
0.8125000000000261
 40
0.8125000000000261
 40
0.8437500000000213
 40
0.8437500000000213
 40
0.8750000000000163
 40
0.8750000000000163
 40
0.9375000000000092
 40
0.9375000000000092
 40
0.9687500000000046
 40
0.9687500000000046
 40
1.0
 40
1.0
 40
1.0
 40
1.0
 10
318.396013580946
 20
236.9448309978075
 30
0.0
 10
318.4092165850542
 20
237.0335463021538
 30
0.0
 10
318.4156775784428
 20
237.1233981856998
 30
0.0
 10
318.4138695057375
 20
237.2599419603418
 30
0.0
 10
318.4113404974105
 20
237.3057511223764
 30
0.0
 10
318.4043670561595
 20
237.3749173657359
 30
0.0
 10
318.4015171604037
 20
237.397977838847
 30
0.0
 10
318.3947607547244
 20
237.4439226663444
 30
0.0
 10
318.3908516004172
 20
237.4668344414995
 30
0.0
 10
318.3685788257629
 20
237.5810650329325
 30
0.0
 10
318.3421184833064
 20
237.6714199950563
 30
0.0
 10
318.2963351932695
 20
237.7824901204627
 30
0.0
 10
318.2865373965479
 20
237.8046090294114
 30
0.0
 10
318.2655847530007
 20
237.8486351234096
 30
0.0
 10
318.2544036112104
 20
237.870584637072
 30
0.0
 10
318.2190760294246
 20
237.9354046312802
 30
0.0
 10
318.1930720081631
 20
237.9774369387859
 30
0.0
 10
318.1359083409637
 20
238.0589268314438
 30
0.0
 10
318.1047505388233
 20
238.0983855584283
 30
0.0
 10
318.053835905055
 20
238.1554124861956
 30
0.0
 10
318.0361665806127
 20
238.1740604222211
 30
0.0
 10
317.9993585690001
 20
238.2105830105181
 30
0.0
 10
317.980170091582
 20
238.2284942432267
 30
0.0
 10
317.9211571588289
 20
238.280233503092
 30
0.0
 10
317.8796643330682
 20
238.3123168422416
 30
0.0
 10
317.792326995619
 20
238.3715069547315
 30
0.0
 10
317.7464835956947
 20
238.3986151818169
 30
0.0
 10
317.6742991307947
 20
238.4352956181145
 30
0.0
 10
317.6496664154874
 20
238.4468572754318
 30
0.0
 10
317.5992135252545
 20
238.4685868401078
 30
0.0
 10
317.5733092712696
 20
238.4787781877775
 30
0.0
 10
317.4950681925782
 20
238.5067000056708
 30
0.0
 10
317.3886515915271
 20
238.537217854386
 30
0.0
 10
317.2781609088303
 20
238.554540341707
 30
0.0
 10
317.2078116931004
 20
238.5611516997842
 30
0.0
 10
317.1936770007648
 20
238.5622625571299
 30
0.0
 10
317.1652765164029
 20
238.564056442654
 30
0.0
 10
317.1510087602634
 20
238.5647384330775
 30
0.0
 10
317.1083440434315
 20
238.5661290078526
 30
0.0
 10
317.0799734987536
 20
238.5661911214068
 30
0.0
 10
316.9950724089511
 20
238.5638695287909
 30
0.0
 10
316.9387517652212
 20
238.5589858196893
 30
0.0
 10
316.8546750193864
 20
238.5468422394232
 30
0.0
 10
316.8267169755623
 20
238.5419893037811
 30
0.0
 10
316.7709352036032
 20
238.5306809301496
 30
0.0
 10
316.7430293945163
 20
238.524200972558
 30
0.0
 10
316.6604711380951
 20
238.5026153661464
 30
0.0
 10
316.6067746279392
 20
238.4853517520137
 30
0.0
 10
316.501870956466
 20
238.4455296359591
 30
0.0
 10
316.4506648083938
 20
238.4229689468223
 30
0.0
 10
316.3756521418733
 20
238.385338556927
 30
0.0
 10
316.3508823789501
 20
238.3721237236173
 30
0.0
 10
316.3023215565132
 20
238.344665559907
 30
0.0
 10
316.2785334353547
 20
238.3304297023232
 30
0.0
 10
316.2085778696348
 20
238.286283250633
 30
0.0
 10
316.1638154720869
 20
238.2549376493753
 30
0.0
 10
316.077785620506
 20
238.188738462897
 30
0.0
 10
316.0365192515438
 20
238.1538836816225
 30
0.0
 10
315.9771333588737
 20
238.09912612451
 30
0.0
 10
315.9577484612833
 20
238.0804468489949
 30
0.0
 10
315.9201298637441
 20
238.0426197522337
 30
0.0
 10
315.9018516657608
 20
238.0234324101372
 30
0.0
 10
315.813001042304
 20
237.9262079070341
 30
0.0
 10
315.7499872911774
 20
237.8443433015985
 30
0.0
 10
315.6662184634677
 20
237.7164764923438
 30
0.0
 10
315.6400426360826
 20
237.6728779310178
 30
0.0
 10
315.591801394366
 20
237.5852607058958
 30
0.0
 10
315.5696507560319
 20
237.5411306289335
 30
0.0
 10
315.5087039710918
 20
237.4079268002463
 30
0.0
 10
315.4753806381468
 20
237.3180478929823
 30
0.0
 10
315.4354616309919
 20
237.1820213056315
 30
0.0
 10
315.4238312935776
 20
237.1363977255019
 30
0.0
 10
315.4040465547899
 20
237.0456250282981
 30
0.0
 10
315.3958601680413
 20
237.0003864106695
 30
0.0
 10
315.3893115792102
 20
236.9553049179868
 30
0.0
  0
LINE
  5
1B7
330
1F
100
AcDbEntity
  8
4
100
AcDbLine
 10
235.942414
 20
243.731161
 30
0.0
 11
321.911615
 21
243.731161
 31
0.0
  0
MTEXT
  5
1B8
330
1F
100
AcDbEntity
  8
SK6
100
AcDbMText
 10
192.513213
 20
212.002455
 30
0.0
 40
3.5
 41
0.0
 71
     7
 72
     5
  1
\W0.7237;25E2R080B25-SZD09-C
  7
cesky
 73
     2
 44
0.8433729999999998
  0
MTEXT
  5
2B2
330
1F
100
AcDbEntity
  8
2
100
AcDbMText
 10
276.829748
 20
273.271555
 30
0.0
 40
3.5
 41
0.0
 71
     7
 72
     5
  1
\W0.7045;83
  7
cesky
 73
     2
 44
0.8433729999999998
  0
LINE
  5
2B3
330
1F
100
AcDbEntity
  8
2
100
AcDbLine
 10
320.144248
 20
258.231161
 30
0.0
 11
320.144248
 21
274.397388
 31
0.0
  0
LINE
  5
2B4
330
1F
100
AcDbEntity
  8
2
100
AcDbLine
 10
237.144248
 20
244.730735
 30
0.0
 11
237.144248
 21
274.397388
 31
0.0
  0
LINE
  5
2B5
330
1F
100
AcDbEntity
  8
2
100
AcDbLine
 10
320.144248
 20
273.397388
 30
0.0
 11
237.144248
 21
273.397388
 31
0.0
  0
SOLID
  5
2B6
330
1F
100
AcDbEntity
  8
2
100
AcDbTrace
 10
320.144248
 20
273.397388
 30
0.0
 11
316.644251
 21
272.780244
 31
0.0
 12
316.644246
 22
274.014533
 32
0.0
 13
316.644246
 23
274.014533
 33
0.0
  0
SOLID
  5
2B7
330
1F
100
AcDbEntity
  8
2
100
AcDbTrace
 10
237.144248
 20
273.397388
 30
0.0
 11
240.644246
 21
274.014533
 31
0.0
 12
240.644251
 22
272.780244
 32
0.0
 13
240.644251
 23
272.780244
 33
0.0
  0
MTEXT
  5
2B8
330
1F
100
AcDbEntity
  8
2
100
AcDbMText
 10
311.239677
 20
262.819939
 30
0.0
 40
3.5
 41
0.0
 71
     7
 72
     5
  1
\W1.7063;1
  7
cesky
 73
     2
 44
0.8433729999999998
  0
LINE
  5
2B9
330
1F
100
AcDbEntity
  8
2
100
AcDbLine
 10
320.144248
 20
258.231161
 30
0.0
 11
320.144248
 21
263.945773
 31
0.0
  0
LINE
  5
2BA
330
1F
100
AcDbEntity
  8
2
100
AcDbLine
 10
319.029177
 20
255.822294
 30
0.0
 11
319.029177
 21
263.945773
 31
0.0
  0
LINE
  5
2BB
330
1F
100
AcDbEntity
  8
2
100
AcDbLine
 10
311.054177
 20
262.945773
 30
0.0
 11
328.894248
 21
262.945773
 31
0.0
  0
SOLID
  5
2BC
330
1F
100
AcDbEntity
  8
2
100
AcDbTrace
 10
320.144248
 20
262.945773
 30
0.0
 11
323.644246
 21
263.562917
 31
0.0
 12
323.644251
 22
262.328628
 32
0.0
 13
323.644251
 23
262.328628
 33
0.0
  0
SOLID
  5
2BD
330
1F
100
AcDbEntity
  8
2
100
AcDbTrace
 10
319.029177
 20
262.945773
 30
0.0
 11
315.529179
 21
262.328628
 31
0.0
 12
315.529175
 22
263.562917
 32
0.0
 13
315.529175
 23
263.562917
 33
0.0
  0
MTEXT
  5
2BE
330
1F
100
AcDbEntity
  8
2
100
AcDbMText
 10
333.19965
 20
240.529995
 30
0.0
 40
3.5
 41
0.0
 71
     7
 72
     5
  1
\W0.7045;25
  7
cesky
 11
0.0000000000000001
 21
1.0
 31
0.0
 73
     2
 44
0.8433729999999998
  0
MTEXT
  5
2BF
330
1F
100
AcDbEntity
  8
2
100
AcDbMText
 10
333.19965
 20
233.7924950000001
 30
0.0
 40
3.5
 41
0.0
 71
     7
 72
     5
  1
\W3.0115;\H2.63;%%c\H3.50;
  7
cesky
 11
0.0000000000000001
 21
1.0
 31
0.0
 73
     2
 44
0.8433729999999998
  0
LINE
  5
2C0
330
1F
100
AcDbEntity
  8
2
100
AcDbLine
 10
322.144248
 20
256.231161
 30
0.0
 11
334.387067
 21
256.231161
 31
0.0
  0
LINE
  5
2C1
330
1F
100
AcDbEntity
  8
2
100
AcDbLine
 10
333.387067
 20
256.231161
 30
0.0
 11
333.387067
 21
233.634995
 31
0.0
  0
SOLID
  5
2C2
330
1F
100
AcDbEntity
  8
2
100
AcDbTrace
 10
333.387067
 20
256.231161
 30
0.0
 11
334.004211
 21
252.731164
 31
0.0
 12
332.769922
 22
252.731159
 32
0.0
 13
332.769922
 23
252.731159
 33
0.0
  0
MTEXT
  5
2C3
330
1F
100
AcDbEntity
  8
SK2
100
AcDbMText
 10
247.567248
 20
292.7888259999999
 30
0.0
 40
3.5
 41
0.0
 71
     7
 72
     5
  1
\W0.7969;139
  7
cesky
 73
     2
 44
0.8433729999999998
  0
LINE
  5
2C4
330
1F
100
AcDbEntity
  8
SK2
100
AcDbLine
 10
181.144248
 20
243.731161
 30
0.0
 11
181.144248
 21
293.914659
 31
0.0
  0
LINE
  5
2C5
330
1F
100
AcDbEntity
  8
SK2
100
AcDbLine
 10
320.144248
 20
258.231161
 30
0.0
 11
320.144248
 21
293.914659
 31
0.0
  0
LINE
  5
2C6
330
1F
100
AcDbEntity
  8
SK2
100
AcDbLine
 10
181.144248
 20
292.914659
 30
0.0
 11
320.144248
 21
292.914659
 31
0.0
  0
SOLID
  5
2C7
330
1F
100
AcDbEntity
  8
SK2
100
AcDbTrace
 10
181.144248
 20
292.914659
 30
0.0
 11
184.644246
 21
293.531803
 31
0.0
 12
184.644251
 22
292.297515
 32
0.0
 13
184.644251
 23
292.297515
 33
0.0
  0
SOLID
  5
2C8
330
1F
100
AcDbEntity
  8
SK2
100
AcDbTrace
 10
320.144248
 20
292.914659
 30
0.0
 11
316.644251
 21
292.297515
 31
0.0
 12
316.644246
 22
293.531803
 32
0.0
 13
316.644246
 23
293.531803
 33
0.0
  0
MTEXT
  5
2C9
330
1F
100
AcDbEntity
  8
SK2
100
AcDbMText
 10
276.829748
 20
282.798122
 30
0.0
 40
3.5
 41
0.0
 71
     7
 72
     5
  1
\W0.7045;83
  7
cesky
 73
     2
 44
0.8433729999999998
  0
LINE
  5
2CA
330
1F
100
AcDbEntity
  8
SK2
100
AcDbLine
 10
237.144248
 20
243.731161
 30
0.0
 11
237.144248
 21
283.923955
 31
0.0
  0
LINE
  5
2CB
330
1F
100
AcDbEntity
  8
SK2
100
AcDbLine
 10
320.144248
 20
258.231161
 30
0.0
 11
320.144248
 21
283.923955
 31
0.0
  0
LINE
  5
2CC
330
1F
100
AcDbEntity
  8
SK2
100
AcDbLine
 10
237.144248
 20
282.923955
 30
0.0
 11
320.144248
 21
282.923955
 31
0.0
  0
SOLID
  5
2CD
330
1F
100
AcDbEntity
  8
SK2
100
AcDbTrace
 10
237.144248
 20
282.923955
 30
0.0
 11
240.644246
 21
283.5411
 31
0.0
 12
240.644251
 22
282.306811
 32
0.0
 13
240.644251
 23
282.306811
 33
0.0
  0
SOLID
  5
2CE
330
1F
100
AcDbEntity
  8
SK2
100
AcDbTrace
 10
320.144248
 20
282.923955
 30
0.0
 11
316.644251
 21
282.306811
 31
0.0
 12
316.644246
 22
283.5411
 32
0.0
 13
316.644246
 23
283.5411
 33
0.0
  0
MTEXT
  5
2CF
330
1F
100
AcDbEntity
  8
SK2
100
AcDbMText
 10
168.159202
 20
245.257411
 30
0.0
 40
3.5
 41
0.0
 71
     7
 72
     5
  1
\W0.7045;25
  7
cesky
 11
0.0000000000000001
 21
1.0
 31
0.0
 73
     2
 44
0.8433729999999998
  0
MTEXT
  5
2D0
330
1F
100
AcDbEntity
  8
SK2
100
AcDbMText
 10
168.159202
 20
238.519911
 30
0.0
 40
3.5
 41
0.0
 71
     7
 72
     5
  1
\W3.0115;\H2.63;%%c\H3.50;
  7
cesky
 11
0.0000000000000001
 21
1.0
 31
0.0
 73
     2
 44
0.8433729999999998
  0
LINE
  5
2D1
330
1F
100
AcDbEntity
  8
SK2
100
AcDbLine
 10
200.144248
 20
256.231161
 30
0.0
 11
167.346619
 21
256.231161
 31
0.0
  0
LINE
  5
2D2
330
1F
100
AcDbEntity
  8
SK2
100
AcDbLine
 10
183.144248
 20
231.231161
 30
0.0
 11
167.346619
 21
231.231161
 31
0.0
  0
LINE
  5
2D3
330
1F
100
AcDbEntity
  8
SK2
100
AcDbLine
 10
168.346619
 20
256.231161
 30
0.0
 11
168.346619
 21
231.231161
 31
0.0
  0
SOLID
  5
2D4
330
1F
100
AcDbEntity
  8
SK2
100
AcDbTrace
 10
168.346619
 20
256.231161
 30
0.0
 11
168.963763
 21
252.731164
 31
0.0
 12
167.729474
 22
252.731159
 32
0.0
 13
167.729474
 23
252.731159
 33
0.0
  0
SOLID
  5
2D5
330
1F
100
AcDbEntity
  8
SK2
100
AcDbTrace
 10
168.346619
 20
231.231161
 30
0.0
 11
167.729474
 21
234.731159
 31
0.0
 12
168.963763
 22
234.731164
 32
0.0
 13
168.963763
 23
234.731164
 33
0.0
  0
LINE
  5
2F2
330
1F
100
AcDbEntity
  8
CUT
100
AcDbLine
 10
314.4573531931964
 20
255.9862395376284
 30
0.0
 11
314.4573531931964
 21
255.9862395376284
 31
0.0
  0
ARC
  5
2F3
330
1F
100
AcDbEntity
  8
CUT
100
AcDbCircle
 10
317.7190850317617
 20
230.4020984285846
 30
0.0
 40
25.79122274872156
100
AcDbArc
 50
90.45630671801644
 51
97.2654660042169
  0
LINE
  5
2F4
330
1F
100
AcDbEntity
  8
CUT
100
AcDbLine
 10
320.1442482849923
 20
249.602329757524
 30
0.0
 11
320.1442482849923
 21
249.602329757524
 31
0.0
  0
ARC
  5
2F5
330
1F
100
AcDbEntity
  8
CUT
100
AcDbCircle
 10
315.3081572050898
 20
249.6162230830788
 30
0.0
 40
4.836111036525805
100
AcDbArc
 50
344.8372378258577
 51
359.8353987312032
  0
LINE
  5
2F6
330
1F
100
AcDbEntity
  8
CUT
100
AcDbLine
 10
319.9624534302639
 20
252.655484146425
 30
0.0
 11
319.9624534302639
 21
252.655484146425
 31
0.0
  0
ARC
  5
2F7
330
1F
100
AcDbEntity
  8
CUT
100
AcDbCircle
 10
295.4433735795974
 20
249.6635479578828
 30
0.0
 40
24.70095056631761
100
AcDbArc
 50
359.8579994688344
 51
6.957112363243891
  0
LINE
  5
2F8
330
1F
100
AcDbEntity
  8
CUT
100
AcDbLine
 10
310.9169998987597
 20
253.5053647094865
 30
0.0
 11
310.9169998987597
 21
253.5053647094865
 31
0.0
  0
ARC
  5
2F9
330
1F
100
AcDbEntity
  8
CUT
100
AcDbCircle
 10
315.9547406172306
 20
253.4916812377107
 30
0.0
 40
5.037759301905968
100
AcDbArc
 50
165.1456070645833
 51
179.8443740363769
  0
LINE
  5
2FA
330
1F
100
AcDbEntity
  8
CUT
100
AcDbLine
 10
311.0987947534879
 20
250.4041474304862
 30
0.0
 11
311.0987947534879
 21
250.4041474304862
 31
0.0
  0
ARC
  5
2FB
330
1F
100
AcDbEntity
  8
CUT
100
AcDbCircle
 10
336.2544784776661
 20
253.4347228507427
 30
0.0
 40
25.33757705481616
100
AcDbArc
 50
179.8402575906206
 51
186.8694762860974
  0
LINE
  5
2FC
330
1F
100
AcDbEntity
  8
CUT
100
AcDbLine
 10
319.9735191825678
 20
248.342820443189
 30
0.0
 11
319.9735191825678
 21
248.342820443189
 31
0.0
  0
ARC
  5
2FD
330
1F
100
AcDbEntity
  8
CUT
100
AcDbCircle
 10
319.5750086271914
 20
248.4642046797359
 30
0.0
 40
0.4165870804868118
100
AcDbArc
 50
297.7335347070624
 51
343.0595377168236
  0
LINE
  5
2FE
330
1F
100
AcDbEntity
  8
CUT
100
AcDbLine
 10
312.2785896241899
 20
246.9770519783514
 30
0.0
 11
312.2785896241899
 21
246.9770519783514
 31
0.0
  0
ARC
  5
2FF
330
1F
100
AcDbEntity
  8
CUT
100
AcDbCircle
 10
312.3967081912582
 20
247.359502220143
 30
0.0
 40
0.4002751345421479
100
AcDbArc
 50
205.5791103609453
 51
252.8368593737188
  0
LINE
  5
300
330
1F
100
AcDbEntity
  8
CUT
100
AcDbLine
 10
319.0291770849727
 20
255.8244175550762
 30
0.0
 11
319.0291770849727
 21
255.8244175550762
 31
0.0
  0
ARC
  5
301
330
1F
100
AcDbEntity
  8
CUT
100
AcDbCircle
 10
305.4798087214986
 20
249.5636460904454
 30
0.0
 40
14.92590507746337
100
AcDbArc
 50
22.14058713316429
 51
24.80029388147944
  0
LINE
  5
302
330
1F
100
AcDbEntity
  8
CUT
100
AcDbLine
 10
312.0356640218946
 20
247.1866806615884
 30
0.0
 11
312.0356640218946
 21
247.1866806615884
 31
0.0
  0
ARC
  5
303
330
1F
100
AcDbEntity
  8
CUT
100
AcDbCircle
 10
312.4650973766193
 20
247.3917973150753
 30
0.0
 40
0.4759052927713074
100
AcDbArc
 50
204.5081324923574
 51
205.5312358423786
  0
LINE
  5
304
330
1F
100
AcDbEntity
  8
CUT
100
AcDbLine
 10
311.9327600589052
 20
255.3184036352065
 30
0.0
 11
311.9327600589052
 21
255.3184036352065
 31
0.0
  0
ARC
  5
305
330
1F
100
AcDbEntity
  8
CUT
100
AcDbCircle
 10
315.7142661630012
 20
246.1290553502598
 30
0.0
 40
9.936997047265711
100
AcDbArc
 50
97.2667061579559
 51
112.3676420877152
  0
LINE
  5
306
330
1F
100
AcDbEntity
  8
CUT
100
AcDbLine
 10
319.7613154955272
 20
248.0915925860585
 30
0.0
 11
319.7613154955272
 21
248.0915925860585
 31
0.0
  0
ARC
  5
307
330
1F
100
AcDbEntity
  8
CUT
100
AcDbCircle
 10
312.7670711450289
 20
262.0520478786074
 30
0.0
 40
15.61453700913769
100
AcDbArc
 50
294.0418305656326
 51
296.6110539986963
  0
LINE
  5
308
330
1F
100
AcDbEntity
  8
CUT
100
AcDbLine
 10
312.2871217224451
 20
246.9745644795133
 30
0.0
 11
312.2871217224451
 21
246.9745644795133
 31
0.0
  0
ARC
  5
309
330
1F
100
AcDbEntity
  8
CUT
100
AcDbCircle
 10
312.4059506417121
 20
247.3980228442698
 30
0.0
 40
0.4398150733391856
100
AcDbArc
 50
253.1672730277875
 51
254.3250647477457
  0
LINE
  5
30A
330
1F
100
AcDbEntity
  8
CUT
100
AcDbLine
 10
311.2999327737298
 20
255.0408752411663
 30
0.0
 11
311.2999327737298
 21
255.0408752411663
 31
0.0
  0
ARC
  5
30B
330
1F
100
AcDbEntity
  8
CUT
100
AcDbCircle
 10
317.6741800536942
 20
241.3664134868636
 30
0.0
 40
15.08714461573232
100
AcDbArc
 50
112.3677842837348
 51
114.9922250196996
  0
LINE
  5
30C
330
1F
100
AcDbEntity
  8
CUT
100
AcDbLine
 10
312.0320711259463
 20
247.1943816501864
 30
0.0
 11
312.0320711259463
 21
247.1943816501864
 31
0.0
  0
ARC
  5
30D
330
1F
100
AcDbEntity
  8
CUT
100
AcDbCircle
 10
325.8797910300075
 20
253.507052556097
 30
0.0
 40
15.21871086878461
100
AcDbArc
 50
201.8679108002272
 51
204.5065137859575
  0
LINE
  5
30E
330
1F
100
AcDbEntity
  8
CUT
100
AcDbLine
 10
311.2923665970066
 20
255.0372603193304
 30
0.0
 11
311.2923665970066
 21
255.0372603193304
 31
0.0
  0
ARC
  5
30F
330
1F
100
AcDbEntity
  8
CUT
100
AcDbCircle
 10
311.4838614625671
 20
254.6463375356605
 30
0.0
 40
0.4353055321590453
100
AcDbArc
 50
114.994361772312
 51
116.0980816048241
  0
LINE
  5
310
330
1F
100
AcDbEntity
  8
CUT
100
AcDbLine
 10
319.1284881248468
 20
247.7920990701924
 30
0.0
 11
319.1284881248468
 21
247.7920990701924
 31
0.0
  0
ARC
  5
311
330
1F
100
AcDbEntity
  8
CUT
100
AcDbCircle
 10
315.0618285697876
 20
256.8597645193129
 30
0.0
 40
9.937820517292907
100
AcDbArc
 50
278.9267422644986
 51
294.1552433023076
  0
LINE
  5
312
330
1F
100
AcDbEntity
  8
CUT
100
AcDbLine
 10
311.756142429871
 20
247.8385685676284
 30
0.0
 11
311.756142429871
 21
247.8385685676284
 31
0.0
  0
ARC
  5
313
330
1F
100
AcDbEntity
  8
CUT
100
AcDbCircle
 10
321.173822563612
 20
251.6185500477635
 30
0.0
 40
10.14795344350894
100
AcDbArc
 50
186.8730408338915
 51
201.8690835454867
  0
ARC
  5
314
330
1F
100
AcDbEntity
  8
CUT
100
AcDbCircle
 10
311.4691718976954
 20
254.6819738453798
 30
0.0
 40
0.3969535913092942
100
AcDbArc
 50
119.4115410518423
 51
163.9355310210555
  0
ARC
  5
315
330
1F
100
AcDbEntity
  8
CUT
100
AcDbCircle
 10
311.4597745636353
 20
254.6955184954829
 30
0.0
 40
0.3805429035699008
100
AcDbArc
 50
116.0986985532076
 51
119.1804767959769
  0
LINE
  5
316
330
1F
100
AcDbEntity
  8
CUT
100
AcDbLine
 10
319.7688716655533
 20
248.0954745372393
 30
0.0
 11
319.7688716655533
 21
248.0954745372393
 31
0.0
  0
ARC
  5
317
330
1F
100
AcDbEntity
  8
CUT
100
AcDbCircle
 10
319.5763759136239
 20
248.460718873269
 30
0.0
 40
0.4128656434152161
100
AcDbArc
 50
296.6117767000882
 51
297.7907021822753
  0
LINE
  5
318
330
1F
100
AcDbEntity
  8
CUT
100
AcDbLine
 10
319.9759128085428
 20
248.3512789048144
 30
0.0
 11
319.9759128085428
 21
248.3512789048144
 31
0.0
  0
ARC
  5
319
330
1F
100
AcDbEntity
  8
CUT
100
AcDbCircle
 10
319.5930101875535
 20
248.4550670626598
 30
0.0
 40
0.3967195468708884
100
AcDbArc
 50
343.5644303207859
 51
344.8340319668713
  0
LINE
  5
31A
330
1F
100
AcDbEntity
  8
CUT
100
AcDbLine
 10
313.5475636875824
 20
246.8014425730951
 30
0.0
 11
313.5475636875824
 21
246.8014425730951
 31
0.0
  0
ARC
  5
31B
330
1F
100
AcDbEntity
  8
CUT
100
AcDbCircle
 10
313.541853065931
 20
251.4347102331571
 30
0.0
 40
4.633271179304712
100
AcDbArc
 50
254.2876081062182
 51
270.0706184872835
  0
LINE
  5
31C
330
1F
100
AcDbEntity
  8
CUT
100
AcDbLine
 10
311.0853360660061
 20
254.7831801936646
 30
0.0
 11
311.0853360660061
 21
254.7831801936646
 31
0.0
  0
ARC
  5
31D
330
1F
100
AcDbEntity
  8
CUT
100
AcDbCircle
 10
311.5334180809742
 20
254.6642211246303
 30
0.0
 40
0.4636040899769288
100
AcDbArc
 50
164.0243451960809
 51
165.1318091782934
  0
LINE
  5
31E
330
1F
100
AcDbEntity
  8
CUT
100
AcDbLine
 10
316.6038949905554
 20
247.0423153705846
 30
0.0
 11
316.6038949905554
 21
247.0423153705846
 31
0.0
  0
ARC
  5
31F
330
1F
100
AcDbEntity
  8
CUT
100
AcDbCircle
 10
313.4892329616199
 20
267.0522489886633
 30
0.0
 40
20.25089042374213
100
AcDbArc
 50
270.1650351646317
 51
278.8474218124958
  0
LINE
  5
320
330
1F
100
AcDbEntity
  8
CUT
100
AcDbLine
 10
318.7826485287938
 20
256.0355125626488
 30
0.0
 11
318.7826485287938
 21
256.0355125626488
 31
0.0
  0
ARC
  5
321
330
1F
100
AcDbEntity
  8
CUT
100
AcDbCircle
 10
318.6758296642454
 20
255.6612527043967
 30
0.0
 40
0.3892052303378641
100
AcDbArc
 50
26.02375476206549
 51
74.0705315911936
  0
LINE
  5
322
330
1F
100
AcDbEntity
  8
CUT
100
AcDbLine
 10
319.0255742406653
 20
255.8320140659137
 30
0.0
 11
319.0255742406653
 21
255.8320140659137
 31
0.0
  0
ARC
  5
323
330
1F
100
AcDbEntity
  8
CUT
100
AcDbCircle
 10
318.6528900317167
 20
255.6505305259374
 30
0.0
 40
0.4145235757854242
100
AcDbArc
 50
24.80225863580788
 51
25.96438342345927
  0
LINE
  5
324
330
1F
100
AcDbEntity
  8
CUT
100
AcDbLine
 10
317.5136844961696
 20
256.1925032624399
 30
0.0
 11
317.5136844961696
 21
256.1925032624399
 31
0.0
  0
ARC
  5
325
330
1F
100
AcDbEntity
  8
CUT
100
AcDbCircle
 10
317.5532551891669
 20
251.3028223839357
 30
0.0
 40
4.889840992645315
100
AcDbArc
 50
75.54172878184012
 51
90.46366711129625
  0
LINE
  5
326
330
1F
100
AcDbEntity
  8
CUT
100
AcDbLine
 10
318.7741269882065
 20
256.0378060186382
 30
0.0
 11
318.7741269882065
 21
256.0378060186382
 31
0.0
  0
ARC
  5
327
330
1F
100
AcDbEntity
  8
CUT
100
AcDbCircle
 10
318.6677658739551
 20
255.6256337975468
 30
0.0
 40
0.4256743197142918
100
AcDbArc
 50
74.34264035585723
 51
75.53047622242364
  0
LINE
  5
328
330
1F
100
AcDbEntity
  8
CUT
100
AcDbLine
 10
319.3051057538809
 20
255.188928692044
 30
0.0
 11
319.3051057538809
 21
255.188928692044
 31
0.0
  0
ARC
  5
329
330
1F
100
AcDbEntity
  8
CUT
100
AcDbCircle
 10
310.1336192482499
 20
251.4572192388053
 30
0.0
 40
9.901606948690824
100
AcDbArc
 50
6.95081263237055
 51
22.14050500596586
  0
ENDSEC
  0
SECTION
  2
OBJECTS
  0
DICTIONARY
  5
C
330
0
100
AcDbDictionary
281
     1
  3
ACAD_CIP_PREVIOUS_PRODUCT_INFO
350
2AF
  3
ACAD_COLOR
350
2AA
  3
ACAD_DETAILVIEWSTYLE
350
2A6
  3
ACAD_GROUP
350
D
  3
ACAD_LAYOUT
350
1A
  3
ACAD_MATERIAL
350
43
  3
ACAD_MLEADERSTYLE
350
6B
  3
ACAD_MLINESTYLE
350
17
  3
ACAD_PLOTSETTINGS
350
19
  3
ACAD_PLOTSTYLENAME
350
E
  3
ACAD_SCALELIST
350
47
  3
ACAD_SECTIONVIEWSTYLE
350
2A7
  3
ACAD_TABLESTYLE
350
69
  3
ACAD_VISUALSTYLE
350
2A
  3
ACDB_RECOMPOSE_DATA
350
355
  3
AcDbVariableDictionary
350
263
  0
DICTIONARY
  5
338
330
10
100
AcDbDictionary
280
     1
281
     1
  3
ADSK_XREC_LAYER_RECONCILED
360
339
  0
DICTIONARY
  5
33A
330
32A
100
AcDbDictionary
280
     1
281
     1
  3
ADSK_XREC_LAYER_RECONCILED
360
33B
  0
DICTIONARY
  5
33C
330
32B
100
AcDbDictionary
280
     1
281
     1
  3
ADSK_XREC_LAYER_RECONCILED
360
33D
  0
DICTIONARY
  5
33E
330
32C
100
AcDbDictionary
280
     1
281
     1
  3
ADSK_XREC_LAYER_RECONCILED
360
33F
  0
DICTIONARY
  5
340
330
32E
100
AcDbDictionary
280
     1
281
     1
  3
ADSK_XREC_LAYER_RECONCILED
360
341
  0
DICTIONARY
  5
342
330
32F
100
AcDbDictionary
280
     1
281
     1
  3
ADSK_XREC_LAYER_RECONCILED
360
343
  0
DICTIONARY
  5
344
330
331
100
AcDbDictionary
280
     1
281
     1
  3
ADSK_XREC_LAYER_RECONCILED
360
345
  0
DICTIONARY
  5
346
330
332
100
AcDbDictionary
280
     1
281
     1
  3
ADSK_XREC_LAYER_RECONCILED
360
347
  0
DICTIONARY
  5
348
330
333
100
AcDbDictionary
280
     1
281
     1
  3
ADSK_XREC_LAYER_RECONCILED
360
349
  0
DICTIONARY
  5
34A
330
334
100
AcDbDictionary
280
     1
281
     1
  3
ADSK_XREC_LAYER_RECONCILED
360
34B
  0
DICTIONARY
  5
34C
330
335
100
AcDbDictionary
280
     1
281
     1
  3
ADSK_XREC_LAYER_RECONCILED
360
34D
  0
DICTIONARY
  5
34E
330
336
100
AcDbDictionary
280
     1
281
     1
  3
ADSK_XREC_LAYER_RECONCILED
360
34F
  0
DICTIONARY
  5
2B0
330
1F
100
AcDbDictionary
280
     1
281
     1
  3
ACAD_SORTENTS
360
2B1
  0
XRECORD
  5
2AF
102
{ACAD_REACTORS
330
C
102
}
330
C
100
AcDbXrecord
280
     1
300
ACD
300
2019
300
87084ACD_2019_0F
  0
DICTIONARY
  5
2AA
102
{ACAD_REACTORS
330
C
102
}
330
C
100
AcDbDictionary
281
     1
  0
DICTIONARY
  5
2A6
102
{ACAD_REACTORS
330
C
102
}
330
C
100
AcDbDictionary
281
     1
  3
Metric50
350
2AC
  0
DICTIONARY
  5
D
102
{ACAD_REACTORS
330
C
102
}
330
C
100
AcDbDictionary
281
     1
  3
CENTERLINE
350
24E
  3
NULOVY_BOD
350
337
  0
DICTIONARY
  5
1A
102
{ACAD_REACTORS
330
C
102
}
330
C
100
AcDbDictionary
281
     1
  3
Layout1
350
1E
  3
Layout2
350
26
  3
Model
350
22
  0
DICTIONARY
  5
43
102
{ACAD_REACTORS
330
C
102
}
330
C
100
AcDbDictionary
281
     1
  3
ByBlock
350
45
  3
ByLayer
350
44
  3
Global
350
46
  0
DICTIONARY
  5
6B
102
{ACAD_REACTORS
330
C
102
}
330
C
100
AcDbDictionary
281
     1
  3
Standard
350
6C
  0
DICTIONARY
  5
17
102
{ACAD_REACTORS
330
C
102
}
330
C
100
AcDbDictionary
281
     1
  3
Standard
350
18
  0
DICTIONARY
  5
19
102
{ACAD_REACTORS
330
C
102
}
330
C
100
AcDbDictionary
281
     1
  0
ACDBDICTIONARYWDFLT
  5
E
102
{ACAD_REACTORS
330
C
102
}
330
C
100
AcDbDictionary
281
     1
  3
Normal
350
F
100
AcDbDictionaryWithDefault
340
F
  0
DICTIONARY
  5
47
102
{ACAD_REACTORS
330
C
102
}
330
C
100
AcDbDictionary
281
     1
  3
A0
350
48
  3
A1
350
49
  3
A2
350
4A
  3
A3
350
4B
  3
A4
350
4C
  3
A5
350
4D
  3
A6
350
4E
  3
A7
350
4F
  3
A8
350
50
  3
A9
350
51
  3
B0
350
52
  3
B1
350
53
  3
B2
350
54
  3
B3
350
55
  3
B4
350
56
  3
B5
350
57
  3
B6
350
58
  3
B7
350
59
  3
B8
350
5A
  3
B9
350
5B
  3
C0
350
5C
  3
C1
350
5D
  3
C2
350
5E
  3
C3
350
5F
  3
C4
350
60
  3
C5
350
61
  3
C6
350
62
  3
C7
350
63
  3
C8
350
64
  3
C9
350
65
  3
D0
350
66
  3
D1
350
67
  3
D2
350
68
  0
DICTIONARY
  5
2A7
102
{ACAD_REACTORS
330
C
102
}
330
C
100
AcDbDictionary
281
     1
  3
Metric50
350
2AB
  0
DICTIONARY
  5
69
102
{ACAD_REACTORS
330
C
102
}
330
C
100
AcDbDictionary
281
     1
  3
Standard
350
6A
  0
DICTIONARY
  5
2A
102
{ACAD_REACTORS
330
C
102
}
330
C
100
AcDbDictionary
281
     1
  3
2dWireframe
350
2F
  3
Basic
350
32
  3
Brighten
350
36
  3
ColorChange
350
3A
  3
Conceptual
350
34
  3
Dim
350
35
  3
EdgeColorOff
350
3D
  3
Facepattern
350
39
  3
Flat
350
2B
  3
FlatWithEdges
350
2C
  3
Gouraud
350
2D
  3
GouraudWithEdges
350
2E
  3
Hidden
350
31
  3
JitterOff
350
3B
  3
Linepattern
350
38
  3
OverhangOff
350
3C
  3
Realistic
350
33
  3
Shaded
350
42
  3
Shaded with edges
350
41
  3
Shades of Gray
350
3E
  3
Sketchy
350
3F
  3
Thicken
350
37
  3
Wireframe
350
30
  3
X-Ray
350
40
  0
XRECORD
  5
355
102
{ACAD_REACTORS
330
C
102
}
330
C
100
AcDbXrecord
280
     1
 90
        1
330
6A
  0
DICTIONARY
  5
263
102
{ACAD_REACTORS
330
C
102
}
330
C
100
AcDbDictionary
281
     1
  3
CANNOSCALE
350
264
  3
CMLEADERSTYLE
350
2A5
  3
CTABLESTYLE
350
2A4
  3
CVIEWDETAILSTYLE
350
350
  3
CVIEWSECTIONSTYLE
350
351
  3
MSLTSCALE
350
265
  3
XCLIPFRAME
350
352
  0
XRECORD
  5
339
102
{ACAD_REACTORS
330
338
102
}
330
338
100
AcDbXrecord
280
     1
290
     1
  0
XRECORD
  5
33B
102
{ACAD_REACTORS
330
33A
102
}
330
33A
100
AcDbXrecord
280
     1
290
     1
  0
XRECORD
  5
33D
102
{ACAD_REACTORS
330
33C
102
}
330
33C
100
AcDbXrecord
280
     1
290
     1
  0
XRECORD
  5
33F
102
{ACAD_REACTORS
330
33E
102
}
330
33E
100
AcDbXrecord
280
     1
290
     1
  0
XRECORD
  5
341
102
{ACAD_REACTORS
330
340
102
}
330
340
100
AcDbXrecord
280
     1
290
     1
  0
XRECORD
  5
343
102
{ACAD_REACTORS
330
342
102
}
330
342
100
AcDbXrecord
280
     1
290
     1
  0
XRECORD
  5
345
102
{ACAD_REACTORS
330
344
102
}
330
344
100
AcDbXrecord
280
     1
290
     1
  0
XRECORD
  5
347
102
{ACAD_REACTORS
330
346
102
}
330
346
100
AcDbXrecord
280
     1
290
     1
  0
XRECORD
  5
349
102
{ACAD_REACTORS
330
348
102
}
330
348
100
AcDbXrecord
280
     1
290
     1
  0
XRECORD
  5
34B
102
{ACAD_REACTORS
330
34A
102
}
330
34A
100
AcDbXrecord
280
     1
290
     1
  0
XRECORD
  5
34D
102
{ACAD_REACTORS
330
34C
102
}
330
34C
100
AcDbXrecord
280
     1
290
     1
  0
XRECORD
  5
34F
102
{ACAD_REACTORS
330
34E
102
}
330
34E
100
AcDbXrecord
280
     1
290
     1
  0
SORTENTSTABLE
  5
2B1
102
{ACAD_REACTORS
330
2B0
102
}
330
2B0
100
AcDbSortentsTable
330
1F
331
2B2
  5
1EF
331
2B3
  5
207
331
2B4
  5
235
331
2B5
  5
2B2
331
2B6
  5
2B3
331
2B7
  5
2B4
331
2B8
  5
2B5
331
2B9
  5
2B6
331
2BA
  5
2B7
331
2BB
  5
2B8
331
2BC
  5
2B9
331
2BD
  5
2BA
331
2BE
  5
2CA
331
2BF
  5
2CB
331
2C0
  5
2CC
331
2C1
  5
2CD
331
2C2
  5
2CE
331
2C3
  5
2BD
331
2C4
  5
2BE
331
2C5
  5
2BF
331
2C6
  5
2C0
331
2C7
  5
2C1
331
2C8
  5
2C3
331
2C9
  5
2C4
331
2CA
  5
2C5
331
2CB
  5
2C6
331
2CC
  5
2C7
331
2CD
  5
2C8
331
2CE
  5
2C9
  0
ACDBDETAILVIEWSTYLE
  5
2AC
102
{ACAD_XDICTIONARY
360
389
102
}
102
{ACAD_REACTORS
330
2A6
102
}
330
2A6
100
AcDbModelDocViewStyle
 70
     0
  3
Metric50
290
     0
100
AcDbDetailViewStyle
 70
     0
 71
     0
 90
        3
 71
     1
340
11
 62
   256
 40
5.0
340
0
 62
   256
 40
5.0
300

 40
0.0
280
     1
 71
     2
340
16
 90
       25
 62
   256
 71
     3
340
11
 62
   256
 40
5.0
 90
        0
 40
15.0
 90
        1
300
%<\AcVar ViewDetailId>% (%<\AcVar ViewScale \f "%sn">%)
 71
     4
340
16
 90
       25
 62
   256
340
16
 90
       25
 62
   256
280
     0
  0
GROUP
  5
24E
102
{ACAD_REACTORS
330
D
102
}
330
D
100
AcDbGroup
300

 70
     0
 71
     1
340
E4
  0
GROUP
  5
337
102
{ACAD_REACTORS
330
D
102
}
330
D
100
AcDbGroup
300

 70
     0
 71
     1
340
73
  0
LAYOUT
  5
1E
102
{ACAD_REACTORS
330
1A
102
}
330
1A
100
AcDbPlotSettings
  1

  2
none_device
  4

  6

 40
0.0
 41
0.0
 42
0.0
 43
0.0
 44
0.0
 45
0.0
 46
0.0
 47
0.0
 48
0.0
 49
0.0
140
0.0
141
0.0
142
1.0
143
1.0
 70
   688
 72
     0
 73
     0
 74
     5
  7

 75
    16
147
1.0
 76
     0
 77
     2
 78
   300
148
0.0
149
0.0
100
AcDbLayout
  1
Layout1
 70
     1
 71
     1
 10
-0.5
 20
-0.5
 11
5.0
 21
5.0
 12
0.0
 22
0.0
 32
0.0
 14
-0.5
 24
-0.5
 34
-0.5
 15
5.0
 25
5.0
 35
5.0
146
0.0
 13
0.0
 23
0.0
 33
0.0
 16
1.0
 26
0.0
 36
0.0
 17
0.0
 27
1.0
 37
0.0
 76
     0
330
1B
  0
LAYOUT
  5
26
102
{ACAD_REACTORS
330
1A
102
}
330
1A
100
AcDbPlotSettings
  1

  2
none_device
  4

  6

 40
0.0
 41
0.0
 42
0.0
 43
0.0
 44
0.0
 45
0.0
 46
0.0
 47
0.0
 48
0.0
 49
0.0
140
0.0
141
0.0
142
1.0
143
1.0
 70
   688
 72
     0
 73
     0
 74
     5
  7

 75
    16
147
1.0
 76
     0
 77
     2
 78
   300
148
0.0
149
0.0
100
AcDbLayout
  1
Layout2
 70
     1
 71
     2
 10
0.0
 20
0.0
 11
0.0
 21
0.0
 12
0.0
 22
0.0
 32
0.0
 14
0.0
 24
0.0
 34
0.0
 15
0.0
 25
0.0
 35
0.0
146
0.0
 13
0.0
 23
0.0
 33
0.0
 16
1.0
 26
0.0
 36
0.0
 17
0.0
 27
1.0
 37
0.0
 76
     0
330
23
  0
LAYOUT
  5
22
102
{ACAD_REACTORS
330
1A
102
}
330
1A
100
AcDbPlotSettings
  1

  2
none_device
  4
Letter_(8.50_x_11.00_Inches)
  6

 40
6.349999999999999
 41
6.349999999999999
 42
6.350005
 43
6.350005
 44
215.9
 45
279.4
 46
0.0
 47
0.0
 48
0.0
 49
0.0
140
0.0
141
0.0
142
1.0
143
1.0
 70
  1712
 72
     0
 73
     0
 74
     0
  7

 75
     0
147
1.0
 76
     0
 77
     2
 78
   300
148
0.0
149
0.0
100
AcDbLayout
  1
Model
 70
     1
 71
     0
 10
-0.5
 20
-0.5
 11
5.0
 21
5.0
 12
0.0
 22
0.0
 32
0.0
 14
-0.5
 24
-0.5
 34
-0.5
 15
5.0
 25
5.0
 35
5.0
146
0.0
 13
0.0
 23
0.0
 33
0.0
 16
1.0
 26
0.0
 36
0.0
 17
0.0
 27
1.0
 37
0.0
 76
     0
330
1F
331
29
  0
MATERIAL
  5
45
102
{ACAD_XDICTIONARY
360
299
102
}
102
{ACAD_REACTORS
330
43
102
}
330
43
100
AcDbMaterial
  1
ByBlock
  0
MATERIAL
  5
44
102
{ACAD_XDICTIONARY
360
297
102
}
102
{ACAD_REACTORS
330
43
102
}
330
43
100
AcDbMaterial
  1
ByLayer
  0
MATERIAL
  5
46
102
{ACAD_XDICTIONARY
360
29B
102
}
102
{ACAD_REACTORS
330
43
102
}
330
43
100
AcDbMaterial
  1
Global
  0
MLEADERSTYLE
  5
6C
102
{ACAD_REACTORS
330
6B
102
}
330
6B
100
AcDbMLeaderStyle
170
     2
171
     1
172
     0
 90
        2
 40
0.0
 41
0.0
173
     1
 91
-1056964608
340
14
 92
       -2
290
     1
 42
0.09
291
     1
 43
0.36
  3
Standard
 44
0.18
300

342
11
174
     1
178
     6
175
     1
176
     0
 93
-1056964608
 45
0.18
292
     0
297
     0
 46
0.18
 94
-1056964608
 47
1.0
 49
1.0
140
1.0
293
     1
141
0.0
294
     1
177
     0
142
1.0
295
     0
296
     0
143
0.125
1001
ACAD_MLEADERVER
1070
     2
  0
MLINESTYLE
  5
18
102
{ACAD_REACTORS
330
17
102
}
330
17
100
AcDbMlineStyle
  2
STANDARD
 70
     0
  3

 62
   256
 51
90.0
 52
90.0
 71
     2
 49
0.5
 62
   256
  6
BYLAYER
 49
-0.5
 62
   256
  6
BYLAYER
  0
ACDBPLACEHOLDER
  5
F
102
{ACAD_REACTORS
330
E
102
}
330
E
  0
SCALE
  5
48
102
{ACAD_REACTORS
330
47
102
}
330
47
100
AcDbScale
 70
     0
300
1:1
140
1.0
141
1.0
290
     1
  0
SCALE
  5
49
102
{ACAD_REACTORS
330
47
102
}
330
47
100
AcDbScale
 70
     0
300
1:2
140
1.0
141
2.0
290
     0
  0
SCALE
  5
4A
102
{ACAD_REACTORS
330
47
102
}
330
47
100
AcDbScale
 70
     0
300
1:4
140
1.0
141
4.0
290
     0
  0
SCALE
  5
4B
102
{ACAD_REACTORS
330
47
102
}
330
47
100
AcDbScale
 70
     0
300
1:5
140
1.0
141
5.0
290
     0
  0
SCALE
  5
4C
102
{ACAD_REACTORS
330
47
102
}
330
47
100
AcDbScale
 70
     0
300
1:8
140
1.0
141
8.0
290
     0
  0
SCALE
  5
4D
102
{ACAD_REACTORS
330
47
102
}
330
47
100
AcDbScale
 70
     0
300
1:10
140
1.0
141
10.0
290
     0
  0
SCALE
  5
4E
102
{ACAD_REACTORS
330
47
102
}
330
47
100
AcDbScale
 70
     0
300
1:16
140
1.0
141
16.0
290
     0
  0
SCALE
  5
4F
102
{ACAD_REACTORS
330
47
102
}
330
47
100
AcDbScale
 70
     0
300
1:20
140
1.0
141
20.0
290
     0
  0
SCALE
  5
50
102
{ACAD_REACTORS
330
47
102
}
330
47
100
AcDbScale
 70
     0
300
1:30
140
1.0
141
30.0
290
     0
  0
SCALE
  5
51
102
{ACAD_REACTORS
330
47
102
}
330
47
100
AcDbScale
 70
     0
300
1:40
140
1.0
141
40.0
290
     0
  0
SCALE
  5
52
102
{ACAD_REACTORS
330
47
102
}
330
47
100
AcDbScale
 70
     0
300
1:50
140
1.0
141
50.0
290
     0
  0
SCALE
  5
53
102
{ACAD_REACTORS
330
47
102
}
330
47
100
AcDbScale
 70
     0
300
1:100
140
1.0
141
100.0
290
     0
  0
SCALE
  5
54
102
{ACAD_REACTORS
330
47
102
}
330
47
100
AcDbScale
 70
     0
300
2:1
140
2.0
141
1.0
290
     0
  0
SCALE
  5
55
102
{ACAD_REACTORS
330
47
102
}
330
47
100
AcDbScale
 70
     0
300
4:1
140
4.0
141
1.0
290
     0
  0
SCALE
  5
56
102
{ACAD_REACTORS
330
47
102
}
330
47
100
AcDbScale
 70
     0
300
8:1
140
8.0
141
1.0
290
     0
  0
SCALE
  5
57
102
{ACAD_REACTORS
330
47
102
}
330
47
100
AcDbScale
 70
     0
300
10:1
140
10.0
141
1.0
290
     0
  0
SCALE
  5
58
102
{ACAD_REACTORS
330
47
102
}
330
47
100
AcDbScale
 70
     0
300
100:1
140
100.0
141
1.0
290
     0
  0
SCALE
  5
59
102
{ACAD_REACTORS
330
47
102
}
330
47
100
AcDbScale
 70
     0
300
1/128" = 1'-0"
140
0.007812
141
12.0
290
     0
  0
SCALE
  5
5A
102
{ACAD_REACTORS
330
47
102
}
330
47
100
AcDbScale
 70
     0
300
1/64" = 1'-0"
140
0.015625
141
12.0
290
     0
  0
SCALE
  5
5B
102
{ACAD_REACTORS
330
47
102
}
330
47
100
AcDbScale
 70
     0
300
1/32" = 1'-0"
140
0.03125
141
12.0
290
     0
  0
SCALE
  5
5C
102
{ACAD_REACTORS
330
47
102
}
330
47
100
AcDbScale
 70
     0
300
1/16" = 1'-0"
140
0.0625
141
12.0
290
     0
  0
SCALE
  5
5D
102
{ACAD_REACTORS
330
47
102
}
330
47
100
AcDbScale
 70
     0
300
3/32" = 1'-0"
140
0.09375
141
12.0
290
     0
  0
SCALE
  5
5E
102
{ACAD_REACTORS
330
47
102
}
330
47
100
AcDbScale
 70
     0
300
1/8" = 1'-0"
140
0.125
141
12.0
290
     0
  0
SCALE
  5
5F
102
{ACAD_REACTORS
330
47
102
}
330
47
100
AcDbScale
 70
     0
300
3/16" = 1'-0"
140
0.1875
141
12.0
290
     0
  0
SCALE
  5
60
102
{ACAD_REACTORS
330
47
102
}
330
47
100
AcDbScale
 70
     0
300
1/4" = 1'-0"
140
0.25
141
12.0
290
     0
  0
SCALE
  5
61
102
{ACAD_REACTORS
330
47
102
}
330
47
100
AcDbScale
 70
     0
300
3/8" = 1'-0"
140
0.375
141
12.0
290
     0
  0
SCALE
  5
62
102
{ACAD_REACTORS
330
47
102
}
330
47
100
AcDbScale
 70
     0
300
1/2" = 1'-0"
140
0.5
141
12.0
290
     0
  0
SCALE
  5
63
102
{ACAD_REACTORS
330
47
102
}
330
47
100
AcDbScale
 70
     0
300
3/4" = 1'-0"
140
0.75
141
12.0
290
     0
  0
SCALE
  5
64
102
{ACAD_REACTORS
330
47
102
}
330
47
100
AcDbScale
 70
     0
300
1" = 1'-0"
140
1.0
141
12.0
290
     0
  0
SCALE
  5
65
102
{ACAD_REACTORS
330
47
102
}
330
47
100
AcDbScale
 70
     0
300
1-1/2" = 1'-0"
140
1.5
141
12.0
290
     0
  0
SCALE
  5
66
102
{ACAD_REACTORS
330
47
102
}
330
47
100
AcDbScale
 70
     0
300
3" = 1'-0"
140
3.0
141
12.0
290
     0
  0
SCALE
  5
67
102
{ACAD_REACTORS
330
47
102
}
330
47
100
AcDbScale
 70
     0
300
6" = 1'-0"
140
6.0
141
12.0
290
     0
  0
SCALE
  5
68
102
{ACAD_REACTORS
330
47
102
}
330
47
100
AcDbScale
 70
     0
300
1'-0" = 1'-0"
140
12.0
141
12.0
290
     0
  0
ACDBSECTIONVIEWSTYLE
  5
2AB
102
{ACAD_XDICTIONARY
360
387
102
}
102
{ACAD_REACTORS
330
2A7
102
}
330
2A7
100
AcDbModelDocViewStyle
 70
     0
  3
Metric50
290
     0
100
AcDbSectionViewStyle
 70
     0
 71
     0
 90
      102
 71
     1
340
11
 62
   256
 40
5.0
340
0
340
0
 62
   256
 40
5.0
300
I, O, Q, S, X, Z
 40
10.0
 90
        0
 40
2.5
 90
        0
 71
     2
340
16
 90
       25
 62
   256
340
16
 90
       50
 62
   256
 40
5.0
 40
2.5
 40
5.0
 71
     3
340
11
 62
   256
 40
5.0
 90
        0
 40
15.0
 90
        1
300
%<\AcVar ViewSectionStartId>%-%<\AcVar ViewSectionEndId>% (%<\AcVar ViewScale \f "%sn">%)
 71
     4
 62
   256
 62
   257
300
ANSI31
 40
1.0
 90
        0
290
     0
290
     0
 90
        6
 40
0.0
 40
1.570796326794896
 40
0.2617993877991494
 40
1.308996938995747
 40
-0.2617993877991494
 40
1.832595714594046
  0
TABLESTYLE
  5
6A
102
{ACAD_XDICTIONARY
360
29D
102
}
102
{ACAD_REACTORS
330
69
102
}
330
69
100
AcDbTableStyle
  3
Standard
 70
     0
 71
     0
 40
0.06
 41
0.06
280
     0
281
     0
  7
Standard
140
0.18
170
     2
 62
     0
 63
     7
283
     0
274
    -2
284
     1
 64
     0
275
    -2
285
     1
 65
     0
276
    -2
286
     1
 66
     0
277
    -2
287
     1
 67
     0
278
    -2
288
     1
 68
     0
279
    -2
289
     1
 69
     0
  7
Standard
140
0.25
170
     5
 62
     0
 63
     7
283
     0
274
    -2
284
     1
 64
     0
275
    -2
285
     1
 65
     0
276
    -2
286
     1
 66
     0
277
    -2
287
     1
 67
     0
278
    -2
288
     1
 68
     0
279
    -2
289
     1
 69
     0
  7
Standard
140
0.18
170
     5
 62
     0
 63
     7
283
     0
274
    -2
284
     1
 64
     0
275
    -2
285
     1
 65
     0
276
    -2
286
     1
 66
     0
277
    -2
287
     1
 67
     0
278
    -2
288
     1
 68
     0
279
    -2
289
     1
 69
     0
  0
VISUALSTYLE
  5
2F
102
{ACAD_XDICTIONARY
360
35E
102
}
102
{ACAD_REACTORS
330
2A
102
}
330
2A
100
AcDbVisualStyle
  2

 70
     4
 71
     0
 72
     2
 73
     0
 90
        0
 40
-0.6
 41
-30.0
 62
     5
 63
     7
421
 16777215
 74
     1
 91
        4
 64
     7
 65
   257
 75
     1
175
     1
 42
1.0
 92
        0
 66
   257
 43
1.0
 76
     1
 77
     6
 78
     2
 67
     7
 79
     5
170
     0
171
     0
290
     0
174
     0
 93
        1
 44
0.0
173
     0
291
     0
 45
0.0
1001
ACAD
1000
AcDbSavedByObjectVersion
1070
     0
  0
VISUALSTYLE
  5
32
102
{ACAD_XDICTIONARY
360
364
102
}
102
{ACAD_REACTORS
330
2A
102
}
330
2A
100
AcDbVisualStyle
  2

 70
     7
 71
     1
 72
     0
 73
     1
 90
        0
 40
-0.6
 41
-30.0
 62
     5
 63
     7
421
 16777215
 74
     0
 91
        4
 64
     7
 65
   257
 75
     1
175
     1
 42
1.0
 92
        8
 66
     7
 43
1.0
 76
     1
 77
     6
 78
     2
 67
     7
 79
     5
170
     0
171
     0
290
     0
174
     0
 93
        1
 44
0.0
173
     0
291
     1
 45
0.0
1001
ACAD
1000
AcDbSavedByObjectVersion
1070
     0
  0
VISUALSTYLE
  5
36
102
{ACAD_XDICTIONARY
360
36C
102
}
102
{ACAD_REACTORS
330
2A
102
}
330
2A
100
AcDbVisualStyle
  2

 70
    12
 71
     2
 72
     2
 73
     0
 90
        0
 40
-0.6
 41
-30.0
 62
     5
 63
     7
421
 16777215
 74
     1
 91
        4
 64
     7
 65
   257
 75
     1
175
     1
 42
1.0
 92
        8
 66
     7
 43
1.0
 76
     1
 77
     6
 78
     2
 67
     7
 79
     5
170
     0
171
     0
290
     0
174
     0
 93
        1
 44
50.0
173
     0
291
     1
 45
0.0
1001
ACAD
1000
AcDbSavedByObjectVersion
1070
     0
  0
VISUALSTYLE
  5
3A
102
{ACAD_XDICTIONARY
360
374
102
}
102
{ACAD_REACTORS
330
2A
102
}
330
2A
100
AcDbVisualStyle
  2

 70
    16
 71
     2
 72
     2
 73
     3
 90
        0
 40
-0.6
 41
-30.0
 62
     5
 63
     8
421
  8421504
 74
     1
 91
        4
 64
     7
 65
   257
 75
     1
175
     1
 42
1.0
 92
        8
 66
     8
424
  8421504
 43
1.0
 76
     1
 77
     6
 78
     2
 67
     7
 79
     5
170
     0
171
     0
290
     0
174
     0
 93
        1
 44
0.0
173
     0
291
     1
 45
0.0
1001
ACAD
1000
AcDbSavedByObjectVersion
1070
     0
  0
VISUALSTYLE
  5
34
102
{ACAD_XDICTIONARY
360
368
102
}
102
{ACAD_REACTORS
330
2A
102
}
330
2A
100
AcDbVisualStyle
  2

 70
     9
 71
     3
 72
     2
 73
     0
 90
        0
 40
-0.6
 41
-30.0
 62
     5
 63
     7
421
 16777215
 74
     2
 91
        2
 64
     7
 65
   257
 75
     1
175
     1
 42
179.0
 92
        8
 66
     7
 43
1.0
 76
     1
 77
     6
 78
     2
 67
     7
 79
     3
170
     0
171
     0
290
     0
174
     0
 93
        1
 44
0.0
173
     0
291
     0
 45
0.0
1001
ACAD
1000
AcDbSavedByObjectVersion
1070
     0
  0
VISUALSTYLE
  5
35
102
{ACAD_XDICTIONARY
360
36A
102
}
102
{ACAD_REACTORS
330
2A
102
}
330
2A
100
AcDbVisualStyle
  2

 70
    11
 71
     2
 72
     2
 73
     0
 90
        0
 40
-0.6
 41
-30.0
 62
     5
 63
     7
421
 16777215
 74
     1
 91
        4
 64
     7
 65
   257
 75
     1
175
     1
 42
1.0
 92
        8
 66
     7
 43
1.0
 76
     1
 77
     6
 78
     2
 67
     7
 79
     5
170
     0
171
     0
290
     0
174
     0
 93
        1
 44
-50.0
173
     0
291
     1
 45
0.0
1001
ACAD
1000
AcDbSavedByObjectVersion
1070
     0
  0
VISUALSTYLE
  5
3D
102
{ACAD_XDICTIONARY
360
37A
102
}
102
{ACAD_REACTORS
330
2A
102
}
330
2A
100
AcDbVisualStyle
  2

 70
    22
 71
     2
 72
     2
 73
     0
 90
        0
 40
-0.6
 41
-30.0
 62
     5
 63
     7
421
 16777215
 74
     1
 91
        4
 64
     7
 65
   257
 75
     1
175
     1
 42
1.0
 92
        8
 66
     7
 43
1.0
 76
     1
 77
     6
 78
     2
 67
     7
 79
     5
170
     0
171
     0
290
     0
174
     0
 93
        1
 44
0.0
173
     0
291
     1
 45
0.0
1001
ACAD
1000
AcDbSavedByObjectVersion
1070
     0
  0
VISUALSTYLE
  5
39
102
{ACAD_XDICTIONARY
360
372
102
}
102
{ACAD_REACTORS
330
2A
102
}
330
2A
100
AcDbVisualStyle
  2

 70
    15
 71
     2
 72
     2
 73
     0
 90
        0
 40
-0.6
 41
-30.0
 62
     5
 63
     7
421
 16777215
 74
     1
 91
        4
 64
     7
 65
   257
 75
     1
175
     1
 42
1.0
 92
        8
 66
     7
 43
1.0
 76
     1
 77
     6
 78
     2
 67
     7
 79
     5
170
     0
171
     0
290
     0
174
     0
 93
        1
 44
0.0
173
     0
291
     1
 45
0.0
1001
ACAD
1000
AcDbSavedByObjectVersion
1070
     0
  0
VISUALSTYLE
  5
2B
102
{ACAD_XDICTIONARY
360
356
102
}
102
{ACAD_REACTORS
330
2A
102
}
330
2A
100
AcDbVisualStyle
  2

 70
     0
 71
     2
 72
     1
 73
     1
 90
        2
 40
-0.6
 41
30.0
 62
     5
 63
     7
421
 16777215
 74
     0
 91
        0
 64
     7
 65
   257
 75
     1
175
     1
 42
1.0
 92
        8
 66
     7
 43
1.0
 76
     1
 77
     6
 78
     2
 67
     7
 79
     5
170
     0
171
     0
290
     0
174
     0
 93
       13
 44
0.0
173
     0
291
     1
 45
0.0
1001
ACAD
1000
AcDbSavedByObjectVersion
1070
     0
  0
VISUALSTYLE
  5
2C
102
{ACAD_XDICTIONARY
360
358
102
}
102
{ACAD_REACTORS
330
2A
102
}
330
2A
100
AcDbVisualStyle
  2

 70
     1
 71
     2
 72
     1
 73
     1
 90
        2
 40
-0.6
 41
30.0
 62
     5
 63
     7
421
 16777215
 74
     1
 91
        0
 64
     7
 65
   257
 75
     1
175
     1
 42
1.0
 92
        0
 66
   257
 43
1.0
 76
     1
 77
     6
 78
     2
 67
     7
 79
     5
170
     0
171
     0
290
     0
174
     0
 93
       13
 44
0.0
173
     0
291
     1
 45
0.0
1001
ACAD
1000
AcDbSavedByObjectVersion
1070
     0
  0
VISUALSTYLE
  5
2D
102
{ACAD_XDICTIONARY
360
35A
102
}
102
{ACAD_REACTORS
330
2A
102
}
330
2A
100
AcDbVisualStyle
  2

 70
     2
 71
     2
 72
     2
 73
     1
 90
        2
 40
-0.6
 41
30.0
 62
     5
 63
     7
421
 16777215
 74
     0
 91
        0
 64
     7
 65
   257
 75
     1
175
     1
 42
1.0
 92
        0
 66
     7
 43
1.0
 76
     1
 77
     6
 78
     2
 67
     7
 79
     5
170
     0
171
     0
290
     0
174
     0
 93
       13
 44
0.0
173
     0
291
     1
 45
0.0
1001
ACAD
1000
AcDbSavedByObjectVersion
1070
     0
  0
VISUALSTYLE
  5
2E
102
{ACAD_XDICTIONARY
360
35C
102
}
102
{ACAD_REACTORS
330
2A
102
}
330
2A
100
AcDbVisualStyle
  2

 70
     3
 71
     2
 72
     2
 73
     1
 90
        2
 40
-0.6
 41
30.0
 62
     5
 63
     7
421
 16777215
 74
     1
 91
        0
 64
     7
 65
   257
 75
     1
175
     1
 42
1.0
 92
        0
 66
   257
 43
1.0
 76
     1
 77
     6
 78
     2
 67
     7
 79
     5
170
     0
171
     0
290
     0
174
     0
 93
       13
 44
0.0
173
     0
291
     1
 45
0.0
1001
ACAD
1000
AcDbSavedByObjectVersion
1070
     0
  0
VISUALSTYLE
  5
31
102
{ACAD_XDICTIONARY
360
362
102
}
102
{ACAD_REACTORS
330
2A
102
}
330
2A
100
AcDbVisualStyle
  2

 70
     6
 71
     1
 72
     2
 73
     2
 90
        0
 40
-0.6
 41
-30.0
 62
     5
 63
     7
421
 16777215
 74
     2
 91
        2
 64
     7
 65
   257
 75
     2
175
     1
 42
40.0
 92
        0
 66
   257
 43
1.0
 76
     1
 77
     6
 78
     2
 67
     7
 79
     3
170
     0
171
     0
290
     0
174
     0
 93
        1
 44
0.0
173
     0
291
     0
 45
0.0
1001
ACAD
1000
AcDbSavedByObjectVersion
1070
     0
  0
VISUALSTYLE
  5
3B
102
{ACAD_XDICTIONARY
360
376
102
}
102
{ACAD_REACTORS
330
2A
102
}
330
2A
100
AcDbVisualStyle
  2

 70
    20
 71
     2
 72
     2
 73
     0
 90
        0
 40
-0.6
 41
-30.0
 62
     5
 63
     7
421
 16777215
 74
     1
 91
        4
 64
     7
 65
   257
 75
     1
175
     1
 42
1.0
 92
       10
 66
     7
 43
1.0
 76
     1
 77
     6
 78
     2
 67
     7
 79
     5
170
     0
171
     0
290
     0
174
     0
 93
        1
 44
0.0
173
     0
291
     1
 45
0.0
1001
ACAD
1000
AcDbSavedByObjectVersion
1070
     0
  0
VISUALSTYLE
  5
38
102
{ACAD_XDICTIONARY
360
370
102
}
102
{ACAD_REACTORS
330
2A
102
}
330
2A
100
AcDbVisualStyle
  2

 70
    14
 71
     2
 72
     2
 73
     0
 90
        0
 40
-0.6
 41
-30.0
 62
     5
 63
     7
421
 16777215
 74
     1
 91
        4
 64
     7
 65
   257
 75
     7
175
     7
 42
1.0
 92
        8
 66
     7
 43
1.0
 76
     1
 77
     6
 78
     2
 67
     7
 79
     5
170
     0
171
     0
290
     0
174
     0
 93
        1
 44
0.0
173
     0
291
     1
 45
0.0
1001
ACAD
1000
AcDbSavedByObjectVersion
1070
     0
  0
VISUALSTYLE
  5
3C
102
{ACAD_XDICTIONARY
360
378
102
}
102
{ACAD_REACTORS
330
2A
102
}
330
2A
100
AcDbVisualStyle
  2

 70
    21
 71
     2
 72
     2
 73
     0
 90
        0
 40
-0.6
 41
-30.0
 62
     5
 63
     7
421
 16777215
 74
     1
 91
        4
 64
     7
 65
   257
 75
     1
175
     1
 42
1.0
 92
        9
 66
     7
 43
1.0
 76
     1
 77
     6
 78
     2
 67
     7
 79
     5
170
     0
171
     0
290
     0
174
     0
 93
        1
 44
0.0
173
     0
291
     1
 45
0.0
1001
ACAD
1000
AcDbSavedByObjectVersion
1070
     0
  0
VISUALSTYLE
  5
33
102
{ACAD_XDICTIONARY
360
366
102
}
102
{ACAD_REACTORS
330
2A
102
}
330
2A
100
AcDbVisualStyle
  2

 70
     8
 71
     2
 72
     3
 73
     0
 90
        2
 40
-0.6
 41
30.0
 62
     5
 63
     7
421
 16777215
 74
     0
 91
        0
 64
     7
 65
   257
 75
     1
175
     1
 42
1.0
 92
        8
 66
   257
 43
1.0
 76
     1
 77
     6
 78
     2
 67
     7
 79
     3
170
     0
171
     0
290
     0
174
     0
 93
       13
 44
0.0
173
     0
291
     0
 45
0.0
1001
ACAD
1000
AcDbSavedByObjectVersion
1070
     0
  0
VISUALSTYLE
  5
42
102
{ACAD_XDICTIONARY
360
384
102
}
102
{ACAD_REACTORS
330
2A
102
}
330
2A
100
AcDbVisualStyle
  2

 70
    27
 71
     2
 72
     2
 73
     1
 90
        2
 40
-0.6
 41
30.0
 62
     5
 63
     7
421
 16777215
 74
     0
 91
        4
 64
     7
 65
   257
 75
     1
175
     1
 42
1.0
 92
        8
 66
   257
 43
1.0
 76
     1
 77
     6
 78
     2
 67
     8
425
  7895160
 79
     3
170
     0
171
     0
290
     0
174
     0
 93
        5
 44
0.0
173
     0
291
     0
 45
0.0
1001
ACAD
1000
AcDbSavedByObjectVersion
1070
     0
  0
VISUALSTYLE
  5
41
102
{ACAD_XDICTIONARY
360
382
102
}
102
{ACAD_REACTORS
330
2A
102
}
330
2A
100
AcDbVisualStyle
  2

 70
    26
 71
     2
 72
     2
 73
     1
 90
        2
 40
-0.6
 41
30.0
 62
     5
 63
     7
421
 16777215
 74
     1
 91
       10
 64
     7
 65
   257
 75
     2
175
     1
 42
1.0
 92
        8
 66
   257
 43
1.0
 76
     1
 77
     6
 78
     2
 67
     7
 79
     3
170
     0
171
     0
290
     0
174
     0
 93
        5
 44
0.0
173
     0
291
     0
 45
0.0
1001
ACAD
1000
AcDbSavedByObjectVersion
1070
     0
  0
VISUALSTYLE
  5
3E
102
{ACAD_XDICTIONARY
360
37C
102
}
102
{ACAD_REACTORS
330
2A
102
}
330
2A
100
AcDbVisualStyle
  2

 70
    23
 71
     2
 72
     2
 73
     3
 90
        0
 40
-0.6
 41
-30.0
 62
     5
 63
     7
421
 16777215
 74
     2
 91
        2
 64
     7
 65
     7
 75
     1
175
     1
 42
40.0
 92
        8
 66
     7
 43
1.0
 76
     1
 77
     6
 78
     2
 67
     7
 79
     3
170
     0
171
     0
290
     0
174
     0
 93
        1
 44
0.0
173
     0
291
     0
 45
0.0
1001
ACAD
1000
AcDbSavedByObjectVersion
1070
     0
  0
VISUALSTYLE
  5
3F
102
{ACAD_XDICTIONARY
360
37E
102
}
102
{ACAD_REACTORS
330
2A
102
}
330
2A
100
AcDbVisualStyle
  2

 70
    24
 71
     1
 72
     2
 73
     2
 90
        0
 40
-0.6
 41
-30.0
 62
     5
 63
     7
421
 16777215
 74
     2
 91
        2
 64
     7
 65
     7
 75
     1
175
     1
 42
40.0
 92
       11
 66
     7
 43
1.0
 76
     1
 77
     6
 78
     2
 67
     7
 79
     6
170
     0
171
     0
290
     0
174
     0
 93
        1
 44
0.0
173
     0
291
     0
 45
0.0
1001
ACAD
1000
AcDbSavedByObjectVersion
1070
     0
  0
VISUALSTYLE
  5
37
102
{ACAD_XDICTIONARY
360
36E
102
}
102
{ACAD_REACTORS
330
2A
102
}
330
2A
100
AcDbVisualStyle
  2

 70
    13
 71
     2
 72
     2
 73
     0
 90
        0
 40
-0.6
 41
-30.0
 62
     5
 63
     7
421
 16777215
 74
     1
 91
        4
 64
     7
 65
   257
 75
     1
175
     1
 42
1.0
 92
       12
 66
     7
 43
1.0
 76
     1
 77
     6
 78
     2
 67
     7
 79
     5
170
     0
171
     0
290
     0
174
     0
 93
        1
 44
0.0
173
     0
291
     1
 45
0.0
1001
ACAD
1000
AcDbSavedByObjectVersion
1070
     0
  0
VISUALSTYLE
  5
30
102
{ACAD_XDICTIONARY
360
360
102
}
102
{ACAD_REACTORS
330
2A
102
}
330
2A
100
AcDbVisualStyle
  2

 70
     5
 71
     0
 72
     2
 73
     0
 90
        0
 40
-0.6
 41
-30.0
 62
     5
 63
     7
421
 16777215
 74
     1
 91
        4
 64
     7
 65
   257
 75
     1
175
     1
 42
1.0
 92
        0
 66
   257
 43
1.0
 76
     1
 77
     6
 78
     2
 67
     7
 79
     3
170
     0
171
     0
290
     0
174
     0
 93
        1
 44
0.0
173
     0
291
     0
 45
0.0
1001
ACAD
1000
AcDbSavedByObjectVersion
1070
     0
  0
VISUALSTYLE
  5
40
102
{ACAD_XDICTIONARY
360
380
102
}
102
{ACAD_REACTORS
330
2A
102
}
330
2A
100
AcDbVisualStyle
  2

 70
    25
 71
     2
 72
     2
 73
     1
 90
        1
 40
0.5
 41
-30.0
 62
     5
 63
     7
421
 16777215
 74
     1
 91
        0
 64
     7
 65
   257
 75
     1
175
     1
 42
1.0
 92
        8
 66
     7
 43
1.0
 76
     1
 77
     6
 78
     2
 67
     7
 79
     3
170
     0
171
     0
290
     0
174
     0
 93
       13
 44
0.0
173
     0
291
     0
 45
0.0
1001
ACAD
1000
AcDbSavedByObjectVersion
1070
     0
  0
DICTIONARYVAR
  5
264
102
{ACAD_REACTORS
330
263
102
}
330
263
100
DictionaryVariables
280
     0
  1
1:1
  0
DICTIONARYVAR
  5
2A5
102
{ACAD_REACTORS
330
263
102
}
330
263
100
DictionaryVariables
280
     0
  1
STANDARD
  0
DICTIONARYVAR
  5
2A4
102
{ACAD_REACTORS
330
263
102
}
330
263
100
DictionaryVariables
280
     0
  1
STANDARD
  0
DICTIONARYVAR
  5
350
102
{ACAD_REACTORS
330
263
102
}
330
263
100
DictionaryVariables
280
     0
  1
Metric50
  0
DICTIONARYVAR
  5
351
102
{ACAD_REACTORS
330
263
102
}
330
263
100
DictionaryVariables
280
     0
  1
Metric50
  0
DICTIONARYVAR
  5
265
102
{ACAD_REACTORS
330
263
102
}
330
263
100
DictionaryVariables
280
     0
  1
1
  0
DICTIONARYVAR
  5
352
102
{ACAD_REACTORS
330
263
102
}
330
263
100
DictionaryVariables
280
     0
  1
2
  0
DICTIONARY
  5
389
330
2AC
100
AcDbDictionary
280
     1
281
     1
  3
ACAD_XREC_ROUNDTRIP
360
38A
  0
DICTIONARY
  5
299
330
45
100
AcDbDictionary
280
     1
281
     1
  3
ACAD_XREC_ROUNDTRIP
360
29A
  0
DICTIONARY
  5
297
330
44
100
AcDbDictionary
280
     1
281
     1
  3
ACAD_XREC_ROUNDTRIP
360
298
  0
DICTIONARY
  5
29B
330
46
100
AcDbDictionary
280
     1
281
     1
  3
ACAD_XREC_ROUNDTRIP
360
29C
  0
DICTIONARY
  5
387
330
2AB
100
AcDbDictionary
280
     1
281
     1
  3
ACAD_XREC_ROUNDTRIP
360
388
  0
DICTIONARY
  5
29D
330
6A
100
AcDbDictionary
280
     1
281
     1
  3
ACAD_ROUNDTRIP_2008_TABLESTYLE_CELLSTYLEMAP
360
354
  3
ACAD_XREC_ROUNDTRIP
360
386
  0
DICTIONARY
  5
35E
330
2F
100
AcDbDictionary
280
     1
281
     1
  3
ACAD_XREC_ROUNDTRIP
360
35F
  0
DICTIONARY
  5
364
330
32
100
AcDbDictionary
280
     1
281
     1
  3
ACAD_XREC_ROUNDTRIP
360
365
  0
DICTIONARY
  5
36C
330
36
100
AcDbDictionary
280
     1
281
     1
  3
ACAD_XREC_ROUNDTRIP
360
36D
  0
DICTIONARY
  5
374
330
3A
100
AcDbDictionary
280
     1
281
     1
  3
ACAD_XREC_ROUNDTRIP
360
375
  0
DICTIONARY
  5
368
330
34
100
AcDbDictionary
280
     1
281
     1
  3
ACAD_XREC_ROUNDTRIP
360
369
  0
DICTIONARY
  5
36A
330
35
100
AcDbDictionary
280
     1
281
     1
  3
ACAD_XREC_ROUNDTRIP
360
36B
  0
DICTIONARY
  5
37A
330
3D
100
AcDbDictionary
280
     1
281
     1
  3
ACAD_XREC_ROUNDTRIP
360
37B
  0
DICTIONARY
  5
372
330
39
100
AcDbDictionary
280
     1
281
     1
  3
ACAD_XREC_ROUNDTRIP
360
373
  0
DICTIONARY
  5
356
330
2B
100
AcDbDictionary
280
     1
281
     1
  3
ACAD_XREC_ROUNDTRIP
360
357
  0
DICTIONARY
  5
358
330
2C
100
AcDbDictionary
280
     1
281
     1
  3
ACAD_XREC_ROUNDTRIP
360
359
  0
DICTIONARY
  5
35A
330
2D
100
AcDbDictionary
280
     1
281
     1
  3
ACAD_XREC_ROUNDTRIP
360
35B
  0
DICTIONARY
  5
35C
330
2E
100
AcDbDictionary
280
     1
281
     1
  3
ACAD_XREC_ROUNDTRIP
360
35D
  0
DICTIONARY
  5
362
330
31
100
AcDbDictionary
280
     1
281
     1
  3
ACAD_XREC_ROUNDTRIP
360
363
  0
DICTIONARY
  5
376
330
3B
100
AcDbDictionary
280
     1
281
     1
  3
ACAD_XREC_ROUNDTRIP
360
377
  0
DICTIONARY
  5
370
330
38
100
AcDbDictionary
280
     1
281
     1
  3
ACAD_XREC_ROUNDTRIP
360
371
  0
DICTIONARY
  5
378
330
3C
100
AcDbDictionary
280
     1
281
     1
  3
ACAD_XREC_ROUNDTRIP
360
379
  0
DICTIONARY
  5
366
330
33
100
AcDbDictionary
280
     1
281
     1
  3
ACAD_XREC_ROUNDTRIP
360
367
  0
DICTIONARY
  5
384
330
42
100
AcDbDictionary
280
     1
281
     1
  3
ACAD_XREC_ROUNDTRIP
360
385
  0
DICTIONARY
  5
382
330
41
100
AcDbDictionary
280
     1
281
     1
  3
ACAD_XREC_ROUNDTRIP
360
383
  0
DICTIONARY
  5
37C
330
3E
100
AcDbDictionary
280
     1
281
     1
  3
ACAD_XREC_ROUNDTRIP
360
37D
  0
DICTIONARY
  5
37E
330
3F
100
AcDbDictionary
280
     1
281
     1
  3
ACAD_XREC_ROUNDTRIP
360
37F
  0
DICTIONARY
  5
36E
330
37
100
AcDbDictionary
280
     1
281
     1
  3
ACAD_XREC_ROUNDTRIP
360
36F
  0
DICTIONARY
  5
360
330
30
100
AcDbDictionary
280
     1
281
     1
  3
ACAD_XREC_ROUNDTRIP
360
361
  0
DICTIONARY
  5
380
330
40
100
AcDbDictionary
280
     1
281
     1
  3
ACAD_XREC_ROUNDTRIP
360
381
  0
XRECORD
  5
38A
102
{ACAD_REACTORS
330
389
102
}
330
389
100
AcDbXrecord
280
     1
102
DISPLAYNAME
  1
Metric50
102
FLAGS
 90
        0
  0
XRECORD
  5
29A
102
{ACAD_REACTORS
330
299
102
}
330
299
100
AcDbXrecord
280
     1
102
MATERIAL
148
0.0
149
0.0
149
0.0
 93
        0
 94
      127
282
     0
 72
     1
 77
     1
171
     1
175
     1
179
     1
273
     0
  0
XRECORD
  5
298
102
{ACAD_REACTORS
330
297
102
}
330
297
100
AcDbXrecord
280
     1
102
MATERIAL
148
0.0
149
0.0
149
0.0
 93
        0
 94
      127
282
     0
 72
     1
 77
     1
171
     1
175
     1
179
     1
273
     0
  0
XRECORD
  5
29C
102
{ACAD_REACTORS
330
29B
102
}
330
29B
100
AcDbXrecord
280
     1
102
MATERIAL
148
0.0
149
0.0
149
0.0
 93
        0
 94
      127
282
     0
 72
     1
 77
     1
171
     1
175
     1
179
     1
273
     0
  0
XRECORD
  5
388
102
{ACAD_REACTORS
330
387
102
}
330
387
100
AcDbXrecord
280
     1
102
DISPLAYNAME
  1
Metric50
102
FLAGS
 90
        0
  0
CELLSTYLEMAP
  5
354
102
{ACAD_REACTORS
330
29D
102
}
330
29D
100
AcDbCellStyleMap
 90
        3
300
CELLSTYLE
  1
TABLEFORMAT_BEGIN
 90
        5
170
     1
 91
        0
 92
    32768
 62
   257
 93
        1
300
CONTENTFORMAT
  1
CONTENTFORMAT_BEGIN
 90
        0
 91
        0
 92
        4
 93
        0
300

 40
0.0
140
1.0
 94
        5
 62
     0
340
11
144
0.25
309
CONTENTFORMAT_END
171
     1
301
MARGIN
  1
CELLMARGIN_BEGIN
 40
0.06
 40
0.06
 40
0.06
 40
0.06
 40
0.18
 40
0.18
309
CELLMARGIN_END
 94
        6
 95
        1
302
GRIDFORMAT
  1
GRIDFORMAT_BEGIN
 90
        0
 91
        1
 62
     0
 92
       -2
340
14
 93
        0
 40
0.045
309
GRIDFORMAT_END
 95
        2
302
GRIDFORMAT
  1
GRIDFORMAT_BEGIN
 90
        0
 91
        1
 62
     0
 92
       -2
340
14
 93
        0
 40
0.045
309
GRIDFORMAT_END
 95
        4
302
GRIDFORMAT
  1
GRIDFORMAT_BEGIN
 90
        0
 91
        1
 62
     0
 92
       -2
340
14
 93
        0
 40
0.045
309
GRIDFORMAT_END
 95
        8
302
GRIDFORMAT
  1
GRIDFORMAT_BEGIN
 90
        0
 91
        1
 62
     0
 92
       -2
340
14
 93
        0
 40
0.045
309
GRIDFORMAT_END
 95
       16
302
GRIDFORMAT
  1
GRIDFORMAT_BEGIN
 90
        0
 91
        1
 62
     0
 92
       -2
340
14
 93
        0
 40
0.045
309
GRIDFORMAT_END
 95
       32
302
GRIDFORMAT
  1
GRIDFORMAT_BEGIN
 90
        0
 91
        1
 62
     0
 92
       -2
340
14
 93
        0
 40
0.045
309
GRIDFORMAT_END
309
TABLEFORMAT_END
  1
CELLSTYLE_BEGIN
 90
        1
 91
        1
300
_TITLE
309
CELLSTYLE_END
300
CELLSTYLE
  1
TABLEFORMAT_BEGIN
 90
        5
170
     1
 91
        0
 92
        0
 62
   257
 93
        1
300
CONTENTFORMAT
  1
CONTENTFORMAT_BEGIN
 90
        0
 91
        0
 92
        4
 93
        0
300

 40
0.0
140
1.0
 94
        5
 62
     0
340
11
144
0.18
309
CONTENTFORMAT_END
171
     1
301
MARGIN
  1
CELLMARGIN_BEGIN
 40
0.06
 40
0.06
 40
0.06
 40
0.06
 40
0.18
 40
0.18
309
CELLMARGIN_END
 94
        6
 95
        1
302
GRIDFORMAT
  1
GRIDFORMAT_BEGIN
 90
        0
 91
        1
 62
     0
 92
       -2
340
14
 93
        0
 40
0.045
309
GRIDFORMAT_END
 95
        2
302
GRIDFORMAT
  1
GRIDFORMAT_BEGIN
 90
        0
 91
        1
 62
     0
 92
       -2
340
14
 93
        0
 40
0.045
309
GRIDFORMAT_END
 95
        4
302
GRIDFORMAT
  1
GRIDFORMAT_BEGIN
 90
        0
 91
        1
 62
     0
 92
       -2
340
14
 93
        0
 40
0.045
309
GRIDFORMAT_END
 95
        8
302
GRIDFORMAT
  1
GRIDFORMAT_BEGIN
 90
        0
 91
        1
 62
     0
 92
       -2
340
14
 93
        0
 40
0.045
309
GRIDFORMAT_END
 95
       16
302
GRIDFORMAT
  1
GRIDFORMAT_BEGIN
 90
        0
 91
        1
 62
     0
 92
       -2
340
14
 93
        0
 40
0.045
309
GRIDFORMAT_END
 95
       32
302
GRIDFORMAT
  1
GRIDFORMAT_BEGIN
 90
        0
 91
        1
 62
     0
 92
       -2
340
14
 93
        0
 40
0.045
309
GRIDFORMAT_END
309
TABLEFORMAT_END
  1
CELLSTYLE_BEGIN
 90
        2
 91
        1
300
_HEADER
309
CELLSTYLE_END
300
CELLSTYLE
  1
TABLEFORMAT_BEGIN
 90
        5
170
     1
 91
        0
 92
        0
 62
   257
 93
        1
300
CONTENTFORMAT
  1
CONTENTFORMAT_BEGIN
 90
        0
 91
        0
 92
        4
 93
        0
300

 40
0.0
140
1.0
 94
        2
 62
     0
340
11
144
0.18
309
CONTENTFORMAT_END
171
     1
301
MARGIN
  1
CELLMARGIN_BEGIN
 40
0.06
 40
0.06
 40
0.06
 40
0.06
 40
0.18
 40
0.18
309
CELLMARGIN_END
 94
        6
 95
        1
302
GRIDFORMAT
  1
GRIDFORMAT_BEGIN
 90
        0
 91
        1
 62
     0
 92
       -2
340
14
 93
        0
 40
0.045
309
GRIDFORMAT_END
 95
        2
302
GRIDFORMAT
  1
GRIDFORMAT_BEGIN
 90
        0
 91
        1
 62
     0
 92
       -2
340
14
 93
        0
 40
0.045
309
GRIDFORMAT_END
 95
        4
302
GRIDFORMAT
  1
GRIDFORMAT_BEGIN
 90
        0
 91
        1
 62
     0
 92
       -2
340
14
 93
        0
 40
0.045
309
GRIDFORMAT_END
 95
        8
302
GRIDFORMAT
  1
GRIDFORMAT_BEGIN
 90
        0
 91
        1
 62
     0
 92
       -2
340
14
 93
        0
 40
0.045
309
GRIDFORMAT_END
 95
       16
302
GRIDFORMAT
  1
GRIDFORMAT_BEGIN
 90
        0
 91
        1
 62
     0
 92
       -2
340
14
 93
        0
 40
0.045
309
GRIDFORMAT_END
 95
       32
302
GRIDFORMAT
  1
GRIDFORMAT_BEGIN
 90
        0
 91
        1
 62
     0
 92
       -2
340
14
 93
        0
 40
0.045
309
GRIDFORMAT_END
309
TABLEFORMAT_END
  1
CELLSTYLE_BEGIN
 90
        3
 91
        2
300
_DATA
309
CELLSTYLE_END
  0
XRECORD
  5
386
102
{ACAD_REACTORS
330
29D
102
}
330
29D
100
AcDbXrecord
280
     1
102
ACAD_ROUNDTRIP_PRE2007_TABLESTYLE
 90
        4
 91
        0
  1

 92
        4
 93
        0
  2

 94
        4
 95
        0
  3

  0
XRECORD
  5
35F
102
{ACAD_REACTORS
330
35E
102
}
330
35E
100
AcDbXrecord
280
     1
102
RTVSPost2010Prop28
280
     1
102
RTVSPost2010PropOp28
 70
     1
102
RTVSPost2010Prop29
280
     1
102
RTVSPost2010PropOp29
 70
     1
102
RTVSPost2010Prop30
280
     0
102
RTVSPost2010PropOp30
 70
     1
102
RTVSPost2010Prop31
280
     0
102
RTVSPost2010PropOp31
 70
     1
102
RTVSPost2010Prop32
280
     0
102
RTVSPost2010PropOp32
 70
     1
102
RTVSPost2010Prop33
280
     0
102
RTVSPost2010PropOp33
 70
     1
102
RTVSPost2010Prop34
280
     0
102
RTVSPost2010PropOp34
 70
     1
102
RTVSPost2010Prop35
280
     0
102
RTVSPost2010PropOp35
 70
     1
102
RTVSPost2010Prop36
280
     0
102
RTVSPost2010PropOp36
 70
     1
102
RTVSPost2010Prop37
 90
       50
102
RTVSPost2010PropOp37
 70
     1
102
RTVSPost2010Prop38
140
0.0
102
RTVSPost2010PropOp38
 70
     1
102
RTVSPost2010Prop39
140
1.0
102
RTVSPost2010PropOp39
 70
     1
102
RTVSPost2010Prop40
 90
        0
102
RTVSPost2010PropOp40
 70
     1
102
RTVSPost2010Prop41ColorIndex
 90
       18
102
RTVSPost2010Prop41ColorRGB
 90
        0
102
RTVSPost2010PropOp41
 70
     1
102
RTVSPost2010Prop42
 90
       50
102
RTVSPost2010PropOp42
 70
     1
102
RTVSPost2010Prop43
 90
        3
102
RTVSPost2010PropOp43
 70
     1
102
RTVSPost2010Prop44ColorIndex
 90
        5
102
RTVSPost2010Prop44ColorRGB
 90
      255
102
RTVSPost2010PropOp44
 70
     1
102
RTVSPost2010Prop45
280
     0
102
RTVSPost2010PropOp45
 70
     1
102
RTVSPost2010Prop46
 90
       50
102
RTVSPost2010PropOp46
 70
     1
102
RTVSPost2010Prop47
 90
       50
102
RTVSPost2010PropOp47
 70
     1
102
RTVSPost2010Prop48
 90
       50
102
RTVSPost2010PropOp48
 70
     1
102
RTVSPost2010Prop49
280
     0
102
RTVSPost2010PropOp49
 70
     1
102
RTVSPost2010Prop50
 90
       50
102
RTVSPost2010PropOp50
 70
     1
102
RTVSPost2010Prop51ColorIndex
 90
      256
102
RTVSPost2010Prop51ColorRGB
 90
-16777216
102
RTVSPost2010PropOp51
 70
     0
102
RTVSPost2010Prop52
140
1.0
102
RTVSPost2010PropOp52
 70
     0
102
RTVSPost2010Prop53
 90
        2
102
RTVSPost2010PropOp53
 70
     1
102
RTVSPost2010Prop54
  1
strokes_ogs.tif
102
RTVSPost2010PropOp54
 70
     1
102
RTVSPost2010Prop55
280
     0
102
RTVSPost2010PropOp55
 70
     1
102
RTVSPost2010Prop56
140
1.0
102
RTVSPost2010PropOp56
 70
     1
102
RTVSPost2010Prop57
140
1.0
102
RTVSPost2010PropOp57
 70
     1
102
RTVSPropertyOp0
 70
     1
102
RTVSPropertyOp1
 70
     1
102
RTVSPropertyOp2
 70
     1
102
RTVSPropertyOp3
 70
     1
102
RTVSPropertyOp4
 70
     1
102
RTVSPropertyOp5
 70
     1
102
RTVSPropertyOp6
 70
     1
102
RTVSPropertyOp7
 70
     1
102
RTVSPropertyOp8
 70
     1
102
RTVSPropertyOp9
 70
     1
102
RTVSPropertyOp10
 70
     1
102
RTVSPropertyOp11
 70
     1
102
RTVSPropertyOp12
 70
     1
102
RTVSPropertyOp13
 70
     1
102
RTVSPropertyOp14
 70
     1
102
RTVSPropertyOp15
 70
     1
102
RTVSPropertyOp16
 70
     1
102
RTVSPropertyOp17
 70
     1
102
RTVSPropertyOp18
 70
     1
102
RTVSPropertyOp19
 70
     1
102
RTVSPropertyOp20
 70
     1
102
RTVSPropertyOp21
 70
     1
102
RTVSPropertyOp22
 70
     1
102
RTVSPropertyOp23
 70
     1
102
RTVSPropertyOp24
 70
     1
102
RTVSPropertyOp25
 70
     1
102
RTVSPropertyOp26
 70
     1
102
RTVSPropertyOp27
 70
     1
102
RTVSPropertyOp28
 70
     1
102
RTVSPropertyOp29
 70
     1
102
RTVSPropertyOp30
 70
     1
102
RTVSPropertyOp31
 70
     1
102
RTVSPropertyOp32
 70
     1
102
RTVSPropertyOp33
 70
     1
102
RTVSPropertyOp34
 70
     1
102
RTVSPropertyOp35
 70
     1
102
RTVSPropertyOp36
 70
     1
102
RTVSPropertyOp37
 70
     1
102
RTVSPropertyOp38
 70
     1
102
RTVSPropertyOp39
 70
     1
102
RTVSPropertyOp40
 70
     1
102
RTVSPropertyOp41
 70
     1
102
RTVSPropertyOp42
 70
     1
102
RTVSPropertyOp43
 70
     1
102
RTVSPropertyOp44
 70
     1
102
RTVSPropertyOp45
 70
     1
102
RTVSPropertyOp46
 70
     1
102
RTVSPropertyOp47
 70
     1
102
RTVSPropertyOp48
 70
     1
102
RTVSPropertyOp49
 70
     1
102
RTVSPropertyOp50
 70
     1
102
RTVSPropertyOp51
 70
     0
102
RTVSPropertyOp52
 70
     0
102
RTVSPropertyOp53
 70
     1
102
RTVSPropertyOp54
 70
     1
102
RTVSPropertyOp55
 70
     1
102
RTVSPropertyOp56
 70
     1
102
RTVSPropertyOp57
 70
     1
102
RTVSPropertyOp58
 70
     1
102
RTVSPropertyOp59
 70
     1
102
RTVSPropertyOp60
 70
     1
102
RTVSPropertyOp61
 70
     1
102
RTVSPropertyOp62
 70
     1
  0
XRECORD
  5
365
102
{ACAD_REACTORS
330
364
102
}
330
364
100
AcDbXrecord
280
     1
102
RTVSPost2010Prop28
280
     0
102
RTVSPost2010PropOp28
 70
     1
102
RTVSPost2010Prop29
280
     1
102
RTVSPost2010PropOp29
 70
     1
102
RTVSPost2010Prop30
280
     1
102
RTVSPost2010PropOp30
 70
     1
102
RTVSPost2010Prop31
280
     0
102
RTVSPost2010PropOp31
 70
     1
102
RTVSPost2010Prop32
280
     0
102
RTVSPost2010PropOp32
 70
     1
102
RTVSPost2010Prop33
280
     0
102
RTVSPost2010PropOp33
 70
     1
102
RTVSPost2010Prop34
280
     0
102
RTVSPost2010PropOp34
 70
     1
102
RTVSPost2010Prop35
280
     0
102
RTVSPost2010PropOp35
 70
     1
102
RTVSPost2010Prop36
280
     0
102
RTVSPost2010PropOp36
 70
     1
102
RTVSPost2010Prop37
 90
       50
102
RTVSPost2010PropOp37
 70
     1
102
RTVSPost2010Prop38
140
0.0
102
RTVSPost2010PropOp38
 70
     1
102
RTVSPost2010Prop39
140
1.0
102
RTVSPost2010PropOp39
 70
     1
102
RTVSPost2010Prop40
 90
        0
102
RTVSPost2010PropOp40
 70
     1
102
RTVSPost2010Prop41ColorIndex
 90
       18
102
RTVSPost2010Prop41ColorRGB
 90
        0
102
RTVSPost2010PropOp41
 70
     1
102
RTVSPost2010Prop42
 90
       50
102
RTVSPost2010PropOp42
 70
     1
102
RTVSPost2010Prop43
 90
        3
102
RTVSPost2010PropOp43
 70
     1
102
RTVSPost2010Prop44ColorIndex
 90
        5
102
RTVSPost2010Prop44ColorRGB
 90
      255
102
RTVSPost2010PropOp44
 70
     1
102
RTVSPost2010Prop45
280
     0
102
RTVSPost2010PropOp45
 70
     1
102
RTVSPost2010Prop46
 90
       50
102
RTVSPost2010PropOp46
 70
     1
102
RTVSPost2010Prop47
 90
       50
102
RTVSPost2010PropOp47
 70
     1
102
RTVSPost2010Prop48
 90
       50
102
RTVSPost2010PropOp48
 70
     1
102
RTVSPost2010Prop49
280
     0
102
RTVSPost2010PropOp49
 70
     1
102
RTVSPost2010Prop50
 90
       50
102
RTVSPost2010PropOp50
 70
     1
102
RTVSPost2010Prop51ColorIndex
 90
      256
102
RTVSPost2010Prop51ColorRGB
 90
-16777216
102
RTVSPost2010PropOp51
 70
     0
102
RTVSPost2010Prop52
140
1.0
102
RTVSPost2010PropOp52
 70
     0
102
RTVSPost2010Prop53
 90
        2
102
RTVSPost2010PropOp53
 70
     1
102
RTVSPost2010Prop54
  1
strokes_ogs.tif
102
RTVSPost2010PropOp54
 70
     1
102
RTVSPost2010Prop55
280
     0
102
RTVSPost2010PropOp55
 70
     1
102
RTVSPost2010Prop56
140
1.0
102
RTVSPost2010PropOp56
 70
     1
102
RTVSPost2010Prop57
140
1.0
102
RTVSPost2010PropOp57
 70
     1
102
RTVSPropertyOp0
 70
     1
102
RTVSPropertyOp1
 70
     1
102
RTVSPropertyOp2
 70
     1
102
RTVSPropertyOp3
 70
     1
102
RTVSPropertyOp4
 70
     1
102
RTVSPropertyOp5
 70
     1
102
RTVSPropertyOp6
 70
     1
102
RTVSPropertyOp7
 70
     1
102
RTVSPropertyOp8
 70
     1
102
RTVSPropertyOp9
 70
     1
102
RTVSPropertyOp10
 70
     1
102
RTVSPropertyOp11
 70
     1
102
RTVSPropertyOp12
 70
     1
102
RTVSPropertyOp13
 70
     1
102
RTVSPropertyOp14
 70
     1
102
RTVSPropertyOp15
 70
     1
102
RTVSPropertyOp16
 70
     1
102
RTVSPropertyOp17
 70
     1
102
RTVSPropertyOp18
 70
     1
102
RTVSPropertyOp19
 70
     1
102
RTVSPropertyOp20
 70
     1
102
RTVSPropertyOp21
 70
     1
102
RTVSPropertyOp22
 70
     1
102
RTVSPropertyOp23
 70
     1
102
RTVSPropertyOp24
 70
     1
102
RTVSPropertyOp25
 70
     1
102
RTVSPropertyOp26
 70
     1
102
RTVSPropertyOp27
 70
     1
102
RTVSPropertyOp28
 70
     1
102
RTVSPropertyOp29
 70
     1
102
RTVSPropertyOp30
 70
     1
102
RTVSPropertyOp31
 70
     1
102
RTVSPropertyOp32
 70
     1
102
RTVSPropertyOp33
 70
     1
102
RTVSPropertyOp34
 70
     1
102
RTVSPropertyOp35
 70
     1
102
RTVSPropertyOp36
 70
     1
102
RTVSPropertyOp37
 70
     1
102
RTVSPropertyOp38
 70
     1
102
RTVSPropertyOp39
 70
     1
102
RTVSPropertyOp40
 70
     1
102
RTVSPropertyOp41
 70
     1
102
RTVSPropertyOp42
 70
     1
102
RTVSPropertyOp43
 70
     1
102
RTVSPropertyOp44
 70
     1
102
RTVSPropertyOp45
 70
     1
102
RTVSPropertyOp46
 70
     1
102
RTVSPropertyOp47
 70
     1
102
RTVSPropertyOp48
 70
     1
102
RTVSPropertyOp49
 70
     1
102
RTVSPropertyOp50
 70
     1
102
RTVSPropertyOp51
 70
     0
102
RTVSPropertyOp52
 70
     0
102
RTVSPropertyOp53
 70
     1
102
RTVSPropertyOp54
 70
     1
102
RTVSPropertyOp55
 70
     1
102
RTVSPropertyOp56
 70
     1
102
RTVSPropertyOp57
 70
     1
102
RTVSPropertyOp58
 70
     1
102
RTVSPropertyOp59
 70
     1
102
RTVSPropertyOp60
 70
     1
102
RTVSPropertyOp61
 70
     1
102
RTVSPropertyOp62
 70
     1
  0
XRECORD
  5
36D
102
{ACAD_REACTORS
330
36C
102
}
330
36C
100
AcDbXrecord
280
     1
102
RTVSPost2010Prop28
280
     0
102
RTVSPost2010PropOp28
 70
     1
102
RTVSPost2010Prop29
280
     1
102
RTVSPost2010PropOp29
 70
     1
102
RTVSPost2010Prop30
280
     1
102
RTVSPost2010PropOp30
 70
     1
102
RTVSPost2010Prop31
280
     0
102
RTVSPost2010PropOp31
 70
     1
102
RTVSPost2010Prop32
280
     0
102
RTVSPost2010PropOp32
 70
     1
102
RTVSPost2010Prop33
280
     0
102
RTVSPost2010PropOp33
 70
     1
102
RTVSPost2010Prop34
280
     0
102
RTVSPost2010PropOp34
 70
     1
102
RTVSPost2010Prop35
280
     0
102
RTVSPost2010PropOp35
 70
     1
102
RTVSPost2010Prop36
280
     0
102
RTVSPost2010PropOp36
 70
     1
102
RTVSPost2010Prop37
 90
       50
102
RTVSPost2010PropOp37
 70
     1
102
RTVSPost2010Prop38
140
0.0
102
RTVSPost2010PropOp38
 70
     1
102
RTVSPost2010Prop39
140
1.0
102
RTVSPost2010PropOp39
 70
     1
102
RTVSPost2010Prop40
 90
        0
102
RTVSPost2010PropOp40
 70
     1
102
RTVSPost2010Prop41ColorIndex
 90
       18
102
RTVSPost2010Prop41ColorRGB
 90
        0
102
RTVSPost2010PropOp41
 70
     1
102
RTVSPost2010Prop42
 90
       50
102
RTVSPost2010PropOp42
 70
     1
102
RTVSPost2010Prop43
 90
        3
102
RTVSPost2010PropOp43
 70
     1
102
RTVSPost2010Prop44ColorIndex
 90
        5
102
RTVSPost2010Prop44ColorRGB
 90
      255
102
RTVSPost2010PropOp44
 70
     1
102
RTVSPost2010Prop45
280
     0
102
RTVSPost2010PropOp45
 70
     1
102
RTVSPost2010Prop46
 90
       50
102
RTVSPost2010PropOp46
 70
     1
102
RTVSPost2010Prop47
 90
       50
102
RTVSPost2010PropOp47
 70
     1
102
RTVSPost2010Prop48
 90
       50
102
RTVSPost2010PropOp48
 70
     1
102
RTVSPost2010Prop49
280
     0
102
RTVSPost2010PropOp49
 70
     1
102
RTVSPost2010Prop50
 90
       50
102
RTVSPost2010PropOp50
 70
     1
102
RTVSPost2010Prop51ColorIndex
 90
      256
102
RTVSPost2010Prop51ColorRGB
 90
-16777216
102
RTVSPost2010PropOp51
 70
     0
102
RTVSPost2010Prop52
140
1.0
102
RTVSPost2010PropOp52
 70
     0
102
RTVSPost2010Prop53
 90
        2
102
RTVSPost2010PropOp53
 70
     1
102
RTVSPost2010Prop54
  1
strokes_ogs.tif
102
RTVSPost2010PropOp54
 70
     1
102
RTVSPost2010Prop55
280
     0
102
RTVSPost2010PropOp55
 70
     1
102
RTVSPost2010Prop56
140
1.0
102
RTVSPost2010PropOp56
 70
     1
102
RTVSPost2010Prop57
140
1.0
102
RTVSPost2010PropOp57
 70
     1
102
RTVSPropertyOp0
 70
     1
102
RTVSPropertyOp1
 70
     1
102
RTVSPropertyOp2
 70
     1
102
RTVSPropertyOp3
 70
     1
102
RTVSPropertyOp4
 70
     1
102
RTVSPropertyOp5
 70
     1
102
RTVSPropertyOp6
 70
     1
102
RTVSPropertyOp7
 70
     1
102
RTVSPropertyOp8
 70
     1
102
RTVSPropertyOp9
 70
     1
102
RTVSPropertyOp10
 70
     1
102
RTVSPropertyOp11
 70
     1
102
RTVSPropertyOp12
 70
     1
102
RTVSPropertyOp13
 70
     1
102
RTVSPropertyOp14
 70
     1
102
RTVSPropertyOp15
 70
     1
102
RTVSPropertyOp16
 70
     1
102
RTVSPropertyOp17
 70
     1
102
RTVSPropertyOp18
 70
     1
102
RTVSPropertyOp19
 70
     1
102
RTVSPropertyOp20
 70
     1
102
RTVSPropertyOp21
 70
     1
102
RTVSPropertyOp22
 70
     1
102
RTVSPropertyOp23
 70
     1
102
RTVSPropertyOp24
 70
     1
102
RTVSPropertyOp25
 70
     1
102
RTVSPropertyOp26
 70
     1
102
RTVSPropertyOp27
 70
     1
102
RTVSPropertyOp28
 70
     1
102
RTVSPropertyOp29
 70
     1
102
RTVSPropertyOp30
 70
     1
102
RTVSPropertyOp31
 70
     1
102
RTVSPropertyOp32
 70
     1
102
RTVSPropertyOp33
 70
     1
102
RTVSPropertyOp34
 70
     1
102
RTVSPropertyOp35
 70
     1
102
RTVSPropertyOp36
 70
     1
102
RTVSPropertyOp37
 70
     1
102
RTVSPropertyOp38
 70
     1
102
RTVSPropertyOp39
 70
     1
102
RTVSPropertyOp40
 70
     1
102
RTVSPropertyOp41
 70
     1
102
RTVSPropertyOp42
 70
     1
102
RTVSPropertyOp43
 70
     1
102
RTVSPropertyOp44
 70
     1
102
RTVSPropertyOp45
 70
     1
102
RTVSPropertyOp46
 70
     1
102
RTVSPropertyOp47
 70
     1
102
RTVSPropertyOp48
 70
     1
102
RTVSPropertyOp49
 70
     1
102
RTVSPropertyOp50
 70
     1
102
RTVSPropertyOp51
 70
     0
102
RTVSPropertyOp52
 70
     0
102
RTVSPropertyOp53
 70
     1
102
RTVSPropertyOp54
 70
     1
102
RTVSPropertyOp55
 70
     1
102
RTVSPropertyOp56
 70
     1
102
RTVSPropertyOp57
 70
     1
102
RTVSPropertyOp58
 70
     1
102
RTVSPropertyOp59
 70
     1
102
RTVSPropertyOp60
 70
     1
102
RTVSPropertyOp61
 70
     1
102
RTVSPropertyOp62
 70
     1
  0
XRECORD
  5
375
102
{ACAD_REACTORS
330
374
102
}
330
374
100
AcDbXrecord
280
     1
102
RTVSPost2010Prop28
280
     0
102
RTVSPost2010PropOp28
 70
     1
102
RTVSPost2010Prop29
280
     1
102
RTVSPost2010PropOp29
 70
     1
102
RTVSPost2010Prop30
280
     1
102
RTVSPost2010PropOp30
 70
     1
102
RTVSPost2010Prop31
280
     0
102
RTVSPost2010PropOp31
 70
     1
102
RTVSPost2010Prop32
280
     0
102
RTVSPost2010PropOp32
 70
     1
102
RTVSPost2010Prop33
280
     0
102
RTVSPost2010PropOp33
 70
     1
102
RTVSPost2010Prop34
280
     0
102
RTVSPost2010PropOp34
 70
     1
102
RTVSPost2010Prop35
280
     0
102
RTVSPost2010PropOp35
 70
     1
102
RTVSPost2010Prop36
280
     0
102
RTVSPost2010PropOp36
 70
     1
102
RTVSPost2010Prop37
 90
       50
102
RTVSPost2010PropOp37
 70
     1
102
RTVSPost2010Prop38
140
0.0
102
RTVSPost2010PropOp38
 70
     1
102
RTVSPost2010Prop39
140
1.0
102
RTVSPost2010PropOp39
 70
     1
102
RTVSPost2010Prop40
 90
        0
102
RTVSPost2010PropOp40
 70
     1
102
RTVSPost2010Prop41ColorIndex
 90
       18
102
RTVSPost2010Prop41ColorRGB
 90
        0
102
RTVSPost2010PropOp41
 70
     1
102
RTVSPost2010Prop42
 90
       50
102
RTVSPost2010PropOp42
 70
     1
102
RTVSPost2010Prop43
 90
        3
102
RTVSPost2010PropOp43
 70
     1
102
RTVSPost2010Prop44ColorIndex
 90
        5
102
RTVSPost2010Prop44ColorRGB
 90
      255
102
RTVSPost2010PropOp44
 70
     1
102
RTVSPost2010Prop45
280
     0
102
RTVSPost2010PropOp45
 70
     1
102
RTVSPost2010Prop46
 90
       50
102
RTVSPost2010PropOp46
 70
     1
102
RTVSPost2010Prop47
 90
       50
102
RTVSPost2010PropOp47
 70
     1
102
RTVSPost2010Prop48
 90
       50
102
RTVSPost2010PropOp48
 70
     1
102
RTVSPost2010Prop49
280
     0
102
RTVSPost2010PropOp49
 70
     1
102
RTVSPost2010Prop50
 90
       50
102
RTVSPost2010PropOp50
 70
     1
102
RTVSPost2010Prop51ColorIndex
 90
      256
102
RTVSPost2010Prop51ColorRGB
 90
-16777216
102
RTVSPost2010PropOp51
 70
     0
102
RTVSPost2010Prop52
140
1.0
102
RTVSPost2010PropOp52
 70
     0
102
RTVSPost2010Prop53
 90
        2
102
RTVSPost2010PropOp53
 70
     1
102
RTVSPost2010Prop54
  1
strokes_ogs.tif
102
RTVSPost2010PropOp54
 70
     1
102
RTVSPost2010Prop55
280
     0
102
RTVSPost2010PropOp55
 70
     1
102
RTVSPost2010Prop56
140
1.0
102
RTVSPost2010PropOp56
 70
     1
102
RTVSPost2010Prop57
140
1.0
102
RTVSPost2010PropOp57
 70
     1
102
RTVSPropertyOp0
 70
     1
102
RTVSPropertyOp1
 70
     1
102
RTVSPropertyOp2
 70
     1
102
RTVSPropertyOp3
 70
     1
102
RTVSPropertyOp4
 70
     1
102
RTVSPropertyOp5
 70
     1
102
RTVSPropertyOp6
 70
     1
102
RTVSPropertyOp7
 70
     1
102
RTVSPropertyOp8
 70
     1
102
RTVSPropertyOp9
 70
     1
102
RTVSPropertyOp10
 70
     1
102
RTVSPropertyOp11
 70
     1
102
RTVSPropertyOp12
 70
     1
102
RTVSPropertyOp13
 70
     1
102
RTVSPropertyOp14
 70
     1
102
RTVSPropertyOp15
 70
     1
102
RTVSPropertyOp16
 70
     1
102
RTVSPropertyOp17
 70
     1
102
RTVSPropertyOp18
 70
     1
102
RTVSPropertyOp19
 70
     1
102
RTVSPropertyOp20
 70
     1
102
RTVSPropertyOp21
 70
     1
102
RTVSPropertyOp22
 70
     1
102
RTVSPropertyOp23
 70
     1
102
RTVSPropertyOp24
 70
     1
102
RTVSPropertyOp25
 70
     1
102
RTVSPropertyOp26
 70
     1
102
RTVSPropertyOp27
 70
     1
102
RTVSPropertyOp28
 70
     1
102
RTVSPropertyOp29
 70
     1
102
RTVSPropertyOp30
 70
     1
102
RTVSPropertyOp31
 70
     1
102
RTVSPropertyOp32
 70
     1
102
RTVSPropertyOp33
 70
     1
102
RTVSPropertyOp34
 70
     1
102
RTVSPropertyOp35
 70
     1
102
RTVSPropertyOp36
 70
     1
102
RTVSPropertyOp37
 70
     1
102
RTVSPropertyOp38
 70
     1
102
RTVSPropertyOp39
 70
     1
102
RTVSPropertyOp40
 70
     1
102
RTVSPropertyOp41
 70
     1
102
RTVSPropertyOp42
 70
     1
102
RTVSPropertyOp43
 70
     1
102
RTVSPropertyOp44
 70
     1
102
RTVSPropertyOp45
 70
     1
102
RTVSPropertyOp46
 70
     1
102
RTVSPropertyOp47
 70
     1
102
RTVSPropertyOp48
 70
     1
102
RTVSPropertyOp49
 70
     1
102
RTVSPropertyOp50
 70
     1
102
RTVSPropertyOp51
 70
     0
102
RTVSPropertyOp52
 70
     0
102
RTVSPropertyOp53
 70
     1
102
RTVSPropertyOp54
 70
     1
102
RTVSPropertyOp55
 70
     1
102
RTVSPropertyOp56
 70
     1
102
RTVSPropertyOp57
 70
     1
102
RTVSPropertyOp58
 70
     1
102
RTVSPropertyOp59
 70
     1
102
RTVSPropertyOp60
 70
     1
102
RTVSPropertyOp61
 70
     1
102
RTVSPropertyOp62
 70
     1
  0
XRECORD
  5
369
102
{ACAD_REACTORS
330
368
102
}
330
368
100
AcDbXrecord
280
     1
102
RTVSPost2010Prop28
280
     0
102
RTVSPost2010PropOp28
 70
     1
102
RTVSPost2010Prop29
280
     1
102
RTVSPost2010PropOp29
 70
     1
102
RTVSPost2010Prop30
280
     1
102
RTVSPost2010PropOp30
 70
     1
102
RTVSPost2010Prop31
280
     0
102
RTVSPost2010PropOp31
 70
     1
102
RTVSPost2010Prop32
280
     0
102
RTVSPost2010PropOp32
 70
     1
102
RTVSPost2010Prop33
280
     0
102
RTVSPost2010PropOp33
 70
     1
102
RTVSPost2010Prop34
280
     0
102
RTVSPost2010PropOp34
 70
     1
102
RTVSPost2010Prop35
280
     0
102
RTVSPost2010PropOp35
 70
     1
102
RTVSPost2010Prop36
280
     0
102
RTVSPost2010PropOp36
 70
     1
102
RTVSPost2010Prop37
 90
       50
102
RTVSPost2010PropOp37
 70
     1
102
RTVSPost2010Prop38
140
0.0
102
RTVSPost2010PropOp38
 70
     1
102
RTVSPost2010Prop39
140
1.0
102
RTVSPost2010PropOp39
 70
     1
102
RTVSPost2010Prop40
 90
        0
102
RTVSPost2010PropOp40
 70
     1
102
RTVSPost2010Prop41ColorIndex
 90
       18
102
RTVSPost2010Prop41ColorRGB
 90
        0
102
RTVSPost2010PropOp41
 70
     1
102
RTVSPost2010Prop42
 90
       50
102
RTVSPost2010PropOp42
 70
     1
102
RTVSPost2010Prop43
 90
        3
102
RTVSPost2010PropOp43
 70
     1
102
RTVSPost2010Prop44ColorIndex
 90
        5
102
RTVSPost2010Prop44ColorRGB
 90
      255
102
RTVSPost2010PropOp44
 70
     1
102
RTVSPost2010Prop45
280
     0
102
RTVSPost2010PropOp45
 70
     1
102
RTVSPost2010Prop46
 90
       50
102
RTVSPost2010PropOp46
 70
     1
102
RTVSPost2010Prop47
 90
       50
102
RTVSPost2010PropOp47
 70
     1
102
RTVSPost2010Prop48
 90
       50
102
RTVSPost2010PropOp48
 70
     1
102
RTVSPost2010Prop49
280
     0
102
RTVSPost2010PropOp49
 70
     1
102
RTVSPost2010Prop50
 90
       50
102
RTVSPost2010PropOp50
 70
     1
102
RTVSPost2010Prop51ColorIndex
 90
      256
102
RTVSPost2010Prop51ColorRGB
 90
-16777216
102
RTVSPost2010PropOp51
 70
     0
102
RTVSPost2010Prop52
140
1.0
102
RTVSPost2010PropOp52
 70
     0
102
RTVSPost2010Prop53
 90
        2
102
RTVSPost2010PropOp53
 70
     1
102
RTVSPost2010Prop54
  1
strokes_ogs.tif
102
RTVSPost2010PropOp54
 70
     1
102
RTVSPost2010Prop55
280
     0
102
RTVSPost2010PropOp55
 70
     1
102
RTVSPost2010Prop56
140
1.0
102
RTVSPost2010PropOp56
 70
     1
102
RTVSPost2010Prop57
140
1.0
102
RTVSPost2010PropOp57
 70
     1
102
RTVSPropertyOp0
 70
     1
102
RTVSPropertyOp1
 70
     1
102
RTVSPropertyOp2
 70
     1
102
RTVSPropertyOp3
 70
     1
102
RTVSPropertyOp4
 70
     1
102
RTVSPropertyOp5
 70
     1
102
RTVSPropertyOp6
 70
     1
102
RTVSPropertyOp7
 70
     1
102
RTVSPropertyOp8
 70
     1
102
RTVSPropertyOp9
 70
     1
102
RTVSPropertyOp10
 70
     1
102
RTVSPropertyOp11
 70
     1
102
RTVSPropertyOp12
 70
     1
102
RTVSPropertyOp13
 70
     1
102
RTVSPropertyOp14
 70
     1
102
RTVSPropertyOp15
 70
     1
102
RTVSPropertyOp16
 70
     1
102
RTVSPropertyOp17
 70
     1
102
RTVSPropertyOp18
 70
     1
102
RTVSPropertyOp19
 70
     1
102
RTVSPropertyOp20
 70
     1
102
RTVSPropertyOp21
 70
     1
102
RTVSPropertyOp22
 70
     1
102
RTVSPropertyOp23
 70
     1
102
RTVSPropertyOp24
 70
     1
102
RTVSPropertyOp25
 70
     1
102
RTVSPropertyOp26
 70
     1
102
RTVSPropertyOp27
 70
     1
102
RTVSPropertyOp28
 70
     1
102
RTVSPropertyOp29
 70
     1
102
RTVSPropertyOp30
 70
     1
102
RTVSPropertyOp31
 70
     1
102
RTVSPropertyOp32
 70
     1
102
RTVSPropertyOp33
 70
     1
102
RTVSPropertyOp34
 70
     1
102
RTVSPropertyOp35
 70
     1
102
RTVSPropertyOp36
 70
     1
102
RTVSPropertyOp37
 70
     1
102
RTVSPropertyOp38
 70
     1
102
RTVSPropertyOp39
 70
     1
102
RTVSPropertyOp40
 70
     1
102
RTVSPropertyOp41
 70
     1
102
RTVSPropertyOp42
 70
     1
102
RTVSPropertyOp43
 70
     1
102
RTVSPropertyOp44
 70
     1
102
RTVSPropertyOp45
 70
     1
102
RTVSPropertyOp46
 70
     1
102
RTVSPropertyOp47
 70
     1
102
RTVSPropertyOp48
 70
     1
102
RTVSPropertyOp49
 70
     1
102
RTVSPropertyOp50
 70
     1
102
RTVSPropertyOp51
 70
     0
102
RTVSPropertyOp52
 70
     0
102
RTVSPropertyOp53
 70
     1
102
RTVSPropertyOp54
 70
     1
102
RTVSPropertyOp55
 70
     1
102
RTVSPropertyOp56
 70
     1
102
RTVSPropertyOp57
 70
     1
102
RTVSPropertyOp58
 70
     1
102
RTVSPropertyOp59
 70
     1
102
RTVSPropertyOp60
 70
     1
102
RTVSPropertyOp61
 70
     1
102
RTVSPropertyOp62
 70
     1
  0
XRECORD
  5
36B
102
{ACAD_REACTORS
330
36A
102
}
330
36A
100
AcDbXrecord
280
     1
102
RTVSPost2010Prop28
280
     0
102
RTVSPost2010PropOp28
 70
     1
102
RTVSPost2010Prop29
280
     1
102
RTVSPost2010PropOp29
 70
     1
102
RTVSPost2010Prop30
280
     1
102
RTVSPost2010PropOp30
 70
     1
102
RTVSPost2010Prop31
280
     0
102
RTVSPost2010PropOp31
 70
     1
102
RTVSPost2010Prop32
280
     0
102
RTVSPost2010PropOp32
 70
     1
102
RTVSPost2010Prop33
280
     0
102
RTVSPost2010PropOp33
 70
     1
102
RTVSPost2010Prop34
280
     0
102
RTVSPost2010PropOp34
 70
     1
102
RTVSPost2010Prop35
280
     0
102
RTVSPost2010PropOp35
 70
     1
102
RTVSPost2010Prop36
280
     0
102
RTVSPost2010PropOp36
 70
     1
102
RTVSPost2010Prop37
 90
       50
102
RTVSPost2010PropOp37
 70
     1
102
RTVSPost2010Prop38
140
0.0
102
RTVSPost2010PropOp38
 70
     1
102
RTVSPost2010Prop39
140
1.0
102
RTVSPost2010PropOp39
 70
     1
102
RTVSPost2010Prop40
 90
        0
102
RTVSPost2010PropOp40
 70
     1
102
RTVSPost2010Prop41ColorIndex
 90
       18
102
RTVSPost2010Prop41ColorRGB
 90
        0
102
RTVSPost2010PropOp41
 70
     1
102
RTVSPost2010Prop42
 90
       50
102
RTVSPost2010PropOp42
 70
     1
102
RTVSPost2010Prop43
 90
        3
102
RTVSPost2010PropOp43
 70
     1
102
RTVSPost2010Prop44ColorIndex
 90
        5
102
RTVSPost2010Prop44ColorRGB
 90
      255
102
RTVSPost2010PropOp44
 70
     1
102
RTVSPost2010Prop45
280
     0
102
RTVSPost2010PropOp45
 70
     1
102
RTVSPost2010Prop46
 90
       50
102
RTVSPost2010PropOp46
 70
     1
102
RTVSPost2010Prop47
 90
       50
102
RTVSPost2010PropOp47
 70
     1
102
RTVSPost2010Prop48
 90
       50
102
RTVSPost2010PropOp48
 70
     1
102
RTVSPost2010Prop49
280
     0
102
RTVSPost2010PropOp49
 70
     1
102
RTVSPost2010Prop50
 90
       50
102
RTVSPost2010PropOp50
 70
     1
102
RTVSPost2010Prop51ColorIndex
 90
      256
102
RTVSPost2010Prop51ColorRGB
 90
-16777216
102
RTVSPost2010PropOp51
 70
     0
102
RTVSPost2010Prop52
140
1.0
102
RTVSPost2010PropOp52
 70
     0
102
RTVSPost2010Prop53
 90
        2
102
RTVSPost2010PropOp53
 70
     1
102
RTVSPost2010Prop54
  1
strokes_ogs.tif
102
RTVSPost2010PropOp54
 70
     1
102
RTVSPost2010Prop55
280
     0
102
RTVSPost2010PropOp55
 70
     1
102
RTVSPost2010Prop56
140
1.0
102
RTVSPost2010PropOp56
 70
     1
102
RTVSPost2010Prop57
140
1.0
102
RTVSPost2010PropOp57
 70
     1
102
RTVSPropertyOp0
 70
     1
102
RTVSPropertyOp1
 70
     1
102
RTVSPropertyOp2
 70
     1
102
RTVSPropertyOp3
 70
     1
102
RTVSPropertyOp4
 70
     1
102
RTVSPropertyOp5
 70
     1
102
RTVSPropertyOp6
 70
     1
102
RTVSPropertyOp7
 70
     1
102
RTVSPropertyOp8
 70
     1
102
RTVSPropertyOp9
 70
     1
102
RTVSPropertyOp10
 70
     1
102
RTVSPropertyOp11
 70
     1
102
RTVSPropertyOp12
 70
     1
102
RTVSPropertyOp13
 70
     1
102
RTVSPropertyOp14
 70
     1
102
RTVSPropertyOp15
 70
     1
102
RTVSPropertyOp16
 70
     1
102
RTVSPropertyOp17
 70
     1
102
RTVSPropertyOp18
 70
     1
102
RTVSPropertyOp19
 70
     1
102
RTVSPropertyOp20
 70
     1
102
RTVSPropertyOp21
 70
     1
102
RTVSPropertyOp22
 70
     1
102
RTVSPropertyOp23
 70
     1
102
RTVSPropertyOp24
 70
     1
102
RTVSPropertyOp25
 70
     1
102
RTVSPropertyOp26
 70
     1
102
RTVSPropertyOp27
 70
     1
102
RTVSPropertyOp28
 70
     1
102
RTVSPropertyOp29
 70
     1
102
RTVSPropertyOp30
 70
     1
102
RTVSPropertyOp31
 70
     1
102
RTVSPropertyOp32
 70
     1
102
RTVSPropertyOp33
 70
     1
102
RTVSPropertyOp34
 70
     1
102
RTVSPropertyOp35
 70
     1
102
RTVSPropertyOp36
 70
     1
102
RTVSPropertyOp37
 70
     1
102
RTVSPropertyOp38
 70
     1
102
RTVSPropertyOp39
 70
     1
102
RTVSPropertyOp40
 70
     1
102
RTVSPropertyOp41
 70
     1
102
RTVSPropertyOp42
 70
     1
102
RTVSPropertyOp43
 70
     1
102
RTVSPropertyOp44
 70
     1
102
RTVSPropertyOp45
 70
     1
102
RTVSPropertyOp46
 70
     1
102
RTVSPropertyOp47
 70
     1
102
RTVSPropertyOp48
 70
     1
102
RTVSPropertyOp49
 70
     1
102
RTVSPropertyOp50
 70
     1
102
RTVSPropertyOp51
 70
     0
102
RTVSPropertyOp52
 70
     0
102
RTVSPropertyOp53
 70
     1
102
RTVSPropertyOp54
 70
     1
102
RTVSPropertyOp55
 70
     1
102
RTVSPropertyOp56
 70
     1
102
RTVSPropertyOp57
 70
     1
102
RTVSPropertyOp58
 70
     1
102
RTVSPropertyOp59
 70
     1
102
RTVSPropertyOp60
 70
     1
102
RTVSPropertyOp61
 70
     1
102
RTVSPropertyOp62
 70
     1
  0
XRECORD
  5
37B
102
{ACAD_REACTORS
330
37A
102
}
330
37A
100
AcDbXrecord
280
     1
102
RTVSPost2010Prop28
280
     0
102
RTVSPost2010PropOp28
 70
     0
102
RTVSPost2010Prop29
280
     1
102
RTVSPost2010PropOp29
 70
     0
102
RTVSPost2010Prop30
280
     1
102
RTVSPost2010PropOp30
 70
     0
102
RTVSPost2010Prop31
280
     0
102
RTVSPost2010PropOp31
 70
     0
102
RTVSPost2010Prop32
280
     0
102
RTVSPost2010PropOp32
 70
     0
102
RTVSPost2010Prop33
280
     0
102
RTVSPost2010PropOp33
 70
     0
102
RTVSPost2010Prop34
280
     0
102
RTVSPost2010PropOp34
 70
     0
102
RTVSPost2010Prop35
280
     0
102
RTVSPost2010PropOp35
 70
     0
102
RTVSPost2010Prop36
280
     0
102
RTVSPost2010PropOp36
 70
     0
102
RTVSPost2010Prop37
 90
       50
102
RTVSPost2010PropOp37
 70
     0
102
RTVSPost2010Prop38
140
0.0
102
RTVSPost2010PropOp38
 70
     0
102
RTVSPost2010Prop39
140
1.0
102
RTVSPost2010PropOp39
 70
     0
102
RTVSPost2010Prop40
 90
        0
102
RTVSPost2010PropOp40
 70
     0
102
RTVSPost2010Prop41ColorIndex
 90
       18
102
RTVSPost2010Prop41ColorRGB
 90
        0
102
RTVSPost2010PropOp41
 70
     0
102
RTVSPost2010Prop42
 90
       50
102
RTVSPost2010PropOp42
 70
     0
102
RTVSPost2010Prop43
 90
        3
102
RTVSPost2010PropOp43
 70
     0
102
RTVSPost2010Prop44ColorIndex
 90
        5
102
RTVSPost2010Prop44ColorRGB
 90
      255
102
RTVSPost2010PropOp44
 70
     0
102
RTVSPost2010Prop45
280
     0
102
RTVSPost2010PropOp45
 70
     0
102
RTVSPost2010Prop46
 90
       50
102
RTVSPost2010PropOp46
 70
     0
102
RTVSPost2010Prop47
 90
       50
102
RTVSPost2010PropOp47
 70
     0
102
RTVSPost2010Prop48
 90
       50
102
RTVSPost2010PropOp48
 70
     0
102
RTVSPost2010Prop49
280
     0
102
RTVSPost2010PropOp49
 70
     0
102
RTVSPost2010Prop50
 90
       50
102
RTVSPost2010PropOp50
 70
     0
102
RTVSPost2010Prop51ColorIndex
 90
      256
102
RTVSPost2010Prop51ColorRGB
 90
-16777216
102
RTVSPost2010PropOp51
 70
     0
102
RTVSPost2010Prop52
140
1.0
102
RTVSPost2010PropOp52
 70
     0
102
RTVSPost2010Prop53
 90
        2
102
RTVSPost2010PropOp53
 70
     0
102
RTVSPost2010Prop54
  1
strokes_ogs.tif
102
RTVSPost2010PropOp54
 70
     0
102
RTVSPost2010Prop55
280
     0
102
RTVSPost2010PropOp55
 70
     0
102
RTVSPost2010Prop56
140
1.0
102
RTVSPost2010PropOp56
 70
     0
102
RTVSPost2010Prop57
140
1.0
102
RTVSPost2010PropOp57
 70
     0
102
RTVSPropertyOp0
 70
     0
102
RTVSPropertyOp1
 70
     0
102
RTVSPropertyOp2
 70
     0
102
RTVSPropertyOp3
 70
     0
102
RTVSPropertyOp4
 70
     0
102
RTVSPropertyOp5
 70
     0
102
RTVSPropertyOp6
 70
     0
102
RTVSPropertyOp7
 70
     0
102
RTVSPropertyOp8
 70
     0
102
RTVSPropertyOp9
 70
     0
102
RTVSPropertyOp10
 70
     0
102
RTVSPropertyOp11
 70
     0
102
RTVSPropertyOp12
 70
     0
102
RTVSPropertyOp13
 70
     0
102
RTVSPropertyOp14
 70
     2
102
RTVSPropertyOp15
 70
     0
102
RTVSPropertyOp16
 70
     0
102
RTVSPropertyOp17
 70
     0
102
RTVSPropertyOp18
 70
     0
102
RTVSPropertyOp19
 70
     0
102
RTVSPropertyOp20
 70
     0
102
RTVSPropertyOp21
 70
     0
102
RTVSPropertyOp22
 70
     0
102
RTVSPropertyOp23
 70
     0
102
RTVSPropertyOp24
 70
     0
102
RTVSPropertyOp25
 70
     0
102
RTVSPropertyOp26
 70
     0
102
RTVSPropertyOp27
 70
     0
102
RTVSPropertyOp28
 70
     0
102
RTVSPropertyOp29
 70
     0
102
RTVSPropertyOp30
 70
     0
102
RTVSPropertyOp31
 70
     0
102
RTVSPropertyOp32
 70
     0
102
RTVSPropertyOp33
 70
     0
102
RTVSPropertyOp34
 70
     0
102
RTVSPropertyOp35
 70
     0
102
RTVSPropertyOp36
 70
     0
102
RTVSPropertyOp37
 70
     0
102
RTVSPropertyOp38
 70
     0
102
RTVSPropertyOp39
 70
     0
102
RTVSPropertyOp40
 70
     0
102
RTVSPropertyOp41
 70
     0
102
RTVSPropertyOp42
 70
     0
102
RTVSPropertyOp43
 70
     0
102
RTVSPropertyOp44
 70
     0
102
RTVSPropertyOp45
 70
     0
102
RTVSPropertyOp46
 70
     0
102
RTVSPropertyOp47
 70
     0
102
RTVSPropertyOp48
 70
     0
102
RTVSPropertyOp49
 70
     0
102
RTVSPropertyOp50
 70
     0
102
RTVSPropertyOp51
 70
     0
102
RTVSPropertyOp52
 70
     0
102
RTVSPropertyOp53
 70
     0
102
RTVSPropertyOp54
 70
     0
102
RTVSPropertyOp55
 70
     0
102
RTVSPropertyOp56
 70
     0
102
RTVSPropertyOp57
 70
     0
102
RTVSPropertyOp58
 70
     1
102
RTVSPropertyOp59
 70
     1
102
RTVSPropertyOp60
 70
     1
102
RTVSPropertyOp61
 70
     1
102
RTVSPropertyOp62
 70
     1
  0
XRECORD
  5
373
102
{ACAD_REACTORS
330
372
102
}
330
372
100
AcDbXrecord
280
     1
102
RTVSPost2010Prop28
280
     0
102
RTVSPost2010PropOp28
 70
     1
102
RTVSPost2010Prop29
280
     1
102
RTVSPost2010PropOp29
 70
     1
102
RTVSPost2010Prop30
280
     1
102
RTVSPost2010PropOp30
 70
     1
102
RTVSPost2010Prop31
280
     0
102
RTVSPost2010PropOp31
 70
     1
102
RTVSPost2010Prop32
280
     0
102
RTVSPost2010PropOp32
 70
     1
102
RTVSPost2010Prop33
280
     0
102
RTVSPost2010PropOp33
 70
     1
102
RTVSPost2010Prop34
280
     0
102
RTVSPost2010PropOp34
 70
     1
102
RTVSPost2010Prop35
280
     0
102
RTVSPost2010PropOp35
 70
     1
102
RTVSPost2010Prop36
280
     0
102
RTVSPost2010PropOp36
 70
     1
102
RTVSPost2010Prop37
 90
       50
102
RTVSPost2010PropOp37
 70
     1
102
RTVSPost2010Prop38
140
0.0
102
RTVSPost2010PropOp38
 70
     1
102
RTVSPost2010Prop39
140
1.0
102
RTVSPost2010PropOp39
 70
     1
102
RTVSPost2010Prop40
 90
        0
102
RTVSPost2010PropOp40
 70
     1
102
RTVSPost2010Prop41ColorIndex
 90
       18
102
RTVSPost2010Prop41ColorRGB
 90
        0
102
RTVSPost2010PropOp41
 70
     1
102
RTVSPost2010Prop42
 90
       50
102
RTVSPost2010PropOp42
 70
     1
102
RTVSPost2010Prop43
 90
        3
102
RTVSPost2010PropOp43
 70
     1
102
RTVSPost2010Prop44ColorIndex
 90
        5
102
RTVSPost2010Prop44ColorRGB
 90
      255
102
RTVSPost2010PropOp44
 70
     1
102
RTVSPost2010Prop45
280
     0
102
RTVSPost2010PropOp45
 70
     1
102
RTVSPost2010Prop46
 90
       50
102
RTVSPost2010PropOp46
 70
     1
102
RTVSPost2010Prop47
 90
       50
102
RTVSPost2010PropOp47
 70
     1
102
RTVSPost2010Prop48
 90
       50
102
RTVSPost2010PropOp48
 70
     1
102
RTVSPost2010Prop49
280
     0
102
RTVSPost2010PropOp49
 70
     1
102
RTVSPost2010Prop50
 90
       50
102
RTVSPost2010PropOp50
 70
     1
102
RTVSPost2010Prop51ColorIndex
 90
      256
102
RTVSPost2010Prop51ColorRGB
 90
-16777216
102
RTVSPost2010PropOp51
 70
     0
102
RTVSPost2010Prop52
140
1.0
102
RTVSPost2010PropOp52
 70
     0
102
RTVSPost2010Prop53
 90
        2
102
RTVSPost2010PropOp53
 70
     1
102
RTVSPost2010Prop54
  1
strokes_ogs.tif
102
RTVSPost2010PropOp54
 70
     1
102
RTVSPost2010Prop55
280
     0
102
RTVSPost2010PropOp55
 70
     1
102
RTVSPost2010Prop56
140
1.0
102
RTVSPost2010PropOp56
 70
     1
102
RTVSPost2010Prop57
140
1.0
102
RTVSPost2010PropOp57
 70
     1
102
RTVSPropertyOp0
 70
     1
102
RTVSPropertyOp1
 70
     1
102
RTVSPropertyOp2
 70
     1
102
RTVSPropertyOp3
 70
     1
102
RTVSPropertyOp4
 70
     1
102
RTVSPropertyOp5
 70
     1
102
RTVSPropertyOp6
 70
     1
102
RTVSPropertyOp7
 70
     1
102
RTVSPropertyOp8
 70
     1
102
RTVSPropertyOp9
 70
     1
102
RTVSPropertyOp10
 70
     1
102
RTVSPropertyOp11
 70
     1
102
RTVSPropertyOp12
 70
     1
102
RTVSPropertyOp13
 70
     1
102
RTVSPropertyOp14
 70
     1
102
RTVSPropertyOp15
 70
     1
102
RTVSPropertyOp16
 70
     1
102
RTVSPropertyOp17
 70
     1
102
RTVSPropertyOp18
 70
     1
102
RTVSPropertyOp19
 70
     1
102
RTVSPropertyOp20
 70
     1
102
RTVSPropertyOp21
 70
     1
102
RTVSPropertyOp22
 70
     1
102
RTVSPropertyOp23
 70
     1
102
RTVSPropertyOp24
 70
     1
102
RTVSPropertyOp25
 70
     1
102
RTVSPropertyOp26
 70
     1
102
RTVSPropertyOp27
 70
     1
102
RTVSPropertyOp28
 70
     1
102
RTVSPropertyOp29
 70
     1
102
RTVSPropertyOp30
 70
     1
102
RTVSPropertyOp31
 70
     1
102
RTVSPropertyOp32
 70
     1
102
RTVSPropertyOp33
 70
     1
102
RTVSPropertyOp34
 70
     1
102
RTVSPropertyOp35
 70
     1
102
RTVSPropertyOp36
 70
     1
102
RTVSPropertyOp37
 70
     1
102
RTVSPropertyOp38
 70
     1
102
RTVSPropertyOp39
 70
     1
102
RTVSPropertyOp40
 70
     1
102
RTVSPropertyOp41
 70
     1
102
RTVSPropertyOp42
 70
     1
102
RTVSPropertyOp43
 70
     1
102
RTVSPropertyOp44
 70
     1
102
RTVSPropertyOp45
 70
     1
102
RTVSPropertyOp46
 70
     1
102
RTVSPropertyOp47
 70
     1
102
RTVSPropertyOp48
 70
     1
102
RTVSPropertyOp49
 70
     1
102
RTVSPropertyOp50
 70
     1
102
RTVSPropertyOp51
 70
     0
102
RTVSPropertyOp52
 70
     0
102
RTVSPropertyOp53
 70
     1
102
RTVSPropertyOp54
 70
     1
102
RTVSPropertyOp55
 70
     1
102
RTVSPropertyOp56
 70
     1
102
RTVSPropertyOp57
 70
     1
102
RTVSPropertyOp58
 70
     1
102
RTVSPropertyOp59
 70
     1
102
RTVSPropertyOp60
 70
     1
102
RTVSPropertyOp61
 70
     1
102
RTVSPropertyOp62
 70
     1
  0
XRECORD
  5
357
102
{ACAD_REACTORS
330
356
102
}
330
356
100
AcDbXrecord
280
     1
102
RTVSPost2010Prop28
280
     0
102
RTVSPost2010PropOp28
 70
     1
102
RTVSPost2010Prop29
280
     1
102
RTVSPost2010PropOp29
 70
     1
102
RTVSPost2010Prop30
280
     1
102
RTVSPost2010PropOp30
 70
     1
102
RTVSPost2010Prop31
280
     0
102
RTVSPost2010PropOp31
 70
     1
102
RTVSPost2010Prop32
280
     0
102
RTVSPost2010PropOp32
 70
     1
102
RTVSPost2010Prop33
280
     0
102
RTVSPost2010PropOp33
 70
     1
102
RTVSPost2010Prop34
280
     0
102
RTVSPost2010PropOp34
 70
     1
102
RTVSPost2010Prop35
280
     0
102
RTVSPost2010PropOp35
 70
     1
102
RTVSPost2010Prop36
280
     0
102
RTVSPost2010PropOp36
 70
     1
102
RTVSPost2010Prop37
 90
       50
102
RTVSPost2010PropOp37
 70
     1
102
RTVSPost2010Prop38
140
0.0
102
RTVSPost2010PropOp38
 70
     1
102
RTVSPost2010Prop39
140
1.0
102
RTVSPost2010PropOp39
 70
     1
102
RTVSPost2010Prop40
 90
        0
102
RTVSPost2010PropOp40
 70
     1
102
RTVSPost2010Prop41ColorIndex
 90
       18
102
RTVSPost2010Prop41ColorRGB
 90
        0
102
RTVSPost2010PropOp41
 70
     1
102
RTVSPost2010Prop42
 90
       50
102
RTVSPost2010PropOp42
 70
     1
102
RTVSPost2010Prop43
 90
        3
102
RTVSPost2010PropOp43
 70
     1
102
RTVSPost2010Prop44ColorIndex
 90
        5
102
RTVSPost2010Prop44ColorRGB
 90
      255
102
RTVSPost2010PropOp44
 70
     1
102
RTVSPost2010Prop45
280
     0
102
RTVSPost2010PropOp45
 70
     1
102
RTVSPost2010Prop46
 90
       50
102
RTVSPost2010PropOp46
 70
     1
102
RTVSPost2010Prop47
 90
       50
102
RTVSPost2010PropOp47
 70
     1
102
RTVSPost2010Prop48
 90
       50
102
RTVSPost2010PropOp48
 70
     1
102
RTVSPost2010Prop49
280
     0
102
RTVSPost2010PropOp49
 70
     1
102
RTVSPost2010Prop50
 90
       50
102
RTVSPost2010PropOp50
 70
     1
102
RTVSPost2010Prop51ColorIndex
 90
      256
102
RTVSPost2010Prop51ColorRGB
 90
-16777216
102
RTVSPost2010PropOp51
 70
     0
102
RTVSPost2010Prop52
140
1.0
102
RTVSPost2010PropOp52
 70
     0
102
RTVSPost2010Prop53
 90
        2
102
RTVSPost2010PropOp53
 70
     1
102
RTVSPost2010Prop54
  1
strokes_ogs.tif
102
RTVSPost2010PropOp54
 70
     1
102
RTVSPost2010Prop55
280
     0
102
RTVSPost2010PropOp55
 70
     1
102
RTVSPost2010Prop56
140
1.0
102
RTVSPost2010PropOp56
 70
     1
102
RTVSPost2010Prop57
140
1.0
102
RTVSPost2010PropOp57
 70
     1
102
RTVSPropertyOp0
 70
     1
102
RTVSPropertyOp1
 70
     1
102
RTVSPropertyOp2
 70
     1
102
RTVSPropertyOp3
 70
     1
102
RTVSPropertyOp4
 70
     1
102
RTVSPropertyOp5
 70
     1
102
RTVSPropertyOp6
 70
     1
102
RTVSPropertyOp7
 70
     1
102
RTVSPropertyOp8
 70
     1
102
RTVSPropertyOp9
 70
     1
102
RTVSPropertyOp10
 70
     1
102
RTVSPropertyOp11
 70
     1
102
RTVSPropertyOp12
 70
     1
102
RTVSPropertyOp13
 70
     1
102
RTVSPropertyOp14
 70
     1
102
RTVSPropertyOp15
 70
     1
102
RTVSPropertyOp16
 70
     1
102
RTVSPropertyOp17
 70
     1
102
RTVSPropertyOp18
 70
     1
102
RTVSPropertyOp19
 70
     1
102
RTVSPropertyOp20
 70
     1
102
RTVSPropertyOp21
 70
     1
102
RTVSPropertyOp22
 70
     1
102
RTVSPropertyOp23
 70
     1
102
RTVSPropertyOp24
 70
     1
102
RTVSPropertyOp25
 70
     1
102
RTVSPropertyOp26
 70
     1
102
RTVSPropertyOp27
 70
     1
102
RTVSPropertyOp28
 70
     1
102
RTVSPropertyOp29
 70
     1
102
RTVSPropertyOp30
 70
     1
102
RTVSPropertyOp31
 70
     1
102
RTVSPropertyOp32
 70
     1
102
RTVSPropertyOp33
 70
     1
102
RTVSPropertyOp34
 70
     1
102
RTVSPropertyOp35
 70
     1
102
RTVSPropertyOp36
 70
     1
102
RTVSPropertyOp37
 70
     1
102
RTVSPropertyOp38
 70
     1
102
RTVSPropertyOp39
 70
     1
102
RTVSPropertyOp40
 70
     1
102
RTVSPropertyOp41
 70
     1
102
RTVSPropertyOp42
 70
     1
102
RTVSPropertyOp43
 70
     1
102
RTVSPropertyOp44
 70
     1
102
RTVSPropertyOp45
 70
     1
102
RTVSPropertyOp46
 70
     1
102
RTVSPropertyOp47
 70
     1
102
RTVSPropertyOp48
 70
     1
102
RTVSPropertyOp49
 70
     1
102
RTVSPropertyOp50
 70
     1
102
RTVSPropertyOp51
 70
     0
102
RTVSPropertyOp52
 70
     0
102
RTVSPropertyOp53
 70
     1
102
RTVSPropertyOp54
 70
     1
102
RTVSPropertyOp55
 70
     1
102
RTVSPropertyOp56
 70
     1
102
RTVSPropertyOp57
 70
     1
102
RTVSPropertyOp58
 70
     1
102
RTVSPropertyOp59
 70
     1
102
RTVSPropertyOp60
 70
     1
102
RTVSPropertyOp61
 70
     1
102
RTVSPropertyOp62
 70
     1
  0
XRECORD
  5
359
102
{ACAD_REACTORS
330
358
102
}
330
358
100
AcDbXrecord
280
     1
102
RTVSPost2010Prop28
280
     0
102
RTVSPost2010PropOp28
 70
     1
102
RTVSPost2010Prop29
280
     1
102
RTVSPost2010PropOp29
 70
     1
102
RTVSPost2010Prop30
280
     1
102
RTVSPost2010PropOp30
 70
     1
102
RTVSPost2010Prop31
280
     0
102
RTVSPost2010PropOp31
 70
     1
102
RTVSPost2010Prop32
280
     0
102
RTVSPost2010PropOp32
 70
     1
102
RTVSPost2010Prop33
280
     0
102
RTVSPost2010PropOp33
 70
     1
102
RTVSPost2010Prop34
280
     0
102
RTVSPost2010PropOp34
 70
     1
102
RTVSPost2010Prop35
280
     0
102
RTVSPost2010PropOp35
 70
     1
102
RTVSPost2010Prop36
280
     0
102
RTVSPost2010PropOp36
 70
     1
102
RTVSPost2010Prop37
 90
       50
102
RTVSPost2010PropOp37
 70
     1
102
RTVSPost2010Prop38
140
0.0
102
RTVSPost2010PropOp38
 70
     1
102
RTVSPost2010Prop39
140
1.0
102
RTVSPost2010PropOp39
 70
     1
102
RTVSPost2010Prop40
 90
        0
102
RTVSPost2010PropOp40
 70
     1
102
RTVSPost2010Prop41ColorIndex
 90
       18
102
RTVSPost2010Prop41ColorRGB
 90
        0
102
RTVSPost2010PropOp41
 70
     1
102
RTVSPost2010Prop42
 90
       50
102
RTVSPost2010PropOp42
 70
     1
102
RTVSPost2010Prop43
 90
        3
102
RTVSPost2010PropOp43
 70
     1
102
RTVSPost2010Prop44ColorIndex
 90
        5
102
RTVSPost2010Prop44ColorRGB
 90
      255
102
RTVSPost2010PropOp44
 70
     1
102
RTVSPost2010Prop45
280
     0
102
RTVSPost2010PropOp45
 70
     1
102
RTVSPost2010Prop46
 90
       50
102
RTVSPost2010PropOp46
 70
     1
102
RTVSPost2010Prop47
 90
       50
102
RTVSPost2010PropOp47
 70
     1
102
RTVSPost2010Prop48
 90
       50
102
RTVSPost2010PropOp48
 70
     1
102
RTVSPost2010Prop49
280
     0
102
RTVSPost2010PropOp49
 70
     1
102
RTVSPost2010Prop50
 90
       50
102
RTVSPost2010PropOp50
 70
     1
102
RTVSPost2010Prop51ColorIndex
 90
      256
102
RTVSPost2010Prop51ColorRGB
 90
-16777216
102
RTVSPost2010PropOp51
 70
     0
102
RTVSPost2010Prop52
140
1.0
102
RTVSPost2010PropOp52
 70
     0
102
RTVSPost2010Prop53
 90
        2
102
RTVSPost2010PropOp53
 70
     1
102
RTVSPost2010Prop54
  1
strokes_ogs.tif
102
RTVSPost2010PropOp54
 70
     1
102
RTVSPost2010Prop55
280
     0
102
RTVSPost2010PropOp55
 70
     1
102
RTVSPost2010Prop56
140
1.0
102
RTVSPost2010PropOp56
 70
     1
102
RTVSPost2010Prop57
140
1.0
102
RTVSPost2010PropOp57
 70
     1
102
RTVSPropertyOp0
 70
     1
102
RTVSPropertyOp1
 70
     1
102
RTVSPropertyOp2
 70
     1
102
RTVSPropertyOp3
 70
     1
102
RTVSPropertyOp4
 70
     1
102
RTVSPropertyOp5
 70
     1
102
RTVSPropertyOp6
 70
     1
102
RTVSPropertyOp7
 70
     1
102
RTVSPropertyOp8
 70
     1
102
RTVSPropertyOp9
 70
     1
102
RTVSPropertyOp10
 70
     1
102
RTVSPropertyOp11
 70
     1
102
RTVSPropertyOp12
 70
     1
102
RTVSPropertyOp13
 70
     1
102
RTVSPropertyOp14
 70
     1
102
RTVSPropertyOp15
 70
     1
102
RTVSPropertyOp16
 70
     1
102
RTVSPropertyOp17
 70
     1
102
RTVSPropertyOp18
 70
     1
102
RTVSPropertyOp19
 70
     1
102
RTVSPropertyOp20
 70
     1
102
RTVSPropertyOp21
 70
     1
102
RTVSPropertyOp22
 70
     1
102
RTVSPropertyOp23
 70
     1
102
RTVSPropertyOp24
 70
     1
102
RTVSPropertyOp25
 70
     1
102
RTVSPropertyOp26
 70
     1
102
RTVSPropertyOp27
 70
     1
102
RTVSPropertyOp28
 70
     1
102
RTVSPropertyOp29
 70
     1
102
RTVSPropertyOp30
 70
     1
102
RTVSPropertyOp31
 70
     1
102
RTVSPropertyOp32
 70
     1
102
RTVSPropertyOp33
 70
     1
102
RTVSPropertyOp34
 70
     1
102
RTVSPropertyOp35
 70
     1
102
RTVSPropertyOp36
 70
     1
102
RTVSPropertyOp37
 70
     1
102
RTVSPropertyOp38
 70
     1
102
RTVSPropertyOp39
 70
     1
102
RTVSPropertyOp40
 70
     1
102
RTVSPropertyOp41
 70
     1
102
RTVSPropertyOp42
 70
     1
102
RTVSPropertyOp43
 70
     1
102
RTVSPropertyOp44
 70
     1
102
RTVSPropertyOp45
 70
     1
102
RTVSPropertyOp46
 70
     1
102
RTVSPropertyOp47
 70
     1
102
RTVSPropertyOp48
 70
     1
102
RTVSPropertyOp49
 70
     1
102
RTVSPropertyOp50
 70
     1
102
RTVSPropertyOp51
 70
     0
102
RTVSPropertyOp52
 70
     0
102
RTVSPropertyOp53
 70
     1
102
RTVSPropertyOp54
 70
     1
102
RTVSPropertyOp55
 70
     1
102
RTVSPropertyOp56
 70
     1
102
RTVSPropertyOp57
 70
     1
102
RTVSPropertyOp58
 70
     1
102
RTVSPropertyOp59
 70
     1
102
RTVSPropertyOp60
 70
     1
102
RTVSPropertyOp61
 70
     1
102
RTVSPropertyOp62
 70
     1
  0
XRECORD
  5
35B
102
{ACAD_REACTORS
330
35A
102
}
330
35A
100
AcDbXrecord
280
     1
102
RTVSPost2010Prop28
280
     0
102
RTVSPost2010PropOp28
 70
     1
102
RTVSPost2010Prop29
280
     1
102
RTVSPost2010PropOp29
 70
     1
102
RTVSPost2010Prop30
280
     1
102
RTVSPost2010PropOp30
 70
     1
102
RTVSPost2010Prop31
280
     0
102
RTVSPost2010PropOp31
 70
     1
102
RTVSPost2010Prop32
280
     0
102
RTVSPost2010PropOp32
 70
     1
102
RTVSPost2010Prop33
280
     0
102
RTVSPost2010PropOp33
 70
     1
102
RTVSPost2010Prop34
280
     0
102
RTVSPost2010PropOp34
 70
     1
102
RTVSPost2010Prop35
280
     0
102
RTVSPost2010PropOp35
 70
     1
102
RTVSPost2010Prop36
280
     0
102
RTVSPost2010PropOp36
 70
     1
102
RTVSPost2010Prop37
 90
       50
102
RTVSPost2010PropOp37
 70
     1
102
RTVSPost2010Prop38
140
0.0
102
RTVSPost2010PropOp38
 70
     1
102
RTVSPost2010Prop39
140
1.0
102
RTVSPost2010PropOp39
 70
     1
102
RTVSPost2010Prop40
 90
        0
102
RTVSPost2010PropOp40
 70
     1
102
RTVSPost2010Prop41ColorIndex
 90
       18
102
RTVSPost2010Prop41ColorRGB
 90
        0
102
RTVSPost2010PropOp41
 70
     1
102
RTVSPost2010Prop42
 90
       50
102
RTVSPost2010PropOp42
 70
     1
102
RTVSPost2010Prop43
 90
        3
102
RTVSPost2010PropOp43
 70
     1
102
RTVSPost2010Prop44ColorIndex
 90
        5
102
RTVSPost2010Prop44ColorRGB
 90
      255
102
RTVSPost2010PropOp44
 70
     1
102
RTVSPost2010Prop45
280
     0
102
RTVSPost2010PropOp45
 70
     1
102
RTVSPost2010Prop46
 90
       50
102
RTVSPost2010PropOp46
 70
     1
102
RTVSPost2010Prop47
 90
       50
102
RTVSPost2010PropOp47
 70
     1
102
RTVSPost2010Prop48
 90
       50
102
RTVSPost2010PropOp48
 70
     1
102
RTVSPost2010Prop49
280
     0
102
RTVSPost2010PropOp49
 70
     1
102
RTVSPost2010Prop50
 90
       50
102
RTVSPost2010PropOp50
 70
     1
102
RTVSPost2010Prop51ColorIndex
 90
      256
102
RTVSPost2010Prop51ColorRGB
 90
-16777216
102
RTVSPost2010PropOp51
 70
     0
102
RTVSPost2010Prop52
140
1.0
102
RTVSPost2010PropOp52
 70
     0
102
RTVSPost2010Prop53
 90
        2
102
RTVSPost2010PropOp53
 70
     1
102
RTVSPost2010Prop54
  1
strokes_ogs.tif
102
RTVSPost2010PropOp54
 70
     1
102
RTVSPost2010Prop55
280
     0
102
RTVSPost2010PropOp55
 70
     1
102
RTVSPost2010Prop56
140
1.0
102
RTVSPost2010PropOp56
 70
     1
102
RTVSPost2010Prop57
140
1.0
102
RTVSPost2010PropOp57
 70
     1
102
RTVSPropertyOp0
 70
     1
102
RTVSPropertyOp1
 70
     1
102
RTVSPropertyOp2
 70
     1
102
RTVSPropertyOp3
 70
     1
102
RTVSPropertyOp4
 70
     1
102
RTVSPropertyOp5
 70
     1
102
RTVSPropertyOp6
 70
     1
102
RTVSPropertyOp7
 70
     1
102
RTVSPropertyOp8
 70
     1
102
RTVSPropertyOp9
 70
     1
102
RTVSPropertyOp10
 70
     1
102
RTVSPropertyOp11
 70
     1
102
RTVSPropertyOp12
 70
     1
102
RTVSPropertyOp13
 70
     1
102
RTVSPropertyOp14
 70
     1
102
RTVSPropertyOp15
 70
     1
102
RTVSPropertyOp16
 70
     1
102
RTVSPropertyOp17
 70
     1
102
RTVSPropertyOp18
 70
     1
102
RTVSPropertyOp19
 70
     1
102
RTVSPropertyOp20
 70
     1
102
RTVSPropertyOp21
 70
     1
102
RTVSPropertyOp22
 70
     1
102
RTVSPropertyOp23
 70
     1
102
RTVSPropertyOp24
 70
     1
102
RTVSPropertyOp25
 70
     1
102
RTVSPropertyOp26
 70
     1
102
RTVSPropertyOp27
 70
     1
102
RTVSPropertyOp28
 70
     1
102
RTVSPropertyOp29
 70
     1
102
RTVSPropertyOp30
 70
     1
102
RTVSPropertyOp31
 70
     1
102
RTVSPropertyOp32
 70
     1
102
RTVSPropertyOp33
 70
     1
102
RTVSPropertyOp34
 70
     1
102
RTVSPropertyOp35
 70
     1
102
RTVSPropertyOp36
 70
     1
102
RTVSPropertyOp37
 70
     1
102
RTVSPropertyOp38
 70
     1
102
RTVSPropertyOp39
 70
     1
102
RTVSPropertyOp40
 70
     1
102
RTVSPropertyOp41
 70
     1
102
RTVSPropertyOp42
 70
     1
102
RTVSPropertyOp43
 70
     1
102
RTVSPropertyOp44
 70
     1
102
RTVSPropertyOp45
 70
     1
102
RTVSPropertyOp46
 70
     1
102
RTVSPropertyOp47
 70
     1
102
RTVSPropertyOp48
 70
     1
102
RTVSPropertyOp49
 70
     1
102
RTVSPropertyOp50
 70
     1
102
RTVSPropertyOp51
 70
     0
102
RTVSPropertyOp52
 70
     0
102
RTVSPropertyOp53
 70
     1
102
RTVSPropertyOp54
 70
     1
102
RTVSPropertyOp55
 70
     1
102
RTVSPropertyOp56
 70
     1
102
RTVSPropertyOp57
 70
     1
102
RTVSPropertyOp58
 70
     1
102
RTVSPropertyOp59
 70
     1
102
RTVSPropertyOp60
 70
     1
102
RTVSPropertyOp61
 70
     1
102
RTVSPropertyOp62
 70
     1
  0
XRECORD
  5
35D
102
{ACAD_REACTORS
330
35C
102
}
330
35C
100
AcDbXrecord
280
     1
102
RTVSPost2010Prop28
280
     0
102
RTVSPost2010PropOp28
 70
     1
102
RTVSPost2010Prop29
280
     1
102
RTVSPost2010PropOp29
 70
     1
102
RTVSPost2010Prop30
280
     1
102
RTVSPost2010PropOp30
 70
     1
102
RTVSPost2010Prop31
280
     0
102
RTVSPost2010PropOp31
 70
     1
102
RTVSPost2010Prop32
280
     0
102
RTVSPost2010PropOp32
 70
     1
102
RTVSPost2010Prop33
280
     0
102
RTVSPost2010PropOp33
 70
     1
102
RTVSPost2010Prop34
280
     0
102
RTVSPost2010PropOp34
 70
     1
102
RTVSPost2010Prop35
280
     0
102
RTVSPost2010PropOp35
 70
     1
102
RTVSPost2010Prop36
280
     0
102
RTVSPost2010PropOp36
 70
     1
102
RTVSPost2010Prop37
 90
       50
102
RTVSPost2010PropOp37
 70
     1
102
RTVSPost2010Prop38
140
0.0
102
RTVSPost2010PropOp38
 70
     1
102
RTVSPost2010Prop39
140
1.0
102
RTVSPost2010PropOp39
 70
     1
102
RTVSPost2010Prop40
 90
        0
102
RTVSPost2010PropOp40
 70
     1
102
RTVSPost2010Prop41ColorIndex
 90
       18
102
RTVSPost2010Prop41ColorRGB
 90
        0
102
RTVSPost2010PropOp41
 70
     1
102
RTVSPost2010Prop42
 90
       50
102
RTVSPost2010PropOp42
 70
     1
102
RTVSPost2010Prop43
 90
        3
102
RTVSPost2010PropOp43
 70
     1
102
RTVSPost2010Prop44ColorIndex
 90
        5
102
RTVSPost2010Prop44ColorRGB
 90
      255
102
RTVSPost2010PropOp44
 70
     1
102
RTVSPost2010Prop45
280
     0
102
RTVSPost2010PropOp45
 70
     1
102
RTVSPost2010Prop46
 90
       50
102
RTVSPost2010PropOp46
 70
     1
102
RTVSPost2010Prop47
 90
       50
102
RTVSPost2010PropOp47
 70
     1
102
RTVSPost2010Prop48
 90
       50
102
RTVSPost2010PropOp48
 70
     1
102
RTVSPost2010Prop49
280
     0
102
RTVSPost2010PropOp49
 70
     1
102
RTVSPost2010Prop50
 90
       50
102
RTVSPost2010PropOp50
 70
     1
102
RTVSPost2010Prop51ColorIndex
 90
      256
102
RTVSPost2010Prop51ColorRGB
 90
-16777216
102
RTVSPost2010PropOp51
 70
     0
102
RTVSPost2010Prop52
140
1.0
102
RTVSPost2010PropOp52
 70
     0
102
RTVSPost2010Prop53
 90
        2
102
RTVSPost2010PropOp53
 70
     1
102
RTVSPost2010Prop54
  1
strokes_ogs.tif
102
RTVSPost2010PropOp54
 70
     1
102
RTVSPost2010Prop55
280
     0
102
RTVSPost2010PropOp55
 70
     1
102
RTVSPost2010Prop56
140
1.0
102
RTVSPost2010PropOp56
 70
     1
102
RTVSPost2010Prop57
140
1.0
102
RTVSPost2010PropOp57
 70
     1
102
RTVSPropertyOp0
 70
     1
102
RTVSPropertyOp1
 70
     1
102
RTVSPropertyOp2
 70
     1
102
RTVSPropertyOp3
 70
     1
102
RTVSPropertyOp4
 70
     1
102
RTVSPropertyOp5
 70
     1
102
RTVSPropertyOp6
 70
     1
102
RTVSPropertyOp7
 70
     1
102
RTVSPropertyOp8
 70
     1
102
RTVSPropertyOp9
 70
     1
102
RTVSPropertyOp10
 70
     1
102
RTVSPropertyOp11
 70
     1
102
RTVSPropertyOp12
 70
     1
102
RTVSPropertyOp13
 70
     1
102
RTVSPropertyOp14
 70
     1
102
RTVSPropertyOp15
 70
     1
102
RTVSPropertyOp16
 70
     1
102
RTVSPropertyOp17
 70
     1
102
RTVSPropertyOp18
 70
     1
102
RTVSPropertyOp19
 70
     1
102
RTVSPropertyOp20
 70
     1
102
RTVSPropertyOp21
 70
     1
102
RTVSPropertyOp22
 70
     1
102
RTVSPropertyOp23
 70
     1
102
RTVSPropertyOp24
 70
     1
102
RTVSPropertyOp25
 70
     1
102
RTVSPropertyOp26
 70
     1
102
RTVSPropertyOp27
 70
     1
102
RTVSPropertyOp28
 70
     1
102
RTVSPropertyOp29
 70
     1
102
RTVSPropertyOp30
 70
     1
102
RTVSPropertyOp31
 70
     1
102
RTVSPropertyOp32
 70
     1
102
RTVSPropertyOp33
 70
     1
102
RTVSPropertyOp34
 70
     1
102
RTVSPropertyOp35
 70
     1
102
RTVSPropertyOp36
 70
     1
102
RTVSPropertyOp37
 70
     1
102
RTVSPropertyOp38
 70
     1
102
RTVSPropertyOp39
 70
     1
102
RTVSPropertyOp40
 70
     1
102
RTVSPropertyOp41
 70
     1
102
RTVSPropertyOp42
 70
     1
102
RTVSPropertyOp43
 70
     1
102
RTVSPropertyOp44
 70
     1
102
RTVSPropertyOp45
 70
     1
102
RTVSPropertyOp46
 70
     1
102
RTVSPropertyOp47
 70
     1
102
RTVSPropertyOp48
 70
     1
102
RTVSPropertyOp49
 70
     1
102
RTVSPropertyOp50
 70
     1
102
RTVSPropertyOp51
 70
     0
102
RTVSPropertyOp52
 70
     0
102
RTVSPropertyOp53
 70
     1
102
RTVSPropertyOp54
 70
     1
102
RTVSPropertyOp55
 70
     1
102
RTVSPropertyOp56
 70
     1
102
RTVSPropertyOp57
 70
     1
102
RTVSPropertyOp58
 70
     1
102
RTVSPropertyOp59
 70
     1
102
RTVSPropertyOp60
 70
     1
102
RTVSPropertyOp61
 70
     1
102
RTVSPropertyOp62
 70
     1
  0
XRECORD
  5
363
102
{ACAD_REACTORS
330
362
102
}
330
362
100
AcDbXrecord
280
     1
102
RTVSPost2010Prop28
280
     0
102
RTVSPost2010PropOp28
 70
     1
102
RTVSPost2010Prop29
280
     1
102
RTVSPost2010PropOp29
 70
     1
102
RTVSPost2010Prop30
280
     1
102
RTVSPost2010PropOp30
 70
     1
102
RTVSPost2010Prop31
280
     0
102
RTVSPost2010PropOp31
 70
     1
102
RTVSPost2010Prop32
280
     0
102
RTVSPost2010PropOp32
 70
     1
102
RTVSPost2010Prop33
280
     0
102
RTVSPost2010PropOp33
 70
     1
102
RTVSPost2010Prop34
280
     0
102
RTVSPost2010PropOp34
 70
     1
102
RTVSPost2010Prop35
280
     0
102
RTVSPost2010PropOp35
 70
     1
102
RTVSPost2010Prop36
280
     0
102
RTVSPost2010PropOp36
 70
     1
102
RTVSPost2010Prop37
 90
       50
102
RTVSPost2010PropOp37
 70
     1
102
RTVSPost2010Prop38
140
0.0
102
RTVSPost2010PropOp38
 70
     1
102
RTVSPost2010Prop39
140
1.0
102
RTVSPost2010PropOp39
 70
     1
102
RTVSPost2010Prop40
 90
        0
102
RTVSPost2010PropOp40
 70
     1
102
RTVSPost2010Prop41ColorIndex
 90
       18
102
RTVSPost2010Prop41ColorRGB
 90
        0
102
RTVSPost2010PropOp41
 70
     1
102
RTVSPost2010Prop42
 90
       50
102
RTVSPost2010PropOp42
 70
     1
102
RTVSPost2010Prop43
 90
        3
102
RTVSPost2010PropOp43
 70
     1
102
RTVSPost2010Prop44ColorIndex
 90
        5
102
RTVSPost2010Prop44ColorRGB
 90
      255
102
RTVSPost2010PropOp44
 70
     1
102
RTVSPost2010Prop45
280
     0
102
RTVSPost2010PropOp45
 70
     1
102
RTVSPost2010Prop46
 90
       50
102
RTVSPost2010PropOp46
 70
     1
102
RTVSPost2010Prop47
 90
       50
102
RTVSPost2010PropOp47
 70
     1
102
RTVSPost2010Prop48
 90
       50
102
RTVSPost2010PropOp48
 70
     1
102
RTVSPost2010Prop49
280
     0
102
RTVSPost2010PropOp49
 70
     1
102
RTVSPost2010Prop50
 90
       50
102
RTVSPost2010PropOp50
 70
     1
102
RTVSPost2010Prop51ColorIndex
 90
      256
102
RTVSPost2010Prop51ColorRGB
 90
-16777216
102
RTVSPost2010PropOp51
 70
     0
102
RTVSPost2010Prop52
140
1.0
102
RTVSPost2010PropOp52
 70
     0
102
RTVSPost2010Prop53
 90
        2
102
RTVSPost2010PropOp53
 70
     1
102
RTVSPost2010Prop54
  1
strokes_ogs.tif
102
RTVSPost2010PropOp54
 70
     1
102
RTVSPost2010Prop55
280
     0
102
RTVSPost2010PropOp55
 70
     1
102
RTVSPost2010Prop56
140
1.0
102
RTVSPost2010PropOp56
 70
     1
102
RTVSPost2010Prop57
140
1.0
102
RTVSPost2010PropOp57
 70
     1
102
RTVSPropertyOp0
 70
     1
102
RTVSPropertyOp1
 70
     1
102
RTVSPropertyOp2
 70
     1
102
RTVSPropertyOp3
 70
     1
102
RTVSPropertyOp4
 70
     1
102
RTVSPropertyOp5
 70
     1
102
RTVSPropertyOp6
 70
     1
102
RTVSPropertyOp7
 70
     1
102
RTVSPropertyOp8
 70
     1
102
RTVSPropertyOp9
 70
     1
102
RTVSPropertyOp10
 70
     1
102
RTVSPropertyOp11
 70
     1
102
RTVSPropertyOp12
 70
     1
102
RTVSPropertyOp13
 70
     1
102
RTVSPropertyOp14
 70
     1
102
RTVSPropertyOp15
 70
     1
102
RTVSPropertyOp16
 70
     1
102
RTVSPropertyOp17
 70
     1
102
RTVSPropertyOp18
 70
     1
102
RTVSPropertyOp19
 70
     1
102
RTVSPropertyOp20
 70
     1
102
RTVSPropertyOp21
 70
     1
102
RTVSPropertyOp22
 70
     1
102
RTVSPropertyOp23
 70
     1
102
RTVSPropertyOp24
 70
     1
102
RTVSPropertyOp25
 70
     1
102
RTVSPropertyOp26
 70
     1
102
RTVSPropertyOp27
 70
     1
102
RTVSPropertyOp28
 70
     1
102
RTVSPropertyOp29
 70
     1
102
RTVSPropertyOp30
 70
     1
102
RTVSPropertyOp31
 70
     1
102
RTVSPropertyOp32
 70
     1
102
RTVSPropertyOp33
 70
     1
102
RTVSPropertyOp34
 70
     1
102
RTVSPropertyOp35
 70
     1
102
RTVSPropertyOp36
 70
     1
102
RTVSPropertyOp37
 70
     1
102
RTVSPropertyOp38
 70
     1
102
RTVSPropertyOp39
 70
     1
102
RTVSPropertyOp40
 70
     1
102
RTVSPropertyOp41
 70
     1
102
RTVSPropertyOp42
 70
     1
102
RTVSPropertyOp43
 70
     1
102
RTVSPropertyOp44
 70
     1
102
RTVSPropertyOp45
 70
     1
102
RTVSPropertyOp46
 70
     1
102
RTVSPropertyOp47
 70
     1
102
RTVSPropertyOp48
 70
     1
102
RTVSPropertyOp49
 70
     1
102
RTVSPropertyOp50
 70
     1
102
RTVSPropertyOp51
 70
     0
102
RTVSPropertyOp52
 70
     0
102
RTVSPropertyOp53
 70
     1
102
RTVSPropertyOp54
 70
     1
102
RTVSPropertyOp55
 70
     1
102
RTVSPropertyOp56
 70
     1
102
RTVSPropertyOp57
 70
     1
102
RTVSPropertyOp58
 70
     1
102
RTVSPropertyOp59
 70
     1
102
RTVSPropertyOp60
 70
     1
102
RTVSPropertyOp61
 70
     1
102
RTVSPropertyOp62
 70
     1
  0
XRECORD
  5
377
102
{ACAD_REACTORS
330
376
102
}
330
376
100
AcDbXrecord
280
     1
102
RTVSPost2010Prop28
280
     0
102
RTVSPost2010PropOp28
 70
     0
102
RTVSPost2010Prop29
280
     1
102
RTVSPost2010PropOp29
 70
     0
102
RTVSPost2010Prop30
280
     1
102
RTVSPost2010PropOp30
 70
     0
102
RTVSPost2010Prop31
280
     0
102
RTVSPost2010PropOp31
 70
     0
102
RTVSPost2010Prop32
280
     0
102
RTVSPost2010PropOp32
 70
     0
102
RTVSPost2010Prop33
280
     0
102
RTVSPost2010PropOp33
 70
     0
102
RTVSPost2010Prop34
280
     0
102
RTVSPost2010PropOp34
 70
     0
102
RTVSPost2010Prop35
280
     0
102
RTVSPost2010PropOp35
 70
     0
102
RTVSPost2010Prop36
280
     0
102
RTVSPost2010PropOp36
 70
     0
102
RTVSPost2010Prop37
 90
       50
102
RTVSPost2010PropOp37
 70
     0
102
RTVSPost2010Prop38
140
0.0
102
RTVSPost2010PropOp38
 70
     0
102
RTVSPost2010Prop39
140
1.0
102
RTVSPost2010PropOp39
 70
     0
102
RTVSPost2010Prop40
 90
        0
102
RTVSPost2010PropOp40
 70
     0
102
RTVSPost2010Prop41ColorIndex
 90
       18
102
RTVSPost2010Prop41ColorRGB
 90
        0
102
RTVSPost2010PropOp41
 70
     0
102
RTVSPost2010Prop42
 90
       50
102
RTVSPost2010PropOp42
 70
     0
102
RTVSPost2010Prop43
 90
        3
102
RTVSPost2010PropOp43
 70
     0
102
RTVSPost2010Prop44ColorIndex
 90
        5
102
RTVSPost2010Prop44ColorRGB
 90
      255
102
RTVSPost2010PropOp44
 70
     0
102
RTVSPost2010Prop45
280
     0
102
RTVSPost2010PropOp45
 70
     0
102
RTVSPost2010Prop46
 90
       50
102
RTVSPost2010PropOp46
 70
     0
102
RTVSPost2010Prop47
 90
       50
102
RTVSPost2010PropOp47
 70
     0
102
RTVSPost2010Prop48
 90
       50
102
RTVSPost2010PropOp48
 70
     0
102
RTVSPost2010Prop49
280
     0
102
RTVSPost2010PropOp49
 70
     0
102
RTVSPost2010Prop50
 90
       50
102
RTVSPost2010PropOp50
 70
     0
102
RTVSPost2010Prop51ColorIndex
 90
      256
102
RTVSPost2010Prop51ColorRGB
 90
-16777216
102
RTVSPost2010PropOp51
 70
     0
102
RTVSPost2010Prop52
140
1.0
102
RTVSPost2010PropOp52
 70
     0
102
RTVSPost2010Prop53
 90
        2
102
RTVSPost2010PropOp53
 70
     0
102
RTVSPost2010Prop54
  1
strokes_ogs.tif
102
RTVSPost2010PropOp54
 70
     0
102
RTVSPost2010Prop55
280
     0
102
RTVSPost2010PropOp55
 70
     0
102
RTVSPost2010Prop56
140
1.0
102
RTVSPost2010PropOp56
 70
     0
102
RTVSPost2010Prop57
140
1.0
102
RTVSPost2010PropOp57
 70
     0
102
RTVSPropertyOp0
 70
     0
102
RTVSPropertyOp1
 70
     0
102
RTVSPropertyOp2
 70
     0
102
RTVSPropertyOp3
 70
     0
102
RTVSPropertyOp4
 70
     0
102
RTVSPropertyOp5
 70
     0
102
RTVSPropertyOp6
 70
     0
102
RTVSPropertyOp7
 70
     0
102
RTVSPropertyOp8
 70
     0
102
RTVSPropertyOp9
 70
     0
102
RTVSPropertyOp10
 70
     0
102
RTVSPropertyOp11
 70
     0
102
RTVSPropertyOp12
 70
     0
102
RTVSPropertyOp13
 70
     0
102
RTVSPropertyOp14
 70
     2
102
RTVSPropertyOp15
 70
     0
102
RTVSPropertyOp16
 70
     0
102
RTVSPropertyOp17
 70
     0
102
RTVSPropertyOp18
 70
     0
102
RTVSPropertyOp19
 70
     0
102
RTVSPropertyOp20
 70
     0
102
RTVSPropertyOp21
 70
     0
102
RTVSPropertyOp22
 70
     0
102
RTVSPropertyOp23
 70
     0
102
RTVSPropertyOp24
 70
     0
102
RTVSPropertyOp25
 70
     0
102
RTVSPropertyOp26
 70
     0
102
RTVSPropertyOp27
 70
     0
102
RTVSPropertyOp28
 70
     0
102
RTVSPropertyOp29
 70
     0
102
RTVSPropertyOp30
 70
     0
102
RTVSPropertyOp31
 70
     0
102
RTVSPropertyOp32
 70
     0
102
RTVSPropertyOp33
 70
     0
102
RTVSPropertyOp34
 70
     0
102
RTVSPropertyOp35
 70
     0
102
RTVSPropertyOp36
 70
     0
102
RTVSPropertyOp37
 70
     0
102
RTVSPropertyOp38
 70
     0
102
RTVSPropertyOp39
 70
     0
102
RTVSPropertyOp40
 70
     0
102
RTVSPropertyOp41
 70
     0
102
RTVSPropertyOp42
 70
     0
102
RTVSPropertyOp43
 70
     0
102
RTVSPropertyOp44
 70
     0
102
RTVSPropertyOp45
 70
     0
102
RTVSPropertyOp46
 70
     0
102
RTVSPropertyOp47
 70
     0
102
RTVSPropertyOp48
 70
     0
102
RTVSPropertyOp49
 70
     0
102
RTVSPropertyOp50
 70
     0
102
RTVSPropertyOp51
 70
     0
102
RTVSPropertyOp52
 70
     0
102
RTVSPropertyOp53
 70
     0
102
RTVSPropertyOp54
 70
     0
102
RTVSPropertyOp55
 70
     0
102
RTVSPropertyOp56
 70
     0
102
RTVSPropertyOp57
 70
     0
102
RTVSPropertyOp58
 70
     1
102
RTVSPropertyOp59
 70
     1
102
RTVSPropertyOp60
 70
     1
102
RTVSPropertyOp61
 70
     1
102
RTVSPropertyOp62
 70
     1
  0
XRECORD
  5
371
102
{ACAD_REACTORS
330
370
102
}
330
370
100
AcDbXrecord
280
     1
102
RTVSPost2010Prop28
280
     0
102
RTVSPost2010PropOp28
 70
     1
102
RTVSPost2010Prop29
280
     1
102
RTVSPost2010PropOp29
 70
     1
102
RTVSPost2010Prop30
280
     1
102
RTVSPost2010PropOp30
 70
     1
102
RTVSPost2010Prop31
280
     0
102
RTVSPost2010PropOp31
 70
     1
102
RTVSPost2010Prop32
280
     0
102
RTVSPost2010PropOp32
 70
     1
102
RTVSPost2010Prop33
280
     0
102
RTVSPost2010PropOp33
 70
     1
102
RTVSPost2010Prop34
280
     0
102
RTVSPost2010PropOp34
 70
     1
102
RTVSPost2010Prop35
280
     0
102
RTVSPost2010PropOp35
 70
     1
102
RTVSPost2010Prop36
280
     0
102
RTVSPost2010PropOp36
 70
     1
102
RTVSPost2010Prop37
 90
       50
102
RTVSPost2010PropOp37
 70
     1
102
RTVSPost2010Prop38
140
0.0
102
RTVSPost2010PropOp38
 70
     1
102
RTVSPost2010Prop39
140
1.0
102
RTVSPost2010PropOp39
 70
     1
102
RTVSPost2010Prop40
 90
        0
102
RTVSPost2010PropOp40
 70
     1
102
RTVSPost2010Prop41ColorIndex
 90
       18
102
RTVSPost2010Prop41ColorRGB
 90
        0
102
RTVSPost2010PropOp41
 70
     1
102
RTVSPost2010Prop42
 90
       50
102
RTVSPost2010PropOp42
 70
     1
102
RTVSPost2010Prop43
 90
        3
102
RTVSPost2010PropOp43
 70
     1
102
RTVSPost2010Prop44ColorIndex
 90
        5
102
RTVSPost2010Prop44ColorRGB
 90
      255
102
RTVSPost2010PropOp44
 70
     1
102
RTVSPost2010Prop45
280
     0
102
RTVSPost2010PropOp45
 70
     1
102
RTVSPost2010Prop46
 90
       50
102
RTVSPost2010PropOp46
 70
     1
102
RTVSPost2010Prop47
 90
       50
102
RTVSPost2010PropOp47
 70
     1
102
RTVSPost2010Prop48
 90
       50
102
RTVSPost2010PropOp48
 70
     1
102
RTVSPost2010Prop49
280
     0
102
RTVSPost2010PropOp49
 70
     1
102
RTVSPost2010Prop50
 90
       50
102
RTVSPost2010PropOp50
 70
     1
102
RTVSPost2010Prop51ColorIndex
 90
      256
102
RTVSPost2010Prop51ColorRGB
 90
-16777216
102
RTVSPost2010PropOp51
 70
     0
102
RTVSPost2010Prop52
140
1.0
102
RTVSPost2010PropOp52
 70
     0
102
RTVSPost2010Prop53
 90
        2
102
RTVSPost2010PropOp53
 70
     1
102
RTVSPost2010Prop54
  1
strokes_ogs.tif
102
RTVSPost2010PropOp54
 70
     1
102
RTVSPost2010Prop55
280
     0
102
RTVSPost2010PropOp55
 70
     1
102
RTVSPost2010Prop56
140
1.0
102
RTVSPost2010PropOp56
 70
     1
102
RTVSPost2010Prop57
140
1.0
102
RTVSPost2010PropOp57
 70
     1
102
RTVSPropertyOp0
 70
     1
102
RTVSPropertyOp1
 70
     1
102
RTVSPropertyOp2
 70
     1
102
RTVSPropertyOp3
 70
     1
102
RTVSPropertyOp4
 70
     1
102
RTVSPropertyOp5
 70
     1
102
RTVSPropertyOp6
 70
     1
102
RTVSPropertyOp7
 70
     1
102
RTVSPropertyOp8
 70
     1
102
RTVSPropertyOp9
 70
     1
102
RTVSPropertyOp10
 70
     1
102
RTVSPropertyOp11
 70
     1
102
RTVSPropertyOp12
 70
     1
102
RTVSPropertyOp13
 70
     1
102
RTVSPropertyOp14
 70
     1
102
RTVSPropertyOp15
 70
     1
102
RTVSPropertyOp16
 70
     1
102
RTVSPropertyOp17
 70
     1
102
RTVSPropertyOp18
 70
     1
102
RTVSPropertyOp19
 70
     1
102
RTVSPropertyOp20
 70
     1
102
RTVSPropertyOp21
 70
     1
102
RTVSPropertyOp22
 70
     1
102
RTVSPropertyOp23
 70
     1
102
RTVSPropertyOp24
 70
     1
102
RTVSPropertyOp25
 70
     1
102
RTVSPropertyOp26
 70
     1
102
RTVSPropertyOp27
 70
     1
102
RTVSPropertyOp28
 70
     1
102
RTVSPropertyOp29
 70
     1
102
RTVSPropertyOp30
 70
     1
102
RTVSPropertyOp31
 70
     1
102
RTVSPropertyOp32
 70
     1
102
RTVSPropertyOp33
 70
     1
102
RTVSPropertyOp34
 70
     1
102
RTVSPropertyOp35
 70
     1
102
RTVSPropertyOp36
 70
     1
102
RTVSPropertyOp37
 70
     1
102
RTVSPropertyOp38
 70
     1
102
RTVSPropertyOp39
 70
     1
102
RTVSPropertyOp40
 70
     1
102
RTVSPropertyOp41
 70
     1
102
RTVSPropertyOp42
 70
     1
102
RTVSPropertyOp43
 70
     1
102
RTVSPropertyOp44
 70
     1
102
RTVSPropertyOp45
 70
     1
102
RTVSPropertyOp46
 70
     1
102
RTVSPropertyOp47
 70
     1
102
RTVSPropertyOp48
 70
     1
102
RTVSPropertyOp49
 70
     1
102
RTVSPropertyOp50
 70
     1
102
RTVSPropertyOp51
 70
     0
102
RTVSPropertyOp52
 70
     0
102
RTVSPropertyOp53
 70
     1
102
RTVSPropertyOp54
 70
     1
102
RTVSPropertyOp55
 70
     1
102
RTVSPropertyOp56
 70
     1
102
RTVSPropertyOp57
 70
     1
102
RTVSPropertyOp58
 70
     1
102
RTVSPropertyOp59
 70
     1
102
RTVSPropertyOp60
 70
     1
102
RTVSPropertyOp61
 70
     1
102
RTVSPropertyOp62
 70
     1
  0
XRECORD
  5
379
102
{ACAD_REACTORS
330
378
102
}
330
378
100
AcDbXrecord
280
     1
102
RTVSPost2010Prop28
280
     0
102
RTVSPost2010PropOp28
 70
     0
102
RTVSPost2010Prop29
280
     1
102
RTVSPost2010PropOp29
 70
     0
102
RTVSPost2010Prop30
280
     1
102
RTVSPost2010PropOp30
 70
     0
102
RTVSPost2010Prop31
280
     0
102
RTVSPost2010PropOp31
 70
     0
102
RTVSPost2010Prop32
280
     0
102
RTVSPost2010PropOp32
 70
     0
102
RTVSPost2010Prop33
280
     0
102
RTVSPost2010PropOp33
 70
     0
102
RTVSPost2010Prop34
280
     0
102
RTVSPost2010PropOp34
 70
     0
102
RTVSPost2010Prop35
280
     0
102
RTVSPost2010PropOp35
 70
     0
102
RTVSPost2010Prop36
280
     0
102
RTVSPost2010PropOp36
 70
     0
102
RTVSPost2010Prop37
 90
       50
102
RTVSPost2010PropOp37
 70
     0
102
RTVSPost2010Prop38
140
0.0
102
RTVSPost2010PropOp38
 70
     0
102
RTVSPost2010Prop39
140
1.0
102
RTVSPost2010PropOp39
 70
     0
102
RTVSPost2010Prop40
 90
        0
102
RTVSPost2010PropOp40
 70
     0
102
RTVSPost2010Prop41ColorIndex
 90
       18
102
RTVSPost2010Prop41ColorRGB
 90
        0
102
RTVSPost2010PropOp41
 70
     0
102
RTVSPost2010Prop42
 90
       50
102
RTVSPost2010PropOp42
 70
     0
102
RTVSPost2010Prop43
 90
        3
102
RTVSPost2010PropOp43
 70
     0
102
RTVSPost2010Prop44ColorIndex
 90
        5
102
RTVSPost2010Prop44ColorRGB
 90
      255
102
RTVSPost2010PropOp44
 70
     0
102
RTVSPost2010Prop45
280
     0
102
RTVSPost2010PropOp45
 70
     0
102
RTVSPost2010Prop46
 90
       50
102
RTVSPost2010PropOp46
 70
     0
102
RTVSPost2010Prop47
 90
       50
102
RTVSPost2010PropOp47
 70
     0
102
RTVSPost2010Prop48
 90
       50
102
RTVSPost2010PropOp48
 70
     0
102
RTVSPost2010Prop49
280
     0
102
RTVSPost2010PropOp49
 70
     0
102
RTVSPost2010Prop50
 90
       50
102
RTVSPost2010PropOp50
 70
     0
102
RTVSPost2010Prop51ColorIndex
 90
      256
102
RTVSPost2010Prop51ColorRGB
 90
-16777216
102
RTVSPost2010PropOp51
 70
     0
102
RTVSPost2010Prop52
140
1.0
102
RTVSPost2010PropOp52
 70
     0
102
RTVSPost2010Prop53
 90
        2
102
RTVSPost2010PropOp53
 70
     0
102
RTVSPost2010Prop54
  1
strokes_ogs.tif
102
RTVSPost2010PropOp54
 70
     0
102
RTVSPost2010Prop55
280
     0
102
RTVSPost2010PropOp55
 70
     0
102
RTVSPost2010Prop56
140
1.0
102
RTVSPost2010PropOp56
 70
     0
102
RTVSPost2010Prop57
140
1.0
102
RTVSPost2010PropOp57
 70
     0
102
RTVSPropertyOp0
 70
     0
102
RTVSPropertyOp1
 70
     0
102
RTVSPropertyOp2
 70
     0
102
RTVSPropertyOp3
 70
     0
102
RTVSPropertyOp4
 70
     0
102
RTVSPropertyOp5
 70
     0
102
RTVSPropertyOp6
 70
     0
102
RTVSPropertyOp7
 70
     0
102
RTVSPropertyOp8
 70
     0
102
RTVSPropertyOp9
 70
     0
102
RTVSPropertyOp10
 70
     0
102
RTVSPropertyOp11
 70
     0
102
RTVSPropertyOp12
 70
     0
102
RTVSPropertyOp13
 70
     0
102
RTVSPropertyOp14
 70
     2
102
RTVSPropertyOp15
 70
     0
102
RTVSPropertyOp16
 70
     0
102
RTVSPropertyOp17
 70
     0
102
RTVSPropertyOp18
 70
     0
102
RTVSPropertyOp19
 70
     0
102
RTVSPropertyOp20
 70
     0
102
RTVSPropertyOp21
 70
     0
102
RTVSPropertyOp22
 70
     0
102
RTVSPropertyOp23
 70
     0
102
RTVSPropertyOp24
 70
     0
102
RTVSPropertyOp25
 70
     0
102
RTVSPropertyOp26
 70
     0
102
RTVSPropertyOp27
 70
     0
102
RTVSPropertyOp28
 70
     0
102
RTVSPropertyOp29
 70
     0
102
RTVSPropertyOp30
 70
     0
102
RTVSPropertyOp31
 70
     0
102
RTVSPropertyOp32
 70
     0
102
RTVSPropertyOp33
 70
     0
102
RTVSPropertyOp34
 70
     0
102
RTVSPropertyOp35
 70
     0
102
RTVSPropertyOp36
 70
     0
102
RTVSPropertyOp37
 70
     0
102
RTVSPropertyOp38
 70
     0
102
RTVSPropertyOp39
 70
     0
102
RTVSPropertyOp40
 70
     0
102
RTVSPropertyOp41
 70
     0
102
RTVSPropertyOp42
 70
     0
102
RTVSPropertyOp43
 70
     0
102
RTVSPropertyOp44
 70
     0
102
RTVSPropertyOp45
 70
     0
102
RTVSPropertyOp46
 70
     0
102
RTVSPropertyOp47
 70
     0
102
RTVSPropertyOp48
 70
     0
102
RTVSPropertyOp49
 70
     0
102
RTVSPropertyOp50
 70
     0
102
RTVSPropertyOp51
 70
     0
102
RTVSPropertyOp52
 70
     0
102
RTVSPropertyOp53
 70
     0
102
RTVSPropertyOp54
 70
     0
102
RTVSPropertyOp55
 70
     0
102
RTVSPropertyOp56
 70
     0
102
RTVSPropertyOp57
 70
     0
102
RTVSPropertyOp58
 70
     1
102
RTVSPropertyOp59
 70
     1
102
RTVSPropertyOp60
 70
     1
102
RTVSPropertyOp61
 70
     1
102
RTVSPropertyOp62
 70
     1
  0
XRECORD
  5
367
102
{ACAD_REACTORS
330
366
102
}
330
366
100
AcDbXrecord
280
     1
102
RTVSPost2010Prop28
280
     0
102
RTVSPost2010PropOp28
 70
     1
102
RTVSPost2010Prop29
280
     1
102
RTVSPost2010PropOp29
 70
     1
102
RTVSPost2010Prop30
280
     1
102
RTVSPost2010PropOp30
 70
     1
102
RTVSPost2010Prop31
280
     0
102
RTVSPost2010PropOp31
 70
     1
102
RTVSPost2010Prop32
280
     0
102
RTVSPost2010PropOp32
 70
     1
102
RTVSPost2010Prop33
280
     0
102
RTVSPost2010PropOp33
 70
     1
102
RTVSPost2010Prop34
280
     0
102
RTVSPost2010PropOp34
 70
     1
102
RTVSPost2010Prop35
280
     0
102
RTVSPost2010PropOp35
 70
     1
102
RTVSPost2010Prop36
280
     0
102
RTVSPost2010PropOp36
 70
     1
102
RTVSPost2010Prop37
 90
       50
102
RTVSPost2010PropOp37
 70
     1
102
RTVSPost2010Prop38
140
0.0
102
RTVSPost2010PropOp38
 70
     1
102
RTVSPost2010Prop39
140
1.0
102
RTVSPost2010PropOp39
 70
     1
102
RTVSPost2010Prop40
 90
        0
102
RTVSPost2010PropOp40
 70
     1
102
RTVSPost2010Prop41ColorIndex
 90
       18
102
RTVSPost2010Prop41ColorRGB
 90
        0
102
RTVSPost2010PropOp41
 70
     1
102
RTVSPost2010Prop42
 90
       50
102
RTVSPost2010PropOp42
 70
     1
102
RTVSPost2010Prop43
 90
        3
102
RTVSPost2010PropOp43
 70
     1
102
RTVSPost2010Prop44ColorIndex
 90
        5
102
RTVSPost2010Prop44ColorRGB
 90
      255
102
RTVSPost2010PropOp44
 70
     1
102
RTVSPost2010Prop45
280
     0
102
RTVSPost2010PropOp45
 70
     1
102
RTVSPost2010Prop46
 90
       50
102
RTVSPost2010PropOp46
 70
     1
102
RTVSPost2010Prop47
 90
       50
102
RTVSPost2010PropOp47
 70
     1
102
RTVSPost2010Prop48
 90
       50
102
RTVSPost2010PropOp48
 70
     1
102
RTVSPost2010Prop49
280
     0
102
RTVSPost2010PropOp49
 70
     1
102
RTVSPost2010Prop50
 90
       50
102
RTVSPost2010PropOp50
 70
     1
102
RTVSPost2010Prop51ColorIndex
 90
      256
102
RTVSPost2010Prop51ColorRGB
 90
-16777216
102
RTVSPost2010PropOp51
 70
     0
102
RTVSPost2010Prop52
140
1.0
102
RTVSPost2010PropOp52
 70
     0
102
RTVSPost2010Prop53
 90
        2
102
RTVSPost2010PropOp53
 70
     1
102
RTVSPost2010Prop54
  1
strokes_ogs.tif
102
RTVSPost2010PropOp54
 70
     1
102
RTVSPost2010Prop55
280
     0
102
RTVSPost2010PropOp55
 70
     1
102
RTVSPost2010Prop56
140
1.0
102
RTVSPost2010PropOp56
 70
     1
102
RTVSPost2010Prop57
140
1.0
102
RTVSPost2010PropOp57
 70
     1
102
RTVSPropertyOp0
 70
     1
102
RTVSPropertyOp1
 70
     1
102
RTVSPropertyOp2
 70
     1
102
RTVSPropertyOp3
 70
     1
102
RTVSPropertyOp4
 70
     1
102
RTVSPropertyOp5
 70
     1
102
RTVSPropertyOp6
 70
     1
102
RTVSPropertyOp7
 70
     1
102
RTVSPropertyOp8
 70
     1
102
RTVSPropertyOp9
 70
     1
102
RTVSPropertyOp10
 70
     1
102
RTVSPropertyOp11
 70
     1
102
RTVSPropertyOp12
 70
     1
102
RTVSPropertyOp13
 70
     1
102
RTVSPropertyOp14
 70
     1
102
RTVSPropertyOp15
 70
     1
102
RTVSPropertyOp16
 70
     1
102
RTVSPropertyOp17
 70
     1
102
RTVSPropertyOp18
 70
     1
102
RTVSPropertyOp19
 70
     1
102
RTVSPropertyOp20
 70
     1
102
RTVSPropertyOp21
 70
     1
102
RTVSPropertyOp22
 70
     1
102
RTVSPropertyOp23
 70
     1
102
RTVSPropertyOp24
 70
     1
102
RTVSPropertyOp25
 70
     1
102
RTVSPropertyOp26
 70
     1
102
RTVSPropertyOp27
 70
     1
102
RTVSPropertyOp28
 70
     1
102
RTVSPropertyOp29
 70
     1
102
RTVSPropertyOp30
 70
     1
102
RTVSPropertyOp31
 70
     1
102
RTVSPropertyOp32
 70
     1
102
RTVSPropertyOp33
 70
     1
102
RTVSPropertyOp34
 70
     1
102
RTVSPropertyOp35
 70
     1
102
RTVSPropertyOp36
 70
     1
102
RTVSPropertyOp37
 70
     1
102
RTVSPropertyOp38
 70
     1
102
RTVSPropertyOp39
 70
     1
102
RTVSPropertyOp40
 70
     1
102
RTVSPropertyOp41
 70
     1
102
RTVSPropertyOp42
 70
     1
102
RTVSPropertyOp43
 70
     1
102
RTVSPropertyOp44
 70
     1
102
RTVSPropertyOp45
 70
     1
102
RTVSPropertyOp46
 70
     1
102
RTVSPropertyOp47
 70
     1
102
RTVSPropertyOp48
 70
     1
102
RTVSPropertyOp49
 70
     1
102
RTVSPropertyOp50
 70
     1
102
RTVSPropertyOp51
 70
     0
102
RTVSPropertyOp52
 70
     0
102
RTVSPropertyOp53
 70
     1
102
RTVSPropertyOp54
 70
     1
102
RTVSPropertyOp55
 70
     1
102
RTVSPropertyOp56
 70
     1
102
RTVSPropertyOp57
 70
     1
102
RTVSPropertyOp58
 70
     1
102
RTVSPropertyOp59
 70
     1
102
RTVSPropertyOp60
 70
     1
102
RTVSPropertyOp61
 70
     1
102
RTVSPropertyOp62
 70
     1
  0
XRECORD
  5
385
102
{ACAD_REACTORS
330
384
102
}
330
384
100
AcDbXrecord
280
     1
102
RTVSPost2010Prop28
280
     0
102
RTVSPost2010PropOp28
 70
     1
102
RTVSPost2010Prop29
280
     1
102
RTVSPost2010PropOp29
 70
     1
102
RTVSPost2010Prop30
280
     1
102
RTVSPost2010PropOp30
 70
     1
102
RTVSPost2010Prop31
280
     0
102
RTVSPost2010PropOp31
 70
     1
102
RTVSPost2010Prop32
280
     0
102
RTVSPost2010PropOp32
 70
     1
102
RTVSPost2010Prop33
280
     0
102
RTVSPost2010PropOp33
 70
     1
102
RTVSPost2010Prop34
280
     0
102
RTVSPost2010PropOp34
 70
     1
102
RTVSPost2010Prop35
280
     0
102
RTVSPost2010PropOp35
 70
     1
102
RTVSPost2010Prop36
280
     0
102
RTVSPost2010PropOp36
 70
     1
102
RTVSPost2010Prop37
 90
       50
102
RTVSPost2010PropOp37
 70
     1
102
RTVSPost2010Prop38
140
0.0
102
RTVSPost2010PropOp38
 70
     1
102
RTVSPost2010Prop39
140
1.0
102
RTVSPost2010PropOp39
 70
     1
102
RTVSPost2010Prop40
 90
        0
102
RTVSPost2010PropOp40
 70
     1
102
RTVSPost2010Prop41ColorIndex
 90
       18
102
RTVSPost2010Prop41ColorRGB
 90
        0
102
RTVSPost2010PropOp41
 70
     1
102
RTVSPost2010Prop42
 90
       50
102
RTVSPost2010PropOp42
 70
     1
102
RTVSPost2010Prop43
 90
        3
102
RTVSPost2010PropOp43
 70
     1
102
RTVSPost2010Prop44ColorIndex
 90
        5
102
RTVSPost2010Prop44ColorRGB
 90
      255
102
RTVSPost2010PropOp44
 70
     1
102
RTVSPost2010Prop45
280
     0
102
RTVSPost2010PropOp45
 70
     1
102
RTVSPost2010Prop46
 90
       50
102
RTVSPost2010PropOp46
 70
     1
102
RTVSPost2010Prop47
 90
       50
102
RTVSPost2010PropOp47
 70
     1
102
RTVSPost2010Prop48
 90
       50
102
RTVSPost2010PropOp48
 70
     1
102
RTVSPost2010Prop49
280
     0
102
RTVSPost2010PropOp49
 70
     1
102
RTVSPost2010Prop50
 90
       50
102
RTVSPost2010PropOp50
 70
     1
102
RTVSPost2010Prop51ColorIndex
 90
      256
102
RTVSPost2010Prop51ColorRGB
 90
-16777216
102
RTVSPost2010PropOp51
 70
     0
102
RTVSPost2010Prop52
140
1.0
102
RTVSPost2010PropOp52
 70
     0
102
RTVSPost2010Prop53
 90
        2
102
RTVSPost2010PropOp53
 70
     1
102
RTVSPost2010Prop54
  1
strokes_ogs.tif
102
RTVSPost2010PropOp54
 70
     1
102
RTVSPost2010Prop55
280
     0
102
RTVSPost2010PropOp55
 70
     1
102
RTVSPost2010Prop56
140
1.0
102
RTVSPost2010PropOp56
 70
     1
102
RTVSPost2010Prop57
140
1.0
102
RTVSPost2010PropOp57
 70
     1
102
RTVSPropertyOp0
 70
     1
102
RTVSPropertyOp1
 70
     1
102
RTVSPropertyOp2
 70
     1
102
RTVSPropertyOp3
 70
     1
102
RTVSPropertyOp4
 70
     1
102
RTVSPropertyOp5
 70
     1
102
RTVSPropertyOp6
 70
     1
102
RTVSPropertyOp7
 70
     1
102
RTVSPropertyOp8
 70
     1
102
RTVSPropertyOp9
 70
     1
102
RTVSPropertyOp10
 70
     1
102
RTVSPropertyOp11
 70
     1
102
RTVSPropertyOp12
 70
     1
102
RTVSPropertyOp13
 70
     1
102
RTVSPropertyOp14
 70
     1
102
RTVSPropertyOp15
 70
     1
102
RTVSPropertyOp16
 70
     1
102
RTVSPropertyOp17
 70
     1
102
RTVSPropertyOp18
 70
     1
102
RTVSPropertyOp19
 70
     1
102
RTVSPropertyOp20
 70
     1
102
RTVSPropertyOp21
 70
     1
102
RTVSPropertyOp22
 70
     1
102
RTVSPropertyOp23
 70
     1
102
RTVSPropertyOp24
 70
     1
102
RTVSPropertyOp25
 70
     1
102
RTVSPropertyOp26
 70
     1
102
RTVSPropertyOp27
 70
     1
102
RTVSPropertyOp28
 70
     1
102
RTVSPropertyOp29
 70
     1
102
RTVSPropertyOp30
 70
     1
102
RTVSPropertyOp31
 70
     1
102
RTVSPropertyOp32
 70
     1
102
RTVSPropertyOp33
 70
     1
102
RTVSPropertyOp34
 70
     1
102
RTVSPropertyOp35
 70
     1
102
RTVSPropertyOp36
 70
     1
102
RTVSPropertyOp37
 70
     1
102
RTVSPropertyOp38
 70
     1
102
RTVSPropertyOp39
 70
     1
102
RTVSPropertyOp40
 70
     1
102
RTVSPropertyOp41
 70
     1
102
RTVSPropertyOp42
 70
     1
102
RTVSPropertyOp43
 70
     1
102
RTVSPropertyOp44
 70
     1
102
RTVSPropertyOp45
 70
     1
102
RTVSPropertyOp46
 70
     1
102
RTVSPropertyOp47
 70
     1
102
RTVSPropertyOp48
 70
     1
102
RTVSPropertyOp49
 70
     1
102
RTVSPropertyOp50
 70
     1
102
RTVSPropertyOp51
 70
     0
102
RTVSPropertyOp52
 70
     0
102
RTVSPropertyOp53
 70
     1
102
RTVSPropertyOp54
 70
     1
102
RTVSPropertyOp55
 70
     1
102
RTVSPropertyOp56
 70
     1
102
RTVSPropertyOp57
 70
     1
102
RTVSPropertyOp58
 70
     1
102
RTVSPropertyOp59
 70
     1
102
RTVSPropertyOp60
 70
     1
102
RTVSPropertyOp61
 70
     1
102
RTVSPropertyOp62
 70
     1
  0
XRECORD
  5
383
102
{ACAD_REACTORS
330
382
102
}
330
382
100
AcDbXrecord
280
     1
102
RTVSPost2010Prop28
280
     0
102
RTVSPost2010PropOp28
 70
     1
102
RTVSPost2010Prop29
280
     1
102
RTVSPost2010PropOp29
 70
     1
102
RTVSPost2010Prop30
280
     1
102
RTVSPost2010PropOp30
 70
     1
102
RTVSPost2010Prop31
280
     0
102
RTVSPost2010PropOp31
 70
     1
102
RTVSPost2010Prop32
280
     0
102
RTVSPost2010PropOp32
 70
     1
102
RTVSPost2010Prop33
280
     0
102
RTVSPost2010PropOp33
 70
     1
102
RTVSPost2010Prop34
280
     0
102
RTVSPost2010PropOp34
 70
     1
102
RTVSPost2010Prop35
280
     0
102
RTVSPost2010PropOp35
 70
     1
102
RTVSPost2010Prop36
280
     0
102
RTVSPost2010PropOp36
 70
     1
102
RTVSPost2010Prop37
 90
       50
102
RTVSPost2010PropOp37
 70
     1
102
RTVSPost2010Prop38
140
0.0
102
RTVSPost2010PropOp38
 70
     1
102
RTVSPost2010Prop39
140
1.0
102
RTVSPost2010PropOp39
 70
     1
102
RTVSPost2010Prop40
 90
        0
102
RTVSPost2010PropOp40
 70
     1
102
RTVSPost2010Prop41ColorIndex
 90
       18
102
RTVSPost2010Prop41ColorRGB
 90
        0
102
RTVSPost2010PropOp41
 70
     1
102
RTVSPost2010Prop42
 90
       50
102
RTVSPost2010PropOp42
 70
     1
102
RTVSPost2010Prop43
 90
        3
102
RTVSPost2010PropOp43
 70
     1
102
RTVSPost2010Prop44ColorIndex
 90
        5
102
RTVSPost2010Prop44ColorRGB
 90
      255
102
RTVSPost2010PropOp44
 70
     1
102
RTVSPost2010Prop45
280
     0
102
RTVSPost2010PropOp45
 70
     1
102
RTVSPost2010Prop46
 90
       50
102
RTVSPost2010PropOp46
 70
     1
102
RTVSPost2010Prop47
 90
       50
102
RTVSPost2010PropOp47
 70
     1
102
RTVSPost2010Prop48
 90
       50
102
RTVSPost2010PropOp48
 70
     1
102
RTVSPost2010Prop49
280
     0
102
RTVSPost2010PropOp49
 70
     1
102
RTVSPost2010Prop50
 90
       50
102
RTVSPost2010PropOp50
 70
     1
102
RTVSPost2010Prop51ColorIndex
 90
      256
102
RTVSPost2010Prop51ColorRGB
 90
-16777216
102
RTVSPost2010PropOp51
 70
     0
102
RTVSPost2010Prop52
140
1.0
102
RTVSPost2010PropOp52
 70
     0
102
RTVSPost2010Prop53
 90
        2
102
RTVSPost2010PropOp53
 70
     1
102
RTVSPost2010Prop54
  1
strokes_ogs.tif
102
RTVSPost2010PropOp54
 70
     1
102
RTVSPost2010Prop55
280
     0
102
RTVSPost2010PropOp55
 70
     1
102
RTVSPost2010Prop56
140
1.0
102
RTVSPost2010PropOp56
 70
     1
102
RTVSPost2010Prop57
140
1.0
102
RTVSPost2010PropOp57
 70
     1
102
RTVSPropertyOp0
 70
     1
102
RTVSPropertyOp1
 70
     1
102
RTVSPropertyOp2
 70
     1
102
RTVSPropertyOp3
 70
     1
102
RTVSPropertyOp4
 70
     1
102
RTVSPropertyOp5
 70
     1
102
RTVSPropertyOp6
 70
     1
102
RTVSPropertyOp7
 70
     1
102
RTVSPropertyOp8
 70
     1
102
RTVSPropertyOp9
 70
     1
102
RTVSPropertyOp10
 70
     1
102
RTVSPropertyOp11
 70
     1
102
RTVSPropertyOp12
 70
     1
102
RTVSPropertyOp13
 70
     1
102
RTVSPropertyOp14
 70
     1
102
RTVSPropertyOp15
 70
     1
102
RTVSPropertyOp16
 70
     1
102
RTVSPropertyOp17
 70
     1
102
RTVSPropertyOp18
 70
     1
102
RTVSPropertyOp19
 70
     1
102
RTVSPropertyOp20
 70
     1
102
RTVSPropertyOp21
 70
     1
102
RTVSPropertyOp22
 70
     1
102
RTVSPropertyOp23
 70
     1
102
RTVSPropertyOp24
 70
     1
102
RTVSPropertyOp25
 70
     1
102
RTVSPropertyOp26
 70
     1
102
RTVSPropertyOp27
 70
     1
102
RTVSPropertyOp28
 70
     1
102
RTVSPropertyOp29
 70
     1
102
RTVSPropertyOp30
 70
     1
102
RTVSPropertyOp31
 70
     1
102
RTVSPropertyOp32
 70
     1
102
RTVSPropertyOp33
 70
     1
102
RTVSPropertyOp34
 70
     1
102
RTVSPropertyOp35
 70
     1
102
RTVSPropertyOp36
 70
     1
102
RTVSPropertyOp37
 70
     1
102
RTVSPropertyOp38
 70
     1
102
RTVSPropertyOp39
 70
     1
102
RTVSPropertyOp40
 70
     1
102
RTVSPropertyOp41
 70
     1
102
RTVSPropertyOp42
 70
     1
102
RTVSPropertyOp43
 70
     1
102
RTVSPropertyOp44
 70
     1
102
RTVSPropertyOp45
 70
     1
102
RTVSPropertyOp46
 70
     1
102
RTVSPropertyOp47
 70
     1
102
RTVSPropertyOp48
 70
     1
102
RTVSPropertyOp49
 70
     1
102
RTVSPropertyOp50
 70
     1
102
RTVSPropertyOp51
 70
     0
102
RTVSPropertyOp52
 70
     0
102
RTVSPropertyOp53
 70
     1
102
RTVSPropertyOp54
 70
     1
102
RTVSPropertyOp55
 70
     1
102
RTVSPropertyOp56
 70
     1
102
RTVSPropertyOp57
 70
     1
102
RTVSPropertyOp58
 70
     1
102
RTVSPropertyOp59
 70
     1
102
RTVSPropertyOp60
 70
     1
102
RTVSPropertyOp61
 70
     1
102
RTVSPropertyOp62
 70
     1
  0
XRECORD
  5
37D
102
{ACAD_REACTORS
330
37C
102
}
330
37C
100
AcDbXrecord
280
     1
102
RTVSPost2010Prop28
280
     0
102
RTVSPost2010PropOp28
 70
     1
102
RTVSPost2010Prop29
280
     1
102
RTVSPost2010PropOp29
 70
     1
102
RTVSPost2010Prop30
280
     1
102
RTVSPost2010PropOp30
 70
     1
102
RTVSPost2010Prop31
280
     0
102
RTVSPost2010PropOp31
 70
     1
102
RTVSPost2010Prop32
280
     0
102
RTVSPost2010PropOp32
 70
     1
102
RTVSPost2010Prop33
280
     0
102
RTVSPost2010PropOp33
 70
     1
102
RTVSPost2010Prop34
280
     0
102
RTVSPost2010PropOp34
 70
     1
102
RTVSPost2010Prop35
280
     0
102
RTVSPost2010PropOp35
 70
     1
102
RTVSPost2010Prop36
280
     0
102
RTVSPost2010PropOp36
 70
     1
102
RTVSPost2010Prop37
 90
       50
102
RTVSPost2010PropOp37
 70
     1
102
RTVSPost2010Prop38
140
0.0
102
RTVSPost2010PropOp38
 70
     1
102
RTVSPost2010Prop39
140
1.0
102
RTVSPost2010PropOp39
 70
     1
102
RTVSPost2010Prop40
 90
        0
102
RTVSPost2010PropOp40
 70
     1
102
RTVSPost2010Prop41ColorIndex
 90
       18
102
RTVSPost2010Prop41ColorRGB
 90
        0
102
RTVSPost2010PropOp41
 70
     1
102
RTVSPost2010Prop42
 90
       50
102
RTVSPost2010PropOp42
 70
     1
102
RTVSPost2010Prop43
 90
        3
102
RTVSPost2010PropOp43
 70
     1
102
RTVSPost2010Prop44ColorIndex
 90
        5
102
RTVSPost2010Prop44ColorRGB
 90
      255
102
RTVSPost2010PropOp44
 70
     1
102
RTVSPost2010Prop45
280
     0
102
RTVSPost2010PropOp45
 70
     1
102
RTVSPost2010Prop46
 90
       50
102
RTVSPost2010PropOp46
 70
     1
102
RTVSPost2010Prop47
 90
       50
102
RTVSPost2010PropOp47
 70
     1
102
RTVSPost2010Prop48
 90
       50
102
RTVSPost2010PropOp48
 70
     1
102
RTVSPost2010Prop49
280
     0
102
RTVSPost2010PropOp49
 70
     1
102
RTVSPost2010Prop50
 90
       50
102
RTVSPost2010PropOp50
 70
     1
102
RTVSPost2010Prop51ColorIndex
 90
      256
102
RTVSPost2010Prop51ColorRGB
 90
-16777216
102
RTVSPost2010PropOp51
 70
     0
102
RTVSPost2010Prop52
140
1.0
102
RTVSPost2010PropOp52
 70
     0
102
RTVSPost2010Prop53
 90
        2
102
RTVSPost2010PropOp53
 70
     1
102
RTVSPost2010Prop54
  1
strokes_ogs.tif
102
RTVSPost2010PropOp54
 70
     1
102
RTVSPost2010Prop55
280
     0
102
RTVSPost2010PropOp55
 70
     1
102
RTVSPost2010Prop56
140
1.0
102
RTVSPost2010PropOp56
 70
     1
102
RTVSPost2010Prop57
140
1.0
102
RTVSPost2010PropOp57
 70
     1
102
RTVSPropertyOp0
 70
     1
102
RTVSPropertyOp1
 70
     1
102
RTVSPropertyOp2
 70
     1
102
RTVSPropertyOp3
 70
     1
102
RTVSPropertyOp4
 70
     1
102
RTVSPropertyOp5
 70
     1
102
RTVSPropertyOp6
 70
     1
102
RTVSPropertyOp7
 70
     1
102
RTVSPropertyOp8
 70
     1
102
RTVSPropertyOp9
 70
     1
102
RTVSPropertyOp10
 70
     1
102
RTVSPropertyOp11
 70
     1
102
RTVSPropertyOp12
 70
     1
102
RTVSPropertyOp13
 70
     1
102
RTVSPropertyOp14
 70
     1
102
RTVSPropertyOp15
 70
     1
102
RTVSPropertyOp16
 70
     1
102
RTVSPropertyOp17
 70
     1
102
RTVSPropertyOp18
 70
     1
102
RTVSPropertyOp19
 70
     1
102
RTVSPropertyOp20
 70
     1
102
RTVSPropertyOp21
 70
     1
102
RTVSPropertyOp22
 70
     1
102
RTVSPropertyOp23
 70
     1
102
RTVSPropertyOp24
 70
     1
102
RTVSPropertyOp25
 70
     1
102
RTVSPropertyOp26
 70
     1
102
RTVSPropertyOp27
 70
     1
102
RTVSPropertyOp28
 70
     1
102
RTVSPropertyOp29
 70
     1
102
RTVSPropertyOp30
 70
     1
102
RTVSPropertyOp31
 70
     1
102
RTVSPropertyOp32
 70
     1
102
RTVSPropertyOp33
 70
     1
102
RTVSPropertyOp34
 70
     1
102
RTVSPropertyOp35
 70
     1
102
RTVSPropertyOp36
 70
     1
102
RTVSPropertyOp37
 70
     1
102
RTVSPropertyOp38
 70
     1
102
RTVSPropertyOp39
 70
     1
102
RTVSPropertyOp40
 70
     1
102
RTVSPropertyOp41
 70
     1
102
RTVSPropertyOp42
 70
     1
102
RTVSPropertyOp43
 70
     1
102
RTVSPropertyOp44
 70
     1
102
RTVSPropertyOp45
 70
     1
102
RTVSPropertyOp46
 70
     1
102
RTVSPropertyOp47
 70
     1
102
RTVSPropertyOp48
 70
     1
102
RTVSPropertyOp49
 70
     1
102
RTVSPropertyOp50
 70
     1
102
RTVSPropertyOp51
 70
     0
102
RTVSPropertyOp52
 70
     0
102
RTVSPropertyOp53
 70
     1
102
RTVSPropertyOp54
 70
     1
102
RTVSPropertyOp55
 70
     1
102
RTVSPropertyOp56
 70
     1
102
RTVSPropertyOp57
 70
     1
102
RTVSPropertyOp58
 70
     1
102
RTVSPropertyOp59
 70
     1
102
RTVSPropertyOp60
 70
     1
102
RTVSPropertyOp61
 70
     1
102
RTVSPropertyOp62
 70
     1
  0
XRECORD
  5
37F
102
{ACAD_REACTORS
330
37E
102
}
330
37E
100
AcDbXrecord
280
     1
102
RTVSPost2010Prop28
280
     0
102
RTVSPost2010PropOp28
 70
     1
102
RTVSPost2010Prop29
280
     1
102
RTVSPost2010PropOp29
 70
     1
102
RTVSPost2010Prop30
280
     1
102
RTVSPost2010PropOp30
 70
     1
102
RTVSPost2010Prop31
280
     0
102
RTVSPost2010PropOp31
 70
     1
102
RTVSPost2010Prop32
280
     0
102
RTVSPost2010PropOp32
 70
     1
102
RTVSPost2010Prop33
280
     0
102
RTVSPost2010PropOp33
 70
     1
102
RTVSPost2010Prop34
280
     0
102
RTVSPost2010PropOp34
 70
     1
102
RTVSPost2010Prop35
280
     0
102
RTVSPost2010PropOp35
 70
     1
102
RTVSPost2010Prop36
280
     0
102
RTVSPost2010PropOp36
 70
     1
102
RTVSPost2010Prop37
 90
       50
102
RTVSPost2010PropOp37
 70
     1
102
RTVSPost2010Prop38
140
0.0
102
RTVSPost2010PropOp38
 70
     1
102
RTVSPost2010Prop39
140
1.0
102
RTVSPost2010PropOp39
 70
     1
102
RTVSPost2010Prop40
 90
        0
102
RTVSPost2010PropOp40
 70
     1
102
RTVSPost2010Prop41ColorIndex
 90
       18
102
RTVSPost2010Prop41ColorRGB
 90
        0
102
RTVSPost2010PropOp41
 70
     1
102
RTVSPost2010Prop42
 90
       50
102
RTVSPost2010PropOp42
 70
     1
102
RTVSPost2010Prop43
 90
        3
102
RTVSPost2010PropOp43
 70
     1
102
RTVSPost2010Prop44ColorIndex
 90
        5
102
RTVSPost2010Prop44ColorRGB
 90
      255
102
RTVSPost2010PropOp44
 70
     1
102
RTVSPost2010Prop45
280
     0
102
RTVSPost2010PropOp45
 70
     1
102
RTVSPost2010Prop46
 90
       50
102
RTVSPost2010PropOp46
 70
     1
102
RTVSPost2010Prop47
 90
       50
102
RTVSPost2010PropOp47
 70
     1
102
RTVSPost2010Prop48
 90
       50
102
RTVSPost2010PropOp48
 70
     1
102
RTVSPost2010Prop49
280
     0
102
RTVSPost2010PropOp49
 70
     1
102
RTVSPost2010Prop50
 90
       50
102
RTVSPost2010PropOp50
 70
     1
102
RTVSPost2010Prop51ColorIndex
 90
      256
102
RTVSPost2010Prop51ColorRGB
 90
-16777216
102
RTVSPost2010PropOp51
 70
     0
102
RTVSPost2010Prop52
140
1.0
102
RTVSPost2010PropOp52
 70
     0
102
RTVSPost2010Prop53
 90
        2
102
RTVSPost2010PropOp53
 70
     1
102
RTVSPost2010Prop54
  1
strokes_ogs.tif
102
RTVSPost2010PropOp54
 70
     1
102
RTVSPost2010Prop55
280
     0
102
RTVSPost2010PropOp55
 70
     1
102
RTVSPost2010Prop56
140
1.0
102
RTVSPost2010PropOp56
 70
     1
102
RTVSPost2010Prop57
140
1.0
102
RTVSPost2010PropOp57
 70
     1
102
RTVSPropertyOp0
 70
     1
102
RTVSPropertyOp1
 70
     1
102
RTVSPropertyOp2
 70
     1
102
RTVSPropertyOp3
 70
     1
102
RTVSPropertyOp4
 70
     1
102
RTVSPropertyOp5
 70
     1
102
RTVSPropertyOp6
 70
     1
102
RTVSPropertyOp7
 70
     1
102
RTVSPropertyOp8
 70
     1
102
RTVSPropertyOp9
 70
     1
102
RTVSPropertyOp10
 70
     1
102
RTVSPropertyOp11
 70
     1
102
RTVSPropertyOp12
 70
     1
102
RTVSPropertyOp13
 70
     1
102
RTVSPropertyOp14
 70
     1
102
RTVSPropertyOp15
 70
     1
102
RTVSPropertyOp16
 70
     1
102
RTVSPropertyOp17
 70
     1
102
RTVSPropertyOp18
 70
     1
102
RTVSPropertyOp19
 70
     1
102
RTVSPropertyOp20
 70
     1
102
RTVSPropertyOp21
 70
     1
102
RTVSPropertyOp22
 70
     1
102
RTVSPropertyOp23
 70
     1
102
RTVSPropertyOp24
 70
     1
102
RTVSPropertyOp25
 70
     1
102
RTVSPropertyOp26
 70
     1
102
RTVSPropertyOp27
 70
     1
102
RTVSPropertyOp28
 70
     1
102
RTVSPropertyOp29
 70
     1
102
RTVSPropertyOp30
 70
     1
102
RTVSPropertyOp31
 70
     1
102
RTVSPropertyOp32
 70
     1
102
RTVSPropertyOp33
 70
     1
102
RTVSPropertyOp34
 70
     1
102
RTVSPropertyOp35
 70
     1
102
RTVSPropertyOp36
 70
     1
102
RTVSPropertyOp37
 70
     1
102
RTVSPropertyOp38
 70
     1
102
RTVSPropertyOp39
 70
     1
102
RTVSPropertyOp40
 70
     1
102
RTVSPropertyOp41
 70
     1
102
RTVSPropertyOp42
 70
     1
102
RTVSPropertyOp43
 70
     1
102
RTVSPropertyOp44
 70
     1
102
RTVSPropertyOp45
 70
     1
102
RTVSPropertyOp46
 70
     1
102
RTVSPropertyOp47
 70
     1
102
RTVSPropertyOp48
 70
     1
102
RTVSPropertyOp49
 70
     1
102
RTVSPropertyOp50
 70
     1
102
RTVSPropertyOp51
 70
     0
102
RTVSPropertyOp52
 70
     0
102
RTVSPropertyOp53
 70
     1
102
RTVSPropertyOp54
 70
     1
102
RTVSPropertyOp55
 70
     1
102
RTVSPropertyOp56
 70
     1
102
RTVSPropertyOp57
 70
     1
102
RTVSPropertyOp58
 70
     1
102
RTVSPropertyOp59
 70
     1
102
RTVSPropertyOp60
 70
     1
102
RTVSPropertyOp61
 70
     1
102
RTVSPropertyOp62
 70
     1
  0
XRECORD
  5
36F
102
{ACAD_REACTORS
330
36E
102
}
330
36E
100
AcDbXrecord
280
     1
102
RTVSPost2010Prop28
280
     0
102
RTVSPost2010PropOp28
 70
     1
102
RTVSPost2010Prop29
280
     1
102
RTVSPost2010PropOp29
 70
     1
102
RTVSPost2010Prop30
280
     1
102
RTVSPost2010PropOp30
 70
     1
102
RTVSPost2010Prop31
280
     0
102
RTVSPost2010PropOp31
 70
     1
102
RTVSPost2010Prop32
280
     0
102
RTVSPost2010PropOp32
 70
     1
102
RTVSPost2010Prop33
280
     0
102
RTVSPost2010PropOp33
 70
     1
102
RTVSPost2010Prop34
280
     0
102
RTVSPost2010PropOp34
 70
     1
102
RTVSPost2010Prop35
280
     0
102
RTVSPost2010PropOp35
 70
     1
102
RTVSPost2010Prop36
280
     0
102
RTVSPost2010PropOp36
 70
     1
102
RTVSPost2010Prop37
 90
       50
102
RTVSPost2010PropOp37
 70
     1
102
RTVSPost2010Prop38
140
0.0
102
RTVSPost2010PropOp38
 70
     1
102
RTVSPost2010Prop39
140
1.0
102
RTVSPost2010PropOp39
 70
     1
102
RTVSPost2010Prop40
 90
        0
102
RTVSPost2010PropOp40
 70
     1
102
RTVSPost2010Prop41ColorIndex
 90
       18
102
RTVSPost2010Prop41ColorRGB
 90
        0
102
RTVSPost2010PropOp41
 70
     1
102
RTVSPost2010Prop42
 90
       50
102
RTVSPost2010PropOp42
 70
     1
102
RTVSPost2010Prop43
 90
        3
102
RTVSPost2010PropOp43
 70
     1
102
RTVSPost2010Prop44ColorIndex
 90
        5
102
RTVSPost2010Prop44ColorRGB
 90
      255
102
RTVSPost2010PropOp44
 70
     1
102
RTVSPost2010Prop45
280
     0
102
RTVSPost2010PropOp45
 70
     1
102
RTVSPost2010Prop46
 90
       50
102
RTVSPost2010PropOp46
 70
     1
102
RTVSPost2010Prop47
 90
       50
102
RTVSPost2010PropOp47
 70
     1
102
RTVSPost2010Prop48
 90
       50
102
RTVSPost2010PropOp48
 70
     1
102
RTVSPost2010Prop49
280
     0
102
RTVSPost2010PropOp49
 70
     1
102
RTVSPost2010Prop50
 90
       50
102
RTVSPost2010PropOp50
 70
     1
102
RTVSPost2010Prop51ColorIndex
 90
      256
102
RTVSPost2010Prop51ColorRGB
 90
-16777216
102
RTVSPost2010PropOp51
 70
     0
102
RTVSPost2010Prop52
140
1.0
102
RTVSPost2010PropOp52
 70
     0
102
RTVSPost2010Prop53
 90
        2
102
RTVSPost2010PropOp53
 70
     1
102
RTVSPost2010Prop54
  1
strokes_ogs.tif
102
RTVSPost2010PropOp54
 70
     1
102
RTVSPost2010Prop55
280
     0
102
RTVSPost2010PropOp55
 70
     1
102
RTVSPost2010Prop56
140
1.0
102
RTVSPost2010PropOp56
 70
     1
102
RTVSPost2010Prop57
140
1.0
102
RTVSPost2010PropOp57
 70
     1
102
RTVSPropertyOp0
 70
     1
102
RTVSPropertyOp1
 70
     1
102
RTVSPropertyOp2
 70
     1
102
RTVSPropertyOp3
 70
     1
102
RTVSPropertyOp4
 70
     1
102
RTVSPropertyOp5
 70
     1
102
RTVSPropertyOp6
 70
     1
102
RTVSPropertyOp7
 70
     1
102
RTVSPropertyOp8
 70
     1
102
RTVSPropertyOp9
 70
     1
102
RTVSPropertyOp10
 70
     1
102
RTVSPropertyOp11
 70
     1
102
RTVSPropertyOp12
 70
     1
102
RTVSPropertyOp13
 70
     1
102
RTVSPropertyOp14
 70
     1
102
RTVSPropertyOp15
 70
     1
102
RTVSPropertyOp16
 70
     1
102
RTVSPropertyOp17
 70
     1
102
RTVSPropertyOp18
 70
     1
102
RTVSPropertyOp19
 70
     1
102
RTVSPropertyOp20
 70
     1
102
RTVSPropertyOp21
 70
     1
102
RTVSPropertyOp22
 70
     1
102
RTVSPropertyOp23
 70
     1
102
RTVSPropertyOp24
 70
     1
102
RTVSPropertyOp25
 70
     1
102
RTVSPropertyOp26
 70
     1
102
RTVSPropertyOp27
 70
     1
102
RTVSPropertyOp28
 70
     1
102
RTVSPropertyOp29
 70
     1
102
RTVSPropertyOp30
 70
     1
102
RTVSPropertyOp31
 70
     1
102
RTVSPropertyOp32
 70
     1
102
RTVSPropertyOp33
 70
     1
102
RTVSPropertyOp34
 70
     1
102
RTVSPropertyOp35
 70
     1
102
RTVSPropertyOp36
 70
     1
102
RTVSPropertyOp37
 70
     1
102
RTVSPropertyOp38
 70
     1
102
RTVSPropertyOp39
 70
     1
102
RTVSPropertyOp40
 70
     1
102
RTVSPropertyOp41
 70
     1
102
RTVSPropertyOp42
 70
     1
102
RTVSPropertyOp43
 70
     1
102
RTVSPropertyOp44
 70
     1
102
RTVSPropertyOp45
 70
     1
102
RTVSPropertyOp46
 70
     1
102
RTVSPropertyOp47
 70
     1
102
RTVSPropertyOp48
 70
     1
102
RTVSPropertyOp49
 70
     1
102
RTVSPropertyOp50
 70
     1
102
RTVSPropertyOp51
 70
     0
102
RTVSPropertyOp52
 70
     0
102
RTVSPropertyOp53
 70
     1
102
RTVSPropertyOp54
 70
     1
102
RTVSPropertyOp55
 70
     1
102
RTVSPropertyOp56
 70
     1
102
RTVSPropertyOp57
 70
     1
102
RTVSPropertyOp58
 70
     1
102
RTVSPropertyOp59
 70
     1
102
RTVSPropertyOp60
 70
     1
102
RTVSPropertyOp61
 70
     1
102
RTVSPropertyOp62
 70
     1
  0
XRECORD
  5
361
102
{ACAD_REACTORS
330
360
102
}
330
360
100
AcDbXrecord
280
     1
102
RTVSPost2010Prop28
280
     0
102
RTVSPost2010PropOp28
 70
     1
102
RTVSPost2010Prop29
280
     1
102
RTVSPost2010PropOp29
 70
     1
102
RTVSPost2010Prop30
280
     1
102
RTVSPost2010PropOp30
 70
     1
102
RTVSPost2010Prop31
280
     0
102
RTVSPost2010PropOp31
 70
     1
102
RTVSPost2010Prop32
280
     0
102
RTVSPost2010PropOp32
 70
     1
102
RTVSPost2010Prop33
280
     0
102
RTVSPost2010PropOp33
 70
     1
102
RTVSPost2010Prop34
280
     0
102
RTVSPost2010PropOp34
 70
     1
102
RTVSPost2010Prop35
280
     0
102
RTVSPost2010PropOp35
 70
     1
102
RTVSPost2010Prop36
280
     0
102
RTVSPost2010PropOp36
 70
     1
102
RTVSPost2010Prop37
 90
       50
102
RTVSPost2010PropOp37
 70
     1
102
RTVSPost2010Prop38
140
0.0
102
RTVSPost2010PropOp38
 70
     1
102
RTVSPost2010Prop39
140
1.0
102
RTVSPost2010PropOp39
 70
     1
102
RTVSPost2010Prop40
 90
        0
102
RTVSPost2010PropOp40
 70
     1
102
RTVSPost2010Prop41ColorIndex
 90
       18
102
RTVSPost2010Prop41ColorRGB
 90
        0
102
RTVSPost2010PropOp41
 70
     1
102
RTVSPost2010Prop42
 90
       50
102
RTVSPost2010PropOp42
 70
     1
102
RTVSPost2010Prop43
 90
        3
102
RTVSPost2010PropOp43
 70
     1
102
RTVSPost2010Prop44ColorIndex
 90
        5
102
RTVSPost2010Prop44ColorRGB
 90
      255
102
RTVSPost2010PropOp44
 70
     1
102
RTVSPost2010Prop45
280
     0
102
RTVSPost2010PropOp45
 70
     1
102
RTVSPost2010Prop46
 90
       50
102
RTVSPost2010PropOp46
 70
     1
102
RTVSPost2010Prop47
 90
       50
102
RTVSPost2010PropOp47
 70
     1
102
RTVSPost2010Prop48
 90
       50
102
RTVSPost2010PropOp48
 70
     1
102
RTVSPost2010Prop49
280
     0
102
RTVSPost2010PropOp49
 70
     1
102
RTVSPost2010Prop50
 90
       50
102
RTVSPost2010PropOp50
 70
     1
102
RTVSPost2010Prop51ColorIndex
 90
      256
102
RTVSPost2010Prop51ColorRGB
 90
-16777216
102
RTVSPost2010PropOp51
 70
     0
102
RTVSPost2010Prop52
140
1.0
102
RTVSPost2010PropOp52
 70
     0
102
RTVSPost2010Prop53
 90
        2
102
RTVSPost2010PropOp53
 70
     1
102
RTVSPost2010Prop54
  1
strokes_ogs.tif
102
RTVSPost2010PropOp54
 70
     1
102
RTVSPost2010Prop55
280
     0
102
RTVSPost2010PropOp55
 70
     1
102
RTVSPost2010Prop56
140
1.0
102
RTVSPost2010PropOp56
 70
     1
102
RTVSPost2010Prop57
140
1.0
102
RTVSPost2010PropOp57
 70
     1
102
RTVSPropertyOp0
 70
     1
102
RTVSPropertyOp1
 70
     1
102
RTVSPropertyOp2
 70
     1
102
RTVSPropertyOp3
 70
     1
102
RTVSPropertyOp4
 70
     1
102
RTVSPropertyOp5
 70
     1
102
RTVSPropertyOp6
 70
     1
102
RTVSPropertyOp7
 70
     1
102
RTVSPropertyOp8
 70
     1
102
RTVSPropertyOp9
 70
     1
102
RTVSPropertyOp10
 70
     1
102
RTVSPropertyOp11
 70
     1
102
RTVSPropertyOp12
 70
     1
102
RTVSPropertyOp13
 70
     1
102
RTVSPropertyOp14
 70
     1
102
RTVSPropertyOp15
 70
     1
102
RTVSPropertyOp16
 70
     1
102
RTVSPropertyOp17
 70
     1
102
RTVSPropertyOp18
 70
     1
102
RTVSPropertyOp19
 70
     1
102
RTVSPropertyOp20
 70
     1
102
RTVSPropertyOp21
 70
     1
102
RTVSPropertyOp22
 70
     1
102
RTVSPropertyOp23
 70
     1
102
RTVSPropertyOp24
 70
     1
102
RTVSPropertyOp25
 70
     1
102
RTVSPropertyOp26
 70
     1
102
RTVSPropertyOp27
 70
     1
102
RTVSPropertyOp28
 70
     1
102
RTVSPropertyOp29
 70
     1
102
RTVSPropertyOp30
 70
     1
102
RTVSPropertyOp31
 70
     1
102
RTVSPropertyOp32
 70
     1
102
RTVSPropertyOp33
 70
     1
102
RTVSPropertyOp34
 70
     1
102
RTVSPropertyOp35
 70
     1
102
RTVSPropertyOp36
 70
     1
102
RTVSPropertyOp37
 70
     1
102
RTVSPropertyOp38
 70
     1
102
RTVSPropertyOp39
 70
     1
102
RTVSPropertyOp40
 70
     1
102
RTVSPropertyOp41
 70
     1
102
RTVSPropertyOp42
 70
     1
102
RTVSPropertyOp43
 70
     1
102
RTVSPropertyOp44
 70
     1
102
RTVSPropertyOp45
 70
     1
102
RTVSPropertyOp46
 70
     1
102
RTVSPropertyOp47
 70
     1
102
RTVSPropertyOp48
 70
     1
102
RTVSPropertyOp49
 70
     1
102
RTVSPropertyOp50
 70
     1
102
RTVSPropertyOp51
 70
     0
102
RTVSPropertyOp52
 70
     0
102
RTVSPropertyOp53
 70
     1
102
RTVSPropertyOp54
 70
     1
102
RTVSPropertyOp55
 70
     1
102
RTVSPropertyOp56
 70
     1
102
RTVSPropertyOp57
 70
     1
102
RTVSPropertyOp58
 70
     1
102
RTVSPropertyOp59
 70
     1
102
RTVSPropertyOp60
 70
     1
102
RTVSPropertyOp61
 70
     1
102
RTVSPropertyOp62
 70
     1
  0
XRECORD
  5
381
102
{ACAD_REACTORS
330
380
102
}
330
380
100
AcDbXrecord
280
     1
102
RTVSPost2010Prop28
280
     0
102
RTVSPost2010PropOp28
 70
     1
102
RTVSPost2010Prop29
280
     1
102
RTVSPost2010PropOp29
 70
     1
102
RTVSPost2010Prop30
280
     1
102
RTVSPost2010PropOp30
 70
     1
102
RTVSPost2010Prop31
280
     0
102
RTVSPost2010PropOp31
 70
     1
102
RTVSPost2010Prop32
280
     0
102
RTVSPost2010PropOp32
 70
     1
102
RTVSPost2010Prop33
280
     0
102
RTVSPost2010PropOp33
 70
     1
102
RTVSPost2010Prop34
280
     0
102
RTVSPost2010PropOp34
 70
     1
102
RTVSPost2010Prop35
280
     0
102
RTVSPost2010PropOp35
 70
     1
102
RTVSPost2010Prop36
280
     0
102
RTVSPost2010PropOp36
 70
     1
102
RTVSPost2010Prop37
 90
       50
102
RTVSPost2010PropOp37
 70
     1
102
RTVSPost2010Prop38
140
0.0
102
RTVSPost2010PropOp38
 70
     1
102
RTVSPost2010Prop39
140
1.0
102
RTVSPost2010PropOp39
 70
     1
102
RTVSPost2010Prop40
 90
        0
102
RTVSPost2010PropOp40
 70
     1
102
RTVSPost2010Prop41ColorIndex
 90
       18
102
RTVSPost2010Prop41ColorRGB
 90
        0
102
RTVSPost2010PropOp41
 70
     1
102
RTVSPost2010Prop42
 90
       50
102
RTVSPost2010PropOp42
 70
     1
102
RTVSPost2010Prop43
 90
        3
102
RTVSPost2010PropOp43
 70
     1
102
RTVSPost2010Prop44ColorIndex
 90
        5
102
RTVSPost2010Prop44ColorRGB
 90
      255
102
RTVSPost2010PropOp44
 70
     1
102
RTVSPost2010Prop45
280
     0
102
RTVSPost2010PropOp45
 70
     1
102
RTVSPost2010Prop46
 90
       50
102
RTVSPost2010PropOp46
 70
     1
102
RTVSPost2010Prop47
 90
       50
102
RTVSPost2010PropOp47
 70
     1
102
RTVSPost2010Prop48
 90
       50
102
RTVSPost2010PropOp48
 70
     1
102
RTVSPost2010Prop49
280
     0
102
RTVSPost2010PropOp49
 70
     1
102
RTVSPost2010Prop50
 90
       50
102
RTVSPost2010PropOp50
 70
     1
102
RTVSPost2010Prop51ColorIndex
 90
      256
102
RTVSPost2010Prop51ColorRGB
 90
-16777216
102
RTVSPost2010PropOp51
 70
     0
102
RTVSPost2010Prop52
140
1.0
102
RTVSPost2010PropOp52
 70
     0
102
RTVSPost2010Prop53
 90
        2
102
RTVSPost2010PropOp53
 70
     1
102
RTVSPost2010Prop54
  1
strokes_ogs.tif
102
RTVSPost2010PropOp54
 70
     1
102
RTVSPost2010Prop55
280
     0
102
RTVSPost2010PropOp55
 70
     1
102
RTVSPost2010Prop56
140
1.0
102
RTVSPost2010PropOp56
 70
     1
102
RTVSPost2010Prop57
140
1.0
102
RTVSPost2010PropOp57
 70
     1
102
RTVSPropertyOp0
 70
     1
102
RTVSPropertyOp1
 70
     1
102
RTVSPropertyOp2
 70
     1
102
RTVSPropertyOp3
 70
     1
102
RTVSPropertyOp4
 70
     1
102
RTVSPropertyOp5
 70
     1
102
RTVSPropertyOp6
 70
     1
102
RTVSPropertyOp7
 70
     1
102
RTVSPropertyOp8
 70
     1
102
RTVSPropertyOp9
 70
     1
102
RTVSPropertyOp10
 70
     1
102
RTVSPropertyOp11
 70
     1
102
RTVSPropertyOp12
 70
     1
102
RTVSPropertyOp13
 70
     1
102
RTVSPropertyOp14
 70
     1
102
RTVSPropertyOp15
 70
     1
102
RTVSPropertyOp16
 70
     1
102
RTVSPropertyOp17
 70
     1
102
RTVSPropertyOp18
 70
     1
102
RTVSPropertyOp19
 70
     1
102
RTVSPropertyOp20
 70
     1
102
RTVSPropertyOp21
 70
     1
102
RTVSPropertyOp22
 70
     1
102
RTVSPropertyOp23
 70
     1
102
RTVSPropertyOp24
 70
     1
102
RTVSPropertyOp25
 70
     1
102
RTVSPropertyOp26
 70
     1
102
RTVSPropertyOp27
 70
     1
102
RTVSPropertyOp28
 70
     1
102
RTVSPropertyOp29
 70
     1
102
RTVSPropertyOp30
 70
     1
102
RTVSPropertyOp31
 70
     1
102
RTVSPropertyOp32
 70
     1
102
RTVSPropertyOp33
 70
     1
102
RTVSPropertyOp34
 70
     1
102
RTVSPropertyOp35
 70
     1
102
RTVSPropertyOp36
 70
     1
102
RTVSPropertyOp37
 70
     1
102
RTVSPropertyOp38
 70
     1
102
RTVSPropertyOp39
 70
     1
102
RTVSPropertyOp40
 70
     1
102
RTVSPropertyOp41
 70
     1
102
RTVSPropertyOp42
 70
     1
102
RTVSPropertyOp43
 70
     1
102
RTVSPropertyOp44
 70
     1
102
RTVSPropertyOp45
 70
     1
102
RTVSPropertyOp46
 70
     1
102
RTVSPropertyOp47
 70
     1
102
RTVSPropertyOp48
 70
     1
102
RTVSPropertyOp49
 70
     1
102
RTVSPropertyOp50
 70
     1
102
RTVSPropertyOp51
 70
     0
102
RTVSPropertyOp52
 70
     0
102
RTVSPropertyOp53
 70
     1
102
RTVSPropertyOp54
 70
     1
102
RTVSPropertyOp55
 70
     1
102
RTVSPropertyOp56
 70
     1
102
RTVSPropertyOp57
 70
     1
102
RTVSPropertyOp58
 70
     1
102
RTVSPropertyOp59
 70
     1
102
RTVSPropertyOp60
 70
     1
102
RTVSPropertyOp61
 70
     1
102
RTVSPropertyOp62
 70
     1
  0
ENDSEC
  0
EOF
