  0
SECTION
  2
HEADER
  9
$ACADVER
  1
AC1015
  9
$ACADMAINTVER
 70
    20
  9
$DWGCODEPAGE
  3
ANSI_1250
  9
$INSBASE
 10
0.0
 20
0.0
 30
0.0
  9
$EXTMIN
 10
44.71137510002342
 20
101.846205
 30
0.0
  9
$EXTMAX
 10
248.900118
 20
218.0747658999766
 30
0.0
  9
$LIMMIN
 10
-0.5
 20
-0.5
  9
$LIMMAX
 10
5.0
 20
5.0
  9
$ORTHOMODE
 70
     0
  9
$REGENMODE
 70
     1
  9
$FILLMODE
 70
     1
  9
$QTEXTMODE
 70
     0
  9
$MIRRTEXT
 70
     1
  9
$LTSCALE
 40
1.0
  9
$ATTMODE
 70
     1
  9
$TEXTSIZE
 40
0.2
  9
$TRACEWID
 40
0.05
  9
$TEXTSTYLE
  7
Standard
  9
$CLAYER
  8
0
  9
$CELTYPE
  6
BYLAYER
  9
$CECOLOR
 62
   256
  9
$CELTSCALE
 40
1.0
  9
$DISPSILH
 70
     0
  9
$DIMSCALE
 40
1.0
  9
$DIMASZ
 40
0.18
  9
$DIMEXO
 40
0.0625
  9
$DIMDLI
 40
0.38
  9
$DIMRND
 40
0.0
  9
$DIMDLE
 40
0.0
  9
$DIMEXE
 40
0.18
  9
$DIMTP
 40
0.0
  9
$DIMTM
 40
0.0
  9
$DIMTXT
 40
0.18
  9
$DIMCEN
 40
0.09
  9
$DIMTSZ
 40
0.0
  9
$DIMTOL
 70
     0
  9
$DIMLIM
 70
     0
  9
$DIMTIH
 70
     1
  9
$DIMTOH
 70
     1
  9
$DIMSE1
 70
     0
  9
$DIMSE2
 70
     0
  9
$DIMTAD
 70
     0
  9
$DIMZIN
 70
     0
  9
$DIMBLK
  1

  9
$DIMASO
 70
     1
  9
$DIMSHO
 70
     1
  9
$DIMPOST
  1

  9
$DIMAPOST
  1

  9
$DIMALT
 70
     0
  9
$DIMALTD
 70
     2
  9
$DIMALTF
 40
25.4
  9
$DIMLFAC
 40
1.0
  9
$DIMTOFL
 70
     0
  9
$DIMTVP
 40
0.0
  9
$DIMTIX
 70
     0
  9
$DIMSOXD
 70
     0
  9
$DIMSAH
 70
     0
  9
$DIMBLK1
  1

  9
$DIMBLK2
  1

  9
$DIMSTYLE
  2
Standard
  9
$DIMCLRD
 70
     0
  9
$DIMCLRE
 70
     0
  9
$DIMCLRT
 70
     0
  9
$DIMTFAC
 40
1.0
  9
$DIMGAP
 40
0.09
  9
$DIMJUST
 70
     0
  9
$DIMSD1
 70
     0
  9
$DIMSD2
 70
     0
  9
$DIMTOLJ
 70
     1
  9
$DIMTZIN
 70
     0
  9
$DIMALTZ
 70
     0
  9
$DIMALTTZ
 70
     0
  9
$DIMUPT
 70
     0
  9
$DIMDEC
 70
     4
  9
$DIMTDEC
 70
     4
  9
$DIMALTU
 70
     2
  9
$DIMALTTD
 70
     2
  9
$DIMTXSTY
  7
Standard
  9
$DIMAUNIT
 70
     0
  9
$DIMADEC
 70
     0
  9
$DIMALTRND
 40
0.0
  9
$DIMAZIN
 70
     0
  9
$DIMDSEP
 70
    46
  9
$DIMATFIT
 70
     3
  9
$DIMFRAC
 70
     0
  9
$DIMLDRBLK
  1

  9
$DIMLUNIT
 70
     2
  9
$DIMLWD
 70
    -2
  9
$DIMLWE
 70
    -2
  9
$DIMTMOVE
 70
     0
  9
$LUNITS
 70
     2
  9
$LUPREC
 70
     4
  9
$SKETCHINC
 40
0.1
  9
$FILLETRAD
 40
0.5
  9
$AUNITS
 70
     0
  9
$AUPREC
 70
     0
  9
$MENU
  1
.
  9
$ELEVATION
 40
0.0
  9
$PELEVATION
 40
0.0
  9
$THICKNESS
 40
0.0
  9
$LIMCHECK
 70
     0
  9
$CHAMFERA
 40
0.0
  9
$CHAMFERB
 40
0.0
  9
$CHAMFERC
 40
0.0
  9
$CHAMFERD
 40
0.0
  9
$SKPOLY
 70
     0
  9
$TDCREATE
 40
2457903.431187489
  9
$TDUCREATE
 40
2457903.347854155
  9
$TDUPDATE
 40
2457903.432538866
  9
$TDUUPDATE
 40
2457903.349205533
  9
$TDINDWG
 40
0.0007015162
  9
$TDUSRTIMER
 40
0.0007015046
  9
$USRTIMER
 70
     1
  9
$ANGBASE
 50
0.0
  9
$ANGDIR
 70
     0
  9
$PDMODE
 70
     0
  9
$PDSIZE
 40
0.0
  9
$PLINEWID
 40
0.0
  9
$SPLFRAME
 70
     0
  9
$SPLINETYPE
 70
     6
  9
$SPLINESEGS
 70
     8
  9
$HANDSEED
  5
3DF
  9
$SURFTAB1
 70
     6
  9
$SURFTAB2
 70
     6
  9
$SURFTYPE
 70
     6
  9
$SURFU
 70
     6
  9
$SURFV
 70
     6
  9
$UCSBASE
  2

  9
$UCSNAME
  2

  9
$UCSORG
 10
0.0
 20
0.0
 30
0.0
  9
$UCSXDIR
 10
1.0
 20
0.0
 30
0.0
  9
$UCSYDIR
 10
0.0
 20
1.0
 30
0.0
  9
$UCSORTHOREF
  2

  9
$UCSORTHOVIEW
 70
     0
  9
$UCSORGTOP
 10
0.0
 20
0.0
 30
0.0
  9
$UCSORGBOTTOM
 10
0.0
 20
0.0
 30
0.0
  9
$UCSORGLEFT
 10
0.0
 20
0.0
 30
0.0
  9
$UCSORGRIGHT
 10
0.0
 20
0.0
 30
0.0
  9
$UCSORGFRONT
 10
0.0
 20
0.0
 30
0.0
  9
$UCSORGBACK
 10
0.0
 20
0.0
 30
0.0
  9
$PUCSBASE
  2

  9
$PUCSNAME
  2

  9
$PUCSORG
 10
0.0
 20
0.0
 30
0.0
  9
$PUCSXDIR
 10
1.0
 20
0.0
 30
0.0
  9
$PUCSYDIR
 10
0.0
 20
1.0
 30
0.0
  9
$PUCSORTHOREF
  2

  9
$PUCSORTHOVIEW
 70
     0
  9
$PUCSORGTOP
 10
0.0
 20
0.0
 30
0.0
  9
$PUCSORGBOTTOM
 10
0.0
 20
0.0
 30
0.0
  9
$PUCSORGLEFT
 10
0.0
 20
0.0
 30
0.0
  9
$PUCSORGRIGHT
 10
0.0
 20
0.0
 30
0.0
  9
$PUCSORGFRONT
 10
0.0
 20
0.0
 30
0.0
  9
$PUCSORGBACK
 10
0.0
 20
0.0
 30
0.0
  9
$USERI1
 70
     0
  9
$USERI2
 70
     0
  9
$USERI3
 70
     0
  9
$USERI4
 70
     0
  9
$USERI5
 70
     0
  9
$USERR1
 40
0.0
  9
$USERR2
 40
0.0
  9
$USERR3
 40
0.0
  9
$USERR4
 40
0.0
  9
$USERR5
 40
0.0
  9
$WORLDVIEW
 70
     1
  9
$SHADEDGE
 70
     3
  9
$SHADEDIF
 70
    70
  9
$TILEMODE
 70
     1
  9
$MAXACTVP
 70
    64
  9
$PINSBASE
 10
0.0
 20
0.0
 30
0.0
  9
$PLIMCHECK
 70
     0
  9
$PEXTMIN
 10
-0.5
 20
-0.5
 30
-0.5
  9
$PEXTMAX
 10
5.0
 20
5.0
 30
5.0
  9
$PLIMMIN
 10
-0.5
 20
-0.5
  9
$PLIMMAX
 10
5.0
 20
5.0
  9
$UNITMODE
 70
     0
  9
$VISRETAIN
 70
     1
  9
$PLINEGEN
 70
     0
  9
$PSLTSCALE
 70
     1
  9
$TREEDEPTH
 70
  3020
  9
$CMLSTYLE
  2
Standard
  9
$CMLJUST
 70
     0
  9
$CMLSCALE
 40
1.0
  9
$PROXYGRAPHICS
 70
     1
  9
$MEASUREMENT
 70
     1
  9
$CELWEIGHT
370
    13
  9
$ENDCAPS
280
     0
  9
$JOINSTYLE
280
     0
  9
$LWDISPLAY
290
     1
  9
$INSUNITS
 70
     4
  9
$HYPERLINKBASE
  1

  9
$STYLESHEET
  1

  9
$XEDIT
290
     1
  9
$CEPSNTYPE
380
     0
  9
$PSTYLEMODE
290
     1
  9
$FINGERPRINTGUID
  2
{ED7D24BE-5021-4B21-AB85-80B047788389}
  9
$VERSIONGUID
  2
{49FC301E-F645-45E1-B375-72A6EF32DD21}
  9
$EXTNAMES
290
     1
  9
$PSVPSCALE
 40
0.0
  9
$OLESTARTUP
290
     0
  0
ENDSEC
  0
SECTION
  2
CLASSES
  0
CLASS
  1
ACDBDICTIONARYWDFLT
  2
AcDbDictionaryWithDefault
  3
ObjectDBX Classes
 90
        0
280
     0
281
     0
  0
CLASS
  1
VISUALSTYLE
  2
AcDbVisualStyle
  3
ObjectDBX Classes
 90
     4095
280
     0
281
     0
  0
CLASS
  1
MATERIAL
  2
AcDbMaterial
  3
ObjectDBX Classes
 90
     1153
280
     0
281
     0
  0
CLASS
  1
SCALE
  2
AcDbScale
  3
ObjectDBX Classes
 90
     1153
280
     0
281
     0
  0
CLASS
  1
SUN
  2
AcDbSun
  3
SCENEOE
 90
    33921
280
     0
281
     0
  0
CLASS
  1
DICTIONARYVAR
  2
AcDbDictionaryVar
  3
ObjectDBX Classes
 90
        0
280
     0
281
     0
  0
CLASS
  1
ACDBPLACEHOLDER
  2
AcDbPlaceHolder
  3
ObjectDBX Classes
 90
        0
280
     0
281
     0
  0
CLASS
  1
LAYOUT
  2
AcDbLayout
  3
ObjectDBX Classes
 90
        0
280
     0
281
     0
  0
CLASS
  1
TABLESTYLE
  2
AcDbTableStyle
  3
ObjectDBX Classes
 90
     4095
280
     0
281
     0
  0
CLASS
  1
MLEADERSTYLE
  2
AcDbMLeaderStyle
  3
ACDB_MLEADERSTYLE_CLASS
 90
     4095
280
     0
281
     0
  0
CLASS
  1
ACDBSECTIONVIEWSTYLE
  2
AcDbSectionViewStyle
  3
ObjectDBX Classes
 90
     1025
280
     0
281
     0
  0
CLASS
  1
ACDBDETAILVIEWSTYLE
  2
AcDbDetailViewStyle
  3
ObjectDBX Classes
 90
     1025
280
     0
281
     0
  0
CLASS
  1
SORTENTSTABLE
  2
AcDbSortentsTable
  3
ObjectDBX Classes
 90
        0
280
     0
281
     0
  0
CLASS
  1
CELLSTYLEMAP
  2
AcDbCellStyleMap
  3
ObjectDBX Classes
 90
     1152
280
     0
281
     0
  0
ENDSEC
  0
SECTION
  2
TABLES
  0
TABLE
  2
VPORT
  5
8
330
0
100
AcDbSymbolTable
 70
    17
  0
VPORT
  5
29
330
8
100
AcDbSymbolTableRecord
100
AcDbViewportTableRecord
  2
DUMMY
 70
     0
 10
0.0
 20
0.0
 11
1.0
 21
1.0
 12
10.429907
 22
4.5
 13
0.0
 23
0.0
 14
0.5
 24
0.5
 15
0.5
 25
0.5
 16
0.0
 26
0.0
 36
1.0
 17
0.0
 27
0.0
 37
0.0
 40
9.0
 41
1.972972999999999
 42
50.0
 43
0.0
 44
0.0
 50
0.0
 51
0.0
 71
     0
 72
   100
 73
     1
 74
     3
 75
     0
 76
     0
 77
     0
 78
     0
281
     0
 65
     1
110
0.0
120
0.0
130
0.0
111
1.0
121
0.0
131
0.0
112
0.0
122
1.0
132
0.0
 79
     0
146
0.0
  0
VPORT
  5
1DD
330
8
100
AcDbSymbolTableRecord
100
AcDbViewportTableRecord
  2
*ACTIVE
 70
     0
 10
0.0
 20
0.0
 11
1.0
 21
1.0
 12
58.90063104842017
 22
200.5642312899852
 13
0.0
 23
0.0
 14
0.5
 24
0.5
 15
0.5
 25
0.5
 16
0.0
 26
0.0
 36
1.0
 17
0.0
 27
0.0
 37
0.0
 40
334.6853094068274
 41
2.037154989384288
 42
50.0
 43
354.948759
 44
-354.948759
 50
0.0
 51
0.0
 71
     0
 72
   100
 73
     1
 74
     3
 75
     0
 76
     0
 77
     0
 78
     0
281
     0
 65
     1
110
0.0
120
0.0
130
0.0
111
1.0
121
0.0
131
0.0
112
0.0
122
1.0
132
0.0
 79
     0
146
0.0
1001
ACAD_NAV_VCDISPLAY
1070
     3
  0
VPORT
  5
1DF
330
8
100
AcDbSymbolTableRecord
100
AcDbViewportTableRecord
  2
L1
 70
     0
 10
0.0
 20
0.0
 11
1.0
 21
1.0
 12
146.960071
 22
159.368659
 13
0.0
 23
0.0
 14
0.5
 24
0.5
 15
0.5
 25
0.5
 16
0.0
 26
0.0
 36
1.0
 17
0.0
 27
0.0
 37
0.0
 40
254.0
 41
0.069908
 42
50.0
 43
354.948759
 44
-354.948759
 50
0.0
 51
0.0
 71
     0
 72
   100
 73
     1
 74
     3
 75
     0
 76
     0
 77
     0
 78
     0
281
     0
 65
     1
110
0.0
120
0.0
130
0.0
111
1.0
121
0.0
131
0.0
112
0.0
122
1.0
132
0.0
 79
     0
146
0.0
  0
VPORT
  5
1E0
330
8
100
AcDbSymbolTableRecord
100
AcDbViewportTableRecord
  2
L2
 70
     0
 10
0.0
 20
0.0
 11
0.5
 21
1.0
 12
0.0
 22
0.0
 13
0.0
 23
0.0
 14
0.5
 24
0.5
 15
0.5
 25
0.5
 16
0.0
 26
-1.0
 36
0.0
 17
0.0
 27
0.0
 37
0.0
 40
1319.822715
 41
0.013454
 42
50.0
 43
672.020833
 44
-672.020833
 50
0.0
 51
0.0
 71
     0
 72
   100
 73
     1
 74
     3
 75
     0
 76
     0
 77
     0
 78
     0
281
     0
 65
     1
110
0.0
120
0.0
130
0.0
111
1.0
121
0.0
131
0.0
112
0.0
122
1.0
132
0.0
 79
     0
146
0.0
  0
VPORT
  5
1E1
330
8
100
AcDbSymbolTableRecord
100
AcDbViewportTableRecord
  2
L2
 70
     0
 10
0.5
 20
0.0
 11
1.0
 21
1.0
 12
0.0
 22
0.0
 13
0.0
 23
0.0
 14
0.5
 24
0.5
 15
0.5
 25
0.5
 16
1.0
 26
0.0
 36
0.0
 17
0.0
 27
0.0
 37
0.0
 40
1319.822715
 41
0.013454
 42
50.0
 43
672.020833
 44
-672.020833
 50
0.0
 51
0.0
 71
     0
 72
   100
 73
     1
 74
     3
 75
     0
 76
     0
 77
     0
 78
     0
281
     0
 65
     1
110
0.0
120
0.0
130
0.0
111
1.0
121
0.0
131
0.0
112
0.0
122
1.0
132
0.0
 79
     0
146
0.0
  0
VPORT
  5
1E2
330
8
100
AcDbSymbolTableRecord
100
AcDbViewportTableRecord
  2
L3
 70
     0
 10
0.0
 20
0.5
 11
1.0
 21
1.0
 12
146.960071
 22
159.368659
 13
0.0
 23
0.0
 14
0.5
 24
0.5
 15
0.5
 25
0.5
 16
0.0
 26
0.0
 36
1.0
 17
0.0
 27
0.0
 37
0.0
 40
254.0
 41
0.069908
 42
50.0
 43
354.948759
 44
-354.948759
 50
0.0
 51
0.0
 71
     0
 72
   100
 73
     1
 74
     3
 75
     0
 76
     0
 77
     0
 78
     0
281
     0
 65
     1
110
0.0
120
0.0
130
0.0
111
1.0
121
0.0
131
0.0
112
0.0
122
1.0
132
0.0
 79
     0
146
0.0
  0
VPORT
  5
1E3
330
8
100
AcDbSymbolTableRecord
100
AcDbViewportTableRecord
  2
L3
 70
     0
 10
0.0
 20
0.0
 11
1.0
 21
0.5
 12
0.0
 22
0.0
 13
0.0
 23
0.0
 14
0.5
 24
0.5
 15
0.5
 25
0.5
 16
0.0
 26
-1.0
 36
0.0
 17
0.0
 27
0.0
 37
0.0
 40
1319.822715
 41
0.013454
 42
50.0
 43
672.020833
 44
-672.020833
 50
0.0
 51
0.0
 71
     0
 72
   100
 73
     1
 74
     3
 75
     0
 76
     0
 77
     0
 78
     0
281
     0
 65
     1
110
0.0
120
0.0
130
0.0
111
1.0
121
0.0
131
0.0
112
0.0
122
1.0
132
0.0
 79
     0
146
0.0
  0
VPORT
  5
1E4
330
8
100
AcDbSymbolTableRecord
100
AcDbViewportTableRecord
  2
L4
 70
     0
 10
0.0
 20
0.5
 11
0.5
 21
1.0
 12
146.960071
 22
159.368659
 13
0.0
 23
0.0
 14
0.5
 24
0.5
 15
0.5
 25
0.5
 16
0.0
 26
0.0
 36
1.0
 17
0.0
 27
0.0
 37
0.0
 40
254.0
 41
0.069908
 42
50.0
 43
354.948759
 44
-354.948759
 50
0.0
 51
0.0
 71
     0
 72
   100
 73
     1
 74
     3
 75
     0
 76
     0
 77
     0
 78
     0
281
     0
 65
     1
110
0.0
120
0.0
130
0.0
111
1.0
121
0.0
131
0.0
112
0.0
122
1.0
132
0.0
 79
     0
146
0.0
  0
VPORT
  5
1E5
330
8
100
AcDbSymbolTableRecord
100
AcDbViewportTableRecord
  2
L4
 70
     0
 10
0.0
 20
0.0
 11
0.5
 21
0.5
 12
0.0
 22
0.0
 13
0.0
 23
0.0
 14
0.5
 24
0.5
 15
0.5
 25
0.5
 16
0.0
 26
-1.0
 36
0.0
 17
0.0
 27
0.0
 37
0.0
 40
1319.822715
 41
0.013454
 42
50.0
 43
672.020833
 44
-672.020833
 50
0.0
 51
0.0
 71
     0
 72
   100
 73
     1
 74
     3
 75
     0
 76
     0
 77
     0
 78
     0
281
     0
 65
     1
110
0.0
120
0.0
130
0.0
111
1.0
121
0.0
131
0.0
112
0.0
122
1.0
132
0.0
 79
     0
146
0.0
  0
VPORT
  5
1E6
330
8
100
AcDbSymbolTableRecord
100
AcDbViewportTableRecord
  2
L4
 70
     0
 10
0.5
 20
0.0
 11
1.0
 21
0.5
 12
0.0
 22
0.0
 13
0.0
 23
0.0
 14
0.5
 24
0.5
 15
0.5
 25
0.5
 16
1.0
 26
0.0
 36
0.0
 17
0.0
 27
0.0
 37
0.0
 40
1319.822715
 41
0.013454
 42
50.0
 43
672.020833
 44
-672.020833
 50
0.0
 51
0.0
 71
     0
 72
   100
 73
     1
 74
     3
 75
     0
 76
     0
 77
     0
 78
     0
281
     0
 65
     1
110
0.0
120
0.0
130
0.0
111
1.0
121
0.0
131
0.0
112
0.0
122
1.0
132
0.0
 79
     0
146
0.0
  0
VPORT
  5
1E7
330
8
100
AcDbSymbolTableRecord
100
AcDbViewportTableRecord
  2
L4
 70
     0
 10
0.5
 20
0.5
 11
1.0
 21
1.0
 12
0.0
 22
0.0
 13
0.0
 23
0.0
 14
0.5
 24
0.5
 15
0.5
 25
0.5
 16
0.5773502691896259
 26
-0.5773502691896259
 36
0.5773502691896259
 17
0.0
 27
0.0
 37
0.0
 40
1285.020866
 41
0.013818
 42
50.0
 43
667.141407
 44
-667.141407
 50
0.0
 51
0.0
 71
     0
 72
   100
 73
     1
 74
     3
 75
     0
 76
     0
 77
     0
 78
     0
281
     0
 65
     1
110
0.0
120
0.0
130
0.0
111
1.0
121
0.0
131
0.0
112
0.0
122
1.0
132
0.0
 79
     0
146
0.0
  0
VPORT
  5
1E8
330
8
100
AcDbSymbolTableRecord
100
AcDbViewportTableRecord
  2
L6
 70
     0
 10
0.0
 20
0.5
 11
0.333333
 21
1.0
 12
0.0
 22
0.0
 13
0.0
 23
0.0
 14
0.5
 24
0.5
 15
0.5
 25
0.5
 16
0.7188730927569434
 26
-0.5850486126764433
 36
0.3754192287502549
 17
0.0
 27
0.0
 37
0.0
 40
1357.434192
 41
0.013081
 42
50.0
 43
701.839477
 44
-701.839477
 50
0.0
 51
0.0
 71
     0
 72
   100
 73
     1
 74
     3
 75
     0
 76
     0
 77
     0
 78
     0
281
     0
 65
     1
110
0.0
120
0.0
130
0.0
111
1.0
121
0.0
131
0.0
112
0.0
122
1.0
132
0.0
 79
     0
146
0.0
  0
VPORT
  5
1E9
330
8
100
AcDbSymbolTableRecord
100
AcDbViewportTableRecord
  2
L6
 70
     0
 10
0.0
 20
0.0
 11
0.333333
 21
0.5
 12
0.0
 22
0.0
 13
0.0
 23
0.0
 14
0.5
 24
0.5
 15
0.5
 25
0.5
 16
-1.0
 26
0.0
 36
0.0
 17
0.0
 27
0.0
 37
0.0
 40
1319.822715
 41
0.013454
 42
50.0
 43
672.020833
 44
-672.020833
 50
0.0
 51
0.0
 71
     0
 72
   100
 73
     1
 74
     3
 75
     0
 76
     0
 77
     0
 78
     0
281
     0
 65
     1
110
0.0
120
0.0
130
0.0
111
1.0
121
0.0
131
0.0
112
0.0
122
1.0
132
0.0
 79
     0
146
0.0
  0
VPORT
  5
1EA
330
8
100
AcDbSymbolTableRecord
100
AcDbViewportTableRecord
  2
L6
 70
     0
 10
0.333333
 20
0.5
 11
0.666667
 21
1.0
 12
146.960071
 22
159.368659
 13
0.0
 23
0.0
 14
0.5
 24
0.5
 15
0.5
 25
0.5
 16
0.0
 26
0.0
 36
1.0
 17
0.0
 27
0.0
 37
0.0
 40
254.0
 41
0.069908
 42
50.0
 43
354.948759
 44
-354.948759
 50
0.0
 51
0.0
 71
     0
 72
   100
 73
     1
 74
     3
 75
     0
 76
     0
 77
     0
 78
     0
281
     0
 65
     1
110
0.0
120
0.0
130
0.0
111
1.0
121
0.0
131
0.0
112
0.0
122
1.0
132
0.0
 79
     0
146
0.0
  0
VPORT
  5
1EB
330
8
100
AcDbSymbolTableRecord
100
AcDbViewportTableRecord
  2
L6
 70
     0
 10
0.333333
 20
0.0
 11
0.666667
 21
0.5
 12
0.0
 22
0.0
 13
0.0
 23
0.0
 14
0.5
 24
0.5
 15
0.5
 25
0.5
 16
0.0
 26
-1.0
 36
0.0
 17
0.0
 27
0.0
 37
0.0
 40
1319.822715
 41
0.013454
 42
50.0
 43
672.020833
 44
-672.020833
 50
0.0
 51
0.0
 71
     0
 72
   100
 73
     1
 74
     3
 75
     0
 76
     0
 77
     0
 78
     0
281
     0
 65
     1
110
0.0
120
0.0
130
0.0
111
1.0
121
0.0
131
0.0
112
0.0
122
1.0
132
0.0
 79
     0
146
0.0
  0
VPORT
  5
1EC
330
8
100
AcDbSymbolTableRecord
100
AcDbViewportTableRecord
  2
L6
 70
     0
 10
0.666667
 20
0.5
 11
1.0
 21
1.0
 12
0.0
 22
0.0
 13
0.0
 23
0.0
 14
0.5
 24
0.5
 15
0.5
 25
0.5
 16
0.5773502691896259
 26
-0.5773502691896259
 36
0.5773502691896259
 17
0.0
 27
0.0
 37
0.0
 40
1285.020866
 41
0.013818
 42
50.0
 43
667.141407
 44
-667.141407
 50
0.0
 51
0.0
 71
     0
 72
   100
 73
     1
 74
     3
 75
     0
 76
     0
 77
     0
 78
     0
281
     0
 65
     1
110
0.0
120
0.0
130
0.0
111
1.0
121
0.0
131
0.0
112
0.0
122
1.0
132
0.0
 79
     0
146
0.0
  0
VPORT
  5
1ED
330
8
100
AcDbSymbolTableRecord
100
AcDbViewportTableRecord
  2
L6
 70
     0
 10
0.666667
 20
0.0
 11
1.0
 21
0.5
 12
0.0
 22
0.0
 13
0.0
 23
0.0
 14
0.5
 24
0.5
 15
0.5
 25
0.5
 16
1.0
 26
0.0
 36
0.0
 17
0.0
 27
0.0
 37
0.0
 40
1319.822715
 41
0.013454
 42
50.0
 43
672.020833
 44
-672.020833
 50
0.0
 51
0.0
 71
     0
 72
   100
 73
     1
 74
     3
 75
     0
 76
     0
 77
     0
 78
     0
281
     0
 65
     1
110
0.0
120
0.0
130
0.0
111
1.0
121
0.0
131
0.0
112
0.0
122
1.0
132
0.0
 79
     0
146
0.0
  0
ENDTAB
  0
TABLE
  2
LTYPE
  5
5
330
0
100
AcDbSymbolTable
 70
     6
  0
LTYPE
  5
14
330
5
100
AcDbSymbolTableRecord
100
AcDbLinetypeTableRecord
  2
BYBLOCK
 70
     0
  3

 72
    65
 73
     0
 40
0.0
  0
LTYPE
  5
15
330
5
100
AcDbSymbolTableRecord
100
AcDbLinetypeTableRecord
  2
BYLAYER
 70
     0
  3

 72
    65
 73
     0
 40
0.0
  0
LTYPE
  5
16
330
5
100
AcDbSymbolTableRecord
100
AcDbLinetypeTableRecord
  2
CONTINUOUS
 70
     0
  3
Solid line
 72
    65
 73
     0
 40
0.0
  0
LTYPE
  5
6A
330
5
100
AcDbSymbolTableRecord
100
AcDbLinetypeTableRecord
  2
CENTER2
 70
     0
  3
Center (.5x) ___ _ ___ _ ___ _ ___ _ ___ _ ___
 72
    65
 73
     4
 40
28.575
 49
19.05
 74
     4
 75
     0
340
0
 46
0.0
 50
0.0
 44
0.0
 45
0.0
 49
-3.174999999999999
 74
     4
 75
     0
340
0
 46
0.0
 50
0.0
 44
0.0
 45
0.0
 49
3.174999999999999
 74
     4
 75
     0
340
0
 46
0.0
 50
0.0
 44
0.0
 45
0.0
 49
-3.174999999999999
 74
     4
 75
     0
340
0
 46
0.0
 50
0.0
 44
0.0
 45
0.0
  0
LTYPE
  5
6B
330
5
100
AcDbSymbolTableRecord
100
AcDbLinetypeTableRecord
  2
DASHDOT
 70
     0
  3
_._._._._._._._._._._._._._._._.
 72
    65
 73
     4
 40
70.0
 49
31.0
 74
     4
 75
     0
340
0
 46
0.0
 50
0.0
 44
0.0
 45
0.0
 49
-13.0
 74
     4
 75
     0
340
0
 46
0.0
 50
0.0
 44
0.0
 45
0.0
 49
13.0
 74
     4
 75
     0
340
0
 46
0.0
 50
0.0
 44
0.0
 45
0.0
 49
-13.0
 74
     4
 75
     0
340
0
 46
0.0
 50
0.0
 44
0.0
 45
0.0
  0
LTYPE
  5
6C
330
5
100
AcDbSymbolTableRecord
100
AcDbLinetypeTableRecord
  2
DASHED
 70
     0
  3
__ __ __ __ __ __ __ __ __
 72
    65
 73
     2
 40
25.72
 49
12.86
 74
     4
 75
     0
340
0
 46
0.0
 50
0.0
 44
0.0
 45
0.0
 49
-12.86
 74
     4
 75
     0
340
0
 46
0.0
 50
0.0
 44
0.0
 45
0.0
  0
LTYPE
  5
6D
330
5
100
AcDbSymbolTableRecord
100
AcDbLinetypeTableRecord
  2
DOT
 70
     0
  3
.........................
 72
    65
 73
     2
 40
10.0
 49
0.0
 74
     4
 75
     0
340
0
 46
0.0
 50
0.0
 44
0.0
 45
0.0
 49
-10.0
 74
     4
 75
     0
340
0
 46
0.0
 50
0.0
 44
0.0
 45
0.0
  0
LTYPE
  5
6E
330
5
100
AcDbSymbolTableRecord
100
AcDbLinetypeTableRecord
  2
PHANTOM
 70
     0
  3
____ _ _ ____ _ _ _____ _ _ ____
 72
    65
 73
     6
 40
50.5
 49
18.0
 74
     4
 75
     0
340
0
 46
0.0
 50
0.0
 44
0.0
 45
0.0
 49
-6.5
 74
     4
 75
     0
340
0
 46
0.0
 50
0.0
 44
0.0
 45
0.0
 49
6.5
 74
     4
 75
     0
340
0
 46
0.0
 50
0.0
 44
0.0
 45
0.0
 49
-6.5
 74
     4
 75
     0
340
0
 46
0.0
 50
0.0
 44
0.0
 45
0.0
 49
6.5
 74
     4
 75
     0
340
0
 46
0.0
 50
0.0
 44
0.0
 45
0.0
 49
-6.5
 74
     4
 75
     0
340
0
 46
0.0
 50
0.0
 44
0.0
 45
0.0
  0
ENDTAB
  0
TABLE
  2
LAYER
  5
2
330
0
100
AcDbSymbolTable
 70
    19
  0
LAYER
  5
10
102
{ACAD_XDICTIONARY
360
37F
102
}
330
2
100
AcDbSymbolTableRecord
100
AcDbLayerTableRecord
  2
0
 70
     0
 62
     7
  6
CONTINUOUS
370
    -3
390
F
  0
LAYER
  5
373
102
{ACAD_XDICTIONARY
360
381
102
}
330
2
100
AcDbSymbolTableRecord
100
AcDbLayerTableRecord
  2
1
 70
     0
 62
     4
  6
CONTINUOUS
370
    -3
390
F
  0
LAYER
  5
374
102
{ACAD_XDICTIONARY
360
383
102
}
330
2
100
AcDbSymbolTableRecord
100
AcDbLayerTableRecord
  2
2
 70
     0
 62
     7
  6
CONTINUOUS
370
    -3
390
F
  0
LAYER
  5
375
102
{ACAD_XDICTIONARY
360
385
102
}
330
2
100
AcDbSymbolTableRecord
100
AcDbLayerTableRecord
  2
4
 70
     0
 62
     2
  6
CENTER2
370
    -3
390
F
  0
LAYER
  5
376
102
{ACAD_XDICTIONARY
360
387
102
}
330
2
100
AcDbSymbolTableRecord
100
AcDbLayerTableRecord
  2
SK1
 70
     0
 62
     4
  6
CONTINUOUS
370
    -3
390
F
  0
LAYER
  5
377
102
{ACAD_XDICTIONARY
360
389
102
}
330
2
100
AcDbSymbolTableRecord
100
AcDbLayerTableRecord
  2
SK2
 70
     0
 62
     7
  6
CONTINUOUS
370
    -3
390
F
  0
LAYER
  5
379
102
{ACAD_XDICTIONARY
360
38B
102
}
330
2
100
AcDbSymbolTableRecord
100
AcDbLayerTableRecord
  2
SK4
 70
     0
 62
     2
  6
CENTER2
370
    -3
390
F
  0
LAYER
  5
37A
102
{ACAD_XDICTIONARY
360
38D
102
}
330
2
100
AcDbSymbolTableRecord
100
AcDbLayerTableRecord
  2
SK6
 70
     0
 62
     5
  6
CONTINUOUS
370
    -3
390
F
  0
LAYER
  5
37B
102
{ACAD_XDICTIONARY
360
38F
102
}
330
2
100
AcDbSymbolTableRecord
100
AcDbLayerTableRecord
  2
CUT
 70
     0
 62
     1
  6
CONTINUOUS
370
    -3
390
F
  0
LAYER
  5
37C
102
{ACAD_XDICTIONARY
360
391
102
}
330
2
100
AcDbSymbolTableRecord
100
AcDbLayerTableRecord
  2
NOCUT
 70
     0
 62
     7
  6
CONTINUOUS
370
    -3
390
F
  0
LAYER
  5
37D
102
{ACAD_XDICTIONARY
360
393
102
}
330
2
100
AcDbSymbolTableRecord
100
AcDbLayerTableRecord
  2
80
 70
     0
 62
     6
  6
CONTINUOUS
370
    -3
390
F
  0
LAYER
  5
37E
102
{ACAD_XDICTIONARY
360
395
102
}
330
2
100
AcDbSymbolTableRecord
100
AcDbLayerTableRecord
  2
81
 70
     0
 62
     3
  6
CONTINUOUS
370
    -3
390
F
  0
ENDTAB
  0
TABLE
  2
STYLE
  5
3
330
0
100
AcDbSymbolTable
 70
     2
  0
STYLE
  5
11
330
3
100
AcDbSymbolTableRecord
100
AcDbTextStyleTableRecord
  2
Standard
 70
     0
 40
0.0
 41
1.0
 50
0.0
 71
     0
 42
0.2
  3
txt
  4

  0
STYLE
  5
19F
330
3
100
AcDbSymbolTableRecord
100
AcDbTextStyleTableRecord
  2
cesky
 70
     0
 40
0.0
 41
1.0
 50
0.0
 71
     0
 42
0.2
  3
Monospac821 BT
  4

1001
ACAD
1000
Monospac821 BT
1071
        0
  0
ENDTAB
  0
TABLE
  2
VIEW
  5
6
330
0
100
AcDbSymbolTable
 70
     0
  0
ENDTAB
  0
TABLE
  2
UCS
  5
7
330
0
100
AcDbSymbolTable
 70
     0
  0
ENDTAB
  0
TABLE
  2
APPID
  5
9
330
0
100
AcDbSymbolTable
 70
     3
  0
APPID
  5
12
330
9
100
AcDbSymbolTableRecord
100
AcDbRegAppTableRecord
  2
ACAD
 70
     0
  0
APPID
  5
39E
330
9
100
AcDbSymbolTableRecord
100
AcDbRegAppTableRecord
  2
ACAD_NAV_VCDISPLAY
 70
     0
  0
APPID
  5
3DA
330
9
100
AcDbSymbolTableRecord
100
AcDbRegAppTableRecord
  2
ACAD_MLEADERVER
 70
     0
  0
ENDTAB
  0
TABLE
  2
DIMSTYLE
  5
A
330
0
100
AcDbSymbolTable
 70
     1
100
AcDbDimStyleTable
 71
     0
  0
DIMSTYLE
105
27
330
A
100
AcDbSymbolTableRecord
100
AcDbDimStyleTableRecord
  2
Standard
 70
     0
340
11
  0
ENDTAB
  0
TABLE
  2
BLOCK_RECORD
  5
1
330
0
100
AcDbSymbolTable
 70
     2
  0
BLOCK_RECORD
  5
1F
102
{ACAD_XDICTIONARY
360
25D
102
}
330
1
100
AcDbSymbolTableRecord
100
AcDbBlockTableRecord
  2
*Model_Space
340
22
  0
BLOCK_RECORD
  5
1B
330
1
100
AcDbSymbolTableRecord
100
AcDbBlockTableRecord
  2
*Paper_Space
340
1E
  0
BLOCK_RECORD
  5
23
330
1
100
AcDbSymbolTableRecord
100
AcDbBlockTableRecord
  2
*Paper_Space0
340
26
  0
BLOCK_RECORD
  5
1CB
330
1
100
AcDbSymbolTableRecord
100
AcDbBlockTableRecord
  2
DimnDraft3D1
340
0
  0
ENDTAB
  0
ENDSEC
  0
SECTION
  2
BLOCKS
  0
BLOCK
  5
20
330
1F
100
AcDbEntity
  8
0
100
AcDbBlockBegin
  2
*Model_Space
 70
     0
 10
0.0
 20
0.0
 30
0.0
  3
*Model_Space
  1
*Model_Space
  0
ENDBLK
  5
21
330
1F
100
AcDbEntity
  8
0
100
AcDbBlockEnd
  0
BLOCK
  5
1C
330
1B
100
AcDbEntity
 67
     1
  8
0
100
AcDbBlockBegin
  2
*Paper_Space
 70
     0
 10
0.0
 20
0.0
 30
0.0
  3
*Paper_Space
  1
*Paper_Space
  0
ENDBLK
  5
1D
330
1B
100
AcDbEntity
 67
     1
  8
0
100
AcDbBlockEnd
  0
BLOCK
  5
24
330
23
100
AcDbEntity
 67
     1
  8
0
100
AcDbBlockBegin
  2
*Paper_Space0
 70
     0
 10
0.0
 20
0.0
 30
0.0
  3
*Paper_Space0
  1
*Paper_Space0
  0
ENDBLK
  5
25
330
23
100
AcDbEntity
 67
     1
  8
0
100
AcDbBlockEnd
  0
BLOCK
  5
1D3
330
1CB
100
AcDbEntity
  8
0
100
AcDbBlockBegin
  2
DimnDraft3D1
 70
     0
 10
0.0
 20
0.0
 30
0.0
  3
DimnDraft3D1
  1
DimnDraft3D1
  0
ENDBLK
  5
1D4
330
1CB
100
AcDbEntity
  8
0
100
AcDbBlockEnd
  0
ENDSEC
  0
SECTION
  2
ENTITIES
  0
POINT
  5
6F
330
1F
100
AcDbEntity
  8
80
100
AcDbPoint
 10
111.618189
 20
161.498691
 30
0.0
  0
POINT
  5
71
330
1F
100
AcDbEntity
  8
SK6
 60
     1
100
AcDbPoint
 10
231.618189
 20
173.998691
 30
0.0
  0
POINT
  5
73
330
1F
100
AcDbEntity
  8
4
 60
     1
100
AcDbPoint
 10
230.271904
 20
161.498691
 30
0.0
  0
POINT
  5
74
330
1F
100
AcDbEntity
  8
4
 60
     1
100
AcDbPoint
 10
197.618189
 20
161.498691
 30
0.0
  0
POINT
  5
75
330
1F
100
AcDbEntity
  8
SK4
 60
     1
100
AcDbPoint
 10
61.618189
 20
161.498691
 30
0.0
  0
POINT
  5
76
330
1F
100
AcDbEntity
  8
SK4
 60
     1
100
AcDbPoint
 10
197.618189
 20
161.498691
 30
0.0
  0
LINE
  5
87
330
1F
100
AcDbEntity
  8
SK1
100
AcDbLine
 10
61.618189
 20
170.998691
 30
0.0
 11
61.618189
 21
151.998691
 31
0.0
  0
LINE
  5
89
330
1F
100
AcDbEntity
  8
SK1
100
AcDbLine
 10
197.618189
 20
171.498691
 30
0.0
 11
197.618189
 21
151.498691
 31
0.0
  0
LINE
  5
8A
330
1F
100
AcDbEntity
  8
SK1
100
AcDbLine
 10
197.618189
 20
171.498691
 30
0.0
 11
62.118189
 21
171.498691
 31
0.0
  0
LINE
  5
8B
330
1F
100
AcDbEntity
  8
SK1
100
AcDbLine
 10
62.118189
 20
171.498691
 30
0.0
 11
61.618189
 21
170.998691
 31
0.0
  0
LINE
  5
8C
330
1F
100
AcDbEntity
  8
SK1
100
AcDbLine
 10
61.618189
 20
151.998691
 30
0.0
 11
62.118189
 21
151.498691
 31
0.0
  0
LINE
  5
8D
330
1F
100
AcDbEntity
  8
SK1
100
AcDbLine
 10
62.118189
 20
151.498691
 30
0.0
 11
197.618189
 21
151.498691
 31
0.0
  0
LINE
  5
8E
330
1F
100
AcDbEntity
  8
1
100
AcDbLine
 10
198.484215
 20
151.998691
 30
0.0
 11
218.620006
 21
151.998691
 31
0.0
  0
LINE
  5
8F
330
1F
100
AcDbEntity
  8
1
100
AcDbLine
 10
218.620006
 20
170.998691
 30
0.0
 11
198.484215
 21
170.998691
 31
0.0
  0
LINE
  5
90
330
1F
100
AcDbEntity
  8
1
100
AcDbLine
 10
225.678046
 20
171.17267
 30
0.0
 11
225.615843
 21
171.14612
 31
0.0
  0
LINE
  5
92
330
1F
100
AcDbEntity
  8
1
100
AcDbLine
 10
227.500148
 20
166.73144
 30
0.0
 11
227.562351
 21
166.7579899999999
 31
0.0
  0
LINE
  5
93
330
1F
100
AcDbEntity
  8
1
100
AcDbLine
 10
225.405588
 20
168.644109
 30
0.0
 11
225.443827
 21
168.66043
 31
0.0
  0
LINE
  5
94
330
1F
100
AcDbEntity
  8
1
100
AcDbLine
 10
225.783089
 20
168.106777
 30
0.0
 11
225.685755
 21
168.065232
 31
0.0
  0
LINE
  5
95
330
1F
100
AcDbEntity
  8
1
100
AcDbLine
 10
225.898335
 20
169.813774
 30
0.0
 11
226.059233
 21
169.88245
 31
0.0
  0
LINE
  5
96
330
1F
100
AcDbEntity
  8
1
100
AcDbLine
 10
227.227144
 20
168.067835
 30
0.0
 11
227.066246
 21
167.999159
 31
0.0
  0
LINE
  5
97
330
1F
100
AcDbEntity
  8
1
100
AcDbLine
 10
227.349356
 20
169.777806
 30
0.0
 11
227.503289
 21
169.843509
 31
0.0
  0
LINE
  5
98
330
1F
100
AcDbEntity
  8
1
100
AcDbLine
 10
227.842551
 20
169.289855
 30
0.0
 11
227.689464
 21
169.224513
 31
0.0
  0
LINE
  5
99
330
1F
100
AcDbEntity
  8
1
100
AcDbLine
 10
219.304047
 20
151.878076
 30
0.0
 11
221.297709
 21
151.152443
 31
0.0
  0
LINE
  5
9A
330
1F
100
AcDbEntity
  8
1
100
AcDbLine
 10
221.297709
 20
171.84494
 30
0.0
 11
219.304047
 21
171.119306
 31
0.0
  0
LINE
  5
9B
330
1F
100
AcDbEntity
  8
1
100
AcDbLine
 10
221.692553
 20
168.996213
 30
0.0
 11
221.6926990000001
 21
168.950296
 31
0.0
  0
LINE
  5
9D
330
1F
100
AcDbEntity
  8
1
100
AcDbLine
 10
223.20019
 20
165.417934
 30
0.0
 11
223.233614
 21
165.385708
 31
0.0
  0
LINE
  5
9E
330
1F
100
AcDbEntity
  8
1
100
AcDbLine
 10
230.271904
 20
154.276284
 30
0.0
 11
230.271904
 21
165.090905
 31
0.0
  0
LINE
  5
9F
330
1F
100
AcDbEntity
  8
1
100
AcDbLine
 10
230.271904
 20
165.121022
 30
0.0
 11
230.271904
 21
165.537747
 31
0.0
  0
LINE
  5
A0
330
1F
100
AcDbEntity
  8
SK1
100
AcDbLine
 10
62.118189
 20
171.498691
 30
0.0
 11
62.118189
 21
151.498691
 31
0.0
  0
LINE
  5
A1
330
1F
100
AcDbEntity
  8
1
100
AcDbLine
 10
221.918389
 20
171.691277
 30
0.0
 11
221.918389
 21
170.499879
 31
0.0
  0
LINE
  5
A2
330
1F
100
AcDbEntity
  8
1
100
AcDbLine
 10
221.918389
 20
167.43474
 30
0.0
 11
221.918389
 21
167.286847
 31
0.0
  0
LINE
  5
A3
330
1F
100
AcDbEntity
  8
1
100
AcDbLine
 10
222.221104
 20
166.003609
 30
0.0
 11
222.749982
 21
165.468107
 31
0.0
  0
LINE
  5
A4
330
1F
100
AcDbEntity
  8
1
100
AcDbLine
 10
221.724555
 20
171.806112
 30
0.0
 11
221.724555
 21
169.578329
 31
0.0
  0
LINE
  5
A5
330
1F
100
AcDbEntity
  8
1
100
AcDbLine
 10
221.724555
 20
168.397155
 30
0.0
 11
221.724555
 21
167.212894
 31
0.0
  0
LINE
  5
A6
330
1F
100
AcDbEntity
  8
1
100
AcDbLine
 10
221.605258
 20
171.812483
 30
0.0
 11
221.724555
 21
171.806112
 31
0.0
  0
LINE
  5
A7
330
1F
100
AcDbEntity
  8
1
100
AcDbLine
 10
221.605257
 20
167.236982
 30
0.0
 11
221.605257
 21
171.812483
 31
0.0
  0
LINE
  5
A8
330
1F
100
AcDbEntity
  8
1
100
AcDbLine
 10
222.562185
 20
165.488727
 30
0.0
 11
222.152999
 21
165.903039
 31
0.0
  0
LINE
  5
A9
330
1F
100
AcDbEntity
  8
1
100
AcDbLine
 10
222.416034
 20
166.081334
 30
0.0
 11
223.054667
 21
165.434702
 31
0.0
  0
LINE
  5
AA
330
1F
100
AcDbEntity
  8
1
100
AcDbLine
 10
221.918389
 20
151.306105
 30
0.0
 11
221.918389
 21
151.407476
 31
0.0
  0
LINE
  5
AB
330
1F
100
AcDbEntity
  8
1
100
AcDbLine
 10
223.474676
 20
153.522248
 30
0.0
 11
223.474676
 21
154.595012
 31
0.0
  0
LINE
  5
AC
330
1F
100
AcDbEntity
  8
1
100
AcDbLine
 10
228.032691
 20
150.202649
 30
0.0
 11
230.180271
 21
152.37713
 31
0.0
  0
LINE
  5
AD
330
1F
100
AcDbEntity
  8
1
100
AcDbLine
 10
223.686753
 20
150.803516
 30
0.0
 11
224.311691
 21
150.178771
 31
0.0
  0
LINE
  5
AE
330
1F
100
AcDbEntity
  8
1
100
AcDbLine
 10
224.653622
 20
150.038467
 30
0.0
 11
227.69076
 21
150.057957
 31
0.0
  0
LINE
  5
AF
330
1F
100
AcDbEntity
  8
1
100
AcDbLine
 10
230.321904
 20
152.722059
 30
0.0
 11
230.321904
 21
155.777749
 31
0.0
  0
LINE
  5
B0
330
1F
100
AcDbEntity
  8
NOCUT
100
AcDbLine
 10
197.618189
 20
171.498691
 30
0.0
 11
62.118189
 21
171.498691
 31
0.0
  0
LINE
  5
B2
330
1F
100
AcDbEntity
  8
NOCUT
100
AcDbLine
 10
225.436964
 20
149.774232
 30
0.0
 11
226.78431
 21
149.774232
 31
0.0
  0
LINE
  5
B3
330
1F
100
AcDbEntity
  8
NOCUT
100
AcDbLine
 10
219.304047
 20
151.878076
 30
0.0
 11
224.752924
 21
149.894847
 31
0.0
  0
LINE
  5
B4
330
1F
100
AcDbEntity
  8
NOCUT
100
AcDbLine
 10
198.484215
 20
151.998691
 30
0.0
 11
218.620006
 21
151.998691
 31
0.0
  0
LINE
  5
B5
330
1F
100
AcDbEntity
  8
NOCUT
100
AcDbLine
 10
62.118189
 20
151.498691
 30
0.0
 11
197.618189
 21
151.498691
 31
0.0
  0
LINE
  5
B6
330
1F
100
AcDbEntity
  8
NOCUT
100
AcDbLine
 10
61.618189
 20
151.998691
 30
0.0
 11
62.118189
 21
151.498691
 31
0.0
  0
LINE
  5
B7
330
1F
100
AcDbEntity
  8
NOCUT
100
AcDbLine
 10
61.618189
 20
157.921341
 30
0.0
 11
61.618189
 21
151.998691
 31
0.0
  0
LINE
  5
B8
330
1F
100
AcDbEntity
  8
NOCUT
100
AcDbLine
 10
61.618189
 20
157.921341
 30
0.0
 11
62.618189
 21
158.498691
 31
0.0
  0
LINE
  5
B9
330
1F
100
AcDbEntity
  8
NOCUT
100
AcDbLine
 10
62.618189
 20
158.498691
 30
0.0
 11
201.618189
 21
158.498691
 31
0.0
  0
LINE
  5
BA
330
1F
100
AcDbEntity
  8
NOCUT
100
AcDbLine
 10
201.618189
 20
158.498691
 30
0.0
 11
203.35024
 21
161.498691
 31
0.0
  0
LINE
  5
BB
330
1F
100
AcDbEntity
  8
NOCUT
100
AcDbLine
 10
203.35024
 20
161.498691
 30
0.0
 11
201.618189
 21
164.498691
 31
0.0
  0
LINE
  5
BC
330
1F
100
AcDbEntity
  8
NOCUT
100
AcDbLine
 10
201.618189
 20
164.498691
 30
0.0
 11
62.618189
 21
164.498691
 31
0.0
  0
LINE
  5
BD
330
1F
100
AcDbEntity
  8
NOCUT
100
AcDbLine
 10
62.618189
 20
164.498691
 30
0.0
 11
61.618189
 21
165.076041
 31
0.0
  0
LINE
  5
BE
330
1F
100
AcDbEntity
  8
NOCUT
100
AcDbLine
 10
61.618189
 20
170.998691
 30
0.0
 11
61.618189
 21
165.076041
 31
0.0
  0
LINE
  5
BF
330
1F
100
AcDbEntity
  8
NOCUT
100
AcDbLine
 10
62.118189
 20
171.498691
 30
0.0
 11
61.618189
 21
170.998691
 31
0.0
  0
LINE
  5
C0
330
1F
100
AcDbEntity
  8
NOCUT
100
AcDbLine
 10
218.620006
 20
170.998691
 30
0.0
 11
198.484215
 21
170.998691
 31
0.0
  0
LINE
  5
C1
330
1F
100
AcDbEntity
  8
NOCUT
100
AcDbLine
 10
224.752924
 20
173.102535
 30
0.0
 11
219.304047
 21
171.119306
 31
0.0
  0
LINE
  5
C2
330
1F
100
AcDbEntity
  8
NOCUT
100
AcDbLine
 10
226.78431
 20
173.22315
 30
0.0
 11
225.436964
 21
173.22315
 31
0.0
  0
LINE
  5
C3
330
1F
100
AcDbEntity
  8
NOCUT
100
AcDbLine
 10
227.308649
 20
164.412452
 30
0.0
 11
229.638775
 21
167.731725
 31
0.0
  0
LINE
  5
C4
330
1F
100
AcDbEntity
  8
NOCUT
100
AcDbLine
 10
227.018189
 20
159.504226
 30
0.0
 11
227.018189
 21
163.493156
 31
0.0
  0
LINE
  5
C5
330
1F
100
AcDbEntity
  8
NOCUT
100
AcDbLine
 10
229.638775
 20
155.265658
 30
0.0
 11
227.308649
 21
158.58493
 31
0.0
  0
LINE
  5
C6
102
{ACAD_REACTORS
330
1D6
102
}
330
1F
100
AcDbEntity
  8
81
100
AcDbLine
 10
231.618189
 20
170.998691
 30
0.0
 11
231.618189
 21
176.998691
 31
0.0
  0
LINE
  5
C7
102
{ACAD_REACTORS
330
1D6
102
}
330
1F
100
AcDbEntity
  8
81
100
AcDbLine
 10
228.618189
 20
173.998691
 30
0.0
 11
234.618189
 21
173.998691
 31
0.0
  0
LINE
  5
C8
102
{ACAD_REACTORS
330
1D7
102
}
330
1F
100
AcDbEntity
  8
80
100
AcDbLine
 10
106.118189
 20
161.498691
 30
0.0
 11
117.118189
 21
161.498691
 31
0.0
  0
LINE
  5
C9
102
{ACAD_REACTORS
330
1D7
102
}
330
1F
100
AcDbEntity
  8
80
100
AcDbLine
 10
111.618189
 20
155.998691
 30
0.0
 11
111.618189
 21
166.9986909999999
 31
0.0
  0
LINE
  5
CA
102
{ACAD_REACTORS
330
1D8
102
}
330
1F
100
AcDbEntity
  8
2
100
AcDbLine
 10
217.868189
 20
180.698743
 30
0.0
 11
240.368189
 21
180.698743
 31
0.0
  0
LINE
  5
CB
102
{ACAD_REACTORS
330
1D8
102
}
330
1F
100
AcDbEntity
  8
2
100
AcDbLine
 10
231.618189
 20
174.998691
 30
0.0
 11
231.618189
 21
182.698743
 31
0.0
  0
LINE
  5
CC
102
{ACAD_REACTORS
330
1D8
102
}
330
1F
100
AcDbEntity
  8
2
100
AcDbLine
 10
226.618189
 20
174.998691
 30
0.0
 11
226.618189
 21
182.698743
 31
0.0
  0
LINE
  5
CD
330
1F
100
AcDbEntity
  8
2
 60
     1
100
AcDbLine
 10
231.618189
 20
180.698743
 30
0.0
 11
234.118188
 21
181.139561
 31
0.0
  0
LINE
  5
CE
330
1F
100
AcDbEntity
  8
2
 60
     1
100
AcDbLine
 10
234.118188
 20
181.139561
 30
0.0
 11
234.118191
 21
180.257926
 31
0.0
  0
LINE
  5
CF
330
1F
100
AcDbEntity
  8
2
 60
     1
100
AcDbLine
 10
234.118191
 20
180.257926
 30
0.0
 11
231.618189
 21
180.698743
 31
0.0
  0
LINE
  5
D0
330
1F
100
AcDbEntity
  8
2
 60
     1
100
AcDbLine
 10
226.618189
 20
180.698743
 30
0.0
 11
224.118191
 21
180.257926
 31
0.0
  0
LINE
  5
D1
330
1F
100
AcDbEntity
  8
2
 60
     1
100
AcDbLine
 10
224.118191
 20
180.257926
 30
0.0
 11
224.118188
 21
181.139561
 31
0.0
  0
LINE
  5
D2
330
1F
100
AcDbEntity
  8
2
 60
     1
100
AcDbLine
 10
224.118188
 20
181.139561
 30
0.0
 11
226.618189
 21
180.698743
 31
0.0
  0
LINE
  5
D3
102
{ACAD_REACTORS
330
1D9
102
}
330
1F
100
AcDbEntity
  8
2
100
AcDbLine
 10
231.618189
 20
190.345078
 30
0.0
 11
197.618189
 21
190.345078
 31
0.0
  0
LINE
  5
D4
102
{ACAD_REACTORS
330
1D9
102
}
330
1F
100
AcDbEntity
  8
2
100
AcDbLine
 10
197.618189
 20
162.498691
 30
0.0
 11
197.618189
 21
192.345078
 31
0.0
  0
LINE
  5
D5
102
{ACAD_REACTORS
330
1D9
102
}
330
1F
100
AcDbEntity
  8
2
100
AcDbLine
 10
231.618189
 20
174.998691
 30
0.0
 11
231.618189
 21
192.345078
 31
0.0
  0
LINE
  5
D6
330
1F
100
AcDbEntity
  8
2
 60
     1
100
AcDbLine
 10
197.618189
 20
190.345078
 30
0.0
 11
200.118188
 21
190.7858949999999
 31
0.0
  0
LINE
  5
D7
330
1F
100
AcDbEntity
  8
2
 60
     1
100
AcDbLine
 10
200.118188
 20
190.7858949999999
 30
0.0
 11
200.118191
 21
189.90426
 31
0.0
  0
LINE
  5
D8
330
1F
100
AcDbEntity
  8
2
 60
     1
100
AcDbLine
 10
200.118191
 20
189.90426
 30
0.0
 11
197.618189
 21
190.345078
 31
0.0
  0
LINE
  5
D9
330
1F
100
AcDbEntity
  8
2
 60
     1
100
AcDbLine
 10
231.618189
 20
190.345078
 30
0.0
 11
229.118191
 21
189.90426
 31
0.0
  0
LINE
  5
DA
330
1F
100
AcDbEntity
  8
2
 60
     1
100
AcDbLine
 10
229.118191
 20
189.90426
 30
0.0
 11
229.118188
 21
190.7858949999999
 31
0.0
  0
LINE
  5
DB
330
1F
100
AcDbEntity
  8
2
 60
     1
100
AcDbLine
 10
229.118188
 20
190.7858949999999
 30
0.0
 11
231.618189
 21
190.345078
 31
0.0
  0
LINE
  5
DC
102
{ACAD_REACTORS
330
1DA
102
}
330
1F
100
AcDbEntity
  8
SK2
100
AcDbLine
 10
231.618189
 20
211.641117
 30
0.0
 11
61.618189
 21
211.641117
 31
0.0
  0
LINE
  5
DD
102
{ACAD_REACTORS
330
1DA
102
}
330
1F
100
AcDbEntity
  8
SK2
100
AcDbLine
 10
61.618189
 20
162.498691
 30
0.0
 11
61.618189
 21
213.641117
 31
0.0
  0
LINE
  5
DE
102
{ACAD_REACTORS
330
1DA
102
}
330
1F
100
AcDbEntity
  8
SK2
100
AcDbLine
 10
231.618189
 20
174.998691
 30
0.0
 11
231.618189
 21
213.641117
 31
0.0
  0
LINE
  5
DF
330
1F
100
AcDbEntity
  8
SK2
 60
     1
100
AcDbLine
 10
61.618189
 20
211.641117
 30
0.0
 11
64.118188
 21
212.081934
 31
0.0
  0
LINE
  5
E0
330
1F
100
AcDbEntity
  8
SK2
 60
     1
100
AcDbLine
 10
64.118188
 20
212.081934
 30
0.0
 11
64.11819100000001
 21
211.200299
 31
0.0
  0
LINE
  5
E1
330
1F
100
AcDbEntity
  8
SK2
 60
     1
100
AcDbLine
 10
64.11819100000001
 20
211.200299
 30
0.0
 11
61.618189
 21
211.641117
 31
0.0
  0
LINE
  5
E2
330
1F
100
AcDbEntity
  8
SK2
 60
     1
100
AcDbLine
 10
231.618189
 20
211.641117
 30
0.0
 11
229.118191
 21
211.200299
 31
0.0
  0
LINE
  5
E3
330
1F
100
AcDbEntity
  8
SK2
 60
     1
100
AcDbLine
 10
229.118191
 20
211.200299
 30
0.0
 11
229.118188
 21
212.081934
 31
0.0
  0
LINE
  5
E4
330
1F
100
AcDbEntity
  8
SK2
 60
     1
100
AcDbLine
 10
229.118188
 20
212.081934
 30
0.0
 11
231.618189
 21
211.641117
 31
0.0
  0
LINE
  5
E5
102
{ACAD_REACTORS
330
1DB
102
}
330
1F
100
AcDbEntity
  8
2
100
AcDbLine
 10
246.900118
 20
173.998691
 30
0.0
 11
246.900118
 21
151.54353
 31
0.0
  0
LINE
  5
E6
102
{ACAD_REACTORS
330
1DB
102
}
330
1F
100
AcDbEntity
  8
2
100
AcDbLine
 10
232.618189
 20
173.998691
 30
0.0
 11
248.900118
 21
173.998691
 31
0.0
  0
LINE
  5
E7
330
1F
100
AcDbEntity
  8
2
 60
     1
100
AcDbLine
 10
246.900118
 20
173.998691
 30
0.0
 11
247.340935
 21
171.498693
 31
0.0
  0
LINE
  5
E8
330
1F
100
AcDbEntity
  8
2
 60
     1
100
AcDbLine
 10
247.340935
 20
171.498693
 30
0.0
 11
246.4593
 21
171.498689
 31
0.0
  0
LINE
  5
E9
330
1F
100
AcDbEntity
  8
2
 60
     1
100
AcDbLine
 10
246.4593
 20
171.498689
 30
0.0
 11
246.900118
 21
173.998691
 31
0.0
  0
LINE
  5
EA
102
{ACAD_REACTORS
330
1DC
102
}
330
1F
100
AcDbEntity
  8
SK2
100
AcDbLine
 10
231.618189
 20
198.782205
 30
0.0
 11
111.618189
 21
198.782205
 31
0.0
  0
LINE
  5
EB
102
{ACAD_REACTORS
330
1DC
102
}
330
1F
100
AcDbEntity
  8
SK2
100
AcDbLine
 10
111.618189
 20
167.998691
 30
0.0
 11
111.618189
 21
200.782205
 31
0.0
  0
LINE
  5
EC
102
{ACAD_REACTORS
330
1DC
102
}
330
1F
100
AcDbEntity
  8
SK2
100
AcDbLine
 10
231.618189
 20
174.998691
 30
0.0
 11
231.618189
 21
200.782205
 31
0.0
  0
LINE
  5
ED
330
1F
100
AcDbEntity
  8
SK2
 60
     1
100
AcDbLine
 10
111.618189
 20
198.782205
 30
0.0
 11
114.118188
 21
199.223022
 31
0.0
  0
LINE
  5
EE
330
1F
100
AcDbEntity
  8
SK2
 60
     1
100
AcDbLine
 10
114.118188
 20
199.223022
 30
0.0
 11
114.118191
 21
198.341387
 31
0.0
  0
LINE
  5
EF
330
1F
100
AcDbEntity
  8
SK2
 60
     1
100
AcDbLine
 10
114.118191
 20
198.341387
 30
0.0
 11
111.618189
 21
198.782205
 31
0.0
  0
LINE
  5
F0
330
1F
100
AcDbEntity
  8
SK2
 60
     1
100
AcDbLine
 10
231.618189
 20
198.782205
 30
0.0
 11
229.118191
 21
198.341387
 31
0.0
  0
LINE
  5
F1
330
1F
100
AcDbEntity
  8
SK2
 60
     1
100
AcDbLine
 10
229.118191
 20
198.341387
 30
0.0
 11
229.118188
 21
199.223022
 31
0.0
  0
LINE
  5
F2
330
1F
100
AcDbEntity
  8
SK2
 60
     1
100
AcDbLine
 10
229.118188
 20
199.223022
 30
0.0
 11
231.618189
 21
198.782205
 31
0.0
  0
ARC
  5
F3
330
1F
100
AcDbEntity
  8
1
100
AcDbCircle
 10
-198.484215
 20
150.998691
 30
0.0
 40
1.0
210
0.0
220
0.0
230
-1.0
100
AcDbArc
 50
30.0
 51
90.0
  0
ARC
  5
F4
330
1F
100
AcDbEntity
  8
1
100
AcDbCircle
 10
-198.484215
 20
171.998691
 30
0.0
 40
1.0
210
0.0
220
0.0
230
-1.0
100
AcDbArc
 50
270.0
 51
330.0
  0
ARC
  5
F5
330
1F
100
AcDbEntity
  8
1
100
AcDbCircle
 10
-218.620006
 20
149.998691
 30
0.0
 40
2.0
210
0.0
220
0.0
230
-1.0
100
AcDbArc
 50
90.0
 51
110.0
  0
ARC
  5
F6
330
1F
100
AcDbEntity
  8
1
100
AcDbCircle
 10
-218.620006
 20
172.998691
 30
0.0
 40
2.0
210
0.0
220
0.0
230
-1.0
100
AcDbArc
 50
250.0
 51
270.0
  0
ARC
  5
F7
330
1F
100
AcDbEntity
  8
1
100
AcDbCircle
 10
222.498876
 20
167.267465
 30
0.0
 40
0.5
100
AcDbArc
 50
200.355382
 51
204.316008
  0
ARC
  5
F8
330
1F
100
AcDbEntity
  8
NOCUT
100
AcDbCircle
 10
225.436964
 20
151.774232
 30
0.0
 40
2.0
100
AcDbArc
 50
250.0
 51
270.0
  0
ARC
  5
F9
330
1F
100
AcDbEntity
  8
NOCUT
100
AcDbCircle
 10
218.620006
 20
149.998691
 30
0.0
 40
2.0
100
AcDbArc
 50
70.0
 51
90.0
  0
ARC
  5
FA
330
1F
100
AcDbEntity
  8
NOCUT
100
AcDbCircle
 10
198.484215
 20
150.998691
 30
0.0
 40
1.0
100
AcDbArc
 50
90.0
 51
150.0
  0
ARC
  5
FB
330
1F
100
AcDbEntity
  8
NOCUT
100
AcDbCircle
 10
198.484215
 20
171.998691
 30
0.0
 40
1.0
100
AcDbArc
 50
210.0
 51
270.0
  0
ARC
  5
FC
330
1F
100
AcDbEntity
  8
NOCUT
100
AcDbCircle
 10
218.620006
 20
172.998691
 30
0.0
 40
2.0
100
AcDbArc
 50
270.0
 51
290.0
  0
ARC
  5
FD
330
1F
100
AcDbEntity
  8
NOCUT
100
AcDbCircle
 10
225.436964
 20
171.22315
 30
0.0
 40
2.0
100
AcDbArc
 50
90.0
 51
110.0
  0
ARC
  5
FE
330
1F
100
AcDbEntity
  8
NOCUT
100
AcDbCircle
 10
226.78431
 20
169.735556
 30
0.0
 40
3.487593740623602
100
AcDbArc
 50
324.931186
 51
90.0
  0
ARC
  5
FF
330
1F
100
AcDbEntity
  8
NOCUT
100
AcDbCircle
 10
228.618189
 20
163.493156
 30
0.0
 40
1.6
100
AcDbArc
 50
144.931186
 51
180.0
  0
ARC
  5
100
330
1F
100
AcDbEntity
  8
NOCUT
100
AcDbCircle
 10
228.618189
 20
159.504226
 30
0.0
 40
1.6
100
AcDbArc
 50
180.0
 51
215.068814
  0
ARC
  5
101
330
1F
100
AcDbEntity
  8
NOCUT
100
AcDbCircle
 10
226.78431
 20
153.261826
 30
0.0
 40
3.487593740623602
100
AcDbArc
 50
270.0
 51
35.06881400000001
  0
ELLIPSE
  5
102
330
1F
100
AcDbEntity
  8
CUT
100
AcDbEllipse
 10
226.655359
 20
168.980337
 30
0.0
 11
1.962817595750256
 21
-4.59862447758166
 31
0.0
210
0.0
220
0.0
230
1.0
 40
0.9912059999999998
 41
0.0
 42
6.283185307179585
  0
ELLIPSE
  5
103
330
1F
100
AcDbEntity
  8
1
100
AcDbEllipse
 10
224.43835
 20
161.471856
 30
0.0
 11
-0.0749288597485258
 21
11.47792857034131
 31
0.0
210
0.0
220
0.0
230
1.0
 40
0.122565
 41
2.20668723774238
 42
2.335082607396651
  0
ELLIPSE
  5
104
330
1F
100
AcDbEntity
  8
1
100
AcDbEllipse
 10
226.681593
 20
168.443632
 30
0.0
 11
-5.881479873006297
 21
-2.566282075806601
 31
0.0
210
0.0
220
0.0
230
0.9999999999999998
 40
0.109435
 41
0.659539622514733
 42
0.7128791540384507
  0
ELLIPSE
  5
105
330
1F
100
AcDbEntity
  8
1
100
AcDbEllipse
 10
222.378912
 20
166.806961
 30
0.0
 11
-0.7073553982527799
 21
-0.2387290032871843
 31
0.0
210
0.0
220
0.0
230
1.0
 40
0.010392
 41
5.680394608562933
 42
7.596987664782298
  0
ELLIPSE
  5
106
330
1F
100
AcDbEntity
  8
1
100
AcDbEllipse
 10
222.463534
 20
166.806964
 30
0.0
 11
-0.1031121507642769
 21
0.7459074012398897
 31
0.0
210
0.0
220
0.0
230
0.9999999999999998
 40
0.9222319999999999
 41
0.7518496374603917
 42
0.9488863912725316
  0
ELLIPSE
  5
107
330
1F
100
AcDbEntity
  8
1
100
AcDbEllipse
 10
226.681593
 20
168.443632
 30
0.0
 11
-6.073229000455023
 21
-2.099012927537363
 31
0.0
210
0.0
220
0.0
230
1.0
 40
0.110656
 41
5.574799164353689
 42
5.627557291488122
  0
ELLIPSE
  5
108
330
1F
100
AcDbEntity
  8
1
100
AcDbEllipse
 10
225.459808
 20
154.607751
 30
0.0
 11
0.7851270383000722
 21
1.839449791032676
 31
0.0
210
0.0
220
0.0
230
1.0
 40
0.9912059999999998
 41
0.0513217869165743
 42
1.977412373613683
  0
ELLIPSE
  5
109
330
1F
100
AcDbEntity
  8
1
100
AcDbEllipse
 10
226.655359
 20
168.980337
 30
0.0
 11
-1.962817595750256
 21
4.59862447758166
 31
0.0
210
0.0
220
0.0
230
1.0
 40
0.9912059999999998
 41
1.17055847786277
 42
1.974217106206207
  0
ELLIPSE
  5
10A
330
1F
100
AcDbEntity
  8
1
100
AcDbEllipse
 10
226.655359
 20
168.980337
 30
0.0
 11
-1.962817595750256
 21
4.59862447758166
 31
0.0
210
0.0
220
0.0
230
1.0
 40
0.9912059999999998
 41
3.463921064877198
 42
6.283185307179585
  0
ELLIPSE
  5
10B
330
1F
100
AcDbEntity
  8
1
100
AcDbEllipse
 10
226.655359
 20
168.980337
 30
0.0
 11
-1.962817595750256
 21
4.59862447758166
 31
0.0
210
0.0
220
0.0
230
1.0
 40
0.9912059999999998
 41
0.0
 42
1.170558434491686
  0
ELLIPSE
  5
10C
330
1F
100
AcDbEntity
  8
1
100
AcDbEllipse
 10
227.049361
 20
170.16883
 30
0.0
 11
0.0334549125992829
 21
-0.0783804772830212
 31
0.0
210
0.0
220
0.0
230
1.0
 40
0.9912059999999998
 41
4.043973545766766
 42
4.702836681751588
  0
ELLIPSE
  5
10D
330
1F
100
AcDbEntity
  8
1
100
AcDbEllipse
 10
226.885949
 20
167.733237
 30
0.0
 11
0.033454912599283
 21
-0.0783804772830216
 31
0.0
210
0.0
220
0.0
230
1.0
 40
0.9912059999999998
 41
0.2435177561920711
 42
1.425979667775225
  0
ELLIPSE
  5
10E
330
1F
100
AcDbEntity
  8
1
100
AcDbEllipse
 10
225.816544
 20
168.028396
 30
0.0
 11
0.033454912599283
 21
-0.0783804772830214
 31
0.0
210
0.0
220
0.0
230
1.0
 40
0.9912059999999998
 41
2.861511634183588
 42
3.520374770168439
  0
ELLIPSE
  5
10F
330
1F
100
AcDbEntity
  8
1
100
AcDbEllipse
 10
227.83222
 20
169.376165
 30
0.0
 11
0.0334549125992829
 21
-0.0783804772830213
 31
0.0
210
0.0
220
0.0
230
1.0
 40
0.9912059999999998
 41
6.138368648159932
 42
7.320830559743116
  0
ELLIPSE
  5
110
330
1F
100
AcDbEntity
  8
1
100
AcDbEllipse
 10
226.400428
 20
167.736353
 30
0.0
 11
0.0334549125992829
 21
-0.0783804772830213
 31
0.0
210
0.0
220
0.0
230
1.0
 40
0.9912059999999998
 41
4.043973545766704
 42
5.226435457349953
  0
ELLIPSE
  5
111
330
1F
100
AcDbEntity
  8
1
100
AcDbEllipse
 10
225.696918
 20
168.14952
 30
0.0
 11
0.033454912599283
 21
-0.0783804772830216
 31
0.0
210
0.0
220
0.0
230
1.0
 40
0.9912059999999998
 41
5.479505512175118
 42
6.661967423758229
  0
ELLIPSE
  5
112
330
1F
100
AcDbEntity
  8
1
100
AcDbEllipse
 10
227.876006
 20
169.211474
 30
0.0
 11
0.0334549125992829
 21
-0.0783804772830212
 31
0.0
210
0.0
220
0.0
230
1.0
 40
0.9912059999999998
 41
2.996775994570183
 42
3.655639130555016
  0
ELLIPSE
  5
113
330
1F
100
AcDbEntity
  8
1
100
AcDbEllipse
 10
227.049361
 20
167.776242
 30
0.0
 11
0.033454912599283
 21
-0.0783804772830214
 31
0.0
210
0.0
220
0.0
230
1.0
 40
0.9912059999999998
 41
3.908709185380216
 42
4.56757232136505
  0
ELLIPSE
  5
114
330
1F
100
AcDbEntity
  8
1
100
AcDbEllipse
 10
225.816544
 20
169.932499
 30
0.0
 11
0.0334549125992829
 21
-0.0783804772830212
 31
0.0
210
0.0
220
0.0
230
1.0
 40
0.9912059999999998
 41
5.091171096963339
 42
5.750034232948169
  0
ELLIPSE
  5
115
330
1F
100
AcDbEntity
  8
1
100
AcDbEllipse
 10
227.83222
 20
168.558859
 30
0.0
 11
0.033454912599283
 21
-0.0783804772830216
 31
0.0
210
0.0
220
0.0
230
1.0
 40
0.9912059999999998
 41
1.290715307388696
 42
2.473177218971833
  0
ELLIPSE
  5
116
330
1F
100
AcDbEntity
  8
1
100
AcDbEllipse
 10
227.876006
 20
168.722988
 30
0.0
 11
0.033454912599283
 21
-0.0783804772830214
 31
0.0
210
0.0
220
0.0
230
1.0
 40
0.9912059999999998
 41
4.955906736576749
 42
5.614769872561621
  0
ELLIPSE
  5
117
330
1F
100
AcDbEntity
  8
1
100
AcDbEllipse
 10
226.885949
 20
170.213933
 30
0.0
 11
0.0334549125992829
 21
-0.0783804772830213
 31
0.0
210
0.0
220
0.0
230
1.0
 40
0.9912059999999998
 41
0.9023808921769708
 42
2.084842803760079
  0
ELLIPSE
  5
118
330
1F
100
AcDbEntity
  8
1
100
AcDbEllipse
 10
224.664298
 20
150.550985
 30
0.0
 11
-0.1971987011710305
 21
-0.4761546103379619
 31
0.0
210
0.0
220
0.0
230
0.9999999999999998
 40
0.9616389999999999
 41
5.904220863025143
 42
6.668432577764133
  0
ELLIPSE
  5
119
330
1F
100
AcDbEntity
  8
1
100
AcDbEllipse
 10
229.812566
 20
152.729531
 30
0.0
 11
-0.4736848124896614
 21
0.1912699838131106
 31
0.0
210
0.0
220
0.0
230
1.0
 40
0.97877
 41
2.753759197594708
 42
3.517970912326873
  0
ELLIPSE
  5
11A
330
1F
100
AcDbEntity
  8
1
100
AcDbEllipse
 10
227.680084
 20
150.570338
 30
0.0
 11
-0.1284619073389978
 21
0.4970342770707445
 31
0.0
210
0.0
220
0.0
230
1.0
 40
0.9691729999999999
 41
2.902395803764783
 42
3.666607518501118
  0
ELLIPSE
  5
11B
330
1F
100
AcDbEntity
  8
1
100
AcDbEllipse
 10
229.812566
 20
155.763739
 30
0.0
 11
-0.4412939132898623
 21
-0.2625445400944061
 31
0.0
210
0.0
220
0.0
230
1.0
 40
0.968716
 41
2.618759052346023
 42
3.065560852367168
  0
ELLIPSE
  5
11C
330
1F
100
AcDbEntity
  8
1
100
AcDbEllipse
 10
226.237017
 20
170.174043
 30
0.0
 11
0.033454912599283
 21
-0.0783804772830214
 31
0.0
210
0.0
220
0.0
230
1.0
 40
0.9912059999999998
 41
0.7671165317904168
 42
1.425979667775216
  0
ELLIPSE
  5
11D
330
1F
100
AcDbEntity
  8
1
100
AcDbEllipse
 10
226.655359
 20
168.980337
 30
0.0
 11
1.091893707022355
 21
-2.558163906265115
 31
0.0
210
0.0
220
0.0
230
1.0
 40
0.991206
 41
0.0
 42
6.283185307179585
  0
ELLIPSE
  5
11E
330
1F
100
AcDbEntity
  8
1
100
AcDbEllipse
 10
226.582336
 20
168.949169
 30
0.0
 11
-1.07954967766264
 21
2.52924346266991
 31
0.0
210
0.0
220
0.0
230
1.0
 40
0.9912059999999998
 41
2.735071440443403
 42
6.283185307179585
  0
ELLIPSE
  5
11F
330
1F
100
AcDbEntity
  8
1
100
AcDbEllipse
 10
226.582336
 20
168.949169
 30
0.0
 11
-1.07954967766264
 21
2.52924346266991
 31
0.0
210
0.0
220
0.0
230
1.0
 40
0.9912059999999998
 41
0.0
 42
0.4033227986885975
  0
ELLIPSE
  5
120
330
1F
100
AcDbEntity
  8
1
100
AcDbEllipse
 10
225.547845
 20
154.489762
 30
0.0
 11
0.5299607508525489
 21
1.241628608947057
 31
0.0
210
0.0
220
0.0
230
1.0
 40
0.9912059999999998
 41
0.0
 42
6.283185307179585
  0
ELLIPSE
  5
121
330
1F
100
AcDbEntity
  8
1
100
AcDbEllipse
 10
225.596527
 20
154.468983
 30
0.0
 11
0.6869861585125631
 21
1.609518567153591
 31
0.0
210
0.0
220
0.0
230
1.0
 40
0.9912059999999998
 41
5.475382325936552
 42
6.283185307179585
  0
ELLIPSE
  5
122
330
1F
100
AcDbEntity
  8
1
100
AcDbEllipse
 10
225.596527
 20
154.468983
 30
0.0
 11
0.6869861585125631
 21
1.609518567153591
 31
0.0
210
0.0
220
0.0
230
1.0
 40
0.9912059999999998
 41
0.0
 42
5.020538870749369
  0
ELLIPSE
  5
123
330
1F
100
AcDbEntity
  8
1
100
AcDbEllipse
 10
226.620199
 20
168.96533
 30
0.0
 11
-0.9421524459601231
 21
2.207339749239195
 31
0.0
210
0.0
220
0.0
230
1.0
 40
0.9912059999999998
 41
0.0
 42
6.283185307179585
  0
ELLIPSE
  5
124
330
1F
100
AcDbEntity
  8
1
100
AcDbEllipse
 10
226.643189
 20
168.975143
 30
0.0
 11
-0.706614334470093
 21
1.655504811929398
 31
0.0
210
0.0
220
0.0
230
0.9999999999999998
 40
0.9912059999999998
 41
0.0
 42
6.283185307179585
  0
ELLIPSE
  5
125
330
1F
100
AcDbEntity
  8
1
100
AcDbEllipse
 10
225.867157
 20
170.33246
 30
0.0
 11
0.1920765204949317
 21
-0.4500101235230086
 31
0.0
210
0.0
220
0.0
230
0.9999999999999998
 40
0.9912059999999998
 41
5.750034232948196
 42
7.050301838969978
  0
ELLIPSE
  5
126
330
1F
100
AcDbEntity
  8
1
100
AcDbEllipse
 10
225.696918
 20
169.81291
 30
0.0
 11
0.0334549125992829
 21
-0.0783804772830213
 31
0.0
210
0.0
220
0.0
230
1.0
 40
0.9912059999999998
 41
1.949578443373545
 42
3.132040354956658
  0
ELLIPSE
  5
127
330
1F
100
AcDbEntity
  8
1
100
AcDbEllipse
 10
225.852014
 20
169.439795
 30
0.0
 11
0.1920765204949317
 21
-0.4500101235230087
 31
0.0
210
0.0
220
0.0
230
0.9999999999999998
 40
0.9912059999999998
 41
3.132040354956694
 42
4.432307960978476
  0
ELLIPSE
  5
128
330
1F
100
AcDbEntity
  8
1
100
AcDbEllipse
 10
225.454158
 20
169.391426
 30
0.0
 11
0.033454912599283
 21
-0.0783804772830216
 31
0.0
210
0.0
220
0.0
230
1.0
 40
0.9912059999999998
 41
4.432307960978478
 42
5.614769872561621
  0
ELLIPSE
  5
129
330
1F
100
AcDbEntity
  8
1
100
AcDbEllipse
 10
225.410372
 20
169.227297
 30
0.0
 11
0.033454912599283
 21
-0.0783804772830214
 31
0.0
210
0.0
220
0.0
230
1.0
 40
0.9912059999999998
 41
1.814314082986965
 42
2.473177218971828
  0
ELLIPSE
  5
12A
330
1F
100
AcDbEntity
  8
1
100
AcDbEllipse
 10
225.091125
 20
168.985103
 30
0.0
 11
0.1920765204949317
 21
-0.4500101235230086
 31
0.0
210
0.0
220
0.0
230
0.9999999999999998
 40
0.9912059999999998
 41
0.514046476965206
 42
1.814314082986976
  0
ELLIPSE
  5
12B
330
1F
100
AcDbEntity
  8
1
100
AcDbEllipse
 10
225.410372
 20
168.738811
 30
0.0
 11
0.0334549125992829
 21
-0.0783804772830212
 31
0.0
210
0.0
220
0.0
230
1.0
 40
0.9912059999999998
 41
6.138368648159934
 42
6.797231784144809
  0
ELLIPSE
  5
12C
330
1F
100
AcDbEntity
  8
1
100
AcDbEllipse
 10
225.454158
 20
168.57412
 30
0.0
 11
0.0334549125992829
 21
-0.0783804772830213
 31
0.0
210
0.0
220
0.0
230
1.0
 40
0.9912059999999998
 41
2.996775994570183
 42
4.179237906153293
  0
ELLIPSE
  5
12D
330
1F
100
AcDbEntity
  8
1
100
AcDbEllipse
 10
225.852014
 20
168.520644
 30
0.0
 11
0.1920765204949317
 21
-0.4500101235230087
 31
0.0
210
0.0
220
0.0
230
0.9999999999999998
 40
0.9912059999999998
 41
4.179237906153304
 42
5.479505512175073
  0
ELLIPSE
  5
12E
330
1F
100
AcDbEntity
  8
1
100
AcDbEllipse
 10
225.867157
 20
167.627785
 30
0.0
 11
0.1920765204949317
 21
-0.4500101235230086
 31
0.0
210
0.0
220
0.0
230
0.9999999999999998
 40
0.9912059999999998
 41
1.561244028161801
 42
2.861511634183583
  0
ELLIPSE
  5
12F
330
1F
100
AcDbEntity
  8
1
100
AcDbEllipse
 10
226.237017
 20
167.781455
 30
0.0
 11
0.0334549125992829
 21
-0.0783804772830212
 31
0.0
210
0.0
220
0.0
230
1.0
 40
0.9912059999999998
 41
0.902380892176982
 42
1.561244028161784
  0
ELLIPSE
  5
130
330
1F
100
AcDbEntity
  8
1
100
AcDbEllipse
 10
226.643189
 20
168.055992
 30
0.0
 11
0.1920765204949317
 21
-0.4500101235230087
 31
0.0
210
0.0
220
0.0
230
0.9999999999999998
 40
0.9912059999999998
 41
5.226435457349897
 42
6.526703063371664
  0
ELLIPSE
  5
131
330
1F
100
AcDbEntity
  8
1
100
AcDbEllipse
 10
227.419221
 20
167.617825
 30
0.0
 11
0.1920765204949317
 21
-0.4500101235230086
 31
0.0
210
0.0
220
0.0
230
0.9999999999999998
 40
0.9912059999999998
 41
2.608441579358399
 42
3.908709185380178
  0
ELLIPSE
  5
132
330
1F
100
AcDbEntity
  8
1
100
AcDbEllipse
 10
227.469834
 20
168.017787
 30
0.0
 11
0.0334549125992829
 21
-0.0783804772830212
 31
0.0
210
0.0
220
0.0
230
1.0
 40
0.9912059999999998
 41
1.949578443373565
 42
2.608441579358376
  0
ELLIPSE
  5
133
330
1F
100
AcDbEntity
  8
1
100
AcDbEllipse
 10
227.589459
 20
168.137375
 30
0.0
 11
0.0334549125992829
 21
-0.0783804772830213
 31
0.0
210
0.0
220
0.0
230
1.0
 40
0.9912059999999998
 41
5.091171096963303
 42
6.273633008546452
  0
ELLIPSE
  5
134
330
1F
100
AcDbEntity
  8
1
100
AcDbEllipse
 10
227.434364
 20
168.51049
 30
0.0
 11
0.1920765204949317
 21
-0.4500101235230087
 31
0.0
210
0.0
220
0.0
230
0.9999999999999998
 40
0.9912059999999998
 41
6.273633008546495
 42
7.573900614568272
  0
ELLIPSE
  5
135
330
1F
100
AcDbEntity
  8
1
100
AcDbEllipse
 10
228.195253
 20
168.965183
 30
0.0
 11
0.1920765204949317
 21
-0.4500101235230086
 31
0.0
210
0.0
220
0.0
230
0.9999999999999998
 40
0.9912059999999998
 41
3.655639130555001
 42
4.955906736576773
  0
ELLIPSE
  5
136
330
1F
100
AcDbEntity
  8
1
100
AcDbEllipse
 10
227.434364
 20
169.429641
 30
0.0
 11
0.1920765204949317
 21
-0.4500101235230087
 31
0.0
210
0.0
220
0.0
230
0.9999999999999998
 40
0.9912059999999998
 41
1.037645252563512
 42
2.337912858585279
  0
ELLIPSE
  5
137
330
1F
100
AcDbEntity
  8
1
100
AcDbEllipse
 10
227.589459
 20
169.800765
 30
0.0
 11
0.033454912599283
 21
-0.0783804772830216
 31
0.0
210
0.0
220
0.0
230
1.0
 40
0.9912059999999998
 41
2.337912858585319
 42
3.520374770168428
  0
ELLIPSE
  5
138
330
1F
100
AcDbEntity
  8
1
100
AcDbEllipse
 10
227.469834
 20
169.921889
 30
0.0
 11
0.033454912599283
 21
-0.0783804772830214
 31
0.0
210
0.0
220
0.0
230
1.0
 40
0.9912059999999998
 41
6.003104287773375
 42
6.661967423758236
  0
ELLIPSE
  5
139
330
1F
100
AcDbEntity
  8
1
100
AcDbEllipse
 10
227.419221
 20
170.3225
 30
0.0
 11
0.1920765204949317
 21
-0.4500101235230086
 31
0.0
210
0.0
220
0.0
230
0.9999999999999998
 40
0.9912059999999998
 41
4.702836681751601
 42
6.003104287773375
  0
ELLIPSE
  5
13A
330
1F
100
AcDbEntity
  8
1
100
AcDbEllipse
 10
226.643189
 20
169.894293
 30
0.0
 11
0.1920765204949317
 21
-0.4500101235230087
 31
0.0
210
0.0
220
0.0
230
0.9999999999999998
 40
0.9912059999999998
 41
2.084842803760106
 42
3.38511040978187
  0
ELLIPSE
  5
13B
330
1F
100
AcDbEntity
  8
1
100
AcDbEllipse
 10
226.400428
 20
170.217048
 30
0.0
 11
0.033454912599283
 21
-0.0783804772830216
 31
0.0
210
0.0
220
0.0
230
1.0
 40
0.9912059999999998
 41
3.385110409781779
 42
4.567572321365018
  0
ELLIPSE
  5
13C
330
1F
100
AcDbEntity
  8
1
100
AcDbEllipse
 10
226.557995
 20
168.93878
 30
0.0
 11
-0.9421524459601229
 21
2.207339749239194
 31
0.0
210
0.0
220
0.0
230
0.9999999999999998
 40
0.9912059999999998
 41
1.170558344351853
 42
3.141515143628805
  0
ELLIPSE
  5
13D
330
1F
100
AcDbEntity
  8
1
100
AcDbEllipse
 10
226.557995
 20
168.93878
 30
0.0
 11
-0.9421524459601229
 21
2.207339749239194
 31
0.0
210
0.0
220
0.0
230
0.9999999999999998
 40
0.9912059999999998
 41
0.0000206919437022
 42
1.170558344351854
  0
ELLIPSE
  5
13E
330
1F
100
AcDbEntity
  8
1
100
AcDbEllipse
 10
226.655359
 20
154.017045
 30
0.0
 11
1.96281759575018
 21
4.598624477581692
 31
0.0
210
0.0
220
0.0
230
1.0
 40
0.9912059999999998
 41
2.597683760409839
 42
5.112626872687911
  0
ELLIPSE
  5
13F
330
1F
100
AcDbEntity
  8
1
100
AcDbEllipse
 10
226.655359
 20
154.017045
 30
0.0
 11
1.96281759575018
 21
4.598624477581692
 31
0.0
210
0.0
220
0.0
230
1.0
 40
0.9912059999999998
 41
5.112626872687908
 42
5.873383182815987
  0
SPLINE
  5
140
330
1F
100
AcDbEntity
  8
1
100
AcDbSpline
210
0.0
220
0.0
230
1.0
 70
     8
 71
     3
 72
    10
 73
     6
 74
     0
 42
0.000000001
 43
0.0000000001
 40
0.0
 40
0.0
 40
0.0
 40
0.0
 40
0.5
 40
0.5
 40
1.0
 40
1.0
 40
1.0
 40
1.0
 10
224.7529237221659
 20
156.7124662942843
 30
0.0
 10
224.8575338472836
 20
156.7360851521017
 30
0.0
 10
224.96774256654
 20
156.7502311247203
 30
0.0
 10
225.201339768958
 20
156.7560468810146
 30
0.0
 10
225.3193467206104
 20
156.7474442227972
 30
0.0
 10
225.4369640088172
 20
156.7279384987678
 30
0.0
  0
SPLINE
  5
141
330
1F
100
AcDbEntity
  8
1
100
AcDbSpline
210
0.0
220
0.0
230
1.0
 70
     8
 71
     3
 72
    10
 73
     6
 74
     0
 42
0.000000001
 43
0.0000000001
 40
0.0
 40
0.0
 40
0.0
 40
0.0
 40
0.3306858175657857
 40
0.6639618452273066
 40
1.0
 40
1.0
 40
1.0
 40
1.0
 10
225.1286501483649
 20
165.2652949726358
 30
0.0
 10
225.0863877366293
 20
165.2646178429943
 30
0.0
 10
225.0015318783215
 20
165.263258279861
 30
0.0
 10
224.8758864016692
 20
165.2614900781257
 30
0.0
 10
224.7940238921232
 20
165.2604211957256
 30
0.0
 10
224.7529237221659
 20
165.2598845489926
 30
0.0
  0
SPLINE
  5
142
330
1F
100
AcDbEntity
  8
1
100
AcDbSpline
210
0.0
220
0.0
230
1.0
 70
     8
 71
     3
 72
    13
 73
     9
 74
     0
 42
0.000000001
 43
0.0000000001
 40
0.0
 40
0.0
 40
0.0
 40
0.0
 40
0.2041373196514987
 40
0.3931978917629745
 40
0.5672607898226331
 40
0.7263865076976487
 40
0.8706210188289659
 40
1.0
 40
1.0
 40
1.0
 40
1.0
 10
219.3040465190355
 20
166.05799764053
 30
0.0
 10
219.2594961222864
 20
166.0730134952315
 30
0.0
 10
219.1736856388878
 20
166.1019361950188
 30
0.0
 10
219.0460354152646
 20
166.1472208357854
 30
0.0
 10
218.9267013978705
 20
166.1912274284209
 30
0.0
 10
218.8161339552948
 20
166.2336380587737
 30
0.0
 10
218.7150204653345
 20
166.273684449198
 30
0.0
 10
218.6505101386976
 20
166.3000752087632
 30
0.0
 10
218.6200062323842
 20
166.3125541605728
 30
0.0
  0
SPLINE
  5
143
330
1F
100
AcDbEntity
  8
1
100
AcDbSpline
210
0.0
220
0.0
230
1.0
 70
     8
 71
     3
 72
    12
 73
     8
 74
     0
 42
0.000000001
 43
0.0000000001
 40
0.0
 40
0.0
 40
0.0
 40
0.0
 40
0.1974903566038403
 40
0.3961683751446391
 40
0.5961019977005016
 40
0.797357748383917
 40
1.0
 40
1.0
 40
1.0
 40
1.0
 10
224.7529237221659
 20
150.4439722139006
 30
0.0
 10
224.7965349750421
 20
150.4302543839656
 30
0.0
 10
224.8840197489173
 20
150.4027362281969
 30
0.0
 10
225.019067086442
 20
150.3734537994205
 30
0.0
 10
225.1565997086995
 20
150.3533901589013
 30
0.0
 10
225.2962939637439
 20
150.342747408263
 30
0.0
 10
225.3899668070906
 20
150.3442250858297
 30
0.0
 10
225.4369640088172
 20
150.3449664608987
 30
0.0
  0
SPLINE
  5
144
330
1F
100
AcDbEntity
  8
1
100
AcDbSpline
210
0.0
220
0.0
230
1.0
 70
    24
 71
     1
 72
     4
 73
     2
 74
     0
 42
0.000000001
 43
0.0000000001
 40
0.0
 40
0.0
 40
1.0
 40
1.0
 10
230.2629528383823
 20
165.0887451859894
 30
0.0
 10
230.1289011790657
 20
165.2184004310629
 30
0.0
  0
SPLINE
  5
145
330
1F
100
AcDbEntity
  8
1
100
AcDbSpline
210
0.0
220
0.0
230
1.0
 70
    24
 71
     1
 72
     4
 73
     2
 74
     0
 42
0.000000001
 43
0.0000000001
 40
0.0
 40
0.0
 40
1.0
 40
1.0
 10
211.663453280357
 20
169.9011443927276
 30
0.0
 10
211.5258195729247
 20
169.964384876742
 30
0.0
  0
SPLINE
  5
146
330
1F
100
AcDbEntity
  8
1
100
AcDbSpline
210
0.0
220
0.0
230
1.0
 70
    24
 71
     1
 72
     4
 73
     2
 74
     0
 42
0.000000001
 43
0.0000000001
 40
0.0
 40
0.0
 40
1.0
 40
1.0
 10
221.6477721664845
 20
151.0827759401561
 30
0.0
 10
221.8314831106
 20
151.2104500812201
 30
0.0
  0
SPLINE
  5
147
330
1F
100
AcDbEntity
  8
1
100
AcDbSpline
210
0.0
220
0.0
230
1.0
 70
    24
 71
     1
 72
     4
 73
     2
 74
     0
 42
0.000000001
 43
0.0000000001
 40
0.0
 40
0.0
 40
1.0
 40
1.0
 10
221.8314831037155
 20
171.7869320981929
 30
0.0
 10
221.6477721590733
 20
171.9146062396397
 30
0.0
  0
SPLINE
  5
148
330
1F
100
AcDbEntity
  8
1
100
AcDbSpline
210
0.0
220
0.0
230
1.0
 70
     8
 71
     3
 72
     8
 73
     4
 74
     0
 42
0.000000001
 43
0.0000000001
 40
0.0
 40
0.0
 40
0.0
 40
0.0
 40
1.0
 40
1.0
 40
1.0
 40
1.0
 10
227.285991688634
 20
154.6883343319281
 30
0.0
 10
227.3343447959959
 20
154.1863069404658
 30
0.0
 10
227.3872938764258
 20
153.7172525470257
 30
0.0
 10
227.4449411616175
 20
153.2819045948605
 30
0.0
  0
SPLINE
  5
149
330
1F
100
AcDbEntity
  8
1
100
AcDbSpline
210
0.0
220
0.0
230
1.0
 70
     8
 71
     3
 72
    17
 73
    13
 74
     0
 42
0.000000001
 43
0.0000000001
 40
0.0
 40
0.0
 40
0.0
 40
0.0
 40
0.0722682854654435
 40
0.2579011304722442
 40
0.440227931507355
 40
0.62822245982299
 40
0.6894888580069316
 40
0.7509867692508242
 40
0.8127484163642327
 40
0.8748105996501141
 40
0.9372136198741616
 40
1.0
 40
1.0
 40
1.0
 40
1.0
 10
230.2643087673366
 20
165.0874654503172
 30
0.0
 10
230.2563716412579
 20
165.0958851429098
 30
0.0
 10
230.2055590045862
 20
165.1254616638594
 30
0.0
 10
229.979223183171
 20
165.1717170183072
 30
0.0
 10
229.4494271964543
 20
165.2208973006279
 30
0.0
 10
228.8674049497363
 20
165.2490845732718
 30
0.0
 10
228.3897903960361
 20
165.2632682230744
 30
0.0
 10
228.0908804004089
 20
165.2698414446641
 30
0.0
 10
227.7781315284844
 20
165.2746364796604
 30
0.0
 10
227.4540909372115
 20
165.2775550303936
 30
0.0
 10
227.1215752384668
 20
165.278714742433
 30
0.0
 10
226.8969610518857
 20
165.2777374926418
 30
0.0
 10
226.7843100474003
 20
165.2772473714598
 30
0.0
  0
SPLINE
  5
14A
330
1F
100
AcDbEntity
  8
1
100
AcDbSpline
210
0.0
220
0.0
230
1.0
 70
     8
 71
     3
 72
    22
 73
    18
 74
     0
 42
0.000000001
 43
0.0000000001
 40
0.0
 40
0.0
 40
0.0
 40
0.0
 40
0.0721933207082793
 40
0.143464888667605
 40
0.2138482977446513
 40
0.283375988509928
 40
0.3520793020931005
 40
0.419988536626618
 40
0.4871330060663754
 40
0.553541101168211
 40
0.6192403523910775
 40
0.6842574944916336
 40
0.7486185325704571
 40
0.8123488093269175
 40
0.8754730732776543
 40
0.9380155476923713
 40
1.0
 40
1.0
 40
1.0
 40
1.0
 10
224.7529237221659
 20
165.2598845489926
 30
0.0
 10
224.6165466850704
 20
165.2601245760112
 30
0.0
 10
224.3455338510329
 20
165.2606015654219
 30
0.0
 10
223.9431419506689
 20
165.2726001129548
 30
0.0
 10
223.5471919577304
 20
165.2924253741071
 30
0.0
 10
223.1577792625673
 20
165.3205038715065
 30
0.0
 10
222.7748787236506
 20
165.3562474225978
 30
0.0
 10
222.3984968718548
 20
165.3993391876339
 30
0.0
 10
222.0286319354357
 20
165.4493950212594
 30
0.0
 10
221.6652841457089
 20
165.5060518167141
 30
0.0
 10
221.3084538188653
 20
165.568944603333
 30
0.0
 10
220.958138950393
 20
165.6377084591188
 30
0.0
 10
220.614346554744
 20
165.7119900490065
 30
0.0
 10
220.2770503301659
 20
165.7913969650939
 30
0.0
 10
219.9463465387991
 20
165.8756826463246
 30
0.0
 10
219.6218804267613
 20
165.9640625977288
 30
0.0
 10
219.4096741799195
 20
166.0267796407983
 30
0.0
 10
219.3040465190355
 20
166.05799764053
 30
0.0
  0
SPLINE
  5
14B
330
1F
100
AcDbEntity
  8
1
100
AcDbSpline
210
0.0
220
0.0
230
1.0
 70
     8
 71
     3
 72
     8
 73
     4
 74
     0
 42
0.000000001
 43
0.0000000001
 40
0.0
 40
0.0
 40
0.0
 40
0.0
 40
1.0
 40
1.0
 40
1.0
 40
1.0
 10
224.4897897530185
 20
153.148395839325
 30
0.0
 10
224.1512696850826
 20
153.2726097837777
 30
0.0
 10
223.8128914141589
 20
153.3972096388404
 30
0.0
 10
223.4746757974845
 20
153.5222475268523
 30
0.0
  0
SPLINE
  5
14C
330
1F
100
AcDbEntity
  8
1
100
AcDbSpline
210
0.0
220
0.0
230
1.0
 70
    24
 71
     1
 72
     4
 73
     2
 74
     0
 42
0.000000001
 43
0.0000000001
 40
0.0
 40
0.0
 40
1.0
 40
1.0
 10
219.3673978286382
 20
170.9938077996028
 30
0.0
 10
219.3040465190355
 20
171.1150292067982
 30
0.0
  0
SPLINE
  5
14D
330
1F
100
AcDbEntity
  8
1
100
AcDbSpline
210
0.0
220
0.0
230
1.0
 70
     8
 71
     3
 72
    16
 73
    12
 74
     0
 42
0.000000001
 43
0.0000000001
 40
0.0
 40
0.0
 40
0.0
 40
0.0
 40
0.2499999999999998
 40
0.2499999999999998
 40
0.3749999999999994
 40
0.3749999999999994
 40
0.499999999999999
 40
0.499999999999999
 40
0.7499999999999996
 40
0.7499999999999996
 40
1.0
 40
1.0
 40
1.0
 40
1.0
 10
223.3510291039545
 20
154.6477879999821
 30
0.0
 10
223.3295394220298
 20
154.8691949326641
 30
0.0
 10
223.3413406336641
 20
155.0880442518262
 30
0.0
 10
223.4122426803315
 20
155.4111964122227
 30
0.0
 10
223.4450429959285
 20
155.5178427621208
 30
0.0
 10
223.5275923697631
 20
155.7220585871837
 30
0.0
 10
223.5774839474537
 20
155.8204798839425
 30
0.0
 10
223.7542739977042
 20
156.103093605415
 30
0.0
 10
223.9115449807671
 20
156.2769018365113
 30
0.0
 10
224.2868333236355
 20
156.5522101556716
 30
0.0
 10
224.50901139733
 20
156.657395807429
 30
0.0
 10
224.7529237221659
 20
156.7124662942843
 30
0.0
  0
SPLINE
  5
14E
330
1F
100
AcDbEntity
  8
1
100
AcDbSpline
210
0.0
220
0.0
230
1.0
 70
     8
 71
     2
 72
    15
 73
    12
 74
     0
 42
0.000000001
 43
0.0000000001
 40
0.0
 40
0.0
 40
0.0
 40
0.1842723275164825
 40
0.1842723275164825
 40
0.3685446550329649
 40
0.3685446550329649
 40
0.5528169825494473
 40
0.5528169825494473
 40
0.7370893100659299
 40
0.7370893100659299
 40
0.9213616375824123
 40
1.0
 40
1.0
 40
1.0
 10
226.7834451804175
 20
165.369648973442
 30
0.0
 10
227.2675901183672
 20
165.372648405473
 30
0.0
 10
227.7305277832585
 20
165.3682218184711
 30
0.0
 10
228.1902391662196
 20
165.3638260810172
 30
0.0
 10
228.5950740593367
 20
165.3523606695216
 30
0.0
 10
228.9938877970768
 20
165.3410657843943
 30
0.0
 10
229.3061628987411
 20
165.3236767353368
 30
0.0
 10
229.6136669520985
 20
165.3065533622573
 30
0.0
 10
229.8120903904941
 20
165.2848749563015
 30
0.0
 10
230.0067743318465
 20
165.2636051025591
 30
0.0
 10
230.1172513290681
 20
165.2292688803905
 30
0.0
 10
230.1284922776647
 20
165.2188469189096
 30
0.0
  0
SPLINE
  5
14F
330
1F
100
AcDbEntity
  8
1
100
AcDbSpline
210
0.0
220
0.0
230
1.0
 70
     8
 71
     3
 72
     9
 73
     5
 74
     0
 42
0.000000001
 43
0.0000000001
 40
0.0
 40
0.0
 40
0.0
 40
0.0
 40
0.4999991908676055
 40
1.0
 40
1.0
 40
1.0
 40
1.0
 10
225.4369640088172
 20
165.2687545426631
 30
0.0
 10
225.3853355825445
 20
165.268383277281
 30
0.0
 10
225.282078562902
 20
165.267640745315
 30
0.0
 10
225.1797930083856
 20
165.2660768977058
 30
0.0
 10
225.1286501483649
 20
165.2652949726358
 30
0.0
  0
SPLINE
  5
150
330
1F
100
AcDbEntity
  8
1
100
AcDbSpline
210
0.0
220
0.0
230
1.0
 70
     8
 71
     3
 72
     9
 73
     5
 74
     0
 42
0.000000001
 43
0.0000000001
 40
0.0
 40
0.0
 40
0.0
 40
0.0
 40
0.4895095013751189
 40
1.0
 40
1.0
 40
1.0
 40
1.0
 10
219.3040465190355
 20
171.1150292067982
 30
0.0
 10
219.6689726660244
 20
171.2492200719369
 30
0.0
 10
220.4144661568837
 20
171.5233533926627
 30
0.0
 10
221.1608742071474
 20
171.7950588428318
 30
0.0
 10
221.5419084249042
 20
171.9337618935678
 30
0.0
  0
SPLINE
  5
151
330
1F
100
AcDbEntity
  8
1
100
AcDbSpline
210
0.0
220
0.0
230
1.0
 70
    24
 71
     1
 72
     4
 73
     2
 74
     0
 42
0.000000001
 43
0.0000000001
 40
0.0
 40
0.0
 40
1.0
 40
1.0
 10
218.6707586255657
 20
166.3695722531996
 30
0.0
 10
218.6200460294518
 20
166.3125972640104
 30
0.0
  0
SPLINE
  5
152
330
1F
100
AcDbEntity
  8
1
100
AcDbSpline
210
0.0
220
0.0
230
1.0
 70
    24
 71
     1
 72
     4
 73
     2
 74
     0
 42
0.000000001
 43
0.0000000001
 40
0.0
 40
0.0
 40
1.0
 40
1.0
 10
218.6366328094844
 20
170.8614734712881
 30
0.0
 10
218.6200062323842
 20
170.9908784265887
 30
0.0
  0
SPLINE
  5
153
330
1F
100
AcDbEntity
  8
1
100
AcDbSpline
210
0.0
220
0.0
230
1.0
 70
     8
 71
     3
 72
    11
 73
     7
 74
     0
 42
0.000000001
 43
0.0000000001
 40
0.0
 40
0.0
 40
0.0
 40
0.0
 40
0.202860115201574
 40
0.4371379782662836
 40
0.7028453569295504
 40
1.0
 40
1.0
 40
1.0
 40
1.0
 10
218.6200062323842
 20
170.9908784265887
 30
0.0
 10
218.6672822396224
 20
170.9921030036092
 30
0.0
 10
218.7691560762022
 20
170.9947418127336
 30
0.0
 10
218.9317963930699
 20
171.0147898405239
 30
0.0
 10
219.1141387404789
 20
171.051249898834
 30
0.0
 10
219.2384292112986
 20
171.0929920553463
 30
0.0
 10
219.3040465190355
 20
171.1150292067982
 30
0.0
  0
SPLINE
  5
154
330
1F
100
AcDbEntity
  8
1
100
AcDbSpline
210
0.0
220
0.0
230
1.0
 70
     8
 71
     3
 72
    10
 73
     6
 74
     0
 42
0.000000001
 43
0.0000000001
 40
0.0
 40
0.0
 40
0.0
 40
0.0
 40
0.5
 40
0.5
 40
1.0
 40
1.0
 40
1.0
 40
1.0
 10
226.7843100474003
 20
155.9208130957314
 30
0.0
 10
226.936912228406
 20
155.728782863854
 30
0.0
 10
227.0489246301241
 20
155.5289936534481
 30
0.0
 10
227.2140781413928
 20
155.114881442484
 30
0.0
 10
227.2655252918595
 20
154.9008272273311
 30
0.0
 10
227.2859916886341
 20
154.6883343319278
 30
0.0
  0
SPLINE
  5
155
330
1F
100
AcDbEntity
  8
1
100
AcDbSpline
210
0.0
220
0.0
230
1.0
 70
    24
 71
     1
 72
     4
 73
     2
 74
     0
 42
0.000000001
 43
0.0000000001
 40
0.0
 40
0.0
 40
1.0
 40
1.0
 10
219.3040465190355
 20
166.05799764053
 30
0.0
 10
219.3956685155286
 20
166.1256027191268
 30
0.0
  0
SPLINE
  5
156
330
1F
100
AcDbEntity
  8
1
100
AcDbSpline
210
0.0
220
0.0
230
1.0
 70
     8
 71
     3
 72
    12
 73
     8
 74
     0
 42
0.000000001
 43
0.0000000001
 40
0.0
 40
0.0
 40
0.0
 40
0.0
 40
0.5737397520246194
 40
0.5737397520246194
 40
0.8606096280369353
 40
0.8606096280369353
 40
1.0
 40
1.0
 40
1.0
 40
1.0
 10
222.6931756778735
 20
171.8588294470985
 30
0.0
 10
222.5529137263491
 20
171.7844683585238
 30
0.0
 10
222.3875292085733
 20
171.713535559795
 30
0.0
 10
222.1469438264091
 20
171.636411778903
 30
0.0
 10
222.0662542039261
 20
171.6150152856111
 30
0.0
 10
221.9569934640892
 20
171.5929022897337
 30
0.0
 10
221.9224400873423
 20
171.5871034339786
 30
0.0
 10
221.8898417571706
 20
171.5828132968586
 30
0.0
  0
SPLINE
  5
157
330
1F
100
AcDbEntity
  8
1
100
AcDbSpline
210
0.0
220
0.0
230
1.0
 70
     8
 71
     3
 72
     8
 73
     4
 74
     0
 42
0.000000001
 43
0.0000000001
 40
0.0
 40
0.0
 40
0.0
 40
0.0
 40
1.0
 40
1.0
 40
1.0
 40
1.0
 10
221.5419084966831
 20
171.9337619216147
 30
0.0
 10
221.577210388238
 20
171.945421399315
 30
0.0
 10
221.6125122797929
 20
171.9390585051257
 30
0.0
 10
221.6478141713477
 20
171.9146641800489
 30
0.0
  0
SPLINE
  5
158
330
1F
100
AcDbEntity
  8
1
100
AcDbSpline
210
0.0
220
0.0
230
1.0
 70
     8
 71
     3
 72
    18
 73
    14
 74
     0
 42
0.000000001
 43
0.0000000001
 40
0.0
 40
0.0
 40
0.0
 40
0.0
 40
0.056047888317707
 40
0.110361928571188
 40
0.162960927704872
 40
0.2138656075026285
 40
0.2630988431437784
 40
0.3106859343092902
 40
0.4821766443107423
 40
0.6526755247685329
 40
0.7607122646584136
 40
0.8764016611167901
 40
1.0
 40
1.0
 40
1.0
 40
1.0
 10
221.7259517093762
 20
167.1895293472558
 30
0.0
 10
221.710386927824
 20
167.1662638206118
 30
0.0
 10
221.6797388630807
 20
167.1204524891465
 30
0.0
 10
221.6440503158001
 20
167.0469516979985
 30
0.0
 10
221.6166501473944
 20
166.9727284165451
 30
0.0
 10
221.5977865626507
 20
166.898365215762
 30
0.0
 10
221.5868276290693
 20
166.8248793766589
 30
0.0
 10
221.5800448391932
 20
166.6900528888168
 30
0.0
 10
221.6147115815184
 20
166.4921436557429
 30
0.0
 10
221.7319197700795
 20
166.2918288728324
 30
0.0
 10
221.8774647420513
 20
166.1555877852474
 30
0.0
 10
222.0288148297844
 20
166.0645287860352
 30
0.0
 10
222.145450673196
 20
166.0359380770415
 30
0.0
 10
222.2056961198726
 20
166.0211702322372
 30
0.0
  0
SPLINE
  5
159
330
1F
100
AcDbEntity
  8
1
100
AcDbSpline
210
0.0
220
0.0
230
1.0
 70
    24
 71
     3
 72
     8
 73
     4
 74
     0
 42
0.000000001
 43
0.0000000001
 40
0.0
 40
0.0
 40
0.0
 40
0.0
 40
1.0
 40
1.0
 40
1.0
 40
1.0
 10
222.152970465651
 20
165.903080645451
 30
0.0
 10
222.1756817249189
 20
165.9365902092754
 30
0.0
 10
222.1983929841868
 20
165.9700997730998
 30
0.0
 10
222.2211042434547
 20
166.0036093369241
 30
0.0
  0
SPLINE
  5
15A
330
1F
100
AcDbEntity
  8
1
100
AcDbSpline
210
0.0
220
0.0
230
1.0
 70
    24
 71
     1
 72
     4
 73
     2
 74
     0
 42
0.000000001
 43
0.0000000001
 40
0.0
 40
0.0
 40
1.0
 40
1.0
 10
222.2057052384017
 20
166.0211617617665
 30
0.0
 10
222.2211042434547
 20
166.003609336924
 30
0.0
  0
SPLINE
  5
15B
330
1F
100
AcDbEntity
  8
1
100
AcDbSpline
210
0.0
220
0.0
230
1.0
 70
    24
 71
     1
 72
     4
 73
     2
 74
     0
 42
0.000000001
 43
0.0000000001
 40
0.0
 40
0.0
 40
1.0
 40
1.0
 10
221.5419085401792
 20
171.9337615768541
 30
0.0
 10
221.6052578009883
 20
171.8124830984116
 30
0.0
  0
SPLINE
  5
15C
330
1F
100
AcDbEntity
  8
1
100
AcDbSpline
210
0.0
220
0.0
230
1.0
 70
     8
 71
     3
 72
    10
 73
     6
 74
     0
 42
0.000000001
 43
0.0000000001
 40
0.0
 40
0.0
 40
0.0
 40
0.0
 40
0.3058660918857228
 40
0.6391993887477701
 40
1.0
 40
1.0
 40
1.0
 40
1.0
 10
210.9994489048222
 20
170.9038390908114
 30
0.0
 10
211.7763294379603
 20
170.9167789669543
 30
0.0
 10
213.3998554680947
 20
170.9438207383059
 30
0.0
 10
215.9400565147204
 20
170.9736839505466
 30
0.0
 10
217.7034303895167
 20
170.9849977038023
 30
0.0
 10
218.6200062323842
 20
170.9908784265887
 30
0.0
  0
SPLINE
  5
15D
330
1F
100
AcDbEntity
  8
1
100
AcDbSpline
210
0.0
220
0.0
230
1.0
 70
     8
 71
     3
 72
    21
 73
    17
 74
     0
 42
0.000000001
 43
0.0000000001
 40
0.0
 40
0.0
 40
0.0
 40
0.0
 40
0.0536472337720434
 40
0.1050441663387664
 40
0.1546729009524715
 40
0.2030684126140384
 40
0.2508071538755899
 40
0.3135661356933062
 40
0.3765358807510699
 40
0.501614656356928
 40
0.6266685261394934
 40
0.6881456016507429
 40
0.7514018548453098
 40
0.8320323900493258
 40
0.914450095152506
 40
1.0
 40
1.0
 40
1.0
 40
1.0
 10
210.1999242447293
 20
170.5055800762371
 30
0.0
 10
210.1713035404744
 20
170.5160004415973
 30
0.0
 10
210.1152626636742
 20
170.5364040768873
 30
0.0
 10
210.0441444763928
 20
170.5679740280847
 30
0.0
 10
209.9853323389221
 20
170.5992090859763
 30
0.0
 10
209.9396802844687
 20
170.6301364872311
 30
0.0
 10
209.9030991290884
 20
170.6637632086455
 30
0.0
 10
209.883275438662
 20
170.6999105709298
 30
0.0
 10
209.8924804181092
 20
170.7493515183708
 30
0.0
 10
209.9732922518276
 20
170.8031941629509
 30
0.0
 10
210.1355861024274
 20
170.8409469171646
 30
0.0
 10
210.2925124150959
 20
170.863407435615
 30
0.0
 10
210.4343285672416
 20
170.8780484236773
 30
0.0
 10
210.6018643556719
 20
170.8900808030379
 30
0.0
 10
210.7952974546816
 20
170.8992404548217
 30
0.0
 10
210.9305576601762
 20
170.9022872734876
 30
0.0
 10
210.9994489048223
 20
170.9038390908114
 30
0.0
  0
SPLINE
  5
15E
330
1F
100
AcDbEntity
  8
1
100
AcDbSpline
210
0.0
220
0.0
230
1.0
 70
     8
 71
     3
 72
    18
 73
    14
 74
     0
 42
0.000000001
 43
0.0000000001
 40
0.0
 40
0.0
 40
0.0
 40
0.0
 40
0.1042089933944881
 40
0.2057481279842307
 40
0.3046201539717979
 40
0.4008280507851984
 40
0.4943750529089099
 40
0.5852646794130763
 40
0.6735007678258583
 40
0.7590875131267488
 40
0.8420295128034883
 40
0.9223318191200966
 40
1.0
 40
1.0
 40
1.0
 40
1.0
 10
213.2891783743952
 20
169.0442999870399
 30
0.0
 10
213.1786944562229
 20
169.1076024802183
 30
0.0
 10
212.9605572437247
 20
169.2325856418816
 30
0.0
 10
212.6395559812653
 20
169.4083263965999
 30
0.0
 10
212.3285040618189
 20
169.5727125261305
 30
0.0
 10
212.0275309987201
 20
169.7254614770051
 30
0.0
 10
211.7366036305152
 20
169.8671095548097
 30
0.0
 10
211.4557289315409
 20
169.9980056683128
 30
0.0
 10
211.1849095872651
 20
170.1185483185632
 30
0.0
 10
210.9241277456806
 20
170.2291884079335
 30
0.0
 10
210.6734477767935
 20
170.3301879325019
 30
0.0
 10
210.4326389573773
 20
170.4225255583776
 30
0.0
 10
210.2766286691046
 20
170.4782047164599
 30
0.0
 10
210.1999242447293
 20
170.5055800762371
 30
0.0
  0
SPLINE
  5
15F
330
1F
100
AcDbEntity
  8
1
100
AcDbSpline
210
0.0
220
0.0
230
1.0
 70
     8
 71
     3
 72
    14
 73
    10
 74
     0
 42
0.000000001
 43
0.0000000001
 40
0.0
 40
0.0
 40
0.0
 40
0.0
 40
0.1420867899297563
 40
0.2842641374582975
 40
0.426632304925726
 40
0.5692911509165799
 40
0.7123399237973504
 40
0.8558770615725068
 40
1.0
 40
1.0
 40
1.0
 40
1.0
 10
215.3489998556215
 20
167.9472189114984
 30
0.0
 10
215.2450746057344
 20
167.9974360510452
 30
0.0
 10
215.0371578702385
 20
168.0979023355321
 30
0.0
 10
214.7322093275346
 20
168.2521294609226
 30
0.0
 10
214.432329058457
 20
168.4083425739734
 30
0.0
 10
214.1379690849374
 20
168.5663258229736
 30
0.0
 10
213.8491586257445
 20
168.7254213180432
 30
0.0
 10
213.5653269558737
 20
168.8851990481143
 30
0.0
 10
213.3813527852839
 20
168.9911943899053
 30
0.0
 10
213.2891783743952
 20
169.0442999870399
 30
0.0
  0
SPLINE
  5
160
330
1F
100
AcDbEntity
  8
1
100
AcDbSpline
210
0.0
220
0.0
230
1.0
 70
     8
 71
     3
 72
    17
 73
    13
 74
     0
 42
0.000000001
 43
0.0000000001
 40
0.0
 40
0.0
 40
0.0
 40
0.0
 40
0.1019342883954787
 40
0.2032324590907195
 40
0.3039699871231937
 40
0.4042236129381316
 40
0.5040711918661853
 40
0.6035915312906858
 40
0.7028642169804293
 40
0.8019694303418763
 40
0.9009877585861667
 40
1.0
 40
1.0
 40
1.0
 40
1.0
 10
218.6200062323815
 20
166.3125851825315
 30
0.0
 10
218.5004138690155
 20
166.3594289699556
 30
0.0
 10
218.2619754546419
 20
166.452824217631
 30
0.0
 10
217.9110849213715
 20
166.6009624688655
 30
0.0
 10
217.5667160204721
 20
166.7540341864716
 30
0.0
 10
217.2292560012463
 20
166.9123353977284
 30
0.0
 10
216.8985997260993
 20
167.0753456202693
 30
0.0
 10
216.5747876639386
 20
167.2427274275364
 30
0.0
 10
216.257766969685
 20
167.4140410847821
 30
0.0
 10
215.9477125774809
 20
167.5888842995129
 30
0.0
 10
215.6439827388085
 20
167.7666088187345
 30
0.0
 10
215.4473567987241
 20
167.8870441451516
 30
0.0
 10
215.3490468505102
 20
167.9472599574605
 30
0.0
  0
SPLINE
  5
161
330
1F
100
AcDbEntity
  8
1
100
AcDbSpline
210
0.0
220
0.0
230
1.0
 70
     8
 71
     2
 72
     6
 73
     3
 74
     0
 42
0.000000001
 43
0.0000000001
 40
0.0
 40
0.0
 40
0.0
 40
1.0
 40
1.0
 40
1.0
 10
221.9183891325999
 20
171.6912771445754
 30
0.0
 10
221.8215185649787
 20
171.8382083354676
 30
0.0
 10
221.7245551385505
 20
171.8061115948463
 30
0.0
  0
SPLINE
  5
162
330
1F
100
AcDbEntity
  8
1
100
AcDbSpline
210
0.0
220
0.0
230
1.0
 70
     8
 71
     2
 72
     7
 73
     4
 74
     0
 42
0.000000001
 43
0.0000000001
 40
0.0
 40
0.0
 40
0.0
 40
0.4727300908793743
 40
1.0
 40
1.0
 40
1.0
 10
211.6286102180314
 20
169.917055112715
 30
0.0
 10
211.7041560438708
 20
169.8826552546241
 30
0.0
 10
211.8653475118811
 20
169.8075092166407
 30
0.0
 10
211.9508250900659
 20
169.7666405301944
 30
0.0
  0
SPLINE
  5
163
330
1F
100
AcDbEntity
  8
1
100
AcDbSpline
210
0.0
220
0.0
230
1.0
 70
     8
 71
     2
 72
     6
 73
     3
 74
     0
 42
0.000000001
 43
0.0000000001
 40
0.0
 40
0.0
 40
0.0
 40
1.0
 40
1.0
 40
1.0
 10
212.4357033219122
 20
169.5267884520996
 30
0.0
 10
212.901151301197
 20
169.2889739924694
 30
0.0
 10
213.3811017845097
 20
169.0151422447579
 30
0.0
  0
SPLINE
  5
164
330
1F
100
AcDbEntity
  8
1
100
AcDbSpline
210
0.0
220
0.0
230
1.0
 70
    24
 71
     1
 72
     4
 73
     2
 74
     0
 42
0.000000001
 43
0.0000000001
 40
0.0
 40
0.0
 40
1.0
 40
1.0
 10
221.5419066479179
 20
171.9337687895996
 30
0.0
 10
221.724555717307
 20
171.8061117864241
 30
0.0
  0
SPLINE
  5
165
330
1F
100
AcDbEntity
  8
1
100
AcDbSpline
210
0.0
220
0.0
230
1.0
 70
    24
 71
     1
 72
     4
 73
     2
 74
     0
 42
0.000000001
 43
0.0000000001
 40
0.0
 40
0.0
 40
1.0
 40
1.0
 10
221.6052668760658
 20
167.2369460688376
 30
0.0
 10
221.7245552021996
 20
167.2128940846167
 30
0.0
  0
SPLINE
  5
166
330
1F
100
AcDbEntity
  8
1
100
AcDbSpline
210
0.0
220
0.0
230
1.0
 70
     8
 71
     3
 72
    15
 73
    11
 74
     0
 42
0.000000001
 43
0.0000000001
 40
0.0
 40
0.0
 40
0.0
 40
0.0
 40
0.1172705163690339
 40
0.2366707299491044
 40
0.3582426553437981
 40
0.4820260947730017
 40
0.6080587541824142
 40
0.7363763556880937
 40
0.8670127459248877
 40
1.0
 40
1.0
 40
1.0
 40
1.0
 10
213.3811017845097
 20
169.0151422447579
 30
0.0
 10
213.4579709774267
 20
168.9717561063269
 30
0.0
 10
213.6131053501708
 20
168.8841959132785
 30
0.0
 10
213.8539516974756
 20
168.7507905381292
 30
0.0
 10
214.1036436016975
 20
168.6149335327726
 30
0.0
 10
214.3628713158712
 20
168.4769732073678
 30
0.0
 10
214.6317107851439
 20
168.3373872110827
 30
0.0
 10
214.9105223989863
 20
168.1967291121879
 30
0.0
 10
215.1990625276151
 20
168.0552599437949
 30
0.0
 10
215.3973529357083
 20
167.9622704095304
 30
0.0
 10
215.4973822671082
 20
167.915361025314
 30
0.0
  0
SPLINE
  5
167
330
1F
100
AcDbEntity
  8
1
100
AcDbSpline
210
0.0
220
0.0
230
1.0
 70
     8
 71
     3
 72
    12
 73
     8
 74
     0
 42
0.000000001
 43
0.0000000001
 40
0.0
 40
0.0
 40
0.0
 40
0.0
 40
0.198571868118316
 40
0.3971202568425211
 40
0.596387479255316
 40
0.7971078735255468
 40
1.0
 40
1.0
 40
1.0
 40
1.0
 10
218.6707193043459
 20
166.369529744584
 30
0.0
 10
218.7202819091706
 20
166.3510100243862
 30
0.0
 10
218.8194012584735
 20
166.3139727737862
 30
0.0
 10
218.9663680100932
 20
166.2622952712258
 30
0.0
 10
219.111632087054
 20
166.2135341940953
 30
0.0
 10
219.2553848589189
 20
166.1675797585832
 30
0.0
 10
219.3487398571421
 20
166.1396451684921
 30
0.0
 10
219.3956685155286
 20
166.1256027191268
 30
0.0
  0
SPLINE
  5
168
330
1F
100
AcDbEntity
  8
1
100
AcDbSpline
210
0.0
220
0.0
230
1.0
 70
     8
 71
     3
 72
    15
 73
    11
 74
     0
 42
0.000000001
 43
0.0000000001
 40
0.0
 40
0.0
 40
0.0
 40
0.0
 40
0.0968996324924523
 40
0.1951525293957319
 40
0.294812390399644
 40
0.3959306731833722
 40
0.4985566411466981
 40
0.6595882200697359
 40
0.8266891458078998
 40
1.0
 40
1.0
 40
1.0
 40
1.0
 10
215.6620901221565
 20
167.8245219426334
 30
0.0
 10
215.7516337314601
 20
167.7720440117216
 30
0.0
 10
215.9319714829802
 20
167.6663552625336
 30
0.0
 10
216.211301174084
 20
167.5097084054383
 30
0.0
 10
216.4995351106085
 20
167.3536464391857
 30
0.0
 10
216.7973341836936
 20
167.1988367729363
 30
0.0
 10
217.1613813823168
 20
167.0173911471442
 30
0.0
 10
217.6003202637161
 20
166.8113027339044
 30
0.0
 10
218.1221860008257
 20
166.5832804610866
 30
0.0
 10
218.4856811398773
 20
166.4416243092806
 30
0.0
 10
218.6707442215856
 20
166.3695041591609
 30
0.0
  0
SPLINE
  5
169
330
1F
100
AcDbEntity
  8
1
100
AcDbSpline
210
0.0
220
0.0
230
1.0
 70
     8
 71
     3
 72
     9
 73
     5
 74
     0
 42
0.000000001
 43
0.0000000001
 40
0.0
 40
0.0
 40
0.0
 40
0.0
 40
0.5339977476321179
 40
1.0
 40
1.0
 40
1.0
 40
1.0
 10
215.4974053495943
 20
167.9153519381274
 30
0.0
 10
215.5264739083819
 20
167.8992368004303
 30
0.0
 10
215.5809096413349
 20
167.8690585126594
 30
0.0
 10
215.636325063016
 20
167.8386430497694
 30
0.0
 10
215.6621487743353
 20
167.8244693755557
 30
0.0
  0
SPLINE
  5
16A
330
1F
100
AcDbEntity
  8
1
100
AcDbSpline
210
0.0
220
0.0
230
1.0
 70
     8
 71
     3
 72
    10
 73
     6
 74
     0
 42
0.000000001
 43
0.0000000001
 40
0.0
 40
0.0
 40
0.0
 40
0.0
 40
0.3344949565177095
 40
0.6672970653527596
 40
1.0
 40
1.0
 40
1.0
 40
1.0
 10
224.8016071618268
 20
165.3546738253644
 30
0.0
 10
224.8393891521815
 20
165.3549459581743
 30
0.0
 10
224.9147619217721
 20
165.3554888465555
 30
0.0
 10
225.0308749558541
 20
165.3566517774678
 30
0.0
 10
225.1095257407771
 20
165.3577318922533
 30
0.0
 10
225.1488452729316
 20
165.3582718691661
 30
0.0
  0
SPLINE
  5
16B
330
1F
100
AcDbEntity
  8
1
100
AcDbSpline
210
0.0
220
0.0
230
1.0
 70
     8
 71
     3
 72
    18
 73
    14
 74
     0
 42
0.000000001
 43
0.0000000001
 40
0.0
 40
0.0
 40
0.0
 40
0.0
 40
0.0679910714417657
 40
0.1371218040945275
 40
0.2073995566535804
 40
0.2788313330442876
 40
0.3514238028777121
 40
0.4251833206163387
 40
0.5001159435297451
 40
0.6158082412328877
 40
0.7376765404090189
 40
0.8657360889787424
 40
1.0
 40
1.0
 40
1.0
 40
1.0
 10
219.3956685155286
 20
166.1256027191268
 30
0.0
 10
219.5108731311536
 20
166.0923057990898
 30
0.0
 10
219.743213413481
 20
166.0251538385536
 30
0.0
 10
220.0999473484368
 20
165.9311751727764
 30
0.0
 10
220.4663266367714
 20
165.841729502133
 30
0.0
 10
220.8427374471206
 20
165.7579149698252
 30
0.0
 10
221.2290311153516
 20
165.6801690663619
 30
0.0
 10
221.6251797159003
 20
165.609121604122
 30
0.0
 10
222.1025489270245
 20
165.5341745371925
 30
0.0
 10
222.6724671073477
 20
165.4608881304518
 30
0.0
 10
223.3461060184397
 20
165.399031735423
 30
0.0
 10
224.0596398857648
 20
165.3585732724024
 30
0.0
 10
224.55041553114
 20
165.3559939758506
 30
0.0
 10
224.8016071618268
 20
165.3546738253644
 30
0.0
  0
SPLINE
  5
16C
330
1F
100
AcDbEntity
  8
1
100
AcDbSpline
210
0.0
220
0.0
230
1.0
 70
    24
 71
     1
 72
     4
 73
     2
 74
     0
 42
0.000000001
 43
0.0000000001
 40
0.0
 40
0.0
 40
1.0
 40
1.0
 10
211.0160754819225
 20
170.7756857976104
 30
0.0
 10
210.9994489048223
 20
170.9038390908114
 30
0.0
  0
SPLINE
  5
16D
330
1F
100
AcDbEntity
  8
1
100
AcDbSpline
210
0.0
220
0.0
230
1.0
 70
     8
 71
     3
 72
    18
 73
    14
 74
     0
 42
0.000000001
 43
0.0000000001
 40
0.0
 40
0.0
 40
0.0
 40
0.0
 40
0.0696372009810039
 40
0.1345506998396743
 40
0.1947721709057738
 40
0.2503413677665139
 40
0.3013089881966202
 40
0.4585760489416337
 40
0.5945941551760742
 40
0.7376316116322242
 40
0.8812009674400883
 40
0.9703856183206401
 40
1.0
 40
1.0
 40
1.0
 40
1.0
 10
211.0160754819225
 20
170.7756857976104
 30
0.0
 10
210.973404289503
 20
170.7774736500664
 30
0.0
 10
210.8909564208039
 20
170.7809280795348
 30
0.0
 10
210.7734923753266
 20
170.7840028171736
 30
0.0
 10
210.6665212363346
 20
170.7856560671188
 30
0.0
 10
210.5701860019026
 20
170.7858960883929
 30
0.0
 10
210.4224076380831
 20
170.783989655659
 30
0.0
 10
210.2433081009811
 20
170.7733636110453
 30
0.0
 10
210.0667911526551
 20
170.7434135570929
 30
0.0
 10
209.9787877026253
 20
170.6895187435326
 30
0.0
 10
209.996279921451
 20
170.6266240413333
 30
0.0
 10
210.05368494223
 20
170.578256873467
 30
0.0
 10
210.0868331114382
 20
170.5564093751015
 30
0.0
 10
210.0955331239687
 20
170.55097416888
 30
0.0
  0
SPLINE
  5
16E
330
1F
100
AcDbEntity
  8
1
100
AcDbSpline
210
0.0
220
0.0
230
1.0
 70
     8
 71
     3
 72
     8
 73
     4
 74
     0
 42
0.000000001
 43
0.0000000001
 40
0.0
 40
0.0
 40
0.0
 40
0.0
 40
1.0
 40
1.0
 40
1.0
 40
1.0
 10
226.7843100474013
 20
165.2772473714598
 30
0.0
 10
226.3351947012061
 20
165.2744167968953
 30
0.0
 10
225.8860793550109
 20
165.2715858536868
 30
0.0
 10
225.4369640088158
 20
165.2687545426631
 30
0.0
  0
SPLINE
  5
16F
330
1F
100
AcDbEntity
  8
1
100
AcDbSpline
210
0.0
220
0.0
230
1.0
 70
     8
 71
     3
 72
    12
 73
     8
 74
     0
 42
0.000000001
 43
0.0000000001
 40
0.0
 40
0.0
 40
0.0
 40
0.0
 40
0.2499999999999987
 40
0.2499999999999987
 40
0.4999999999999975
 40
0.4999999999999975
 40
1.0
 40
1.0
 40
1.0
 40
1.0
 10
225.4369640088172
 20
156.7279384987678
 30
0.0
 10
225.5744694477507
 20
156.705134511486
 30
0.0
 10
225.7065142927586
 20
156.6689322836352
 30
0.0
 10
225.9607264144206
 20
156.5726410320543
 30
0.0
 10
226.0840968928755
 20
156.5116474654249
 30
0.0
 10
226.4273288094978
 20
156.3008864399742
 30
0.0
 10
226.6245036521111
 20
156.1219089053759
 30
0.0
 10
226.7843100474003
 20
155.9208130957314
 30
0.0
  0
SPLINE
  5
170
330
1F
100
AcDbEntity
  8
1
100
AcDbSpline
210
0.0
220
0.0
230
1.0
 70
     8
 71
     3
 72
     8
 73
     4
 74
     0
 42
0.000000001
 43
0.0000000001
 40
0.0
 40
0.0
 40
0.0
 40
0.0
 40
1.0
 40
1.0
 40
1.0
 40
1.0
 10
227.4449411616147
 20
153.2819045948635
 30
0.0
 10
227.2310806292718
 20
153.2011693863674
 30
0.0
 10
227.0110493516854
 20
153.1466957743685
 30
0.0
 10
226.7843100474007
 20
153.1207703333748
 30
0.0
  0
SPLINE
  5
171
330
1F
100
AcDbEntity
  8
1
100
AcDbSpline
210
0.0
220
0.0
230
1.0
 70
     8
 71
     3
 72
     9
 73
     5
 74
     0
 42
0.000000001
 43
0.0000000001
 40
0.0
 40
0.0
 40
0.0
 40
0.0
 40
0.4180717507523342
 40
1.0
 40
1.0
 40
1.0
 40
1.0
 10
215.6620623927766
 20
167.8244800967454
 30
0.0
 10
215.6183327901009
 20
167.8413282500824
 30
0.0
 10
215.513734470322
 20
167.8816279194732
 30
0.0
 10
215.4096449643377
 20
167.9231353061784
 30
0.0
 10
215.3490723403553
 20
167.9472896270545
 30
0.0
  0
SPLINE
  5
172
330
1F
100
AcDbEntity
  8
1
100
AcDbSpline
210
0.0
220
0.0
230
1.0
 70
     8
 71
     2
 72
     6
 73
     3
 74
     0
 42
0.000000001
 43
0.0000000001
 40
0.0
 40
0.0
 40
0.0
 40
1.0
 40
1.0
 40
1.0
 10
225.1488452729316
 20
165.3582718691661
 30
0.0
 10
225.2916019741224
 20
165.3603540995369
 30
0.0
 10
225.4360991418344
 20
165.3612551035113
 30
0.0
  0
SPLINE
  5
173
330
1F
100
AcDbEntity
  8
1
100
AcDbSpline
210
0.0
220
0.0
230
1.0
 70
    24
 71
     1
 72
     4
 73
     2
 74
     0
 42
0.000000001
 43
0.0000000001
 40
0.0
 40
0.0
 40
1.0
 40
1.0
 10
225.436099141833
 20
165.3612551035113
 30
0.0
 10
226.7834451804185
 20
165.369648973442
 30
0.0
  0
SPLINE
  5
174
330
1F
100
AcDbEntity
  8
1
100
AcDbSpline
210
0.0
220
0.0
230
1.0
 70
     8
 71
     2
 72
     6
 73
     3
 74
     0
 42
0.000000001
 43
0.0000000001
 40
0.0
 40
0.0
 40
0.0
 40
1.0
 40
1.0
 40
1.0
 10
218.6366328094844
 20
170.8614734712881
 30
0.0
 10
214.7985866836123
 20
170.8423132368694
 30
0.0
 10
211.0160754819224
 20
170.7756857976104
 30
0.0
  0
SPLINE
  5
175
330
1F
100
AcDbEntity
  8
1
100
AcDbSpline
210
0.0
220
0.0
230
1.0
 70
     8
 71
     2
 72
     6
 73
     3
 74
     0
 42
0.000000001
 43
0.0000000001
 40
0.0
 40
0.0
 40
0.0
 40
1.0
 40
1.0
 40
1.0
 10
219.3673978286382
 20
170.9938077996028
 30
0.0
 10
219.0131862300532
 20
170.8637799583757
 30
0.0
 10
218.6366328094844
 20
170.8614734712881
 30
0.0
  0
SPLINE
  5
176
330
1F
100
AcDbEntity
  8
1
100
AcDbSpline
210
0.0
220
0.0
230
1.0
 70
     8
 71
     2
 72
     6
 73
     3
 74
     0
 42
0.000000001
 43
0.0000000001
 40
0.0
 40
0.0
 40
0.0
 40
1.0
 40
1.0
 40
1.0
 10
221.6052575535962
 20
171.8124830084878
 30
0.0
 10
220.4394588583362
 20
171.3887184381101
 30
0.0
 10
219.3673978286382
 20
170.9938077996028
 30
0.0
  0
SPLINE
  5
177
330
1F
100
AcDbEntity
  8
1
100
AcDbSpline
210
0.0
220
0.0
230
1.0
 70
     8
 71
     2
 72
    10
 73
     7
 74
     0
 42
0.000000001
 43
0.0000000001
 40
0.0
 40
0.0
 40
0.0
 40
0.25
 40
0.5
 40
0.75
 40
0.75
 40
1.0
 40
1.0
 40
1.0
 10
222.1530042658218
 20
165.9030637739147
 30
0.0
 10
221.9408069119567
 20
165.9515384911926
 30
0.0
 10
221.6118724852
 20
166.2285576417033
 30
0.0
 10
221.4491230396796
 20
166.6242226974384
 30
0.0
 10
221.4686842412174
 20
166.8397174246191
 30
0.0
 10
221.4880430391629
 20
167.0529823855539
 30
0.0
 10
221.6052790594082
 20
167.2369818424474
 30
0.0
  0
SPLINE
  5
178
330
1F
100
AcDbEntity
  8
1
100
AcDbSpline
210
0.0
220
0.0
230
1.0
 70
     8
 71
     3
 72
     9
 73
     5
 74
     0
 42
0.000000001
 43
0.0000000001
 40
0.0
 40
0.0
 40
0.0
 40
0.0
 40
0.4876225366968126
 40
1.0
 40
1.0
 40
1.0
 40
1.0
 10
221.7501023312465
 20
151.2038691684045
 30
0.0
 10
221.7644157322956
 20
151.2121259650275
 30
0.0
 10
221.7937691767569
 20
151.2290587275673
 30
0.0
 10
221.8272202726548
 20
151.2495964201607
 30
0.0
 10
221.8443598603157
 20
151.2601194709938
 30
0.0
  0
SPLINE
  5
179
330
1F
100
AcDbEntity
  8
1
100
AcDbSpline
210
0.0
220
0.0
230
1.0
 70
     8
 71
     3
 72
     8
 73
     4
 74
     0
 42
0.000000001
 43
0.0000000001
 40
0.0
 40
0.0
 40
0.0
 40
0.0
 40
1.0
 40
1.0
 40
1.0
 40
1.0
 10
221.5419084966831
 20
151.0636202530679
 30
0.0
 10
221.6113073777425
 20
151.0406992516569
 30
0.0
 10
221.6807062588016
 20
151.0874282197439
 30
0.0
 10
221.7501051398609
 20
151.2038759819191
 30
0.0
  0
SPLINE
  5
17A
330
1F
100
AcDbEntity
  8
1
100
AcDbSpline
210
0.0
220
0.0
230
1.0
 70
    24
 71
     1
 72
     4
 73
     2
 74
     0
 42
0.000000001
 43
0.0000000001
 40
0.0
 40
0.0
 40
1.0
 40
1.0
 10
221.8443598603157
 20
151.2601194709938
 30
0.0
 10
221.9183886444428
 20
151.3061046233344
 30
0.0
  0
SPLINE
  5
17B
330
1F
100
AcDbEntity
  8
1
100
AcDbSpline
210
0.0
220
0.0
230
1.0
 70
     8
 71
     3
 72
     8
 73
     4
 74
     0
 42
0.000000001
 43
0.0000000001
 40
0.0
 40
0.0
 40
0.0
 40
0.0
 40
1.0
 40
1.0
 40
1.0
 40
1.0
 10
221.2976746167773
 20
151.1524550673679
 30
0.0
 10
221.3790816381044
 20
151.1228322710073
 30
0.0
 10
221.4604950315044
 20
151.093226276061
 30
0.0
 10
221.5419084249042
 20
151.0636202811148
 30
0.0
  0
SPLINE
  5
17C
330
1F
100
AcDbEntity
  8
1
100
AcDbSpline
210
0.0
220
0.0
230
1.0
 70
    24
 71
     1
 72
     4
 73
     2
 74
     0
 42
0.000000001
 43
0.0000000001
 40
0.0
 40
0.0
 40
1.0
 40
1.0
 10
221.7245552021996
 20
167.2128940846168
 30
0.0
 10
221.7259522562535
 20
167.1895417519994
 30
0.0
  0
SPLINE
  5
17D
330
1F
100
AcDbEntity
  8
1
100
AcDbSpline
210
0.0
220
0.0
230
1.0
 70
     8
 71
     3
 72
    10
 73
     6
 74
     0
 42
0.000000001
 43
0.0000000001
 40
0.0
 40
0.0
 40
0.0
 40
0.0
 40
0.5
 40
0.5
 40
1.0
 40
1.0
 40
1.0
 40
1.0
 10
221.7723371458355
 20
166.8996511190815
 30
0.0
 10
221.7766856537413
 20
166.946959272774
 30
0.0
 10
221.7850583756882
 20
166.9929913673498
 30
0.0
 10
221.8092102843194
 20
167.0813807720618
 30
0.0
 10
221.8251968961806
 20
167.1242299644046
 30
0.0
 10
221.8443598603157
 20
167.1642328293731
 30
0.0
  0
SPLINE
  5
17E
330
1F
100
AcDbEntity
  8
1
100
AcDbSpline
210
0.0
220
0.0
230
1.0
 70
     8
 71
     3
 72
    16
 73
    12
 74
     0
 42
0.000000001
 43
0.0000000001
 40
0.0
 40
0.0
 40
0.0
 40
0.0
 40
0.2500000000000014
 40
0.2500000000000014
 40
0.3750000000000022
 40
0.3750000000000022
 40
0.5000000000000029
 40
0.5000000000000029
 40
0.7500000000000015
 40
0.7500000000000015
 40
1.0
 40
1.0
 40
1.0
 40
1.0
 10
222.6931756779632
 20
151.1385527275365
 30
0.0
 10
222.5529137264426
 20
151.212913816116
 30
0.0
 10
222.3875292086601
 20
151.2838466148542
 30
0.0
 10
222.1469438264811
 20
151.3609703957591
 30
0.0
 10
222.0662542039921
 20
151.3823668890555
 30
0.0
 10
221.9191909249648
 20
151.4121306421499
 30
0.0
 10
221.8506390586914
 20
151.4209461711773
 30
0.0
 10
221.6803023605483
 20
151.4271943880568
 30
0.0
 10
221.6125296132262
 20
151.4040555332898
 30
0.0
 10
221.600342017255
 20
151.3234172414302
 30
0.0
 10
221.6540189213532
 20
151.2660682461573
 30
0.0
 10
221.7501037626832
 20
151.20387620395
 30
0.0
  0
SPLINE
  5
17F
330
1F
100
AcDbEntity
  8
1
100
AcDbSpline
210
0.0
220
0.0
230
1.0
 70
     8
 71
     3
 72
     8
 73
     4
 74
     0
 42
0.000000001
 43
0.0000000001
 40
0.0
 40
0.0
 40
0.0
 40
0.0
 40
1.0
 40
1.0
 40
1.0
 40
1.0
 10
221.8024086126151
 20
166.6171621986129
 30
0.0
 10
221.7741301080409
 20
166.7072736272906
 30
0.0
 10
221.7634798853391
 20
166.8032914826368
 30
0.0
 10
221.772337145836
 20
166.8996511190815
 30
0.0
  0
SPLINE
  5
180
330
1F
100
AcDbEntity
  8
1
100
AcDbSpline
210
0.0
220
0.0
230
1.0
 70
     8
 71
     3
 72
     8
 73
     4
 74
     0
 42
0.000000001
 43
0.0000000001
 40
0.0
 40
0.0
 40
0.0
 40
0.0
 40
1.0
 40
1.0
 40
1.0
 40
1.0
 10
230.0897922136971
 20
165.2355504965475
 30
0.0
 10
230.0980444492437
 20
165.2884280318849
 30
0.0
 10
230.1045403951378
 20
165.3411221863876
 30
0.0
 10
230.1094578988022
 20
165.3925383259269
 30
0.0
  0
SPLINE
  5
181
330
1F
100
AcDbEntity
  8
1
100
AcDbSpline
210
0.0
220
0.0
230
1.0
 70
     8
 71
     3
 72
    22
 73
    18
 74
     0
 42
0.000000001
 43
0.0000000001
 40
0.0
 40
0.0
 40
0.0
 40
0.0
 40
0.0321589480662052
 40
0.0642771073592593
 40
0.0963600416046946
 40
0.1284129567633585
 40
0.1604406512506743
 40
0.1924474717043746
 40
0.2244372748146526
 40
0.2564133956072504
 40
0.2883786224451111
 40
0.3203351788912612
 40
0.3522847124576242
 40
0.5291535995770053
 40
0.7028448514327152
 40
0.8769358870985616
 40
1.0
 40
1.0
 40
1.0
 40
1.0
 10
226.7843100474003
 20
150.3996134951682
 30
0.0
 10
226.8458525519289
 20
150.4030512846921
 30
0.0
 10
226.9688595036052
 20
150.4099225034225
 30
0.0
 10
227.152304065598
 20
150.4329985853544
 30
0.0
 10
227.334161294065
 20
150.4652565287614
 30
0.0
 10
227.5139112567785
 20
150.507456305858
 30
0.0
 10
227.6910851157121
 20
150.5591644079668
 30
0.0
 10
227.8652191099443
 20
150.6202355946545
 30
0.0
 10
228.0358677870543
 20
150.6904171904642
 30
0.0
 10
228.2026033055205
 20
150.7694590312629
 30
0.0
 10
228.3650108112055
 20
150.8570760425394
 30
0.0
 10
228.5227129318219
 20
150.9529954362438
 30
0.0
 10
228.90596561847
 20
151.2137857413877
 30
0.0
 10
229.446335740946
 20
151.7313824858013
 30
0.0
 10
229.9711705111668
 20
152.609740031808
 30
0.0
 10
230.2293686627016
 20
153.4901038475512
 30
0.0
 10
230.2734739922074
 20
154.0645839545982
 30
0.0
 10
230.2717309825153
 20
154.3019503397745
 30
0.0
  0
SPLINE
  5
182
330
1F
100
AcDbEntity
  8
1
100
AcDbSpline
210
0.0
220
0.0
230
1.0
 70
     8
 71
     3
 72
     8
 73
     4
 74
     0
 42
0.000000001
 43
0.0000000001
 40
0.0
 40
0.0
 40
0.0
 40
0.0
 40
1.0
 40
1.0
 40
1.0
 40
1.0
 10
225.4369640088172
 20
150.3449664608987
 30
0.0
 10
225.8860793550116
 20
150.3627763713318
 30
0.0
 10
226.3351947012059
 20
150.3809927131745
 30
0.0
 10
226.7843100474003
 20
150.3996134951682
 30
0.0
  0
SPLINE
  5
183
330
1F
100
AcDbEntity
  8
1
100
AcDbSpline
210
0.0
220
0.0
230
1.0
 70
     8
 71
     3
 72
    10
 73
     6
 74
     0
 42
0.000000001
 43
0.0000000001
 40
0.0
 40
0.0
 40
0.0
 40
0.0
 40
0.5
 40
0.5
 40
1.0
 40
1.0
 40
1.0
 40
1.0
 10
222.4160340067837
 20
166.0813338413174
 30
0.0
 10
222.338312293025
 20
166.0925732649177
 30
0.0
 10
222.2636787291129
 20
166.1162648807777
 30
0.0
 10
222.1186155640271
 20
166.190002051578
 30
0.0
 10
222.0489050934434
 20
166.2407025657553
 30
0.0
 10
221.9889867328454
 20
166.3003743607522
 30
0.0
  0
SPLINE
  5
184
330
1F
100
AcDbEntity
  8
1
100
AcDbSpline
210
0.0
220
0.0
230
1.0
 70
    24
 71
     3
 72
     8
 73
     4
 74
     0
 42
0.000000001
 43
0.0000000001
 40
0.0
 40
0.0
 40
0.0
 40
0.0
 40
1.0
 40
1.0
 40
1.0
 40
1.0
 10
222.6931756779629
 20
151.1385527275366
 30
0.0
 10
223.3797583593632
 20
150.907025889666
 30
0.0
 10
224.0663410407635
 20
150.6754990517953
 30
0.0
 10
224.7529237221637
 20
150.4439722139246
 30
0.0
  0
SPLINE
  5
185
330
1F
100
AcDbEntity
  8
1
100
AcDbSpline
210
0.0
220
0.0
230
1.0
 70
     8
 71
     3
 72
     8
 73
     4
 74
     0
 42
0.000000001
 43
0.0000000001
 40
0.0
 40
0.0
 40
0.0
 40
0.0
 40
1.0
 40
1.0
 40
1.0
 40
1.0
 10
221.8024086126154
 20
166.6171621986129
 30
0.0
 10
221.8363818976087
 20
166.4974949399584
 30
0.0
 10
221.9015343342869
 20
166.3874668904324
 30
0.0
 10
221.9889867328454
 20
166.3003743607522
 30
0.0
  0
SPLINE
  5
186
330
1F
100
AcDbEntity
  8
1
100
AcDbSpline
210
0.0
220
0.0
230
1.0
 70
     8
 71
     3
 72
    10
 73
     6
 74
     0
 42
0.000000001
 43
0.0000000001
 40
0.0
 40
0.0
 40
0.0
 40
0.0
 40
0.5386513471140897
 40
0.5386513471140897
 40
1.0
 40
1.0
 40
1.0
 40
1.0
 10
226.8151120079951
 20
170.1262720957066
 30
0.0
 10
226.8121168817761
 20
170.1165082356503
 30
0.0
 10
226.810789709653
 20
170.1061388158324
 30
0.0
 10
226.8116914605485
 20
170.0872784336006
 30
0.0
 10
226.8134512445988
 20
170.0785313789882
 30
0.0
 10
226.816505316893
 20
170.0703265321797
 30
0.0
  0
SPLINE
  5
187
330
1F
100
AcDbEntity
  8
1
100
AcDbSpline
210
0.0
220
0.0
230
1.0
 70
     8
 71
     3
 72
    14
 73
    10
 74
     0
 42
0.000000001
 43
0.0000000001
 40
0.0
 40
0.0
 40
0.0
 40
0.0
 40
0.2759548436939029
 40
0.2759548436939029
 40
0.5535523911871846
 40
0.5535523911871846
 40
0.842818882912906
 40
0.842818882912906
 40
1.0
 40
1.0
 40
1.0
 40
1.0
 10
226.7881469718008
 20
167.6015663451724
 30
0.0
 10
226.7954775158952
 20
167.6071855357432
 30
0.0
 10
226.8018029201545
 20
167.6141129009748
 30
0.0
 10
226.8115431042876
 20
167.6293677833335
 30
0.0
 10
226.8150760678732
 20
167.6379048818667
 30
0.0
 10
226.8191281308231
 20
167.6557407088824
 30
0.0
 10
226.8195737547454
 20
167.6652921023034
 30
0.0
 10
226.8177878456474
 20
167.6796525719059
 30
0.0
 10
226.8166760230435
 20
167.6847106673872
 30
0.0
 10
226.8151120079951
 20
167.6896299862346
 30
0.0
  0
SPLINE
  5
188
330
1F
100
AcDbEntity
  8
1
100
AcDbSpline
210
0.0
220
0.0
230
1.0
 70
     8
 71
     3
 72
    14
 73
    10
 74
     0
 42
0.000000001
 43
0.0000000001
 40
0.0
 40
0.0
 40
0.0
 40
0.0
 40
0.0247747757943813
 40
0.0247747757943813
 40
0.4545441739832649
 40
0.4545441739832649
 40
0.8712682772678078
 40
0.8712682772678078
 40
1.0
 40
1.0
 40
1.0
 40
1.0
 10
227.7282614665651
 20
169.2407583248292
 30
0.0
 10
227.7287657131172
 20
169.24109151363
 30
0.0
 10
227.7292663360263
 20
169.2414296172689
 30
0.0
 10
227.7383751398293
 20
169.247717117623
 30
0.0
 10
227.7460940513897
 20
169.2552972932695
 30
0.0
 10
227.7580613858305
 20
169.2722593246125
 30
0.0
 10
227.7625768232388
 20
169.2818346562941
 30
0.0
 10
227.766021912334
 20
169.294911322624
 30
0.0
 10
227.7666681771459
 20
169.2980878669632
 30
0.0
 10
227.7671289839475
 20
169.3012885984644
 30
0.0
  0
SPLINE
  5
189
330
1F
100
AcDbEntity
  8
1
100
AcDbSpline
210
0.0
220
0.0
230
1.0
 70
     8
 71
     3
 72
    10
 73
     6
 74
     0
 42
0.000000001
 43
0.0000000001
 40
0.0
 40
0.0
 40
0.0
 40
0.0
 40
0.4071689886848035
 40
0.4071689886848035
 40
1.0
 40
1.0
 40
1.0
 40
1.0
 10
227.6894679835573
 20
169.2245069794021
 30
0.0
 10
227.6838349262995
 20
169.222100473554
 30
0.0
 10
227.6784259481826
 20
169.2191314324963
 30
0.0
 10
227.6660652291893
 20
169.2106047952661
 30
0.0
 10
227.6593821892201
 20
169.2043739710468
 30
0.0
 10
227.6538251821366
 20
169.1973265705467
 30
0.0
  0
SPLINE
  5
18A
330
1F
100
AcDbEntity
  8
1
100
AcDbSpline
210
0.0
220
0.0
230
1.0
 70
     8
 71
     3
 72
    10
 73
     6
 74
     0
 42
0.000000001
 43
0.0000000001
 40
0.0
 40
0.0
 40
0.0
 40
0.0
 40
0.5281910294147043
 40
0.5281910294147043
 40
1.0
 40
1.0
 40
1.0
 40
1.0
 10
226.816505316893
 20
167.7435601168022
 30
0.0
 10
226.8130203004055
 20
167.7345416359611
 30
0.0
 10
226.8112249913727
 20
167.7248242562366
 30
0.0
 10
226.8111327277588
 20
167.7066193820308
 30
0.0
 10
226.8124800402131
 20
167.6979083520526
 30
0.0
 10
226.8151120079951
 20
167.6896299862346
 30
0.0
  0
SPLINE
  5
18B
330
1F
100
AcDbEntity
  8
1
100
AcDbSpline
210
0.0
220
0.0
230
1.0
 70
     8
 71
     3
 72
    10
 73
     6
 74
     0
 42
0.000000001
 43
0.0000000001
 40
0.0
 40
0.0
 40
0.0
 40
0.0
 40
0.5373397090275561
 40
0.5373397090275561
 40
1.0
 40
1.0
 40
1.0
 40
1.0
 10
225.6041880072344
 20
169.8075947437894
 30
0.0
 10
225.6107111003451
 20
169.8003574392686
 30
0.0
 10
225.6185679654112
 20
169.794266023984
 30
0.0
 10
225.6345661100465
 20
169.7860133862231
 30
0.0
 10
225.642688968657
 20
169.7833394707848
 30
0.0
 10
225.6510206952303
 20
169.7820491983656
 30
0.0
  0
SPLINE
  5
18C
330
1F
100
AcDbEntity
  8
1
100
AcDbSpline
210
0.0
220
0.0
230
1.0
 70
     8
 71
     3
 72
    14
 73
    10
 74
     0
 42
0.000000001
 43
0.0000000001
 40
0.0
 40
0.0
 40
0.0
 40
0.0
 40
0.2764527118368676
 40
0.2764527118368676
 40
0.5540765605364263
 40
0.5540765605364263
 40
0.8433732362105825
 40
0.8433732362105825
 40
1.0
 40
1.0
 40
1.0
 40
1.0
 10
227.7671289839475
 20
168.5054624109375
 30
0.0
 10
227.7657621153956
 20
168.5148226001008
 30
0.0
 10
227.7627110122679
 20
168.5240093728173
 30
0.0
 10
227.7538882182359
 20
168.5405886950981
 30
0.0
 10
227.7479921238628
 20
168.5481987910451
 30
0.0
 10
227.7339992290963
 20
168.5612186817755
 30
0.0
 10
227.7256382686821
 20
168.566699754083
 30
0.0
 10
227.7118477522989
 20
168.572809966122
 30
0.0
 10
227.7067602005467
 20
168.5745428456424
 30
0.0
 10
227.7015699006565
 20
168.5758142845362
 30
0.0
  0
SPLINE
  5
18D
330
1F
100
AcDbEntity
  8
1
100
AcDbSpline
210
0.0
220
0.0
230
1.0
 70
     8
 71
     3
 72
    10
 73
     6
 74
     0
 42
0.000000001
 43
0.0000000001
 40
0.0
 40
0.0
 40
0.0
 40
0.0
 40
0.5275641435890669
 40
0.5275641435890669
 40
1.0
 40
1.0
 40
1.0
 40
1.0
 10
227.6538251821367
 20
168.605813512145
 30
0.0
 10
227.6601589027531
 20
168.5979988224242
 30
0.0
 10
227.6679717690448
 20
168.5912661003191
 30
0.0
 10
227.6842764333766
 20
168.5814586807724
 30
0.0
 10
227.6927932995882
 20
168.5779642396813
 30
0.0
 10
227.7015699006565
 20
168.5758142845362
 30
0.0
  0
SPLINE
  5
18E
330
1F
100
AcDbEntity
  8
1
100
AcDbSpline
210
0.0
220
0.0
230
1.0
 70
     8
 71
     3
 72
    14
 73
    10
 74
     0
 42
0.000000001
 43
0.0000000001
 40
0.0
 40
0.0
 40
0.0
 40
0.0
 40
0.3040655795356315
 40
0.3040655795356315
 40
0.6107538131668998
 40
0.6107538131668998
 40
0.908132810757684
 40
0.908132810757684
 40
1.0
 40
1.0
 40
1.0
 40
1.0
 10
226.8151120079951
 20
170.1262720957066
 30
0.0
 10
226.8181102490447
 20
170.1360461098494
 30
0.0
 10
226.8194363769651
 20
170.1464276075305
 30
0.0
 10
226.818457485018
 20
170.1668110750416
 30
0.0
 10
226.8161008913531
 20
170.1771031602808
 30
0.0
 10
226.808018344945
 20
170.1956516129763
 30
0.0
 10
226.8022694074504
 20
170.2042297360639
 30
0.0
 10
226.7929800619588
 20
170.2136431977324
 30
0.0
 10
226.7906227688502
 20
170.2157687216309
 30
0.0
 10
226.7881469718008
 20
170.2177493907184
 30
0.0
  0
SPLINE
  5
18F
330
1F
100
AcDbEntity
  8
1
100
AcDbSpline
210
0.0
220
0.0
230
1.0
 70
     8
 71
     3
 72
     8
 73
     4
 74
     0
 42
0.000000001
 43
0.0000000001
 40
0.0
 40
0.0
 40
0.0
 40
0.0
 40
1.0
 40
1.0
 40
1.0
 40
1.0
 10
227.4731681448083
 20
169.8154403511812
 30
0.0
 10
227.4658106525079
 20
169.818467850657
 30
0.0
 10
227.4579467267936
 20
169.8204576436372
 30
0.0
 10
227.4500454409312
 20
169.8213538421955
 30
0.0
  0
SPLINE
  5
190
330
1F
100
AcDbEntity
  8
1
100
AcDbSpline
210
0.0
220
0.0
230
1.0
 70
     8
 71
     3
 72
    18
 73
    14
 74
     0
 42
0.000000001
 43
0.0000000001
 40
0.0
 40
0.0
 40
0.0
 40
0.0
 40
0.0583547992620836
 40
0.0583547992620836
 40
0.1211311459779447
 40
0.1211311459779447
 40
0.2466838394096667
 40
0.2466838394096667
 40
0.4977892262731112
 40
0.4977892262731112
 40
0.7488946131365556
 40
0.7488946131365556
 40
1.0
 40
1.0
 40
1.0
 40
1.0
 10
221.6927284131633
 20
168.9430851835179
 30
0.0
 10
221.6930614180121
 20
168.8737683017639
 30
0.0
 10
221.694905332728
 20
168.8034735606926
 30
0.0
 10
221.7011210111422
 20
168.6663217403577
 30
0.0
 10
221.7056621517952
 20
168.598797476951
 30
0.0
 10
221.7212217000351
 20
168.4125704799349
 30
0.0
 10
221.7343929907144
 20
168.304919130839
 30
0.0
 10
221.7757553088664
 20
168.0186151519783
 30
0.0
 10
221.806812349623
 20
167.8670792626556
 30
0.0
 10
221.8702631040449
 20
167.5966939337987
 30
0.0
 10
221.9028143787193
 20
167.4796991174341
 30
0.0
 10
221.9688964502641
 20
167.2651248392974
 30
0.0
 10
222.0024446984028
 20
167.1679744240221
 30
0.0
 10
222.0363718624387
 20
167.0775647582503
 30
0.0
  0
SPLINE
  5
191
330
1F
100
AcDbEntity
  8
1
100
AcDbSpline
210
0.0
220
0.0
230
1.0
 70
     8
 71
     3
 72
    22
 73
    18
 74
     0
 42
0.000000001
 43
0.0000000001
 40
0.0
 40
0.0
 40
0.0
 40
0.0
 40
0.2417983665471848
 40
0.2417983665471848
 40
0.4835967330943697
 40
0.4835967330943697
 40
0.6044959163679622
 40
0.6044959163679622
 40
0.7253950996415545
 40
0.7253950996415545
 40
0.8462942829151469
 40
0.8462942829151469
 40
0.9067438745519432
 40
0.9067438745519432
 40
0.9671934661887393
 40
0.9671934661887393
 40
1.0
 40
1.0
 40
1.0
 40
1.0
 10
222.0363718624387
 20
167.0775647582503
 30
0.0
 10
222.0755741551805
 20
166.989915973074
 30
0.0
 10
222.1199168465303
 20
166.8975056780725
 30
0.0
 10
222.2239195107977
 20
166.6985799247728
 30
0.0
 10
222.2831131213722
 20
166.592672570863
 30
0.0
 10
222.3916130192954
 20
166.4159656748456
 30
0.0
 10
222.4311092265115
 20
166.3540482272895
 30
0.0
 10
222.5205327300032
 20
166.2207305003662
 30
0.0
 10
222.5706219524819
 20
166.1490537649148
 30
0.0
 10
222.6865847294206
 20
165.9927761114364
 30
0.0
 10
222.7533151227071
 20
165.9068353333793
 30
0.0
 10
222.8748007912889
 20
165.7622787378596
 30
0.0
 10
222.919552573396
 20
165.7107707789406
 30
0.0
 10
223.015375814549
 20
165.6052024071491
 30
0.0
 10
223.0678451640335
 20
165.5497156200917
 30
0.0
 10
223.1485039740333
 20
165.4682844412828
 30
0.0
 10
223.1772570553912
 20
165.4399921253558
 30
0.0
 10
223.2056543565485
 20
165.4126964113616
 30
0.0
  0
SPLINE
  5
192
330
1F
100
AcDbEntity
  8
1
100
AcDbSpline
210
0.0
220
0.0
230
1.0
 70
     8
 71
     3
 72
    10
 73
     6
 74
     0
 42
0.000000001
 43
0.0000000001
 40
0.0
 40
0.0
 40
0.0
 40
0.0
 40
0.7163205516355946
 40
0.7163205516355946
 40
1.0
 40
1.0
 40
1.0
 40
1.0
 10
225.6041880072344
 20
169.8075947437894
 30
0.0
 10
225.597658160862
 20
169.8148395409843
 30
0.0
 10
225.5897906343193
 20
169.820935998784
 30
0.0
 10
225.5778007746147
 20
169.8271172597065
 30
0.0
 10
225.57424933056
 20
169.828627088371
 30
0.0
 10
225.570595746015
 20
169.829873386743
 30
0.0
  0
SPLINE
  5
193
330
1F
100
AcDbEntity
  8
1
100
AcDbSpline
210
0.0
220
0.0
230
1.0
 70
     8
 71
     3
 72
     8
 73
     4
 74
     0
 42
0.000000001
 43
0.0000000001
 40
0.0
 40
0.0
 40
0.0
 40
0.0
 40
1.0
 40
1.0
 40
1.0
 40
1.0
 10
225.6510206952303
 20
169.7820491983656
 30
0.0
 10
225.7325539499007
 20
169.769422750675
 30
0.0
 10
225.8182537239537
 20
169.7798251143963
 30
0.0
 10
225.8980044823475
 20
169.8136654343625
 30
0.0
  0
SPLINE
  5
194
330
1F
100
AcDbEntity
  8
1
100
AcDbSpline
210
0.0
220
0.0
230
1.0
 70
     8
 71
     3
 72
    10
 73
     6
 74
     0
 42
0.000000001
 43
0.0000000001
 40
0.0
 40
0.0
 40
0.0
 40
0.0
 40
0.151010055398568
 40
0.151010055398568
 40
1.0
 40
1.0
 40
1.0
 40
1.0
 10
227.0670141932834
 20
167.9994552231231
 30
0.0
 10
227.0494644279408
 20
167.9920070623042
 30
0.0
 10
227.0323327977269
 20
167.983521275573
 30
0.0
 10
226.9224260875962
 20
167.9204686968527
 30
0.0
 10
226.8529770868743
 20
167.8379412940502
 30
0.0
 10
226.816505316893
 20
167.7435601168022
 30
0.0
  0
SPLINE
  5
195
330
1F
100
AcDbEntity
  8
1
100
AcDbSpline
210
0.0
220
0.0
230
1.0
 70
     8
 71
     3
 72
    10
 73
     6
 74
     0
 42
0.000000001
 43
0.0000000001
 40
0.0
 40
0.0
 40
0.0
 40
0.0
 40
0.7352208946820573
 40
0.7352208946820573
 40
1.0
 40
1.0
 40
1.0
 40
1.0
 10
226.7881469718008
 20
170.2177493907184
 30
0.0
 10
226.7061854202795
 20
170.283319673022
 30
0.0
 10
226.6037301640346
 20
170.3198584292377
 30
0.0
 10
226.4589516709174
 20
170.3208309514536
 30
0.0
 10
226.4208371809218
 20
170.3164211287163
 30
0.0
 10
226.3837453026708
 20
170.3076598438788
 30
0.0
  0
SPLINE
  5
196
330
1F
100
AcDbEntity
  8
1
100
AcDbSpline
210
0.0
220
0.0
230
1.0
 70
     8
 71
     3
 72
    10
 73
     6
 74
     0
 42
0.000000001
 43
0.0000000001
 40
0.0
 40
0.0
 40
0.0
 40
0.0
 40
0.3894941956929079
 40
0.3894941956929079
 40
1.0
 40
1.0
 40
1.0
 40
1.0
 10
227.5739415569536
 20
168.0515590498515
 30
0.0
 10
227.6286777366162
 20
168.0913026580733
 30
0.0
 10
227.6748588739952
 20
168.1420784254509
 30
0.0
 10
227.7620816392214
 20
168.2934097783481
 30
0.0
 10
227.7823848587144
 20
168.4009915944293
 30
0.0
 10
227.7671289839475
 20
168.5054624109375
 30
0.0
  0
SPLINE
  5
197
330
1F
100
AcDbEntity
  8
1
100
AcDbSpline
210
0.0
220
0.0
230
1.0
 70
     8
 71
     3
 72
    10
 73
     6
 74
     0
 42
0.000000001
 43
0.0000000001
 40
0.0
 40
0.0
 40
0.0
 40
0.0
 40
0.5
 40
0.5
 40
1.0
 40
1.0
 40
1.0
 40
1.0
 10
226.816505316893
 20
170.0703265321797
 30
0.0
 10
226.8529623677527
 20
169.9723836910895
 30
0.0
 10
226.9220178018519
 20
169.8872024992519
 30
0.0
 10
227.108498056224
 20
169.7775334755931
 30
0.0
 10
227.2192104796723
 20
169.7572572711348
 30
0.0
 10
227.3256604257176
 20
169.7713026320755
 30
0.0
  0
SPLINE
  5
198
330
1F
100
AcDbEntity
  8
1
100
AcDbSpline
210
0.0
220
0.0
230
1.0
 70
     8
 71
     3
 72
    10
 73
     6
 74
     0
 42
0.000000001
 43
0.0000000001
 40
0.0
 40
0.0
 40
0.0
 40
0.0
 40
0.5
 40
0.5
 40
1.0
 40
1.0
 40
1.0
 40
1.0
 10
227.6538251821366
 20
169.1973265705467
 30
0.0
 10
227.5874905202284
 20
169.1132009031726
 30
0.0
 10
227.5487687109688
 20
169.0082633991109
 30
0.0
 10
227.5486383774641
 20
168.7915385075243
 30
0.0
 10
227.5874630958683
 20
168.6876925757822
 30
0.0
 10
227.6538251821367
 20
168.605813512145
 30
0.0
  0
SPLINE
  5
199
330
1F
100
AcDbEntity
  8
1
100
AcDbSpline
210
0.0
220
0.0
230
1.0
 70
     8
 71
     3
 72
    10
 73
     6
 74
     0
 42
0.000000001
 43
0.0000000001
 40
0.0
 40
0.0
 40
0.0
 40
0.0
 40
0.5
 40
0.5
 40
1.0
 40
1.0
 40
1.0
 40
1.0
 10
227.7671289839475
 20
169.3012885984644
 30
0.0
 10
227.7823844629729
 20
169.4072520784301
 30
0.0
 10
227.7621688842512
 20
169.5156852106774
 30
0.0
 10
227.6557824400463
 20
169.7018912851588
 30
0.0
 10
227.5723401498354
 20
169.7746325350153
 30
0.0
 10
227.4731681448083
 20
169.8154403511812
 30
0.0
  0
SPLINE
  5
19A
330
1F
100
AcDbEntity
  8
1
100
AcDbSpline
210
0.0
220
0.0
230
1.0
 70
     8
 71
     3
 72
     8
 73
     4
 74
     0
 42
0.000000001
 43
0.0000000001
 40
0.0
 40
0.0
 40
0.0
 40
0.0
 40
1.0
 40
1.0
 40
1.0
 40
1.0
 10
227.3256604257176
 20
169.7713026320755
 30
0.0
 10
227.3337786290941
 20
169.772373774907
 30
0.0
 10
227.3417983846874
 20
169.7745951685366
 30
0.0
 10
227.3493128741279
 20
169.7777912707199
 30
0.0
  0
LINE
  5
19B
330
1F
100
AcDbEntity
  8
4
100
AcDbLine
 10
196.618189
 20
161.498691
 30
0.0
 11
231.271904
 21
161.498691
 31
0.0
  0
LINE
  5
19C
330
1F
100
AcDbEntity
  8
80
100
AcDbLine
 10
106.118189
 20
161.498691
 30
0.0
 11
117.118189
 21
161.498691
 31
0.0
  0
LINE
  5
19D
330
1F
100
AcDbEntity
  8
80
100
AcDbLine
 10
111.618189
 20
155.998691
 30
0.0
 11
111.618189
 21
166.9986909999999
 31
0.0
  0
MTEXT
  5
19E
330
1F
100
AcDbEntity
  8
SK6
100
AcDbMText
 10
136.6144
 20
125.933467
 30
0.0
 40
3.5
 41
0.0
 71
     7
 72
     5
  1
\W0.7500;25E2R034A20-SRC10-C 
  7
cesky
 73
     2
 44
0.8433729999999998
1001
ACAD
1000
MTEXTBEGIN
1070
    73
1070
     2
1070
    44
1040
0.8433729999999998
1070
    74
1070
     0
1000
MTEXTEND
  0
LINE
  5
1A0
330
1F
100
AcDbEntity
  8
SK4
100
AcDbLine
 10
60.618189
 20
161.498691
 30
0.0
 11
198.618189
 21
161.498691
 31
0.0
  0
LINE
  5
1A2
330
1F
100
AcDbEntity
  8
2
 60
     1
100
AcDbLine
 10
231.618189
 20
180.698743
 30
0.0
 11
234.118188
 21
181.139561
 31
0.0
  0
LINE
  5
1A3
330
1F
100
AcDbEntity
  8
2
 60
     1
100
AcDbLine
 10
234.118188
 20
181.139561
 30
0.0
 11
234.118191
 21
180.257926
 31
0.0
  0
LINE
  5
1A4
330
1F
100
AcDbEntity
  8
2
 60
     1
100
AcDbLine
 10
234.118191
 20
180.257926
 30
0.0
 11
231.618189
 21
180.698743
 31
0.0
  0
LINE
  5
1A6
330
1F
100
AcDbEntity
  8
2
 60
     1
100
AcDbLine
 10
226.618189
 20
180.698743
 30
0.0
 11
224.118191
 21
180.257926
 31
0.0
  0
LINE
  5
1A7
330
1F
100
AcDbEntity
  8
2
 60
     1
100
AcDbLine
 10
224.118191
 20
180.257926
 30
0.0
 11
224.118188
 21
181.139561
 31
0.0
  0
LINE
  5
1A8
330
1F
100
AcDbEntity
  8
2
 60
     1
100
AcDbLine
 10
224.118188
 20
181.139561
 30
0.0
 11
226.618189
 21
180.698743
 31
0.0
  0
LINE
  5
1AB
330
1F
100
AcDbEntity
  8
2
 60
     1
100
AcDbLine
 10
197.618189
 20
190.345078
 30
0.0
 11
200.118188
 21
190.7858949999999
 31
0.0
  0
LINE
  5
1AC
330
1F
100
AcDbEntity
  8
2
 60
     1
100
AcDbLine
 10
200.118188
 20
190.7858949999999
 30
0.0
 11
200.118191
 21
189.90426
 31
0.0
  0
LINE
  5
1AD
330
1F
100
AcDbEntity
  8
2
 60
     1
100
AcDbLine
 10
200.118191
 20
189.90426
 30
0.0
 11
197.618189
 21
190.345078
 31
0.0
  0
LINE
  5
1AF
330
1F
100
AcDbEntity
  8
2
 60
     1
100
AcDbLine
 10
231.618189
 20
190.345078
 30
0.0
 11
229.118191
 21
189.90426
 31
0.0
  0
LINE
  5
1B0
330
1F
100
AcDbEntity
  8
2
 60
     1
100
AcDbLine
 10
229.118191
 20
189.90426
 30
0.0
 11
229.118188
 21
190.7858949999999
 31
0.0
  0
LINE
  5
1B1
330
1F
100
AcDbEntity
  8
2
 60
     1
100
AcDbLine
 10
229.118188
 20
190.7858949999999
 30
0.0
 11
231.618189
 21
190.345078
 31
0.0
  0
LINE
  5
1B4
330
1F
100
AcDbEntity
  8
SK2
 60
     1
100
AcDbLine
 10
61.618189
 20
211.641117
 30
0.0
 11
64.118188
 21
212.081934
 31
0.0
  0
LINE
  5
1B5
330
1F
100
AcDbEntity
  8
SK2
 60
     1
100
AcDbLine
 10
64.118188
 20
212.081934
 30
0.0
 11
64.11819100000001
 21
211.200299
 31
0.0
  0
LINE
  5
1B6
330
1F
100
AcDbEntity
  8
SK2
 60
     1
100
AcDbLine
 10
64.11819100000001
 20
211.200299
 30
0.0
 11
61.618189
 21
211.641117
 31
0.0
  0
LINE
  5
1B8
330
1F
100
AcDbEntity
  8
SK2
 60
     1
100
AcDbLine
 10
231.618189
 20
211.641117
 30
0.0
 11
229.118191
 21
211.200299
 31
0.0
  0
LINE
  5
1B9
330
1F
100
AcDbEntity
  8
SK2
 60
     1
100
AcDbLine
 10
229.118191
 20
211.200299
 30
0.0
 11
229.118188
 21
212.081934
 31
0.0
  0
LINE
  5
1BA
330
1F
100
AcDbEntity
  8
SK2
 60
     1
100
AcDbLine
 10
229.118188
 20
212.081934
 30
0.0
 11
231.618189
 21
211.641117
 31
0.0
  0
LINE
  5
1BE
330
1F
100
AcDbEntity
  8
2
 60
     1
100
AcDbLine
 10
246.900118
 20
173.998691
 30
0.0
 11
247.340935
 21
171.498693
 31
0.0
  0
LINE
  5
1BF
330
1F
100
AcDbEntity
  8
2
 60
     1
100
AcDbLine
 10
247.340935
 20
171.498693
 30
0.0
 11
246.4593
 21
171.498689
 31
0.0
  0
LINE
  5
1C0
330
1F
100
AcDbEntity
  8
2
 60
     1
100
AcDbLine
 10
246.4593
 20
171.498689
 30
0.0
 11
246.900118
 21
173.998691
 31
0.0
  0
LINE
  5
1C3
330
1F
100
AcDbEntity
  8
SK2
 60
     1
100
AcDbLine
 10
111.618189
 20
198.782205
 30
0.0
 11
114.118188
 21
199.223022
 31
0.0
  0
LINE
  5
1C4
330
1F
100
AcDbEntity
  8
SK2
 60
     1
100
AcDbLine
 10
114.118188
 20
199.223022
 30
0.0
 11
114.118191
 21
198.341387
 31
0.0
  0
LINE
  5
1C5
330
1F
100
AcDbEntity
  8
SK2
 60
     1
100
AcDbLine
 10
114.118191
 20
198.341387
 30
0.0
 11
111.618189
 21
198.782205
 31
0.0
  0
LINE
  5
1C7
330
1F
100
AcDbEntity
  8
SK2
 60
     1
100
AcDbLine
 10
231.618189
 20
198.782205
 30
0.0
 11
229.118191
 21
198.341387
 31
0.0
  0
LINE
  5
1C8
330
1F
100
AcDbEntity
  8
SK2
 60
     1
100
AcDbLine
 10
229.118191
 20
198.341387
 30
0.0
 11
229.118188
 21
199.223022
 31
0.0
  0
LINE
  5
1C9
330
1F
100
AcDbEntity
  8
SK2
 60
     1
100
AcDbLine
 10
229.118188
 20
199.223022
 30
0.0
 11
231.618189
 21
198.782205
 31
0.0
  0
LINE
  5
23C
330
1F
100
AcDbEntity
  8
2
100
AcDbLine
 10
246.8962101880183
 20
173.9765304849365
 30
0.0
 11
246.9028537689229
 21
173.9831740658411
 31
0.0
  0
LINE
  5
23D
330
1F
100
AcDbEntity
  8
2
100
AcDbLine
 10
246.876985809344
 20
173.8675035450514
 30
0.0
 11
246.9163148417848
 21
173.9068325774922
 31
0.0
  0
LINE
  5
23E
330
1F
100
AcDbEntity
  8
2
100
AcDbLine
 10
246.8577614306696
 20
173.7584766051664
 30
0.0
 11
246.9297759146466
 21
173.8304910891434
 31
0.0
  0
LINE
  5
23F
330
1F
100
AcDbEntity
  8
2
100
AcDbLine
 10
246.8385370519953
 20
173.6494496652814
 30
0.0
 11
246.9432369875084
 21
173.7541496007945
 31
0.0
  0
LINE
  5
240
330
1F
100
AcDbEntity
  8
2
100
AcDbLine
 10
246.8193126733209
 20
173.5404227253964
 30
0.0
 11
246.9566980603701
 21
173.6778081124455
 31
0.0
  0
LINE
  5
241
330
1F
100
AcDbEntity
  8
2
100
AcDbLine
 10
246.8000882946466
 20
173.4313957855113
 30
0.0
 11
246.970159133232
 21
173.6014666240967
 31
0.0
  0
LINE
  5
242
330
1F
100
AcDbEntity
  8
2
100
AcDbLine
 10
246.7808639159723
 20
173.3223688456263
 30
0.0
 11
246.9836202060938
 21
173.5251251357478
 31
0.0
  0
LINE
  5
243
330
1F
100
AcDbEntity
  8
2
100
AcDbLine
 10
246.761639537298
 20
173.2133419057413
 30
0.0
 11
246.9970812789555
 21
173.4487836473988
 31
0.0
  0
LINE
  5
244
330
1F
100
AcDbEntity
  8
2
100
AcDbLine
 10
246.7424151586236
 20
173.1043149658563
 30
0.0
 11
247.0105423518173
 21
173.37244215905
 31
0.0
  0
LINE
  5
245
330
1F
100
AcDbEntity
  8
2
100
AcDbLine
 10
246.7231907799493
 20
172.9952880259712
 30
0.0
 11
247.0240034246792
 21
173.2961006707011
 31
0.0
  0
LINE
  5
246
330
1F
100
AcDbEntity
  8
2
100
AcDbLine
 10
246.7039664012749
 20
172.8862610860862
 30
0.0
 11
247.0374644975409
 21
173.2197591823522
 31
0.0
  0
LINE
  5
247
330
1F
100
AcDbEntity
  8
2
100
AcDbLine
 10
246.6847420226006
 20
172.7772341462012
 30
0.0
 11
247.0509255704027
 21
173.1434176940033
 31
0.0
  0
LINE
  5
248
330
1F
100
AcDbEntity
  8
2
100
AcDbLine
 10
246.6655176439263
 20
172.6682072063162
 30
0.0
 11
247.0643866432645
 21
173.0670762056544
 31
0.0
  0
LINE
  5
249
330
1F
100
AcDbEntity
  8
2
100
AcDbLine
 10
246.646293265252
 20
172.5591802664311
 30
0.0
 11
247.0778477161263
 21
172.9907347173055
 31
0.0
  0
LINE
  5
24A
330
1F
100
AcDbEntity
  8
2
100
AcDbLine
 10
246.6270688865776
 20
172.4501533265461
 30
0.0
 11
247.0913087889881
 21
172.9143932289566
 31
0.0
  0
LINE
  5
24B
330
1F
100
AcDbEntity
  8
2
100
AcDbLine
 10
246.6078445079033
 20
172.3411263866611
 30
0.0
 11
247.1047698618499
 21
172.8380517406077
 31
0.0
  0
LINE
  5
24C
330
1F
100
AcDbEntity
  8
2
100
AcDbLine
 10
246.5886201292289
 20
172.2320994467761
 30
0.0
 11
247.1182309347117
 21
172.7617102522588
 31
0.0
  0
LINE
  5
24D
330
1F
100
AcDbEntity
  8
2
100
AcDbLine
 10
246.5693957505546
 20
172.123072506891
 30
0.0
 11
247.1316920075735
 21
172.6853687639099
 31
0.0
  0
LINE
  5
24E
330
1F
100
AcDbEntity
  8
2
100
AcDbLine
 10
246.5501713718803
 20
172.014045567006
 30
0.0
 11
247.1451530804353
 21
172.6090272755611
 31
0.0
  0
LINE
  5
24F
330
1F
100
AcDbEntity
  8
2
100
AcDbLine
 10
246.5309469932059
 20
171.905018627121
 30
0.0
 11
247.158614153297
 21
172.5326857872121
 31
0.0
  0
LINE
  5
250
330
1F
100
AcDbEntity
  8
2
100
AcDbLine
 10
246.5117226145316
 20
171.795991687236
 30
0.0
 11
247.1720752261589
 21
172.4563442988632
 31
0.0
  0
LINE
  5
251
330
1F
100
AcDbEntity
  8
2
100
AcDbLine
 10
246.4924982358573
 20
171.686964747351
 30
0.0
 11
247.1855362990207
 21
172.3800028105143
 31
0.0
  0
LINE
  5
252
330
1F
100
AcDbEntity
  8
2
100
AcDbLine
 10
246.4732738571829
 20
171.5779378074659
 30
0.0
 11
247.1989973718825
 21
172.3036613221655
 31
0.0
  0
LINE
  5
253
330
1F
100
AcDbEntity
  8
2
100
AcDbLine
 10
246.4838281691522
 20
171.4986895582245
 30
0.0
 11
247.2124584447443
 21
172.2273198338166
 31
0.0
  0
LINE
  5
254
330
1F
100
AcDbEntity
  8
2
100
AcDbLine
 10
246.5736310602273
 20
171.4986898880889
 30
0.0
 11
247.2259195176061
 21
172.1509783454677
 31
0.0
  0
LINE
  5
255
330
1F
100
AcDbEntity
  8
2
100
AcDbLine
 10
246.6634339513025
 20
171.4986902179533
 30
0.0
 11
247.2393805904679
 21
172.0746368571188
 31
0.0
  0
LINE
  5
256
330
1F
100
AcDbEntity
  8
2
100
AcDbLine
 10
246.7532368423776
 20
171.4986905478178
 30
0.0
 11
247.2528416633297
 21
171.9982953687699
 31
0.0
  0
LINE
  5
257
330
1F
100
AcDbEntity
  8
2
100
AcDbLine
 10
246.8430397334527
 20
171.4986908776822
 30
0.0
 11
247.2663027361915
 21
171.921953880421
 31
0.0
  0
LINE
  5
258
330
1F
100
AcDbEntity
  8
2
100
AcDbLine
 10
246.9328426245279
 20
171.4986912075467
 30
0.0
 11
247.2797638090532
 21
171.8456123920721
 31
0.0
  0
LINE
  5
259
330
1F
100
AcDbEntity
  8
2
100
AcDbLine
 10
247.022645515603
 20
171.4986915374111
 30
0.0
 11
247.2932248819151
 21
171.7692709037232
 31
0.0
  0
LINE
  5
25A
330
1F
100
AcDbEntity
  8
2
100
AcDbLine
 10
247.112448406678
 20
171.4986918672755
 30
0.0
 11
247.3066859547769
 21
171.6929294153743
 31
0.0
  0
LINE
  5
25B
330
1F
100
AcDbEntity
  8
2
100
AcDbLine
 10
247.2022512977532
 20
171.4986921971399
 30
0.0
 11
247.3201470276387
 21
171.6165879270254
 31
0.0
  0
LINE
  5
25C
330
1F
100
AcDbEntity
  8
2
100
AcDbLine
 10
247.2920541888283
 20
171.4986925270044
 30
0.0
 11
247.3336081005005
 21
171.5402464386766
 31
0.0
  0
TEXT
  5
25F
330
1F
100
AcDbEntity
  8
2
100
AcDbText
 10
244.4417843333333
 20
160.7339507659873
 30
0.0
 40
3.5
  1
25
 50
89.99999999999991
 41
0.75
  7
cesky
100
AcDbText
  0
TEXT
  5
260
330
1F
100
AcDbEntity
  8
2
100
AcDbText
 10
244.5323013333334
 20
153.841845417428
 30
0.0
 40
3.5
  1
\U+00D8
 50
89.99999999999991
  7
cesky
100
AcDbText
  0
LINE
  5
261
330
1F
100
AcDbEntity
  8
2
100
AcDbLine
 10
229.1181878599498
 20
190.7724942229841
 30
0.0
 11
229.1295801372716
 21
190.783886500306
 31
0.0
  0
LINE
  5
262
330
1F
100
AcDbEntity
  8
2
100
AcDbLine
 10
229.1181881898118
 20
190.6826919916355
 30
0.0
 11
229.2059216404438
 21
190.7704254422674
 31
0.0
  0
LINE
  5
263
330
1F
100
AcDbEntity
  8
2
100
AcDbLine
 10
229.1181885196738
 20
190.5928897602868
 30
0.0
 11
229.282263143616
 21
190.756964384229
 31
0.0
  0
LINE
  5
264
330
1F
100
AcDbEntity
  8
2
100
AcDbLine
 10
229.1181888495358
 20
190.5030875289381
 30
0.0
 11
229.3586046467882
 21
190.7435033261904
 31
0.0
  0
LINE
  5
265
330
1F
100
AcDbEntity
  8
2
100
AcDbLine
 10
229.1181891793979
 20
190.4132852975894
 30
0.0
 11
229.4349461499605
 21
190.730042268152
 31
0.0
  0
LINE
  5
266
330
1F
100
AcDbEntity
  8
2
100
AcDbLine
 10
229.1181895092599
 20
190.3234830662407
 30
0.0
 11
229.5112876531327
 21
190.7165812101136
 31
0.0
  0
LINE
  5
267
330
1F
100
AcDbEntity
  8
2
100
AcDbLine
 10
229.1181898391219
 20
190.2336808348921
 30
0.0
 11
229.5876291563049
 21
190.703120152075
 31
0.0
  0
LINE
  5
268
330
1F
100
AcDbEntity
  8
2
100
AcDbLine
 10
229.1181901689839
 20
190.1438786035434
 30
0.0
 11
229.6639706594771
 21
190.6896590940366
 31
0.0
  0
LINE
  5
269
330
1F
100
AcDbEntity
  8
2
100
AcDbLine
 10
229.118190498846
 20
190.0540763721947
 30
0.0
 11
229.7403121626493
 21
190.6761980359981
 31
0.0
  0
LINE
  5
26A
330
1F
100
AcDbEntity
  8
2
100
AcDbLine
 10
229.118190828708
 20
189.964274140846
 30
0.0
 11
229.8166536658215
 21
190.6627369779596
 31
0.0
  0
LINE
  5
26B
330
1F
100
AcDbEntity
  8
2
100
AcDbLine
 10
229.1543565825191
 20
189.9106373334464
 30
0.0
 11
229.8929951689937
 21
190.6492759199211
 31
0.0
  0
LINE
  5
26C
330
1F
100
AcDbEntity
  8
2
100
AcDbLine
 10
229.2633835526378
 20
189.9298617423545
 30
0.0
 11
229.9693366721659
 21
190.6358148618826
 31
0.0
  0
LINE
  5
26D
330
1F
100
AcDbEntity
  8
2
100
AcDbLine
 10
229.3724105227566
 20
189.9490861512626
 30
0.0
 11
230.0456781753382
 21
190.6223538038442
 31
0.0
  0
LINE
  5
26E
330
1F
100
AcDbEntity
  8
2
100
AcDbLine
 10
229.4814374928753
 20
189.9683105601706
 30
0.0
 11
230.1220196785103
 21
190.6088927458056
 31
0.0
  0
LINE
  5
26F
330
1F
100
AcDbEntity
  8
2
100
AcDbLine
 10
229.5904644629941
 20
189.9875349690787
 30
0.0
 11
230.1983611816826
 21
190.5954316877672
 31
0.0
  0
LINE
  5
270
330
1F
100
AcDbEntity
  8
2
100
AcDbLine
 10
229.6994914331128
 20
190.0067593779868
 30
0.0
 11
230.2747026848547
 21
190.5819706297286
 31
0.0
  0
LINE
  5
271
330
1F
100
AcDbEntity
  8
2
100
AcDbLine
 10
229.8085184032316
 20
190.0259837868949
 30
0.0
 11
230.351044188027
 21
190.5685095716902
 31
0.0
  0
LINE
  5
272
330
1F
100
AcDbEntity
  8
2
100
AcDbLine
 10
229.9175453733504
 20
190.045208195803
 30
0.0
 11
230.4273856911992
 21
190.5550485136517
 31
0.0
  0
LINE
  5
273
330
1F
100
AcDbEntity
  8
2
100
AcDbLine
 10
230.0265723434692
 20
190.064432604711
 30
0.0
 11
230.5037271943714
 21
190.5415874556133
 31
0.0
  0
LINE
  5
274
330
1F
100
AcDbEntity
  8
2
100
AcDbLine
 10
230.1355993135879
 20
190.0836570136191
 30
0.0
 11
230.5800686975437
 21
190.5281263975748
 31
0.0
  0
LINE
  5
275
330
1F
100
AcDbEntity
  8
2
100
AcDbLine
 10
230.2446262837066
 20
190.1028814225271
 30
0.0
 11
230.6564102007158
 21
190.5146653395363
 31
0.0
  0
LINE
  5
276
330
1F
100
AcDbEntity
  8
2
100
AcDbLine
 10
230.3536532538254
 20
190.1221058314352
 30
0.0
 11
230.732751703888
 21
190.5012042814978
 31
0.0
  0
LINE
  5
277
330
1F
100
AcDbEntity
  8
2
100
AcDbLine
 10
230.4626802239442
 20
190.1413302403432
 30
0.0
 11
230.8090932070602
 21
190.4877432234593
 31
0.0
  0
LINE
  5
278
330
1F
100
AcDbEntity
  8
2
100
AcDbLine
 10
230.571707194063
 20
190.1605546492514
 30
0.0
 11
230.8854347102325
 21
190.4742821654209
 31
0.0
  0
LINE
  5
279
330
1F
100
AcDbEntity
  8
2
100
AcDbLine
 10
230.6807341641817
 20
190.1797790581594
 30
0.0
 11
230.9617762134046
 21
190.4608211073823
 31
0.0
  0
LINE
  5
27A
330
1F
100
AcDbEntity
  8
2
100
AcDbLine
 10
230.7897611343005
 20
190.1990034670675
 30
0.0
 11
231.0381177165769
 21
190.4473600493439
 31
0.0
  0
LINE
  5
27B
330
1F
100
AcDbEntity
  8
2
100
AcDbLine
 10
230.8987881044192
 20
190.2182278759756
 30
0.0
 11
231.1144592197491
 21
190.4338989913054
 31
0.0
  0
LINE
  5
27C
330
1F
100
AcDbEntity
  8
2
100
AcDbLine
 10
231.007815074538
 20
190.2374522848836
 30
0.0
 11
231.1908007229213
 21
190.4204379332669
 31
0.0
  0
LINE
  5
27D
330
1F
100
AcDbEntity
  8
2
100
AcDbLine
 10
231.1168420446568
 20
190.2566766937917
 30
0.0
 11
231.2671422260935
 21
190.4069768752284
 31
0.0
  0
LINE
  5
27E
330
1F
100
AcDbEntity
  8
2
100
AcDbLine
 10
231.2258690147755
 20
190.2759011026998
 30
0.0
 11
231.3434837292657
 21
190.3935158171899
 31
0.0
  0
LINE
  5
27F
330
1F
100
AcDbEntity
  8
2
100
AcDbLine
 10
231.3348959848943
 20
190.2951255116078
 30
0.0
 11
231.4198252324379
 21
190.3800547591515
 31
0.0
  0
LINE
  5
280
330
1F
100
AcDbEntity
  8
2
100
AcDbLine
 10
231.443922955013
 20
190.3143499205159
 30
0.0
 11
231.4961667356101
 21
190.366593701113
 31
0.0
  0
LINE
  5
281
330
1F
100
AcDbEntity
  8
2
100
AcDbLine
 10
231.5529499251318
 20
190.333574329424
 30
0.0
 11
231.5725082387824
 21
190.3531326430745
 31
0.0
  0
LINE
  5
282
330
1F
100
AcDbEntity
  8
2
100
AcDbLine
 10
197.6189509953954
 20
190.3449435373291
 30
0.0
 11
197.6192770581732
 21
190.345269600107
 31
0.0
  0
LINE
  5
283
330
1F
100
AcDbEntity
  8
2
100
AcDbLine
 10
197.6952924985676
 20
190.3314824792906
 30
0.0
 11
197.728304028292
 21
190.3644940090151
 31
0.0
  0
LINE
  5
284
330
1F
100
AcDbEntity
  8
2
100
AcDbLine
 10
197.7716340017398
 20
190.3180214212522
 30
0.0
 11
197.8373309984108
 21
190.3837184179231
 31
0.0
  0
LINE
  5
285
330
1F
100
AcDbEntity
  8
2
100
AcDbLine
 10
197.847975504912
 20
190.3045603632136
 30
0.0
 11
197.9463579685296
 21
190.4029428268312
 31
0.0
  0
LINE
  5
286
330
1F
100
AcDbEntity
  8
2
100
AcDbLine
 10
197.9243170080843
 20
190.2910993051752
 30
0.0
 11
198.0553849386483
 21
190.4221672357392
 31
0.0
  0
LINE
  5
287
330
1F
100
AcDbEntity
  8
2
100
AcDbLine
 10
198.0006585112565
 20
190.2776382471367
 30
0.0
 11
198.164411908767
 21
190.4413916446473
 31
0.0
  0
LINE
  5
288
330
1F
100
AcDbEntity
  8
2
100
AcDbLine
 10
198.0770000144286
 20
190.2641771890982
 30
0.0
 11
198.2734388788858
 21
190.4606160535554
 31
0.0
  0
LINE
  5
289
330
1F
100
AcDbEntity
  8
2
100
AcDbLine
 10
198.1533415176009
 20
190.2507161310597
 30
0.0
 11
198.3824658490046
 21
190.4798404624635
 31
0.0
  0
LINE
  5
28A
330
1F
100
AcDbEntity
  8
2
100
AcDbLine
 10
198.2296830207731
 20
190.2372550730212
 30
0.0
 11
198.4914928191234
 21
190.4990648713716
 31
0.0
  0
LINE
  5
28B
330
1F
100
AcDbEntity
  8
2
100
AcDbLine
 10
198.3060245239453
 20
190.2237940149828
 30
0.0
 11
198.6005197892421
 21
190.5182892802796
 31
0.0
  0
LINE
  5
28C
330
1F
100
AcDbEntity
  8
2
100
AcDbLine
 10
198.3823660271175
 20
190.2103329569443
 30
0.0
 11
198.7095467593609
 21
190.5375136891877
 31
0.0
  0
LINE
  5
28D
330
1F
100
AcDbEntity
  8
2
100
AcDbLine
 10
198.4587075302897
 20
190.1968718989058
 30
0.0
 11
198.8185737294796
 21
190.5567380980957
 31
0.0
  0
LINE
  5
28E
330
1F
100
AcDbEntity
  8
2
100
AcDbLine
 10
198.5350490334619
 20
190.1834108408673
 30
0.0
 11
198.9276006995984
 21
190.5759625070038
 31
0.0
  0
LINE
  5
28F
330
1F
100
AcDbEntity
  8
2
100
AcDbLine
 10
198.6113905366341
 20
190.1699497828288
 30
0.0
 11
199.0366276697171
 21
190.5951869159119
 31
0.0
  0
LINE
  5
290
330
1F
100
AcDbEntity
  8
2
100
AcDbLine
 10
198.6877320398063
 20
190.1564887247903
 30
0.0
 11
199.1456546398359
 21
190.6144113248199
 31
0.0
  0
LINE
  5
291
330
1F
100
AcDbEntity
  8
2
100
AcDbLine
 10
198.7640735429785
 20
190.1430276667518
 30
0.0
 11
199.2546816099546
 21
190.633635733728
 31
0.0
  0
LINE
  5
292
330
1F
100
AcDbEntity
  8
2
100
AcDbLine
 10
198.8404150461508
 20
190.1295666087134
 30
0.0
 11
199.3637085800734
 21
190.652860142636
 31
0.0
  0
LINE
  5
293
330
1F
100
AcDbEntity
  8
2
100
AcDbLine
 10
198.9167565493229
 20
190.1161055506749
 30
0.0
 11
199.4727355501922
 21
190.6720845515441
 31
0.0
  0
LINE
  5
294
330
1F
100
AcDbEntity
  8
2
100
AcDbLine
 10
198.9930980524952
 20
190.1026444926364
 30
0.0
 11
199.5817625203109
 21
190.6913089604522
 31
0.0
  0
LINE
  5
295
330
1F
100
AcDbEntity
  8
2
100
AcDbLine
 10
199.0694395556674
 20
190.0891834345979
 30
0.0
 11
199.6907894904296
 21
190.7105333693602
 31
0.0
  0
LINE
  5
296
330
1F
100
AcDbEntity
  8
2
100
AcDbLine
 10
199.1457810588396
 20
190.0757223765594
 30
0.0
 11
199.7998164605484
 21
190.7297577782683
 31
0.0
  0
LINE
  5
297
330
1F
100
AcDbEntity
  8
2
100
AcDbLine
 10
199.2221225620118
 20
190.062261318521
 30
0.0
 11
199.9088434306672
 21
190.7489821871764
 31
0.0
  0
LINE
  5
298
330
1F
100
AcDbEntity
  8
2
100
AcDbLine
 10
199.298464065184
 20
190.0488002604825
 30
0.0
 11
200.017870400786
 21
190.7682065960844
 31
0.0
  0
LINE
  5
299
330
1F
100
AcDbEntity
  8
2
100
AcDbLine
 10
199.3748055683562
 20
190.035339202444
 30
0.0
 11
200.1181878370758
 21
190.7787214711636
 31
0.0
  0
LINE
  5
29A
330
1F
100
AcDbEntity
  8
2
100
AcDbLine
 10
199.4511470715284
 20
190.0218781444055
 30
0.0
 11
200.1181881669378
 21
190.6889192398149
 31
0.0
  0
LINE
  5
29B
330
1F
100
AcDbEntity
  8
2
100
AcDbLine
 10
199.5274885747006
 20
190.0084170863671
 30
0.0
 11
200.1181884967998
 21
190.5991170084663
 31
0.0
  0
LINE
  5
29C
330
1F
100
AcDbEntity
  8
2
100
AcDbLine
 10
199.6038300778728
 20
189.9949560283286
 30
0.0
 11
200.1181888266618
 21
190.5093147771175
 31
0.0
  0
LINE
  5
29D
330
1F
100
AcDbEntity
  8
2
100
AcDbLine
 10
199.680171581045
 20
189.9814949702901
 30
0.0
 11
200.1181891565239
 21
190.4195125457689
 31
0.0
  0
LINE
  5
29E
330
1F
100
AcDbEntity
  8
2
100
AcDbLine
 10
199.7565130842172
 20
189.9680339122516
 30
0.0
 11
200.1181894863859
 21
190.3297103144202
 31
0.0
  0
LINE
  5
29F
330
1F
100
AcDbEntity
  8
2
100
AcDbLine
 10
199.8328545873895
 20
189.9545728542131
 30
0.0
 11
200.1181898162479
 21
190.2399080830715
 31
0.0
  0
LINE
  5
2A0
330
1F
100
AcDbEntity
  8
2
100
AcDbLine
 10
199.9091960905616
 20
189.9411117961746
 30
0.0
 11
200.1181901461099
 21
190.1501058517229
 31
0.0
  0
LINE
  5
2A1
330
1F
100
AcDbEntity
  8
2
100
AcDbLine
 10
199.9855375937339
 20
189.9276507381361
 30
0.0
 11
200.1181904759719
 21
190.0603036203742
 31
0.0
  0
LINE
  5
2A2
330
1F
100
AcDbEntity
  8
2
100
AcDbLine
 10
200.0618790969061
 20
189.9141896800976
 30
0.0
 11
200.1181908058339
 21
189.9705013890256
 31
0.0
  0
TEXT
  5
2A3
330
1F
100
AcDbEntity
  8
2
100
AcDbText
 10
213.08996956922
 20
191.9284106666666
 30
0.0
 40
3.5
  1
34
 41
0.75
  7
cesky
100
AcDbText
  0
LINE
  5
2A4
330
1F
100
AcDbEntity
  8
2
100
AcDbLine
 10
224.118187945897
 20
181.1027611259754
 30
0.0
 11
224.149471307745
 21
181.1340444878234
 31
0.0
  0
LINE
  5
2A5
330
1F
100
AcDbEntity
  8
2
100
AcDbLine
 10
224.1181882757591
 20
181.0129588946267
 30
0.0
 11
224.2258128109172
 21
181.1205834297849
 31
0.0
  0
LINE
  5
2A6
330
1F
100
AcDbEntity
  8
2
100
AcDbLine
 10
224.1181886056211
 20
180.9231566632781
 30
0.0
 11
224.3021543140895
 21
181.1071223717464
 31
0.0
  0
LINE
  5
2A7
330
1F
100
AcDbEntity
  8
2
100
AcDbLine
 10
224.1181889354831
 20
180.8333544319294
 30
0.0
 11
224.3784958172617
 21
181.093661313708
 31
0.0
  0
LINE
  5
2A8
330
1F
100
AcDbEntity
  8
2
100
AcDbLine
 10
224.1181892653451
 20
180.7435522005807
 30
0.0
 11
224.4548373204339
 21
181.0802002556695
 31
0.0
  0
LINE
  5
2A9
330
1F
100
AcDbEntity
  8
2
100
AcDbLine
 10
224.1181895952071
 20
180.653749969232
 30
0.0
 11
224.5311788236061
 21
181.066739197631
 31
0.0
  0
LINE
  5
2AA
330
1F
100
AcDbEntity
  8
2
100
AcDbLine
 10
224.1181899250691
 20
180.5639477378834
 30
0.0
 11
224.6075203267783
 21
181.0532781395925
 31
0.0
  0
LINE
  5
2AB
330
1F
100
AcDbEntity
  8
2
100
AcDbLine
 10
224.1181902549312
 20
180.4741455065347
 30
0.0
 11
224.6838618299505
 21
181.039817081554
 31
0.0
  0
LINE
  5
2AC
330
1F
100
AcDbEntity
  8
2
100
AcDbLine
 10
224.1181905847932
 20
180.384343275186
 30
0.0
 11
224.7602033331227
 21
181.0263560235155
 31
0.0
  0
LINE
  5
2AD
330
1F
100
AcDbEntity
  8
2
100
AcDbLine
 10
224.1181909146552
 20
180.2945410438373
 30
0.0
 11
224.836544836295
 21
181.0128949654771
 31
0.0
  0
LINE
  5
2AE
330
1F
100
AcDbEntity
  8
2
100
AcDbLine
 10
224.1827641191633
 20
180.2693116871347
 30
0.0
 11
224.9128863394671
 21
180.9994339074386
 31
0.0
  0
LINE
  5
2AF
330
1F
100
AcDbEntity
  8
2
100
AcDbLine
 10
224.291791089282
 20
180.2885360960428
 30
0.0
 11
224.9892278426393
 21
180.9859728494001
 31
0.0
  0
LINE
  5
2B0
330
1F
100
AcDbEntity
  8
2
100
AcDbLine
 10
224.4008180594009
 20
180.3077605049509
 30
0.0
 11
225.0655693458115
 21
180.9725117913616
 31
0.0
  0
LINE
  5
2B1
330
1F
100
AcDbEntity
  8
2
100
AcDbLine
 10
224.5098450295196
 20
180.326984913859
 30
0.0
 11
225.1419108489837
 21
180.9590507333231
 31
0.0
  0
LINE
  5
2B2
330
1F
100
AcDbEntity
  8
2
100
AcDbLine
 10
224.6188719996383
 20
180.346209322767
 30
0.0
 11
225.218252352156
 21
180.9455896752847
 31
0.0
  0
LINE
  5
2B3
330
1F
100
AcDbEntity
  8
2
100
AcDbLine
 10
224.7278989697571
 20
180.3654337316751
 30
0.0
 11
225.2945938553282
 21
180.9321286172462
 31
0.0
  0
LINE
  5
2B4
330
1F
100
AcDbEntity
  8
2
100
AcDbLine
 10
224.8369259398758
 20
180.3846581405832
 30
0.0
 11
225.3709353585004
 21
180.9186675592077
 31
0.0
  0
LINE
  5
2B5
330
1F
100
AcDbEntity
  8
2
100
AcDbLine
 10
224.9459529099946
 20
180.4038825494912
 30
0.0
 11
225.4472768616726
 21
180.9052065011692
 31
0.0
  0
LINE
  5
2B6
330
1F
100
AcDbEntity
  8
2
100
AcDbLine
 10
225.0549798801134
 20
180.4231069583993
 30
0.0
 11
225.5236183648448
 21
180.8917454431307
 31
0.0
  0
LINE
  5
2B7
330
1F
100
AcDbEntity
  8
2
100
AcDbLine
 10
225.1640068502322
 20
180.4423313673074
 30
0.0
 11
225.5999598680171
 21
180.8782843850923
 31
0.0
  0
LINE
  5
2B8
330
1F
100
AcDbEntity
  8
2
100
AcDbLine
 10
225.2730338203509
 20
180.4615557762154
 30
0.0
 11
225.6763013711893
 21
180.8648233270538
 31
0.0
  0
LINE
  5
2B9
330
1F
100
AcDbEntity
  8
2
100
AcDbLine
 10
225.3820607904696
 20
180.4807801851235
 30
0.0
 11
225.7526428743615
 21
180.8513622690153
 31
0.0
  0
LINE
  5
2BA
330
1F
100
AcDbEntity
  8
2
100
AcDbLine
 10
225.4910877605884
 20
180.5000045940315
 30
0.0
 11
225.8289843775337
 21
180.8379012109768
 31
0.0
  0
LINE
  5
2BB
330
1F
100
AcDbEntity
  8
2
100
AcDbLine
 10
225.6001147307072
 20
180.5192290029396
 30
0.0
 11
225.9053258807059
 21
180.8244401529384
 31
0.0
  0
LINE
  5
2BC
330
1F
100
AcDbEntity
  8
2
100
AcDbLine
 10
225.7091417008259
 20
180.5384534118477
 30
0.0
 11
225.9816673838781
 21
180.8109790948998
 31
0.0
  0
LINE
  5
2BD
330
1F
100
AcDbEntity
  8
2
100
AcDbLine
 10
225.8181686709447
 20
180.5576778207558
 30
0.0
 11
226.0580088870503
 21
180.7975180368614
 31
0.0
  0
LINE
  5
2BE
330
1F
100
AcDbEntity
  8
2
100
AcDbLine
 10
225.9271956410634
 20
180.5769022296638
 30
0.0
 11
226.1343503902225
 21
180.7840569788229
 31
0.0
  0
LINE
  5
2BF
330
1F
100
AcDbEntity
  8
2
100
AcDbLine
 10
226.0362226111822
 20
180.5961266385719
 30
0.0
 11
226.2106918933947
 21
180.7705959207845
 31
0.0
  0
LINE
  5
2C0
330
1F
100
AcDbEntity
  8
2
100
AcDbLine
 10
226.1452495813009
 20
180.61535104748
 30
0.0
 11
226.287033396567
 21
180.757134862746
 31
0.0
  0
LINE
  5
2C1
330
1F
100
AcDbEntity
  8
2
100
AcDbLine
 10
226.2542765514197
 20
180.634575456388
 30
0.0
 11
226.3633748997392
 21
180.7436738047075
 31
0.0
  0
LINE
  5
2C2
330
1F
100
AcDbEntity
  8
2
100
AcDbLine
 10
226.3633035215385
 20
180.6537998652961
 30
0.0
 11
226.4397164029114
 21
180.730212746669
 31
0.0
  0
LINE
  5
2C3
330
1F
100
AcDbEntity
  8
2
100
AcDbLine
 10
226.4723304916572
 20
180.6730242742041
 30
0.0
 11
226.5160579060836
 21
180.7167516886305
 31
0.0
  0
LINE
  5
2C4
330
1F
100
AcDbEntity
  8
2
100
AcDbLine
 10
226.581357461776
 20
180.6922486831122
 30
0.0
 11
226.5923994092558
 21
180.703290630592
 31
0.0
  0
LINE
  5
2C5
330
1F
100
AcDbEntity
  8
2
100
AcDbLine
 10
231.6933458318792
 20
180.6854910642061
 30
0.0
 11
231.7255239000257
 21
180.7176691323526
 31
0.0
  0
LINE
  5
2C6
330
1F
100
AcDbEntity
  8
2
100
AcDbLine
 10
231.7696873350514
 20
180.6720300061677
 30
0.0
 11
231.8345508701444
 21
180.7368935412606
 31
0.0
  0
LINE
  5
2C7
330
1F
100
AcDbEntity
  8
2
100
AcDbLine
 10
231.8460288382237
 20
180.6585689481292
 30
0.0
 11
231.9435778402631
 21
180.7561179501687
 31
0.0
  0
LINE
  5
2C8
330
1F
100
AcDbEntity
  8
2
100
AcDbLine
 10
231.9223703413959
 20
180.6451078900907
 30
0.0
 11
232.0526048103819
 21
180.7753423590767
 31
0.0
  0
LINE
  5
2C9
330
1F
100
AcDbEntity
  8
2
100
AcDbLine
 10
231.9987118445681
 20
180.6316468320522
 30
0.0
 11
232.1616317805006
 21
180.7945667679848
 31
0.0
  0
LINE
  5
2CA
330
1F
100
AcDbEntity
  8
2
100
AcDbLine
 10
232.0750533477403
 20
180.6181857740137
 30
0.0
 11
232.2706587506194
 21
180.8137911768928
 31
0.0
  0
LINE
  5
2CB
330
1F
100
AcDbEntity
  8
2
100
AcDbLine
 10
232.1513948509125
 20
180.6047247159752
 30
0.0
 11
232.3796857207382
 21
180.8330155858009
 31
0.0
  0
LINE
  5
2CC
330
1F
100
AcDbEntity
  8
2
100
AcDbLine
 10
232.2277363540847
 20
180.5912636579368
 30
0.0
 11
232.4887126908569
 21
180.852239994709
 31
0.0
  0
LINE
  5
2CD
330
1F
100
AcDbEntity
  8
2
100
AcDbLine
 10
232.3040778572569
 20
180.5778025998983
 30
0.0
 11
232.5977396609757
 21
180.8714644036171
 31
0.0
  0
LINE
  5
2CE
330
1F
100
AcDbEntity
  8
2
100
AcDbLine
 10
232.3804193604291
 20
180.5643415418598
 30
0.0
 11
232.7067666310944
 21
180.8906888125251
 31
0.0
  0
LINE
  5
2CF
330
1F
100
AcDbEntity
  8
2
100
AcDbLine
 10
232.4567608636013
 20
180.5508804838213
 30
0.0
 11
232.8157936012132
 21
180.9099132214332
 31
0.0
  0
LINE
  5
2D0
330
1F
100
AcDbEntity
  8
2
100
AcDbLine
 10
232.5331023667735
 20
180.5374194257828
 30
0.0
 11
232.9248205713319
 21
180.9291376303412
 31
0.0
  0
LINE
  5
2D1
330
1F
100
AcDbEntity
  8
2
100
AcDbLine
 10
232.6094438699457
 20
180.5239583677444
 30
0.0
 11
233.0338475414507
 21
180.9483620392493
 31
0.0
  0
LINE
  5
2D2
330
1F
100
AcDbEntity
  8
2
100
AcDbLine
 10
232.6857853731179
 20
180.5104973097058
 30
0.0
 11
233.1428745115694
 21
180.9675864481573
 31
0.0
  0
LINE
  5
2D3
330
1F
100
AcDbEntity
  8
2
100
AcDbLine
 10
232.7621268762901
 20
180.4970362516674
 30
0.0
 11
233.2519014816882
 21
180.9868108570654
 31
0.0
  0
LINE
  5
2D4
330
1F
100
AcDbEntity
  8
2
100
AcDbLine
 10
232.8384683794624
 20
180.4835751936289
 30
0.0
 11
233.3609284518069
 21
181.0060352659735
 31
0.0
  0
LINE
  5
2D5
330
1F
100
AcDbEntity
  8
2
100
AcDbLine
 10
232.9148098826345
 20
180.4701141355904
 30
0.0
 11
233.4699554219257
 21
181.0252596748816
 31
0.0
  0
LINE
  5
2D6
330
1F
100
AcDbEntity
  8
2
100
AcDbLine
 10
232.9911513858068
 20
180.456653077552
 30
0.0
 11
233.5789823920444
 21
181.0444840837896
 31
0.0
  0
LINE
  5
2D7
330
1F
100
AcDbEntity
  8
2
100
AcDbLine
 10
233.067492888979
 20
180.4431920195135
 30
0.0
 11
233.6880093621632
 21
181.0637084926977
 31
0.0
  0
LINE
  5
2D8
330
1F
100
AcDbEntity
  8
2
100
AcDbLine
 10
233.1438343921512
 20
180.429730961475
 30
0.0
 11
233.797036332282
 21
181.0829329016057
 31
0.0
  0
LINE
  5
2D9
330
1F
100
AcDbEntity
  8
2
100
AcDbLine
 10
233.2201758953234
 20
180.4162699034364
 30
0.0
 11
233.9060633024007
 21
181.1021573105138
 31
0.0
  0
LINE
  5
2DA
330
1F
100
AcDbEntity
  8
2
100
AcDbLine
 10
233.2965173984956
 20
180.402808845398
 30
0.0
 11
234.0150902725194
 21
181.1213817194218
 31
0.0
  0
LINE
  5
2DB
330
1F
100
AcDbEntity
  8
2
100
AcDbLine
 10
233.3728589016678
 20
180.3893477873595
 30
0.0
 11
234.1181878286645
 21
181.1346767143562
 31
0.0
  0
LINE
  5
2DC
330
1F
100
AcDbEntity
  8
2
100
AcDbLine
 10
233.44920040484
 20
180.375886729321
 30
0.0
 11
234.1181881585265
 21
181.0448744830075
 31
0.0
  0
LINE
  5
2DD
330
1F
100
AcDbEntity
  8
2
100
AcDbLine
 10
233.5255419080122
 20
180.3624256712825
 30
0.0
 11
234.1181884883885
 21
180.9550722516588
 31
0.0
  0
LINE
  5
2DE
330
1F
100
AcDbEntity
  8
2
100
AcDbLine
 10
233.6018834111844
 20
180.348964613244
 30
0.0
 11
234.1181888182505
 21
180.8652700203102
 31
0.0
  0
LINE
  5
2DF
330
1F
100
AcDbEntity
  8
2
100
AcDbLine
 10
233.6782249143567
 20
180.3355035552056
 30
0.0
 11
234.1181891481126
 21
180.7754677889615
 31
0.0
  0
LINE
  5
2E0
330
1F
100
AcDbEntity
  8
2
100
AcDbLine
 10
233.7545664175289
 20
180.3220424971671
 30
0.0
 11
234.1181894779746
 21
180.6856655576128
 31
0.0
  0
LINE
  5
2E1
330
1F
100
AcDbEntity
  8
2
100
AcDbLine
 10
233.8309079207011
 20
180.3085814391286
 30
0.0
 11
234.1181898078366
 21
180.5958633262641
 31
0.0
  0
LINE
  5
2E2
330
1F
100
AcDbEntity
  8
2
100
AcDbLine
 10
233.9072494238733
 20
180.2951203810902
 30
0.0
 11
234.1181901376987
 21
180.5060610949155
 31
0.0
  0
LINE
  5
2E3
330
1F
100
AcDbEntity
  8
2
100
AcDbLine
 10
233.9835909270455
 20
180.2816593230517
 30
0.0
 11
234.1181904675607
 21
180.4162588635668
 31
0.0
  0
LINE
  5
2E4
330
1F
100
AcDbEntity
  8
2
100
AcDbLine
 10
234.0599324302177
 20
180.2681982650132
 30
0.0
 11
234.1181907974227
 21
180.3264566322182
 31
0.0
  0
TEXT
  5
2E5
330
1F
100
AcDbEntity
  8
2
100
AcDbText
 10
228.8358673204498
 20
182.2820766666666
 30
0.0
 40
3.5
  1
5
 41
0.75
  7
cesky
100
AcDbText
  0
MTEXT
  5
2E6
330
1F
100
AcDbEntity
  8
SK2
100
AcDbMText
 10
50.728358
 20
164.5299409999999
 30
0.0
 40
3.5
 41
0.0
 71
     7
 72
     5
  1
\W0.7500;20
  7
cesky
 11
0.0000000000000001
 21
1.0
 31
0.0
 73
     2
 44
0.8433729999999998
1001
ACAD
1000
MTEXTBEGIN
1070
    73
1070
     2
1070
    44
1040
0.8433729999999998
1070
    74
1070
     0
1000
MTEXTEND
  0
MTEXT
  5
2E7
330
1F
100
AcDbEntity
  8
SK2
100
AcDbMText
 10
50.728358
 20
157.557285
 30
0.0
 40
3.5
 41
0.0
 71
     7
 72
     5
  1
%%c
  7
cesky
 11
0.0000000000000001
 21
1.0
 31
0.0
 73
     2
 44
0.8433729999999998
1001
ACAD
1000
MTEXTBEGIN
1070
    73
1070
     2
1070
    44
1040
0.8433729999999998
1070
    74
1070
     0
1000
MTEXTEND
  0
LINE
  5
2E8
330
1F
100
AcDbEntity
  8
SK2
100
AcDbLine
 10
61.118189
 20
171.498691
 30
0.0
 11
50.02002499999999
 21
171.498691
 31
0.0
  0
LINE
  5
2E9
330
1F
100
AcDbEntity
  8
SK2
100
AcDbLine
 10
61.118189
 20
151.498691
 30
0.0
 11
50.02002499999999
 21
151.498691
 31
0.0
  0
LINE
  5
2EA
330
1F
100
AcDbEntity
  8
SK2
100
AcDbLine
 10
52.02002499999999
 20
171.498691
 30
0.0
 11
52.02002499999999
 21
151.498691
 31
0.0
  0
SOLID
  5
2EB
330
1F
100
AcDbEntity
  8
SK2
100
AcDbTrace
 10
52.02002499999999
 20
171.498691
 30
0.0
 11
52.46084200000001
 21
168.998693
 31
0.0
 12
51.579207
 22
168.998689
 32
0.0
 13
52.02002499999999
 23
171.498691
 33
0.0
  0
SOLID
  5
2EC
330
1F
100
AcDbEntity
  8
SK2
100
AcDbTrace
 10
52.02002499999999
 20
151.498691
 30
0.0
 11
51.579207
 21
153.9986889999999
 31
0.0
 12
52.46084200000001
 22
153.998693
 32
0.0
 13
52.02002499999999
 23
151.498691
 33
0.0
  0
LINE
  5
2ED
330
1F
100
AcDbEntity
  8
SK2
100
AcDbLine
 10
229.1181878441038
 20
199.2139349609431
 30
0.0
 11
229.1259128168118
 21
199.2216599336511
 31
0.0
  0
LINE
  5
2EE
330
1F
100
AcDbEntity
  8
SK2
100
AcDbLine
 10
229.1181881739658
 20
199.1241327295944
 30
0.0
 11
229.202254319984
 21
199.2081988756126
 31
0.0
  0
LINE
  5
2EF
330
1F
100
AcDbEntity
  8
SK2
100
AcDbLine
 10
229.1181885038278
 20
199.0343304982457
 30
0.0
 11
229.2785958231562
 21
199.1947378175741
 31
0.0
  0
LINE
  5
2F0
330
1F
100
AcDbEntity
  8
SK2
100
AcDbLine
 10
229.1181888336898
 20
198.9445282668971
 30
0.0
 11
229.3549373263284
 21
199.1812767595357
 31
0.0
  0
LINE
  5
2F1
330
1F
100
AcDbEntity
  8
SK2
100
AcDbLine
 10
229.1181891635519
 20
198.8547260355484
 30
0.0
 11
229.4312788295007
 21
199.1678157014971
 31
0.0
  0
LINE
  5
2F2
330
1F
100
AcDbEntity
  8
SK2
100
AcDbLine
 10
229.1181894934138
 20
198.7649238041997
 30
0.0
 11
229.5076203326729
 21
199.1543546434587
 31
0.0
  0
LINE
  5
2F3
330
1F
100
AcDbEntity
  8
SK2
100
AcDbLine
 10
229.1181898232759
 20
198.675121572851
 30
0.0
 11
229.5839618358451
 21
199.1408935854202
 31
0.0
  0
LINE
  5
2F4
330
1F
100
AcDbEntity
  8
SK2
100
AcDbLine
 10
229.1181901531379
 20
198.5853193415024
 30
0.0
 11
229.6603033390173
 21
199.1274325273817
 31
0.0
  0
LINE
  5
2F5
330
1F
100
AcDbEntity
  8
SK2
100
AcDbLine
 10
229.118190483
 20
198.4955171101537
 30
0.0
 11
229.7366448421895
 21
199.1139714693433
 31
0.0
  0
LINE
  5
2F6
330
1F
100
AcDbEntity
  8
SK2
100
AcDbLine
 10
229.1181908128619
 20
198.405714878805
 30
0.0
 11
229.8129863453616
 21
199.1005104113048
 31
0.0
  0
LINE
  5
2F7
330
1F
100
AcDbEntity
  8
SK2
100
AcDbLine
 10
229.1491191058967
 20
198.3468406106291
 30
0.0
 11
229.8893278485339
 21
199.0870493532663
 31
0.0
  0
LINE
  5
2F8
330
1F
100
AcDbEntity
  8
SK2
100
AcDbLine
 10
229.2581460760155
 20
198.3660650195372
 30
0.0
 11
229.9656693517061
 21
199.0735882952278
 31
0.0
  0
LINE
  5
2F9
330
1F
100
AcDbEntity
  8
SK2
100
AcDbLine
 10
229.3671730461342
 20
198.3852894284452
 30
0.0
 11
230.0420108548783
 21
199.0601272371893
 31
0.0
  0
LINE
  5
2FA
330
1F
100
AcDbEntity
  8
SK2
100
AcDbLine
 10
229.4762000162529
 20
198.4045138373533
 30
0.0
 11
230.1183523580505
 21
199.0466661791508
 31
0.0
  0
LINE
  5
2FB
330
1F
100
AcDbEntity
  8
SK2
100
AcDbLine
 10
229.5852269863717
 20
198.4237382462613
 30
0.0
 11
230.1946938612227
 21
199.0332051211123
 31
0.0
  0
LINE
  5
2FC
330
1F
100
AcDbEntity
  8
SK2
100
AcDbLine
 10
229.6942539564905
 20
198.4429626551694
 30
0.0
 11
230.271035364395
 21
199.0197440630739
 31
0.0
  0
LINE
  5
2FD
330
1F
100
AcDbEntity
  8
SK2
100
AcDbLine
 10
229.8032809266092
 20
198.4621870640775
 30
0.0
 11
230.3473768675671
 21
199.0062830050354
 31
0.0
  0
LINE
  5
2FE
330
1F
100
AcDbEntity
  8
SK2
100
AcDbLine
 10
229.912307896728
 20
198.4814114729855
 30
0.0
 11
230.4237183707394
 21
198.9928219469969
 31
0.0
  0
LINE
  5
2FF
330
1F
100
AcDbEntity
  8
SK2
100
AcDbLine
 10
230.0213348668467
 20
198.5006358818936
 30
0.0
 11
230.5000598739116
 21
198.9793608889584
 31
0.0
  0
LINE
  5
300
330
1F
100
AcDbEntity
  8
SK2
100
AcDbLine
 10
230.1303618369655
 20
198.5198602908016
 30
0.0
 11
230.5764013770838
 21
198.9658998309199
 31
0.0
  0
LINE
  5
301
330
1F
100
AcDbEntity
  8
SK2
100
AcDbLine
 10
230.2393888070842
 20
198.5390846997097
 30
0.0
 11
230.652742880256
 21
198.9524387728815
 31
0.0
  0
LINE
  5
302
330
1F
100
AcDbEntity
  8
SK2
100
AcDbLine
 10
230.348415777203
 20
198.5583091086177
 30
0.0
 11
230.7290843834282
 21
198.938977714843
 31
0.0
  0
LINE
  5
303
330
1F
100
AcDbEntity
  8
SK2
100
AcDbLine
 10
230.4574427473217
 20
198.5775335175258
 30
0.0
 11
230.8054258866004
 21
198.9255166568045
 31
0.0
  0
LINE
  5
304
330
1F
100
AcDbEntity
  8
SK2
100
AcDbLine
 10
230.5664697174405
 20
198.5967579264339
 30
0.0
 11
230.8817673897726
 21
198.912055598766
 31
0.0
  0
LINE
  5
305
330
1F
100
AcDbEntity
  8
SK2
100
AcDbLine
 10
230.6754966875593
 20
198.6159823353419
 30
0.0
 11
230.9581088929448
 21
198.8985945407275
 31
0.0
  0
LINE
  5
306
330
1F
100
AcDbEntity
  8
SK2
100
AcDbLine
 10
230.784523657678
 20
198.6352067442501
 30
0.0
 11
231.034450396117
 21
198.885133482689
 31
0.0
  0
LINE
  5
307
330
1F
100
AcDbEntity
  8
SK2
100
AcDbLine
 10
230.8935506277967
 20
198.6544311531581
 30
0.0
 11
231.1107918992893
 21
198.8716724246506
 31
0.0
  0
LINE
  5
308
330
1F
100
AcDbEntity
  8
SK2
100
AcDbLine
 10
231.0025775979155
 20
198.6736555620661
 30
0.0
 11
231.1871334024615
 21
198.8582113666121
 31
0.0
  0
LINE
  5
309
330
1F
100
AcDbEntity
  8
SK2
100
AcDbLine
 10
231.1116045680343
 20
198.6928799709742
 30
0.0
 11
231.2634749056337
 21
198.8447503085736
 31
0.0
  0
LINE
  5
30A
330
1F
100
AcDbEntity
  8
SK2
100
AcDbLine
 10
231.220631538153
 20
198.7121043798823
 30
0.0
 11
231.3398164088058
 21
198.8312892505351
 31
0.0
  0
LINE
  5
30B
330
1F
100
AcDbEntity
  8
SK2
100
AcDbLine
 10
231.3296585082718
 20
198.7313287887903
 30
0.0
 11
231.4161579119781
 21
198.8178281924966
 31
0.0
  0
LINE
  5
30C
330
1F
100
AcDbEntity
  8
SK2
100
AcDbLine
 10
231.4386854783905
 20
198.7505531976984
 30
0.0
 11
231.4924994151503
 21
198.8043671344582
 31
0.0
  0
LINE
  5
30D
330
1F
100
AcDbEntity
  8
SK2
100
AcDbLine
 10
231.5477124485093
 20
198.7697776066065
 30
0.0
 11
231.5688409183225
 21
198.7909060764197
 31
0.0
  0
LINE
  5
30E
330
1F
100
AcDbEntity
  8
SK2
100
AcDbLine
 10
111.6653963800406
 20
198.7738807544111
 30
0.0
 11
111.6856079444337
 21
198.7940923188042
 31
0.0
  0
LINE
  5
30F
330
1F
100
AcDbEntity
  8
SK2
100
AcDbLine
 10
111.7417378832128
 20
198.7604196963726
 30
0.0
 11
111.7946349145525
 21
198.8133167277123
 31
0.0
  0
LINE
  5
310
330
1F
100
AcDbEntity
  8
SK2
100
AcDbLine
 10
111.818079386385
 20
198.7469586383342
 30
0.0
 11
111.9036618846712
 21
198.8325411366203
 31
0.0
  0
LINE
  5
311
330
1F
100
AcDbEntity
  8
SK2
100
AcDbLine
 10
111.8944208895572
 20
198.7334975802957
 30
0.0
 11
112.01268885479
 21
198.8517655455284
 31
0.0
  0
LINE
  5
312
330
1F
100
AcDbEntity
  8
SK2
100
AcDbLine
 10
111.9707623927294
 20
198.7200365222572
 30
0.0
 11
112.1217158249087
 21
198.8709899544365
 31
0.0
  0
LINE
  5
313
330
1F
100
AcDbEntity
  8
SK2
100
AcDbLine
 10
112.0471038959016
 20
198.7065754642187
 30
0.0
 11
112.2307427950275
 21
198.8902143633445
 31
0.0
  0
LINE
  5
314
330
1F
100
AcDbEntity
  8
SK2
100
AcDbLine
 10
112.1234453990738
 20
198.6931144061802
 30
0.0
 11
112.3397697651462
 21
198.9094387722526
 31
0.0
  0
LINE
  5
315
330
1F
100
AcDbEntity
  8
SK2
100
AcDbLine
 10
112.1997869022461
 20
198.6796533481418
 30
0.0
 11
112.448796735265
 21
198.9286631811607
 31
0.0
  0
LINE
  5
316
330
1F
100
AcDbEntity
  8
SK2
100
AcDbLine
 10
112.2761284054182
 20
198.6661922901033
 30
0.0
 11
112.5578237053838
 21
198.9478875900688
 31
0.0
  0
LINE
  5
317
330
1F
100
AcDbEntity
  8
SK2
100
AcDbLine
 10
112.3524699085905
 20
198.6527312320648
 30
0.0
 11
112.6668506755025
 21
198.9671119989768
 31
0.0
  0
LINE
  5
318
330
1F
100
AcDbEntity
  8
SK2
100
AcDbLine
 10
112.4288114117627
 20
198.6392701740263
 30
0.0
 11
112.7758776456213
 21
198.9863364078849
 31
0.0
  0
LINE
  5
319
330
1F
100
AcDbEntity
  8
SK2
100
AcDbLine
 10
112.5051529149349
 20
198.6258091159878
 30
0.0
 11
112.88490461574
 21
199.005560816793
 31
0.0
  0
LINE
  5
31A
330
1F
100
AcDbEntity
  8
SK2
100
AcDbLine
 10
112.5814944181071
 20
198.6123480579493
 30
0.0
 11
112.9939315858588
 21
199.024785225701
 31
0.0
  0
LINE
  5
31B
330
1F
100
AcDbEntity
  8
SK2
100
AcDbLine
 10
112.6578359212793
 20
198.5988869999108
 30
0.0
 11
113.1029585559775
 21
199.0440096346091
 31
0.0
  0
LINE
  5
31C
330
1F
100
AcDbEntity
  8
SK2
100
AcDbLine
 10
112.7341774244515
 20
198.5854259418724
 30
0.0
 11
113.2119855260963
 21
199.0632340435172
 31
0.0
  0
LINE
  5
31D
330
1F
100
AcDbEntity
  8
SK2
100
AcDbLine
 10
112.8105189276238
 20
198.5719648838339
 30
0.0
 11
113.3210124962151
 21
199.0824584524252
 31
0.0
  0
LINE
  5
31E
330
1F
100
AcDbEntity
  8
SK2
100
AcDbLine
 10
112.8868604307959
 20
198.5585038257954
 30
0.0
 11
113.4300394663338
 21
199.1016828613333
 31
0.0
  0
LINE
  5
31F
330
1F
100
AcDbEntity
  8
SK2
100
AcDbLine
 10
112.9632019339682
 20
198.5450427677569
 30
0.0
 11
113.5390664364526
 21
199.1209072702414
 31
0.0
  0
LINE
  5
320
330
1F
100
AcDbEntity
  8
SK2
100
AcDbLine
 10
113.0395434371404
 20
198.5315817097185
 30
0.0
 11
113.6480934065713
 21
199.1401316791494
 31
0.0
  0
LINE
  5
321
330
1F
100
AcDbEntity
  8
SK2
100
AcDbLine
 10
113.1158849403126
 20
198.51812065168
 30
0.0
 11
113.7571203766901
 21
199.1593560880575
 31
0.0
  0
LINE
  5
322
330
1F
100
AcDbEntity
  8
SK2
100
AcDbLine
 10
113.1922264434848
 20
198.5046595936415
 30
0.0
 11
113.8661473468089
 21
199.1785804969656
 31
0.0
  0
LINE
  5
323
330
1F
100
AcDbEntity
  8
SK2
100
AcDbLine
 10
113.268567946657
 20
198.491198535603
 30
0.0
 11
113.9751743169276
 21
199.1978049058736
 31
0.0
  0
LINE
  5
324
330
1F
100
AcDbEntity
  8
SK2
100
AcDbLine
 10
113.3449094498292
 20
198.4777374775646
 30
0.0
 11
114.0842012870464
 21
199.2170293147817
 31
0.0
  0
LINE
  5
325
330
1F
100
AcDbEntity
  8
SK2
100
AcDbLine
 10
113.4212509530014
 20
198.4642764195261
 30
0.0
 11
114.1181880377604
 21
199.1612135042851
 31
0.0
  0
LINE
  5
326
330
1F
100
AcDbEntity
  8
SK2
100
AcDbLine
 10
113.4975924561736
 20
198.4508153614876
 30
0.0
 11
114.1181883676225
 21
199.0714112729364
 31
0.0
  0
LINE
  5
327
330
1F
100
AcDbEntity
  8
SK2
100
AcDbLine
 10
113.5739339593458
 20
198.4373543034491
 30
0.0
 11
114.1181886974845
 21
198.9816090415877
 31
0.0
  0
LINE
  5
328
330
1F
100
AcDbEntity
  8
SK2
100
AcDbLine
 10
113.650275462518
 20
198.4238932454106
 30
0.0
 11
114.1181890273465
 21
198.8918068102391
 31
0.0
  0
LINE
  5
329
330
1F
100
AcDbEntity
  8
SK2
100
AcDbLine
 10
113.7266169656903
 20
198.4104321873721
 30
0.0
 11
114.1181893572085
 21
198.8020045788904
 31
0.0
  0
LINE
  5
32A
330
1F
100
AcDbEntity
  8
SK2
100
AcDbLine
 10
113.8029584688625
 20
198.3969711293337
 30
0.0
 11
114.1181896870706
 21
198.7122023475417
 31
0.0
  0
LINE
  5
32B
330
1F
100
AcDbEntity
  8
SK2
100
AcDbLine
 10
113.8792999720347
 20
198.3835100712952
 30
0.0
 11
114.1181900169325
 21
198.622400116193
 31
0.0
  0
LINE
  5
32C
330
1F
100
AcDbEntity
  8
SK2
100
AcDbLine
 10
113.9556414752069
 20
198.3700490132567
 30
0.0
 11
114.1181903467945
 21
198.5325978848443
 31
0.0
  0
LINE
  5
32D
330
1F
100
AcDbEntity
  8
SK2
100
AcDbLine
 10
114.0319829783791
 20
198.3565879552182
 30
0.0
 11
114.1181906766565
 21
198.4427956534957
 31
0.0
  0
LINE
  5
32E
330
1F
100
AcDbEntity
  8
SK2
100
AcDbLine
 10
114.1083244815513
 20
198.3431268971797
 30
0.0
 11
114.1181910065186
 21
198.352993422147
 31
0.0
  0
TEXT
  5
32F
330
1F
100
AcDbEntity
  8
SK2
100
AcDbText
 10
168.5544548116654
 20
200.3655376666666
 30
0.0
 40
3.5
  1
120
 41
0.75
  7
cesky
100
AcDbText
  0
LINE
  5
330
330
1F
100
AcDbEntity
  8
SK2
100
AcDbLine
 10
229.1181879070834
 20
212.0557012770516
 30
0.0
 11
229.1404884822662
 21
212.0780018522344
 31
0.0
  0
LINE
  5
331
330
1F
100
AcDbEntity
  8
SK2
100
AcDbLine
 10
229.1181882369454
 20
211.9658990457029
 30
0.0
 11
229.2168299854384
 21
212.0645407941959
 31
0.0
  0
LINE
  5
332
330
1F
100
AcDbEntity
  8
SK2
100
AcDbLine
 10
229.1181885668074
 20
211.8760968143543
 30
0.0
 11
229.2931714886106
 21
212.0510797361574
 31
0.0
  0
LINE
  5
333
330
1F
100
AcDbEntity
  8
SK2
100
AcDbLine
 10
229.1181888966695
 20
211.7862945830056
 30
0.0
 11
229.3695129917828
 21
212.0376186781189
 31
0.0
  0
LINE
  5
334
330
1F
100
AcDbEntity
  8
SK2
100
AcDbLine
 10
229.1181892265315
 20
211.6964923516569
 30
0.0
 11
229.445854494955
 21
212.0241576200804
 31
0.0
  0
LINE
  5
335
330
1F
100
AcDbEntity
  8
SK2
100
AcDbLine
 10
229.1181895563935
 20
211.6066901203082
 30
0.0
 11
229.5221959981273
 21
212.010696562042
 31
0.0
  0
LINE
  5
336
330
1F
100
AcDbEntity
  8
SK2
100
AcDbLine
 10
229.1181898862555
 20
211.5168878889595
 30
0.0
 11
229.5985375012994
 21
211.9972355040035
 31
0.0
  0
LINE
  5
337
330
1F
100
AcDbEntity
  8
SK2
100
AcDbLine
 10
229.1181902161175
 20
211.4270856576108
 30
0.0
 11
229.6748790044717
 21
211.983774445965
 31
0.0
  0
LINE
  5
338
330
1F
100
AcDbEntity
  8
SK2
100
AcDbLine
 10
229.1181905459795
 20
211.3372834262622
 30
0.0
 11
229.7512205076438
 21
211.9703133879265
 31
0.0
  0
LINE
  5
339
330
1F
100
AcDbEntity
  8
SK2
100
AcDbLine
 10
229.1181908758415
 20
211.2474811949136
 30
0.0
 11
229.8275620108161
 21
211.956852329888
 31
0.0
  0
LINE
  5
33A
330
1F
100
AcDbEntity
  8
SK2
100
AcDbLine
 10
229.1699353143275
 20
211.2094230721888
 30
0.0
 11
229.9039035139883
 21
211.9433912718495
 31
0.0
  0
LINE
  5
33B
330
1F
100
AcDbEntity
  8
SK2
100
AcDbLine
 10
229.2789622844463
 20
211.2286474810968
 30
0.0
 11
229.9802450171605
 21
211.9299302138111
 31
0.0
  0
LINE
  5
33C
330
1F
100
AcDbEntity
  8
SK2
100
AcDbLine
 10
229.387989254565
 20
211.2478718900049
 30
0.0
 11
230.0565865203327
 21
211.9164691557726
 31
0.0
  0
LINE
  5
33D
330
1F
100
AcDbEntity
  8
SK2
100
AcDbLine
 10
229.4970162246837
 20
211.267096298913
 30
0.0
 11
230.1329280235049
 21
211.9030080977341
 31
0.0
  0
LINE
  5
33E
330
1F
100
AcDbEntity
  8
SK2
100
AcDbLine
 10
229.6060431948025
 20
211.286320707821
 30
0.0
 11
230.2092695266771
 21
211.8895470396956
 31
0.0
  0
LINE
  5
33F
330
1F
100
AcDbEntity
  8
SK2
100
AcDbLine
 10
229.7150701649213
 20
211.3055451167291
 30
0.0
 11
230.2856110298493
 21
211.8760859816571
 31
0.0
  0
LINE
  5
340
330
1F
100
AcDbEntity
  8
SK2
100
AcDbLine
 10
229.82409713504
 20
211.3247695256371
 30
0.0
 11
230.3619525330216
 21
211.8626249236187
 31
0.0
  0
LINE
  5
341
330
1F
100
AcDbEntity
  8
SK2
100
AcDbLine
 10
229.9331241051588
 20
211.3439939345453
 30
0.0
 11
230.4382940361937
 21
211.8491638655802
 31
0.0
  0
LINE
  5
342
330
1F
100
AcDbEntity
  8
SK2
100
AcDbLine
 10
230.0421510752775
 20
211.3632183434533
 30
0.0
 11
230.5146355393659
 21
211.8357028075417
 31
0.0
  0
LINE
  5
343
330
1F
100
AcDbEntity
  8
SK2
100
AcDbLine
 10
230.1511780453963
 20
211.3824427523613
 30
0.0
 11
230.5909770425381
 21
211.8222417495032
 31
0.0
  0
LINE
  5
344
330
1F
100
AcDbEntity
  8
SK2
100
AcDbLine
 10
230.260205015515
 20
211.4016671612694
 30
0.0
 11
230.6673185457104
 21
211.8087806914647
 31
0.0
  0
LINE
  5
345
330
1F
100
AcDbEntity
  8
SK2
100
AcDbLine
 10
230.3692319856338
 20
211.4208915701775
 30
0.0
 11
230.7436600488826
 21
211.7953196334263
 31
0.0
  0
LINE
  5
346
330
1F
100
AcDbEntity
  8
SK2
100
AcDbLine
 10
230.4782589557526
 20
211.4401159790856
 30
0.0
 11
230.8200015520548
 21
211.7818585753878
 31
0.0
  0
LINE
  5
347
330
1F
100
AcDbEntity
  8
SK2
100
AcDbLine
 10
230.5872859258713
 20
211.4593403879936
 30
0.0
 11
230.896343055227
 21
211.7683975173493
 31
0.0
  0
LINE
  5
348
330
1F
100
AcDbEntity
  8
SK2
100
AcDbLine
 10
230.6963128959901
 20
211.4785647969017
 30
0.0
 11
230.9726845583992
 21
211.7549364593108
 31
0.0
  0
LINE
  5
349
330
1F
100
AcDbEntity
  8
SK2
100
AcDbLine
 10
230.8053398661089
 20
211.4977892058097
 30
0.0
 11
231.0490260615714
 21
211.7414754012723
 31
0.0
  0
LINE
  5
34A
330
1F
100
AcDbEntity
  8
SK2
100
AcDbLine
 10
230.9143668362276
 20
211.5170136147178
 30
0.0
 11
231.1253675647436
 21
211.7280143432338
 31
0.0
  0
LINE
  5
34B
330
1F
100
AcDbEntity
  8
SK2
100
AcDbLine
 10
231.0233938063463
 20
211.5362380236259
 30
0.0
 11
231.2017090679158
 21
211.7145532851953
 31
0.0
  0
LINE
  5
34C
330
1F
100
AcDbEntity
  8
SK2
100
AcDbLine
 10
231.1324207764652
 20
211.555462432534
 30
0.0
 11
231.278050571088
 21
211.7010922271568
 31
0.0
  0
LINE
  5
34D
330
1F
100
AcDbEntity
  8
SK2
100
AcDbLine
 10
231.2414477465839
 20
211.574686841442
 30
0.0
 11
231.3543920742602
 21
211.6876311691184
 31
0.0
  0
LINE
  5
34E
330
1F
100
AcDbEntity
  8
SK2
100
AcDbLine
 10
231.3504747167026
 20
211.5939112503501
 30
0.0
 11
231.4307335774325
 21
211.6741701110799
 31
0.0
  0
LINE
  5
34F
330
1F
100
AcDbEntity
  8
SK2
100
AcDbLine
 10
231.4595016868214
 20
211.6131356592581
 30
0.0
 11
231.5070750806047
 21
211.6607090530414
 31
0.0
  0
LINE
  5
350
330
1F
100
AcDbEntity
  8
SK2
100
AcDbLine
 10
231.5685286569401
 20
211.6323600681663
 30
0.0
 11
231.5834165837769
 21
211.6472479950029
 31
0.0
  0
LINE
  5
351
330
1F
100
AcDbEntity
  8
SK2
100
AcDbLine
 10
61.66294736049841
 20
211.633224582353
 30
0.0
 11
61.68211038191069
 21
211.6523876037653
 31
0.0
  0
LINE
  5
352
330
1F
100
AcDbEntity
  8
SK2
100
AcDbLine
 10
61.73928886367061
 20
211.6197635243146
 30
0.0
 11
61.79113735202943
 21
211.6716120126733
 31
0.0
  0
LINE
  5
353
330
1F
100
AcDbEntity
  8
SK2
100
AcDbLine
 10
61.81563036684281
 20
211.6063024662761
 30
0.0
 11
61.90016432214818
 21
211.6908364215814
 31
0.0
  0
LINE
  5
354
330
1F
100
AcDbEntity
  8
SK2
100
AcDbLine
 10
61.89197187001504
 20
211.5928414082376
 30
0.0
 11
62.00919129226694
 21
211.7100608304895
 31
0.0
  0
LINE
  5
355
330
1F
100
AcDbEntity
  8
SK2
100
AcDbLine
 10
61.96831337318724
 20
211.5793803501991
 30
0.0
 11
62.11821826238568
 21
211.7292852393975
 31
0.0
  0
LINE
  5
356
330
1F
100
AcDbEntity
  8
SK2
100
AcDbLine
 10
62.04465487635947
 20
211.5659192921606
 30
0.0
 11
62.22724523250445
 21
211.7485096483056
 31
0.0
  0
LINE
  5
357
330
1F
100
AcDbEntity
  8
SK2
100
AcDbLine
 10
62.12099637953167
 20
211.5524582341221
 30
0.0
 11
62.3362722026232
 21
211.7677340572137
 31
0.0
  0
LINE
  5
358
330
1F
100
AcDbEntity
  8
SK2
100
AcDbLine
 10
62.19733788270388
 20
211.5389971760837
 30
0.0
 11
62.44529917274199
 21
211.7869584661218
 31
0.0
  0
LINE
  5
359
330
1F
100
AcDbEntity
  8
SK2
100
AcDbLine
 10
62.27367938587612
 20
211.5255361180452
 30
0.0
 11
62.55432614286071
 21
211.8061828750299
 31
0.0
  0
LINE
  5
35A
330
1F
100
AcDbEntity
  8
SK2
100
AcDbLine
 10
62.35002088904832
 20
211.5120750600067
 30
0.0
 11
62.6633531129795
 21
211.8254072839379
 31
0.0
  0
LINE
  5
35B
330
1F
100
AcDbEntity
  8
SK2
100
AcDbLine
 10
62.42636239222052
 20
211.4986140019682
 30
0.0
 11
62.77238008309824
 21
211.8446316928459
 31
0.0
  0
LINE
  5
35C
330
1F
100
AcDbEntity
  8
SK2
100
AcDbLine
 10
62.50270389539275
 20
211.4851529439297
 30
0.0
 11
62.88140705321703
 21
211.863856101754
 31
0.0
  0
LINE
  5
35D
330
1F
100
AcDbEntity
  8
SK2
100
AcDbLine
 10
62.57904539856496
 20
211.4716918858912
 30
0.0
 11
62.99043402333577
 21
211.8830805106621
 31
0.0
  0
LINE
  5
35E
330
1F
100
AcDbEntity
  8
SK2
100
AcDbLine
 10
62.65538690173716
 20
211.4582308278528
 30
0.0
 11
63.09946099345452
 21
211.9023049195702
 31
0.0
  0
LINE
  5
35F
330
1F
100
AcDbEntity
  8
SK2
100
AcDbLine
 10
62.73172840490936
 20
211.4447697698143
 30
0.0
 11
63.20848796357329
 21
211.9215293284782
 31
0.0
  0
LINE
  5
360
330
1F
100
AcDbEntity
  8
SK2
100
AcDbLine
 10
62.80806990808156
 20
211.4313087117758
 30
0.0
 11
63.31751493369202
 21
211.9407537373863
 31
0.0
  0
LINE
  5
361
330
1F
100
AcDbEntity
  8
SK2
100
AcDbLine
 10
62.88441141125379
 20
211.4178476537373
 30
0.0
 11
63.42654190381082
 21
211.9599781462944
 31
0.0
  0
LINE
  5
362
330
1F
100
AcDbEntity
  8
SK2
100
AcDbLine
 10
62.96075291442599
 20
211.4043865956988
 30
0.0
 11
63.53556887392954
 21
211.9792025552024
 31
0.0
  0
LINE
  5
363
330
1F
100
AcDbEntity
  8
SK2
100
AcDbLine
 10
63.0370944175982
 20
211.3909255376604
 30
0.0
 11
63.64459584404831
 21
211.9984269641105
 31
0.0
  0
LINE
  5
364
330
1F
100
AcDbEntity
  8
SK2
100
AcDbLine
 10
63.1134359207704
 20
211.3774644796219
 30
0.0
 11
63.75362281416707
 21
212.0176513730186
 31
0.0
  0
LINE
  5
365
330
1F
100
AcDbEntity
  8
SK2
100
AcDbLine
 10
63.18977742394263
 20
211.3640034215834
 30
0.0
 11
63.86264978428581
 21
212.0368757819266
 31
0.0
  0
LINE
  5
366
330
1F
100
AcDbEntity
  8
SK2
100
AcDbLine
 10
63.26611892711482
 20
211.3505423635449
 30
0.0
 11
63.97167675440458
 21
212.0561001908347
 31
0.0
  0
LINE
  5
367
330
1F
100
AcDbEntity
  8
SK2
100
AcDbLine
 10
63.34246043028705
 20
211.3370813055064
 30
0.0
 11
64.08070372452337
 21
212.0753245997428
 31
0.0
  0
LINE
  5
368
330
1F
100
AcDbEntity
  8
SK2
100
AcDbLine
 10
63.41880193345925
 20
211.3236202474679
 30
0.0
 11
64.11818802717859
 21
212.0230063411873
 31
0.0
  0
LINE
  5
369
330
1F
100
AcDbEntity
  8
SK2
100
AcDbLine
 10
63.49514343663148
 20
211.3101591894295
 30
0.0
 11
64.11818835704059
 21
211.9332041098386
 31
0.0
  0
LINE
  5
36A
330
1F
100
AcDbEntity
  8
SK2
100
AcDbLine
 10
63.57148493980368
 20
211.296698131391
 30
0.0
 11
64.1181886869026
 21
211.8434018784899
 31
0.0
  0
LINE
  5
36B
330
1F
100
AcDbEntity
  8
SK2
100
AcDbLine
 10
63.64782644297588
 20
211.2832370733525
 30
0.0
 11
64.11818901676463
 21
211.7535996471413
 31
0.0
  0
LINE
  5
36C
330
1F
100
AcDbEntity
  8
SK2
100
AcDbLine
 10
63.72416794614808
 20
211.269776015314
 30
0.0
 11
64.11818934662663
 21
211.6637974157926
 31
0.0
  0
LINE
  5
36D
330
1F
100
AcDbEntity
  8
SK2
100
AcDbLine
 10
63.80050944932031
 20
211.2563149572756
 30
0.0
 11
64.11818967648864
 21
211.5739951844439
 31
0.0
  0
LINE
  5
36E
330
1F
100
AcDbEntity
  8
SK2
100
AcDbLine
 10
63.87685095249252
 20
211.2428538992371
 30
0.0
 11
64.11819000635067
 21
211.4841929530953
 31
0.0
  0
LINE
  5
36F
330
1F
100
AcDbEntity
  8
SK2
100
AcDbLine
 10
63.95319245566475
 20
211.2293928411986
 30
0.0
 11
64.11819033621267
 21
211.3943907217465
 31
0.0
  0
LINE
  5
370
330
1F
100
AcDbEntity
  8
SK2
100
AcDbLine
 10
64.02953395883695
 20
211.2159317831601
 30
0.0
 11
64.11819066607468
 21
211.3045884903979
 31
0.0
  0
LINE
  5
371
330
1F
100
AcDbEntity
  8
SK2
100
AcDbLine
 10
64.10587546200915
 20
211.2024707251217
 30
0.0
 11
64.11819099593668
 21
211.2147862590492
 31
0.0
  0
TEXT
  5
372
330
1F
100
AcDbEntity
  8
SK2
100
AcDbText
 10
143.5544548116654
 20
213.2244496666666
 30
0.0
 40
3.5
  1
170
 41
0.75
  7
cesky
100
AcDbText
  0
ENDSEC
  0
SECTION
  2
OBJECTS
  0
DICTIONARY
  5
C
330
0
100
AcDbDictionary
281
     1
  3
ACAD_CIP_PREVIOUS_PRODUCT_INFO
350
23A
  3
ACAD_COLOR
350
22F
  3
ACAD_DETAILVIEWSTYLE
350
235
  3
ACAD_GROUP
350
D
  3
ACAD_LAYOUT
350
1A
  3
ACAD_MATERIAL
350
43
  3
ACAD_MLEADERSTYLE
350
1F0
  3
ACAD_MLINESTYLE
350
17
  3
ACAD_PLOTSETTINGS
350
19
  3
ACAD_PLOTSTYLENAME
350
E
  3
ACAD_SCALELIST
350
47
  3
ACAD_SECTIONVIEWSTYLE
350
233
  3
ACAD_TABLESTYLE
350
230
  3
ACAD_VISUALSTYLE
350
2A
  3
ACDB_RECOMPOSE_DATA
350
3A1
  3
AcDbVariableDictionary
350
1EE
  3
DWGPROPS
350
3A2
  0
DICTIONARY
  5
37F
330
10
100
AcDbDictionary
280
     1
281
     1
  3
ADSK_XREC_LAYER_RECONCILED
360
380
  0
DICTIONARY
  5
381
330
373
100
AcDbDictionary
280
     1
281
     1
  3
ADSK_XREC_LAYER_RECONCILED
360
382
  0
DICTIONARY
  5
383
330
374
100
AcDbDictionary
280
     1
281
     1
  3
ADSK_XREC_LAYER_RECONCILED
360
384
  0
DICTIONARY
  5
385
330
375
100
AcDbDictionary
280
     1
281
     1
  3
ADSK_XREC_LAYER_RECONCILED
360
386
  0
DICTIONARY
  5
387
330
376
100
AcDbDictionary
280
     1
281
     1
  3
ADSK_XREC_LAYER_RECONCILED
360
388
  0
DICTIONARY
  5
389
330
377
100
AcDbDictionary
280
     1
281
     1
  3
ADSK_XREC_LAYER_RECONCILED
360
38A
  0
DICTIONARY
  5
38B
330
379
100
AcDbDictionary
280
     1
281
     1
  3
ADSK_XREC_LAYER_RECONCILED
360
38C
  0
DICTIONARY
  5
38D
330
37A
100
AcDbDictionary
280
     1
281
     1
  3
ADSK_XREC_LAYER_RECONCILED
360
38E
  0
DICTIONARY
  5
38F
330
37B
100
AcDbDictionary
280
     1
281
     1
  3
ADSK_XREC_LAYER_RECONCILED
360
390
  0
DICTIONARY
  5
391
330
37C
100
AcDbDictionary
280
     1
281
     1
  3
ADSK_XREC_LAYER_RECONCILED
360
392
  0
DICTIONARY
  5
393
330
37D
100
AcDbDictionary
280
     1
281
     1
  3
ADSK_XREC_LAYER_RECONCILED
360
394
  0
DICTIONARY
  5
395
330
37E
100
AcDbDictionary
280
     1
281
     1
  3
ADSK_XREC_LAYER_RECONCILED
360
396
  0
DICTIONARY
  5
25D
330
1F
100
AcDbDictionary
280
     1
281
     1
  3
ACAD_SORTENTS
360
25E
  0
XRECORD
  5
23A
102
{ACAD_REACTORS
330
C
102
}
330
C
100
AcDbXrecord
280
     1
300
AMECH_PP
300
2015
300
86266PDSP_2015_0F
  0
DICTIONARY
  5
22F
102
{ACAD_REACTORS
330
C
102
}
330
C
100
AcDbDictionary
281
     1
  0
DICTIONARY
  5
235
102
{ACAD_REACTORS
330
C
102
}
330
C
100
AcDbDictionary
281
     1
  3
Metric50
350
236
  0
DICTIONARY
  5
D
102
{ACAD_REACTORS
330
C
102
}
330
C
100
AcDbDictionary
281
     1
  3
ASSORTED_PARTS
350
1D6
  3
CENTERLINE
350
1D7
  3
DIMENSION
350
1D8
  3
DIMENSION4
350
1D9
  3
DIMENSION5
350
1DA
  3
DIMENSION6
350
1DB
  3
DIMENSION7
350
1DC
  0
DICTIONARY
  5
1A
102
{ACAD_REACTORS
330
C
102
}
330
C
100
AcDbDictionary
281
     1
  3
Layout1
350
1E
  3
Layout2
350
26
  3
Model
350
22
  0
DICTIONARY
  5
43
102
{ACAD_REACTORS
330
C
102
}
330
C
100
AcDbDictionary
281
     1
  3
ByBlock
350
45
  3
ByLayer
350
44
  3
Global
350
46
  0
DICTIONARY
  5
1F0
102
{ACAD_REACTORS
330
C
102
}
330
C
100
AcDbDictionary
281
     1
  3
Standard
350
232
  0
DICTIONARY
  5
17
102
{ACAD_REACTORS
330
C
102
}
330
C
100
AcDbDictionary
281
     1
  3
Standard
350
18
  0
DICTIONARY
  5
19
102
{ACAD_REACTORS
330
C
102
}
330
C
100
AcDbDictionary
281
     1
  0
ACDBDICTIONARYWDFLT
  5
E
102
{ACAD_REACTORS
330
C
102
}
330
C
100
AcDbDictionary
281
     1
  3
Normal
350
F
100
AcDbDictionaryWithDefault
340
F
  0
DICTIONARY
  5
47
102
{ACAD_REACTORS
330
C
102
}
330
C
100
AcDbDictionary
281
     1
  3
A0
350
48
  3
A1
350
49
  3
A2
350
4A
  3
A3
350
4B
  3
A4
350
4C
  3
A5
350
4D
  3
A6
350
4E
  3
A7
350
4F
  3
A8
350
50
  3
A9
350
51
  3
B0
350
52
  3
B1
350
53
  3
B2
350
54
  3
B3
350
55
  3
B4
350
56
  3
B5
350
57
  3
B6
350
58
  3
B7
350
59
  3
B8
350
5A
  3
B9
350
5B
  3
C0
350
5C
  3
C1
350
5D
  3
C2
350
5E
  3
C3
350
5F
  3
C4
350
60
  3
C5
350
61
  3
C6
350
62
  3
C7
350
63
  3
C8
350
64
  3
C9
350
65
  3
D0
350
66
  3
D1
350
67
  3
D2
350
68
  0
DICTIONARY
  5
233
102
{ACAD_REACTORS
330
C
102
}
330
C
100
AcDbDictionary
281
     1
  3
Metric50
350
234
  0
DICTIONARY
  5
230
102
{ACAD_REACTORS
330
C
102
}
330
C
100
AcDbDictionary
281
     1
  3
Standard
350
231
  0
DICTIONARY
  5
2A
102
{ACAD_REACTORS
330
C
102
}
330
C
100
AcDbDictionary
281
     1
  3
2dWireframe
350
2F
  3
Basic
350
32
  3
Brighten
350
36
  3
ColorChange
350
3A
  3
Conceptual
350
34
  3
Dim
350
35
  3
EdgeColorOff
350
3D
  3
Facepattern
350
39
  3
Flat
350
2B
  3
FlatWithEdges
350
2C
  3
Gouraud
350
2D
  3
GouraudWithEdges
350
2E
  3
Hidden
350
31
  3
JitterOff
350
3B
  3
Linepattern
350
38
  3
OverhangOff
350
3C
  3
Realistic
350
33
  3
Shaded
350
42
  3
Shaded with edges
350
41
  3
Shades of Gray
350
3E
  3
Sketchy
350
3F
  3
Thicken
350
37
  3
Wireframe
350
30
  3
X-Ray
350
40
  0
XRECORD
  5
3A1
102
{ACAD_REACTORS
330
C
102
}
330
C
100
AcDbXrecord
280
     1
 90
        1
330
231
  0
DICTIONARY
  5
1EE
102
{ACAD_REACTORS
330
C
102
}
330
C
100
AcDbDictionary
281
     1
  3
CANNOSCALE
350
1F5
  3
CMLEADERSTYLE
350
398
  3
CTABLESTYLE
350
397
  3
CVIEWDETAILSTYLE
350
399
  3
CVIEWSECTIONSTYLE
350
39A
  3
DIMASSOC
350
1F3
  3
HIDETEXT
350
1F4
  3
INDEXCTL
350
39C
  3
MSLTSCALE
350
1F6
  3
SORTENTS
350
39B
  3
XCLIPFRAME
350
39D
  0
XRECORD
  5
3A2
102
{ACAD_REACTORS
330
C
102
}
330
C
100
AcDbXrecord
280
     1
  1
DWGPROPS COOKIE
  2

  3

  4

  6

  7

  8
hm1535
  9

300
=
301
=
302
=
303
=
304
=
305
=
306
=
307
=
308
=
309
=
 40
0.0007008101851852
 41
2457903.431187489
 42
2457903.432538866
  1

 90
        0
  0
XRECORD
  5
380
102
{ACAD_REACTORS
330
37F
102
}
330
37F
100
AcDbXrecord
280
     1
290
     1
  0
XRECORD
  5
382
102
{ACAD_REACTORS
330
381
102
}
330
381
100
AcDbXrecord
280
     1
290
     1
  0
XRECORD
  5
384
102
{ACAD_REACTORS
330
383
102
}
330
383
100
AcDbXrecord
280
     1
290
     1
  0
XRECORD
  5
386
102
{ACAD_REACTORS
330
385
102
}
330
385
100
AcDbXrecord
280
     1
290
     1
  0
XRECORD
  5
388
102
{ACAD_REACTORS
330
387
102
}
330
387
100
AcDbXrecord
280
     1
290
     1
  0
XRECORD
  5
38A
102
{ACAD_REACTORS
330
389
102
}
330
389
100
AcDbXrecord
280
     1
290
     1
  0
XRECORD
  5
38C
102
{ACAD_REACTORS
330
38B
102
}
330
38B
100
AcDbXrecord
280
     1
290
     1
  0
XRECORD
  5
38E
102
{ACAD_REACTORS
330
38D
102
}
330
38D
100
AcDbXrecord
280
     1
290
     1
  0
XRECORD
  5
390
102
{ACAD_REACTORS
330
38F
102
}
330
38F
100
AcDbXrecord
280
     1
290
     1
  0
XRECORD
  5
392
102
{ACAD_REACTORS
330
391
102
}
330
391
100
AcDbXrecord
280
     1
290
     1
  0
XRECORD
  5
394
102
{ACAD_REACTORS
330
393
102
}
330
393
100
AcDbXrecord
280
     1
290
     1
  0
XRECORD
  5
396
102
{ACAD_REACTORS
330
395
102
}
330
395
100
AcDbXrecord
280
     1
290
     1
  0
SORTENTSTABLE
  5
25E
102
{ACAD_REACTORS
330
25D
102
}
330
25D
100
AcDbSortentsTable
330
1F
331
2B4
  5
251
331
2C5
  5
1A7
331
191
  5
191
331
180
  5
180
331
246
  5
30C
331
2D6
  5
1BE
331
257
  5
31D
331
2E8
  5
36E
331
2F9
  5
357
331
30A
  5
368
331
143
  5
143
331
132
  5
132
331
121
  5
121
331
110
  5
110
331
FF
  5
FF
331
31B
  5
334
331
274
  5
29F
331
154
  5
154
331
32C
  5
345
331
354
  5
2B7
331
285
  5
26B
331
165
  5
165
331
33D
  5
2E9
331
365
  5
2C8
331
296
  5
27C
331
2A7
  5
244
331
EF
  5
EF
331
DE
  5
DE
331
CD
  5
CD
331
BC
  5
BC
331
A3
  5
A3
331
9E
  5
9E
331
8D
  5
8D
331
2A8
  5
245
331
170
  5
170
331
1AB
  5
265
331
2B5
  5
252
331
2C6
  5
1A8
331
192
  5
192
331
181
  5
181
331
F0
  5
F0
331
247
  5
30D
331
2D7
  5
1BF
331
258
  5
31E
331
2D8
  5
1C0
331
2E9
  5
36F
331
2FA
  5
358
331
30B
  5
369
331
144
  5
144
331
133
  5
133
331
122
  5
122
331
111
  5
111
331
100
  5
100
331
31C
  5
335
331
275
  5
2A0
331
155
  5
155
331
32D
  5
346
331
355
  5
2B8
331
286
  5
26C
331
166
  5
166
331
33E
  5
2EA
331
366
  5
2C9
331
297
  5
27D
331
DF
  5
DF
331
CE
  5
CE
331
BD
  5
BD
331
A4
  5
A4
331
9F
  5
9F
331
8E
  5
8E
331
298
  5
27E
331
2A9
  5
246
331
171
  5
171
331
1AC
  5
266
331
2B6
  5
253
331
2C7
  5
1AB
331
193
  5
193
331
182
  5
182
331
F1
  5
F1
331
E0
  5
E0
331
248
  5
30E
331
259
  5
31F
331
2D9
  5
1C2
331
2EA
  5
370
331
2FB
  5
359
331
30C
  5
36A
331
145
  5
145
331
134
  5
134
331
123
  5
123
331
112
  5
112
331
101
  5
101
331
B0
  5
B0
331
31D
  5
336
331
276
  5
2A1
331
156
  5
156
331
32E
  5
347
331
356
  5
2B9
331
287
  5
26D
331
167
  5
167
331
33F
  5
2EB
331
367
  5
2CA
331
CF
  5
CF
331
BE
  5
BE
331
A5
  5
A5
331
8F
  5
8F
331
288
  5
26E
331
168
  5
168
331
340
  5
2EC
331
368
  5
2CB
331
299
  5
27F
331
2AA
  5
247
331
172
  5
172
331
1BE
  5
2FF
331
1AD
  5
267
331
2B7
  5
254
331
194
  5
194
331
183
  5
183
331
F2
  5
F2
331
E1
  5
E1
331
D0
  5
D0
331
2C8
  5
1AC
331
249
  5
30F
331
25A
  5
320
331
2DA
  5
1C3
331
2EB
  5
371
331
2FC
  5
35A
331
30D
  5
36B
331
146
  5
146
331
135
  5
135
331
124
  5
124
331
113
  5
113
331
102
  5
102
331
31E
  5
337
331
277
  5
2A2
331
157
  5
157
331
32F
  5
323
331
357
  5
2BA
331
BF
  5
BF
331
A6
  5
A6
331
90
  5
90
331
6F
  5
6F
331
278
  5
2A3
331
158
  5
158
331
330
  5
2D8
331
358
  5
2BB
331
289
  5
26F
331
169
  5
169
331
341
  5
2ED
331
369
  5
2CC
331
29A
  5
280
331
2AB
  5
248
331
173
  5
173
331
1BF
  5
300
331
2B8
  5
255
331
24A
  5
310
331
2C9
  5
1AD
331
195
  5
195
331
184
  5
184
331
F3
  5
F3
331
E2
  5
E2
331
D1
  5
D1
331
C0
  5
C0
331
25B
  5
321
331
2DB
  5
1C4
331
2EC
  5
372
331
2FD
  5
35B
331
30E
  5
327
331
147
  5
147
331
136
  5
136
331
125
  5
125
331
114
  5
114
331
103
  5
103
331
B2
  5
B2
331
31F
  5
338
331
A7
  5
A7
331
268
  5
293
331
148
  5
148
331
320
  5
339
331
348
  5
2F4
331
279
  5
2A4
331
159
  5
159
331
331
  5
2D9
331
359
  5
2BC
331
28A
  5
270
331
16A
  5
16A
331
342
  5
2EE
331
36A
  5
2CD
331
29B
  5
281
331
2AC
  5
249
331
174
  5
174
331
1C0
  5
301
331
1AF
  5
289
331
2B9
  5
256
331
196
  5
196
331
185
  5
185
331
F4
  5
F4
331
E3
  5
E3
331
D2
  5
D2
331
C1
  5
C1
331
A8
  5
A8
331
2CA
  5
1AF
331
24B
  5
311
331
25C
  5
322
331
2DC
  5
1C5
331
2ED
  5
34B
331
2FE
  5
35C
331
30F
  5
328
331
137
  5
137
331
126
  5
126
331
115
  5
115
331
104
  5
104
331
B3
  5
B3
331
92
  5
92
331
71
  5
71
331
310
  5
329
331
269
  5
294
331
149
  5
149
331
138
  5
138
331
321
  5
33A
331
349
  5
2F5
331
27A
  5
2A5
331
15A
  5
15A
331
332
  5
2DA
331
35A
  5
2BD
331
28B
  5
271
331
16B
  5
16B
331
343
  5
2EF
331
36B
  5
2CE
331
29C
  5
282
331
2AD
  5
24A
331
175
  5
175
331
1B0
  5
28A
331
2BA
  5
257
331
2CB
  5
1B0
331
197
  5
197
331
186
  5
186
331
F5
  5
F5
331
E4
  5
E4
331
D3
  5
D3
331
C2
  5
C2
331
A9
  5
A9
331
24C
  5
312
331
2DD
  5
1C6
331
2EE
  5
34C
331
2FF
  5
35D
331
127
  5
127
331
116
  5
116
331
105
  5
105
331
B4
  5
B4
331
93
  5
93
331
300
  5
35E
331
1C8
  5
349
331
311
  5
32A
331
26A
  5
295
331
14A
  5
14A
331
139
  5
139
331
128
  5
128
331
322
  5
33B
331
34A
  5
2F6
331
27B
  5
2A6
331
15B
  5
15B
331
333
  5
2DB
331
35B
  5
2BE
331
28C
  5
272
331
16C
  5
16C
331
344
  5
2F0
331
36C
  5
2CF
331
29D
  5
283
331
2AE
  5
24B
331
176
  5
176
331
1B1
  5
28B
331
2BB
  5
258
331
1A0
  5
1A0
331
187
  5
187
331
F6
  5
F6
331
E5
  5
E5
331
D4
  5
D4
331
C3
  5
C3
331
AA
  5
AA
331
23C
  5
302
331
2CC
  5
1B1
331
24D
  5
313
331
2DE
  5
1C7
331
2EF
  5
34D
331
117
  5
117
331
106
  5
106
331
B5
  5
B5
331
94
  5
94
331
73
  5
73
331
2F0
  5
34E
331
301
  5
35F
331
1C9
  5
34A
331
312
  5
32B
331
26B
  5
296
331
14B
  5
14B
331
13A
  5
13A
331
129
  5
129
331
118
  5
118
331
323
  5
33C
331
34B
  5
2F7
331
27C
  5
2A7
331
15C
  5
15C
331
334
  5
2DD
331
35C
  5
2BF
331
28D
  5
273
331
16D
  5
16D
331
345
  5
2F1
331
36D
  5
2D0
331
29E
  5
284
331
2AF
  5
24C
331
177
  5
177
331
1C3
  5
324
331
2BC
  5
259
331
188
  5
188
331
F7
  5
F7
331
E6
  5
E6
331
D5
  5
D5
331
C4
  5
C4
331
AB
  5
AB
331
23D
  5
303
331
2CD
  5
1B3
331
24E
  5
314
331
25F
  5
2FE
331
2DF
  5
1C8
331
107
  5
107
331
B6
  5
B6
331
95
  5
95
331
74
  5
74
331
260
  5
2FD
331
2E0
  5
1C9
331
2F1
  5
34F
331
302
  5
360
331
313
  5
32C
331
26C
  5
297
331
14C
  5
14C
331
13B
  5
13B
331
12A
  5
12A
331
119
  5
119
331
108
  5
108
331
324
  5
33D
331
34C
  5
2F8
331
27D
  5
2A8
331
15D
  5
15D
331
335
  5
2DE
331
35D
  5
2C0
331
28E
  5
274
331
16E
  5
16E
331
346
  5
2F2
331
36E
  5
2D1
331
29F
  5
285
331
1C4
  5
325
331
1A2
  5
1A3
331
2BD
  5
25A
331
189
  5
189
331
178
  5
178
331
E7
  5
E7
331
D6
  5
D6
331
C5
  5
C5
331
AC
  5
AC
331
23E
  5
304
331
2CE
  5
1B4
331
24F
  5
315
331
B7
  5
B7
331
96
  5
96
331
75
  5
75
331
250
  5
316
331
198
  5
198
331
261
  5
28C
331
2E1
  5
1CA
331
2F2
  5
350
331
303
  5
361
331
314
  5
32D
331
26D
  5
298
331
14D
  5
14D
331
13C
  5
13C
331
12B
  5
12B
331
11A
  5
11A
331
109
  5
109
331
F8
  5
F8
331
325
  5
33E
331
34D
  5
2F9
331
27E
  5
2A9
331
15E
  5
15E
331
336
  5
2DF
331
35E
  5
2C1
331
28F
  5
275
331
16F
  5
16F
331
347
  5
2F3
331
36F
  5
2D2
331
2A0
  5
286
331
1C5
  5
326
331
1B4
  5
2AF
331
1A3
  5
1A4
331
2BE
  5
25B
331
18A
  5
18A
331
179
  5
179
331
E8
  5
E8
331
D7
  5
D7
331
C6
  5
C6
331
AD
  5
AD
331
23F
  5
305
331
2CF
  5
1B5
331
97
  5
97
331
76
  5
76
331
240
  5
306
331
2D0
  5
1B6
331
251
  5
317
331
199
  5
199
331
262
  5
28D
331
2E2
  5
1D5
331
2F3
  5
351
331
304
  5
362
331
315
  5
32E
331
26E
  5
299
331
14E
  5
14E
331
13D
  5
13D
331
12C
  5
12C
331
11B
  5
11B
331
10A
  5
10A
331
F9
  5
F9
331
326
  5
33F
331
34E
  5
2FA
331
27F
  5
2AA
331
15F
  5
15F
331
337
  5
2E1
331
35F
  5
2C2
331
290
  5
276
331
370
  5
2D3
331
2A1
  5
287
331
1B5
  5
2B0
331
1A4
  5
1A6
331
2BF
  5
25C
331
18B
  5
18B
331
17A
  5
17A
331
E9
  5
E9
331
D8
  5
D8
331
C7
  5
C7
331
AE
  5
AE
331
98
  5
98
331
2C0
  5
25F
331
241
  5
307
331
2D1
  5
1B7
331
252
  5
318
331
19A
  5
19A
331
263
  5
28E
331
2E3
  5
23C
331
2F4
  5
352
331
305
  5
363
331
316
  5
32F
331
26F
  5
29A
331
14F
  5
14F
331
13E
  5
13E
331
12D
  5
12D
331
11C
  5
11C
331
10B
  5
10B
331
FA
  5
FA
331
327
  5
340
331
34F
  5
2FB
331
280
  5
2AB
331
160
  5
160
331
338
  5
2E2
331
360
  5
2C3
331
291
  5
277
331
371
  5
2D4
331
2A2
  5
288
331
1C7
  5
348
331
1B6
  5
2B2
331
18C
  5
18C
331
17B
  5
17B
331
EA
  5
EA
331
D9
  5
D9
331
C8
  5
C8
331
AF
  5
AF
331
99
  5
99
331
2C1
  5
260
331
2B0
  5
24D
331
242
  5
308
331
2D2
  5
1B8
331
253
  5
319
331
19B
  5
19B
331
264
  5
28F
331
2E4
  5
23D
331
2F5
  5
353
331
306
  5
364
331
13F
  5
13F
331
12E
  5
12E
331
11D
  5
11D
331
10C
  5
10C
331
FB
  5
FB
331
9A
  5
9A
331
89
  5
89
331
317
  5
330
331
270
  5
29B
331
150
  5
150
331
328
  5
341
331
350
  5
2FC
331
281
  5
2AC
331
161
  5
161
331
339
  5
2E3
331
361
  5
2C4
331
292
  5
278
331
372
  5
2AE
331
2A3
  5
264
331
1A6
  5
23E
331
18D
  5
18D
331
17C
  5
17C
331
EB
  5
EB
331
DA
  5
DA
331
C9
  5
C9
331
B8
  5
B8
331
87
  5
87
331
1B8
  5
2D5
331
2C2
  5
261
331
2B1
  5
24E
331
243
  5
309
331
2D3
  5
1B9
331
254
  5
31A
331
19C
  5
19C
331
265
  5
290
331
2E5
  5
1A2
331
2F6
  5
354
331
307
  5
365
331
140
  5
140
331
12F
  5
12F
331
11E
  5
11E
331
10D
  5
10D
331
FC
  5
FC
331
318
  5
331
331
271
  5
29C
331
151
  5
151
331
329
  5
342
331
351
  5
2B3
331
282
  5
268
331
162
  5
162
331
33A
  5
2E6
331
362
  5
2C5
331
293
  5
279
331
2A4
  5
241
331
1A7
  5
23F
331
18E
  5
18E
331
17D
  5
17D
331
EC
  5
EC
331
DB
  5
DB
331
CA
  5
CA
331
B9
  5
B9
331
A0
  5
A0
331
9B
  5
9B
331
8A
  5
8A
331
1B9
  5
2D6
331
1A8
  5
240
331
2C3
  5
262
331
2B2
  5
24F
331
244
  5
30A
331
2D4
  5
1BA
331
255
  5
31B
331
19D
  5
19D
331
2E6
  5
36C
331
266
  5
291
331
2F7
  5
355
331
308
  5
366
331
141
  5
141
331
130
  5
130
331
11F
  5
11F
331
10E
  5
10E
331
FD
  5
FD
331
319
  5
332
331
272
  5
29D
331
152
  5
152
331
32A
  5
343
331
352
  5
2B4
331
283
  5
269
331
163
  5
163
331
33B
  5
2E7
331
363
  5
2C6
331
294
  5
27A
331
2A5
  5
242
331
18F
  5
18F
331
17E
  5
17E
331
ED
  5
ED
331
DC
  5
DC
331
CB
  5
CB
331
BA
  5
BA
331
A1
  5
A1
331
8B
  5
8B
331
1BA
  5
2D7
331
2C4
  5
263
331
2B3
  5
250
331
190
  5
190
331
245
  5
30B
331
2D5
  5
1BB
331
256
  5
31C
331
19E
  5
19E
331
2E7
  5
36D
331
267
  5
292
331
2F8
  5
356
331
309
  5
367
331
142
  5
142
331
131
  5
131
331
120
  5
120
331
10F
  5
10F
331
FE
  5
FE
331
31A
  5
333
331
273
  5
29E
331
153
  5
153
331
32B
  5
344
331
353
  5
2B6
331
284
  5
26A
331
164
  5
164
331
33C
  5
2E8
331
364
  5
2C7
331
295
  5
27B
331
2A6
  5
243
331
17F
  5
17F
331
EE
  5
EE
331
DD
  5
DD
331
CC
  5
CC
331
BB
  5
BB
331
A2
  5
A2
331
9D
  5
9D
331
8C
  5
8C
  0
ACDBDETAILVIEWSTYLE
  5
236
102
{ACAD_XDICTIONARY
360
3DD
102
}
102
{ACAD_REACTORS
330
235
102
}
330
235
100
AcDbModelDocViewStyle
 70
     0
  3
Metric50
290
     0
100
AcDbDetailViewStyle
 70
     0
 71
     0
 90
        3
 71
     1
340
11
 40
5.0
340
0
 40
5.0
300

 40
0.0
280
     1
 71
     2
340
16
 90
       25
 71
     3
340
11
 40
5.0
 90
        0
 40
15.0
 90
        1
300
%<\AcVar ViewDetailId>% (%<\AcVar ViewScale \f "%sn">%)
 71
     4
340
16
 90
       25
340
16
 90
       25
280
     0
  0
GROUP
  5
1D6
102
{ACAD_REACTORS
330
D
102
}
330
D
100
AcDbGroup
300

 70
     0
 71
     1
340
C6
340
C7
  0
GROUP
  5
1D7
102
{ACAD_REACTORS
330
D
102
}
330
D
100
AcDbGroup
300

 70
     0
 71
     1
340
C8
340
C9
  0
GROUP
  5
1D8
102
{ACAD_REACTORS
330
D
102
}
330
D
100
AcDbGroup
300

 70
     0
 71
     1
340
CA
340
CB
340
CC
  0
GROUP
  5
1D9
102
{ACAD_REACTORS
330
D
102
}
330
D
100
AcDbGroup
300

 70
     0
 71
     1
340
D3
340
D4
340
D5
  0
GROUP
  5
1DA
102
{ACAD_REACTORS
330
D
102
}
330
D
100
AcDbGroup
300

 70
     0
 71
     1
340
DC
340
DD
340
DE
  0
GROUP
  5
1DB
102
{ACAD_REACTORS
330
D
102
}
330
D
100
AcDbGroup
300

 70
     0
 71
     1
340
E5
340
E6
  0
GROUP
  5
1DC
102
{ACAD_REACTORS
330
D
102
}
330
D
100
AcDbGroup
300

 70
     0
 71
     1
340
EA
340
EB
340
EC
  0
LAYOUT
  5
1E
102
{ACAD_XDICTIONARY
360
3A3
102
}
102
{ACAD_REACTORS
330
1A
102
}
330
1A
100
AcDbPlotSettings
  1

  2
none_device
  4

  6

 40
0.0
 41
0.0
 42
0.0
 43
0.0
 44
0.0
 45
0.0
 46
0.0
 47
0.0
 48
0.0
 49
0.0
140
0.0
141
0.0
142
1.0
143
1.0
 70
   688
 72
     0
 73
     0
 74
     5
  7

 75
    16
147
1.0
148
0.0
149
0.0
100
AcDbLayout
  1
Layout1
 70
     1
 71
     1
 10
-0.5
 20
-0.5
 11
5.0
 21
5.0
 12
0.0
 22
0.0
 32
0.0
 14
-0.5
 24
-0.5
 34
-0.5
 15
5.0
 25
5.0
 35
5.0
146
0.0
 13
0.0
 23
0.0
 33
0.0
 16
1.0
 26
0.0
 36
0.0
 17
0.0
 27
1.0
 37
0.0
 76
     0
330
1B
  0
LAYOUT
  5
26
102
{ACAD_XDICTIONARY
360
3A7
102
}
102
{ACAD_REACTORS
330
1A
102
}
330
1A
100
AcDbPlotSettings
  1

  2
none_device
  4

  6

 40
0.0
 41
0.0
 42
0.0
 43
0.0
 44
0.0
 45
0.0
 46
0.0
 47
0.0
 48
0.0
 49
0.0
140
0.0
141
0.0
142
1.0
143
1.0
 70
   688
 72
     0
 73
     0
 74
     5
  7

 75
    16
147
1.0
148
0.0
149
0.0
100
AcDbLayout
  1
Layout2
 70
     1
 71
     2
 10
0.0
 20
0.0
 11
0.0
 21
0.0
 12
0.0
 22
0.0
 32
0.0
 14
0.0
 24
0.0
 34
0.0
 15
0.0
 25
0.0
 35
0.0
146
0.0
 13
0.0
 23
0.0
 33
0.0
 16
1.0
 26
0.0
 36
0.0
 17
0.0
 27
1.0
 37
0.0
 76
     0
330
23
  0
LAYOUT
  5
22
102
{ACAD_XDICTIONARY
360
3A5
102
}
102
{ACAD_REACTORS
330
1A
102
}
330
1A
100
AcDbPlotSettings
  1

  2
none_device
  4
Letter_(8.50_x_11.00_Inches)
  6

 40
6.349999999999999
 41
6.349999999999999
 42
6.350005
 43
6.350005
 44
215.9
 45
279.4
 46
0.0
 47
0.0
 48
0.0
 49
0.0
140
0.0
141
0.0
142
1.0
143
1.0
 70
  1712
 72
     0
 73
     0
 74
     0
  7

 75
     0
147
1.0
148
0.0
149
0.0
100
AcDbLayout
  1
Model
 70
     1
 71
     0
 10
-0.5
 20
-0.5
 11
5.0
 21
5.0
 12
0.0
 22
0.0
 32
0.0
 14
-0.5
 24
-0.5
 34
-0.5
 15
5.0
 25
5.0
 35
5.0
146
0.0
 13
0.0
 23
0.0
 33
0.0
 16
1.0
 26
0.0
 36
0.0
 17
0.0
 27
1.0
 37
0.0
 76
     0
330
1F
331
1DD
  0
MATERIAL
  5
45
102
{ACAD_XDICTIONARY
360
229
102
}
102
{ACAD_REACTORS
330
43
102
}
330
43
100
AcDbMaterial
  1
ByBlock
  0
MATERIAL
  5
44
102
{ACAD_XDICTIONARY
360
227
102
}
102
{ACAD_REACTORS
330
43
102
}
330
43
100
AcDbMaterial
  1
ByLayer
  0
MATERIAL
  5
46
102
{ACAD_XDICTIONARY
360
22B
102
}
102
{ACAD_REACTORS
330
43
102
}
330
43
100
AcDbMaterial
  1
Global
  0
MLEADERSTYLE
  5
232
102
{ACAD_REACTORS
330
1F0
102
}
330
1F0
100
AcDbMLeaderStyle
170
     2
171
     1
172
     0
 90
        2
 40
0.0
 41
0.0
173
     1
 91
-1056964608
340
14
 92
       -2
290
     1
 42
2.0
291
     1
 43
0.36
  3
Standard
 44
4.0
300

342
11
174
     1
178
     6
175
     1
176
     0
 93
-1056964608
 45
4.0
292
     0
297
     0
 46
4.0
 94
-1056964608
 47
1.0
 49
1.0
140
1.0
293
     1
141
0.0
294
     1
177
     0
142
1.0
295
     0
296
     0
143
0.125
1001
ACAD_MLEADERVER
1070
     2
  0
MLINESTYLE
  5
18
102
{ACAD_REACTORS
330
17
102
}
330
17
100
AcDbMlineStyle
  2
STANDARD
 70
     0
  3

 62
   256
 51
90.0
 52
90.0
 71
     2
 49
0.5
 62
   256
  6
BYLAYER
 49
-0.5
 62
   256
  6
BYLAYER
  0
ACDBPLACEHOLDER
  5
F
102
{ACAD_REACTORS
330
E
102
}
330
E
  0
SCALE
  5
48
102
{ACAD_REACTORS
330
47
102
}
330
47
100
AcDbScale
 70
     0
300
1:1
140
1.0
141
1.0
290
     1
  0
SCALE
  5
49
102
{ACAD_REACTORS
330
47
102
}
330
47
100
AcDbScale
 70
     0
300
1:2
140
1.0
141
2.0
290
     0
  0
SCALE
  5
4A
102
{ACAD_REACTORS
330
47
102
}
330
47
100
AcDbScale
 70
     0
300
1:4
140
1.0
141
4.0
290
     0
  0
SCALE
  5
4B
102
{ACAD_REACTORS
330
47
102
}
330
47
100
AcDbScale
 70
     0
300
1:5
140
1.0
141
5.0
290
     0
  0
SCALE
  5
4C
102
{ACAD_REACTORS
330
47
102
}
330
47
100
AcDbScale
 70
     0
300
1:8
140
1.0
141
8.0
290
     0
  0
SCALE
  5
4D
102
{ACAD_REACTORS
330
47
102
}
330
47
100
AcDbScale
 70
     0
300
1:10
140
1.0
141
10.0
290
     0
  0
SCALE
  5
4E
102
{ACAD_REACTORS
330
47
102
}
330
47
100
AcDbScale
 70
     0
300
1:16
140
1.0
141
16.0
290
     0
  0
SCALE
  5
4F
102
{ACAD_REACTORS
330
47
102
}
330
47
100
AcDbScale
 70
     0
300
1:20
140
1.0
141
20.0
290
     0
  0
SCALE
  5
50
102
{ACAD_REACTORS
330
47
102
}
330
47
100
AcDbScale
 70
     0
300
1:30
140
1.0
141
30.0
290
     0
  0
SCALE
  5
51
102
{ACAD_REACTORS
330
47
102
}
330
47
100
AcDbScale
 70
     0
300
1:40
140
1.0
141
40.0
290
     0
  0
SCALE
  5
52
102
{ACAD_REACTORS
330
47
102
}
330
47
100
AcDbScale
 70
     0
300
1:50
140
1.0
141
50.0
290
     0
  0
SCALE
  5
53
102
{ACAD_REACTORS
330
47
102
}
330
47
100
AcDbScale
 70
     0
300
1:100
140
1.0
141
100.0
290
     0
  0
SCALE
  5
54
102
{ACAD_REACTORS
330
47
102
}
330
47
100
AcDbScale
 70
     0
300
2:1
140
2.0
141
1.0
290
     0
  0
SCALE
  5
55
102
{ACAD_REACTORS
330
47
102
}
330
47
100
AcDbScale
 70
     0
300
4:1
140
4.0
141
1.0
290
     0
  0
SCALE
  5
56
102
{ACAD_REACTORS
330
47
102
}
330
47
100
AcDbScale
 70
     0
300
8:1
140
8.0
141
1.0
290
     0
  0
SCALE
  5
57
102
{ACAD_REACTORS
330
47
102
}
330
47
100
AcDbScale
 70
     0
300
10:1
140
10.0
141
1.0
290
     0
  0
SCALE
  5
58
102
{ACAD_REACTORS
330
47
102
}
330
47
100
AcDbScale
 70
     0
300
100:1
140
100.0
141
1.0
290
     0
  0
SCALE
  5
59
102
{ACAD_REACTORS
330
47
102
}
330
47
100
AcDbScale
 70
     0
300
1/128" = 1'-0"
140
0.007812
141
12.0
290
     0
  0
SCALE
  5
5A
102
{ACAD_REACTORS
330
47
102
}
330
47
100
AcDbScale
 70
     0
300
1/64" = 1'-0"
140
0.015625
141
12.0
290
     0
  0
SCALE
  5
5B
102
{ACAD_REACTORS
330
47
102
}
330
47
100
AcDbScale
 70
     0
300
1/32" = 1'-0"
140
0.03125
141
12.0
290
     0
  0
SCALE
  5
5C
102
{ACAD_REACTORS
330
47
102
}
330
47
100
AcDbScale
 70
     0
300
1/16" = 1'-0"
140
0.0625
141
12.0
290
     0
  0
SCALE
  5
5D
102
{ACAD_REACTORS
330
47
102
}
330
47
100
AcDbScale
 70
     0
300
3/32" = 1'-0"
140
0.09375
141
12.0
290
     0
  0
SCALE
  5
5E
102
{ACAD_REACTORS
330
47
102
}
330
47
100
AcDbScale
 70
     0
300
1/8" = 1'-0"
140
0.125
141
12.0
290
     0
  0
SCALE
  5
5F
102
{ACAD_REACTORS
330
47
102
}
330
47
100
AcDbScale
 70
     0
300
3/16" = 1'-0"
140
0.1875
141
12.0
290
     0
  0
SCALE
  5
60
102
{ACAD_REACTORS
330
47
102
}
330
47
100
AcDbScale
 70
     0
300
1/4" = 1'-0"
140
0.25
141
12.0
290
     0
  0
SCALE
  5
61
102
{ACAD_REACTORS
330
47
102
}
330
47
100
AcDbScale
 70
     0
300
3/8" = 1'-0"
140
0.375
141
12.0
290
     0
  0
SCALE
  5
62
102
{ACAD_REACTORS
330
47
102
}
330
47
100
AcDbScale
 70
     0
300
1/2" = 1'-0"
140
0.5
141
12.0
290
     0
  0
SCALE
  5
63
102
{ACAD_REACTORS
330
47
102
}
330
47
100
AcDbScale
 70
     0
300
3/4" = 1'-0"
140
0.75
141
12.0
290
     0
  0
SCALE
  5
64
102
{ACAD_REACTORS
330
47
102
}
330
47
100
AcDbScale
 70
     0
300
1" = 1'-0"
140
1.0
141
12.0
290
     0
  0
SCALE
  5
65
102
{ACAD_REACTORS
330
47
102
}
330
47
100
AcDbScale
 70
     0
300
1-1/2" = 1'-0"
140
1.5
141
12.0
290
     0
  0
SCALE
  5
66
102
{ACAD_REACTORS
330
47
102
}
330
47
100
AcDbScale
 70
     0
300
3" = 1'-0"
140
3.0
141
12.0
290
     0
  0
SCALE
  5
67
102
{ACAD_REACTORS
330
47
102
}
330
47
100
AcDbScale
 70
     0
300
6" = 1'-0"
140
6.0
141
12.0
290
     0
  0
SCALE
  5
68
102
{ACAD_REACTORS
330
47
102
}
330
47
100
AcDbScale
 70
     0
300
1'-0" = 1'-0"
140
12.0
141
12.0
290
     0
  0
ACDBSECTIONVIEWSTYLE
  5
234
102
{ACAD_XDICTIONARY
360
3DB
102
}
102
{ACAD_REACTORS
330
233
102
}
330
233
100
AcDbModelDocViewStyle
 70
     0
  3
Metric50
290
     0
100
AcDbSectionViewStyle
 70
     0
 71
     0
 90
      102
 71
     1
340
11
 40
5.0
340
0
340
0
 40
5.0
300
I, O, Q, S, X, Z
 40
10.0
 90
        0
 40
2.5
 90
        0
 71
     2
340
16
 90
       25
340
16
 90
       50
 40
5.0
 40
2.5
 40
5.0
 71
     3
340
11
 40
5.0
 90
        0
 40
15.0
 90
        1
300
%<\AcVar ViewSectionStartId>%-%<\AcVar ViewSectionEndId>% (%<\AcVar ViewScale \f "%sn">%)
 71
     4
300
ANSI31
 40
1.0
 90
        0
290
     0
290
     0
 90
        6
 40
0.0
 40
1.570796326794896
 40
0.2617993877991494
 40
1.308996938995747
 40
-0.2617993877991494
 40
1.832595714594046
  0
TABLESTYLE
  5
231
102
{ACAD_XDICTIONARY
360
39F
102
}
102
{ACAD_REACTORS
330
230
102
}
330
230
100
AcDbTableStyle
  3
Standard
 70
     0
 71
     0
 40
1.5
 41
1.5
280
     0
281
     0
  7
Standard
140
4.5
170
     2
 62
     0
 63
     7
283
     0
274
    -2
284
     1
 64
     0
275
    -2
285
     1
 65
     0
276
    -2
286
     1
 66
     0
277
    -2
287
     1
 67
     0
278
    -2
288
     1
 68
     0
279
    -2
289
     1
 69
     0
  7
Standard
140
6.0
170
     5
 62
     0
 63
     7
283
     0
274
    -2
284
     1
 64
     0
275
    -2
285
     1
 65
     0
276
    -2
286
     1
 66
     0
277
    -2
287
     1
 67
     0
278
    -2
288
     1
 68
     0
279
    -2
289
     1
 69
     0
  7
Standard
140
4.5
170
     5
 62
     0
 63
     7
283
     0
274
    -2
284
     1
 64
     0
275
    -2
285
     1
 65
     0
276
    -2
286
     1
 66
     0
277
    -2
287
     1
 67
     0
278
    -2
288
     1
 68
     0
279
    -2
289
     1
 69
     0
  0
VISUALSTYLE
  5
2F
102
{ACAD_XDICTIONARY
360
3B1
102
}
102
{ACAD_REACTORS
330
2A
102
}
330
2A
100
AcDbVisualStyle
  2

 70
     4
 71
     0
 72
     2
 73
     0
 90
        0
 40
-0.6
 41
-30.0
 62
     5
 63
     7
 74
     1
 91
        4
 64
     7
 65
   257
 75
     1
175
     1
 42
1.0
 92
        0
 66
   257
 43
1.0
 76
     1
 77
     6
 78
     2
 67
     7
 79
     5
170
     0
171
     0
290
     0
174
     0
 93
        1
 44
0.0
173
     0
291
     0
 45
0.0
1001
ACAD
1000
AcDbSavedByObjectVersion
1070
     0
  0
VISUALSTYLE
  5
32
102
{ACAD_XDICTIONARY
360
3B7
102
}
102
{ACAD_REACTORS
330
2A
102
}
330
2A
100
AcDbVisualStyle
  2

 70
     7
 71
     1
 72
     0
 73
     1
 90
        0
 40
-0.6
 41
-30.0
 62
     5
 63
     7
 74
     0
 91
        4
 64
     7
 65
   257
 75
     1
175
     1
 42
1.0
 92
        8
 66
     7
 43
1.0
 76
     1
 77
     6
 78
     2
 67
     7
 79
     5
170
     0
171
     0
290
     0
174
     0
 93
        1
 44
0.0
173
     0
291
     1
 45
0.0
1001
ACAD
1000
AcDbSavedByObjectVersion
1070
     0
  0
VISUALSTYLE
  5
36
102
{ACAD_XDICTIONARY
360
3BF
102
}
102
{ACAD_REACTORS
330
2A
102
}
330
2A
100
AcDbVisualStyle
  2

 70
    12
 71
     2
 72
     2
 73
     0
 90
        0
 40
-0.6
 41
-30.0
 62
     5
 63
     7
 74
     1
 91
        4
 64
     7
 65
   257
 75
     1
175
     1
 42
1.0
 92
        8
 66
     7
 43
1.0
 76
     1
 77
     6
 78
     2
 67
     7
 79
     5
170
     0
171
     0
290
     0
174
     0
 93
        1
 44
50.0
173
     0
291
     1
 45
0.0
1001
ACAD
1000
AcDbSavedByObjectVersion
1070
     0
  0
VISUALSTYLE
  5
3A
102
{ACAD_XDICTIONARY
360
3C7
102
}
102
{ACAD_REACTORS
330
2A
102
}
330
2A
100
AcDbVisualStyle
  2

 70
    16
 71
     2
 72
     2
 73
     3
 90
        0
 40
-0.6
 41
-30.0
 62
     5
 63
     8
 74
     1
 91
        4
 64
     7
 65
   257
 75
     1
175
     1
 42
1.0
 92
        8
 66
     8
 43
1.0
 76
     1
 77
     6
 78
     2
 67
     7
 79
     5
170
     0
171
     0
290
     0
174
     0
 93
        1
 44
0.0
173
     0
291
     1
 45
0.0
1001
ACAD
1000
AcDbSavedByObjectVersion
1070
     0
  0
VISUALSTYLE
  5
34
102
{ACAD_XDICTIONARY
360
3BB
102
}
102
{ACAD_REACTORS
330
2A
102
}
330
2A
100
AcDbVisualStyle
  2

 70
     9
 71
     3
 72
     2
 73
     0
 90
        0
 40
-0.6
 41
-30.0
 62
     5
 63
     7
 74
     2
 91
        2
 64
     7
 65
   257
 75
     1
175
     1
 42
179.0
 92
        8
 66
     7
 43
1.0
 76
     1
 77
     6
 78
     2
 67
     7
 79
     3
170
     0
171
     0
290
     0
174
     0
 93
        1
 44
0.0
173
     0
291
     0
 45
0.0
1001
ACAD
1000
AcDbSavedByObjectVersion
1070
     0
  0
VISUALSTYLE
  5
35
102
{ACAD_XDICTIONARY
360
3BD
102
}
102
{ACAD_REACTORS
330
2A
102
}
330
2A
100
AcDbVisualStyle
  2

 70
    11
 71
     2
 72
     2
 73
     0
 90
        0
 40
-0.6
 41
-30.0
 62
     5
 63
     7
 74
     1
 91
        4
 64
     7
 65
   257
 75
     1
175
     1
 42
1.0
 92
        8
 66
     7
 43
1.0
 76
     1
 77
     6
 78
     2
 67
     7
 79
     5
170
     0
171
     0
290
     0
174
     0
 93
        1
 44
-50.0
173
     0
291
     1
 45
0.0
1001
ACAD
1000
AcDbSavedByObjectVersion
1070
     0
  0
VISUALSTYLE
  5
3D
102
{ACAD_XDICTIONARY
360
3CD
102
}
102
{ACAD_REACTORS
330
2A
102
}
330
2A
100
AcDbVisualStyle
  2

 70
    22
 71
     2
 72
     2
 73
     0
 90
        0
 40
-0.6
 41
-30.0
 62
     5
 63
     7
 74
     1
 91
        4
 64
     7
 65
   257
 75
     1
175
     1
 42
1.0
 92
        8
 66
     7
 43
1.0
 76
     1
 77
     6
 78
     2
 67
     7
 79
     5
170
     0
171
     0
290
     0
174
     0
 93
        1
 44
0.0
173
     0
291
     1
 45
0.0
1001
ACAD
1000
AcDbSavedByObjectVersion
1070
     0
  0
VISUALSTYLE
  5
39
102
{ACAD_XDICTIONARY
360
3C5
102
}
102
{ACAD_REACTORS
330
2A
102
}
330
2A
100
AcDbVisualStyle
  2

 70
    15
 71
     2
 72
     2
 73
     0
 90
        0
 40
-0.6
 41
-30.0
 62
     5
 63
     7
 74
     1
 91
        4
 64
     7
 65
   257
 75
     1
175
     1
 42
1.0
 92
        8
 66
     7
 43
1.0
 76
     1
 77
     6
 78
     2
 67
     7
 79
     5
170
     0
171
     0
290
     0
174
     0
 93
        1
 44
0.0
173
     0
291
     1
 45
0.0
1001
ACAD
1000
AcDbSavedByObjectVersion
1070
     0
  0
VISUALSTYLE
  5
2B
102
{ACAD_XDICTIONARY
360
3A9
102
}
102
{ACAD_REACTORS
330
2A
102
}
330
2A
100
AcDbVisualStyle
  2

 70
     0
 71
     2
 72
     1
 73
     1
 90
        2
 40
-0.6
 41
30.0
 62
     5
 63
     7
 74
     0
 91
        0
 64
     7
 65
   257
 75
     1
175
     1
 42
1.0
 92
        8
 66
     7
 43
1.0
 76
     1
 77
     6
 78
     2
 67
     7
 79
     5
170
     0
171
     0
290
     0
174
     0
 93
       13
 44
0.0
173
     0
291
     1
 45
0.0
1001
ACAD
1000
AcDbSavedByObjectVersion
1070
     0
  0
VISUALSTYLE
  5
2C
102
{ACAD_XDICTIONARY
360
3AB
102
}
102
{ACAD_REACTORS
330
2A
102
}
330
2A
100
AcDbVisualStyle
  2

 70
     1
 71
     2
 72
     1
 73
     1
 90
        2
 40
-0.6
 41
30.0
 62
     5
 63
     7
 74
     1
 91
        0
 64
     7
 65
   257
 75
     1
175
     1
 42
1.0
 92
        0
 66
   257
 43
1.0
 76
     1
 77
     6
 78
     2
 67
     7
 79
     5
170
     0
171
     0
290
     0
174
     0
 93
       13
 44
0.0
173
     0
291
     1
 45
0.0
1001
ACAD
1000
AcDbSavedByObjectVersion
1070
     0
  0
VISUALSTYLE
  5
2D
102
{ACAD_XDICTIONARY
360
3AD
102
}
102
{ACAD_REACTORS
330
2A
102
}
330
2A
100
AcDbVisualStyle
  2

 70
     2
 71
     2
 72
     2
 73
     1
 90
        2
 40
-0.6
 41
30.0
 62
     5
 63
     7
 74
     0
 91
        0
 64
     7
 65
   257
 75
     1
175
     1
 42
1.0
 92
        0
 66
     7
 43
1.0
 76
     1
 77
     6
 78
     2
 67
     7
 79
     5
170
     0
171
     0
290
     0
174
     0
 93
       13
 44
0.0
173
     0
291
     1
 45
0.0
1001
ACAD
1000
AcDbSavedByObjectVersion
1070
     0
  0
VISUALSTYLE
  5
2E
102
{ACAD_XDICTIONARY
360
3AF
102
}
102
{ACAD_REACTORS
330
2A
102
}
330
2A
100
AcDbVisualStyle
  2

 70
     3
 71
     2
 72
     2
 73
     1
 90
        2
 40
-0.6
 41
30.0
 62
     5
 63
     7
 74
     1
 91
        0
 64
     7
 65
   257
 75
     1
175
     1
 42
1.0
 92
        0
 66
   257
 43
1.0
 76
     1
 77
     6
 78
     2
 67
     7
 79
     5
170
     0
171
     0
290
     0
174
     0
 93
       13
 44
0.0
173
     0
291
     1
 45
0.0
1001
ACAD
1000
AcDbSavedByObjectVersion
1070
     0
  0
VISUALSTYLE
  5
31
102
{ACAD_XDICTIONARY
360
3B5
102
}
102
{ACAD_REACTORS
330
2A
102
}
330
2A
100
AcDbVisualStyle
  2

 70
     6
 71
     1
 72
     2
 73
     2
 90
        0
 40
-0.6
 41
-30.0
 62
     5
 63
     7
 74
     2
 91
        2
 64
     7
 65
   257
 75
     2
175
     1
 42
40.0
 92
        0
 66
   257
 43
1.0
 76
     1
 77
     6
 78
     2
 67
     7
 79
     3
170
     0
171
     0
290
     0
174
     0
 93
        1
 44
0.0
173
     0
291
     0
 45
0.0
1001
ACAD
1000
AcDbSavedByObjectVersion
1070
     0
  0
VISUALSTYLE
  5
3B
102
{ACAD_XDICTIONARY
360
3C9
102
}
102
{ACAD_REACTORS
330
2A
102
}
330
2A
100
AcDbVisualStyle
  2

 70
    20
 71
     2
 72
     2
 73
     0
 90
        0
 40
-0.6
 41
-30.0
 62
     5
 63
     7
 74
     1
 91
        4
 64
     7
 65
   257
 75
     1
175
     1
 42
1.0
 92
       10
 66
     7
 43
1.0
 76
     1
 77
     6
 78
     2
 67
     7
 79
     5
170
     0
171
     0
290
     0
174
     0
 93
        1
 44
0.0
173
     0
291
     1
 45
0.0
1001
ACAD
1000
AcDbSavedByObjectVersion
1070
     0
  0
VISUALSTYLE
  5
38
102
{ACAD_XDICTIONARY
360
3C3
102
}
102
{ACAD_REACTORS
330
2A
102
}
330
2A
100
AcDbVisualStyle
  2

 70
    14
 71
     2
 72
     2
 73
     0
 90
        0
 40
-0.6
 41
-30.0
 62
     5
 63
     7
 74
     1
 91
        4
 64
     7
 65
   257
 75
     7
175
     7
 42
1.0
 92
        8
 66
     7
 43
1.0
 76
     1
 77
     6
 78
     2
 67
     7
 79
     5
170
     0
171
     0
290
     0
174
     0
 93
        1
 44
0.0
173
     0
291
     1
 45
0.0
1001
ACAD
1000
AcDbSavedByObjectVersion
1070
     0
  0
VISUALSTYLE
  5
3C
102
{ACAD_XDICTIONARY
360
3CB
102
}
102
{ACAD_REACTORS
330
2A
102
}
330
2A
100
AcDbVisualStyle
  2

 70
    21
 71
     2
 72
     2
 73
     0
 90
        0
 40
-0.6
 41
-30.0
 62
     5
 63
     7
 74
     1
 91
        4
 64
     7
 65
   257
 75
     1
175
     1
 42
1.0
 92
        9
 66
     7
 43
1.0
 76
     1
 77
     6
 78
     2
 67
     7
 79
     5
170
     0
171
     0
290
     0
174
     0
 93
        1
 44
0.0
173
     0
291
     1
 45
0.0
1001
ACAD
1000
AcDbSavedByObjectVersion
1070
     0
  0
VISUALSTYLE
  5
33
102
{ACAD_XDICTIONARY
360
3B9
102
}
102
{ACAD_REACTORS
330
2A
102
}
330
2A
100
AcDbVisualStyle
  2

 70
     8
 71
     2
 72
     3
 73
     0
 90
        2
 40
-0.6
 41
30.0
 62
     5
 63
     7
 74
     0
 91
        0
 64
     7
 65
   257
 75
     1
175
     1
 42
1.0
 92
        8
 66
   257
 43
1.0
 76
     1
 77
     6
 78
     2
 67
     7
 79
     3
170
     0
171
     0
290
     0
174
     0
 93
       13
 44
0.0
173
     0
291
     0
 45
0.0
1001
ACAD
1000
AcDbSavedByObjectVersion
1070
     0
  0
VISUALSTYLE
  5
42
102
{ACAD_XDICTIONARY
360
3D7
102
}
102
{ACAD_REACTORS
330
2A
102
}
330
2A
100
AcDbVisualStyle
  2

 70
    27
 71
     2
 72
     2
 73
     1
 90
        2
 40
-0.6
 41
30.0
 62
     5
 63
     7
 74
     0
 91
        4
 64
     7
 65
   257
 75
     1
175
     1
 42
1.0
 92
        8
 66
   257
 43
1.0
 76
     1
 77
     6
 78
     2
 67
     8
 79
     3
170
     0
171
     0
290
     0
174
     0
 93
        5
 44
0.0
173
     0
291
     0
 45
0.0
1001
ACAD
1000
AcDbSavedByObjectVersion
1070
     0
  0
VISUALSTYLE
  5
41
102
{ACAD_XDICTIONARY
360
3D5
102
}
102
{ACAD_REACTORS
330
2A
102
}
330
2A
100
AcDbVisualStyle
  2

 70
    26
 71
     2
 72
     2
 73
     1
 90
        2
 40
-0.6
 41
30.0
 62
     5
 63
     7
 74
     1
 91
       10
 64
     7
 65
   257
 75
     2
175
     1
 42
1.0
 92
        8
 66
   257
 43
1.0
 76
     1
 77
     6
 78
     2
 67
     7
 79
     3
170
     0
171
     0
290
     0
174
     0
 93
        5
 44
0.0
173
     0
291
     0
 45
0.0
1001
ACAD
1000
AcDbSavedByObjectVersion
1070
     0
  0
VISUALSTYLE
  5
3E
102
{ACAD_XDICTIONARY
360
3CF
102
}
102
{ACAD_REACTORS
330
2A
102
}
330
2A
100
AcDbVisualStyle
  2

 70
    23
 71
     2
 72
     2
 73
     3
 90
        0
 40
-0.6
 41
-30.0
 62
     5
 63
     7
 74
     2
 91
        2
 64
     7
 65
     7
 75
     1
175
     1
 42
40.0
 92
        8
 66
     7
 43
1.0
 76
     1
 77
     6
 78
     2
 67
     7
 79
     3
170
     0
171
     0
290
     0
174
     0
 93
        1
 44
0.0
173
     0
291
     0
 45
0.0
1001
ACAD
1000
AcDbSavedByObjectVersion
1070
     0
  0
VISUALSTYLE
  5
3F
102
{ACAD_XDICTIONARY
360
3D1
102
}
102
{ACAD_REACTORS
330
2A
102
}
330
2A
100
AcDbVisualStyle
  2

 70
    24
 71
     1
 72
     2
 73
     2
 90
        0
 40
-0.6
 41
-30.0
 62
     5
 63
     7
 74
     2
 91
        2
 64
     7
 65
     7
 75
     1
175
     1
 42
40.0
 92
       11
 66
     7
 43
1.0
 76
     1
 77
     6
 78
     2
 67
     7
 79
     6
170
     0
171
     0
290
     0
174
     0
 93
        1
 44
0.0
173
     0
291
     0
 45
0.0
1001
ACAD
1000
AcDbSavedByObjectVersion
1070
     0
  0
VISUALSTYLE
  5
37
102
{ACAD_XDICTIONARY
360
3C1
102
}
102
{ACAD_REACTORS
330
2A
102
}
330
2A
100
AcDbVisualStyle
  2

 70
    13
 71
     2
 72
     2
 73
     0
 90
        0
 40
-0.6
 41
-30.0
 62
     5
 63
     7
 74
     1
 91
        4
 64
     7
 65
   257
 75
     1
175
     1
 42
1.0
 92
       12
 66
     7
 43
1.0
 76
     1
 77
     6
 78
     2
 67
     7
 79
     5
170
     0
171
     0
290
     0
174
     0
 93
        1
 44
0.0
173
     0
291
     1
 45
0.0
1001
ACAD
1000
AcDbSavedByObjectVersion
1070
     0
  0
VISUALSTYLE
  5
30
102
{ACAD_XDICTIONARY
360
3B3
102
}
102
{ACAD_REACTORS
330
2A
102
}
330
2A
100
AcDbVisualStyle
  2

 70
     5
 71
     0
 72
     2
 73
     0
 90
        0
 40
-0.6
 41
-30.0
 62
     5
 63
     7
 74
     1
 91
        4
 64
     7
 65
   257
 75
     1
175
     1
 42
1.0
 92
        0
 66
   257
 43
1.0
 76
     1
 77
     6
 78
     2
 67
     7
 79
     3
170
     0
171
     0
290
     0
174
     0
 93
        1
 44
0.0
173
     0
291
     0
 45
0.0
1001
ACAD
1000
AcDbSavedByObjectVersion
1070
     0
  0
VISUALSTYLE
  5
40
102
{ACAD_XDICTIONARY
360
3D3
102
}
102
{ACAD_REACTORS
330
2A
102
}
330
2A
100
AcDbVisualStyle
  2

 70
    25
 71
     2
 72
     2
 73
     1
 90
        1
 40
0.5
 41
-30.0
 62
     5
 63
     7
 74
     1
 91
        0
 64
     7
 65
   257
 75
     1
175
     1
 42
1.0
 92
        8
 66
     7
 43
1.0
 76
     1
 77
     6
 78
     2
 67
     7
 79
     3
170
     0
171
     0
290
     0
174
     0
 93
       13
 44
0.0
173
     0
291
     0
 45
0.0
1001
ACAD
1000
AcDbSavedByObjectVersion
1070
     0
  0
DICTIONARYVAR
  5
1F5
102
{ACAD_REACTORS
330
1EE
102
}
330
1EE
100
DictionaryVariables
280
     0
  1
1:1
  0
DICTIONARYVAR
  5
398
102
{ACAD_REACTORS
330
1EE
102
}
330
1EE
100
DictionaryVariables
280
     0
  1
STANDARD
  0
DICTIONARYVAR
  5
397
102
{ACAD_REACTORS
330
1EE
102
}
330
1EE
100
DictionaryVariables
280
     0
  1
STANDARD
  0
DICTIONARYVAR
  5
399
102
{ACAD_REACTORS
330
1EE
102
}
330
1EE
100
DictionaryVariables
280
     0
  1
Metric50
  0
DICTIONARYVAR
  5
39A
102
{ACAD_REACTORS
330
1EE
102
}
330
1EE
100
DictionaryVariables
280
     0
  1
Metric50
  0
DICTIONARYVAR
  5
1F3
102
{ACAD_REACTORS
330
1EE
102
}
330
1EE
100
DictionaryVariables
280
     0
  1
2
  0
DICTIONARYVAR
  5
1F4
102
{ACAD_REACTORS
330
1EE
102
}
330
1EE
100
DictionaryVariables
280
     0
  1
1
  0
DICTIONARYVAR
  5
39C
102
{ACAD_REACTORS
330
1EE
102
}
330
1EE
100
DictionaryVariables
280
     0
  1
0
  0
DICTIONARYVAR
  5
1F6
102
{ACAD_REACTORS
330
1EE
102
}
330
1EE
100
DictionaryVariables
280
     0
  1
1
  0
DICTIONARYVAR
  5
39B
102
{ACAD_REACTORS
330
1EE
102
}
330
1EE
100
DictionaryVariables
280
     0
  1
127
  0
DICTIONARYVAR
  5
39D
102
{ACAD_REACTORS
330
1EE
102
}
330
1EE
100
DictionaryVariables
280
     0
  1
2
  0
DICTIONARY
  5
3DD
330
236
100
AcDbDictionary
280
     1
281
     1
  3
ACAD_XREC_ROUNDTRIP
360
3DE
  0
DICTIONARY
  5
3A3
330
1E
100
AcDbDictionary
280
     1
281
     1
  3
ACAD_XREC_ROUNDTRIP
360
3A4
  0
DICTIONARY
  5
3A7
330
26
100
AcDbDictionary
280
     1
281
     1
  3
ACAD_XREC_ROUNDTRIP
360
3A8
  0
DICTIONARY
  5
3A5
330
22
100
AcDbDictionary
280
     1
281
     1
  3
ACAD_XREC_ROUNDTRIP
360
3A6
  0
DICTIONARY
  5
229
330
45
100
AcDbDictionary
280
     1
281
     1
  3
ACAD_XREC_ROUNDTRIP
360
22A
  0
DICTIONARY
  5
227
330
44
100
AcDbDictionary
280
     1
281
     1
  3
ACAD_XREC_ROUNDTRIP
360
228
  0
DICTIONARY
  5
22B
330
46
100
AcDbDictionary
280
     1
281
     1
  3
ACAD_XREC_ROUNDTRIP
360
22C
  0
DICTIONARY
  5
3DB
330
234
100
AcDbDictionary
280
     1
281
     1
  3
ACAD_XREC_ROUNDTRIP
360
3DC
  0
DICTIONARY
  5
39F
330
231
100
AcDbDictionary
280
     1
281
     1
  3
ACAD_ROUNDTRIP_2008_TABLESTYLE_CELLSTYLEMAP
360
3A0
  3
ACAD_XREC_ROUNDTRIP
360
3D9
  0
DICTIONARY
  5
3B1
330
2F
100
AcDbDictionary
280
     1
281
     1
  3
ACAD_XREC_ROUNDTRIP
360
3B2
  0
DICTIONARY
  5
3B7
330
32
100
AcDbDictionary
280
     1
281
     1
  3
ACAD_XREC_ROUNDTRIP
360
3B8
  0
DICTIONARY
  5
3BF
330
36
100
AcDbDictionary
280
     1
281
     1
  3
ACAD_XREC_ROUNDTRIP
360
3C0
  0
DICTIONARY
  5
3C7
330
3A
100
AcDbDictionary
280
     1
281
     1
  3
ACAD_XREC_ROUNDTRIP
360
3C8
  0
DICTIONARY
  5
3BB
330
34
100
AcDbDictionary
280
     1
281
     1
  3
ACAD_XREC_ROUNDTRIP
360
3BC
  0
DICTIONARY
  5
3BD
330
35
100
AcDbDictionary
280
     1
281
     1
  3
ACAD_XREC_ROUNDTRIP
360
3BE
  0
DICTIONARY
  5
3CD
330
3D
100
AcDbDictionary
280
     1
281
     1
  3
ACAD_XREC_ROUNDTRIP
360
3CE
  0
DICTIONARY
  5
3C5
330
39
100
AcDbDictionary
280
     1
281
     1
  3
ACAD_XREC_ROUNDTRIP
360
3C6
  0
DICTIONARY
  5
3A9
330
2B
100
AcDbDictionary
280
     1
281
     1
  3
ACAD_XREC_ROUNDTRIP
360
3AA
  0
DICTIONARY
  5
3AB
330
2C
100
AcDbDictionary
280
     1
281
     1
  3
ACAD_XREC_ROUNDTRIP
360
3AC
  0
DICTIONARY
  5
3AD
330
2D
100
AcDbDictionary
280
     1
281
     1
  3
ACAD_XREC_ROUNDTRIP
360
3AE
  0
DICTIONARY
  5
3AF
330
2E
100
AcDbDictionary
280
     1
281
     1
  3
ACAD_XREC_ROUNDTRIP
360
3B0
  0
DICTIONARY
  5
3B5
330
31
100
AcDbDictionary
280
     1
281
     1
  3
ACAD_XREC_ROUNDTRIP
360
3B6
  0
DICTIONARY
  5
3C9
330
3B
100
AcDbDictionary
280
     1
281
     1
  3
ACAD_XREC_ROUNDTRIP
360
3CA
  0
DICTIONARY
  5
3C3
330
38
100
AcDbDictionary
280
     1
281
     1
  3
ACAD_XREC_ROUNDTRIP
360
3C4
  0
DICTIONARY
  5
3CB
330
3C
100
AcDbDictionary
280
     1
281
     1
  3
ACAD_XREC_ROUNDTRIP
360
3CC
  0
DICTIONARY
  5
3B9
330
33
100
AcDbDictionary
280
     1
281
     1
  3
ACAD_XREC_ROUNDTRIP
360
3BA
  0
DICTIONARY
  5
3D7
330
42
100
AcDbDictionary
280
     1
281
     1
  3
ACAD_XREC_ROUNDTRIP
360
3D8
  0
DICTIONARY
  5
3D5
330
41
100
AcDbDictionary
280
     1
281
     1
  3
ACAD_XREC_ROUNDTRIP
360
3D6
  0
DICTIONARY
  5
3CF
330
3E
100
AcDbDictionary
280
     1
281
     1
  3
ACAD_XREC_ROUNDTRIP
360
3D0
  0
DICTIONARY
  5
3D1
330
3F
100
AcDbDictionary
280
     1
281
     1
  3
ACAD_XREC_ROUNDTRIP
360
3D2
  0
DICTIONARY
  5
3C1
330
37
100
AcDbDictionary
280
     1
281
     1
  3
ACAD_XREC_ROUNDTRIP
360
3C2
  0
DICTIONARY
  5
3B3
330
30
100
AcDbDictionary
280
     1
281
     1
  3
ACAD_XREC_ROUNDTRIP
360
3B4
  0
DICTIONARY
  5
3D3
330
40
100
AcDbDictionary
280
     1
281
     1
  3
ACAD_XREC_ROUNDTRIP
360
3D4
  0
XRECORD
  5
3DE
102
{ACAD_REACTORS
330
3DD
102
}
330
3DD
100
AcDbXrecord
280
     1
102
DISPLAYNAME
  1
Metric50
102
FLAGS
 90
        0
  0
XRECORD
  5
3A4
102
{ACAD_REACTORS
330
3A3
102
}
330
3A3
100
AcDbXrecord
280
     1
102
SHADEPLOT
 70
     0
102
SHADEPLOTRESLEVEL
 70
     2
102
SHADEPLOTCUSTOMDPI
 70
   300
  0
XRECORD
  5
3A8
102
{ACAD_REACTORS
330
3A7
102
}
330
3A7
100
AcDbXrecord
280
     1
102
SHADEPLOT
 70
     0
102
SHADEPLOTRESLEVEL
 70
     2
102
SHADEPLOTCUSTOMDPI
 70
   300
  0
XRECORD
  5
3A6
102
{ACAD_REACTORS
330
3A5
102
}
330
3A5
100
AcDbXrecord
280
     1
102
SHADEPLOT
 70
     0
102
SHADEPLOTRESLEVEL
 70
     2
102
SHADEPLOTCUSTOMDPI
 70
   300
  0
XRECORD
  5
22A
102
{ACAD_REACTORS
330
229
102
}
330
229
100
AcDbXrecord
280
     1
102
MATERIAL
148
0.0
149
0.0
149
0.0
 93
        0
 94
      127
282
     0
 72
     1
 77
     1
171
     1
175
     1
179
     1
273
     0
  0
XRECORD
  5
228
102
{ACAD_REACTORS
330
227
102
}
330
227
100
AcDbXrecord
280
     1
102
MATERIAL
148
0.0
149
0.0
149
0.0
 93
        0
 94
      127
282
     0
 72
     1
 77
     1
171
     1
175
     1
179
     1
273
     0
  0
XRECORD
  5
22C
102
{ACAD_REACTORS
330
22B
102
}
330
22B
100
AcDbXrecord
280
     1
102
MATERIAL
148
0.0
149
0.0
149
0.0
 93
        0
 94
      127
282
     0
 72
     1
 77
     1
171
     1
175
     1
179
     1
273
     0
  0
XRECORD
  5
3DC
102
{ACAD_REACTORS
330
3DB
102
}
330
3DB
100
AcDbXrecord
280
     1
102
DISPLAYNAME
  1
Metric50
102
FLAGS
 90
        0
  0
CELLSTYLEMAP
  5
3A0
102
{ACAD_REACTORS
330
39F
102
}
330
39F
100
AcDbCellStyleMap
 90
        3
300
CELLSTYLE
  1
TABLEFORMAT_BEGIN
 90
        5
170
     1
 91
        0
 92
    32768
 62
   257
 93
        1
300
CONTENTFORMAT
  1
CONTENTFORMAT_BEGIN
 90
        0
 91
        0
 92
      512
 93
        0
300

 40
0.0
140
1.0
 94
        5
 62
     0
340
11
144
6.0
309
CONTENTFORMAT_END
171
     1
301
MARGIN
  1
CELLMARGIN_BEGIN
 40
1.5
 40
1.5
 40
1.5
 40
1.5
 40
4.5
 40
4.5
309
CELLMARGIN_END
 94
        6
 95
        1
302
GRIDFORMAT
  1
GRIDFORMAT_BEGIN
 90
        0
 91
        1
 62
     0
 92
       -2
340
0
 93
        0
 40
1.125
309
GRIDFORMAT_END
 95
        2
302
GRIDFORMAT
  1
GRIDFORMAT_BEGIN
 90
        0
 91
        1
 62
     0
 92
       -2
340
0
 93
        0
 40
1.125
309
GRIDFORMAT_END
 95
        4
302
GRIDFORMAT
  1
GRIDFORMAT_BEGIN
 90
        0
 91
        1
 62
     0
 92
       -2
340
0
 93
        0
 40
1.125
309
GRIDFORMAT_END
 95
        8
302
GRIDFORMAT
  1
GRIDFORMAT_BEGIN
 90
        0
 91
        1
 62
     0
 92
       -2
340
0
 93
        0
 40
1.125
309
GRIDFORMAT_END
 95
       16
302
GRIDFORMAT
  1
GRIDFORMAT_BEGIN
 90
        0
 91
        1
 62
     0
 92
       -2
340
0
 93
        0
 40
1.125
309
GRIDFORMAT_END
 95
       32
302
GRIDFORMAT
  1
GRIDFORMAT_BEGIN
 90
        0
 91
        1
 62
     0
 92
       -2
340
0
 93
        0
 40
1.125
309
GRIDFORMAT_END
309
TABLEFORMAT_END
  1
CELLSTYLE_BEGIN
 90
        1
 91
        1
300
_TITLE
309
CELLSTYLE_END
300
CELLSTYLE
  1
TABLEFORMAT_BEGIN
 90
        5
170
     1
 91
        0
 92
        0
 62
   257
 93
        1
300
CONTENTFORMAT
  1
CONTENTFORMAT_BEGIN
 90
        0
 91
        0
 92
      512
 93
        0
300

 40
0.0
140
1.0
 94
        5
 62
     0
340
11
144
4.5
309
CONTENTFORMAT_END
171
     1
301
MARGIN
  1
CELLMARGIN_BEGIN
 40
1.5
 40
1.5
 40
1.5
 40
1.5
 40
4.5
 40
4.5
309
CELLMARGIN_END
 94
        6
 95
        1
302
GRIDFORMAT
  1
GRIDFORMAT_BEGIN
 90
        0
 91
        1
 62
     0
 92
       -2
340
0
 93
        0
 40
1.125
309
GRIDFORMAT_END
 95
        2
302
GRIDFORMAT
  1
GRIDFORMAT_BEGIN
 90
        0
 91
        1
 62
     0
 92
       -2
340
0
 93
        0
 40
1.125
309
GRIDFORMAT_END
 95
        4
302
GRIDFORMAT
  1
GRIDFORMAT_BEGIN
 90
        0
 91
        1
 62
     0
 92
       -2
340
0
 93
        0
 40
1.125
309
GRIDFORMAT_END
 95
        8
302
GRIDFORMAT
  1
GRIDFORMAT_BEGIN
 90
        0
 91
        1
 62
     0
 92
       -2
340
0
 93
        0
 40
1.125
309
GRIDFORMAT_END
 95
       16
302
GRIDFORMAT
  1
GRIDFORMAT_BEGIN
 90
        0
 91
        1
 62
     0
 92
       -2
340
0
 93
        0
 40
1.125
309
GRIDFORMAT_END
 95
       32
302
GRIDFORMAT
  1
GRIDFORMAT_BEGIN
 90
        0
 91
        1
 62
     0
 92
       -2
340
0
 93
        0
 40
1.125
309
GRIDFORMAT_END
309
TABLEFORMAT_END
  1
CELLSTYLE_BEGIN
 90
        2
 91
        1
300
_HEADER
309
CELLSTYLE_END
300
CELLSTYLE
  1
TABLEFORMAT_BEGIN
 90
        5
170
     1
 91
        0
 92
        0
 62
   257
 93
        1
300
CONTENTFORMAT
  1
CONTENTFORMAT_BEGIN
 90
        0
 91
        0
 92
      512
 93
        0
300

 40
0.0
140
1.0
 94
        2
 62
     0
340
11
144
4.5
309
CONTENTFORMAT_END
171
     1
301
MARGIN
  1
CELLMARGIN_BEGIN
 40
1.5
 40
1.5
 40
1.5
 40
1.5
 40
4.5
 40
4.5
309
CELLMARGIN_END
 94
        6
 95
        1
302
GRIDFORMAT
  1
GRIDFORMAT_BEGIN
 90
        0
 91
        1
 62
     0
 92
       -2
340
0
 93
        0
 40
1.125
309
GRIDFORMAT_END
 95
        2
302
GRIDFORMAT
  1
GRIDFORMAT_BEGIN
 90
        0
 91
        1
 62
     0
 92
       -2
340
0
 93
        0
 40
1.125
309
GRIDFORMAT_END
 95
        4
302
GRIDFORMAT
  1
GRIDFORMAT_BEGIN
 90
        0
 91
        1
 62
     0
 92
       -2
340
0
 93
        0
 40
1.125
309
GRIDFORMAT_END
 95
        8
302
GRIDFORMAT
  1
GRIDFORMAT_BEGIN
 90
        0
 91
        1
 62
     0
 92
       -2
340
0
 93
        0
 40
1.125
309
GRIDFORMAT_END
 95
       16
302
GRIDFORMAT
  1
GRIDFORMAT_BEGIN
 90
        0
 91
        1
 62
     0
 92
       -2
340
0
 93
        0
 40
1.125
309
GRIDFORMAT_END
 95
       32
302
GRIDFORMAT
  1
GRIDFORMAT_BEGIN
 90
        0
 91
        1
 62
     0
 92
       -2
340
0
 93
        0
 40
1.125
309
GRIDFORMAT_END
309
TABLEFORMAT_END
  1
CELLSTYLE_BEGIN
 90
        3
 91
        2
300
_DATA
309
CELLSTYLE_END
  0
XRECORD
  5
3D9
102
{ACAD_REACTORS
330
39F
102
}
330
39F
100
AcDbXrecord
280
     1
102
ACAD_ROUNDTRIP_PRE2007_TABLESTYLE
 90
      512
 91
        0
  1

 92
      512
 93
        0
  2

 94
      512
 95
        0
  3

  0
XRECORD
  5
3B2
102
{ACAD_REACTORS
330
3B1
102
}
330
3B1
100
AcDbXrecord
280
     1
102
RTVSPost2010Prop28
280
     1
102
RTVSPost2010PropOp28
 70
     1
102
RTVSPost2010Prop29
280
     1
102
RTVSPost2010PropOp29
 70
     1
102
RTVSPost2010Prop30
280
     0
102
RTVSPost2010PropOp30
 70
     1
102
RTVSPost2010Prop31
280
     0
102
RTVSPost2010PropOp31
 70
     1
102
RTVSPost2010Prop32
280
     0
102
RTVSPost2010PropOp32
 70
     1
102
RTVSPost2010Prop33
280
     0
102
RTVSPost2010PropOp33
 70
     1
102
RTVSPost2010Prop34
280
     0
102
RTVSPost2010PropOp34
 70
     1
102
RTVSPost2010Prop35
280
     0
102
RTVSPost2010PropOp35
 70
     1
102
RTVSPost2010Prop36
280
     0
102
RTVSPost2010PropOp36
 70
     1
102
RTVSPost2010Prop37
 90
       50
102
RTVSPost2010PropOp37
 70
     1
102
RTVSPost2010Prop38
140
0.0
102
RTVSPost2010PropOp38
 70
     1
102
RTVSPost2010Prop39
140
1.0
102
RTVSPost2010PropOp39
 70
     1
102
RTVSPost2010Prop40
 90
        0
102
RTVSPost2010PropOp40
 70
     1
102
RTVSPost2010Prop41ColorIndex
 90
       18
102
RTVSPost2010Prop41ColorRGB
 90
        0
102
RTVSPost2010PropOp41
 70
     1
102
RTVSPost2010Prop42
 90
       50
102
RTVSPost2010PropOp42
 70
     1
102
RTVSPost2010Prop43
 90
        3
102
RTVSPost2010PropOp43
 70
     1
102
RTVSPost2010Prop44ColorIndex
 90
        5
102
RTVSPost2010Prop44ColorRGB
 90
      255
102
RTVSPost2010PropOp44
 70
     1
102
RTVSPost2010Prop45
280
     0
102
RTVSPost2010PropOp45
 70
     1
102
RTVSPost2010Prop46
 90
       50
102
RTVSPost2010PropOp46
 70
     1
102
RTVSPost2010Prop47
 90
       50
102
RTVSPost2010PropOp47
 70
     1
102
RTVSPost2010Prop48
 90
       50
102
RTVSPost2010PropOp48
 70
     1
102
RTVSPost2010Prop49
280
     0
102
RTVSPost2010PropOp49
 70
     1
102
RTVSPost2010Prop50
 90
       50
102
RTVSPost2010PropOp50
 70
     1
102
RTVSPost2010Prop51ColorIndex
 90
      256
102
RTVSPost2010Prop51ColorRGB
 90
-16777216
102
RTVSPost2010PropOp51
 70
     0
102
RTVSPost2010Prop52
140
1.0
102
RTVSPost2010PropOp52
 70
     0
102
RTVSPost2010Prop53
 90
        2
102
RTVSPost2010PropOp53
 70
     1
102
RTVSPost2010Prop54
  1
strokes_ogs.tif
102
RTVSPost2010PropOp54
 70
     1
102
RTVSPost2010Prop55
280
     0
102
RTVSPost2010PropOp55
 70
     1
102
RTVSPost2010Prop56
140
1.0
102
RTVSPost2010PropOp56
 70
     1
102
RTVSPost2010Prop57
140
1.0
102
RTVSPost2010PropOp57
 70
     1
102
RTVSPropertyOp0
 70
     1
102
RTVSPropertyOp1
 70
     1
102
RTVSPropertyOp2
 70
     1
102
RTVSPropertyOp3
 70
     1
102
RTVSPropertyOp4
 70
     1
102
RTVSPropertyOp5
 70
     1
102
RTVSPropertyOp6
 70
     1
102
RTVSPropertyOp7
 70
     1
102
RTVSPropertyOp8
 70
     1
102
RTVSPropertyOp9
 70
     1
102
RTVSPropertyOp10
 70
     1
102
RTVSPropertyOp11
 70
     1
102
RTVSPropertyOp12
 70
     1
102
RTVSPropertyOp13
 70
     1
102
RTVSPropertyOp14
 70
     1
102
RTVSPropertyOp15
 70
     1
102
RTVSPropertyOp16
 70
     1
102
RTVSPropertyOp17
 70
     1
102
RTVSPropertyOp18
 70
     1
102
RTVSPropertyOp19
 70
     1
102
RTVSPropertyOp20
 70
     1
102
RTVSPropertyOp21
 70
     1
102
RTVSPropertyOp22
 70
     1
102
RTVSPropertyOp23
 70
     1
102
RTVSPropertyOp24
 70
     1
102
RTVSPropertyOp25
 70
     1
102
RTVSPropertyOp26
 70
     1
102
RTVSPropertyOp27
 70
     1
102
RTVSPropertyOp28
 70
     1
102
RTVSPropertyOp29
 70
     1
102
RTVSPropertyOp30
 70
     1
102
RTVSPropertyOp31
 70
     1
102
RTVSPropertyOp32
 70
     1
102
RTVSPropertyOp33
 70
     1
102
RTVSPropertyOp34
 70
     1
102
RTVSPropertyOp35
 70
     1
102
RTVSPropertyOp36
 70
     1
102
RTVSPropertyOp37
 70
     1
102
RTVSPropertyOp38
 70
     1
102
RTVSPropertyOp39
 70
     1
102
RTVSPropertyOp40
 70
     1
102
RTVSPropertyOp41
 70
     1
102
RTVSPropertyOp42
 70
     1
102
RTVSPropertyOp43
 70
     1
102
RTVSPropertyOp44
 70
     1
102
RTVSPropertyOp45
 70
     1
102
RTVSPropertyOp46
 70
     1
102
RTVSPropertyOp47
 70
     1
102
RTVSPropertyOp48
 70
     1
102
RTVSPropertyOp49
 70
     1
102
RTVSPropertyOp50
 70
     1
102
RTVSPropertyOp51
 70
     0
102
RTVSPropertyOp52
 70
     0
102
RTVSPropertyOp53
 70
     1
102
RTVSPropertyOp54
 70
     1
102
RTVSPropertyOp55
 70
     1
102
RTVSPropertyOp56
 70
     1
102
RTVSPropertyOp57
 70
     1
102
RTVSPropertyOp58
 70
     1
102
RTVSPropertyOp59
 70
     1
102
RTVSPropertyOp60
 70
     1
102
RTVSPropertyOp61
 70
     1
102
RTVSPropertyOp62
 70
     1
  0
XRECORD
  5
3B8
102
{ACAD_REACTORS
330
3B7
102
}
330
3B7
100
AcDbXrecord
280
     1
102
RTVSPost2010Prop28
280
     0
102
RTVSPost2010PropOp28
 70
     1
102
RTVSPost2010Prop29
280
     1
102
RTVSPost2010PropOp29
 70
     1
102
RTVSPost2010Prop30
280
     1
102
RTVSPost2010PropOp30
 70
     1
102
RTVSPost2010Prop31
280
     0
102
RTVSPost2010PropOp31
 70
     1
102
RTVSPost2010Prop32
280
     0
102
RTVSPost2010PropOp32
 70
     1
102
RTVSPost2010Prop33
280
     0
102
RTVSPost2010PropOp33
 70
     1
102
RTVSPost2010Prop34
280
     0
102
RTVSPost2010PropOp34
 70
     1
102
RTVSPost2010Prop35
280
     0
102
RTVSPost2010PropOp35
 70
     1
102
RTVSPost2010Prop36
280
     0
102
RTVSPost2010PropOp36
 70
     1
102
RTVSPost2010Prop37
 90
       50
102
RTVSPost2010PropOp37
 70
     1
102
RTVSPost2010Prop38
140
0.0
102
RTVSPost2010PropOp38
 70
     1
102
RTVSPost2010Prop39
140
1.0
102
RTVSPost2010PropOp39
 70
     1
102
RTVSPost2010Prop40
 90
        0
102
RTVSPost2010PropOp40
 70
     1
102
RTVSPost2010Prop41ColorIndex
 90
       18
102
RTVSPost2010Prop41ColorRGB
 90
        0
102
RTVSPost2010PropOp41
 70
     1
102
RTVSPost2010Prop42
 90
       50
102
RTVSPost2010PropOp42
 70
     1
102
RTVSPost2010Prop43
 90
        3
102
RTVSPost2010PropOp43
 70
     1
102
RTVSPost2010Prop44ColorIndex
 90
        5
102
RTVSPost2010Prop44ColorRGB
 90
      255
102
RTVSPost2010PropOp44
 70
     1
102
RTVSPost2010Prop45
280
     0
102
RTVSPost2010PropOp45
 70
     1
102
RTVSPost2010Prop46
 90
       50
102
RTVSPost2010PropOp46
 70
     1
102
RTVSPost2010Prop47
 90
       50
102
RTVSPost2010PropOp47
 70
     1
102
RTVSPost2010Prop48
 90
       50
102
RTVSPost2010PropOp48
 70
     1
102
RTVSPost2010Prop49
280
     0
102
RTVSPost2010PropOp49
 70
     1
102
RTVSPost2010Prop50
 90
       50
102
RTVSPost2010PropOp50
 70
     1
102
RTVSPost2010Prop51ColorIndex
 90
      256
102
RTVSPost2010Prop51ColorRGB
 90
-16777216
102
RTVSPost2010PropOp51
 70
     0
102
RTVSPost2010Prop52
140
1.0
102
RTVSPost2010PropOp52
 70
     0
102
RTVSPost2010Prop53
 90
        2
102
RTVSPost2010PropOp53
 70
     1
102
RTVSPost2010Prop54
  1
strokes_ogs.tif
102
RTVSPost2010PropOp54
 70
     1
102
RTVSPost2010Prop55
280
     0
102
RTVSPost2010PropOp55
 70
     1
102
RTVSPost2010Prop56
140
1.0
102
RTVSPost2010PropOp56
 70
     1
102
RTVSPost2010Prop57
140
1.0
102
RTVSPost2010PropOp57
 70
     1
102
RTVSPropertyOp0
 70
     1
102
RTVSPropertyOp1
 70
     1
102
RTVSPropertyOp2
 70
     1
102
RTVSPropertyOp3
 70
     1
102
RTVSPropertyOp4
 70
     1
102
RTVSPropertyOp5
 70
     1
102
RTVSPropertyOp6
 70
     1
102
RTVSPropertyOp7
 70
     1
102
RTVSPropertyOp8
 70
     1
102
RTVSPropertyOp9
 70
     1
102
RTVSPropertyOp10
 70
     1
102
RTVSPropertyOp11
 70
     1
102
RTVSPropertyOp12
 70
     1
102
RTVSPropertyOp13
 70
     1
102
RTVSPropertyOp14
 70
     1
102
RTVSPropertyOp15
 70
     1
102
RTVSPropertyOp16
 70
     1
102
RTVSPropertyOp17
 70
     1
102
RTVSPropertyOp18
 70
     1
102
RTVSPropertyOp19
 70
     1
102
RTVSPropertyOp20
 70
     1
102
RTVSPropertyOp21
 70
     1
102
RTVSPropertyOp22
 70
     1
102
RTVSPropertyOp23
 70
     1
102
RTVSPropertyOp24
 70
     1
102
RTVSPropertyOp25
 70
     1
102
RTVSPropertyOp26
 70
     1
102
RTVSPropertyOp27
 70
     1
102
RTVSPropertyOp28
 70
     1
102
RTVSPropertyOp29
 70
     1
102
RTVSPropertyOp30
 70
     1
102
RTVSPropertyOp31
 70
     1
102
RTVSPropertyOp32
 70
     1
102
RTVSPropertyOp33
 70
     1
102
RTVSPropertyOp34
 70
     1
102
RTVSPropertyOp35
 70
     1
102
RTVSPropertyOp36
 70
     1
102
RTVSPropertyOp37
 70
     1
102
RTVSPropertyOp38
 70
     1
102
RTVSPropertyOp39
 70
     1
102
RTVSPropertyOp40
 70
     1
102
RTVSPropertyOp41
 70
     1
102
RTVSPropertyOp42
 70
     1
102
RTVSPropertyOp43
 70
     1
102
RTVSPropertyOp44
 70
     1
102
RTVSPropertyOp45
 70
     1
102
RTVSPropertyOp46
 70
     1
102
RTVSPropertyOp47
 70
     1
102
RTVSPropertyOp48
 70
     1
102
RTVSPropertyOp49
 70
     1
102
RTVSPropertyOp50
 70
     1
102
RTVSPropertyOp51
 70
     0
102
RTVSPropertyOp52
 70
     0
102
RTVSPropertyOp53
 70
     1
102
RTVSPropertyOp54
 70
     1
102
RTVSPropertyOp55
 70
     1
102
RTVSPropertyOp56
 70
     1
102
RTVSPropertyOp57
 70
     1
102
RTVSPropertyOp58
 70
     1
102
RTVSPropertyOp59
 70
     1
102
RTVSPropertyOp60
 70
     1
102
RTVSPropertyOp61
 70
     1
102
RTVSPropertyOp62
 70
     1
  0
XRECORD
  5
3C0
102
{ACAD_REACTORS
330
3BF
102
}
330
3BF
100
AcDbXrecord
280
     1
102
RTVSPost2010Prop28
280
     0
102
RTVSPost2010PropOp28
 70
     1
102
RTVSPost2010Prop29
280
     1
102
RTVSPost2010PropOp29
 70
     1
102
RTVSPost2010Prop30
280
     1
102
RTVSPost2010PropOp30
 70
     1
102
RTVSPost2010Prop31
280
     0
102
RTVSPost2010PropOp31
 70
     1
102
RTVSPost2010Prop32
280
     0
102
RTVSPost2010PropOp32
 70
     1
102
RTVSPost2010Prop33
280
     0
102
RTVSPost2010PropOp33
 70
     1
102
RTVSPost2010Prop34
280
     0
102
RTVSPost2010PropOp34
 70
     1
102
RTVSPost2010Prop35
280
     0
102
RTVSPost2010PropOp35
 70
     1
102
RTVSPost2010Prop36
280
     0
102
RTVSPost2010PropOp36
 70
     1
102
RTVSPost2010Prop37
 90
       50
102
RTVSPost2010PropOp37
 70
     1
102
RTVSPost2010Prop38
140
0.0
102
RTVSPost2010PropOp38
 70
     1
102
RTVSPost2010Prop39
140
1.0
102
RTVSPost2010PropOp39
 70
     1
102
RTVSPost2010Prop40
 90
        0
102
RTVSPost2010PropOp40
 70
     1
102
RTVSPost2010Prop41ColorIndex
 90
       18
102
RTVSPost2010Prop41ColorRGB
 90
        0
102
RTVSPost2010PropOp41
 70
     1
102
RTVSPost2010Prop42
 90
       50
102
RTVSPost2010PropOp42
 70
     1
102
RTVSPost2010Prop43
 90
        3
102
RTVSPost2010PropOp43
 70
     1
102
RTVSPost2010Prop44ColorIndex
 90
        5
102
RTVSPost2010Prop44ColorRGB
 90
      255
102
RTVSPost2010PropOp44
 70
     1
102
RTVSPost2010Prop45
280
     0
102
RTVSPost2010PropOp45
 70
     1
102
RTVSPost2010Prop46
 90
       50
102
RTVSPost2010PropOp46
 70
     1
102
RTVSPost2010Prop47
 90
       50
102
RTVSPost2010PropOp47
 70
     1
102
RTVSPost2010Prop48
 90
       50
102
RTVSPost2010PropOp48
 70
     1
102
RTVSPost2010Prop49
280
     0
102
RTVSPost2010PropOp49
 70
     1
102
RTVSPost2010Prop50
 90
       50
102
RTVSPost2010PropOp50
 70
     1
102
RTVSPost2010Prop51ColorIndex
 90
      256
102
RTVSPost2010Prop51ColorRGB
 90
-16777216
102
RTVSPost2010PropOp51
 70
     0
102
RTVSPost2010Prop52
140
1.0
102
RTVSPost2010PropOp52
 70
     0
102
RTVSPost2010Prop53
 90
        2
102
RTVSPost2010PropOp53
 70
     1
102
RTVSPost2010Prop54
  1
strokes_ogs.tif
102
RTVSPost2010PropOp54
 70
     1
102
RTVSPost2010Prop55
280
     0
102
RTVSPost2010PropOp55
 70
     1
102
RTVSPost2010Prop56
140
1.0
102
RTVSPost2010PropOp56
 70
     1
102
RTVSPost2010Prop57
140
1.0
102
RTVSPost2010PropOp57
 70
     1
102
RTVSPropertyOp0
 70
     1
102
RTVSPropertyOp1
 70
     1
102
RTVSPropertyOp2
 70
     1
102
RTVSPropertyOp3
 70
     1
102
RTVSPropertyOp4
 70
     1
102
RTVSPropertyOp5
 70
     1
102
RTVSPropertyOp6
 70
     1
102
RTVSPropertyOp7
 70
     1
102
RTVSPropertyOp8
 70
     1
102
RTVSPropertyOp9
 70
     1
102
RTVSPropertyOp10
 70
     1
102
RTVSPropertyOp11
 70
     1
102
RTVSPropertyOp12
 70
     1
102
RTVSPropertyOp13
 70
     1
102
RTVSPropertyOp14
 70
     1
102
RTVSPropertyOp15
 70
     1
102
RTVSPropertyOp16
 70
     1
102
RTVSPropertyOp17
 70
     1
102
RTVSPropertyOp18
 70
     1
102
RTVSPropertyOp19
 70
     1
102
RTVSPropertyOp20
 70
     1
102
RTVSPropertyOp21
 70
     1
102
RTVSPropertyOp22
 70
     1
102
RTVSPropertyOp23
 70
     1
102
RTVSPropertyOp24
 70
     1
102
RTVSPropertyOp25
 70
     1
102
RTVSPropertyOp26
 70
     1
102
RTVSPropertyOp27
 70
     1
102
RTVSPropertyOp28
 70
     1
102
RTVSPropertyOp29
 70
     1
102
RTVSPropertyOp30
 70
     1
102
RTVSPropertyOp31
 70
     1
102
RTVSPropertyOp32
 70
     1
102
RTVSPropertyOp33
 70
     1
102
RTVSPropertyOp34
 70
     1
102
RTVSPropertyOp35
 70
     1
102
RTVSPropertyOp36
 70
     1
102
RTVSPropertyOp37
 70
     1
102
RTVSPropertyOp38
 70
     1
102
RTVSPropertyOp39
 70
     1
102
RTVSPropertyOp40
 70
     1
102
RTVSPropertyOp41
 70
     1
102
RTVSPropertyOp42
 70
     1
102
RTVSPropertyOp43
 70
     1
102
RTVSPropertyOp44
 70
     1
102
RTVSPropertyOp45
 70
     1
102
RTVSPropertyOp46
 70
     1
102
RTVSPropertyOp47
 70
     1
102
RTVSPropertyOp48
 70
     1
102
RTVSPropertyOp49
 70
     1
102
RTVSPropertyOp50
 70
     1
102
RTVSPropertyOp51
 70
     0
102
RTVSPropertyOp52
 70
     0
102
RTVSPropertyOp53
 70
     1
102
RTVSPropertyOp54
 70
     1
102
RTVSPropertyOp55
 70
     1
102
RTVSPropertyOp56
 70
     1
102
RTVSPropertyOp57
 70
     1
102
RTVSPropertyOp58
 70
     1
102
RTVSPropertyOp59
 70
     1
102
RTVSPropertyOp60
 70
     1
102
RTVSPropertyOp61
 70
     1
102
RTVSPropertyOp62
 70
     1
  0
XRECORD
  5
3C8
102
{ACAD_REACTORS
330
3C7
102
}
330
3C7
100
AcDbXrecord
280
     1
102
RTVSPost2010Prop28
280
     0
102
RTVSPost2010PropOp28
 70
     1
102
RTVSPost2010Prop29
280
     1
102
RTVSPost2010PropOp29
 70
     1
102
RTVSPost2010Prop30
280
     1
102
RTVSPost2010PropOp30
 70
     1
102
RTVSPost2010Prop31
280
     0
102
RTVSPost2010PropOp31
 70
     1
102
RTVSPost2010Prop32
280
     0
102
RTVSPost2010PropOp32
 70
     1
102
RTVSPost2010Prop33
280
     0
102
RTVSPost2010PropOp33
 70
     1
102
RTVSPost2010Prop34
280
     0
102
RTVSPost2010PropOp34
 70
     1
102
RTVSPost2010Prop35
280
     0
102
RTVSPost2010PropOp35
 70
     1
102
RTVSPost2010Prop36
280
     0
102
RTVSPost2010PropOp36
 70
     1
102
RTVSPost2010Prop37
 90
       50
102
RTVSPost2010PropOp37
 70
     1
102
RTVSPost2010Prop38
140
0.0
102
RTVSPost2010PropOp38
 70
     1
102
RTVSPost2010Prop39
140
1.0
102
RTVSPost2010PropOp39
 70
     1
102
RTVSPost2010Prop40
 90
        0
102
RTVSPost2010PropOp40
 70
     1
102
RTVSPost2010Prop41ColorIndex
 90
       18
102
RTVSPost2010Prop41ColorRGB
 90
        0
102
RTVSPost2010PropOp41
 70
     1
102
RTVSPost2010Prop42
 90
       50
102
RTVSPost2010PropOp42
 70
     1
102
RTVSPost2010Prop43
 90
        3
102
RTVSPost2010PropOp43
 70
     1
102
RTVSPost2010Prop44ColorIndex
 90
        5
102
RTVSPost2010Prop44ColorRGB
 90
      255
102
RTVSPost2010PropOp44
 70
     1
102
RTVSPost2010Prop45
280
     0
102
RTVSPost2010PropOp45
 70
     1
102
RTVSPost2010Prop46
 90
       50
102
RTVSPost2010PropOp46
 70
     1
102
RTVSPost2010Prop47
 90
       50
102
RTVSPost2010PropOp47
 70
     1
102
RTVSPost2010Prop48
 90
       50
102
RTVSPost2010PropOp48
 70
     1
102
RTVSPost2010Prop49
280
     0
102
RTVSPost2010PropOp49
 70
     1
102
RTVSPost2010Prop50
 90
       50
102
RTVSPost2010PropOp50
 70
     1
102
RTVSPost2010Prop51ColorIndex
 90
      256
102
RTVSPost2010Prop51ColorRGB
 90
-16777216
102
RTVSPost2010PropOp51
 70
     0
102
RTVSPost2010Prop52
140
1.0
102
RTVSPost2010PropOp52
 70
     0
102
RTVSPost2010Prop53
 90
        2
102
RTVSPost2010PropOp53
 70
     1
102
RTVSPost2010Prop54
  1
strokes_ogs.tif
102
RTVSPost2010PropOp54
 70
     1
102
RTVSPost2010Prop55
280
     0
102
RTVSPost2010PropOp55
 70
     1
102
RTVSPost2010Prop56
140
1.0
102
RTVSPost2010PropOp56
 70
     1
102
RTVSPost2010Prop57
140
1.0
102
RTVSPost2010PropOp57
 70
     1
102
RTVSPropertyOp0
 70
     1
102
RTVSPropertyOp1
 70
     1
102
RTVSPropertyOp2
 70
     1
102
RTVSPropertyOp3
 70
     1
102
RTVSPropertyOp4
 70
     1
102
RTVSPropertyOp5
 70
     1
102
RTVSPropertyOp6
 70
     1
102
RTVSPropertyOp7
 70
     1
102
RTVSPropertyOp8
 70
     1
102
RTVSPropertyOp9
 70
     1
102
RTVSPropertyOp10
 70
     1
102
RTVSPropertyOp11
 70
     1
102
RTVSPropertyOp12
 70
     1
102
RTVSPropertyOp13
 70
     1
102
RTVSPropertyOp14
 70
     1
102
RTVSPropertyOp15
 70
     1
102
RTVSPropertyOp16
 70
     1
102
RTVSPropertyOp17
 70
     1
102
RTVSPropertyOp18
 70
     1
102
RTVSPropertyOp19
 70
     1
102
RTVSPropertyOp20
 70
     1
102
RTVSPropertyOp21
 70
     1
102
RTVSPropertyOp22
 70
     1
102
RTVSPropertyOp23
 70
     1
102
RTVSPropertyOp24
 70
     1
102
RTVSPropertyOp25
 70
     1
102
RTVSPropertyOp26
 70
     1
102
RTVSPropertyOp27
 70
     1
102
RTVSPropertyOp28
 70
     1
102
RTVSPropertyOp29
 70
     1
102
RTVSPropertyOp30
 70
     1
102
RTVSPropertyOp31
 70
     1
102
RTVSPropertyOp32
 70
     1
102
RTVSPropertyOp33
 70
     1
102
RTVSPropertyOp34
 70
     1
102
RTVSPropertyOp35
 70
     1
102
RTVSPropertyOp36
 70
     1
102
RTVSPropertyOp37
 70
     1
102
RTVSPropertyOp38
 70
     1
102
RTVSPropertyOp39
 70
     1
102
RTVSPropertyOp40
 70
     1
102
RTVSPropertyOp41
 70
     1
102
RTVSPropertyOp42
 70
     1
102
RTVSPropertyOp43
 70
     1
102
RTVSPropertyOp44
 70
     1
102
RTVSPropertyOp45
 70
     1
102
RTVSPropertyOp46
 70
     1
102
RTVSPropertyOp47
 70
     1
102
RTVSPropertyOp48
 70
     1
102
RTVSPropertyOp49
 70
     1
102
RTVSPropertyOp50
 70
     1
102
RTVSPropertyOp51
 70
     0
102
RTVSPropertyOp52
 70
     0
102
RTVSPropertyOp53
 70
     1
102
RTVSPropertyOp54
 70
     1
102
RTVSPropertyOp55
 70
     1
102
RTVSPropertyOp56
 70
     1
102
RTVSPropertyOp57
 70
     1
102
RTVSPropertyOp58
 70
     1
102
RTVSPropertyOp59
 70
     1
102
RTVSPropertyOp60
 70
     1
102
RTVSPropertyOp61
 70
     1
102
RTVSPropertyOp62
 70
     1
  0
XRECORD
  5
3BC
102
{ACAD_REACTORS
330
3BB
102
}
330
3BB
100
AcDbXrecord
280
     1
102
RTVSPost2010Prop28
280
     0
102
RTVSPost2010PropOp28
 70
     1
102
RTVSPost2010Prop29
280
     1
102
RTVSPost2010PropOp29
 70
     1
102
RTVSPost2010Prop30
280
     1
102
RTVSPost2010PropOp30
 70
     1
102
RTVSPost2010Prop31
280
     0
102
RTVSPost2010PropOp31
 70
     1
102
RTVSPost2010Prop32
280
     0
102
RTVSPost2010PropOp32
 70
     1
102
RTVSPost2010Prop33
280
     0
102
RTVSPost2010PropOp33
 70
     1
102
RTVSPost2010Prop34
280
     0
102
RTVSPost2010PropOp34
 70
     1
102
RTVSPost2010Prop35
280
     0
102
RTVSPost2010PropOp35
 70
     1
102
RTVSPost2010Prop36
280
     0
102
RTVSPost2010PropOp36
 70
     1
102
RTVSPost2010Prop37
 90
       50
102
RTVSPost2010PropOp37
 70
     1
102
RTVSPost2010Prop38
140
0.0
102
RTVSPost2010PropOp38
 70
     1
102
RTVSPost2010Prop39
140
1.0
102
RTVSPost2010PropOp39
 70
     1
102
RTVSPost2010Prop40
 90
        0
102
RTVSPost2010PropOp40
 70
     1
102
RTVSPost2010Prop41ColorIndex
 90
       18
102
RTVSPost2010Prop41ColorRGB
 90
        0
102
RTVSPost2010PropOp41
 70
     1
102
RTVSPost2010Prop42
 90
       50
102
RTVSPost2010PropOp42
 70
     1
102
RTVSPost2010Prop43
 90
        3
102
RTVSPost2010PropOp43
 70
     1
102
RTVSPost2010Prop44ColorIndex
 90
        5
102
RTVSPost2010Prop44ColorRGB
 90
      255
102
RTVSPost2010PropOp44
 70
     1
102
RTVSPost2010Prop45
280
     0
102
RTVSPost2010PropOp45
 70
     1
102
RTVSPost2010Prop46
 90
       50
102
RTVSPost2010PropOp46
 70
     1
102
RTVSPost2010Prop47
 90
       50
102
RTVSPost2010PropOp47
 70
     1
102
RTVSPost2010Prop48
 90
       50
102
RTVSPost2010PropOp48
 70
     1
102
RTVSPost2010Prop49
280
     0
102
RTVSPost2010PropOp49
 70
     1
102
RTVSPost2010Prop50
 90
       50
102
RTVSPost2010PropOp50
 70
     1
102
RTVSPost2010Prop51ColorIndex
 90
      256
102
RTVSPost2010Prop51ColorRGB
 90
-16777216
102
RTVSPost2010PropOp51
 70
     0
102
RTVSPost2010Prop52
140
1.0
102
RTVSPost2010PropOp52
 70
     0
102
RTVSPost2010Prop53
 90
        2
102
RTVSPost2010PropOp53
 70
     1
102
RTVSPost2010Prop54
  1
strokes_ogs.tif
102
RTVSPost2010PropOp54
 70
     1
102
RTVSPost2010Prop55
280
     0
102
RTVSPost2010PropOp55
 70
     1
102
RTVSPost2010Prop56
140
1.0
102
RTVSPost2010PropOp56
 70
     1
102
RTVSPost2010Prop57
140
1.0
102
RTVSPost2010PropOp57
 70
     1
102
RTVSPropertyOp0
 70
     1
102
RTVSPropertyOp1
 70
     1
102
RTVSPropertyOp2
 70
     1
102
RTVSPropertyOp3
 70
     1
102
RTVSPropertyOp4
 70
     1
102
RTVSPropertyOp5
 70
     1
102
RTVSPropertyOp6
 70
     1
102
RTVSPropertyOp7
 70
     1
102
RTVSPropertyOp8
 70
     1
102
RTVSPropertyOp9
 70
     1
102
RTVSPropertyOp10
 70
     1
102
RTVSPropertyOp11
 70
     1
102
RTVSPropertyOp12
 70
     1
102
RTVSPropertyOp13
 70
     1
102
RTVSPropertyOp14
 70
     1
102
RTVSPropertyOp15
 70
     1
102
RTVSPropertyOp16
 70
     1
102
RTVSPropertyOp17
 70
     1
102
RTVSPropertyOp18
 70
     1
102
RTVSPropertyOp19
 70
     1
102
RTVSPropertyOp20
 70
     1
102
RTVSPropertyOp21
 70
     1
102
RTVSPropertyOp22
 70
     1
102
RTVSPropertyOp23
 70
     1
102
RTVSPropertyOp24
 70
     1
102
RTVSPropertyOp25
 70
     1
102
RTVSPropertyOp26
 70
     1
102
RTVSPropertyOp27
 70
     1
102
RTVSPropertyOp28
 70
     1
102
RTVSPropertyOp29
 70
     1
102
RTVSPropertyOp30
 70
     1
102
RTVSPropertyOp31
 70
     1
102
RTVSPropertyOp32
 70
     1
102
RTVSPropertyOp33
 70
     1
102
RTVSPropertyOp34
 70
     1
102
RTVSPropertyOp35
 70
     1
102
RTVSPropertyOp36
 70
     1
102
RTVSPropertyOp37
 70
     1
102
RTVSPropertyOp38
 70
     1
102
RTVSPropertyOp39
 70
     1
102
RTVSPropertyOp40
 70
     1
102
RTVSPropertyOp41
 70
     1
102
RTVSPropertyOp42
 70
     1
102
RTVSPropertyOp43
 70
     1
102
RTVSPropertyOp44
 70
     1
102
RTVSPropertyOp45
 70
     1
102
RTVSPropertyOp46
 70
     1
102
RTVSPropertyOp47
 70
     1
102
RTVSPropertyOp48
 70
     1
102
RTVSPropertyOp49
 70
     1
102
RTVSPropertyOp50
 70
     1
102
RTVSPropertyOp51
 70
     0
102
RTVSPropertyOp52
 70
     0
102
RTVSPropertyOp53
 70
     1
102
RTVSPropertyOp54
 70
     1
102
RTVSPropertyOp55
 70
     1
102
RTVSPropertyOp56
 70
     1
102
RTVSPropertyOp57
 70
     1
102
RTVSPropertyOp58
 70
     1
102
RTVSPropertyOp59
 70
     1
102
RTVSPropertyOp60
 70
     1
102
RTVSPropertyOp61
 70
     1
102
RTVSPropertyOp62
 70
     1
  0
XRECORD
  5
3BE
102
{ACAD_REACTORS
330
3BD
102
}
330
3BD
100
AcDbXrecord
280
     1
102
RTVSPost2010Prop28
280
     0
102
RTVSPost2010PropOp28
 70
     1
102
RTVSPost2010Prop29
280
     1
102
RTVSPost2010PropOp29
 70
     1
102
RTVSPost2010Prop30
280
     1
102
RTVSPost2010PropOp30
 70
     1
102
RTVSPost2010Prop31
280
     0
102
RTVSPost2010PropOp31
 70
     1
102
RTVSPost2010Prop32
280
     0
102
RTVSPost2010PropOp32
 70
     1
102
RTVSPost2010Prop33
280
     0
102
RTVSPost2010PropOp33
 70
     1
102
RTVSPost2010Prop34
280
     0
102
RTVSPost2010PropOp34
 70
     1
102
RTVSPost2010Prop35
280
     0
102
RTVSPost2010PropOp35
 70
     1
102
RTVSPost2010Prop36
280
     0
102
RTVSPost2010PropOp36
 70
     1
102
RTVSPost2010Prop37
 90
       50
102
RTVSPost2010PropOp37
 70
     1
102
RTVSPost2010Prop38
140
0.0
102
RTVSPost2010PropOp38
 70
     1
102
RTVSPost2010Prop39
140
1.0
102
RTVSPost2010PropOp39
 70
     1
102
RTVSPost2010Prop40
 90
        0
102
RTVSPost2010PropOp40
 70
     1
102
RTVSPost2010Prop41ColorIndex
 90
       18
102
RTVSPost2010Prop41ColorRGB
 90
        0
102
RTVSPost2010PropOp41
 70
     1
102
RTVSPost2010Prop42
 90
       50
102
RTVSPost2010PropOp42
 70
     1
102
RTVSPost2010Prop43
 90
        3
102
RTVSPost2010PropOp43
 70
     1
102
RTVSPost2010Prop44ColorIndex
 90
        5
102
RTVSPost2010Prop44ColorRGB
 90
      255
102
RTVSPost2010PropOp44
 70
     1
102
RTVSPost2010Prop45
280
     0
102
RTVSPost2010PropOp45
 70
     1
102
RTVSPost2010Prop46
 90
       50
102
RTVSPost2010PropOp46
 70
     1
102
RTVSPost2010Prop47
 90
       50
102
RTVSPost2010PropOp47
 70
     1
102
RTVSPost2010Prop48
 90
       50
102
RTVSPost2010PropOp48
 70
     1
102
RTVSPost2010Prop49
280
     0
102
RTVSPost2010PropOp49
 70
     1
102
RTVSPost2010Prop50
 90
       50
102
RTVSPost2010PropOp50
 70
     1
102
RTVSPost2010Prop51ColorIndex
 90
      256
102
RTVSPost2010Prop51ColorRGB
 90
-16777216
102
RTVSPost2010PropOp51
 70
     0
102
RTVSPost2010Prop52
140
1.0
102
RTVSPost2010PropOp52
 70
     0
102
RTVSPost2010Prop53
 90
        2
102
RTVSPost2010PropOp53
 70
     1
102
RTVSPost2010Prop54
  1
strokes_ogs.tif
102
RTVSPost2010PropOp54
 70
     1
102
RTVSPost2010Prop55
280
     0
102
RTVSPost2010PropOp55
 70
     1
102
RTVSPost2010Prop56
140
1.0
102
RTVSPost2010PropOp56
 70
     1
102
RTVSPost2010Prop57
140
1.0
102
RTVSPost2010PropOp57
 70
     1
102
RTVSPropertyOp0
 70
     1
102
RTVSPropertyOp1
 70
     1
102
RTVSPropertyOp2
 70
     1
102
RTVSPropertyOp3
 70
     1
102
RTVSPropertyOp4
 70
     1
102
RTVSPropertyOp5
 70
     1
102
RTVSPropertyOp6
 70
     1
102
RTVSPropertyOp7
 70
     1
102
RTVSPropertyOp8
 70
     1
102
RTVSPropertyOp9
 70
     1
102
RTVSPropertyOp10
 70
     1
102
RTVSPropertyOp11
 70
     1
102
RTVSPropertyOp12
 70
     1
102
RTVSPropertyOp13
 70
     1
102
RTVSPropertyOp14
 70
     1
102
RTVSPropertyOp15
 70
     1
102
RTVSPropertyOp16
 70
     1
102
RTVSPropertyOp17
 70
     1
102
RTVSPropertyOp18
 70
     1
102
RTVSPropertyOp19
 70
     1
102
RTVSPropertyOp20
 70
     1
102
RTVSPropertyOp21
 70
     1
102
RTVSPropertyOp22
 70
     1
102
RTVSPropertyOp23
 70
     1
102
RTVSPropertyOp24
 70
     1
102
RTVSPropertyOp25
 70
     1
102
RTVSPropertyOp26
 70
     1
102
RTVSPropertyOp27
 70
     1
102
RTVSPropertyOp28
 70
     1
102
RTVSPropertyOp29
 70
     1
102
RTVSPropertyOp30
 70
     1
102
RTVSPropertyOp31
 70
     1
102
RTVSPropertyOp32
 70
     1
102
RTVSPropertyOp33
 70
     1
102
RTVSPropertyOp34
 70
     1
102
RTVSPropertyOp35
 70
     1
102
RTVSPropertyOp36
 70
     1
102
RTVSPropertyOp37
 70
     1
102
RTVSPropertyOp38
 70
     1
102
RTVSPropertyOp39
 70
     1
102
RTVSPropertyOp40
 70
     1
102
RTVSPropertyOp41
 70
     1
102
RTVSPropertyOp42
 70
     1
102
RTVSPropertyOp43
 70
     1
102
RTVSPropertyOp44
 70
     1
102
RTVSPropertyOp45
 70
     1
102
RTVSPropertyOp46
 70
     1
102
RTVSPropertyOp47
 70
     1
102
RTVSPropertyOp48
 70
     1
102
RTVSPropertyOp49
 70
     1
102
RTVSPropertyOp50
 70
     1
102
RTVSPropertyOp51
 70
     0
102
RTVSPropertyOp52
 70
     0
102
RTVSPropertyOp53
 70
     1
102
RTVSPropertyOp54
 70
     1
102
RTVSPropertyOp55
 70
     1
102
RTVSPropertyOp56
 70
     1
102
RTVSPropertyOp57
 70
     1
102
RTVSPropertyOp58
 70
     1
102
RTVSPropertyOp59
 70
     1
102
RTVSPropertyOp60
 70
     1
102
RTVSPropertyOp61
 70
     1
102
RTVSPropertyOp62
 70
     1
  0
XRECORD
  5
3CE
102
{ACAD_REACTORS
330
3CD
102
}
330
3CD
100
AcDbXrecord
280
     1
102
RTVSPost2010Prop28
280
     0
102
RTVSPost2010PropOp28
 70
     0
102
RTVSPost2010Prop29
280
     1
102
RTVSPost2010PropOp29
 70
     0
102
RTVSPost2010Prop30
280
     1
102
RTVSPost2010PropOp30
 70
     0
102
RTVSPost2010Prop31
280
     0
102
RTVSPost2010PropOp31
 70
     0
102
RTVSPost2010Prop32
280
     0
102
RTVSPost2010PropOp32
 70
     0
102
RTVSPost2010Prop33
280
     0
102
RTVSPost2010PropOp33
 70
     0
102
RTVSPost2010Prop34
280
     0
102
RTVSPost2010PropOp34
 70
     0
102
RTVSPost2010Prop35
280
     0
102
RTVSPost2010PropOp35
 70
     0
102
RTVSPost2010Prop36
280
     0
102
RTVSPost2010PropOp36
 70
     0
102
RTVSPost2010Prop37
 90
       50
102
RTVSPost2010PropOp37
 70
     0
102
RTVSPost2010Prop38
140
0.0
102
RTVSPost2010PropOp38
 70
     0
102
RTVSPost2010Prop39
140
1.0
102
RTVSPost2010PropOp39
 70
     0
102
RTVSPost2010Prop40
 90
        0
102
RTVSPost2010PropOp40
 70
     0
102
RTVSPost2010Prop41ColorIndex
 90
       18
102
RTVSPost2010Prop41ColorRGB
 90
        0
102
RTVSPost2010PropOp41
 70
     0
102
RTVSPost2010Prop42
 90
       50
102
RTVSPost2010PropOp42
 70
     0
102
RTVSPost2010Prop43
 90
        3
102
RTVSPost2010PropOp43
 70
     0
102
RTVSPost2010Prop44ColorIndex
 90
        5
102
RTVSPost2010Prop44ColorRGB
 90
      255
102
RTVSPost2010PropOp44
 70
     0
102
RTVSPost2010Prop45
280
     0
102
RTVSPost2010PropOp45
 70
     0
102
RTVSPost2010Prop46
 90
       50
102
RTVSPost2010PropOp46
 70
     0
102
RTVSPost2010Prop47
 90
       50
102
RTVSPost2010PropOp47
 70
     0
102
RTVSPost2010Prop48
 90
       50
102
RTVSPost2010PropOp48
 70
     0
102
RTVSPost2010Prop49
280
     0
102
RTVSPost2010PropOp49
 70
     0
102
RTVSPost2010Prop50
 90
       50
102
RTVSPost2010PropOp50
 70
     0
102
RTVSPost2010Prop51ColorIndex
 90
      256
102
RTVSPost2010Prop51ColorRGB
 90
-16777216
102
RTVSPost2010PropOp51
 70
     0
102
RTVSPost2010Prop52
140
1.0
102
RTVSPost2010PropOp52
 70
     0
102
RTVSPost2010Prop53
 90
        2
102
RTVSPost2010PropOp53
 70
     0
102
RTVSPost2010Prop54
  1
strokes_ogs.tif
102
RTVSPost2010PropOp54
 70
     0
102
RTVSPost2010Prop55
280
     0
102
RTVSPost2010PropOp55
 70
     0
102
RTVSPost2010Prop56
140
1.0
102
RTVSPost2010PropOp56
 70
     0
102
RTVSPost2010Prop57
140
1.0
102
RTVSPost2010PropOp57
 70
     0
102
RTVSPropertyOp0
 70
     0
102
RTVSPropertyOp1
 70
     0
102
RTVSPropertyOp2
 70
     0
102
RTVSPropertyOp3
 70
     0
102
RTVSPropertyOp4
 70
     0
102
RTVSPropertyOp5
 70
     0
102
RTVSPropertyOp6
 70
     0
102
RTVSPropertyOp7
 70
     0
102
RTVSPropertyOp8
 70
     0
102
RTVSPropertyOp9
 70
     0
102
RTVSPropertyOp10
 70
     0
102
RTVSPropertyOp11
 70
     0
102
RTVSPropertyOp12
 70
     0
102
RTVSPropertyOp13
 70
     0
102
RTVSPropertyOp14
 70
     2
102
RTVSPropertyOp15
 70
     0
102
RTVSPropertyOp16
 70
     0
102
RTVSPropertyOp17
 70
     0
102
RTVSPropertyOp18
 70
     0
102
RTVSPropertyOp19
 70
     0
102
RTVSPropertyOp20
 70
     0
102
RTVSPropertyOp21
 70
     0
102
RTVSPropertyOp22
 70
     0
102
RTVSPropertyOp23
 70
     0
102
RTVSPropertyOp24
 70
     0
102
RTVSPropertyOp25
 70
     0
102
RTVSPropertyOp26
 70
     0
102
RTVSPropertyOp27
 70
     0
102
RTVSPropertyOp28
 70
     0
102
RTVSPropertyOp29
 70
     0
102
RTVSPropertyOp30
 70
     0
102
RTVSPropertyOp31
 70
     0
102
RTVSPropertyOp32
 70
     0
102
RTVSPropertyOp33
 70
     0
102
RTVSPropertyOp34
 70
     0
102
RTVSPropertyOp35
 70
     0
102
RTVSPropertyOp36
 70
     0
102
RTVSPropertyOp37
 70
     0
102
RTVSPropertyOp38
 70
     0
102
RTVSPropertyOp39
 70
     0
102
RTVSPropertyOp40
 70
     0
102
RTVSPropertyOp41
 70
     0
102
RTVSPropertyOp42
 70
     0
102
RTVSPropertyOp43
 70
     0
102
RTVSPropertyOp44
 70
     0
102
RTVSPropertyOp45
 70
     0
102
RTVSPropertyOp46
 70
     0
102
RTVSPropertyOp47
 70
     0
102
RTVSPropertyOp48
 70
     0
102
RTVSPropertyOp49
 70
     0
102
RTVSPropertyOp50
 70
     0
102
RTVSPropertyOp51
 70
     0
102
RTVSPropertyOp52
 70
     0
102
RTVSPropertyOp53
 70
     0
102
RTVSPropertyOp54
 70
     0
102
RTVSPropertyOp55
 70
     0
102
RTVSPropertyOp56
 70
     0
102
RTVSPropertyOp57
 70
     0
102
RTVSPropertyOp58
 70
     1
102
RTVSPropertyOp59
 70
     1
102
RTVSPropertyOp60
 70
     1
102
RTVSPropertyOp61
 70
     1
102
RTVSPropertyOp62
 70
     1
  0
XRECORD
  5
3C6
102
{ACAD_REACTORS
330
3C5
102
}
330
3C5
100
AcDbXrecord
280
     1
102
RTVSPost2010Prop28
280
     0
102
RTVSPost2010PropOp28
 70
     1
102
RTVSPost2010Prop29
280
     1
102
RTVSPost2010PropOp29
 70
     1
102
RTVSPost2010Prop30
280
     1
102
RTVSPost2010PropOp30
 70
     1
102
RTVSPost2010Prop31
280
     0
102
RTVSPost2010PropOp31
 70
     1
102
RTVSPost2010Prop32
280
     0
102
RTVSPost2010PropOp32
 70
     1
102
RTVSPost2010Prop33
280
     0
102
RTVSPost2010PropOp33
 70
     1
102
RTVSPost2010Prop34
280
     0
102
RTVSPost2010PropOp34
 70
     1
102
RTVSPost2010Prop35
280
     0
102
RTVSPost2010PropOp35
 70
     1
102
RTVSPost2010Prop36
280
     0
102
RTVSPost2010PropOp36
 70
     1
102
RTVSPost2010Prop37
 90
       50
102
RTVSPost2010PropOp37
 70
     1
102
RTVSPost2010Prop38
140
0.0
102
RTVSPost2010PropOp38
 70
     1
102
RTVSPost2010Prop39
140
1.0
102
RTVSPost2010PropOp39
 70
     1
102
RTVSPost2010Prop40
 90
        0
102
RTVSPost2010PropOp40
 70
     1
102
RTVSPost2010Prop41ColorIndex
 90
       18
102
RTVSPost2010Prop41ColorRGB
 90
        0
102
RTVSPost2010PropOp41
 70
     1
102
RTVSPost2010Prop42
 90
       50
102
RTVSPost2010PropOp42
 70
     1
102
RTVSPost2010Prop43
 90
        3
102
RTVSPost2010PropOp43
 70
     1
102
RTVSPost2010Prop44ColorIndex
 90
        5
102
RTVSPost2010Prop44ColorRGB
 90
      255
102
RTVSPost2010PropOp44
 70
     1
102
RTVSPost2010Prop45
280
     0
102
RTVSPost2010PropOp45
 70
     1
102
RTVSPost2010Prop46
 90
       50
102
RTVSPost2010PropOp46
 70
     1
102
RTVSPost2010Prop47
 90
       50
102
RTVSPost2010PropOp47
 70
     1
102
RTVSPost2010Prop48
 90
       50
102
RTVSPost2010PropOp48
 70
     1
102
RTVSPost2010Prop49
280
     0
102
RTVSPost2010PropOp49
 70
     1
102
RTVSPost2010Prop50
 90
       50
102
RTVSPost2010PropOp50
 70
     1
102
RTVSPost2010Prop51ColorIndex
 90
      256
102
RTVSPost2010Prop51ColorRGB
 90
-16777216
102
RTVSPost2010PropOp51
 70
     0
102
RTVSPost2010Prop52
140
1.0
102
RTVSPost2010PropOp52
 70
     0
102
RTVSPost2010Prop53
 90
        2
102
RTVSPost2010PropOp53
 70
     1
102
RTVSPost2010Prop54
  1
strokes_ogs.tif
102
RTVSPost2010PropOp54
 70
     1
102
RTVSPost2010Prop55
280
     0
102
RTVSPost2010PropOp55
 70
     1
102
RTVSPost2010Prop56
140
1.0
102
RTVSPost2010PropOp56
 70
     1
102
RTVSPost2010Prop57
140
1.0
102
RTVSPost2010PropOp57
 70
     1
102
RTVSPropertyOp0
 70
     1
102
RTVSPropertyOp1
 70
     1
102
RTVSPropertyOp2
 70
     1
102
RTVSPropertyOp3
 70
     1
102
RTVSPropertyOp4
 70
     1
102
RTVSPropertyOp5
 70
     1
102
RTVSPropertyOp6
 70
     1
102
RTVSPropertyOp7
 70
     1
102
RTVSPropertyOp8
 70
     1
102
RTVSPropertyOp9
 70
     1
102
RTVSPropertyOp10
 70
     1
102
RTVSPropertyOp11
 70
     1
102
RTVSPropertyOp12
 70
     1
102
RTVSPropertyOp13
 70
     1
102
RTVSPropertyOp14
 70
     1
102
RTVSPropertyOp15
 70
     1
102
RTVSPropertyOp16
 70
     1
102
RTVSPropertyOp17
 70
     1
102
RTVSPropertyOp18
 70
     1
102
RTVSPropertyOp19
 70
     1
102
RTVSPropertyOp20
 70
     1
102
RTVSPropertyOp21
 70
     1
102
RTVSPropertyOp22
 70
     1
102
RTVSPropertyOp23
 70
     1
102
RTVSPropertyOp24
 70
     1
102
RTVSPropertyOp25
 70
     1
102
RTVSPropertyOp26
 70
     1
102
RTVSPropertyOp27
 70
     1
102
RTVSPropertyOp28
 70
     1
102
RTVSPropertyOp29
 70
     1
102
RTVSPropertyOp30
 70
     1
102
RTVSPropertyOp31
 70
     1
102
RTVSPropertyOp32
 70
     1
102
RTVSPropertyOp33
 70
     1
102
RTVSPropertyOp34
 70
     1
102
RTVSPropertyOp35
 70
     1
102
RTVSPropertyOp36
 70
     1
102
RTVSPropertyOp37
 70
     1
102
RTVSPropertyOp38
 70
     1
102
RTVSPropertyOp39
 70
     1
102
RTVSPropertyOp40
 70
     1
102
RTVSPropertyOp41
 70
     1
102
RTVSPropertyOp42
 70
     1
102
RTVSPropertyOp43
 70
     1
102
RTVSPropertyOp44
 70
     1
102
RTVSPropertyOp45
 70
     1
102
RTVSPropertyOp46
 70
     1
102
RTVSPropertyOp47
 70
     1
102
RTVSPropertyOp48
 70
     1
102
RTVSPropertyOp49
 70
     1
102
RTVSPropertyOp50
 70
     1
102
RTVSPropertyOp51
 70
     0
102
RTVSPropertyOp52
 70
     0
102
RTVSPropertyOp53
 70
     1
102
RTVSPropertyOp54
 70
     1
102
RTVSPropertyOp55
 70
     1
102
RTVSPropertyOp56
 70
     1
102
RTVSPropertyOp57
 70
     1
102
RTVSPropertyOp58
 70
     1
102
RTVSPropertyOp59
 70
     1
102
RTVSPropertyOp60
 70
     1
102
RTVSPropertyOp61
 70
     1
102
RTVSPropertyOp62
 70
     1
  0
XRECORD
  5
3AA
102
{ACAD_REACTORS
330
3A9
102
}
330
3A9
100
AcDbXrecord
280
     1
102
RTVSPost2010Prop28
280
     0
102
RTVSPost2010PropOp28
 70
     1
102
RTVSPost2010Prop29
280
     1
102
RTVSPost2010PropOp29
 70
     1
102
RTVSPost2010Prop30
280
     1
102
RTVSPost2010PropOp30
 70
     1
102
RTVSPost2010Prop31
280
     0
102
RTVSPost2010PropOp31
 70
     1
102
RTVSPost2010Prop32
280
     0
102
RTVSPost2010PropOp32
 70
     1
102
RTVSPost2010Prop33
280
     0
102
RTVSPost2010PropOp33
 70
     1
102
RTVSPost2010Prop34
280
     0
102
RTVSPost2010PropOp34
 70
     1
102
RTVSPost2010Prop35
280
     0
102
RTVSPost2010PropOp35
 70
     1
102
RTVSPost2010Prop36
280
     0
102
RTVSPost2010PropOp36
 70
     1
102
RTVSPost2010Prop37
 90
       50
102
RTVSPost2010PropOp37
 70
     1
102
RTVSPost2010Prop38
140
0.0
102
RTVSPost2010PropOp38
 70
     1
102
RTVSPost2010Prop39
140
1.0
102
RTVSPost2010PropOp39
 70
     1
102
RTVSPost2010Prop40
 90
        0
102
RTVSPost2010PropOp40
 70
     1
102
RTVSPost2010Prop41ColorIndex
 90
       18
102
RTVSPost2010Prop41ColorRGB
 90
        0
102
RTVSPost2010PropOp41
 70
     1
102
RTVSPost2010Prop42
 90
       50
102
RTVSPost2010PropOp42
 70
     1
102
RTVSPost2010Prop43
 90
        3
102
RTVSPost2010PropOp43
 70
     1
102
RTVSPost2010Prop44ColorIndex
 90
        5
102
RTVSPost2010Prop44ColorRGB
 90
      255
102
RTVSPost2010PropOp44
 70
     1
102
RTVSPost2010Prop45
280
     0
102
RTVSPost2010PropOp45
 70
     1
102
RTVSPost2010Prop46
 90
       50
102
RTVSPost2010PropOp46
 70
     1
102
RTVSPost2010Prop47
 90
       50
102
RTVSPost2010PropOp47
 70
     1
102
RTVSPost2010Prop48
 90
       50
102
RTVSPost2010PropOp48
 70
     1
102
RTVSPost2010Prop49
280
     0
102
RTVSPost2010PropOp49
 70
     1
102
RTVSPost2010Prop50
 90
       50
102
RTVSPost2010PropOp50
 70
     1
102
RTVSPost2010Prop51ColorIndex
 90
      256
102
RTVSPost2010Prop51ColorRGB
 90
-16777216
102
RTVSPost2010PropOp51
 70
     0
102
RTVSPost2010Prop52
140
1.0
102
RTVSPost2010PropOp52
 70
     0
102
RTVSPost2010Prop53
 90
        2
102
RTVSPost2010PropOp53
 70
     1
102
RTVSPost2010Prop54
  1
strokes_ogs.tif
102
RTVSPost2010PropOp54
 70
     1
102
RTVSPost2010Prop55
280
     0
102
RTVSPost2010PropOp55
 70
     1
102
RTVSPost2010Prop56
140
1.0
102
RTVSPost2010PropOp56
 70
     1
102
RTVSPost2010Prop57
140
1.0
102
RTVSPost2010PropOp57
 70
     1
102
RTVSPropertyOp0
 70
     1
102
RTVSPropertyOp1
 70
     1
102
RTVSPropertyOp2
 70
     1
102
RTVSPropertyOp3
 70
     1
102
RTVSPropertyOp4
 70
     1
102
RTVSPropertyOp5
 70
     1
102
RTVSPropertyOp6
 70
     1
102
RTVSPropertyOp7
 70
     1
102
RTVSPropertyOp8
 70
     1
102
RTVSPropertyOp9
 70
     1
102
RTVSPropertyOp10
 70
     1
102
RTVSPropertyOp11
 70
     1
102
RTVSPropertyOp12
 70
     1
102
RTVSPropertyOp13
 70
     1
102
RTVSPropertyOp14
 70
     1
102
RTVSPropertyOp15
 70
     1
102
RTVSPropertyOp16
 70
     1
102
RTVSPropertyOp17
 70
     1
102
RTVSPropertyOp18
 70
     1
102
RTVSPropertyOp19
 70
     1
102
RTVSPropertyOp20
 70
     1
102
RTVSPropertyOp21
 70
     1
102
RTVSPropertyOp22
 70
     1
102
RTVSPropertyOp23
 70
     1
102
RTVSPropertyOp24
 70
     1
102
RTVSPropertyOp25
 70
     1
102
RTVSPropertyOp26
 70
     1
102
RTVSPropertyOp27
 70
     1
102
RTVSPropertyOp28
 70
     1
102
RTVSPropertyOp29
 70
     1
102
RTVSPropertyOp30
 70
     1
102
RTVSPropertyOp31
 70
     1
102
RTVSPropertyOp32
 70
     1
102
RTVSPropertyOp33
 70
     1
102
RTVSPropertyOp34
 70
     1
102
RTVSPropertyOp35
 70
     1
102
RTVSPropertyOp36
 70
     1
102
RTVSPropertyOp37
 70
     1
102
RTVSPropertyOp38
 70
     1
102
RTVSPropertyOp39
 70
     1
102
RTVSPropertyOp40
 70
     1
102
RTVSPropertyOp41
 70
     1
102
RTVSPropertyOp42
 70
     1
102
RTVSPropertyOp43
 70
     1
102
RTVSPropertyOp44
 70
     1
102
RTVSPropertyOp45
 70
     1
102
RTVSPropertyOp46
 70
     1
102
RTVSPropertyOp47
 70
     1
102
RTVSPropertyOp48
 70
     1
102
RTVSPropertyOp49
 70
     1
102
RTVSPropertyOp50
 70
     1
102
RTVSPropertyOp51
 70
     0
102
RTVSPropertyOp52
 70
     0
102
RTVSPropertyOp53
 70
     1
102
RTVSPropertyOp54
 70
     1
102
RTVSPropertyOp55
 70
     1
102
RTVSPropertyOp56
 70
     1
102
RTVSPropertyOp57
 70
     1
102
RTVSPropertyOp58
 70
     1
102
RTVSPropertyOp59
 70
     1
102
RTVSPropertyOp60
 70
     1
102
RTVSPropertyOp61
 70
     1
102
RTVSPropertyOp62
 70
     1
  0
XRECORD
  5
3AC
102
{ACAD_REACTORS
330
3AB
102
}
330
3AB
100
AcDbXrecord
280
     1
102
RTVSPost2010Prop28
280
     0
102
RTVSPost2010PropOp28
 70
     1
102
RTVSPost2010Prop29
280
     1
102
RTVSPost2010PropOp29
 70
     1
102
RTVSPost2010Prop30
280
     1
102
RTVSPost2010PropOp30
 70
     1
102
RTVSPost2010Prop31
280
     0
102
RTVSPost2010PropOp31
 70
     1
102
RTVSPost2010Prop32
280
     0
102
RTVSPost2010PropOp32
 70
     1
102
RTVSPost2010Prop33
280
     0
102
RTVSPost2010PropOp33
 70
     1
102
RTVSPost2010Prop34
280
     0
102
RTVSPost2010PropOp34
 70
     1
102
RTVSPost2010Prop35
280
     0
102
RTVSPost2010PropOp35
 70
     1
102
RTVSPost2010Prop36
280
     0
102
RTVSPost2010PropOp36
 70
     1
102
RTVSPost2010Prop37
 90
       50
102
RTVSPost2010PropOp37
 70
     1
102
RTVSPost2010Prop38
140
0.0
102
RTVSPost2010PropOp38
 70
     1
102
RTVSPost2010Prop39
140
1.0
102
RTVSPost2010PropOp39
 70
     1
102
RTVSPost2010Prop40
 90
        0
102
RTVSPost2010PropOp40
 70
     1
102
RTVSPost2010Prop41ColorIndex
 90
       18
102
RTVSPost2010Prop41ColorRGB
 90
        0
102
RTVSPost2010PropOp41
 70
     1
102
RTVSPost2010Prop42
 90
       50
102
RTVSPost2010PropOp42
 70
     1
102
RTVSPost2010Prop43
 90
        3
102
RTVSPost2010PropOp43
 70
     1
102
RTVSPost2010Prop44ColorIndex
 90
        5
102
RTVSPost2010Prop44ColorRGB
 90
      255
102
RTVSPost2010PropOp44
 70
     1
102
RTVSPost2010Prop45
280
     0
102
RTVSPost2010PropOp45
 70
     1
102
RTVSPost2010Prop46
 90
       50
102
RTVSPost2010PropOp46
 70
     1
102
RTVSPost2010Prop47
 90
       50
102
RTVSPost2010PropOp47
 70
     1
102
RTVSPost2010Prop48
 90
       50
102
RTVSPost2010PropOp48
 70
     1
102
RTVSPost2010Prop49
280
     0
102
RTVSPost2010PropOp49
 70
     1
102
RTVSPost2010Prop50
 90
       50
102
RTVSPost2010PropOp50
 70
     1
102
RTVSPost2010Prop51ColorIndex
 90
      256
102
RTVSPost2010Prop51ColorRGB
 90
-16777216
102
RTVSPost2010PropOp51
 70
     0
102
RTVSPost2010Prop52
140
1.0
102
RTVSPost2010PropOp52
 70
     0
102
RTVSPost2010Prop53
 90
        2
102
RTVSPost2010PropOp53
 70
     1
102
RTVSPost2010Prop54
  1
strokes_ogs.tif
102
RTVSPost2010PropOp54
 70
     1
102
RTVSPost2010Prop55
280
     0
102
RTVSPost2010PropOp55
 70
     1
102
RTVSPost2010Prop56
140
1.0
102
RTVSPost2010PropOp56
 70
     1
102
RTVSPost2010Prop57
140
1.0
102
RTVSPost2010PropOp57
 70
     1
102
RTVSPropertyOp0
 70
     1
102
RTVSPropertyOp1
 70
     1
102
RTVSPropertyOp2
 70
     1
102
RTVSPropertyOp3
 70
     1
102
RTVSPropertyOp4
 70
     1
102
RTVSPropertyOp5
 70
     1
102
RTVSPropertyOp6
 70
     1
102
RTVSPropertyOp7
 70
     1
102
RTVSPropertyOp8
 70
     1
102
RTVSPropertyOp9
 70
     1
102
RTVSPropertyOp10
 70
     1
102
RTVSPropertyOp11
 70
     1
102
RTVSPropertyOp12
 70
     1
102
RTVSPropertyOp13
 70
     1
102
RTVSPropertyOp14
 70
     1
102
RTVSPropertyOp15
 70
     1
102
RTVSPropertyOp16
 70
     1
102
RTVSPropertyOp17
 70
     1
102
RTVSPropertyOp18
 70
     1
102
RTVSPropertyOp19
 70
     1
102
RTVSPropertyOp20
 70
     1
102
RTVSPropertyOp21
 70
     1
102
RTVSPropertyOp22
 70
     1
102
RTVSPropertyOp23
 70
     1
102
RTVSPropertyOp24
 70
     1
102
RTVSPropertyOp25
 70
     1
102
RTVSPropertyOp26
 70
     1
102
RTVSPropertyOp27
 70
     1
102
RTVSPropertyOp28
 70
     1
102
RTVSPropertyOp29
 70
     1
102
RTVSPropertyOp30
 70
     1
102
RTVSPropertyOp31
 70
     1
102
RTVSPropertyOp32
 70
     1
102
RTVSPropertyOp33
 70
     1
102
RTVSPropertyOp34
 70
     1
102
RTVSPropertyOp35
 70
     1
102
RTVSPropertyOp36
 70
     1
102
RTVSPropertyOp37
 70
     1
102
RTVSPropertyOp38
 70
     1
102
RTVSPropertyOp39
 70
     1
102
RTVSPropertyOp40
 70
     1
102
RTVSPropertyOp41
 70
     1
102
RTVSPropertyOp42
 70
     1
102
RTVSPropertyOp43
 70
     1
102
RTVSPropertyOp44
 70
     1
102
RTVSPropertyOp45
 70
     1
102
RTVSPropertyOp46
 70
     1
102
RTVSPropertyOp47
 70
     1
102
RTVSPropertyOp48
 70
     1
102
RTVSPropertyOp49
 70
     1
102
RTVSPropertyOp50
 70
     1
102
RTVSPropertyOp51
 70
     0
102
RTVSPropertyOp52
 70
     0
102
RTVSPropertyOp53
 70
     1
102
RTVSPropertyOp54
 70
     1
102
RTVSPropertyOp55
 70
     1
102
RTVSPropertyOp56
 70
     1
102
RTVSPropertyOp57
 70
     1
102
RTVSPropertyOp58
 70
     1
102
RTVSPropertyOp59
 70
     1
102
RTVSPropertyOp60
 70
     1
102
RTVSPropertyOp61
 70
     1
102
RTVSPropertyOp62
 70
     1
  0
XRECORD
  5
3AE
102
{ACAD_REACTORS
330
3AD
102
}
330
3AD
100
AcDbXrecord
280
     1
102
RTVSPost2010Prop28
280
     0
102
RTVSPost2010PropOp28
 70
     1
102
RTVSPost2010Prop29
280
     1
102
RTVSPost2010PropOp29
 70
     1
102
RTVSPost2010Prop30
280
     1
102
RTVSPost2010PropOp30
 70
     1
102
RTVSPost2010Prop31
280
     0
102
RTVSPost2010PropOp31
 70
     1
102
RTVSPost2010Prop32
280
     0
102
RTVSPost2010PropOp32
 70
     1
102
RTVSPost2010Prop33
280
     0
102
RTVSPost2010PropOp33
 70
     1
102
RTVSPost2010Prop34
280
     0
102
RTVSPost2010PropOp34
 70
     1
102
RTVSPost2010Prop35
280
     0
102
RTVSPost2010PropOp35
 70
     1
102
RTVSPost2010Prop36
280
     0
102
RTVSPost2010PropOp36
 70
     1
102
RTVSPost2010Prop37
 90
       50
102
RTVSPost2010PropOp37
 70
     1
102
RTVSPost2010Prop38
140
0.0
102
RTVSPost2010PropOp38
 70
     1
102
RTVSPost2010Prop39
140
1.0
102
RTVSPost2010PropOp39
 70
     1
102
RTVSPost2010Prop40
 90
        0
102
RTVSPost2010PropOp40
 70
     1
102
RTVSPost2010Prop41ColorIndex
 90
       18
102
RTVSPost2010Prop41ColorRGB
 90
        0
102
RTVSPost2010PropOp41
 70
     1
102
RTVSPost2010Prop42
 90
       50
102
RTVSPost2010PropOp42
 70
     1
102
RTVSPost2010Prop43
 90
        3
102
RTVSPost2010PropOp43
 70
     1
102
RTVSPost2010Prop44ColorIndex
 90
        5
102
RTVSPost2010Prop44ColorRGB
 90
      255
102
RTVSPost2010PropOp44
 70
     1
102
RTVSPost2010Prop45
280
     0
102
RTVSPost2010PropOp45
 70
     1
102
RTVSPost2010Prop46
 90
       50
102
RTVSPost2010PropOp46
 70
     1
102
RTVSPost2010Prop47
 90
       50
102
RTVSPost2010PropOp47
 70
     1
102
RTVSPost2010Prop48
 90
       50
102
RTVSPost2010PropOp48
 70
     1
102
RTVSPost2010Prop49
280
     0
102
RTVSPost2010PropOp49
 70
     1
102
RTVSPost2010Prop50
 90
       50
102
RTVSPost2010PropOp50
 70
     1
102
RTVSPost2010Prop51ColorIndex
 90
      256
102
RTVSPost2010Prop51ColorRGB
 90
-16777216
102
RTVSPost2010PropOp51
 70
     0
102
RTVSPost2010Prop52
140
1.0
102
RTVSPost2010PropOp52
 70
     0
102
RTVSPost2010Prop53
 90
        2
102
RTVSPost2010PropOp53
 70
     1
102
RTVSPost2010Prop54
  1
strokes_ogs.tif
102
RTVSPost2010PropOp54
 70
     1
102
RTVSPost2010Prop55
280
     0
102
RTVSPost2010PropOp55
 70
     1
102
RTVSPost2010Prop56
140
1.0
102
RTVSPost2010PropOp56
 70
     1
102
RTVSPost2010Prop57
140
1.0
102
RTVSPost2010PropOp57
 70
     1
102
RTVSPropertyOp0
 70
     1
102
RTVSPropertyOp1
 70
     1
102
RTVSPropertyOp2
 70
     1
102
RTVSPropertyOp3
 70
     1
102
RTVSPropertyOp4
 70
     1
102
RTVSPropertyOp5
 70
     1
102
RTVSPropertyOp6
 70
     1
102
RTVSPropertyOp7
 70
     1
102
RTVSPropertyOp8
 70
     1
102
RTVSPropertyOp9
 70
     1
102
RTVSPropertyOp10
 70
     1
102
RTVSPropertyOp11
 70
     1
102
RTVSPropertyOp12
 70
     1
102
RTVSPropertyOp13
 70
     1
102
RTVSPropertyOp14
 70
     1
102
RTVSPropertyOp15
 70
     1
102
RTVSPropertyOp16
 70
     1
102
RTVSPropertyOp17
 70
     1
102
RTVSPropertyOp18
 70
     1
102
RTVSPropertyOp19
 70
     1
102
RTVSPropertyOp20
 70
     1
102
RTVSPropertyOp21
 70
     1
102
RTVSPropertyOp22
 70
     1
102
RTVSPropertyOp23
 70
     1
102
RTVSPropertyOp24
 70
     1
102
RTVSPropertyOp25
 70
     1
102
RTVSPropertyOp26
 70
     1
102
RTVSPropertyOp27
 70
     1
102
RTVSPropertyOp28
 70
     1
102
RTVSPropertyOp29
 70
     1
102
RTVSPropertyOp30
 70
     1
102
RTVSPropertyOp31
 70
     1
102
RTVSPropertyOp32
 70
     1
102
RTVSPropertyOp33
 70
     1
102
RTVSPropertyOp34
 70
     1
102
RTVSPropertyOp35
 70
     1
102
RTVSPropertyOp36
 70
     1
102
RTVSPropertyOp37
 70
     1
102
RTVSPropertyOp38
 70
     1
102
RTVSPropertyOp39
 70
     1
102
RTVSPropertyOp40
 70
     1
102
RTVSPropertyOp41
 70
     1
102
RTVSPropertyOp42
 70
     1
102
RTVSPropertyOp43
 70
     1
102
RTVSPropertyOp44
 70
     1
102
RTVSPropertyOp45
 70
     1
102
RTVSPropertyOp46
 70
     1
102
RTVSPropertyOp47
 70
     1
102
RTVSPropertyOp48
 70
     1
102
RTVSPropertyOp49
 70
     1
102
RTVSPropertyOp50
 70
     1
102
RTVSPropertyOp51
 70
     0
102
RTVSPropertyOp52
 70
     0
102
RTVSPropertyOp53
 70
     1
102
RTVSPropertyOp54
 70
     1
102
RTVSPropertyOp55
 70
     1
102
RTVSPropertyOp56
 70
     1
102
RTVSPropertyOp57
 70
     1
102
RTVSPropertyOp58
 70
     1
102
RTVSPropertyOp59
 70
     1
102
RTVSPropertyOp60
 70
     1
102
RTVSPropertyOp61
 70
     1
102
RTVSPropertyOp62
 70
     1
  0
XRECORD
  5
3B0
102
{ACAD_REACTORS
330
3AF
102
}
330
3AF
100
AcDbXrecord
280
     1
102
RTVSPost2010Prop28
280
     0
102
RTVSPost2010PropOp28
 70
     1
102
RTVSPost2010Prop29
280
     1
102
RTVSPost2010PropOp29
 70
     1
102
RTVSPost2010Prop30
280
     1
102
RTVSPost2010PropOp30
 70
     1
102
RTVSPost2010Prop31
280
     0
102
RTVSPost2010PropOp31
 70
     1
102
RTVSPost2010Prop32
280
     0
102
RTVSPost2010PropOp32
 70
     1
102
RTVSPost2010Prop33
280
     0
102
RTVSPost2010PropOp33
 70
     1
102
RTVSPost2010Prop34
280
     0
102
RTVSPost2010PropOp34
 70
     1
102
RTVSPost2010Prop35
280
     0
102
RTVSPost2010PropOp35
 70
     1
102
RTVSPost2010Prop36
280
     0
102
RTVSPost2010PropOp36
 70
     1
102
RTVSPost2010Prop37
 90
       50
102
RTVSPost2010PropOp37
 70
     1
102
RTVSPost2010Prop38
140
0.0
102
RTVSPost2010PropOp38
 70
     1
102
RTVSPost2010Prop39
140
1.0
102
RTVSPost2010PropOp39
 70
     1
102
RTVSPost2010Prop40
 90
        0
102
RTVSPost2010PropOp40
 70
     1
102
RTVSPost2010Prop41ColorIndex
 90
       18
102
RTVSPost2010Prop41ColorRGB
 90
        0
102
RTVSPost2010PropOp41
 70
     1
102
RTVSPost2010Prop42
 90
       50
102
RTVSPost2010PropOp42
 70
     1
102
RTVSPost2010Prop43
 90
        3
102
RTVSPost2010PropOp43
 70
     1
102
RTVSPost2010Prop44ColorIndex
 90
        5
102
RTVSPost2010Prop44ColorRGB
 90
      255
102
RTVSPost2010PropOp44
 70
     1
102
RTVSPost2010Prop45
280
     0
102
RTVSPost2010PropOp45
 70
     1
102
RTVSPost2010Prop46
 90
       50
102
RTVSPost2010PropOp46
 70
     1
102
RTVSPost2010Prop47
 90
       50
102
RTVSPost2010PropOp47
 70
     1
102
RTVSPost2010Prop48
 90
       50
102
RTVSPost2010PropOp48
 70
     1
102
RTVSPost2010Prop49
280
     0
102
RTVSPost2010PropOp49
 70
     1
102
RTVSPost2010Prop50
 90
       50
102
RTVSPost2010PropOp50
 70
     1
102
RTVSPost2010Prop51ColorIndex
 90
      256
102
RTVSPost2010Prop51ColorRGB
 90
-16777216
102
RTVSPost2010PropOp51
 70
     0
102
RTVSPost2010Prop52
140
1.0
102
RTVSPost2010PropOp52
 70
     0
102
RTVSPost2010Prop53
 90
        2
102
RTVSPost2010PropOp53
 70
     1
102
RTVSPost2010Prop54
  1
strokes_ogs.tif
102
RTVSPost2010PropOp54
 70
     1
102
RTVSPost2010Prop55
280
     0
102
RTVSPost2010PropOp55
 70
     1
102
RTVSPost2010Prop56
140
1.0
102
RTVSPost2010PropOp56
 70
     1
102
RTVSPost2010Prop57
140
1.0
102
RTVSPost2010PropOp57
 70
     1
102
RTVSPropertyOp0
 70
     1
102
RTVSPropertyOp1
 70
     1
102
RTVSPropertyOp2
 70
     1
102
RTVSPropertyOp3
 70
     1
102
RTVSPropertyOp4
 70
     1
102
RTVSPropertyOp5
 70
     1
102
RTVSPropertyOp6
 70
     1
102
RTVSPropertyOp7
 70
     1
102
RTVSPropertyOp8
 70
     1
102
RTVSPropertyOp9
 70
     1
102
RTVSPropertyOp10
 70
     1
102
RTVSPropertyOp11
 70
     1
102
RTVSPropertyOp12
 70
     1
102
RTVSPropertyOp13
 70
     1
102
RTVSPropertyOp14
 70
     1
102
RTVSPropertyOp15
 70
     1
102
RTVSPropertyOp16
 70
     1
102
RTVSPropertyOp17
 70
     1
102
RTVSPropertyOp18
 70
     1
102
RTVSPropertyOp19
 70
     1
102
RTVSPropertyOp20
 70
     1
102
RTVSPropertyOp21
 70
     1
102
RTVSPropertyOp22
 70
     1
102
RTVSPropertyOp23
 70
     1
102
RTVSPropertyOp24
 70
     1
102
RTVSPropertyOp25
 70
     1
102
RTVSPropertyOp26
 70
     1
102
RTVSPropertyOp27
 70
     1
102
RTVSPropertyOp28
 70
     1
102
RTVSPropertyOp29
 70
     1
102
RTVSPropertyOp30
 70
     1
102
RTVSPropertyOp31
 70
     1
102
RTVSPropertyOp32
 70
     1
102
RTVSPropertyOp33
 70
     1
102
RTVSPropertyOp34
 70
     1
102
RTVSPropertyOp35
 70
     1
102
RTVSPropertyOp36
 70
     1
102
RTVSPropertyOp37
 70
     1
102
RTVSPropertyOp38
 70
     1
102
RTVSPropertyOp39
 70
     1
102
RTVSPropertyOp40
 70
     1
102
RTVSPropertyOp41
 70
     1
102
RTVSPropertyOp42
 70
     1
102
RTVSPropertyOp43
 70
     1
102
RTVSPropertyOp44
 70
     1
102
RTVSPropertyOp45
 70
     1
102
RTVSPropertyOp46
 70
     1
102
RTVSPropertyOp47
 70
     1
102
RTVSPropertyOp48
 70
     1
102
RTVSPropertyOp49
 70
     1
102
RTVSPropertyOp50
 70
     1
102
RTVSPropertyOp51
 70
     0
102
RTVSPropertyOp52
 70
     0
102
RTVSPropertyOp53
 70
     1
102
RTVSPropertyOp54
 70
     1
102
RTVSPropertyOp55
 70
     1
102
RTVSPropertyOp56
 70
     1
102
RTVSPropertyOp57
 70
     1
102
RTVSPropertyOp58
 70
     1
102
RTVSPropertyOp59
 70
     1
102
RTVSPropertyOp60
 70
     1
102
RTVSPropertyOp61
 70
     1
102
RTVSPropertyOp62
 70
     1
  0
XRECORD
  5
3B6
102
{ACAD_REACTORS
330
3B5
102
}
330
3B5
100
AcDbXrecord
280
     1
102
RTVSPost2010Prop28
280
     0
102
RTVSPost2010PropOp28
 70
     1
102
RTVSPost2010Prop29
280
     1
102
RTVSPost2010PropOp29
 70
     1
102
RTVSPost2010Prop30
280
     1
102
RTVSPost2010PropOp30
 70
     1
102
RTVSPost2010Prop31
280
     0
102
RTVSPost2010PropOp31
 70
     1
102
RTVSPost2010Prop32
280
     0
102
RTVSPost2010PropOp32
 70
     1
102
RTVSPost2010Prop33
280
     0
102
RTVSPost2010PropOp33
 70
     1
102
RTVSPost2010Prop34
280
     0
102
RTVSPost2010PropOp34
 70
     1
102
RTVSPost2010Prop35
280
     0
102
RTVSPost2010PropOp35
 70
     1
102
RTVSPost2010Prop36
280
     0
102
RTVSPost2010PropOp36
 70
     1
102
RTVSPost2010Prop37
 90
       50
102
RTVSPost2010PropOp37
 70
     1
102
RTVSPost2010Prop38
140
0.0
102
RTVSPost2010PropOp38
 70
     1
102
RTVSPost2010Prop39
140
1.0
102
RTVSPost2010PropOp39
 70
     1
102
RTVSPost2010Prop40
 90
        0
102
RTVSPost2010PropOp40
 70
     1
102
RTVSPost2010Prop41ColorIndex
 90
       18
102
RTVSPost2010Prop41ColorRGB
 90
        0
102
RTVSPost2010PropOp41
 70
     1
102
RTVSPost2010Prop42
 90
       50
102
RTVSPost2010PropOp42
 70
     1
102
RTVSPost2010Prop43
 90
        3
102
RTVSPost2010PropOp43
 70
     1
102
RTVSPost2010Prop44ColorIndex
 90
        5
102
RTVSPost2010Prop44ColorRGB
 90
      255
102
RTVSPost2010PropOp44
 70
     1
102
RTVSPost2010Prop45
280
     0
102
RTVSPost2010PropOp45
 70
     1
102
RTVSPost2010Prop46
 90
       50
102
RTVSPost2010PropOp46
 70
     1
102
RTVSPost2010Prop47
 90
       50
102
RTVSPost2010PropOp47
 70
     1
102
RTVSPost2010Prop48
 90
       50
102
RTVSPost2010PropOp48
 70
     1
102
RTVSPost2010Prop49
280
     0
102
RTVSPost2010PropOp49
 70
     1
102
RTVSPost2010Prop50
 90
       50
102
RTVSPost2010PropOp50
 70
     1
102
RTVSPost2010Prop51ColorIndex
 90
      256
102
RTVSPost2010Prop51ColorRGB
 90
-16777216
102
RTVSPost2010PropOp51
 70
     0
102
RTVSPost2010Prop52
140
1.0
102
RTVSPost2010PropOp52
 70
     0
102
RTVSPost2010Prop53
 90
        2
102
RTVSPost2010PropOp53
 70
     1
102
RTVSPost2010Prop54
  1
strokes_ogs.tif
102
RTVSPost2010PropOp54
 70
     1
102
RTVSPost2010Prop55
280
     0
102
RTVSPost2010PropOp55
 70
     1
102
RTVSPost2010Prop56
140
1.0
102
RTVSPost2010PropOp56
 70
     1
102
RTVSPost2010Prop57
140
1.0
102
RTVSPost2010PropOp57
 70
     1
102
RTVSPropertyOp0
 70
     1
102
RTVSPropertyOp1
 70
     1
102
RTVSPropertyOp2
 70
     1
102
RTVSPropertyOp3
 70
     1
102
RTVSPropertyOp4
 70
     1
102
RTVSPropertyOp5
 70
     1
102
RTVSPropertyOp6
 70
     1
102
RTVSPropertyOp7
 70
     1
102
RTVSPropertyOp8
 70
     1
102
RTVSPropertyOp9
 70
     1
102
RTVSPropertyOp10
 70
     1
102
RTVSPropertyOp11
 70
     1
102
RTVSPropertyOp12
 70
     1
102
RTVSPropertyOp13
 70
     1
102
RTVSPropertyOp14
 70
     1
102
RTVSPropertyOp15
 70
     1
102
RTVSPropertyOp16
 70
     1
102
RTVSPropertyOp17
 70
     1
102
RTVSPropertyOp18
 70
     1
102
RTVSPropertyOp19
 70
     1
102
RTVSPropertyOp20
 70
     1
102
RTVSPropertyOp21
 70
     1
102
RTVSPropertyOp22
 70
     1
102
RTVSPropertyOp23
 70
     1
102
RTVSPropertyOp24
 70
     1
102
RTVSPropertyOp25
 70
     1
102
RTVSPropertyOp26
 70
     1
102
RTVSPropertyOp27
 70
     1
102
RTVSPropertyOp28
 70
     1
102
RTVSPropertyOp29
 70
     1
102
RTVSPropertyOp30
 70
     1
102
RTVSPropertyOp31
 70
     1
102
RTVSPropertyOp32
 70
     1
102
RTVSPropertyOp33
 70
     1
102
RTVSPropertyOp34
 70
     1
102
RTVSPropertyOp35
 70
     1
102
RTVSPropertyOp36
 70
     1
102
RTVSPropertyOp37
 70
     1
102
RTVSPropertyOp38
 70
     1
102
RTVSPropertyOp39
 70
     1
102
RTVSPropertyOp40
 70
     1
102
RTVSPropertyOp41
 70
     1
102
RTVSPropertyOp42
 70
     1
102
RTVSPropertyOp43
 70
     1
102
RTVSPropertyOp44
 70
     1
102
RTVSPropertyOp45
 70
     1
102
RTVSPropertyOp46
 70
     1
102
RTVSPropertyOp47
 70
     1
102
RTVSPropertyOp48
 70
     1
102
RTVSPropertyOp49
 70
     1
102
RTVSPropertyOp50
 70
     1
102
RTVSPropertyOp51
 70
     0
102
RTVSPropertyOp52
 70
     0
102
RTVSPropertyOp53
 70
     1
102
RTVSPropertyOp54
 70
     1
102
RTVSPropertyOp55
 70
     1
102
RTVSPropertyOp56
 70
     1
102
RTVSPropertyOp57
 70
     1
102
RTVSPropertyOp58
 70
     1
102
RTVSPropertyOp59
 70
     1
102
RTVSPropertyOp60
 70
     1
102
RTVSPropertyOp61
 70
     1
102
RTVSPropertyOp62
 70
     1
  0
XRECORD
  5
3CA
102
{ACAD_REACTORS
330
3C9
102
}
330
3C9
100
AcDbXrecord
280
     1
102
RTVSPost2010Prop28
280
     0
102
RTVSPost2010PropOp28
 70
     0
102
RTVSPost2010Prop29
280
     1
102
RTVSPost2010PropOp29
 70
     0
102
RTVSPost2010Prop30
280
     1
102
RTVSPost2010PropOp30
 70
     0
102
RTVSPost2010Prop31
280
     0
102
RTVSPost2010PropOp31
 70
     0
102
RTVSPost2010Prop32
280
     0
102
RTVSPost2010PropOp32
 70
     0
102
RTVSPost2010Prop33
280
     0
102
RTVSPost2010PropOp33
 70
     0
102
RTVSPost2010Prop34
280
     0
102
RTVSPost2010PropOp34
 70
     0
102
RTVSPost2010Prop35
280
     0
102
RTVSPost2010PropOp35
 70
     0
102
RTVSPost2010Prop36
280
     0
102
RTVSPost2010PropOp36
 70
     0
102
RTVSPost2010Prop37
 90
       50
102
RTVSPost2010PropOp37
 70
     0
102
RTVSPost2010Prop38
140
0.0
102
RTVSPost2010PropOp38
 70
     0
102
RTVSPost2010Prop39
140
1.0
102
RTVSPost2010PropOp39
 70
     0
102
RTVSPost2010Prop40
 90
        0
102
RTVSPost2010PropOp40
 70
     0
102
RTVSPost2010Prop41ColorIndex
 90
       18
102
RTVSPost2010Prop41ColorRGB
 90
        0
102
RTVSPost2010PropOp41
 70
     0
102
RTVSPost2010Prop42
 90
       50
102
RTVSPost2010PropOp42
 70
     0
102
RTVSPost2010Prop43
 90
        3
102
RTVSPost2010PropOp43
 70
     0
102
RTVSPost2010Prop44ColorIndex
 90
        5
102
RTVSPost2010Prop44ColorRGB
 90
      255
102
RTVSPost2010PropOp44
 70
     0
102
RTVSPost2010Prop45
280
     0
102
RTVSPost2010PropOp45
 70
     0
102
RTVSPost2010Prop46
 90
       50
102
RTVSPost2010PropOp46
 70
     0
102
RTVSPost2010Prop47
 90
       50
102
RTVSPost2010PropOp47
 70
     0
102
RTVSPost2010Prop48
 90
       50
102
RTVSPost2010PropOp48
 70
     0
102
RTVSPost2010Prop49
280
     0
102
RTVSPost2010PropOp49
 70
     0
102
RTVSPost2010Prop50
 90
       50
102
RTVSPost2010PropOp50
 70
     0
102
RTVSPost2010Prop51ColorIndex
 90
      256
102
RTVSPost2010Prop51ColorRGB
 90
-16777216
102
RTVSPost2010PropOp51
 70
     0
102
RTVSPost2010Prop52
140
1.0
102
RTVSPost2010PropOp52
 70
     0
102
RTVSPost2010Prop53
 90
        2
102
RTVSPost2010PropOp53
 70
     0
102
RTVSPost2010Prop54
  1
strokes_ogs.tif
102
RTVSPost2010PropOp54
 70
     0
102
RTVSPost2010Prop55
280
     0
102
RTVSPost2010PropOp55
 70
     0
102
RTVSPost2010Prop56
140
1.0
102
RTVSPost2010PropOp56
 70
     0
102
RTVSPost2010Prop57
140
1.0
102
RTVSPost2010PropOp57
 70
     0
102
RTVSPropertyOp0
 70
     0
102
RTVSPropertyOp1
 70
     0
102
RTVSPropertyOp2
 70
     0
102
RTVSPropertyOp3
 70
     0
102
RTVSPropertyOp4
 70
     0
102
RTVSPropertyOp5
 70
     0
102
RTVSPropertyOp6
 70
     0
102
RTVSPropertyOp7
 70
     0
102
RTVSPropertyOp8
 70
     0
102
RTVSPropertyOp9
 70
     0
102
RTVSPropertyOp10
 70
     0
102
RTVSPropertyOp11
 70
     0
102
RTVSPropertyOp12
 70
     0
102
RTVSPropertyOp13
 70
     0
102
RTVSPropertyOp14
 70
     2
102
RTVSPropertyOp15
 70
     0
102
RTVSPropertyOp16
 70
     0
102
RTVSPropertyOp17
 70
     0
102
RTVSPropertyOp18
 70
     0
102
RTVSPropertyOp19
 70
     0
102
RTVSPropertyOp20
 70
     0
102
RTVSPropertyOp21
 70
     0
102
RTVSPropertyOp22
 70
     0
102
RTVSPropertyOp23
 70
     0
102
RTVSPropertyOp24
 70
     0
102
RTVSPropertyOp25
 70
     0
102
RTVSPropertyOp26
 70
     0
102
RTVSPropertyOp27
 70
     0
102
RTVSPropertyOp28
 70
     0
102
RTVSPropertyOp29
 70
     0
102
RTVSPropertyOp30
 70
     0
102
RTVSPropertyOp31
 70
     0
102
RTVSPropertyOp32
 70
     0
102
RTVSPropertyOp33
 70
     0
102
RTVSPropertyOp34
 70
     0
102
RTVSPropertyOp35
 70
     0
102
RTVSPropertyOp36
 70
     0
102
RTVSPropertyOp37
 70
     0
102
RTVSPropertyOp38
 70
     0
102
RTVSPropertyOp39
 70
     0
102
RTVSPropertyOp40
 70
     0
102
RTVSPropertyOp41
 70
     0
102
RTVSPropertyOp42
 70
     0
102
RTVSPropertyOp43
 70
     0
102
RTVSPropertyOp44
 70
     0
102
RTVSPropertyOp45
 70
     0
102
RTVSPropertyOp46
 70
     0
102
RTVSPropertyOp47
 70
     0
102
RTVSPropertyOp48
 70
     0
102
RTVSPropertyOp49
 70
     0
102
RTVSPropertyOp50
 70
     0
102
RTVSPropertyOp51
 70
     0
102
RTVSPropertyOp52
 70
     0
102
RTVSPropertyOp53
 70
     0
102
RTVSPropertyOp54
 70
     0
102
RTVSPropertyOp55
 70
     0
102
RTVSPropertyOp56
 70
     0
102
RTVSPropertyOp57
 70
     0
102
RTVSPropertyOp58
 70
     1
102
RTVSPropertyOp59
 70
     1
102
RTVSPropertyOp60
 70
     1
102
RTVSPropertyOp61
 70
     1
102
RTVSPropertyOp62
 70
     1
  0
XRECORD
  5
3C4
102
{ACAD_REACTORS
330
3C3
102
}
330
3C3
100
AcDbXrecord
280
     1
102
RTVSPost2010Prop28
280
     0
102
RTVSPost2010PropOp28
 70
     1
102
RTVSPost2010Prop29
280
     1
102
RTVSPost2010PropOp29
 70
     1
102
RTVSPost2010Prop30
280
     1
102
RTVSPost2010PropOp30
 70
     1
102
RTVSPost2010Prop31
280
     0
102
RTVSPost2010PropOp31
 70
     1
102
RTVSPost2010Prop32
280
     0
102
RTVSPost2010PropOp32
 70
     1
102
RTVSPost2010Prop33
280
     0
102
RTVSPost2010PropOp33
 70
     1
102
RTVSPost2010Prop34
280
     0
102
RTVSPost2010PropOp34
 70
     1
102
RTVSPost2010Prop35
280
     0
102
RTVSPost2010PropOp35
 70
     1
102
RTVSPost2010Prop36
280
     0
102
RTVSPost2010PropOp36
 70
     1
102
RTVSPost2010Prop37
 90
       50
102
RTVSPost2010PropOp37
 70
     1
102
RTVSPost2010Prop38
140
0.0
102
RTVSPost2010PropOp38
 70
     1
102
RTVSPost2010Prop39
140
1.0
102
RTVSPost2010PropOp39
 70
     1
102
RTVSPost2010Prop40
 90
        0
102
RTVSPost2010PropOp40
 70
     1
102
RTVSPost2010Prop41ColorIndex
 90
       18
102
RTVSPost2010Prop41ColorRGB
 90
        0
102
RTVSPost2010PropOp41
 70
     1
102
RTVSPost2010Prop42
 90
       50
102
RTVSPost2010PropOp42
 70
     1
102
RTVSPost2010Prop43
 90
        3
102
RTVSPost2010PropOp43
 70
     1
102
RTVSPost2010Prop44ColorIndex
 90
        5
102
RTVSPost2010Prop44ColorRGB
 90
      255
102
RTVSPost2010PropOp44
 70
     1
102
RTVSPost2010Prop45
280
     0
102
RTVSPost2010PropOp45
 70
     1
102
RTVSPost2010Prop46
 90
       50
102
RTVSPost2010PropOp46
 70
     1
102
RTVSPost2010Prop47
 90
       50
102
RTVSPost2010PropOp47
 70
     1
102
RTVSPost2010Prop48
 90
       50
102
RTVSPost2010PropOp48
 70
     1
102
RTVSPost2010Prop49
280
     0
102
RTVSPost2010PropOp49
 70
     1
102
RTVSPost2010Prop50
 90
       50
102
RTVSPost2010PropOp50
 70
     1
102
RTVSPost2010Prop51ColorIndex
 90
      256
102
RTVSPost2010Prop51ColorRGB
 90
-16777216
102
RTVSPost2010PropOp51
 70
     0
102
RTVSPost2010Prop52
140
1.0
102
RTVSPost2010PropOp52
 70
     0
102
RTVSPost2010Prop53
 90
        2
102
RTVSPost2010PropOp53
 70
     1
102
RTVSPost2010Prop54
  1
strokes_ogs.tif
102
RTVSPost2010PropOp54
 70
     1
102
RTVSPost2010Prop55
280
     0
102
RTVSPost2010PropOp55
 70
     1
102
RTVSPost2010Prop56
140
1.0
102
RTVSPost2010PropOp56
 70
     1
102
RTVSPost2010Prop57
140
1.0
102
RTVSPost2010PropOp57
 70
     1
102
RTVSPropertyOp0
 70
     1
102
RTVSPropertyOp1
 70
     1
102
RTVSPropertyOp2
 70
     1
102
RTVSPropertyOp3
 70
     1
102
RTVSPropertyOp4
 70
     1
102
RTVSPropertyOp5
 70
     1
102
RTVSPropertyOp6
 70
     1
102
RTVSPropertyOp7
 70
     1
102
RTVSPropertyOp8
 70
     1
102
RTVSPropertyOp9
 70
     1
102
RTVSPropertyOp10
 70
     1
102
RTVSPropertyOp11
 70
     1
102
RTVSPropertyOp12
 70
     1
102
RTVSPropertyOp13
 70
     1
102
RTVSPropertyOp14
 70
     1
102
RTVSPropertyOp15
 70
     1
102
RTVSPropertyOp16
 70
     1
102
RTVSPropertyOp17
 70
     1
102
RTVSPropertyOp18
 70
     1
102
RTVSPropertyOp19
 70
     1
102
RTVSPropertyOp20
 70
     1
102
RTVSPropertyOp21
 70
     1
102
RTVSPropertyOp22
 70
     1
102
RTVSPropertyOp23
 70
     1
102
RTVSPropertyOp24
 70
     1
102
RTVSPropertyOp25
 70
     1
102
RTVSPropertyOp26
 70
     1
102
RTVSPropertyOp27
 70
     1
102
RTVSPropertyOp28
 70
     1
102
RTVSPropertyOp29
 70
     1
102
RTVSPropertyOp30
 70
     1
102
RTVSPropertyOp31
 70
     1
102
RTVSPropertyOp32
 70
     1
102
RTVSPropertyOp33
 70
     1
102
RTVSPropertyOp34
 70
     1
102
RTVSPropertyOp35
 70
     1
102
RTVSPropertyOp36
 70
     1
102
RTVSPropertyOp37
 70
     1
102
RTVSPropertyOp38
 70
     1
102
RTVSPropertyOp39
 70
     1
102
RTVSPropertyOp40
 70
     1
102
RTVSPropertyOp41
 70
     1
102
RTVSPropertyOp42
 70
     1
102
RTVSPropertyOp43
 70
     1
102
RTVSPropertyOp44
 70
     1
102
RTVSPropertyOp45
 70
     1
102
RTVSPropertyOp46
 70
     1
102
RTVSPropertyOp47
 70
     1
102
RTVSPropertyOp48
 70
     1
102
RTVSPropertyOp49
 70
     1
102
RTVSPropertyOp50
 70
     1
102
RTVSPropertyOp51
 70
     0
102
RTVSPropertyOp52
 70
     0
102
RTVSPropertyOp53
 70
     1
102
RTVSPropertyOp54
 70
     1
102
RTVSPropertyOp55
 70
     1
102
RTVSPropertyOp56
 70
     1
102
RTVSPropertyOp57
 70
     1
102
RTVSPropertyOp58
 70
     1
102
RTVSPropertyOp59
 70
     1
102
RTVSPropertyOp60
 70
     1
102
RTVSPropertyOp61
 70
     1
102
RTVSPropertyOp62
 70
     1
  0
XRECORD
  5
3CC
102
{ACAD_REACTORS
330
3CB
102
}
330
3CB
100
AcDbXrecord
280
     1
102
RTVSPost2010Prop28
280
     0
102
RTVSPost2010PropOp28
 70
     0
102
RTVSPost2010Prop29
280
     1
102
RTVSPost2010PropOp29
 70
     0
102
RTVSPost2010Prop30
280
     1
102
RTVSPost2010PropOp30
 70
     0
102
RTVSPost2010Prop31
280
     0
102
RTVSPost2010PropOp31
 70
     0
102
RTVSPost2010Prop32
280
     0
102
RTVSPost2010PropOp32
 70
     0
102
RTVSPost2010Prop33
280
     0
102
RTVSPost2010PropOp33
 70
     0
102
RTVSPost2010Prop34
280
     0
102
RTVSPost2010PropOp34
 70
     0
102
RTVSPost2010Prop35
280
     0
102
RTVSPost2010PropOp35
 70
     0
102
RTVSPost2010Prop36
280
     0
102
RTVSPost2010PropOp36
 70
     0
102
RTVSPost2010Prop37
 90
       50
102
RTVSPost2010PropOp37
 70
     0
102
RTVSPost2010Prop38
140
0.0
102
RTVSPost2010PropOp38
 70
     0
102
RTVSPost2010Prop39
140
1.0
102
RTVSPost2010PropOp39
 70
     0
102
RTVSPost2010Prop40
 90
        0
102
RTVSPost2010PropOp40
 70
     0
102
RTVSPost2010Prop41ColorIndex
 90
       18
102
RTVSPost2010Prop41ColorRGB
 90
        0
102
RTVSPost2010PropOp41
 70
     0
102
RTVSPost2010Prop42
 90
       50
102
RTVSPost2010PropOp42
 70
     0
102
RTVSPost2010Prop43
 90
        3
102
RTVSPost2010PropOp43
 70
     0
102
RTVSPost2010Prop44ColorIndex
 90
        5
102
RTVSPost2010Prop44ColorRGB
 90
      255
102
RTVSPost2010PropOp44
 70
     0
102
RTVSPost2010Prop45
280
     0
102
RTVSPost2010PropOp45
 70
     0
102
RTVSPost2010Prop46
 90
       50
102
RTVSPost2010PropOp46
 70
     0
102
RTVSPost2010Prop47
 90
       50
102
RTVSPost2010PropOp47
 70
     0
102
RTVSPost2010Prop48
 90
       50
102
RTVSPost2010PropOp48
 70
     0
102
RTVSPost2010Prop49
280
     0
102
RTVSPost2010PropOp49
 70
     0
102
RTVSPost2010Prop50
 90
       50
102
RTVSPost2010PropOp50
 70
     0
102
RTVSPost2010Prop51ColorIndex
 90
      256
102
RTVSPost2010Prop51ColorRGB
 90
-16777216
102
RTVSPost2010PropOp51
 70
     0
102
RTVSPost2010Prop52
140
1.0
102
RTVSPost2010PropOp52
 70
     0
102
RTVSPost2010Prop53
 90
        2
102
RTVSPost2010PropOp53
 70
     0
102
RTVSPost2010Prop54
  1
strokes_ogs.tif
102
RTVSPost2010PropOp54
 70
     0
102
RTVSPost2010Prop55
280
     0
102
RTVSPost2010PropOp55
 70
     0
102
RTVSPost2010Prop56
140
1.0
102
RTVSPost2010PropOp56
 70
     0
102
RTVSPost2010Prop57
140
1.0
102
RTVSPost2010PropOp57
 70
     0
102
RTVSPropertyOp0
 70
     0
102
RTVSPropertyOp1
 70
     0
102
RTVSPropertyOp2
 70
     0
102
RTVSPropertyOp3
 70
     0
102
RTVSPropertyOp4
 70
     0
102
RTVSPropertyOp5
 70
     0
102
RTVSPropertyOp6
 70
     0
102
RTVSPropertyOp7
 70
     0
102
RTVSPropertyOp8
 70
     0
102
RTVSPropertyOp9
 70
     0
102
RTVSPropertyOp10
 70
     0
102
RTVSPropertyOp11
 70
     0
102
RTVSPropertyOp12
 70
     0
102
RTVSPropertyOp13
 70
     0
102
RTVSPropertyOp14
 70
     2
102
RTVSPropertyOp15
 70
     0
102
RTVSPropertyOp16
 70
     0
102
RTVSPropertyOp17
 70
     0
102
RTVSPropertyOp18
 70
     0
102
RTVSPropertyOp19
 70
     0
102
RTVSPropertyOp20
 70
     0
102
RTVSPropertyOp21
 70
     0
102
RTVSPropertyOp22
 70
     0
102
RTVSPropertyOp23
 70
     0
102
RTVSPropertyOp24
 70
     0
102
RTVSPropertyOp25
 70
     0
102
RTVSPropertyOp26
 70
     0
102
RTVSPropertyOp27
 70
     0
102
RTVSPropertyOp28
 70
     0
102
RTVSPropertyOp29
 70
     0
102
RTVSPropertyOp30
 70
     0
102
RTVSPropertyOp31
 70
     0
102
RTVSPropertyOp32
 70
     0
102
RTVSPropertyOp33
 70
     0
102
RTVSPropertyOp34
 70
     0
102
RTVSPropertyOp35
 70
     0
102
RTVSPropertyOp36
 70
     0
102
RTVSPropertyOp37
 70
     0
102
RTVSPropertyOp38
 70
     0
102
RTVSPropertyOp39
 70
     0
102
RTVSPropertyOp40
 70
     0
102
RTVSPropertyOp41
 70
     0
102
RTVSPropertyOp42
 70
     0
102
RTVSPropertyOp43
 70
     0
102
RTVSPropertyOp44
 70
     0
102
RTVSPropertyOp45
 70
     0
102
RTVSPropertyOp46
 70
     0
102
RTVSPropertyOp47
 70
     0
102
RTVSPropertyOp48
 70
     0
102
RTVSPropertyOp49
 70
     0
102
RTVSPropertyOp50
 70
     0
102
RTVSPropertyOp51
 70
     0
102
RTVSPropertyOp52
 70
     0
102
RTVSPropertyOp53
 70
     0
102
RTVSPropertyOp54
 70
     0
102
RTVSPropertyOp55
 70
     0
102
RTVSPropertyOp56
 70
     0
102
RTVSPropertyOp57
 70
     0
102
RTVSPropertyOp58
 70
     1
102
RTVSPropertyOp59
 70
     1
102
RTVSPropertyOp60
 70
     1
102
RTVSPropertyOp61
 70
     1
102
RTVSPropertyOp62
 70
     1
  0
XRECORD
  5
3BA
102
{ACAD_REACTORS
330
3B9
102
}
330
3B9
100
AcDbXrecord
280
     1
102
RTVSPost2010Prop28
280
     0
102
RTVSPost2010PropOp28
 70
     1
102
RTVSPost2010Prop29
280
     1
102
RTVSPost2010PropOp29
 70
     1
102
RTVSPost2010Prop30
280
     1
102
RTVSPost2010PropOp30
 70
     1
102
RTVSPost2010Prop31
280
     0
102
RTVSPost2010PropOp31
 70
     1
102
RTVSPost2010Prop32
280
     0
102
RTVSPost2010PropOp32
 70
     1
102
RTVSPost2010Prop33
280
     0
102
RTVSPost2010PropOp33
 70
     1
102
RTVSPost2010Prop34
280
     0
102
RTVSPost2010PropOp34
 70
     1
102
RTVSPost2010Prop35
280
     0
102
RTVSPost2010PropOp35
 70
     1
102
RTVSPost2010Prop36
280
     0
102
RTVSPost2010PropOp36
 70
     1
102
RTVSPost2010Prop37
 90
       50
102
RTVSPost2010PropOp37
 70
     1
102
RTVSPost2010Prop38
140
0.0
102
RTVSPost2010PropOp38
 70
     1
102
RTVSPost2010Prop39
140
1.0
102
RTVSPost2010PropOp39
 70
     1
102
RTVSPost2010Prop40
 90
        0
102
RTVSPost2010PropOp40
 70
     1
102
RTVSPost2010Prop41ColorIndex
 90
       18
102
RTVSPost2010Prop41ColorRGB
 90
        0
102
RTVSPost2010PropOp41
 70
     1
102
RTVSPost2010Prop42
 90
       50
102
RTVSPost2010PropOp42
 70
     1
102
RTVSPost2010Prop43
 90
        3
102
RTVSPost2010PropOp43
 70
     1
102
RTVSPost2010Prop44ColorIndex
 90
        5
102
RTVSPost2010Prop44ColorRGB
 90
      255
102
RTVSPost2010PropOp44
 70
     1
102
RTVSPost2010Prop45
280
     0
102
RTVSPost2010PropOp45
 70
     1
102
RTVSPost2010Prop46
 90
       50
102
RTVSPost2010PropOp46
 70
     1
102
RTVSPost2010Prop47
 90
       50
102
RTVSPost2010PropOp47
 70
     1
102
RTVSPost2010Prop48
 90
       50
102
RTVSPost2010PropOp48
 70
     1
102
RTVSPost2010Prop49
280
     0
102
RTVSPost2010PropOp49
 70
     1
102
RTVSPost2010Prop50
 90
       50
102
RTVSPost2010PropOp50
 70
     1
102
RTVSPost2010Prop51ColorIndex
 90
      256
102
RTVSPost2010Prop51ColorRGB
 90
-16777216
102
RTVSPost2010PropOp51
 70
     0
102
RTVSPost2010Prop52
140
1.0
102
RTVSPost2010PropOp52
 70
     0
102
RTVSPost2010Prop53
 90
        2
102
RTVSPost2010PropOp53
 70
     1
102
RTVSPost2010Prop54
  1
strokes_ogs.tif
102
RTVSPost2010PropOp54
 70
     1
102
RTVSPost2010Prop55
280
     0
102
RTVSPost2010PropOp55
 70
     1
102
RTVSPost2010Prop56
140
1.0
102
RTVSPost2010PropOp56
 70
     1
102
RTVSPost2010Prop57
140
1.0
102
RTVSPost2010PropOp57
 70
     1
102
RTVSPropertyOp0
 70
     1
102
RTVSPropertyOp1
 70
     1
102
RTVSPropertyOp2
 70
     1
102
RTVSPropertyOp3
 70
     1
102
RTVSPropertyOp4
 70
     1
102
RTVSPropertyOp5
 70
     1
102
RTVSPropertyOp6
 70
     1
102
RTVSPropertyOp7
 70
     1
102
RTVSPropertyOp8
 70
     1
102
RTVSPropertyOp9
 70
     1
102
RTVSPropertyOp10
 70
     1
102
RTVSPropertyOp11
 70
     1
102
RTVSPropertyOp12
 70
     1
102
RTVSPropertyOp13
 70
     1
102
RTVSPropertyOp14
 70
     1
102
RTVSPropertyOp15
 70
     1
102
RTVSPropertyOp16
 70
     1
102
RTVSPropertyOp17
 70
     1
102
RTVSPropertyOp18
 70
     1
102
RTVSPropertyOp19
 70
     1
102
RTVSPropertyOp20
 70
     1
102
RTVSPropertyOp21
 70
     1
102
RTVSPropertyOp22
 70
     1
102
RTVSPropertyOp23
 70
     1
102
RTVSPropertyOp24
 70
     1
102
RTVSPropertyOp25
 70
     1
102
RTVSPropertyOp26
 70
     1
102
RTVSPropertyOp27
 70
     1
102
RTVSPropertyOp28
 70
     1
102
RTVSPropertyOp29
 70
     1
102
RTVSPropertyOp30
 70
     1
102
RTVSPropertyOp31
 70
     1
102
RTVSPropertyOp32
 70
     1
102
RTVSPropertyOp33
 70
     1
102
RTVSPropertyOp34
 70
     1
102
RTVSPropertyOp35
 70
     1
102
RTVSPropertyOp36
 70
     1
102
RTVSPropertyOp37
 70
     1
102
RTVSPropertyOp38
 70
     1
102
RTVSPropertyOp39
 70
     1
102
RTVSPropertyOp40
 70
     1
102
RTVSPropertyOp41
 70
     1
102
RTVSPropertyOp42
 70
     1
102
RTVSPropertyOp43
 70
     1
102
RTVSPropertyOp44
 70
     1
102
RTVSPropertyOp45
 70
     1
102
RTVSPropertyOp46
 70
     1
102
RTVSPropertyOp47
 70
     1
102
RTVSPropertyOp48
 70
     1
102
RTVSPropertyOp49
 70
     1
102
RTVSPropertyOp50
 70
     1
102
RTVSPropertyOp51
 70
     0
102
RTVSPropertyOp52
 70
     0
102
RTVSPropertyOp53
 70
     1
102
RTVSPropertyOp54
 70
     1
102
RTVSPropertyOp55
 70
     1
102
RTVSPropertyOp56
 70
     1
102
RTVSPropertyOp57
 70
     1
102
RTVSPropertyOp58
 70
     1
102
RTVSPropertyOp59
 70
     1
102
RTVSPropertyOp60
 70
     1
102
RTVSPropertyOp61
 70
     1
102
RTVSPropertyOp62
 70
     1
  0
XRECORD
  5
3D8
102
{ACAD_REACTORS
330
3D7
102
}
330
3D7
100
AcDbXrecord
280
     1
102
RTVSPost2010Prop28
280
     0
102
RTVSPost2010PropOp28
 70
     1
102
RTVSPost2010Prop29
280
     1
102
RTVSPost2010PropOp29
 70
     1
102
RTVSPost2010Prop30
280
     1
102
RTVSPost2010PropOp30
 70
     1
102
RTVSPost2010Prop31
280
     0
102
RTVSPost2010PropOp31
 70
     1
102
RTVSPost2010Prop32
280
     0
102
RTVSPost2010PropOp32
 70
     1
102
RTVSPost2010Prop33
280
     0
102
RTVSPost2010PropOp33
 70
     1
102
RTVSPost2010Prop34
280
     0
102
RTVSPost2010PropOp34
 70
     1
102
RTVSPost2010Prop35
280
     0
102
RTVSPost2010PropOp35
 70
     1
102
RTVSPost2010Prop36
280
     0
102
RTVSPost2010PropOp36
 70
     1
102
RTVSPost2010Prop37
 90
       50
102
RTVSPost2010PropOp37
 70
     1
102
RTVSPost2010Prop38
140
0.0
102
RTVSPost2010PropOp38
 70
     1
102
RTVSPost2010Prop39
140
1.0
102
RTVSPost2010PropOp39
 70
     1
102
RTVSPost2010Prop40
 90
        0
102
RTVSPost2010PropOp40
 70
     1
102
RTVSPost2010Prop41ColorIndex
 90
       18
102
RTVSPost2010Prop41ColorRGB
 90
        0
102
RTVSPost2010PropOp41
 70
     1
102
RTVSPost2010Prop42
 90
       50
102
RTVSPost2010PropOp42
 70
     1
102
RTVSPost2010Prop43
 90
        3
102
RTVSPost2010PropOp43
 70
     1
102
RTVSPost2010Prop44ColorIndex
 90
        5
102
RTVSPost2010Prop44ColorRGB
 90
      255
102
RTVSPost2010PropOp44
 70
     1
102
RTVSPost2010Prop45
280
     0
102
RTVSPost2010PropOp45
 70
     1
102
RTVSPost2010Prop46
 90
       50
102
RTVSPost2010PropOp46
 70
     1
102
RTVSPost2010Prop47
 90
       50
102
RTVSPost2010PropOp47
 70
     1
102
RTVSPost2010Prop48
 90
       50
102
RTVSPost2010PropOp48
 70
     1
102
RTVSPost2010Prop49
280
     0
102
RTVSPost2010PropOp49
 70
     1
102
RTVSPost2010Prop50
 90
       50
102
RTVSPost2010PropOp50
 70
     1
102
RTVSPost2010Prop51ColorIndex
 90
      256
102
RTVSPost2010Prop51ColorRGB
 90
-16777216
102
RTVSPost2010PropOp51
 70
     0
102
RTVSPost2010Prop52
140
1.0
102
RTVSPost2010PropOp52
 70
     0
102
RTVSPost2010Prop53
 90
        2
102
RTVSPost2010PropOp53
 70
     1
102
RTVSPost2010Prop54
  1
strokes_ogs.tif
102
RTVSPost2010PropOp54
 70
     1
102
RTVSPost2010Prop55
280
     0
102
RTVSPost2010PropOp55
 70
     1
102
RTVSPost2010Prop56
140
1.0
102
RTVSPost2010PropOp56
 70
     1
102
RTVSPost2010Prop57
140
1.0
102
RTVSPost2010PropOp57
 70
     1
102
RTVSPropertyOp0
 70
     1
102
RTVSPropertyOp1
 70
     1
102
RTVSPropertyOp2
 70
     1
102
RTVSPropertyOp3
 70
     1
102
RTVSPropertyOp4
 70
     1
102
RTVSPropertyOp5
 70
     1
102
RTVSPropertyOp6
 70
     1
102
RTVSPropertyOp7
 70
     1
102
RTVSPropertyOp8
 70
     1
102
RTVSPropertyOp9
 70
     1
102
RTVSPropertyOp10
 70
     1
102
RTVSPropertyOp11
 70
     1
102
RTVSPropertyOp12
 70
     1
102
RTVSPropertyOp13
 70
     1
102
RTVSPropertyOp14
 70
     1
102
RTVSPropertyOp15
 70
     1
102
RTVSPropertyOp16
 70
     1
102
RTVSPropertyOp17
 70
     1
102
RTVSPropertyOp18
 70
     1
102
RTVSPropertyOp19
 70
     1
102
RTVSPropertyOp20
 70
     1
102
RTVSPropertyOp21
 70
     1
102
RTVSPropertyOp22
 70
     1
102
RTVSPropertyOp23
 70
     1
102
RTVSPropertyOp24
 70
     1
102
RTVSPropertyOp25
 70
     1
102
RTVSPropertyOp26
 70
     1
102
RTVSPropertyOp27
 70
     1
102
RTVSPropertyOp28
 70
     1
102
RTVSPropertyOp29
 70
     1
102
RTVSPropertyOp30
 70
     1
102
RTVSPropertyOp31
 70
     1
102
RTVSPropertyOp32
 70
     1
102
RTVSPropertyOp33
 70
     1
102
RTVSPropertyOp34
 70
     1
102
RTVSPropertyOp35
 70
     1
102
RTVSPropertyOp36
 70
     1
102
RTVSPropertyOp37
 70
     1
102
RTVSPropertyOp38
 70
     1
102
RTVSPropertyOp39
 70
     1
102
RTVSPropertyOp40
 70
     1
102
RTVSPropertyOp41
 70
     1
102
RTVSPropertyOp42
 70
     1
102
RTVSPropertyOp43
 70
     1
102
RTVSPropertyOp44
 70
     1
102
RTVSPropertyOp45
 70
     1
102
RTVSPropertyOp46
 70
     1
102
RTVSPropertyOp47
 70
     1
102
RTVSPropertyOp48
 70
     1
102
RTVSPropertyOp49
 70
     1
102
RTVSPropertyOp50
 70
     1
102
RTVSPropertyOp51
 70
     0
102
RTVSPropertyOp52
 70
     0
102
RTVSPropertyOp53
 70
     1
102
RTVSPropertyOp54
 70
     1
102
RTVSPropertyOp55
 70
     1
102
RTVSPropertyOp56
 70
     1
102
RTVSPropertyOp57
 70
     1
102
RTVSPropertyOp58
 70
     1
102
RTVSPropertyOp59
 70
     1
102
RTVSPropertyOp60
 70
     1
102
RTVSPropertyOp61
 70
     1
102
RTVSPropertyOp62
 70
     1
  0
XRECORD
  5
3D6
102
{ACAD_REACTORS
330
3D5
102
}
330
3D5
100
AcDbXrecord
280
     1
102
RTVSPost2010Prop28
280
     0
102
RTVSPost2010PropOp28
 70
     1
102
RTVSPost2010Prop29
280
     1
102
RTVSPost2010PropOp29
 70
     1
102
RTVSPost2010Prop30
280
     1
102
RTVSPost2010PropOp30
 70
     1
102
RTVSPost2010Prop31
280
     0
102
RTVSPost2010PropOp31
 70
     1
102
RTVSPost2010Prop32
280
     0
102
RTVSPost2010PropOp32
 70
     1
102
RTVSPost2010Prop33
280
     0
102
RTVSPost2010PropOp33
 70
     1
102
RTVSPost2010Prop34
280
     0
102
RTVSPost2010PropOp34
 70
     1
102
RTVSPost2010Prop35
280
     0
102
RTVSPost2010PropOp35
 70
     1
102
RTVSPost2010Prop36
280
     0
102
RTVSPost2010PropOp36
 70
     1
102
RTVSPost2010Prop37
 90
       50
102
RTVSPost2010PropOp37
 70
     1
102
RTVSPost2010Prop38
140
0.0
102
RTVSPost2010PropOp38
 70
     1
102
RTVSPost2010Prop39
140
1.0
102
RTVSPost2010PropOp39
 70
     1
102
RTVSPost2010Prop40
 90
        0
102
RTVSPost2010PropOp40
 70
     1
102
RTVSPost2010Prop41ColorIndex
 90
       18
102
RTVSPost2010Prop41ColorRGB
 90
        0
102
RTVSPost2010PropOp41
 70
     1
102
RTVSPost2010Prop42
 90
       50
102
RTVSPost2010PropOp42
 70
     1
102
RTVSPost2010Prop43
 90
        3
102
RTVSPost2010PropOp43
 70
     1
102
RTVSPost2010Prop44ColorIndex
 90
        5
102
RTVSPost2010Prop44ColorRGB
 90
      255
102
RTVSPost2010PropOp44
 70
     1
102
RTVSPost2010Prop45
280
     0
102
RTVSPost2010PropOp45
 70
     1
102
RTVSPost2010Prop46
 90
       50
102
RTVSPost2010PropOp46
 70
     1
102
RTVSPost2010Prop47
 90
       50
102
RTVSPost2010PropOp47
 70
     1
102
RTVSPost2010Prop48
 90
       50
102
RTVSPost2010PropOp48
 70
     1
102
RTVSPost2010Prop49
280
     0
102
RTVSPost2010PropOp49
 70
     1
102
RTVSPost2010Prop50
 90
       50
102
RTVSPost2010PropOp50
 70
     1
102
RTVSPost2010Prop51ColorIndex
 90
      256
102
RTVSPost2010Prop51ColorRGB
 90
-16777216
102
RTVSPost2010PropOp51
 70
     0
102
RTVSPost2010Prop52
140
1.0
102
RTVSPost2010PropOp52
 70
     0
102
RTVSPost2010Prop53
 90
        2
102
RTVSPost2010PropOp53
 70
     1
102
RTVSPost2010Prop54
  1
strokes_ogs.tif
102
RTVSPost2010PropOp54
 70
     1
102
RTVSPost2010Prop55
280
     0
102
RTVSPost2010PropOp55
 70
     1
102
RTVSPost2010Prop56
140
1.0
102
RTVSPost2010PropOp56
 70
     1
102
RTVSPost2010Prop57
140
1.0
102
RTVSPost2010PropOp57
 70
     1
102
RTVSPropertyOp0
 70
     1
102
RTVSPropertyOp1
 70
     1
102
RTVSPropertyOp2
 70
     1
102
RTVSPropertyOp3
 70
     1
102
RTVSPropertyOp4
 70
     1
102
RTVSPropertyOp5
 70
     1
102
RTVSPropertyOp6
 70
     1
102
RTVSPropertyOp7
 70
     1
102
RTVSPropertyOp8
 70
     1
102
RTVSPropertyOp9
 70
     1
102
RTVSPropertyOp10
 70
     1
102
RTVSPropertyOp11
 70
     1
102
RTVSPropertyOp12
 70
     1
102
RTVSPropertyOp13
 70
     1
102
RTVSPropertyOp14
 70
     1
102
RTVSPropertyOp15
 70
     1
102
RTVSPropertyOp16
 70
     1
102
RTVSPropertyOp17
 70
     1
102
RTVSPropertyOp18
 70
     1
102
RTVSPropertyOp19
 70
     1
102
RTVSPropertyOp20
 70
     1
102
RTVSPropertyOp21
 70
     1
102
RTVSPropertyOp22
 70
     1
102
RTVSPropertyOp23
 70
     1
102
RTVSPropertyOp24
 70
     1
102
RTVSPropertyOp25
 70
     1
102
RTVSPropertyOp26
 70
     1
102
RTVSPropertyOp27
 70
     1
102
RTVSPropertyOp28
 70
     1
102
RTVSPropertyOp29
 70
     1
102
RTVSPropertyOp30
 70
     1
102
RTVSPropertyOp31
 70
     1
102
RTVSPropertyOp32
 70
     1
102
RTVSPropertyOp33
 70
     1
102
RTVSPropertyOp34
 70
     1
102
RTVSPropertyOp35
 70
     1
102
RTVSPropertyOp36
 70
     1
102
RTVSPropertyOp37
 70
     1
102
RTVSPropertyOp38
 70
     1
102
RTVSPropertyOp39
 70
     1
102
RTVSPropertyOp40
 70
     1
102
RTVSPropertyOp41
 70
     1
102
RTVSPropertyOp42
 70
     1
102
RTVSPropertyOp43
 70
     1
102
RTVSPropertyOp44
 70
     1
102
RTVSPropertyOp45
 70
     1
102
RTVSPropertyOp46
 70
     1
102
RTVSPropertyOp47
 70
     1
102
RTVSPropertyOp48
 70
     1
102
RTVSPropertyOp49
 70
     1
102
RTVSPropertyOp50
 70
     1
102
RTVSPropertyOp51
 70
     0
102
RTVSPropertyOp52
 70
     0
102
RTVSPropertyOp53
 70
     1
102
RTVSPropertyOp54
 70
     1
102
RTVSPropertyOp55
 70
     1
102
RTVSPropertyOp56
 70
     1
102
RTVSPropertyOp57
 70
     1
102
RTVSPropertyOp58
 70
     1
102
RTVSPropertyOp59
 70
     1
102
RTVSPropertyOp60
 70
     1
102
RTVSPropertyOp61
 70
     1
102
RTVSPropertyOp62
 70
     1
  0
XRECORD
  5
3D0
102
{ACAD_REACTORS
330
3CF
102
}
330
3CF
100
AcDbXrecord
280
     1
102
RTVSPost2010Prop28
280
     0
102
RTVSPost2010PropOp28
 70
     1
102
RTVSPost2010Prop29
280
     1
102
RTVSPost2010PropOp29
 70
     1
102
RTVSPost2010Prop30
280
     1
102
RTVSPost2010PropOp30
 70
     1
102
RTVSPost2010Prop31
280
     0
102
RTVSPost2010PropOp31
 70
     1
102
RTVSPost2010Prop32
280
     0
102
RTVSPost2010PropOp32
 70
     1
102
RTVSPost2010Prop33
280
     0
102
RTVSPost2010PropOp33
 70
     1
102
RTVSPost2010Prop34
280
     0
102
RTVSPost2010PropOp34
 70
     1
102
RTVSPost2010Prop35
280
     0
102
RTVSPost2010PropOp35
 70
     1
102
RTVSPost2010Prop36
280
     0
102
RTVSPost2010PropOp36
 70
     1
102
RTVSPost2010Prop37
 90
       50
102
RTVSPost2010PropOp37
 70
     1
102
RTVSPost2010Prop38
140
0.0
102
RTVSPost2010PropOp38
 70
     1
102
RTVSPost2010Prop39
140
1.0
102
RTVSPost2010PropOp39
 70
     1
102
RTVSPost2010Prop40
 90
        0
102
RTVSPost2010PropOp40
 70
     1
102
RTVSPost2010Prop41ColorIndex
 90
       18
102
RTVSPost2010Prop41ColorRGB
 90
        0
102
RTVSPost2010PropOp41
 70
     1
102
RTVSPost2010Prop42
 90
       50
102
RTVSPost2010PropOp42
 70
     1
102
RTVSPost2010Prop43
 90
        3
102
RTVSPost2010PropOp43
 70
     1
102
RTVSPost2010Prop44ColorIndex
 90
        5
102
RTVSPost2010Prop44ColorRGB
 90
      255
102
RTVSPost2010PropOp44
 70
     1
102
RTVSPost2010Prop45
280
     0
102
RTVSPost2010PropOp45
 70
     1
102
RTVSPost2010Prop46
 90
       50
102
RTVSPost2010PropOp46
 70
     1
102
RTVSPost2010Prop47
 90
       50
102
RTVSPost2010PropOp47
 70
     1
102
RTVSPost2010Prop48
 90
       50
102
RTVSPost2010PropOp48
 70
     1
102
RTVSPost2010Prop49
280
     0
102
RTVSPost2010PropOp49
 70
     1
102
RTVSPost2010Prop50
 90
       50
102
RTVSPost2010PropOp50
 70
     1
102
RTVSPost2010Prop51ColorIndex
 90
      256
102
RTVSPost2010Prop51ColorRGB
 90
-16777216
102
RTVSPost2010PropOp51
 70
     0
102
RTVSPost2010Prop52
140
1.0
102
RTVSPost2010PropOp52
 70
     0
102
RTVSPost2010Prop53
 90
        2
102
RTVSPost2010PropOp53
 70
     1
102
RTVSPost2010Prop54
  1
strokes_ogs.tif
102
RTVSPost2010PropOp54
 70
     1
102
RTVSPost2010Prop55
280
     0
102
RTVSPost2010PropOp55
 70
     1
102
RTVSPost2010Prop56
140
1.0
102
RTVSPost2010PropOp56
 70
     1
102
RTVSPost2010Prop57
140
1.0
102
RTVSPost2010PropOp57
 70
     1
102
RTVSPropertyOp0
 70
     1
102
RTVSPropertyOp1
 70
     1
102
RTVSPropertyOp2
 70
     1
102
RTVSPropertyOp3
 70
     1
102
RTVSPropertyOp4
 70
     1
102
RTVSPropertyOp5
 70
     1
102
RTVSPropertyOp6
 70
     1
102
RTVSPropertyOp7
 70
     1
102
RTVSPropertyOp8
 70
     1
102
RTVSPropertyOp9
 70
     1
102
RTVSPropertyOp10
 70
     1
102
RTVSPropertyOp11
 70
     1
102
RTVSPropertyOp12
 70
     1
102
RTVSPropertyOp13
 70
     1
102
RTVSPropertyOp14
 70
     1
102
RTVSPropertyOp15
 70
     1
102
RTVSPropertyOp16
 70
     1
102
RTVSPropertyOp17
 70
     1
102
RTVSPropertyOp18
 70
     1
102
RTVSPropertyOp19
 70
     1
102
RTVSPropertyOp20
 70
     1
102
RTVSPropertyOp21
 70
     1
102
RTVSPropertyOp22
 70
     1
102
RTVSPropertyOp23
 70
     1
102
RTVSPropertyOp24
 70
     1
102
RTVSPropertyOp25
 70
     1
102
RTVSPropertyOp26
 70
     1
102
RTVSPropertyOp27
 70
     1
102
RTVSPropertyOp28
 70
     1
102
RTVSPropertyOp29
 70
     1
102
RTVSPropertyOp30
 70
     1
102
RTVSPropertyOp31
 70
     1
102
RTVSPropertyOp32
 70
     1
102
RTVSPropertyOp33
 70
     1
102
RTVSPropertyOp34
 70
     1
102
RTVSPropertyOp35
 70
     1
102
RTVSPropertyOp36
 70
     1
102
RTVSPropertyOp37
 70
     1
102
RTVSPropertyOp38
 70
     1
102
RTVSPropertyOp39
 70
     1
102
RTVSPropertyOp40
 70
     1
102
RTVSPropertyOp41
 70
     1
102
RTVSPropertyOp42
 70
     1
102
RTVSPropertyOp43
 70
     1
102
RTVSPropertyOp44
 70
     1
102
RTVSPropertyOp45
 70
     1
102
RTVSPropertyOp46
 70
     1
102
RTVSPropertyOp47
 70
     1
102
RTVSPropertyOp48
 70
     1
102
RTVSPropertyOp49
 70
     1
102
RTVSPropertyOp50
 70
     1
102
RTVSPropertyOp51
 70
     0
102
RTVSPropertyOp52
 70
     0
102
RTVSPropertyOp53
 70
     1
102
RTVSPropertyOp54
 70
     1
102
RTVSPropertyOp55
 70
     1
102
RTVSPropertyOp56
 70
     1
102
RTVSPropertyOp57
 70
     1
102
RTVSPropertyOp58
 70
     1
102
RTVSPropertyOp59
 70
     1
102
RTVSPropertyOp60
 70
     1
102
RTVSPropertyOp61
 70
     1
102
RTVSPropertyOp62
 70
     1
  0
XRECORD
  5
3D2
102
{ACAD_REACTORS
330
3D1
102
}
330
3D1
100
AcDbXrecord
280
     1
102
RTVSPost2010Prop28
280
     0
102
RTVSPost2010PropOp28
 70
     1
102
RTVSPost2010Prop29
280
     1
102
RTVSPost2010PropOp29
 70
     1
102
RTVSPost2010Prop30
280
     1
102
RTVSPost2010PropOp30
 70
     1
102
RTVSPost2010Prop31
280
     0
102
RTVSPost2010PropOp31
 70
     1
102
RTVSPost2010Prop32
280
     0
102
RTVSPost2010PropOp32
 70
     1
102
RTVSPost2010Prop33
280
     0
102
RTVSPost2010PropOp33
 70
     1
102
RTVSPost2010Prop34
280
     0
102
RTVSPost2010PropOp34
 70
     1
102
RTVSPost2010Prop35
280
     0
102
RTVSPost2010PropOp35
 70
     1
102
RTVSPost2010Prop36
280
     0
102
RTVSPost2010PropOp36
 70
     1
102
RTVSPost2010Prop37
 90
       50
102
RTVSPost2010PropOp37
 70
     1
102
RTVSPost2010Prop38
140
0.0
102
RTVSPost2010PropOp38
 70
     1
102
RTVSPost2010Prop39
140
1.0
102
RTVSPost2010PropOp39
 70
     1
102
RTVSPost2010Prop40
 90
        0
102
RTVSPost2010PropOp40
 70
     1
102
RTVSPost2010Prop41ColorIndex
 90
       18
102
RTVSPost2010Prop41ColorRGB
 90
        0
102
RTVSPost2010PropOp41
 70
     1
102
RTVSPost2010Prop42
 90
       50
102
RTVSPost2010PropOp42
 70
     1
102
RTVSPost2010Prop43
 90
        3
102
RTVSPost2010PropOp43
 70
     1
102
RTVSPost2010Prop44ColorIndex
 90
        5
102
RTVSPost2010Prop44ColorRGB
 90
      255
102
RTVSPost2010PropOp44
 70
     1
102
RTVSPost2010Prop45
280
     0
102
RTVSPost2010PropOp45
 70
     1
102
RTVSPost2010Prop46
 90
       50
102
RTVSPost2010PropOp46
 70
     1
102
RTVSPost2010Prop47
 90
       50
102
RTVSPost2010PropOp47
 70
     1
102
RTVSPost2010Prop48
 90
       50
102
RTVSPost2010PropOp48
 70
     1
102
RTVSPost2010Prop49
280
     0
102
RTVSPost2010PropOp49
 70
     1
102
RTVSPost2010Prop50
 90
       50
102
RTVSPost2010PropOp50
 70
     1
102
RTVSPost2010Prop51ColorIndex
 90
      256
102
RTVSPost2010Prop51ColorRGB
 90
-16777216
102
RTVSPost2010PropOp51
 70
     0
102
RTVSPost2010Prop52
140
1.0
102
RTVSPost2010PropOp52
 70
     0
102
RTVSPost2010Prop53
 90
        2
102
RTVSPost2010PropOp53
 70
     1
102
RTVSPost2010Prop54
  1
strokes_ogs.tif
102
RTVSPost2010PropOp54
 70
     1
102
RTVSPost2010Prop55
280
     0
102
RTVSPost2010PropOp55
 70
     1
102
RTVSPost2010Prop56
140
1.0
102
RTVSPost2010PropOp56
 70
     1
102
RTVSPost2010Prop57
140
1.0
102
RTVSPost2010PropOp57
 70
     1
102
RTVSPropertyOp0
 70
     1
102
RTVSPropertyOp1
 70
     1
102
RTVSPropertyOp2
 70
     1
102
RTVSPropertyOp3
 70
     1
102
RTVSPropertyOp4
 70
     1
102
RTVSPropertyOp5
 70
     1
102
RTVSPropertyOp6
 70
     1
102
RTVSPropertyOp7
 70
     1
102
RTVSPropertyOp8
 70
     1
102
RTVSPropertyOp9
 70
     1
102
RTVSPropertyOp10
 70
     1
102
RTVSPropertyOp11
 70
     1
102
RTVSPropertyOp12
 70
     1
102
RTVSPropertyOp13
 70
     1
102
RTVSPropertyOp14
 70
     1
102
RTVSPropertyOp15
 70
     1
102
RTVSPropertyOp16
 70
     1
102
RTVSPropertyOp17
 70
     1
102
RTVSPropertyOp18
 70
     1
102
RTVSPropertyOp19
 70
     1
102
RTVSPropertyOp20
 70
     1
102
RTVSPropertyOp21
 70
     1
102
RTVSPropertyOp22
 70
     1
102
RTVSPropertyOp23
 70
     1
102
RTVSPropertyOp24
 70
     1
102
RTVSPropertyOp25
 70
     1
102
RTVSPropertyOp26
 70
     1
102
RTVSPropertyOp27
 70
     1
102
RTVSPropertyOp28
 70
     1
102
RTVSPropertyOp29
 70
     1
102
RTVSPropertyOp30
 70
     1
102
RTVSPropertyOp31
 70
     1
102
RTVSPropertyOp32
 70
     1
102
RTVSPropertyOp33
 70
     1
102
RTVSPropertyOp34
 70
     1
102
RTVSPropertyOp35
 70
     1
102
RTVSPropertyOp36
 70
     1
102
RTVSPropertyOp37
 70
     1
102
RTVSPropertyOp38
 70
     1
102
RTVSPropertyOp39
 70
     1
102
RTVSPropertyOp40
 70
     1
102
RTVSPropertyOp41
 70
     1
102
RTVSPropertyOp42
 70
     1
102
RTVSPropertyOp43
 70
     1
102
RTVSPropertyOp44
 70
     1
102
RTVSPropertyOp45
 70
     1
102
RTVSPropertyOp46
 70
     1
102
RTVSPropertyOp47
 70
     1
102
RTVSPropertyOp48
 70
     1
102
RTVSPropertyOp49
 70
     1
102
RTVSPropertyOp50
 70
     1
102
RTVSPropertyOp51
 70
     0
102
RTVSPropertyOp52
 70
     0
102
RTVSPropertyOp53
 70
     1
102
RTVSPropertyOp54
 70
     1
102
RTVSPropertyOp55
 70
     1
102
RTVSPropertyOp56
 70
     1
102
RTVSPropertyOp57
 70
     1
102
RTVSPropertyOp58
 70
     1
102
RTVSPropertyOp59
 70
     1
102
RTVSPropertyOp60
 70
     1
102
RTVSPropertyOp61
 70
     1
102
RTVSPropertyOp62
 70
     1
  0
XRECORD
  5
3C2
102
{ACAD_REACTORS
330
3C1
102
}
330
3C1
100
AcDbXrecord
280
     1
102
RTVSPost2010Prop28
280
     0
102
RTVSPost2010PropOp28
 70
     1
102
RTVSPost2010Prop29
280
     1
102
RTVSPost2010PropOp29
 70
     1
102
RTVSPost2010Prop30
280
     1
102
RTVSPost2010PropOp30
 70
     1
102
RTVSPost2010Prop31
280
     0
102
RTVSPost2010PropOp31
 70
     1
102
RTVSPost2010Prop32
280
     0
102
RTVSPost2010PropOp32
 70
     1
102
RTVSPost2010Prop33
280
     0
102
RTVSPost2010PropOp33
 70
     1
102
RTVSPost2010Prop34
280
     0
102
RTVSPost2010PropOp34
 70
     1
102
RTVSPost2010Prop35
280
     0
102
RTVSPost2010PropOp35
 70
     1
102
RTVSPost2010Prop36
280
     0
102
RTVSPost2010PropOp36
 70
     1
102
RTVSPost2010Prop37
 90
       50
102
RTVSPost2010PropOp37
 70
     1
102
RTVSPost2010Prop38
140
0.0
102
RTVSPost2010PropOp38
 70
     1
102
RTVSPost2010Prop39
140
1.0
102
RTVSPost2010PropOp39
 70
     1
102
RTVSPost2010Prop40
 90
        0
102
RTVSPost2010PropOp40
 70
     1
102
RTVSPost2010Prop41ColorIndex
 90
       18
102
RTVSPost2010Prop41ColorRGB
 90
        0
102
RTVSPost2010PropOp41
 70
     1
102
RTVSPost2010Prop42
 90
       50
102
RTVSPost2010PropOp42
 70
     1
102
RTVSPost2010Prop43
 90
        3
102
RTVSPost2010PropOp43
 70
     1
102
RTVSPost2010Prop44ColorIndex
 90
        5
102
RTVSPost2010Prop44ColorRGB
 90
      255
102
RTVSPost2010PropOp44
 70
     1
102
RTVSPost2010Prop45
280
     0
102
RTVSPost2010PropOp45
 70
     1
102
RTVSPost2010Prop46
 90
       50
102
RTVSPost2010PropOp46
 70
     1
102
RTVSPost2010Prop47
 90
       50
102
RTVSPost2010PropOp47
 70
     1
102
RTVSPost2010Prop48
 90
       50
102
RTVSPost2010PropOp48
 70
     1
102
RTVSPost2010Prop49
280
     0
102
RTVSPost2010PropOp49
 70
     1
102
RTVSPost2010Prop50
 90
       50
102
RTVSPost2010PropOp50
 70
     1
102
RTVSPost2010Prop51ColorIndex
 90
      256
102
RTVSPost2010Prop51ColorRGB
 90
-16777216
102
RTVSPost2010PropOp51
 70
     0
102
RTVSPost2010Prop52
140
1.0
102
RTVSPost2010PropOp52
 70
     0
102
RTVSPost2010Prop53
 90
        2
102
RTVSPost2010PropOp53
 70
     1
102
RTVSPost2010Prop54
  1
strokes_ogs.tif
102
RTVSPost2010PropOp54
 70
     1
102
RTVSPost2010Prop55
280
     0
102
RTVSPost2010PropOp55
 70
     1
102
RTVSPost2010Prop56
140
1.0
102
RTVSPost2010PropOp56
 70
     1
102
RTVSPost2010Prop57
140
1.0
102
RTVSPost2010PropOp57
 70
     1
102
RTVSPropertyOp0
 70
     1
102
RTVSPropertyOp1
 70
     1
102
RTVSPropertyOp2
 70
     1
102
RTVSPropertyOp3
 70
     1
102
RTVSPropertyOp4
 70
     1
102
RTVSPropertyOp5
 70
     1
102
RTVSPropertyOp6
 70
     1
102
RTVSPropertyOp7
 70
     1
102
RTVSPropertyOp8
 70
     1
102
RTVSPropertyOp9
 70
     1
102
RTVSPropertyOp10
 70
     1
102
RTVSPropertyOp11
 70
     1
102
RTVSPropertyOp12
 70
     1
102
RTVSPropertyOp13
 70
     1
102
RTVSPropertyOp14
 70
     1
102
RTVSPropertyOp15
 70
     1
102
RTVSPropertyOp16
 70
     1
102
RTVSPropertyOp17
 70
     1
102
RTVSPropertyOp18
 70
     1
102
RTVSPropertyOp19
 70
     1
102
RTVSPropertyOp20
 70
     1
102
RTVSPropertyOp21
 70
     1
102
RTVSPropertyOp22
 70
     1
102
RTVSPropertyOp23
 70
     1
102
RTVSPropertyOp24
 70
     1
102
RTVSPropertyOp25
 70
     1
102
RTVSPropertyOp26
 70
     1
102
RTVSPropertyOp27
 70
     1
102
RTVSPropertyOp28
 70
     1
102
RTVSPropertyOp29
 70
     1
102
RTVSPropertyOp30
 70
     1
102
RTVSPropertyOp31
 70
     1
102
RTVSPropertyOp32
 70
     1
102
RTVSPropertyOp33
 70
     1
102
RTVSPropertyOp34
 70
     1
102
RTVSPropertyOp35
 70
     1
102
RTVSPropertyOp36
 70
     1
102
RTVSPropertyOp37
 70
     1
102
RTVSPropertyOp38
 70
     1
102
RTVSPropertyOp39
 70
     1
102
RTVSPropertyOp40
 70
     1
102
RTVSPropertyOp41
 70
     1
102
RTVSPropertyOp42
 70
     1
102
RTVSPropertyOp43
 70
     1
102
RTVSPropertyOp44
 70
     1
102
RTVSPropertyOp45
 70
     1
102
RTVSPropertyOp46
 70
     1
102
RTVSPropertyOp47
 70
     1
102
RTVSPropertyOp48
 70
     1
102
RTVSPropertyOp49
 70
     1
102
RTVSPropertyOp50
 70
     1
102
RTVSPropertyOp51
 70
     0
102
RTVSPropertyOp52
 70
     0
102
RTVSPropertyOp53
 70
     1
102
RTVSPropertyOp54
 70
     1
102
RTVSPropertyOp55
 70
     1
102
RTVSPropertyOp56
 70
     1
102
RTVSPropertyOp57
 70
     1
102
RTVSPropertyOp58
 70
     1
102
RTVSPropertyOp59
 70
     1
102
RTVSPropertyOp60
 70
     1
102
RTVSPropertyOp61
 70
     1
102
RTVSPropertyOp62
 70
     1
  0
XRECORD
  5
3B4
102
{ACAD_REACTORS
330
3B3
102
}
330
3B3
100
AcDbXrecord
280
     1
102
RTVSPost2010Prop28
280
     0
102
RTVSPost2010PropOp28
 70
     1
102
RTVSPost2010Prop29
280
     1
102
RTVSPost2010PropOp29
 70
     1
102
RTVSPost2010Prop30
280
     1
102
RTVSPost2010PropOp30
 70
     1
102
RTVSPost2010Prop31
280
     0
102
RTVSPost2010PropOp31
 70
     1
102
RTVSPost2010Prop32
280
     0
102
RTVSPost2010PropOp32
 70
     1
102
RTVSPost2010Prop33
280
     0
102
RTVSPost2010PropOp33
 70
     1
102
RTVSPost2010Prop34
280
     0
102
RTVSPost2010PropOp34
 70
     1
102
RTVSPost2010Prop35
280
     0
102
RTVSPost2010PropOp35
 70
     1
102
RTVSPost2010Prop36
280
     0
102
RTVSPost2010PropOp36
 70
     1
102
RTVSPost2010Prop37
 90
       50
102
RTVSPost2010PropOp37
 70
     1
102
RTVSPost2010Prop38
140
0.0
102
RTVSPost2010PropOp38
 70
     1
102
RTVSPost2010Prop39
140
1.0
102
RTVSPost2010PropOp39
 70
     1
102
RTVSPost2010Prop40
 90
        0
102
RTVSPost2010PropOp40
 70
     1
102
RTVSPost2010Prop41ColorIndex
 90
       18
102
RTVSPost2010Prop41ColorRGB
 90
        0
102
RTVSPost2010PropOp41
 70
     1
102
RTVSPost2010Prop42
 90
       50
102
RTVSPost2010PropOp42
 70
     1
102
RTVSPost2010Prop43
 90
        3
102
RTVSPost2010PropOp43
 70
     1
102
RTVSPost2010Prop44ColorIndex
 90
        5
102
RTVSPost2010Prop44ColorRGB
 90
      255
102
RTVSPost2010PropOp44
 70
     1
102
RTVSPost2010Prop45
280
     0
102
RTVSPost2010PropOp45
 70
     1
102
RTVSPost2010Prop46
 90
       50
102
RTVSPost2010PropOp46
 70
     1
102
RTVSPost2010Prop47
 90
       50
102
RTVSPost2010PropOp47
 70
     1
102
RTVSPost2010Prop48
 90
       50
102
RTVSPost2010PropOp48
 70
     1
102
RTVSPost2010Prop49
280
     0
102
RTVSPost2010PropOp49
 70
     1
102
RTVSPost2010Prop50
 90
       50
102
RTVSPost2010PropOp50
 70
     1
102
RTVSPost2010Prop51ColorIndex
 90
      256
102
RTVSPost2010Prop51ColorRGB
 90
-16777216
102
RTVSPost2010PropOp51
 70
     0
102
RTVSPost2010Prop52
140
1.0
102
RTVSPost2010PropOp52
 70
     0
102
RTVSPost2010Prop53
 90
        2
102
RTVSPost2010PropOp53
 70
     1
102
RTVSPost2010Prop54
  1
strokes_ogs.tif
102
RTVSPost2010PropOp54
 70
     1
102
RTVSPost2010Prop55
280
     0
102
RTVSPost2010PropOp55
 70
     1
102
RTVSPost2010Prop56
140
1.0
102
RTVSPost2010PropOp56
 70
     1
102
RTVSPost2010Prop57
140
1.0
102
RTVSPost2010PropOp57
 70
     1
102
RTVSPropertyOp0
 70
     1
102
RTVSPropertyOp1
 70
     1
102
RTVSPropertyOp2
 70
     1
102
RTVSPropertyOp3
 70
     1
102
RTVSPropertyOp4
 70
     1
102
RTVSPropertyOp5
 70
     1
102
RTVSPropertyOp6
 70
     1
102
RTVSPropertyOp7
 70
     1
102
RTVSPropertyOp8
 70
     1
102
RTVSPropertyOp9
 70
     1
102
RTVSPropertyOp10
 70
     1
102
RTVSPropertyOp11
 70
     1
102
RTVSPropertyOp12
 70
     1
102
RTVSPropertyOp13
 70
     1
102
RTVSPropertyOp14
 70
     1
102
RTVSPropertyOp15
 70
     1
102
RTVSPropertyOp16
 70
     1
102
RTVSPropertyOp17
 70
     1
102
RTVSPropertyOp18
 70
     1
102
RTVSPropertyOp19
 70
     1
102
RTVSPropertyOp20
 70
     1
102
RTVSPropertyOp21
 70
     1
102
RTVSPropertyOp22
 70
     1
102
RTVSPropertyOp23
 70
     1
102
RTVSPropertyOp24
 70
     1
102
RTVSPropertyOp25
 70
     1
102
RTVSPropertyOp26
 70
     1
102
RTVSPropertyOp27
 70
     1
102
RTVSPropertyOp28
 70
     1
102
RTVSPropertyOp29
 70
     1
102
RTVSPropertyOp30
 70
     1
102
RTVSPropertyOp31
 70
     1
102
RTVSPropertyOp32
 70
     1
102
RTVSPropertyOp33
 70
     1
102
RTVSPropertyOp34
 70
     1
102
RTVSPropertyOp35
 70
     1
102
RTVSPropertyOp36
 70
     1
102
RTVSPropertyOp37
 70
     1
102
RTVSPropertyOp38
 70
     1
102
RTVSPropertyOp39
 70
     1
102
RTVSPropertyOp40
 70
     1
102
RTVSPropertyOp41
 70
     1
102
RTVSPropertyOp42
 70
     1
102
RTVSPropertyOp43
 70
     1
102
RTVSPropertyOp44
 70
     1
102
RTVSPropertyOp45
 70
     1
102
RTVSPropertyOp46
 70
     1
102
RTVSPropertyOp47
 70
     1
102
RTVSPropertyOp48
 70
     1
102
RTVSPropertyOp49
 70
     1
102
RTVSPropertyOp50
 70
     1
102
RTVSPropertyOp51
 70
     0
102
RTVSPropertyOp52
 70
     0
102
RTVSPropertyOp53
 70
     1
102
RTVSPropertyOp54
 70
     1
102
RTVSPropertyOp55
 70
     1
102
RTVSPropertyOp56
 70
     1
102
RTVSPropertyOp57
 70
     1
102
RTVSPropertyOp58
 70
     1
102
RTVSPropertyOp59
 70
     1
102
RTVSPropertyOp60
 70
     1
102
RTVSPropertyOp61
 70
     1
102
RTVSPropertyOp62
 70
     1
  0
XRECORD
  5
3D4
102
{ACAD_REACTORS
330
3D3
102
}
330
3D3
100
AcDbXrecord
280
     1
102
RTVSPost2010Prop28
280
     0
102
RTVSPost2010PropOp28
 70
     1
102
RTVSPost2010Prop29
280
     1
102
RTVSPost2010PropOp29
 70
     1
102
RTVSPost2010Prop30
280
     1
102
RTVSPost2010PropOp30
 70
     1
102
RTVSPost2010Prop31
280
     0
102
RTVSPost2010PropOp31
 70
     1
102
RTVSPost2010Prop32
280
     0
102
RTVSPost2010PropOp32
 70
     1
102
RTVSPost2010Prop33
280
     0
102
RTVSPost2010PropOp33
 70
     1
102
RTVSPost2010Prop34
280
     0
102
RTVSPost2010PropOp34
 70
     1
102
RTVSPost2010Prop35
280
     0
102
RTVSPost2010PropOp35
 70
     1
102
RTVSPost2010Prop36
280
     0
102
RTVSPost2010PropOp36
 70
     1
102
RTVSPost2010Prop37
 90
       50
102
RTVSPost2010PropOp37
 70
     1
102
RTVSPost2010Prop38
140
0.0
102
RTVSPost2010PropOp38
 70
     1
102
RTVSPost2010Prop39
140
1.0
102
RTVSPost2010PropOp39
 70
     1
102
RTVSPost2010Prop40
 90
        0
102
RTVSPost2010PropOp40
 70
     1
102
RTVSPost2010Prop41ColorIndex
 90
       18
102
RTVSPost2010Prop41ColorRGB
 90
        0
102
RTVSPost2010PropOp41
 70
     1
102
RTVSPost2010Prop42
 90
       50
102
RTVSPost2010PropOp42
 70
     1
102
RTVSPost2010Prop43
 90
        3
102
RTVSPost2010PropOp43
 70
     1
102
RTVSPost2010Prop44ColorIndex
 90
        5
102
RTVSPost2010Prop44ColorRGB
 90
      255
102
RTVSPost2010PropOp44
 70
     1
102
RTVSPost2010Prop45
280
     0
102
RTVSPost2010PropOp45
 70
     1
102
RTVSPost2010Prop46
 90
       50
102
RTVSPost2010PropOp46
 70
     1
102
RTVSPost2010Prop47
 90
       50
102
RTVSPost2010PropOp47
 70
     1
102
RTVSPost2010Prop48
 90
       50
102
RTVSPost2010PropOp48
 70
     1
102
RTVSPost2010Prop49
280
     0
102
RTVSPost2010PropOp49
 70
     1
102
RTVSPost2010Prop50
 90
       50
102
RTVSPost2010PropOp50
 70
     1
102
RTVSPost2010Prop51ColorIndex
 90
      256
102
RTVSPost2010Prop51ColorRGB
 90
-16777216
102
RTVSPost2010PropOp51
 70
     0
102
RTVSPost2010Prop52
140
1.0
102
RTVSPost2010PropOp52
 70
     0
102
RTVSPost2010Prop53
 90
        2
102
RTVSPost2010PropOp53
 70
     1
102
RTVSPost2010Prop54
  1
strokes_ogs.tif
102
RTVSPost2010PropOp54
 70
     1
102
RTVSPost2010Prop55
280
     0
102
RTVSPost2010PropOp55
 70
     1
102
RTVSPost2010Prop56
140
1.0
102
RTVSPost2010PropOp56
 70
     1
102
RTVSPost2010Prop57
140
1.0
102
RTVSPost2010PropOp57
 70
     1
102
RTVSPropertyOp0
 70
     1
102
RTVSPropertyOp1
 70
     1
102
RTVSPropertyOp2
 70
     1
102
RTVSPropertyOp3
 70
     1
102
RTVSPropertyOp4
 70
     1
102
RTVSPropertyOp5
 70
     1
102
RTVSPropertyOp6
 70
     1
102
RTVSPropertyOp7
 70
     1
102
RTVSPropertyOp8
 70
     1
102
RTVSPropertyOp9
 70
     1
102
RTVSPropertyOp10
 70
     1
102
RTVSPropertyOp11
 70
     1
102
RTVSPropertyOp12
 70
     1
102
RTVSPropertyOp13
 70
     1
102
RTVSPropertyOp14
 70
     1
102
RTVSPropertyOp15
 70
     1
102
RTVSPropertyOp16
 70
     1
102
RTVSPropertyOp17
 70
     1
102
RTVSPropertyOp18
 70
     1
102
RTVSPropertyOp19
 70
     1
102
RTVSPropertyOp20
 70
     1
102
RTVSPropertyOp21
 70
     1
102
RTVSPropertyOp22
 70
     1
102
RTVSPropertyOp23
 70
     1
102
RTVSPropertyOp24
 70
     1
102
RTVSPropertyOp25
 70
     1
102
RTVSPropertyOp26
 70
     1
102
RTVSPropertyOp27
 70
     1
102
RTVSPropertyOp28
 70
     1
102
RTVSPropertyOp29
 70
     1
102
RTVSPropertyOp30
 70
     1
102
RTVSPropertyOp31
 70
     1
102
RTVSPropertyOp32
 70
     1
102
RTVSPropertyOp33
 70
     1
102
RTVSPropertyOp34
 70
     1
102
RTVSPropertyOp35
 70
     1
102
RTVSPropertyOp36
 70
     1
102
RTVSPropertyOp37
 70
     1
102
RTVSPropertyOp38
 70
     1
102
RTVSPropertyOp39
 70
     1
102
RTVSPropertyOp40
 70
     1
102
RTVSPropertyOp41
 70
     1
102
RTVSPropertyOp42
 70
     1
102
RTVSPropertyOp43
 70
     1
102
RTVSPropertyOp44
 70
     1
102
RTVSPropertyOp45
 70
     1
102
RTVSPropertyOp46
 70
     1
102
RTVSPropertyOp47
 70
     1
102
RTVSPropertyOp48
 70
     1
102
RTVSPropertyOp49
 70
     1
102
RTVSPropertyOp50
 70
     1
102
RTVSPropertyOp51
 70
     0
102
RTVSPropertyOp52
 70
     0
102
RTVSPropertyOp53
 70
     1
102
RTVSPropertyOp54
 70
     1
102
RTVSPropertyOp55
 70
     1
102
RTVSPropertyOp56
 70
     1
102
RTVSPropertyOp57
 70
     1
102
RTVSPropertyOp58
 70
     1
102
RTVSPropertyOp59
 70
     1
102
RTVSPropertyOp60
 70
     1
102
RTVSPropertyOp61
 70
     1
102
RTVSPropertyOp62
 70
     1
  0
ENDSEC
  0
EOF
