  0
SECTION
  2
HEADER
  9
$ACADVER
  1
AC1015
  9
$ACADMAINTVER
 70
    20
  9
$DWGCODEPAGE
  3
ANSI_1250
  9
$INSBASE
 10
0.0
 20
0.0
 30
0.0
  9
$EXTMIN
 10
162.7959811000234
 20
117.872275
 30
0.0
  9
$EXTMAX
 10
277.14995
 20
208.1698448999766
 30
0.0
  9
$LIMMIN
 10
-0.5
 20
-0.5
  9
$LIMMAX
 10
5.0
 20
5.0
  9
$ORTHOMODE
 70
     0
  9
$REGENMODE
 70
     1
  9
$FILLMODE
 70
     1
  9
$QTEXTMODE
 70
     0
  9
$MIRRTEXT
 70
     1
  9
$LTSCALE
 40
1.0
  9
$ATTMODE
 70
     1
  9
$TEXTSIZE
 40
0.2
  9
$TRACEWID
 40
0.05
  9
$TEXTSTYLE
  7
Standard
  9
$CLAYER
  8
NOCUT
  9
$CELTYPE
  6
BYLAYER
  9
$CECOLOR
 62
   256
  9
$CELTSCALE
 40
1.0
  9
$DISPSILH
 70
     0
  9
$DIMSCALE
 40
1.0
  9
$DIMASZ
 40
0.18
  9
$DIMEXO
 40
0.0625
  9
$DIMDLI
 40
0.38
  9
$DIMRND
 40
0.0
  9
$DIMDLE
 40
0.0
  9
$DIMEXE
 40
0.18
  9
$DIMTP
 40
0.0
  9
$DIMTM
 40
0.0
  9
$DIMTXT
 40
0.18
  9
$DIMCEN
 40
0.09
  9
$DIMTSZ
 40
0.0
  9
$DIMTOL
 70
     0
  9
$DIMLIM
 70
     0
  9
$DIMTIH
 70
     1
  9
$DIMTOH
 70
     1
  9
$DIMSE1
 70
     0
  9
$DIMSE2
 70
     0
  9
$DIMTAD
 70
     0
  9
$DIMZIN
 70
     0
  9
$DIMBLK
  1

  9
$DIMASO
 70
     1
  9
$DIMSHO
 70
     1
  9
$DIMPOST
  1

  9
$DIMAPOST
  1

  9
$DIMALT
 70
     0
  9
$DIMALTD
 70
     2
  9
$DIMALTF
 40
25.4
  9
$DIMLFAC
 40
1.0
  9
$DIMTOFL
 70
     0
  9
$DIMTVP
 40
0.0
  9
$DIMTIX
 70
     0
  9
$DIMSOXD
 70
     0
  9
$DIMSAH
 70
     0
  9
$DIMBLK1
  1

  9
$DIMBLK2
  1

  9
$DIMSTYLE
  2
Standard
  9
$DIMCLRD
 70
     0
  9
$DIMCLRE
 70
     0
  9
$DIMCLRT
 70
     0
  9
$DIMTFAC
 40
1.0
  9
$DIMGAP
 40
0.09
  9
$DIMJUST
 70
     0
  9
$DIMSD1
 70
     0
  9
$DIMSD2
 70
     0
  9
$DIMTOLJ
 70
     1
  9
$DIMTZIN
 70
     0
  9
$DIMALTZ
 70
     0
  9
$DIMALTTZ
 70
     0
  9
$DIMUPT
 70
     0
  9
$DIMDEC
 70
     4
  9
$DIMTDEC
 70
     4
  9
$DIMALTU
 70
     2
  9
$DIMALTTD
 70
     2
  9
$DIMTXSTY
  7
Standard
  9
$DIMAUNIT
 70
     0
  9
$DIMADEC
 70
     0
  9
$DIMALTRND
 40
0.0
  9
$DIMAZIN
 70
     0
  9
$DIMDSEP
 70
    46
  9
$DIMATFIT
 70
     3
  9
$DIMFRAC
 70
     0
  9
$DIMLDRBLK
  1

  9
$DIMLUNIT
 70
     2
  9
$DIMLWD
 70
    -2
  9
$DIMLWE
 70
    -2
  9
$DIMTMOVE
 70
     0
  9
$LUNITS
 70
     2
  9
$LUPREC
 70
     4
  9
$SKETCHINC
 40
0.1
  9
$FILLETRAD
 40
0.5
  9
$AUNITS
 70
     0
  9
$AUPREC
 70
     0
  9
$MENU
  1
.
  9
$ELEVATION
 40
0.0
  9
$PELEVATION
 40
0.0
  9
$THICKNESS
 40
0.0
  9
$LIMCHECK
 70
     0
  9
$CHAMFERA
 40
0.0
  9
$CHAMFERB
 40
0.0
  9
$CHAMFERC
 40
0.0
  9
$CHAMFERD
 40
0.0
  9
$SKPOLY
 70
     0
  9
$TDCREATE
 40
2457886.559959873
  9
$TDUCREATE
 40
2457886.476626539
  9
$TDUPDATE
 40
2457886.562073345
  9
$TDUUPDATE
 40
2457886.478740011
  9
$TDINDWG
 40
0.0020312384
  9
$TDUSRTIMER
 40
0.0020312153
  9
$USRTIMER
 70
     1
  9
$ANGBASE
 50
0.0
  9
$ANGDIR
 70
     0
  9
$PDMODE
 70
     0
  9
$PDSIZE
 40
0.0
  9
$PLINEWID
 40
0.0
  9
$SPLFRAME
 70
     0
  9
$SPLINETYPE
 70
     6
  9
$SPLINESEGS
 70
     8
  9
$HANDSEED
  5
362
  9
$SURFTAB1
 70
     6
  9
$SURFTAB2
 70
     6
  9
$SURFTYPE
 70
     6
  9
$SURFU
 70
     6
  9
$SURFV
 70
     6
  9
$UCSBASE
  2

  9
$UCSNAME
  2

  9
$UCSORG
 10
0.0
 20
0.0
 30
0.0
  9
$UCSXDIR
 10
1.0
 20
0.0
 30
0.0
  9
$UCSYDIR
 10
0.0
 20
1.0
 30
0.0
  9
$UCSORTHOREF
  2

  9
$UCSORTHOVIEW
 70
     0
  9
$UCSORGTOP
 10
0.0
 20
0.0
 30
0.0
  9
$UCSORGBOTTOM
 10
0.0
 20
0.0
 30
0.0
  9
$UCSORGLEFT
 10
0.0
 20
0.0
 30
0.0
  9
$UCSORGRIGHT
 10
0.0
 20
0.0
 30
0.0
  9
$UCSORGFRONT
 10
0.0
 20
0.0
 30
0.0
  9
$UCSORGBACK
 10
0.0
 20
0.0
 30
0.0
  9
$PUCSBASE
  2

  9
$PUCSNAME
  2

  9
$PUCSORG
 10
0.0
 20
0.0
 30
0.0
  9
$PUCSXDIR
 10
1.0
 20
0.0
 30
0.0
  9
$PUCSYDIR
 10
0.0
 20
1.0
 30
0.0
  9
$PUCSORTHOREF
  2

  9
$PUCSORTHOVIEW
 70
     0
  9
$PUCSORGTOP
 10
0.0
 20
0.0
 30
0.0
  9
$PUCSORGBOTTOM
 10
0.0
 20
0.0
 30
0.0
  9
$PUCSORGLEFT
 10
0.0
 20
0.0
 30
0.0
  9
$PUCSORGRIGHT
 10
0.0
 20
0.0
 30
0.0
  9
$PUCSORGFRONT
 10
0.0
 20
0.0
 30
0.0
  9
$PUCSORGBACK
 10
0.0
 20
0.0
 30
0.0
  9
$USERI1
 70
     0
  9
$USERI2
 70
     0
  9
$USERI3
 70
     0
  9
$USERI4
 70
     0
  9
$USERI5
 70
     0
  9
$USERR1
 40
0.0
  9
$USERR2
 40
0.0
  9
$USERR3
 40
0.0
  9
$USERR4
 40
0.0
  9
$USERR5
 40
0.0
  9
$WORLDVIEW
 70
     1
  9
$SHADEDGE
 70
     3
  9
$SHADEDIF
 70
    70
  9
$TILEMODE
 70
     1
  9
$MAXACTVP
 70
    64
  9
$PINSBASE
 10
0.0
 20
0.0
 30
0.0
  9
$PLIMCHECK
 70
     0
  9
$PEXTMIN
 10
-0.5
 20
-0.5
 30
-0.5
  9
$PEXTMAX
 10
5.0
 20
5.0
 30
5.0
  9
$PLIMMIN
 10
-0.5
 20
-0.5
  9
$PLIMMAX
 10
5.0
 20
5.0
  9
$UNITMODE
 70
     0
  9
$VISRETAIN
 70
     1
  9
$PLINEGEN
 70
     0
  9
$PSLTSCALE
 70
     1
  9
$TREEDEPTH
 70
  3020
  9
$CMLSTYLE
  2
Standard
  9
$CMLJUST
 70
     0
  9
$CMLSCALE
 40
1.0
  9
$PROXYGRAPHICS
 70
     1
  9
$MEASUREMENT
 70
     1
  9
$CELWEIGHT
370
    13
  9
$ENDCAPS
280
     0
  9
$JOINSTYLE
280
     0
  9
$LWDISPLAY
290
     1
  9
$INSUNITS
 70
     4
  9
$HYPERLINKBASE
  1

  9
$STYLESHEET
  1

  9
$XEDIT
290
     1
  9
$CEPSNTYPE
380
     0
  9
$PSTYLEMODE
290
     1
  9
$FINGERPRINTGUID
  2
{92FD2108-64A7-44A3-91D0-E00EA048520A}
  9
$VERSIONGUID
  2
{31D9D82B-6E26-41F3-9224-E65EB2B5CC98}
  9
$EXTNAMES
290
     1
  9
$PSVPSCALE
 40
0.0
  9
$OLESTARTUP
290
     0
  0
ENDSEC
  0
SECTION
  2
CLASSES
  0
CLASS
  1
ACDBDICTIONARYWDFLT
  2
AcDbDictionaryWithDefault
  3
ObjectDBX Classes
 90
        0
280
     0
281
     0
  0
CLASS
  1
VISUALSTYLE
  2
AcDbVisualStyle
  3
ObjectDBX Classes
 90
     4095
280
     0
281
     0
  0
CLASS
  1
MATERIAL
  2
AcDbMaterial
  3
ObjectDBX Classes
 90
     1153
280
     0
281
     0
  0
CLASS
  1
SCALE
  2
AcDbScale
  3
ObjectDBX Classes
 90
     1153
280
     0
281
     0
  0
CLASS
  1
SUN
  2
AcDbSun
  3
SCENEOE
 90
    33921
280
     0
281
     0
  0
CLASS
  1
DICTIONARYVAR
  2
AcDbDictionaryVar
  3
ObjectDBX Classes
 90
        0
280
     0
281
     0
  0
CLASS
  1
ACDBPLACEHOLDER
  2
AcDbPlaceHolder
  3
ObjectDBX Classes
 90
        0
280
     0
281
     0
  0
CLASS
  1
LAYOUT
  2
AcDbLayout
  3
ObjectDBX Classes
 90
        0
280
     0
281
     0
  0
CLASS
  1
TABLESTYLE
  2
AcDbTableStyle
  3
ObjectDBX Classes
 90
     4095
280
     0
281
     0
  0
CLASS
  1
MLEADERSTYLE
  2
AcDbMLeaderStyle
  3
ACDB_MLEADERSTYLE_CLASS
 90
     4095
280
     0
281
     0
  0
CLASS
  1
ACDBSECTIONVIEWSTYLE
  2
AcDbSectionViewStyle
  3
ObjectDBX Classes
 90
     1025
280
     0
281
     0
  0
CLASS
  1
ACDBDETAILVIEWSTYLE
  2
AcDbDetailViewStyle
  3
ObjectDBX Classes
 90
     1025
280
     0
281
     0
  0
CLASS
  1
SORTENTSTABLE
  2
AcDbSortentsTable
  3
ObjectDBX Classes
 90
        0
280
     0
281
     0
  0
CLASS
  1
CELLSTYLEMAP
  2
AcDbCellStyleMap
  3
ObjectDBX Classes
 90
     1152
280
     0
281
     0
  0
ENDSEC
  0
SECTION
  2
TABLES
  0
TABLE
  2
VPORT
  5
8
330
0
100
AcDbSymbolTable
 70
    17
  0
VPORT
  5
29
330
8
100
AcDbSymbolTableRecord
100
AcDbViewportTableRecord
  2
DUMMY
 70
     0
 10
0.0
 20
0.0
 11
1.0
 21
1.0
 12
10.429907
 22
4.5
 13
0.0
 23
0.0
 14
0.5
 24
0.5
 15
0.5
 25
0.5
 16
0.0
 26
0.0
 36
1.0
 17
0.0
 27
0.0
 37
0.0
 40
9.0
 41
1.972972999999999
 42
50.0
 43
0.0
 44
0.0
 50
0.0
 51
0.0
 71
     0
 72
   100
 73
     1
 74
     3
 75
     0
 76
     0
 77
     0
 78
     0
281
     0
 65
     1
110
0.0
120
0.0
130
0.0
111
1.0
121
0.0
131
0.0
112
0.0
122
1.0
132
0.0
 79
     0
146
0.0
  0
VPORT
  5
1E0
330
8
100
AcDbSymbolTableRecord
100
AcDbViewportTableRecord
  2
*ACTIVE
 70
     0
 10
0.0
 20
0.0
 11
1.0
 21
1.0
 12
237.3055358924761
 22
160.2132364414691
 13
0.0
 23
0.0
 14
0.5
 24
0.5
 15
0.5
 25
0.5
 16
0.0
 26
0.0
 36
1.0
 17
0.0
 27
0.0
 37
0.0
 40
120.3474475469113
 41
2.037154989384288
 42
50.0
 43
210.274108
 44
-210.274108
 50
0.0
 51
0.0
 71
     0
 72
   100
 73
     1
 74
     3
 75
     0
 76
     0
 77
     0
 78
     0
281
     0
 65
     1
110
0.0
120
0.0
130
0.0
111
1.0
121
0.0
131
0.0
112
0.0
122
1.0
132
0.0
 79
     0
146
0.0
1001
ACAD_NAV_VCDISPLAY
1070
     3
  0
VPORT
  5
1E2
330
8
100
AcDbSymbolTableRecord
100
AcDbViewportTableRecord
  2
L1
 70
     0
 10
0.0
 20
0.0
 11
1.0
 21
1.0
 12
220.12729
 22
162.429233
 13
0.0
 23
0.0
 14
0.5
 24
0.5
 15
0.5
 25
0.5
 16
0.0
 26
0.0
 36
1.0
 17
0.0
 27
0.0
 37
0.0
 40
264.583333
 41
0.067112
 42
50.0
 43
210.274108
 44
-210.274108
 50
0.0
 51
0.0
 71
     0
 72
   100
 73
     1
 74
     3
 75
     0
 76
     0
 77
     0
 78
     0
281
     0
 65
     1
110
0.0
120
0.0
130
0.0
111
1.0
121
0.0
131
0.0
112
0.0
122
1.0
132
0.0
 79
     0
146
0.0
  0
VPORT
  5
1E3
330
8
100
AcDbSymbolTableRecord
100
AcDbViewportTableRecord
  2
L2
 70
     0
 10
0.0
 20
0.0
 11
0.5
 21
1.0
 12
0.0
 22
0.0
 13
0.0
 23
0.0
 14
0.5
 24
0.5
 15
0.5
 25
0.5
 16
0.0
 26
-1.0
 36
0.0
 17
0.0
 27
0.0
 37
0.0
 40
1602.038428
 41
0.011084
 42
50.0
 43
823.3602069999999
 44
-823.3602069999999
 50
0.0
 51
0.0
 71
     0
 72
   100
 73
     1
 74
     3
 75
     0
 76
     0
 77
     0
 78
     0
281
     0
 65
     1
110
0.0
120
0.0
130
0.0
111
1.0
121
0.0
131
0.0
112
0.0
122
1.0
132
0.0
 79
     0
146
0.0
  0
VPORT
  5
1E4
330
8
100
AcDbSymbolTableRecord
100
AcDbViewportTableRecord
  2
L2
 70
     0
 10
0.5
 20
0.0
 11
1.0
 21
1.0
 12
0.0
 22
0.0
 13
0.0
 23
0.0
 14
0.5
 24
0.5
 15
0.5
 25
0.5
 16
1.0
 26
0.0
 36
0.0
 17
0.0
 27
0.0
 37
0.0
 40
1602.038428
 41
0.011084
 42
50.0
 43
811.8699809999998
 44
-811.8699809999998
 50
0.0
 51
0.0
 71
     0
 72
   100
 73
     1
 74
     3
 75
     0
 76
     0
 77
     0
 78
     0
281
     0
 65
     1
110
0.0
120
0.0
130
0.0
111
1.0
121
0.0
131
0.0
112
0.0
122
1.0
132
0.0
 79
     0
146
0.0
  0
VPORT
  5
1E5
330
8
100
AcDbSymbolTableRecord
100
AcDbViewportTableRecord
  2
L3
 70
     0
 10
0.0
 20
0.5
 11
1.0
 21
1.0
 12
220.12729
 22
162.429233
 13
0.0
 23
0.0
 14
0.5
 24
0.5
 15
0.5
 25
0.5
 16
0.0
 26
0.0
 36
1.0
 17
0.0
 27
0.0
 37
0.0
 40
264.583333
 41
0.067112
 42
50.0
 43
210.274108
 44
-210.274108
 50
0.0
 51
0.0
 71
     0
 72
   100
 73
     1
 74
     3
 75
     0
 76
     0
 77
     0
 78
     0
281
     0
 65
     1
110
0.0
120
0.0
130
0.0
111
1.0
121
0.0
131
0.0
112
0.0
122
1.0
132
0.0
 79
     0
146
0.0
  0
VPORT
  5
1E6
330
8
100
AcDbSymbolTableRecord
100
AcDbViewportTableRecord
  2
L3
 70
     0
 10
0.0
 20
0.0
 11
1.0
 21
0.5
 12
0.0
 22
0.0
 13
0.0
 23
0.0
 14
0.5
 24
0.5
 15
0.5
 25
0.5
 16
0.0
 26
-1.0
 36
0.0
 17
0.0
 27
0.0
 37
0.0
 40
1602.038428
 41
0.011084
 42
50.0
 43
823.3602069999999
 44
-823.3602069999999
 50
0.0
 51
0.0
 71
     0
 72
   100
 73
     1
 74
     3
 75
     0
 76
     0
 77
     0
 78
     0
281
     0
 65
     1
110
0.0
120
0.0
130
0.0
111
1.0
121
0.0
131
0.0
112
0.0
122
1.0
132
0.0
 79
     0
146
0.0
  0
VPORT
  5
1E7
330
8
100
AcDbSymbolTableRecord
100
AcDbViewportTableRecord
  2
L4
 70
     0
 10
0.0
 20
0.5
 11
0.5
 21
1.0
 12
220.12729
 22
162.429233
 13
0.0
 23
0.0
 14
0.5
 24
0.5
 15
0.5
 25
0.5
 16
0.0
 26
0.0
 36
1.0
 17
0.0
 27
0.0
 37
0.0
 40
264.583333
 41
0.067112
 42
50.0
 43
210.274108
 44
-210.274108
 50
0.0
 51
0.0
 71
     0
 72
   100
 73
     1
 74
     3
 75
     0
 76
     0
 77
     0
 78
     0
281
     0
 65
     1
110
0.0
120
0.0
130
0.0
111
1.0
121
0.0
131
0.0
112
0.0
122
1.0
132
0.0
 79
     0
146
0.0
  0
VPORT
  5
1E8
330
8
100
AcDbSymbolTableRecord
100
AcDbViewportTableRecord
  2
L4
 70
     0
 10
0.0
 20
0.0
 11
0.5
 21
0.5
 12
0.0
 22
0.0
 13
0.0
 23
0.0
 14
0.5
 24
0.5
 15
0.5
 25
0.5
 16
0.0
 26
-1.0
 36
0.0
 17
0.0
 27
0.0
 37
0.0
 40
1602.038428
 41
0.011084
 42
50.0
 43
823.3602069999999
 44
-823.3602069999999
 50
0.0
 51
0.0
 71
     0
 72
   100
 73
     1
 74
     3
 75
     0
 76
     0
 77
     0
 78
     0
281
     0
 65
     1
110
0.0
120
0.0
130
0.0
111
1.0
121
0.0
131
0.0
112
0.0
122
1.0
132
0.0
 79
     0
146
0.0
  0
VPORT
  5
1E9
330
8
100
AcDbSymbolTableRecord
100
AcDbViewportTableRecord
  2
L4
 70
     0
 10
0.5
 20
0.0
 11
1.0
 21
0.5
 12
0.0
 22
0.0
 13
0.0
 23
0.0
 14
0.5
 24
0.5
 15
0.5
 25
0.5
 16
1.0
 26
0.0
 36
0.0
 17
0.0
 27
0.0
 37
0.0
 40
1602.038428
 41
0.011084
 42
50.0
 43
811.8699809999998
 44
-811.8699809999998
 50
0.0
 51
0.0
 71
     0
 72
   100
 73
     1
 74
     3
 75
     0
 76
     0
 77
     0
 78
     0
281
     0
 65
     1
110
0.0
120
0.0
130
0.0
111
1.0
121
0.0
131
0.0
112
0.0
122
1.0
132
0.0
 79
     0
146
0.0
  0
VPORT
  5
1EA
330
8
100
AcDbSymbolTableRecord
100
AcDbViewportTableRecord
  2
L4
 70
     0
 10
0.5
 20
0.5
 11
1.0
 21
1.0
 12
0.0
 22
0.0
 13
0.0
 23
0.0
 14
0.5
 24
0.5
 15
0.5
 25
0.5
 16
0.5773502691896259
 26
-0.5773502691896259
 36
0.5773502691896259
 17
0.0
 27
0.0
 37
0.0
 40
1571.617191
 41
0.011298
 42
50.0
 43
818.286245
 44
-818.286245
 50
0.0
 51
0.0
 71
     0
 72
   100
 73
     1
 74
     3
 75
     0
 76
     0
 77
     0
 78
     0
281
     0
 65
     1
110
0.0
120
0.0
130
0.0
111
1.0
121
0.0
131
0.0
112
0.0
122
1.0
132
0.0
 79
     0
146
0.0
  0
VPORT
  5
1EB
330
8
100
AcDbSymbolTableRecord
100
AcDbViewportTableRecord
  2
L6
 70
     0
 10
0.0
 20
0.5
 11
0.333333
 21
1.0
 12
0.0
 22
0.0
 13
0.0
 23
0.0
 14
0.5
 24
0.5
 15
0.5
 25
0.5
 16
0.7188730927569434
 26
-0.5850486126764433
 36
0.3754192287502549
 17
0.0
 27
0.0
 37
0.0
 40
1658.494684
 41
0.010707
 42
50.0
 43
858.6703250000001
 44
-858.6703250000001
 50
0.0
 51
0.0
 71
     0
 72
   100
 73
     1
 74
     3
 75
     0
 76
     0
 77
     0
 78
     0
281
     0
 65
     1
110
0.0
120
0.0
130
0.0
111
1.0
121
0.0
131
0.0
112
0.0
122
1.0
132
0.0
 79
     0
146
0.0
  0
VPORT
  5
1EC
330
8
100
AcDbSymbolTableRecord
100
AcDbViewportTableRecord
  2
L6
 70
     0
 10
0.0
 20
0.0
 11
0.333333
 21
0.5
 12
0.0
 22
0.0
 13
0.0
 23
0.0
 14
0.5
 24
0.5
 15
0.5
 25
0.5
 16
-1.0
 26
0.0
 36
0.0
 17
0.0
 27
0.0
 37
0.0
 40
1602.038428
 41
0.011084
 42
50.0
 43
811.8699809999998
 44
-811.8699809999998
 50
0.0
 51
0.0
 71
     0
 72
   100
 73
     1
 74
     3
 75
     0
 76
     0
 77
     0
 78
     0
281
     0
 65
     1
110
0.0
120
0.0
130
0.0
111
1.0
121
0.0
131
0.0
112
0.0
122
1.0
132
0.0
 79
     0
146
0.0
  0
VPORT
  5
1ED
330
8
100
AcDbSymbolTableRecord
100
AcDbViewportTableRecord
  2
L6
 70
     0
 10
0.333333
 20
0.5
 11
0.666667
 21
1.0
 12
220.12729
 22
162.429233
 13
0.0
 23
0.0
 14
0.5
 24
0.5
 15
0.5
 25
0.5
 16
0.0
 26
0.0
 36
1.0
 17
0.0
 27
0.0
 37
0.0
 40
264.583333
 41
0.067112
 42
50.0
 43
210.274108
 44
-210.274108
 50
0.0
 51
0.0
 71
     0
 72
   100
 73
     1
 74
     3
 75
     0
 76
     0
 77
     0
 78
     0
281
     0
 65
     1
110
0.0
120
0.0
130
0.0
111
1.0
121
0.0
131
0.0
112
0.0
122
1.0
132
0.0
 79
     0
146
0.0
  0
VPORT
  5
1EE
330
8
100
AcDbSymbolTableRecord
100
AcDbViewportTableRecord
  2
L6
 70
     0
 10
0.333333
 20
0.0
 11
0.666667
 21
0.5
 12
0.0
 22
0.0
 13
0.0
 23
0.0
 14
0.5
 24
0.5
 15
0.5
 25
0.5
 16
0.0
 26
-1.0
 36
0.0
 17
0.0
 27
0.0
 37
0.0
 40
1602.038428
 41
0.011084
 42
50.0
 43
823.3602069999999
 44
-823.3602069999999
 50
0.0
 51
0.0
 71
     0
 72
   100
 73
     1
 74
     3
 75
     0
 76
     0
 77
     0
 78
     0
281
     0
 65
     1
110
0.0
120
0.0
130
0.0
111
1.0
121
0.0
131
0.0
112
0.0
122
1.0
132
0.0
 79
     0
146
0.0
  0
VPORT
  5
1EF
330
8
100
AcDbSymbolTableRecord
100
AcDbViewportTableRecord
  2
L6
 70
     0
 10
0.666667
 20
0.5
 11
1.0
 21
1.0
 12
0.0
 22
0.0
 13
0.0
 23
0.0
 14
0.5
 24
0.5
 15
0.5
 25
0.5
 16
0.5773502691896259
 26
-0.5773502691896259
 36
0.5773502691896259
 17
0.0
 27
0.0
 37
0.0
 40
1571.617191
 41
0.011298
 42
50.0
 43
818.286245
 44
-818.286245
 50
0.0
 51
0.0
 71
     0
 72
   100
 73
     1
 74
     3
 75
     0
 76
     0
 77
     0
 78
     0
281
     0
 65
     1
110
0.0
120
0.0
130
0.0
111
1.0
121
0.0
131
0.0
112
0.0
122
1.0
132
0.0
 79
     0
146
0.0
  0
VPORT
  5
1F0
330
8
100
AcDbSymbolTableRecord
100
AcDbViewportTableRecord
  2
L6
 70
     0
 10
0.666667
 20
0.0
 11
1.0
 21
0.5
 12
0.0
 22
0.0
 13
0.0
 23
0.0
 14
0.5
 24
0.5
 15
0.5
 25
0.5
 16
1.0
 26
0.0
 36
0.0
 17
0.0
 27
0.0
 37
0.0
 40
1602.038428
 41
0.011084
 42
50.0
 43
811.8699809999998
 44
-811.8699809999998
 50
0.0
 51
0.0
 71
     0
 72
   100
 73
     1
 74
     3
 75
     0
 76
     0
 77
     0
 78
     0
281
     0
 65
     1
110
0.0
120
0.0
130
0.0
111
1.0
121
0.0
131
0.0
112
0.0
122
1.0
132
0.0
 79
     0
146
0.0
  0
ENDTAB
  0
TABLE
  2
LTYPE
  5
5
330
0
100
AcDbSymbolTable
 70
     6
  0
LTYPE
  5
14
330
5
100
AcDbSymbolTableRecord
100
AcDbLinetypeTableRecord
  2
BYBLOCK
 70
     0
  3

 72
    65
 73
     0
 40
0.0
  0
LTYPE
  5
15
330
5
100
AcDbSymbolTableRecord
100
AcDbLinetypeTableRecord
  2
BYLAYER
 70
     0
  3

 72
    65
 73
     0
 40
0.0
  0
LTYPE
  5
16
330
5
100
AcDbSymbolTableRecord
100
AcDbLinetypeTableRecord
  2
CONTINUOUS
 70
     0
  3
Solid line
 72
    65
 73
     0
 40
0.0
  0
LTYPE
  5
6A
330
5
100
AcDbSymbolTableRecord
100
AcDbLinetypeTableRecord
  2
CENTER2
 70
     0
  3
Center (.5x) ___ _ ___ _ ___ _ ___ _ ___ _ ___
 72
    65
 73
     4
 40
28.575
 49
19.05
 74
     4
 75
     0
340
0
 46
0.0
 50
0.0
 44
0.0
 45
0.0
 49
-3.174999999999999
 74
     4
 75
     0
340
0
 46
0.0
 50
0.0
 44
0.0
 45
0.0
 49
3.174999999999999
 74
     4
 75
     0
340
0
 46
0.0
 50
0.0
 44
0.0
 45
0.0
 49
-3.174999999999999
 74
     4
 75
     0
340
0
 46
0.0
 50
0.0
 44
0.0
 45
0.0
  0
LTYPE
  5
6B
330
5
100
AcDbSymbolTableRecord
100
AcDbLinetypeTableRecord
  2
DASHDOT
 70
     0
  3
_._._._._._._._._._._._._._._._.
 72
    65
 73
     4
 40
70.0
 49
31.0
 74
     4
 75
     0
340
0
 46
0.0
 50
0.0
 44
0.0
 45
0.0
 49
-13.0
 74
     4
 75
     0
340
0
 46
0.0
 50
0.0
 44
0.0
 45
0.0
 49
13.0
 74
     4
 75
     0
340
0
 46
0.0
 50
0.0
 44
0.0
 45
0.0
 49
-13.0
 74
     4
 75
     0
340
0
 46
0.0
 50
0.0
 44
0.0
 45
0.0
  0
LTYPE
  5
6C
330
5
100
AcDbSymbolTableRecord
100
AcDbLinetypeTableRecord
  2
DASHED
 70
     0
  3
__ __ __ __ __ __ __ __ __
 72
    65
 73
     2
 40
25.72
 49
12.86
 74
     4
 75
     0
340
0
 46
0.0
 50
0.0
 44
0.0
 45
0.0
 49
-12.86
 74
     4
 75
     0
340
0
 46
0.0
 50
0.0
 44
0.0
 45
0.0
  0
LTYPE
  5
6D
330
5
100
AcDbSymbolTableRecord
100
AcDbLinetypeTableRecord
  2
DOT
 70
     0
  3
.........................
 72
    65
 73
     2
 40
10.0
 49
0.0
 74
     4
 75
     0
340
0
 46
0.0
 50
0.0
 44
0.0
 45
0.0
 49
-10.0
 74
     4
 75
     0
340
0
 46
0.0
 50
0.0
 44
0.0
 45
0.0
  0
LTYPE
  5
6E
330
5
100
AcDbSymbolTableRecord
100
AcDbLinetypeTableRecord
  2
PHANTOM
 70
     0
  3
____ _ _ ____ _ _ _____ _ _ ____
 72
    65
 73
     6
 40
50.5
 49
18.0
 74
     4
 75
     0
340
0
 46
0.0
 50
0.0
 44
0.0
 45
0.0
 49
-6.5
 74
     4
 75
     0
340
0
 46
0.0
 50
0.0
 44
0.0
 45
0.0
 49
6.5
 74
     4
 75
     0
340
0
 46
0.0
 50
0.0
 44
0.0
 45
0.0
 49
-6.5
 74
     4
 75
     0
340
0
 46
0.0
 50
0.0
 44
0.0
 45
0.0
 49
6.5
 74
     4
 75
     0
340
0
 46
0.0
 50
0.0
 44
0.0
 45
0.0
 49
-6.5
 74
     4
 75
     0
340
0
 46
0.0
 50
0.0
 44
0.0
 45
0.0
  0
ENDTAB
  0
TABLE
  2
LAYER
  5
2
330
0
100
AcDbSymbolTable
 70
    19
  0
LAYER
  5
10
102
{ACAD_XDICTIONARY
360
302
102
}
330
2
100
AcDbSymbolTableRecord
100
AcDbLayerTableRecord
  2
0
 70
     0
 62
     7
  6
CONTINUOUS
370
    -3
390
F
  0
LAYER
  5
2F6
102
{ACAD_XDICTIONARY
360
304
102
}
330
2
100
AcDbSymbolTableRecord
100
AcDbLayerTableRecord
  2
1
 70
     0
 62
     4
  6
CONTINUOUS
370
    -3
390
F
  0
LAYER
  5
2F7
102
{ACAD_XDICTIONARY
360
306
102
}
330
2
100
AcDbSymbolTableRecord
100
AcDbLayerTableRecord
  2
2
 70
     0
 62
     7
  6
CONTINUOUS
370
    -3
390
F
  0
LAYER
  5
2F8
102
{ACAD_XDICTIONARY
360
308
102
}
330
2
100
AcDbSymbolTableRecord
100
AcDbLayerTableRecord
  2
4
 70
     0
 62
     2
  6
CENTER2
370
    -3
390
F
  0
LAYER
  5
2F9
102
{ACAD_XDICTIONARY
360
30A
102
}
330
2
100
AcDbSymbolTableRecord
100
AcDbLayerTableRecord
  2
SK1
 70
     0
 62
     4
  6
CONTINUOUS
370
    -3
390
F
  0
LAYER
  5
2FA
102
{ACAD_XDICTIONARY
360
30C
102
}
330
2
100
AcDbSymbolTableRecord
100
AcDbLayerTableRecord
  2
SK2
 70
     0
 62
     7
  6
CONTINUOUS
370
    -3
390
F
  0
LAYER
  5
2FC
102
{ACAD_XDICTIONARY
360
30E
102
}
330
2
100
AcDbSymbolTableRecord
100
AcDbLayerTableRecord
  2
SK4
 70
     0
 62
     2
  6
CENTER2
370
    -3
390
F
  0
LAYER
  5
2FD
102
{ACAD_XDICTIONARY
360
310
102
}
330
2
100
AcDbSymbolTableRecord
100
AcDbLayerTableRecord
  2
SK6
 70
     0
 62
     5
  6
CONTINUOUS
370
    -3
390
F
  0
LAYER
  5
2FE
102
{ACAD_XDICTIONARY
360
312
102
}
330
2
100
AcDbSymbolTableRecord
100
AcDbLayerTableRecord
  2
CUT
 70
     0
 62
     1
  6
CONTINUOUS
370
    -3
390
F
  0
LAYER
  5
2FF
102
{ACAD_XDICTIONARY
360
314
102
}
330
2
100
AcDbSymbolTableRecord
100
AcDbLayerTableRecord
  2
NOCUT
 70
     0
 62
     7
  6
CONTINUOUS
370
    -3
390
F
  0
LAYER
  5
300
102
{ACAD_XDICTIONARY
360
316
102
}
330
2
100
AcDbSymbolTableRecord
100
AcDbLayerTableRecord
  2
80
 70
     0
 62
     6
  6
CONTINUOUS
370
    -3
390
F
  0
LAYER
  5
301
102
{ACAD_XDICTIONARY
360
318
102
}
330
2
100
AcDbSymbolTableRecord
100
AcDbLayerTableRecord
  2
81
 70
     0
 62
     3
  6
CONTINUOUS
370
    -3
390
F
  0
ENDTAB
  0
TABLE
  2
STYLE
  5
3
330
0
100
AcDbSymbolTable
 70
     2
  0
STYLE
  5
11
330
3
100
AcDbSymbolTableRecord
100
AcDbTextStyleTableRecord
  2
Standard
 70
     0
 40
0.0
 41
1.0
 50
0.0
 71
     0
 42
0.2
  3
txt
  4

  0
STYLE
  5
1AA
330
3
100
AcDbSymbolTableRecord
100
AcDbTextStyleTableRecord
  2
cesky
 70
     0
 40
0.0
 41
1.0
 50
0.0
 71
     0
 42
0.2
  3
Monospac821 BT
  4

1001
ACAD
1000
Monospac821 BT
1071
        0
  0
ENDTAB
  0
TABLE
  2
VIEW
  5
6
330
0
100
AcDbSymbolTable
 70
     0
  0
ENDTAB
  0
TABLE
  2
UCS
  5
7
330
0
100
AcDbSymbolTable
 70
     0
  0
ENDTAB
  0
TABLE
  2
APPID
  5
9
330
0
100
AcDbSymbolTable
 70
     3
  0
APPID
  5
12
330
9
100
AcDbSymbolTableRecord
100
AcDbRegAppTableRecord
  2
ACAD
 70
     0
  0
APPID
  5
321
330
9
100
AcDbSymbolTableRecord
100
AcDbRegAppTableRecord
  2
ACAD_NAV_VCDISPLAY
 70
     0
  0
APPID
  5
35D
330
9
100
AcDbSymbolTableRecord
100
AcDbRegAppTableRecord
  2
ACAD_MLEADERVER
 70
     0
  0
ENDTAB
  0
TABLE
  2
DIMSTYLE
  5
A
330
0
100
AcDbSymbolTable
 70
     1
100
AcDbDimStyleTable
 71
     0
  0
DIMSTYLE
105
27
330
A
100
AcDbSymbolTableRecord
100
AcDbDimStyleTableRecord
  2
Standard
 70
     0
340
11
  0
ENDTAB
  0
TABLE
  2
BLOCK_RECORD
  5
1
330
0
100
AcDbSymbolTable
 70
     3
  0
BLOCK_RECORD
  5
1F
102
{ACAD_XDICTIONARY
360
260
102
}
330
1
100
AcDbSymbolTableRecord
100
AcDbBlockTableRecord
  2
*Model_Space
340
22
  0
BLOCK_RECORD
  5
1B
330
1
100
AcDbSymbolTableRecord
100
AcDbBlockTableRecord
  2
*Paper_Space
340
1E
  0
BLOCK_RECORD
  5
23
330
1
100
AcDbSymbolTableRecord
100
AcDbBlockTableRecord
  2
*Paper_Space0
340
26
  0
BLOCK_RECORD
  5
1C5
330
1
100
AcDbSymbolTableRecord
100
AcDbBlockTableRecord
  2
DimnDraft3D1
340
0
  0
BLOCK_RECORD
  5
1D0
330
1
100
AcDbSymbolTableRecord
100
AcDbBlockTableRecord
  2
DimnDraft3D2
340
0
  0
ENDTAB
  0
ENDSEC
  0
SECTION
  2
BLOCKS
  0
BLOCK
  5
20
330
1F
100
AcDbEntity
  8
0
100
AcDbBlockBegin
  2
*Model_Space
 70
     0
 10
0.0
 20
0.0
 30
0.0
  3
*Model_Space
  1
*Model_Space
  0
ENDBLK
  5
21
330
1F
100
AcDbEntity
  8
0
100
AcDbBlockEnd
  0
BLOCK
  5
1C
330
1B
100
AcDbEntity
 67
     1
  8
0
100
AcDbBlockBegin
  2
*Paper_Space
 70
     0
 10
0.0
 20
0.0
 30
0.0
  3
*Paper_Space
  1
*Paper_Space
  0
ENDBLK
  5
1D
330
1B
100
AcDbEntity
 67
     1
  8
0
100
AcDbBlockEnd
  0
BLOCK
  5
24
330
23
100
AcDbEntity
 67
     1
  8
0
100
AcDbBlockBegin
  2
*Paper_Space0
 70
     0
 10
0.0
 20
0.0
 30
0.0
  3
*Paper_Space0
  1
*Paper_Space0
  0
ENDBLK
  5
25
330
23
100
AcDbEntity
 67
     1
  8
0
100
AcDbBlockEnd
  0
BLOCK
  5
1CD
330
1C5
100
AcDbEntity
  8
0
100
AcDbBlockBegin
  2
DimnDraft3D1
 70
     0
 10
0.0
 20
0.0
 30
0.0
  3
DimnDraft3D1
  1
DimnDraft3D1
  0
ENDBLK
  5
1CE
330
1C5
100
AcDbEntity
  8
0
100
AcDbBlockEnd
  0
BLOCK
  5
1D8
330
1D0
100
AcDbEntity
  8
0
100
AcDbBlockBegin
  2
DimnDraft3D2
 70
     0
 10
0.0
 20
0.0
 30
0.0
  3
DimnDraft3D2
  1
DimnDraft3D2
  0
ENDBLK
  5
1D9
330
1D0
100
AcDbEntity
  8
0
100
AcDbBlockEnd
  0
ENDSEC
  0
SECTION
  2
ENTITIES
  0
POINT
  5
6F
330
1F
100
AcDbEntity
  8
SK6
 60
     1
100
AcDbPoint
 10
242.505716
 20
185.689434
 30
0.0
  0
POINT
  5
71
330
1F
100
AcDbEntity
  8
4
 60
     1
100
AcDbPoint
 10
210.505714
 20
173.2145379999999
 30
0.0
  0
POINT
  5
72
330
1F
100
AcDbEntity
  8
4
 60
     1
100
AcDbPoint
 10
241.159429
 20
173.2145379999999
 30
0.0
  0
POINT
  5
73
330
1F
100
AcDbEntity
  8
SK4
 60
     1
100
AcDbPoint
 10
188.5057139999999
 20
173.2145379999999
 30
0.0
  0
POINT
  5
74
330
1F
100
AcDbEntity
  8
SK4
 60
     1
100
AcDbPoint
 10
210.505714
 20
173.2145379999999
 30
0.0
  0
LINE
  5
85
330
1F
100
AcDbEntity
  8
1
100
AcDbLine
 10
210.505714
 20
183.214538
 30
0.0
 11
210.505714
 21
163.214538
 31
0.0
  0
LINE
  5
87
330
1F
100
AcDbEntity
  8
SK1
100
AcDbLine
 10
188.5057139999999
 20
168.2145379999999
 30
0.0
 11
188.5057139999999
 21
178.214538
 31
0.0
  0
LINE
  5
88
330
1F
100
AcDbEntity
  8
SK1
100
AcDbLine
 10
189.505714
 20
167.214538
 30
0.0
 11
189.505714
 21
179.214538
 31
0.0
  0
LINE
  5
89
330
1F
100
AcDbEntity
  8
SK1
100
AcDbLine
 10
205.505714
 20
167.214538
 30
0.0
 11
205.505714
 21
179.214538
 31
0.0
  0
LINE
  5
8A
330
1F
100
AcDbEntity
  8
1
100
AcDbLine
 10
214.005714
 20
166.981762
 30
0.0
 11
223.005714
 21
166.981762
 31
0.0
  0
LINE
  5
8B
330
1F
100
AcDbEntity
  8
1
100
AcDbLine
 10
213.505714
 20
178.705212
 30
0.0
 11
213.505714
 21
167.723865
 31
0.0
  0
LINE
  5
8C
330
1F
100
AcDbEntity
  8
1
100
AcDbLine
 10
223.005714
 20
179.447315
 30
0.0
 11
214.005714
 21
179.447315
 31
0.0
  0
LINE
  5
8D
330
1F
100
AcDbEntity
  8
1
100
AcDbLine
 10
223.505714
 20
167.723865
 30
0.0
 11
223.505714
 21
178.705212
 31
0.0
  0
LINE
  5
8E
330
1F
100
AcDbEntity
  8
1
100
AcDbLine
 10
211.005714
 20
183.7145379999999
 30
0.0
 11
211.005714
 21
162.7145379999999
 31
0.0
  0
LINE
  5
8F
330
1F
100
AcDbEntity
  8
SK1
100
AcDbLine
 10
209.005714
 20
166.9645379999999
 30
0.0
 11
209.005714
 21
179.4645379999999
 31
0.0
  0
LINE
  5
90
330
1F
100
AcDbEntity
  8
SK1
100
AcDbLine
 10
205.755714
 20
166.9645379999999
 30
0.0
 11
205.755714
 21
179.4645379999999
 31
0.0
  0
LINE
  5
91
330
1F
100
AcDbEntity
  8
1
100
AcDbLine
 10
234.374371
 20
165.594565
 30
0.0
 11
234.374371
 21
166.305665
 31
0.0
  0
LINE
  5
92
330
1F
100
AcDbEntity
  8
1
100
AcDbLine
 10
241.01513
 20
177.595103
 30
0.0
 11
237.322097
 21
177.600548
 31
0.0
  0
LINE
  5
93
330
1F
100
AcDbEntity
  8
1
100
AcDbLine
 10
232.601126
 20
183.602556
 30
0.0
 11
232.601126
 21
181.187577
 31
0.0
  0
LINE
  5
94
330
1F
100
AcDbEntity
  8
1
100
AcDbLine
 10
232.601126
 20
180.225996
 30
0.0
 11
232.601126
 21
178.899007
 31
0.0
  0
LINE
  5
95
330
1F
100
AcDbEntity
  8
1
100
AcDbLine
 10
233.303559
 20
177.797181
 30
0.0
 11
233.333932
 21
177.766428
 31
0.0
  0
LINE
  5
96
330
1F
100
AcDbEntity
  8
1
100
AcDbLine
 10
235.541147
 20
161.754315
 30
0.0
 11
238.578285
 21
161.773805
 31
0.0
  0
LINE
  5
98
330
1F
100
AcDbEntity
  8
1
100
AcDbLine
 10
241.209429
 20
164.437906
 30
0.0
 11
241.209429
 21
167.493596
 31
0.0
  0
LINE
  5
99
330
1F
100
AcDbEntity
  8
1
100
AcDbLine
 10
238.920216
 20
161.918497
 30
0.0
 11
241.067796
 21
164.092978
 31
0.0
  0
LINE
  5
9A
330
1F
100
AcDbEntity
  8
1
100
AcDbLine
 10
234.04031
 20
163.053167
 30
0.0
 11
235.199216
 21
161.894618
 31
0.0
  0
LINE
  5
9B
330
1F
100
AcDbEntity
  8
SK1
100
AcDbLine
 10
205.755714
 20
179.4645379999999
 30
0.0
 11
205.505714
 21
179.214538
 31
0.0
  0
LINE
  5
9C
330
1F
100
AcDbEntity
  8
SK1
100
AcDbLine
 10
188.5057139999999
 20
168.2145379999999
 30
0.0
 11
189.505714
 21
167.214538
 31
0.0
  0
LINE
  5
9D
330
1F
100
AcDbEntity
  8
1
100
AcDbLine
 10
210.505714
 20
163.214538
 30
0.0
 11
211.005714
 21
162.7145379999999
 31
0.0
  0
LINE
  5
9E
330
1F
100
AcDbEntity
  8
SK1
100
AcDbLine
 10
210.305714
 20
179.264538
 30
0.0
 11
209.352125
 21
179.264538
 31
0.0
  0
LINE
  5
9F
330
1F
100
AcDbEntity
  8
SK1
100
AcDbLine
 10
189.505714
 20
179.214538
 30
0.0
 11
188.5057139999999
 21
178.214538
 31
0.0
  0
LINE
  5
A0
330
1F
100
AcDbEntity
  8
SK1
100
AcDbLine
 10
209.005714
 20
179.4645379999999
 30
0.0
 11
205.755714
 21
179.4645379999999
 31
0.0
  0
LINE
  5
A1
330
1F
100
AcDbEntity
  8
1
100
AcDbLine
 10
211.005714
 20
183.7145379999999
 30
0.0
 11
210.505714
 21
183.214538
 31
0.0
  0
LINE
  5
A2
330
1F
100
AcDbEntity
  8
1
100
AcDbLine
 10
238.730076
 20
181.005702
 30
0.0
 11
238.576989
 21
180.940361
 31
0.0
  0
LINE
  5
A4
330
1F
100
AcDbEntity
  8
1
100
AcDbLine
 10
238.236881
 20
181.493653
 30
0.0
 11
238.390814
 21
181.559356
 31
0.0
  0
LINE
  5
A5
330
1F
100
AcDbEntity
  8
SK1
100
AcDbLine
 10
205.505714
 20
167.214538
 30
0.0
 11
205.755714
 21
166.9645379999999
 31
0.0
  0
LINE
  5
A6
330
1F
100
AcDbEntity
  8
SK1
100
AcDbLine
 10
209.352125
 20
167.164538
 30
0.0
 11
210.305714
 21
167.164538
 31
0.0
  0
LINE
  5
A7
330
1F
100
AcDbEntity
  8
1
100
AcDbLine
 10
232.314166
 20
183.7145379999999
 30
0.0
 11
211.005714
 21
183.7145379999999
 31
0.0
  0
LINE
  5
A8
330
1F
100
AcDbEntity
  8
1
100
AcDbLine
 10
238.387673
 20
178.447287
 30
0.0
 11
238.449876
 21
178.473837
 31
0.0
  0
LINE
  5
A9
330
1F
100
AcDbEntity
  8
1
100
AcDbLine
 10
236.670614
 20
179.822624
 30
0.0
 11
236.57328
 21
179.78108
 31
0.0
  0
LINE
  5
AA
330
1F
100
AcDbEntity
  8
1
100
AcDbLine
 10
241.159429
 20
165.984528
 30
0.0
 11
241.159429
 21
177.424964
 31
0.0
  0
LINE
  5
AB
330
1F
100
AcDbEntity
  8
1
100
AcDbLine
 10
211.005714
 20
162.7145379999999
 30
0.0
 11
232.314356
 21
162.7145379999999
 31
0.0
  0
LINE
  5
AC
330
1F
100
AcDbEntity
  8
SK1
100
AcDbLine
 10
205.755714
 20
166.9645379999999
 30
0.0
 11
209.005714
 21
166.9645379999999
 31
0.0
  0
LINE
  5
AD
330
1F
100
AcDbEntity
  8
1
100
AcDbLine
 10
236.565571
 20
182.8885169999999
 30
0.0
 11
236.503368
 21
182.861967
 31
0.0
  0
LINE
  5
AE
330
1F
100
AcDbEntity
  8
1
100
AcDbLine
 10
236.293113
 20
180.359957
 30
0.0
 11
236.331352
 21
180.376278
 31
0.0
  0
LINE
  5
AF
330
1F
100
AcDbEntity
  8
1
100
AcDbLine
 10
238.114669
 20
179.783683
 30
0.0
 11
237.954007
 21
179.715108
 31
0.0
  0
LINE
  5
B0
330
1F
100
AcDbEntity
  8
SK1
100
AcDbLine
 10
188.951433
 20
178.660038
 30
0.0
 11
205.505714
 21
178.660038
 31
0.0
  0
LINE
  5
B1
330
1F
100
AcDbEntity
  8
1
100
AcDbLine
 10
232.580078
 20
180.71206
 30
0.0
 11
232.580223
 21
180.666247
 31
0.0
  0
LINE
  5
B3
330
1F
100
AcDbEntity
  8
SK1
100
AcDbLine
 10
205.505714
 20
179.214538
 30
0.0
 11
189.505714
 21
179.214538
 31
0.0
  0
LINE
  5
B4
330
1F
100
AcDbEntity
  8
1
100
AcDbLine
 10
232.580078
 20
180.71206
 30
0.0
 11
232.580224
 21
180.666007
 31
0.0
  0
LINE
  5
B5
330
1F
100
AcDbEntity
  8
1
100
AcDbLine
 10
236.786096
 20
181.529722
 30
0.0
 11
236.946758
 21
181.598297
 31
0.0
  0
LINE
  5
B6
330
1F
100
AcDbEntity
  8
SK1
100
AcDbLine
 10
189.505714
 20
167.214538
 30
0.0
 11
205.505714
 21
167.214538
 31
0.0
  0
LINE
  5
B7
330
1F
100
AcDbEntity
  8
SK1
100
AcDbLine
 10
188.951433
 20
167.769038
 30
0.0
 11
205.505714
 21
167.769038
 31
0.0
  0
LINE
  5
B8
330
1F
100
AcDbEntity
  8
1
100
AcDbLine
 10
232.805914
 20
162.896435
 30
0.0
 11
232.805914
 21
163.198385
 31
0.0
  0
LINE
  5
B9
330
1F
100
AcDbEntity
  8
1
100
AcDbLine
 10
232.805914
 20
183.532642
 30
0.0
 11
232.805914
 21
182.215701
 31
0.0
  0
LINE
  5
BA
330
1F
100
AcDbEntity
  8
1
100
AcDbLine
 10
232.805914
 20
179.146945
 30
0.0
 11
232.805914
 21
179.002695
 31
0.0
  0
LINE
  5
BB
330
1F
100
AcDbEntity
  8
NOCUT
100
AcDbLine
 10
233.315112
 20
183.7145379999999
 30
0.0
 11
211.005714
 21
183.7145379999999
 31
0.0
  0
LINE
  5
BD
330
1F
100
AcDbEntity
  8
NOCUT
100
AcDbLine
 10
235.507733
 20
184.671048
 30
0.0
 11
234.315112
 21
183.982488
 31
0.0
  0
LINE
  5
BE
330
1F
100
AcDbEntity
  8
1
100
AcDbLine
 10
188.951433
 20
167.769038
 30
0.0
 11
205.505714
 21
167.769038
 31
0.0
  0
LINE
  5
BF
330
1F
100
AcDbEntity
  8
1
100
AcDbLine
 10
188.951433
 20
178.660038
 30
0.0
 11
205.505714
 21
178.660038
 31
0.0
  0
LINE
  5
C0
330
1F
100
AcDbEntity
  8
NOCUT
100
AcDbLine
 10
210.505714
 20
163.214538
 30
0.0
 11
211.005714
 21
162.7145379999999
 31
0.0
  0
LINE
  5
C1
330
1F
100
AcDbEntity
  8
NOCUT
100
AcDbLine
 10
210.692085
 20
166.661011
 30
0.0
 11
210.505714
 21
165.965467
 31
0.0
  0
LINE
  5
C2
330
1F
100
AcDbEntity
  8
NOCUT
100
AcDbLine
 10
210.505714
 20
180.46361
 30
0.0
 11
210.692085
 21
179.768066
 31
0.0
  0
LINE
  5
C3
330
1F
100
AcDbEntity
  8
NOCUT
100
AcDbLine
 10
188.5057139999999
 20
170.637188
 30
0.0
 11
189.505714
 21
171.2145379999999
 31
0.0
  0
LINE
  5
C4
330
1F
100
AcDbEntity
  8
NOCUT
100
AcDbLine
 10
205.505714
 20
167.214538
 30
0.0
 11
189.505714
 21
167.214538
 31
0.0
  0
LINE
  5
C5
330
1F
100
AcDbEntity
  8
NOCUT
100
AcDbLine
 10
205.755714
 20
179.4645379999999
 30
0.0
 11
209.005714
 21
179.4645379999999
 31
0.0
  0
LINE
  5
C6
330
1F
100
AcDbEntity
  8
NOCUT
100
AcDbLine
 10
210.505714
 20
183.214538
 30
0.0
 11
210.505714
 21
180.46361
 31
0.0
  0
LINE
  5
C7
330
1F
100
AcDbEntity
  8
NOCUT
100
AcDbLine
 10
188.5057139999999
 20
168.2145379999999
 30
0.0
 11
189.505714
 21
167.214538
 31
0.0
  0
LINE
  5
C8
330
1F
100
AcDbEntity
  8
NOCUT
100
AcDbLine
 10
188.5057139999999
 20
168.2145379999999
 30
0.0
 11
188.5057139999999
 21
170.637188
 31
0.0
  0
LINE
  5
C9
330
1F
100
AcDbEntity
  8
NOCUT
100
AcDbLine
 10
210.505714
 20
165.965467
 30
0.0
 11
210.505714
 21
163.214538
 31
0.0
  0
LINE
  5
CA
330
1F
100
AcDbEntity
  8
NOCUT
100
AcDbLine
 10
224.505714
 20
175.2145379999999
 30
0.0
 11
189.505714
 21
175.2145379999999
 31
0.0
  0
LINE
  5
CB
330
1F
100
AcDbEntity
  8
NOCUT
100
AcDbLine
 10
205.505714
 20
167.214538
 30
0.0
 11
205.755714
 21
166.9645379999999
 31
0.0
  0
LINE
  5
CC
330
1F
100
AcDbEntity
  8
NOCUT
100
AcDbLine
 10
205.755714
 20
179.4645379999999
 30
0.0
 11
205.505714
 21
179.214538
 31
0.0
  0
LINE
  5
CD
330
1F
100
AcDbEntity
  8
NOCUT
100
AcDbLine
 10
236.507733
 20
161.49008
 30
0.0
 11
237.671835
 21
161.49008
 31
0.0
  0
LINE
  5
CE
330
1F
100
AcDbEntity
  8
NOCUT
100
AcDbLine
 10
189.505714
 20
171.2145379999999
 30
0.0
 11
224.505714
 21
171.2145379999999
 31
0.0
  0
LINE
  5
CF
330
1F
100
AcDbEntity
  8
NOCUT
100
AcDbLine
 10
211.005714
 20
183.7145379999999
 30
0.0
 11
210.505714
 21
183.214538
 31
0.0
  0
LINE
  5
D0
330
1F
100
AcDbEntity
  8
NOCUT
100
AcDbLine
 10
209.352125
 20
167.164538
 30
0.0
 11
210.305714
 21
167.164538
 31
0.0
  0
LINE
  5
D1
330
1F
100
AcDbEntity
  8
NOCUT
100
AcDbLine
 10
210.305714
 20
179.264538
 30
0.0
 11
209.352125
 21
179.264538
 31
0.0
  0
LINE
  5
D2
330
1F
100
AcDbEntity
  8
NOCUT
100
AcDbLine
 10
225.660415
 20
173.2145379999999
 30
0.0
 11
224.505714
 21
175.2145379999999
 31
0.0
  0
LINE
  5
D3
330
1F
100
AcDbEntity
  8
NOCUT
100
AcDbLine
 10
209.005714
 20
166.9645379999999
 30
0.0
 11
205.755714
 21
166.9645379999999
 31
0.0
  0
LINE
  5
D4
330
1F
100
AcDbEntity
  8
NOCUT
100
AcDbLine
 10
189.505714
 20
179.214538
 30
0.0
 11
188.5057139999999
 21
178.214538
 31
0.0
  0
LINE
  5
D5
330
1F
100
AcDbEntity
  8
NOCUT
100
AcDbLine
 10
189.505714
 20
175.2145379999999
 30
0.0
 11
188.5057139999999
 21
175.791888
 31
0.0
  0
LINE
  5
D6
330
1F
100
AcDbEntity
  8
NOCUT
100
AcDbLine
 10
188.5057139999999
 20
175.791888
 30
0.0
 11
188.5057139999999
 21
178.214538
 31
0.0
  0
LINE
  5
D7
330
1F
100
AcDbEntity
  8
NOCUT
100
AcDbLine
 10
211.005714
 20
162.7145379999999
 30
0.0
 11
233.315112
 21
162.7145379999999
 31
0.0
  0
LINE
  5
D8
330
1F
100
AcDbEntity
  8
NOCUT
100
AcDbLine
 10
189.505714
 20
179.214538
 30
0.0
 11
205.505714
 21
179.214538
 31
0.0
  0
LINE
  5
D9
330
1F
100
AcDbEntity
  8
NOCUT
100
AcDbLine
 10
224.505714
 20
171.2145379999999
 30
0.0
 11
225.660415
 21
173.2145379999999
 31
0.0
  0
LINE
  5
DA
330
1F
100
AcDbEntity
  8
NOCUT
100
AcDbLine
 10
234.315112
 20
162.446589
 30
0.0
 11
235.507733
 21
161.758029
 31
0.0
  0
LINE
  5
DB
330
1F
100
AcDbEntity
  8
NOCUT
100
AcDbLine
 10
237.905714
 20
170.783466
 30
0.0
 11
237.905714
 21
175.645611
 31
0.0
  0
LINE
  5
DC
330
1F
100
AcDbEntity
  8
NOCUT
100
AcDbLine
 10
238.264898
 20
176.655747
 30
0.0
 11
240.376499
 21
179.249562
 31
0.0
  0
LINE
  5
DD
330
1F
100
AcDbEntity
  8
NOCUT
100
AcDbLine
 10
237.671835
 20
184.938997
 30
0.0
 11
236.507733
 21
184.938997
 31
0.0
  0
LINE
  5
DE
330
1F
100
AcDbEntity
  8
NOCUT
100
AcDbLine
 10
240.376499
 20
167.179515
 30
0.0
 11
238.264898
 21
169.77333
 31
0.0
  0
LINE
  5
DF
102
{ACAD_REACTORS
330
1DB
102
}
330
1F
100
AcDbEntity
  8
81
100
AcDbLine
 10
242.505716
 20
182.689434
 30
0.0
 11
242.505716
 21
188.689434
 31
0.0
  0
LINE
  5
E0
102
{ACAD_REACTORS
330
1DB
102
}
330
1F
100
AcDbEntity
  8
81
100
AcDbLine
 10
239.505716
 20
185.689434
 30
0.0
 11
245.505716
 21
185.689434
 31
0.0
  0
LINE
  5
E1
102
{ACAD_REACTORS
330
1DC
102
}
330
1F
100
AcDbEntity
  8
80
100
AcDbLine
 10
209.005714
 20
173.2145379999999
 30
0.0
 11
212.005714
 21
173.2145379999999
 31
0.0
  0
LINE
  5
E2
102
{ACAD_REACTORS
330
1DC
102
}
330
1F
100
AcDbEntity
  8
80
100
AcDbLine
 10
210.505714
 20
171.714538
 30
0.0
 11
210.505714
 21
174.714538
 31
0.0
  0
LINE
  5
E3
102
{ACAD_REACTORS
330
1DD
102
}
330
1F
100
AcDbEntity
  8
2
100
AcDbLine
 10
254.75471
 20
185.689434
 30
0.0
 11
254.75471
 21
163.914223
 31
0.0
  0
LINE
  5
E4
102
{ACAD_REACTORS
330
1DD
102
}
330
1F
100
AcDbEntity
  8
2
100
AcDbLine
 10
238.51123
 20
185.689434
 30
0.0
 11
256.75471
 21
185.689434
 31
0.0
  0
LINE
  5
E5
330
1F
100
AcDbEntity
  8
2
 60
     1
100
AcDbLine
 10
254.75471
 20
185.689434
 30
0.0
 11
255.195528
 21
183.189436
 31
0.0
  0
LINE
  5
E6
330
1F
100
AcDbEntity
  8
2
 60
     1
100
AcDbLine
 10
255.195528
 20
183.189436
 30
0.0
 11
254.313893
 21
183.189432
 31
0.0
  0
LINE
  5
E7
330
1F
100
AcDbEntity
  8
2
 60
     1
100
AcDbLine
 10
254.313893
 20
183.189432
 30
0.0
 11
254.75471
 21
185.689434
 31
0.0
  0
LINE
  5
E9
102
{ACAD_REACTORS
330
1DE
102
}
330
1F
100
AcDbEntity
  8
2
100
AcDbLine
 10
210.505714
 20
201.736196
 30
0.0
 11
242.505716
 21
201.736196
 31
0.0
  0
LINE
  5
EA
102
{ACAD_REACTORS
330
1DE
102
}
330
1F
100
AcDbEntity
  8
2
100
AcDbLine
 10
242.505716
 20
186.689434
 30
0.0
 11
242.505716
 21
203.736196
 31
0.0
  0
LINE
  5
EB
102
{ACAD_REACTORS
330
1DE
102
}
330
1F
100
AcDbEntity
  8
2
100
AcDbLine
 10
210.505714
 20
184.214538
 30
0.0
 11
210.505714
 21
203.736196
 31
0.0
  0
LINE
  5
EC
330
1F
100
AcDbEntity
  8
2
 60
     1
100
AcDbLine
 10
242.505716
 20
201.736196
 30
0.0
 11
240.005717
 21
201.295378
 31
0.0
  0
LINE
  5
ED
330
1F
100
AcDbEntity
  8
2
 60
     1
100
AcDbLine
 10
240.005717
 20
201.295378
 30
0.0
 11
240.005714
 21
202.177013
 31
0.0
  0
LINE
  5
EE
330
1F
100
AcDbEntity
  8
2
 60
     1
100
AcDbLine
 10
240.005714
 20
202.177013
 30
0.0
 11
242.505716
 21
201.736196
 31
0.0
  0
LINE
  5
EF
330
1F
100
AcDbEntity
  8
2
 60
     1
100
AcDbLine
 10
210.505714
 20
201.736196
 30
0.0
 11
213.005713
 21
202.177013
 31
0.0
  0
LINE
  5
F0
330
1F
100
AcDbEntity
  8
2
 60
     1
100
AcDbLine
 10
213.005713
 20
202.177013
 30
0.0
 11
213.005716
 21
201.295378
 31
0.0
  0
LINE
  5
F1
330
1F
100
AcDbEntity
  8
2
 60
     1
100
AcDbLine
 10
213.005716
 20
201.295378
 30
0.0
 11
210.505714
 21
201.736196
 31
0.0
  0
LINE
  5
F2
102
{ACAD_REACTORS
330
1DF
102
}
330
1F
100
AcDbEntity
  8
2
100
AcDbLine
 10
251.255716
 20
192.897833
 30
0.0
 11
228.792884
 21
192.897833
 31
0.0
  0
LINE
  5
F3
102
{ACAD_REACTORS
330
1DF
102
}
330
1F
100
AcDbEntity
  8
2
100
AcDbLine
 10
237.542884
 20
186.689434
 30
0.0
 11
237.542884
 21
194.897833
 31
0.0
  0
LINE
  5
F4
102
{ACAD_REACTORS
330
1DF
102
}
330
1F
100
AcDbEntity
  8
2
100
AcDbLine
 10
242.505716
 20
186.689434
 30
0.0
 11
242.505716
 21
194.897833
 31
0.0
  0
LINE
  5
F5
330
1F
100
AcDbEntity
  8
2
 60
     1
100
AcDbLine
 10
237.542884
 20
192.897833
 30
0.0
 11
235.042886
 21
192.457016
 31
0.0
  0
LINE
  5
F6
330
1F
100
AcDbEntity
  8
2
 60
     1
100
AcDbLine
 10
235.042886
 20
192.457016
 30
0.0
 11
235.042883
 21
193.33865
 31
0.0
  0
LINE
  5
F7
330
1F
100
AcDbEntity
  8
2
 60
     1
100
AcDbLine
 10
235.042883
 20
193.33865
 30
0.0
 11
237.542884
 21
192.897833
 31
0.0
  0
LINE
  5
F8
330
1F
100
AcDbEntity
  8
2
 60
     1
100
AcDbLine
 10
242.505716
 20
192.897833
 30
0.0
 11
245.005714
 21
193.33865
 31
0.0
  0
LINE
  5
F9
330
1F
100
AcDbEntity
  8
2
 60
     1
100
AcDbLine
 10
245.005714
 20
193.33865
 30
0.0
 11
245.005717
 21
192.457016
 31
0.0
  0
LINE
  5
FA
330
1F
100
AcDbEntity
  8
2
 60
     1
100
AcDbLine
 10
245.005717
 20
192.457016
 30
0.0
 11
242.505716
 21
192.897833
 31
0.0
  0
ARC
  5
FB
330
1F
100
AcDbEntity
  8
SK1
100
AcDbCircle
 10
-210.305714
 20
166.764538
 30
0.0
 40
0.3999999999999995
210
0.0
220
0.0
230
-1.0
100
AcDbArc
 50
90.0
 51
120.00093
  0
ARC
  5
FC
330
1F
100
AcDbEntity
  8
SK1
100
AcDbCircle
 10
-209.352125
 20
179.664538
 30
0.0
 40
0.4000000000000001
210
0.0
220
0.0
230
-1.0
100
AcDbArc
 50
270.0
 51
330.0
  0
ARC
  5
FD
330
1F
100
AcDbEntity
  8
SK1
100
AcDbCircle
 10
-209.352125
 20
166.764538
 30
0.0
 40
0.4000000000000001
210
0.0
220
0.0
230
-1.0
100
AcDbArc
 50
30.0
 51
90.0
  0
ARC
  5
FE
330
1F
100
AcDbEntity
  8
SK1
100
AcDbCircle
 10
-210.305714
 20
179.664538
 30
0.0
 40
0.3999999999999995
210
0.0
220
0.0
230
-1.0
100
AcDbArc
 50
239.99907
 51
270.0
  0
ARC
  5
FF
330
1F
100
AcDbEntity
  8
1
100
AcDbCircle
 10
233.386401
 20
178.983312
 30
0.0
 40
0.5
100
AcDbArc
 50
200.355382
 51
204.316008
  0
ARC
  5
100
330
1F
100
AcDbEntity
  8
1
100
AcDbCircle
 10
233.386401
 20
178.983312
 30
0.0
 40
0.5
100
AcDbArc
 50
200.355382
 51
204.316008
  0
ARC
  5
101
330
1F
100
AcDbEntity
  8
NOCUT
100
AcDbCircle
 10
237.671835
 20
181.451403
 30
0.0
 40
3.487593740623581
100
AcDbArc
 50
320.851289
 51
90.0
  0
ARC
  5
102
330
1F
100
AcDbEntity
  8
NOCUT
100
AcDbCircle
 10
236.507733
 20
182.938997
 30
0.0
 40
2.0
100
AcDbArc
 50
90.0
 51
120.0
  0
ARC
  5
103
330
1F
100
AcDbEntity
  8
NOCUT
100
AcDbCircle
 10
233.315112
 20
185.714538
 30
0.0
 40
2.0
100
AcDbArc
 50
270.0
 51
300.0
  0
ARC
  5
104
330
1F
100
AcDbEntity
  8
NOCUT
100
AcDbCircle
 10
-209.352125
 20
179.664538
 30
0.0
 40
0.4000000000000001
210
0.0
220
0.0
230
-1.0
100
AcDbArc
 50
270.0
 51
330.0
  0
ARC
  5
105
330
1F
100
AcDbEntity
  8
NOCUT
100
AcDbCircle
 10
-210.305714
 20
179.664538
 30
0.0
 40
0.3999999999999995
210
0.0
220
0.0
230
-1.0
100
AcDbArc
 50
165.0
 51
270.0
  0
ARC
  5
106
330
1F
100
AcDbEntity
  8
NOCUT
100
AcDbCircle
 10
236.507733
 20
163.49008
 30
0.0
 40
2.0
100
AcDbArc
 50
240.0
 51
270.0
  0
ARC
  5
107
330
1F
100
AcDbEntity
  8
NOCUT
100
AcDbCircle
 10
-210.305714
 20
166.764538
 30
0.0
 40
0.3999999999999995
210
0.0
220
0.0
230
-1.0
100
AcDbArc
 50
90.0
 51
195.0
  0
ARC
  5
108
330
1F
100
AcDbEntity
  8
NOCUT
100
AcDbCircle
 10
-209.352125
 20
166.764538
 30
0.0
 40
0.4000000000000001
210
0.0
220
0.0
230
-1.0
100
AcDbArc
 50
30.0
 51
90.0
  0
ARC
  5
109
330
1F
100
AcDbEntity
  8
NOCUT
100
AcDbCircle
 10
233.315112
 20
160.7145379999999
 30
0.0
 40
2.0
100
AcDbArc
 50
60.0
 51
90.0
  0
ARC
  5
10A
330
1F
100
AcDbEntity
  8
NOCUT
100
AcDbCircle
 10
237.671835
 20
164.977674
 30
0.0
 40
3.487593740623581
100
AcDbArc
 50
270.0
 51
39.148711
  0
ARC
  5
10B
330
1F
100
AcDbEntity
  8
NOCUT
100
AcDbCircle
 10
239.505714
 20
175.645611
 30
0.0
 40
1.6
100
AcDbArc
 50
140.851289
 51
180.0
  0
ARC
  5
10C
330
1F
100
AcDbEntity
  8
NOCUT
100
AcDbCircle
 10
239.505714
 20
170.783466
 30
0.0
 40
1.6
100
AcDbArc
 50
180.0
 51
219.148711
  0
ELLIPSE
  5
10D
330
1F
100
AcDbEntity
  8
CUT
100
AcDbEllipse
 10
237.542884
 20
180.696185
 30
0.0
 11
1.962817595750255
 21
-4.59862447758166
 31
0.0
210
0.0
220
0.0
230
0.9999999999999998
 40
0.9912059999999998
 41
0.0
 42
6.283185307179585
  0
ELLIPSE
  5
10E
330
1F
100
AcDbEntity
  8
1
100
AcDbEllipse
 10
233.351059
 20
178.522812
 30
0.0
 11
-0.1031121525244367
 21
0.7459074014055519
 31
0.0
210
0.0
220
0.0
230
1.0
 40
0.9222319999999998
 41
0.7518496351984071
 42
0.9488863889373281
  0
ELLIPSE
  5
10F
330
1F
100
AcDbEntity
  8
1
100
AcDbEllipse
 10
237.469861
 20
180.665017
 30
0.0
 11
-1.07954967766264
 21
2.52924346266991
 31
0.0
210
0.0
220
0.0
230
1.0
 40
0.9912059999999998
 41
2.75162521779763
 42
6.283185307179585
  0
ELLIPSE
  5
110
330
1F
100
AcDbEntity
  8
1
100
AcDbEllipse
 10
237.469861
 20
180.665017
 30
0.0
 11
-1.07954967766264
 21
2.52924346266991
 31
0.0
210
0.0
220
0.0
230
1.0
 40
0.9912059999999998
 41
0.0
 42
0.3900310630727568
  0
ELLIPSE
  5
111
330
1F
100
AcDbEntity
  8
1
100
AcDbEllipse
 10
237.542884
 20
180.696185
 30
0.0
 11
1.091893707022355
 21
-2.558163906265115
 31
0.0
210
0.0
220
0.0
230
1.0
 40
0.991206
 41
0.0
 42
6.283185307179585
  0
ELLIPSE
  5
112
330
1F
100
AcDbEntity
  8
1
100
AcDbEllipse
 10
237.542884
 20
180.696185
 30
0.0
 11
-1.962817595750256
 21
4.59862447758166
 31
0.0
210
0.0
220
0.0
230
1.0
 40
0.9912059999999998
 41
1.170558477862766
 42
1.808264007171571
  0
ELLIPSE
  5
113
330
1F
100
AcDbEntity
  8
1
100
AcDbEllipse
 10
237.542884
 20
180.696185
 30
0.0
 11
-1.962817595750256
 21
4.59862447758166
 31
0.0
210
0.0
220
0.0
230
1.0
 40
0.9912059999999998
 41
3.551455045138203
 42
6.283185307179585
  0
ELLIPSE
  5
114
330
1F
100
AcDbEntity
  8
1
100
AcDbEllipse
 10
237.542884
 20
180.696185
 30
0.0
 11
-1.962817595750256
 21
4.59862447758166
 31
0.0
210
0.0
220
0.0
230
1.0
 40
0.9912059999999998
 41
0.0
 42
1.170558434491687
  0
ELLIPSE
  5
115
330
1F
100
AcDbEntity
  8
1
100
AcDbEllipse
 10
229.1563
 20
180.664549
 30
0.0
 11
-15.19278848896988
 21
1.710663390086754
 31
0.0
210
0.0
220
0.0
230
1.0
 40
0.16732
 41
1.929925474135305
 42
2.156964941253995
  0
ELLIPSE
  5
116
330
1F
100
AcDbEntity
  8
1
100
AcDbEllipse
 10
175.269135
 20
173.214548
 30
0.0
 11
-95.619142940268
 21
-0.6229441879566453
 31
0.0
210
0.0
220
0.0
230
1.0
 40
0.122443
 41
2.265073133489981
 42
2.281031897925291
  0
ELLIPSE
  5
117
330
1F
100
AcDbEntity
  8
1
100
AcDbEllipse
 10
232.664376
 20
173.2145379999999
 30
0.0
 11
-0.0559945961060092
 21
-10.49999848398978
 31
0.0
210
0.0
220
0.0
230
1.0
 40
0.100721
 41
0.0040689255168668
 42
0.1869439626225411
  0
ELLIPSE
  5
118
330
1F
100
AcDbEntity
  8
1
100
AcDbEllipse
 10
232.664376
 20
173.2145379999999
 30
0.0
 11
-0.0559945961051637
 21
10.49999848439333
 31
0.0
210
0.0
220
0.0
230
1.0
 40
0.100721
 41
6.096241344560673
 42
6.279116381662825
  0
ELLIPSE
  5
119
330
1F
100
AcDbEntity
  8
1
100
AcDbEllipse
 10
236.359504
 20
166.318404
 30
0.0
 11
0.7851270383000714
 21
1.839449791032676
 31
0.0
210
0.0
220
0.0
230
1.0
 40
0.9912059999999998
 41
0.0876950664357334
 42
1.977412373613685
  0
ELLIPSE
  5
11A
330
1F
100
AcDbEntity
  8
1
100
AcDbEllipse
 10
233.266437
 20
178.522809
 30
0.0
 11
-0.7073553982527799
 21
-0.2387290032871843
 31
0.0
210
0.0
220
0.0
230
1.0
 40
0.010392
 41
5.689921996905147
 42
7.59698766478229
  0
ELLIPSE
  5
11B
330
1F
100
AcDbEntity
  8
1
100
AcDbEllipse
 10
237.569118
 20
180.159479
 30
0.0
 11
-6.073229310814903
 21
-2.099013011558827
 31
0.0
210
0.0
220
0.0
230
1.0
 40
0.110656
 41
5.574799180788483
 42
5.631076210991379
  0
ELLIPSE
  5
11C
330
1F
100
AcDbEntity
  8
1
100
AcDbEllipse
 10
235.361717
 20
173.172405
 30
0.0
 11
-0.0742804711823634
 21
11.34374950962008
 31
0.0
210
0.0
220
0.0
230
0.9999999999999998
 40
0.122749
 41
2.239376529251548
 42
2.301535649014281
  0
ELLIPSE
  5
11D
330
1F
100
AcDbEntity
  8
1
100
AcDbEllipse
 10
233.2233200000001
 20
178.4732469999999
 30
0.0
 11
-0.7078747799517176
 21
-0.2846453314783008
 31
0.0
210
0.0
220
0.0
230
0.9999999999999998
 40
0.9830099999999999
 41
5.292870855205463
 42
6.989908089916826
  0
ELLIPSE
  5
11E
330
1F
100
AcDbEntity
  8
1
100
AcDbEllipse
 10
237.542884
 20
180.696185
 30
0.0
 11
-1.962817595750256
 21
4.59862447758166
 31
0.0
210
0.0
220
0.0
230
1.0
 40
0.9912059999999998
 41
1.17055847786277
 42
1.808301825502113
  0
ELLIPSE
  5
11F
330
1F
100
AcDbEntity
  8
1
100
AcDbEllipse
 10
237.542884
 20
180.696185
 30
0.0
 11
-1.962817595750256
 21
4.59862447758166
 31
0.0
210
0.0
220
0.0
230
1.0
 40
0.9912059999999998
 41
3.551492925156105
 42
6.283185307179585
  0
ELLIPSE
  5
120
330
1F
100
AcDbEntity
  8
1
100
AcDbEllipse
 10
237.542884
 20
180.696185
 30
0.0
 11
-1.962817595750256
 21
4.59862447758166
 31
0.0
210
0.0
220
0.0
230
1.0
 40
0.9912059999999998
 41
0.0
 42
1.170558434491687
  0
ELLIPSE
  5
121
330
1F
100
AcDbEntity
  8
1
100
AcDbEllipse
 10
238.763531
 20
180.438836
 30
0.0
 11
0.033454912599283
 21
-0.0783804772830214
 31
0.0
210
0.0
220
0.0
230
1.0
 40
0.9912059999999998
 41
4.955906736576769
 42
5.614769872561621
  0
ELLIPSE
  5
122
330
1F
100
AcDbEntity
  8
1
100
AcDbEllipse
 10
238.719745
 20
180.274707
 30
0.0
 11
0.033454912599283
 21
-0.0783804772830216
 31
0.0
210
0.0
220
0.0
230
1.0
 40
0.9912059999999998
 41
1.290715307388686
 42
2.473177218971828
  0
ELLIPSE
  5
123
330
1F
100
AcDbEntity
  8
1
100
AcDbEllipse
 10
236.704069
 20
181.648346
 30
0.0
 11
0.0334549125992829
 21
-0.0783804772830212
 31
0.0
210
0.0
220
0.0
230
1.0
 40
0.9912059999999998
 41
5.091171096963339
 42
5.750034232948196
  0
ELLIPSE
  5
124
330
1F
100
AcDbEntity
  8
1
100
AcDbEllipse
 10
237.773474
 20
181.92978
 30
0.0
 11
0.0334549125992829
 21
-0.0783804772830213
 31
0.0
210
0.0
220
0.0
230
0.9999999999999998
 40
0.9912059999999998
 41
0.9023808921769054
 42
2.0848428037601
  0
ELLIPSE
  5
125
330
1F
100
AcDbEntity
  8
1
100
AcDbEllipse
 10
237.936886
 20
181.884678
 30
0.0
 11
0.0334549125992829
 21
-0.0783804772830212
 31
0.0
210
0.0
220
0.0
230
1.0
 40
0.9912059999999998
 41
4.043973545766781
 42
4.702836681751608
  0
ELLIPSE
  5
126
330
1F
100
AcDbEntity
  8
1
100
AcDbEllipse
 10
237.936886
 20
179.492089
 30
0.0
 11
0.033454912599283
 21
-0.0783804772830214
 31
0.0
210
0.0
220
0.0
230
1.0
 40
0.9912059999999998
 41
3.908709185380193
 42
4.567572321365044
  0
ELLIPSE
  5
127
330
1F
100
AcDbEntity
  8
1
100
AcDbEllipse
 10
237.773474
 20
179.449084
 30
0.0
 11
0.033454912599283
 21
-0.0783804772830216
 31
0.0
210
0.0
220
0.0
230
1.0
 40
0.9912059999999998
 41
0.2435177561920711
 42
1.42597966777523
  0
ELLIPSE
  5
128
330
1F
100
AcDbEntity
  8
1
100
AcDbEllipse
 10
236.584443
 20
179.865368
 30
0.0
 11
0.033454912599283
 21
-0.0783804772830216
 31
0.0
210
0.0
220
0.0
230
1.0
 40
0.9912059999999998
 41
5.479505512175074
 42
6.661967423758186
  0
ELLIPSE
  5
129
330
1F
100
AcDbEntity
  8
1
100
AcDbEllipse
 10
236.704069
 20
179.744244
 30
0.0
 11
0.033454912599283
 21
-0.0783804772830214
 31
0.0
210
0.0
220
0.0
230
1.0
 40
0.9912059999999998
 41
2.861511634183588
 42
3.520374770168446
  0
ELLIPSE
  5
12A
330
1F
100
AcDbEntity
  8
1
100
AcDbEllipse
 10
237.287953
 20
179.4522
 30
0.0
 11
0.0334549125992829
 21
-0.0783804772830213
 31
0.0
210
0.0
220
0.0
230
0.9999999999999998
 40
0.9912059999999998
 41
4.04397354576674
 42
5.226435457349963
  0
ELLIPSE
  5
12B
330
1F
100
AcDbEntity
  8
1
100
AcDbEllipse
 10
238.763531
 20
180.927322
 30
0.0
 11
0.0334549125992829
 21
-0.0783804772830212
 31
0.0
210
0.0
220
0.0
230
1.0
 40
0.9912059999999998
 41
2.996775994570142
 42
3.65563913055499
  0
ELLIPSE
  5
12C
330
1F
100
AcDbEntity
  8
1
100
AcDbEllipse
 10
238.719745
 20
181.0920129999999
 30
0.0
 11
0.0334549125992829
 21
-0.0783804772830213
 31
0.0
210
0.0
220
0.0
230
0.9999999999999998
 40
0.9912059999999998
 41
6.138368648159976
 42
7.320830559743116
  0
ELLIPSE
  5
12D
330
1F
100
AcDbEntity
  8
1
100
AcDbEllipse
 10
237.124542
 20
181.889891
 30
0.0
 11
0.033454912599283
 21
-0.0783804772830214
 31
0.0
210
0.0
220
0.0
230
1.0
 40
0.9912059999999998
 41
0.7671165317904082
 42
1.425979667775278
  0
ELLIPSE
  5
12E
330
1F
100
AcDbEntity
  8
1
100
AcDbEllipse
 10
236.484052
 20
166.18483
 30
0.0
 11
0.6869861585125625
 21
1.609518567153591
 31
0.0
210
0.0
220
0.0
230
0.9999999999999998
 40
0.9912059999999998
 41
5.472241206969691
 42
6.283185307179585
  0
ELLIPSE
  5
12F
330
1F
100
AcDbEntity
  8
1
100
AcDbEllipse
 10
236.484052
 20
166.18483
 30
0.0
 11
0.6869861585125625
 21
1.609518567153591
 31
0.0
210
0.0
220
0.0
230
0.9999999999999998
 40
0.9912059999999998
 41
0.0
 42
5.021029552420516
  0
ELLIPSE
  5
130
330
1F
100
AcDbEntity
  8
1
100
AcDbEllipse
 10
237.507724
 20
180.681177
 30
0.0
 11
-0.9421524459601227
 21
2.207339749239195
 31
0.0
210
0.0
220
0.0
230
1.0
 40
0.9912059999999998
 41
0.0
 42
6.283185307179585
  0
ELLIPSE
  5
131
330
1F
100
AcDbEntity
  8
1
100
AcDbEllipse
 10
237.530714
 20
180.69099
 30
0.0
 11
-0.7066143344700927
 21
1.655504811929398
 31
0.0
210
0.0
220
0.0
230
0.9999999999999998
 40
0.9912059999999998
 41
0.0
 42
6.283185307179585
  0
ELLIPSE
  5
132
330
1F
100
AcDbEntity
  8
1
100
AcDbEllipse
 10
236.754682
 20
182.048307
 30
0.0
 11
0.1920765204949316
 21
-0.4500101235230087
 31
0.0
210
0.0
220
0.0
230
1.0
 40
0.9912059999999998
 41
5.75003423294819
 42
7.050301838969971
  0
ELLIPSE
  5
133
330
1F
100
AcDbEntity
  8
1
100
AcDbEllipse
 10
236.584443
 20
181.528757
 30
0.0
 11
0.0334549125992829
 21
-0.0783804772830213
 31
0.0
210
0.0
220
0.0
230
0.9999999999999998
 40
0.9912059999999998
 41
1.949578443373584
 42
3.132040354956701
  0
ELLIPSE
  5
134
330
1F
100
AcDbEntity
  8
1
100
AcDbEllipse
 10
236.739539
 20
181.155643
 30
0.0
 11
0.1920765204949316
 21
-0.4500101235230088
 31
0.0
210
0.0
220
0.0
230
1.0
 40
0.9912059999999998
 41
3.132040354956709
 42
4.432307960978474
  0
ELLIPSE
  5
135
330
1F
100
AcDbEntity
  8
1
100
AcDbEllipse
 10
236.341683
 20
181.107273
 30
0.0
 11
0.033454912599283
 21
-0.0783804772830216
 31
0.0
210
0.0
220
0.0
230
1.0
 40
0.9912059999999998
 41
4.432307960978459
 42
5.61476987256166
  0
ELLIPSE
  5
136
330
1F
100
AcDbEntity
  8
1
100
AcDbEllipse
 10
236.297897
 20
180.943144
 30
0.0
 11
0.033454912599283
 21
-0.0783804772830214
 31
0.0
210
0.0
220
0.0
230
1.0
 40
0.9912059999999998
 41
1.814314082986975
 42
2.473177218971833
  0
ELLIPSE
  5
137
330
1F
100
AcDbEntity
  8
1
100
AcDbEllipse
 10
235.97865
 20
180.70095
 30
0.0
 11
0.1920765204949316
 21
-0.4500101235230087
 31
0.0
210
0.0
220
0.0
230
1.0
 40
0.9912059999999998
 41
0.5140464769652134
 42
1.814314082986976
  0
ELLIPSE
  5
138
330
1F
100
AcDbEntity
  8
1
100
AcDbEllipse
 10
236.297897
 20
180.454658
 30
0.0
 11
0.0334549125992829
 21
-0.0783804772830212
 31
0.0
210
0.0
220
0.0
230
1.0
 40
0.9912059999999998
 41
6.138368648159976
 42
6.797231784144814
  0
ELLIPSE
  5
139
330
1F
100
AcDbEntity
  8
1
100
AcDbEllipse
 10
236.341683
 20
180.289967
 30
0.0
 11
0.0334549125992829
 21
-0.0783804772830213
 31
0.0
210
0.0
220
0.0
230
0.9999999999999998
 40
0.9912059999999998
 41
2.996775994570142
 42
4.17923790615328
  0
ELLIPSE
  5
13A
330
1F
100
AcDbEntity
  8
1
100
AcDbEllipse
 10
236.739539
 20
180.236492
 30
0.0
 11
0.1920765204949316
 21
-0.4500101235230088
 31
0.0
210
0.0
220
0.0
230
1.0
 40
0.9912059999999998
 41
4.179237906153298
 42
5.479505512175066
  0
ELLIPSE
  5
13B
330
1F
100
AcDbEntity
  8
1
100
AcDbEllipse
 10
236.754682
 20
179.343633
 30
0.0
 11
0.1920765204949316
 21
-0.4500101235230087
 31
0.0
210
0.0
220
0.0
230
1.0
 40
0.9912059999999998
 41
1.561244028161804
 42
2.861511634183575
  0
ELLIPSE
  5
13C
330
1F
100
AcDbEntity
  8
1
100
AcDbEllipse
 10
237.124542
 20
179.497302
 30
0.0
 11
0.0334549125992829
 21
-0.0783804772830212
 31
0.0
210
0.0
220
0.0
230
1.0
 40
0.9912059999999998
 41
0.9023808921769298
 42
1.561244028161804
  0
ELLIPSE
  5
13D
330
1F
100
AcDbEntity
  8
1
100
AcDbEllipse
 10
237.530714
 20
179.771839
 30
0.0
 11
0.1920765204949316
 21
-0.4500101235230088
 31
0.0
210
0.0
220
0.0
230
1.0
 40
0.9912059999999998
 41
5.226435457349897
 42
6.526703063371669
  0
ELLIPSE
  5
13E
330
1F
100
AcDbEntity
  8
1
100
AcDbEllipse
 10
238.306746
 20
179.333673
 30
0.0
 11
0.1920765204949316
 21
-0.4500101235230087
 31
0.0
210
0.0
220
0.0
230
1.0
 40
0.9912059999999998
 41
2.608441579358404
 42
3.90870918538018
  0
ELLIPSE
  5
13F
330
1F
100
AcDbEntity
  8
1
100
AcDbEllipse
 10
238.357359
 20
179.733634
 30
0.0
 11
0.0334549125992829
 21
-0.0783804772830212
 31
0.0
210
0.0
220
0.0
230
1.0
 40
0.9912059999999998
 41
1.94957844337352
 42
2.608441579358414
  0
ELLIPSE
  5
140
330
1F
100
AcDbEntity
  8
1
100
AcDbEllipse
 10
238.476984
 20
179.853223
 30
0.0
 11
0.0334549125992829
 21
-0.0783804772830213
 31
0.0
210
0.0
220
0.0
230
0.9999999999999998
 40
0.9912059999999998
 41
5.091171096963365
 42
6.273633008546494
  0
ELLIPSE
  5
141
330
1F
100
AcDbEntity
  8
1
100
AcDbEllipse
 10
238.321889
 20
180.226337
 30
0.0
 11
0.1920765204949316
 21
-0.4500101235230088
 31
0.0
210
0.0
220
0.0
230
1.0
 40
0.9912059999999998
 41
6.273633008546495
 42
7.573900614568268
  0
ELLIPSE
  5
142
330
1F
100
AcDbEntity
  8
1
100
AcDbEllipse
 10
239.082777
 20
180.68103
 30
0.0
 11
0.1920765204949316
 21
-0.4500101235230087
 31
0.0
210
0.0
220
0.0
230
1.0
 40
0.9912059999999998
 41
3.655639130555002
 42
4.955906736576775
  0
ELLIPSE
  5
143
330
1F
100
AcDbEntity
  8
1
100
AcDbEllipse
 10
238.321889
 20
181.145488
 30
0.0
 11
0.1920765204949316
 21
-0.4500101235230088
 31
0.0
210
0.0
220
0.0
230
1.0
 40
0.9912059999999998
 41
1.037645252563504
 42
2.337912858585275
  0
ELLIPSE
  5
144
330
1F
100
AcDbEntity
  8
1
100
AcDbEllipse
 10
238.476984
 20
181.516612
 30
0.0
 11
0.033454912599283
 21
-0.0783804772830216
 31
0.0
210
0.0
220
0.0
230
1.0
 40
0.9912059999999998
 41
2.337912858585281
 42
3.520374770168396
  0
ELLIPSE
  5
145
330
1F
100
AcDbEntity
  8
1
100
AcDbEllipse
 10
238.357359
 20
181.637736
 30
0.0
 11
0.033454912599283
 21
-0.0783804772830214
 31
0.0
210
0.0
220
0.0
230
1.0
 40
0.9912059999999998
 41
6.003104287773385
 42
6.661967423758256
  0
ELLIPSE
  5
146
330
1F
100
AcDbEntity
  8
1
100
AcDbEllipse
 10
238.306746
 20
182.038347
 30
0.0
 11
0.1920765204949316
 21
-0.4500101235230087
 31
0.0
210
0.0
220
0.0
230
1.0
 40
0.9912059999999998
 41
4.702836681751601
 42
6.003104287773367
  0
ELLIPSE
  5
147
330
1F
100
AcDbEntity
  8
1
100
AcDbEllipse
 10
237.530714
 20
181.610141
 30
0.0
 11
0.1920765204949316
 21
-0.4500101235230088
 31
0.0
210
0.0
220
0.0
230
1.0
 40
0.9912059999999998
 41
2.084842803760103
 42
3.38511040978187
  0
ELLIPSE
  5
148
330
1F
100
AcDbEntity
  8
1
100
AcDbEllipse
 10
237.287953
 20
181.932896
 30
0.0
 11
0.033454912599283
 21
-0.0783804772830216
 31
0.0
210
0.0
220
0.0
230
1.0
 40
0.9912059999999998
 41
3.385110409781866
 42
4.567572321365028
  0
ELLIPSE
  5
149
330
1F
100
AcDbEntity
  8
1
100
AcDbEllipse
 10
237.44552
 20
180.654627
 30
0.0
 11
-0.9421524459601226
 21
2.207339749239194
 31
0.0
210
0.0
220
0.0
230
1.0
 40
0.9912059999999998
 41
1.17055834435185
 42
3.141515143628801
  0
ELLIPSE
  5
14A
330
1F
100
AcDbEntity
  8
1
100
AcDbEllipse
 10
237.44552
 20
180.654627
 30
0.0
 11
-0.9421524459601226
 21
2.207339749239194
 31
0.0
210
0.0
220
0.0
230
1.0
 40
0.9912059999999998
 41
0.0000206919437008
 42
1.170558344351852
  0
ELLIPSE
  5
14B
330
1F
100
AcDbEntity
  8
1
100
AcDbEllipse
 10
236.43537
 20
166.205609
 30
0.0
 11
0.5299607508525483
 21
1.241628608947057
 31
0.0
210
0.0
220
0.0
230
1.0
 40
0.9912059999999998
 41
0.0
 42
6.283185307179585
  0
ELLIPSE
  5
14C
330
1F
100
AcDbEntity
  8
1
100
AcDbEllipse
 10
237.542884
 20
165.732892
 30
0.0
 11
1.962817595750179
 21
4.598624477581692
 31
0.0
210
0.0
220
0.0
230
1.0
 40
0.9912059999999998
 41
2.496661929722323
 42
5.112626872687911
  0
ELLIPSE
  5
14D
330
1F
100
AcDbEntity
  8
1
100
AcDbEllipse
 10
237.542884
 20
165.732892
 30
0.0
 11
1.962817595750179
 21
4.598624477581692
 31
0.0
210
0.0
220
0.0
230
1.0
 40
0.9912059999999998
 41
5.112626872687911
 42
5.873383182815993
  0
ELLIPSE
  5
14E
330
1F
100
AcDbEntity
  8
1
100
AcDbEllipse
 10
237.542884
 20
180.696185
 30
0.0
 11
1.091893707022355
 21
-2.558163906265115
 31
0.0
210
0.0
220
0.0
230
1.0
 40
0.991206
 41
0.0
 42
6.283185307179585
  0
ELLIPSE
  5
14F
330
1F
100
AcDbEntity
  8
1
100
AcDbEllipse
 10
237.469861
 20
180.665017
 30
0.0
 11
-1.07954967766264
 21
2.52924346266991
 31
0.0
210
0.0
220
0.0
230
1.0
 40
0.9912059999999998
 41
2.75156512968974
 42
6.283185307179585
  0
ELLIPSE
  5
150
330
1F
100
AcDbEntity
  8
1
100
AcDbEllipse
 10
237.469861
 20
180.665017
 30
0.0
 11
-1.07954967766264
 21
2.52924346266991
 31
0.0
210
0.0
220
0.0
230
1.0
 40
0.9912059999999998
 41
0.0
 42
0.3899709749661991
  0
ELLIPSE
  5
151
330
1F
100
AcDbEntity
  8
1
100
AcDbEllipse
 10
235.551823
 20
162.266832
 30
0.0
 11
-0.1971987011706944
 21
-0.4761546103396927
 31
0.0
210
0.0
220
0.0
230
0.9999999999999998
 40
0.9616389999999999
 41
5.904220863023872
 42
6.668432577761768
  0
ELLIPSE
  5
152
330
1F
100
AcDbEntity
  8
1
100
AcDbEllipse
 10
238.567609
 20
162.286185
 30
0.0
 11
-0.1284619073364166
 21
0.4970342770708811
 31
0.0
210
0.0
220
0.0
230
1.0
 40
0.9691729999999999
 41
2.902395803769473
 42
3.666607518506153
  0
ELLIPSE
  5
153
330
1F
100
AcDbEntity
  8
1
100
AcDbEllipse
 10
240.700091
 20
164.445379
 30
0.0
 11
-0.4736848124881073
 21
0.1912699838053971
 31
0.0
210
0.0
220
0.0
230
1.0
 40
0.97877
 41
2.753759197580471
 42
3.517970912315917
  0
ELLIPSE
  5
154
330
1F
100
AcDbEntity
  8
1
100
AcDbEllipse
 10
240.700091
 20
167.479587
 30
0.0
 11
-0.4412939132842774
 21
-0.2625445400970764
 31
0.0
210
0.0
220
0.0
230
1.0
 40
0.968716
 41
2.618759052334525
 42
3.065560852357208
  0
ELLIPSE
  5
155
330
1F
100
AcDbEntity
  8
1
100
AcDbEllipse
 10
234.310223
 20
173.214362
 30
0.0
 11
-10.76286432137034
 21
3.595170160531839
 31
0.0
210
0.0
220
0.0
230
1.0
 40
0.916591
 41
1.72722174646847
 42
1.733861143739205
  0
SPLINE
  5
156
330
1F
100
AcDbEntity
  8
1
100
AcDbSpline
210
0.0
220
0.0
230
1.0
 70
     8
 71
     3
 72
    15
 73
    11
 74
     0
 42
0.000000001
 43
0.0000000001
 40
0.0
 40
0.0
 40
0.0
 40
0.0
 40
0.133480110393949
 40
0.2644195881672596
 40
0.3928801145488588
 40
0.518920706280284
 40
0.6425982141994283
 40
0.7639678691358592
 40
0.8830838688045213
 40
1.0
 40
1.0
 40
1.0
 40
1.0
 10
234.3151120560125
 20
177.2065224769061
 30
0.0
 10
234.2750535803316
 20
177.212146831526
 30
0.0
 10
234.1956990936528
 20
177.2232884879714
 30
0.0
 10
234.071631104045
 20
177.2403299535953
 30
0.0
 10
233.9462268394086
 20
177.2575712707405
 30
0.0
 10
233.8197019756145
 20
177.2751210373832
 30
0.0
 10
233.6928358654863
 20
177.2930182254545
 30
0.0
 10
233.5661998356209
 20
177.3112952260141
 30
0.0
 10
233.4404198120836
 20
177.3298789384343
 30
0.0
 10
233.3566209671575
 20
177.3426954100954
 30
0.0
 10
233.3151120560125
 20
177.3490439198373
 30
0.0
  0
SPLINE
  5
157
330
1F
100
AcDbEntity
  8
1
100
AcDbSpline
210
0.0
220
0.0
230
1.0
 70
     8
 71
     2
 72
     8
 73
     5
 74
     0
 42
0.000000001
 43
0.0000000001
 40
0.0
 40
0.0
 40
0.0
 40
0.5
 40
0.5
 40
1.0
 40
1.0
 40
1.0
 10
235.5685231627492
 20
177.169479488888
 30
0.0
 10
235.7794906574479
 20
177.1495702076646
 30
0.0
 10
236.0193284446754
 20
177.1370385885077
 30
0.0
 10
236.2613946526602
 20
177.1243905334856
 30
0.0
 10
236.5094924118171
 20
177.1205653568294
 30
0.0
  0
SPLINE
  5
158
330
1F
100
AcDbEntity
  8
1
100
AcDbSpline
210
0.0
220
0.0
230
1.0
 70
     8
 71
     3
 72
     9
 73
     5
 74
     0
 42
0.000000001
 43
0.0000000001
 40
0.0
 40
0.0
 40
0.0
 40
0.0
 40
0.5066447442189205
 40
1.0
 40
1.0
 40
1.0
 40
1.0
 10
235.5077333828747
 20
177.0868623850585
 30
0.0
 10
235.3524310657961
 20
177.1019134800275
 30
0.0
 10
235.0459000717404
 20
177.131620873898
 30
0.0
 10
234.7403812024553
 20
177.1615515833591
 30
0.0
 10
234.5896518625532
 20
177.1763180561809
 30
0.0
  0
SPLINE
  5
159
330
1F
100
AcDbEntity
  8
1
100
AcDbSpline
210
0.0
220
0.0
230
1.0
 70
     8
 71
     3
 72
     8
 73
     4
 74
     0
 42
0.000000001
 43
0.0000000001
 40
0.0
 40
0.0
 40
0.0
 40
0.0
 40
1.0
 40
1.0
 40
1.0
 40
1.0
 10
237.671834998013
 20
177.023500896086
 30
0.0
 10
237.2838011263003
 20
177.0296457132975
 30
0.0
 10
236.8957672545875
 20
177.0357887759388
 30
0.0
 10
236.5077333828748
 20
177.0419300755209
 30
0.0
  0
SPLINE
  5
15A
330
1F
100
AcDbEntity
  8
1
100
AcDbSpline
210
0.0
220
0.0
230
1.0
 70
    24
 71
     1
 72
     4
 73
     2
 74
     0
 42
0.000000001
 43
0.0000000001
 40
0.0
 40
0.0
 40
1.0
 40
1.0
 10
235.5685231627492
 20
177.169479488888
 30
0.0
 10
235.5077333828747
 20
177.0868623850585
 30
0.0
  0
SPLINE
  5
15B
330
1F
100
AcDbEntity
  8
1
100
AcDbSpline
210
0.0
220
0.0
230
1.0
 70
     8
 71
     2
 72
     6
 73
     3
 74
     0
 42
0.000000001
 43
0.0000000001
 40
0.0
 40
0.0
 40
0.0
 40
1.0
 40
1.0
 40
1.0
 10
234.6504416424277
 20
177.2564215940379
 30
0.0
 10
235.0953796103172
 20
177.214025176623
 30
0.0
 10
235.5685231627492
 20
177.169479488888
 30
0.0
  0
SPLINE
  5
15C
330
1F
100
AcDbEntity
  8
1
100
AcDbSpline
210
0.0
220
0.0
230
1.0
 70
    24
 71
     1
 72
     4
 73
     2
 74
     0
 42
0.000000001
 43
0.0000000001
 40
0.0
 40
0.0
 40
1.0
 40
1.0
 10
236.5094924118172
 20
177.1205653568294
 30
0.0
 10
237.6735940269554
 20
177.1023217532639
 30
0.0
  0
SPLINE
  5
15D
330
1F
100
AcDbEntity
  8
1
100
AcDbSpline
210
0.0
220
0.0
230
1.0
 70
     8
 71
     3
 72
    15
 73
    11
 74
     0
 42
0.000000001
 43
0.0000000001
 40
0.0
 40
0.0
 40
0.0
 40
0.0
 40
0.1235000586913672
 40
0.2472120874695797
 40
0.371249411775311
 40
0.4957222444427859
 40
0.620736487307024
 40
0.7463926382524264
 40
0.872784827318763
 40
1.0
 40
1.0
 40
1.0
 40
1.0
 10
236.5077333828747
 20
177.0419300755209
 30
0.0
 10
236.4641394532032
 20
177.0426381922226
 30
0.0
 10
236.3768767711505
 20
177.0440556410067
 30
0.0
 10
236.246588742885
 20
177.0474334987736
 30
0.0
 10
236.1173716994153
 20
177.0517089403045
 30
0.0
 10
235.9897949134268
 20
177.0569521336593
 30
0.0
 10
235.8643739916351
 20
177.0631068458321
 30
0.0
 10
235.7417698473042
 20
177.070164375011
 30
0.0
 10
235.6220594990967
 20
177.0780237311126
 30
0.0
 10
235.545924443808
 20
177.0839098000974
 30
0.0
 10
235.5077333828747
 20
177.0868623850585
 30
0.0
  0
SPLINE
  5
15E
330
1F
100
AcDbEntity
  8
1
100
AcDbSpline
210
0.0
220
0.0
230
1.0
 70
     8
 71
     3
 72
     8
 73
     4
 74
     0
 42
0.000000001
 43
0.0000000001
 40
0.0
 40
0.0
 40
0.0
 40
0.0
 40
1.0
 40
1.0
 40
1.0
 40
1.0
 10
234.2941864007132
 20
166.3398900139847
 30
0.0
 10
234.3010720342704
 20
166.2705489473366
 30
0.0
 10
234.3080473867446
 20
166.2017769645781
 30
0.0
 10
234.3151120560124
 20
166.1335715150565
 30
0.0
  0
SPLINE
  5
15F
330
1F
100
AcDbEntity
  8
1
100
AcDbSpline
210
0.0
220
0.0
230
1.0
 70
     8
 71
     3
 72
    10
 73
     6
 74
     0
 42
0.000000001
 43
0.0000000001
 40
0.0
 40
0.0
 40
0.0
 40
0.0
 40
0.5
 40
0.5
 40
1.0
 40
1.0
 40
1.0
 40
1.0
 10
237.6718349980125
 20
167.6366605032623
 30
0.0
 10
237.8244416118914
 20
167.4446246931838
 30
0.0
 10
237.936456173342
 20
167.2448294662707
 30
0.0
 10
238.1016108916562
 20
166.8307043565991
 30
0.0
 10
238.1530530194186
 20
166.6166458031447
 30
0.0
 10
238.1735166392468
 20
166.404181739453
 30
0.0
  0
SPLINE
  5
160
330
1F
100
AcDbEntity
  8
1
100
AcDbSpline
210
0.0
220
0.0
230
1.0
 70
     8
 71
     3
 72
    10
 73
     6
 74
     0
 42
0.000000001
 43
0.0000000001
 40
0.0
 40
0.0
 40
0.0
 40
0.0
 40
0.5
 40
0.5
 40
1.0
 40
1.0
 40
1.0
 40
1.0
 10
236.5077333828747
 20
168.4047344972185
 30
0.0
 10
236.7465335087865
 20
168.3424010407185
 30
0.0
 10
236.9655579909317
 20
168.2406826697822
 30
0.0
 10
237.3618268388686
 20
167.9738820633749
 30
0.0
 10
237.5298808015435
 20
167.8152916151131
 30
0.0
 10
237.6718349980125
 20
167.6366605032623
 30
0.0
  0
SPLINE
  5
161
330
1F
100
AcDbEntity
  8
1
100
AcDbSpline
210
0.0
220
0.0
230
1.0
 70
     8
 71
     3
 72
     8
 73
     4
 74
     0
 42
0.000000001
 43
0.0000000001
 40
0.0
 40
0.0
 40
0.0
 40
0.0
 40
1.0
 40
1.0
 40
1.0
 40
1.0
 10
234.3151120560125
 20
166.9324700279886
 30
0.0
 10
234.2814010048097
 20
166.7395276369889
 30
0.0
 10
234.2741359967062
 20
166.5418055514592
 30
0.0
 10
234.2941864007132
 20
166.3398900139847
 30
0.0
  0
SPLINE
  5
162
330
1F
100
AcDbEntity
  8
1
100
AcDbSpline
210
0.0
220
0.0
230
1.0
 70
     8
 71
     3
 72
    12
 73
     8
 74
     0
 42
0.000000001
 43
0.0000000001
 40
0.0
 40
0.0
 40
0.0
 40
0.0
 40
0.2500000000000023
 40
0.2500000000000023
 40
0.5000000000000046
 40
0.5000000000000046
 40
1.0
 40
1.0
 40
1.0
 40
1.0
 10
235.5077333828747
 20
168.3831875127354
 30
0.0
 10
235.5766895647935
 20
168.4065717212969
 30
0.0
 10
235.6498715401831
 20
168.4259346511049
 30
0.0
 10
235.8063388578841
 20
168.4546341913006
 30
0.0
 10
235.8904567282233
 20
168.4638735576638
 30
0.0
 10
236.1476275960207
 20
168.4719880393123
 30
0.0
 10
236.3320371424866
 20
168.450596089278
 30
0.0
 10
236.5077333828753
 20
168.4047344972219
 30
0.0
  0
SPLINE
  5
163
330
1F
100
AcDbEntity
  8
1
100
AcDbSpline
210
0.0
220
0.0
230
1.0
 70
     8
 71
     3
 72
    14
 73
    10
 74
     0
 42
0.000000001
 43
0.0000000001
 40
0.0
 40
0.0
 40
0.0
 40
0.0
 40
0.25
 40
0.25
 40
0.5
 40
0.5
 40
0.75
 40
0.75
 40
1.0
 40
1.0
 40
1.0
 40
1.0
 10
234.3151120560125
 20
166.9324700279886
 30
0.0
 10
234.3436502215321
 20
167.095805839055
 30
0.0
 10
234.390651596185
 20
167.2519531046817
 30
0.0
 10
234.5212903072603
 20
167.5484813058258
 30
0.0
 10
234.6062152267161
 20
167.6901283490247
 30
0.0
 10
234.808286830029
 20
167.9433391950521
 30
0.0
 10
234.9253527057922
 20
168.0559396057882
 30
0.0
 10
235.1928624740953
 20
168.2481917459485
 30
0.0
 10
235.3442169469663
 20
168.3277363213541
 30
0.0
 10
235.5077333828747
 20
168.3831875127355
 30
0.0
  0
SPLINE
  5
164
330
1F
100
AcDbEntity
  8
1
100
AcDbSpline
210
0.0
220
0.0
230
1.0
 70
     8
 71
     3
 72
     8
 73
     4
 74
     0
 42
0.000000001
 43
0.0000000001
 40
0.0
 40
0.0
 40
0.0
 40
0.0
 40
1.0
 40
1.0
 40
1.0
 40
1.0
 10
238.1735166392467
 20
166.4041817394529
 30
0.0
 10
238.2252800339823
 20
165.8667469508714
 30
0.0
 10
238.2822783671866
 20
165.3673392872479
 30
0.0
 10
238.3446365923542
 20
164.9068664234634
 30
0.0
  0
SPLINE
  5
165
330
1F
100
AcDbEntity
  8
1
100
AcDbSpline
210
0.0
220
0.0
230
1.0
 70
     8
 71
     3
 72
    14
 73
    10
 74
     0
 42
0.000000001
 43
0.0000000001
 40
0.0
 40
0.0
 40
0.0
 40
0.0
 40
0.25
 40
0.25
 40
0.5
 40
0.5
 40
0.75
 40
0.75
 40
1.0
 40
1.0
 40
1.0
 40
1.0
 10
213.50571438055
 20
167.7238645835932
 30
0.0
 10
213.50571438055
 20
167.6439499389499
 30
0.0
 10
213.5127553308622
 20
167.5656809783396
 30
0.0
 10
213.5436556282981
 20
167.4126975871073
 30
0.0
 10
213.5676252412318
 20
167.337185076665
 30
0.0
 10
213.6403268935157
 20
167.1944714257011
 30
0.0
 10
213.6890218928691
 20
167.1270971465411
 30
0.0
 10
213.821880521801
 20
167.0205569079936
 30
0.0
 10
213.9111786332151
 20
166.9817622274292
 30
0.0
 10
214.00571438055
 20
166.9817622274292
 30
0.0
  0
SPLINE
  5
166
330
1F
100
AcDbEntity
  8
1
100
AcDbSpline
210
0.0
220
0.0
230
1.0
 70
     8
 71
     3
 72
    14
 73
    10
 74
     0
 42
0.000000001
 43
0.0000000001
 40
0.0
 40
0.0
 40
0.0
 40
0.0
 40
0.25
 40
0.25
 40
0.5
 40
0.5
 40
0.75
 40
0.75
 40
1.0
 40
1.0
 40
1.0
 40
1.0
 10
223.00571438055
 20
166.9817622274292
 30
0.0
 10
223.1001774981374
 20
166.9817622274292
 30
0.0
 10
223.1895786196078
 20
167.0204994877833
 30
0.0
 10
223.3229304899581
 20
167.1275991651504
 30
0.0
 10
223.3714304875634
 20
167.1951112840836
 30
0.0
 10
223.4434945726481
 20
167.3365838374223
 30
0.0
 10
223.4677984990228
 20
167.4126696221103
 30
0.0
 10
223.4988078011945
 20
167.5665005738447
 30
0.0
 10
223.50571438055
 20
167.6446225465451
 30
0.0
 10
223.50571438055
 20
167.7238645835932
 30
0.0
  0
SPLINE
  5
167
330
1F
100
AcDbEntity
  8
1
100
AcDbSpline
210
0.0
220
0.0
230
1.0
 70
     8
 71
     3
 72
    12
 73
     8
 74
     0
 42
0.000000001
 43
0.0000000001
 40
0.0
 40
0.0
 40
0.0
 40
0.0
 40
0.5
 40
0.5
 40
0.75
 40
0.75
 40
1.0
 40
1.0
 40
1.0
 40
1.0
 10
223.50571438055
 20
178.7052124061512
 30
0.0
 10
223.50571438055
 20
178.8630132999221
 30
0.0
 10
223.4796563663124
 20
179.0220691143261
 30
0.0
 10
223.3705665000792
 20
179.2353752320596
 30
0.0
 10
223.3220120572543
 20
179.3024635304793
 30
0.0
 10
223.1888053253426
 20
179.4089473100265
 30
0.0
 10
223.0992803716401
 20
179.4473147623153
 30
0.0
 10
223.0057143805501
 20
179.4473147623153
 30
0.0
  0
SPLINE
  5
168
330
1F
100
AcDbEntity
  8
1
100
AcDbSpline
210
0.0
220
0.0
230
1.0
 70
     8
 71
     3
 72
    14
 73
    10
 74
     0
 42
0.000000001
 43
0.0000000001
 40
0.0
 40
0.0
 40
0.0
 40
0.0
 40
0.1249999999999999
 40
0.1249999999999999
 40
0.2499999999999999
 40
0.2499999999999999
 40
0.4999999999999999
 40
0.4999999999999999
 40
1.0
 40
1.0
 40
1.0
 40
1.0
 10
214.0057143805501
 20
179.4473147623153
 30
0.0
 10
213.9589387638954
 20
179.4473147623153
 30
0.0
 10
213.9119614567598
 20
179.438013193332
 30
0.0
 10
213.826789006804
 20
179.4050769281946
 30
0.0
 10
213.7890646996888
 20
179.3821831809958
 30
0.0
 10
213.6886614424752
 20
179.3017339937656
 30
0.0
 10
213.6404251119069
 20
179.2346003346632
 30
0.0
 10
213.5321923163438
 20
179.0227299513058
 30
0.0
 10
213.50571438055
 20
178.8651669292996
 30
0.0
 10
213.50571438055
 20
178.7052124061512
 30
0.0
  0
SPLINE
  5
169
330
1F
100
AcDbEntity
  8
1
100
AcDbSpline
210
0.0
220
0.0
230
1.0
 70
     8
 71
     3
 72
     8
 73
     4
 74
     0
 42
0.000000001
 43
0.0000000001
 40
0.0
 40
0.0
 40
0.0
 40
0.0
 40
1.0
 40
1.0
 40
1.0
 40
1.0
 10
232.6899335632272
 20
178.3330096061437
 30
0.0
 10
232.6616550586531
 20
178.4231210348214
 30
0.0
 10
232.6510048359513
 20
178.5191388901677
 30
0.0
 10
232.6598620964481
 20
178.6154985266123
 30
0.0
  0
SPLINE
  5
16A
330
1F
100
AcDbEntity
  8
1
100
AcDbSpline
210
0.0
220
0.0
230
1.0
 70
     8
 71
     3
 72
    10
 73
     6
 74
     0
 42
0.000000001
 43
0.0000000001
 40
0.0
 40
0.0
 40
0.0
 40
0.0
 40
0.5
 40
0.5
 40
1.0
 40
1.0
 40
1.0
 40
1.0
 10
232.6598620964476
 20
178.6154985266124
 30
0.0
 10
232.6642106043534
 20
178.662806680305
 30
0.0
 10
232.6725833263004
 20
178.7088387748807
 30
0.0
 10
232.6967352349316
 20
178.7972281795927
 30
0.0
 10
232.7127218467928
 20
178.8400773719355
 30
0.0
 10
232.7318848109278
 20
178.8800802369039
 30
0.0
  0
SPLINE
  5
16B
330
1F
100
AcDbEntity
  8
1
100
AcDbSpline
210
0.0
220
0.0
230
1.0
 70
     8
 71
     3
 72
     8
 73
     4
 74
     0
 42
0.000000001
 43
0.0000000001
 40
0.0
 40
0.0
 40
0.0
 40
0.0
 40
1.0
 40
1.0
 40
1.0
 40
1.0
 10
234.3151120560125
 20
162.9643630002548
 30
0.0
 10
234.7126524982999
 20
162.7428626564036
 30
0.0
 10
235.1101929405873
 20
162.5211822675189
 30
0.0
 10
235.5077333828747
 20
162.299324312811
 30
0.0
  0
SPLINE
  5
16C
330
1F
100
AcDbEntity
  8
1
100
AcDbSpline
210
0.0
220
0.0
230
1.0
 70
     8
 71
     3
 72
     8
 73
     4
 74
     0
 42
0.000000001
 43
0.0000000001
 40
0.0
 40
0.0
 40
0.0
 40
0.0
 40
1.0
 40
1.0
 40
1.0
 40
1.0
 10
226.165194717637
 20
182.25134766456
 30
0.0
 10
226.1632441854767
 20
182.2522969416081
 30
0.0
 10
226.161292541854
 20
182.2532497055758
 30
0.0
 10
226.1593397906328
 20
182.2542059580609
 30
0.0
  0
SPLINE
  5
16D
330
1F
100
AcDbEntity
  8
1
100
AcDbSpline
210
0.0
220
0.0
230
1.0
 70
    24
 71
     1
 72
     4
 73
     2
 74
     0
 42
0.000000001
 43
0.0000000001
 40
0.0
 40
0.0
 40
1.0
 40
1.0
 10
232.6126849700453
 20
183.714473008551
 30
0.0
 10
232.6011261071767
 20
183.6025559523223
 30
0.0
  0
SPLINE
  5
16E
330
1F
100
AcDbEntity
  8
1
100
AcDbSpline
210
0.0
220
0.0
230
1.0
 70
     8
 71
     3
 72
    13
 73
     9
 74
     0
 42
0.000000001
 43
0.0000000001
 40
0.0
 40
0.0
 40
0.0
 40
0.0
 40
0.1670499798341041
 40
0.3338666592415221
 40
0.5005094032272579
 40
0.6670382129869627
 40
0.8335141915749042
 40
1.0
 40
1.0
 40
1.0
 40
1.0
 10
233.6176345160947
 20
163.1898188885676
 30
0.0
 10
233.6583444026331
 20
163.1842541885337
 30
0.0
 10
233.7397073206662
 20
163.1731325600734
 30
0.0
 10
233.8599587761702
 20
163.1464441581279
 30
0.0
 10
233.9782032557545
 20
163.1126102122303
 30
0.0
 10
234.0938062189331
 20
163.0708670185164
 30
0.0
 10
234.2067011166835
 20
163.0222039858231
 30
0.0
 10
234.2789742729387
 20
162.9836423214675
 30
0.0
 10
234.3151119179056
 20
162.9643609200729
 30
0.0
  0
SPLINE
  5
16F
330
1F
100
AcDbEntity
  8
1
100
AcDbSpline
210
0.0
220
0.0
230
1.0
 70
     8
 71
     3
 72
     8
 73
     4
 74
     0
 42
0.000000001
 43
0.0000000001
 40
0.0
 40
0.0
 40
0.0
 40
0.0
 40
1.0
 40
1.0
 40
1.0
 40
1.0
 10
226.0888490196455
 20
182.2953521759855
 30
0.0
 10
226.1142711679779
 20
182.2807065487611
 30
0.0
 10
226.1397303558603
 20
182.2660302210453
 30
0.0
 10
226.1651895437427
 20
182.2513538933294
 30
0.0
  0
SPLINE
  5
170
330
1F
100
AcDbEntity
  8
1
100
AcDbSpline
210
0.0
220
0.0
230
1.0
 70
     8
 71
     3
 72
     8
 73
     4
 74
     0
 42
0.000000001
 43
0.0000000001
 40
0.0
 40
0.0
 40
0.0
 40
0.0
 40
1.0
 40
1.0
 40
1.0
 40
1.0
 10
224.284254280259
 20
183.2762824021371
 30
0.0
 10
224.1932118478818
 20
183.3180987300847
 30
0.0
 10
224.1021694155047
 20
183.3569859735326
 30
0.0
 10
224.0111269831276
 20
183.3929101848244
 30
0.0
  0
SPLINE
  5
171
330
1F
100
AcDbEntity
  8
1
100
AcDbSpline
210
0.0
220
0.0
230
1.0
 70
     8
 71
     3
 72
    15
 73
    11
 74
     0
 42
0.000000001
 43
0.0000000001
 40
0.0
 40
0.0
 40
0.0
 40
0.0
 40
0.1224292222191171
 40
0.2455137109951722
 40
0.3692931784147774
 40
0.4938075561473538
 40
0.6190966350097402
 40
0.745199691696876
 40
0.8721551094795314
 40
1.0
 40
1.0
 40
1.0
 40
1.0
 10
235.5077333828747
 20
162.299324312811
 30
0.0
 10
235.5452162177331
 20
162.2793802681564
 30
0.0
 10
235.6203825033461
 20
162.2393854341891
 30
0.0
 10
235.738264562051
 20
162.1890548192114
 30
0.0
 10
235.859712794319
 20
162.1460166278866
 30
0.0
 10
235.9846458882655
 20
162.1112890643118
 30
0.0
 10
236.1124691697746
 20
162.0849139118113
 30
0.0
 10
236.2426849593284
 20
162.0674147211502
 30
0.0
 10
236.374765600273
 20
162.0581789139878
 30
0.0
 10
236.4633077591854
 20
162.0597170206
 30
0.0
 10
236.5077333828747
 20
162.0604887585652
 30
0.0
  0
SPLINE
  5
172
330
1F
100
AcDbEntity
  8
1
100
AcDbSpline
210
0.0
220
0.0
230
1.0
 70
     8
 71
     3
 72
     8
 73
     4
 74
     0
 42
0.000000001
 43
0.0000000001
 40
0.0
 40
0.0
 40
0.0
 40
0.0
 40
1.0
 40
1.0
 40
1.0
 40
1.0
 10
236.5077333828747
 20
162.0604887585652
 30
0.0
 10
236.8957672545873
 20
162.0758428836253
 30
0.0
 10
237.2838011262999
 20
162.0914992583753
 30
0.0
 10
237.6718349980124
 20
162.1074566101057
 30
0.0
  0
SPLINE
  5
173
330
1F
100
AcDbEntity
  8
1
100
AcDbSpline
210
0.0
220
0.0
230
1.0
 70
     8
 71
     3
 72
    15
 73
    11
 74
     0
 42
0.000000001
 43
0.0000000001
 40
0.0
 40
0.0
 40
0.0
 40
0.0
 40
0.1200523887337137
 40
0.241436126881559
 40
0.3641940985358731
 40
0.4883677630324365
 40
0.6139971771441469
 40
0.7411210205369892
 40
0.8697766240010857
 40
1.0
 40
1.0
 40
1.0
 40
1.0
 10
226.0452148450889
 20
182.3201119143408
 30
0.0
 10
225.9681728754792
 20
182.3654231285392
 30
0.0
 10
225.8132345610809
 20
182.4565480463833
 30
0.0
 10
225.5863527451287
 20
182.5883269980426
 30
0.0
 10
225.3619029862168
 20
182.7166697495026
 30
0.0
 10
225.1403944860959
 20
182.8405304834065
 30
0.0
 10
224.9216578900061
 20
182.9593841617835
 30
0.0
 10
224.7058544733989
 20
183.0722859888135
 30
0.0
 10
224.4925018716049
 20
183.1793226076873
 30
0.0
 10
224.3539498346755
 20
183.2438322470759
 30
0.0
 10
224.2842542802589
 20
183.2762824021371
 30
0.0
  0
SPLINE
  5
174
330
1F
100
AcDbEntity
  8
1
100
AcDbSpline
210
0.0
220
0.0
230
1.0
 70
     8
 71
     3
 72
    21
 73
    17
 74
     0
 42
0.000000001
 43
0.0000000001
 40
0.0
 40
0.0
 40
0.0
 40
0.0
 40
0.0514850515728337
 40
0.1018692576077981
 40
0.1515890524252857
 40
0.2010984441264441
 40
0.2508572003590565
 40
0.3134332045495173
 40
0.3761216160016482
 40
0.5011283986530248
 40
0.6260507555914528
 40
0.6885888448047073
 40
0.751132240304567
 40
0.8337070772206926
 40
0.9159633527589388
 40
1.0
 40
1.0
 40
1.0
 40
1.0
 10
224.0111269831276
 20
183.3929101848244
 30
0.0
 10
223.9918385201344
 20
183.4009037002421
 30
0.0
 10
223.9536740171286
 20
183.4167198149473
 30
0.0
 10
223.9082558829983
 20
183.4405194390674
 30
0.0
 10
223.8726409656434
 20
183.4638608362354
 30
0.0
 10
223.8476334724303
 20
183.4867010655744
 30
0.0
 10
223.8316316999115
 20
183.5107392176283
 30
0.0
 10
223.8289048923962
 20
183.5354939000301
 30
0.0
 10
223.8499132343279
 20
183.5682392211677
 30
0.0
 10
223.9214734521975
 20
183.6034384197224
 30
0.0
 10
224.0519118727188
 20
183.6293884747361
 30
0.0
 10
224.1825165511115
 20
183.6450753481019
 30
0.0
 10
224.3044233611672
 20
183.6554925176039
 30
0.0
 10
224.4513819151225
 20
183.6639452712935
 30
0.0
 10
224.6245589241167
 20
183.6701540677415
 30
0.0
 10
224.7461845708536
 20
183.6719686154609
 30
0.0
 10
224.8076484708168
 20
183.6728856028109
 30
0.0
  0
SPLINE
  5
175
330
1F
100
AcDbEntity
  8
1
100
AcDbSpline
210
0.0
220
0.0
230
1.0
 70
    24
 71
     1
 72
     4
 73
     2
 74
     0
 42
0.000000001
 43
0.0000000001
 40
0.0
 40
0.0
 40
1.0
 40
1.0
 10
233.331018411212
 20
177.4188564876326
 30
0.0
 10
233.3151120560125
 20
177.3490439198373
 30
0.0
  0
SPLINE
  5
176
330
1F
100
AcDbEntity
  8
1
100
AcDbSpline
210
0.0
220
0.0
230
1.0
 70
     8
 71
     3
 72
    10
 73
     6
 74
     0
 42
0.000000001
 43
0.0000000001
 40
0.0
 40
0.0
 40
0.0
 40
0.0
 40
0.5
 40
0.5
 40
1.0
 40
1.0
 40
1.0
 40
1.0
 10
236.5077333828747
 20
164.6154045647154
 30
0.0
 10
236.3319995821871
 20
164.5963326729836
 30
0.0
 10
236.1582763622705
 20
164.6071557156093
 30
0.0
 10
235.8152613887571
 20
164.6901997093105
 30
0.0
 10
235.6559461935047
 20
164.7599896645393
 30
0.0
 10
235.5077333828747
 20
164.8555206173725
 30
0.0
  0
SPLINE
  5
177
330
1F
100
AcDbEntity
  8
1
100
AcDbSpline
210
0.0
220
0.0
230
1.0
 70
     8
 71
     3
 72
    22
 73
    18
 74
     0
 42
0.000000001
 43
0.0000000001
 40
0.0
 40
0.0
 40
0.0
 40
0.0
 40
0.0332299341066264
 40
0.0664103625963832
 40
0.0995473567537798
 40
0.1326465810425301
 40
0.1657132356258517
 40
0.198752005658747
 40
0.2317670179700701
 40
0.2647618055922251
 40
0.2977392804353634
 40
0.3307017142454529
 40
0.3636507278357298
 40
0.5460578278845621
 40
0.7248948308460748
 40
0.9040869439731952
 40
1.0
 40
1.0
 40
1.0
 40
1.0
 10
237.6718349980125
 20
162.1074566101057
 30
0.0
 10
237.7355074945217
 20
162.1110392474546
 30
0.0
 10
237.8627576289045
 20
162.1181991847757
 30
0.0
 10
238.0524563992402
 20
162.1425971021374
 30
0.0
 10
238.2403857774827
 20
162.1768013247564
 30
0.0
 10
238.4259736583299
 20
162.2216111498547
 30
0.0
 10
238.6087042786128
 20
162.2765476452383
 30
0.0
 10
238.7880691872653
 20
162.341438714299
 30
0.0
 10
238.9635814523362
 20
162.4159961426806
 30
0.0
 10
239.1347749657029
 20
162.4999334316872
 30
0.0
 10
239.3011996230084
 20
162.592925573869
 30
0.0
 10
239.4624472469185
 20
162.6946612689779
 30
0.0
 10
239.8533612390048
 20
162.9710512033145
 30
0.0
 10
240.3991244532287
 20
163.5183064492483
 30
0.0
 10
240.9130450348067
 20
164.4408206579551
 30
0.0
 10
241.131009279897
 20
165.2996317126327
 30
0.0
 10
241.1609073022355
 20
165.832170463476
 30
0.0
 10
241.1591507288748
 20
166.0175302511792
 30
0.0
  0
SPLINE
  5
178
330
1F
100
AcDbEntity
  8
1
100
AcDbSpline
210
0.0
220
0.0
230
1.0
 70
     8
 71
     3
 72
     8
 73
     4
 74
     0
 42
0.000000001
 43
0.0000000001
 40
0.0
 40
0.0
 40
0.0
 40
0.0
 40
1.0
 40
1.0
 40
1.0
 40
1.0
 10
232.2665860899693
 20
162.7148920992027
 30
0.0
 10
232.3819523587248
 20
162.714793191012
 30
0.0
 10
232.497318664385
 20
162.7146985861027
 30
0.0
 10
232.6126849700453
 20
162.7146039811934
 30
0.0
  0
SPLINE
  5
179
330
1F
100
AcDbEntity
  8
1
100
AcDbSpline
210
0.0
220
0.0
230
1.0
 70
     8
 71
     3
 72
     8
 73
     4
 74
     0
 42
0.000000001
 43
0.0000000001
 40
0.0
 40
0.0
 40
0.0
 40
0.0
 40
1.0
 40
1.0
 40
1.0
 40
1.0
 10
226.1593491232788
 20
182.2542005896379
 30
0.0
 10
226.1213344494696
 20
182.2759957056115
 30
0.0
 10
226.083294119106
 20
182.2979636478172
 30
0.0
 10
226.0452289906306
 20
182.3201021425718
 30
0.0
  0
SPLINE
  5
17A
330
1F
100
AcDbEntity
  8
1
100
AcDbSpline
210
0.0
220
0.0
230
1.0
 70
     8
 71
     3
 72
    17
 73
    13
 74
     0
 42
0.000000001
 43
0.0000000001
 40
0.0
 40
0.0
 40
0.0
 40
0.0
 40
0.0725594138270798
 40
0.141220474941705
 40
0.2060122026253283
 40
0.2669692224241468
 40
0.3241332095233828
 40
0.4902804219250167
 40
0.6453055712898729
 40
0.8037413501913196
 40
0.96520416460905
 40
1.0
 40
1.0
 40
1.0
 40
1.0
 10
224.8220171224369
 20
183.5614253741346
 30
0.0
 10
224.7852078524979
 20
183.5622197348964
 30
0.0
 10
224.7135669404665
 20
183.5637657783128
 30
0.0
 10
224.6116078371232
 20
183.5645148216887
 30
0.0
 10
224.5182164889252
 20
183.5642395801171
 30
0.0
 10
224.4337347487923
 20
183.5629126473996
 30
0.0
 10
224.3086157605558
 20
183.5590141319844
 30
0.0
 10
224.1598209801664
 20
183.547949710531
 30
0.0
 10
224.0210971012669
 20
183.5228062339808
 30
0.0
 10
223.9443918168423
 20
183.4845688695306
 30
0.0
 10
223.9373130201268
 20
183.4476270814509
 30
0.0
 10
223.9496389046478
 20
183.4250639792233
 30
0.0
 10
223.9523061526651
 20
183.4210084443847
 30
0.0
  0
SPLINE
  5
17B
330
1F
100
AcDbEntity
  8
1
100
AcDbSpline
210
0.0
220
0.0
230
1.0
 70
     8
 71
     3
 72
    13
 73
     9
 74
     0
 42
0.000000001
 43
0.0000000001
 40
0.0
 40
0.0
 40
0.0
 40
0.0
 40
0.1248100964875307
 40
0.2494579000202051
 40
0.3745638489075116
 40
0.5007396960432751
 40
0.749647379168157
 40
1.0
 40
1.0
 40
1.0
 40
1.0
 10
233.331018411212
 20
177.4188564876326
 30
0.0
 10
233.3774119473296
 20
177.4122725240797
 30
0.0
 10
233.4701386931629
 20
177.3991131582277
 30
0.0
 10
233.6080829622304
 20
177.3805305042758
 30
0.0
 10
233.7447865839137
 20
177.3627242009196
 30
0.0
 10
233.9232242251527
 20
177.3402528771821
 30
0.0
 10
234.1403904238213
 20
177.3141121883669
 30
0.0
 10
234.2991067105416
 20
177.295228618757
 30
0.0
 10
234.3786945288284
 20
177.2857595079444
 30
0.0
  0
SPLINE
  5
17C
330
1F
100
AcDbEntity
  8
1
100
AcDbSpline
210
0.0
220
0.0
230
1.0
 70
     8
 71
     3
 72
    25
 73
    21
 74
     0
 42
0.000000001
 43
0.0000000001
 40
0.0
 40
0.0
 40
0.0
 40
0.0
 40
0.0011356063080231
 40
0.043846412639858
 40
0.0867284297238029
 40
0.1297687692162509
 40
0.1729550564532251
 40
0.2162759623542861
 40
0.2597217742800609
 40
0.3032849971262045
 40
0.3469609726929661
 40
0.3907485017809939
 40
0.434650449668909
 40
0.5749835544055197
 40
0.7168787532192522
 40
0.7732998836871154
 40
0.8297150234108803
 40
0.8862272055981479
 40
0.94294931052061
 40
1.0
 40
1.0
 40
1.0
 40
1.0
 10
241.1592489065165
 20
177.4149855389661
 30
0.0
 10
241.1592677628031
 20
177.4147498748806
 30
0.0
 10
241.1599407088591
 20
177.40565076799
 30
0.0
 10
241.1570497967298
 20
177.3876543251635
 30
0.0
 10
241.1403012527554
 20
177.3610081786494
 30
0.0
 10
241.1104061946219
 20
177.3343721580777
 30
0.0
 10
241.0668253267102
 20
177.3078399838147
 30
0.0
 10
241.0090482180877
 20
177.2815276614602
 30
0.0
 10
240.9366319755982
 20
177.2555730780046
 30
0.0
 10
240.8491996699385
 20
177.2301322292944
 30
0.0
 10
240.7464617814901
 20
177.2053844431369
 30
0.0
 10
240.6281872163234
 20
177.1815002363188
 30
0.0
 10
240.3964956975609
 20
177.1421071582461
 30
0.0
 10
239.9848524689847
 20
177.0916865917496
 30
0.0
 10
239.4421618271199
 20
177.0538451066564
 30
0.0
 10
238.9896711279039
 20
177.0346674901013
 30
0.0
 10
238.6744575759749
 20
177.0255779050811
 30
0.0
 10
238.3476594014783
 20
177.0205921807393
 30
0.0
 10
238.012097331717
 20
177.0194768510995
 30
0.0
 10
237.785473944489
 20
177.0221569676298
 30
0.0
 10
237.6718349980125
 20
177.023500896086
 30
0.0
  0
SPLINE
  5
17D
330
1F
100
AcDbEntity
  8
1
100
AcDbSpline
210
0.0
220
0.0
230
1.0
 70
     8
 71
     3
 72
    10
 73
     6
 74
     0
 42
0.000000001
 43
0.0000000001
 40
0.0
 40
0.0
 40
0.0
 40
0.0
 40
0.8632286963452317
 40
0.8632286963452317
 40
1.0
 40
1.0
 40
1.0
 40
1.0
 10
233.3151120560125
 20
183.1845886890354
 30
0.0
 10
233.1571043561758
 20
183.1796584455054
 30
0.0
 10
232.9984083852482
 20
183.1916039868346
 30
0.0
 10
232.8419099151069
 20
183.2205563181373
 30
0.0
 10
232.8212196369564
 20
183.2248133201286
 30
0.0
 10
232.8013046863902
 20
183.2293300638548
 30
0.0
  0
SPLINE
  5
17E
330
1F
100
AcDbEntity
  8
1
100
AcDbSpline
210
0.0
220
0.0
230
1.0
 70
     8
 71
     3
 72
    14
 73
    10
 74
     0
 42
0.000000001
 43
0.0000000001
 40
0.0
 40
0.0
 40
0.0
 40
0.0
 40
0.25
 40
0.25
 40
0.5
 40
0.5
 40
0.75
 40
0.75
 40
1.0
 40
1.0
 40
1.0
 40
1.0
 10
233.3151120560125
 20
163.2444883007089
 30
0.0
 10
233.1571043561758
 20
163.2494185442388
 30
0.0
 10
232.9984083852482
 20
163.2374730029096
 30
0.0
 10
232.728220444528
 20
163.1874880364965
 30
0.0
 10
232.6215772926192
 20
163.1506585111734
 30
0.0
 10
232.4959186359125
 20
163.0721373961686
 30
0.0
 10
232.4778345684662
 20
163.0307461938164
 30
0.0
 10
232.5379351049777
 20
162.9601869459452
 30
0.0
 10
232.6163488596703
 20
162.9304653348111
 30
0.0
 10
232.7318848109278
 20
162.9095824783968
 30
0.0
  0
SPLINE
  5
17F
330
1F
100
AcDbEntity
  8
1
100
AcDbSpline
210
0.0
220
0.0
230
1.0
 70
     8
 71
     2
 72
     6
 73
     3
 74
     0
 42
0.000000001
 43
0.0000000001
 40
0.0
 40
0.0
 40
0.0
 40
1.0
 40
1.0
 40
1.0
 10
232.6011261070257
 20
183.602555952339
 30
0.0
 10
228.6945233153183
 20
183.6041065351178
 30
0.0
 10
224.8220171172829
 20
183.5614256733386
 30
0.0
  0
SPLINE
  5
180
330
1F
100
AcDbEntity
  8
1
100
AcDbSpline
210
0.0
220
0.0
230
1.0
 70
     8
 71
     3
 72
     9
 73
     5
 74
     0
 42
0.000000001
 43
0.0000000001
 40
0.0
 40
0.0
 40
0.0
 40
0.0
 40
0.5016303936183409
 40
1.0
 40
1.0
 40
1.0
 40
1.0
 10
234.5896518625532
 20
177.1763180561809
 30
0.0
 10
234.5436159729138
 20
177.1809743626689
 30
0.0
 10
234.451843444325
 20
177.1902567078919
 30
0.0
 10
234.3605899994272
 20
177.2011123532179
 30
0.0
 10
234.3151120560125
 20
177.2065224769061
 30
0.0
  0
SPLINE
  5
181
330
1F
100
AcDbEntity
  8
1
100
AcDbSpline
210
0.0
220
0.0
230
1.0
 70
     8
 71
     3
 72
     8
 73
     4
 74
     0
 42
0.000000001
 43
0.0000000001
 40
0.0
 40
0.0
 40
0.0
 40
0.0
 40
1.0
 40
1.0
 40
1.0
 40
1.0
 10
234.3786945288284
 20
177.2857595079444
 30
0.0
 10
234.4689676119854
 20
177.2749869572313
 30
0.0
 10
234.5595579707222
 20
177.2652039076204
 30
0.0
 10
234.6504416424277
 20
177.2564215940379
 30
0.0
  0
SPLINE
  5
182
330
1F
100
AcDbEntity
  8
1
100
AcDbSpline
210
0.0
220
0.0
230
1.0
 70
    24
 71
     1
 72
     4
 73
     2
 74
     0
 42
0.000000001
 43
0.0000000001
 40
0.0
 40
0.0
 40
1.0
 40
1.0
 10
234.3786945288284
 20
177.2857595079444
 30
0.0
 10
234.3151120560124
 20
177.2065224769061
 30
0.0
  0
SPLINE
  5
183
330
1F
100
AcDbEntity
  8
1
100
AcDbSpline
210
0.0
220
0.0
230
1.0
 70
     8
 71
     2
 72
    16
 73
    13
 74
     0
 42
0.000000001
 43
0.0000000001
 40
0.0
 40
0.0
 40
0.0
 40
0.125
 40
0.125
 40
0.25
 40
0.25
 40
0.375
 40
0.375
 40
0.5
 40
0.5
 40
0.75
 40
0.75
 40
1.0
 40
1.0
 40
1.0
 10
237.6735940269549
 20
177.1023217532639
 30
0.0
 10
238.0700027569908
 20
177.0961352662453
 30
0.0
 10
238.4536740049924
 20
177.102456880619
 30
0.0
 10
238.8352429950059
 20
177.1087438568373
 30
0.0
 10
239.1859376067769
 20
177.1271350880386
 30
0.0
 10
239.5275506701682
 20
177.145050061977
 30
0.0
 10
239.8238218451419
 20
177.1739965853831
 30
0.0
 10
240.1084590608206
 20
177.201806438389
 30
0.0
 10
240.3362192679887
 20
177.2390034973388
 30
0.0
 10
240.7702868551724
 20
177.3098940090285
 30
0.0
 10
240.9409064205141
 20
177.4058764958974
 30
0.0
 10
241.0969448288068
 20
177.4936563143784
 30
0.0
 10
241.0151301793902
 20
177.5951029491021
 30
0.0
  0
SPLINE
  5
184
330
1F
100
AcDbEntity
  8
1
100
AcDbSpline
210
0.0
220
0.0
230
1.0
 70
     8
 71
     2
 72
     6
 73
     3
 74
     0
 42
0.000000001
 43
0.0000000001
 40
0.0
 40
0.0
 40
0.0
 40
1.0
 40
1.0
 40
1.0
 10
241.0151302649337
 20
177.5951028546806
 30
0.0
 10
241.0262002200255
 20
177.5834474171685
 30
0.0
 10
241.0368929755107
 20
177.5717197777009
 30
0.0
  0
SPLINE
  5
185
330
1F
100
AcDbEntity
  8
1
100
AcDbSpline
210
0.0
220
0.0
230
1.0
 70
     8
 71
     3
 72
    28
 73
    24
 74
     0
 42
0.000000001
 43
0.0000000001
 40
0.0
 40
0.0
 40
0.0
 40
0.0
 40
0.0279733396263913
 40
0.0558001104770471
 40
0.0835085217244671
 40
0.1111271450833507
 40
0.1386848313951836
 40
0.1662106229450837
 40
0.1937336627975715
 40
0.2212831025449296
 40
0.2488880099196885
 40
0.3739924656947497
 40
0.4979715767519901
 40
0.5464121270173776
 40
0.5947965319634225
 40
0.6432983243178873
 40
0.6920897785968556
 40
0.7413401237887846
 40
0.791213911664902
 40
0.8418696123400595
 40
0.8934584842689272
 40
0.9461237394160583
 40
1.0
 40
1.0
 40
1.0
 40
1.0
 10
233.3151128114946
 20
177.3490483158306
 30
0.0
 10
233.2181707527193
 20
177.3639326754123
 30
0.0
 10
233.0247945716203
 20
177.3936234066633
 30
0.0
 10
232.7375145064712
 20
177.4485343038599
 30
0.0
 10
232.4533914826227
 20
177.5108184309465
 30
0.0
 10
232.1725557005377
 20
177.5811498476512
 30
0.0
 10
231.8949739309043
 20
177.659244936049
 30
0.0
 10
231.6206553710552
 20
177.7450606771382
 30
0.0
 10
231.3496020647954
 20
177.8384700154629
 30
0.0
 10
231.0818022684358
 20
177.9393632143057
 30
0.0
 10
230.5062876767915
 20
178.1747889524021
 30
0.0
 10
229.6589990772383
 20
178.6002274206259
 30
0.0
 10
228.8394046118304
 20
179.1522819367264
 30
0.0
 10
228.2884390147167
 20
179.5924402183406
 30
0.0
 10
227.9479136639677
 20
179.8910117656816
 30
0.0
 10
227.6300729751016
 20
180.196275680898
 30
0.0
 10
227.3348881526043
 20
180.5062399927824
 30
0.0
 10
227.0623637375632
 20
180.8187033664539
 30
0.0
 10
226.8125362199079
 20
181.1312138415403
 30
0.0
 10
226.5852509294883
 20
181.4412616395447
 30
0.0
 10
226.3810798670925
 20
181.745502374217
 30
0.0
 10
226.1977851497548
 20
182.0427318523947
 30
0.0
 10
226.0964613440318
 20
182.2269546776852
 30
0.0
 10
226.045223592034
 20
182.3201130758247
 30
0.0
  0
SPLINE
  5
186
330
1F
100
AcDbEntity
  8
1
100
AcDbSpline
210
0.0
220
0.0
230
1.0
 70
     8
 71
     3
 72
    11
 73
     7
 74
     0
 42
0.000000001
 43
0.0000000001
 40
0.0
 40
0.0
 40
0.0
 40
0.0
 40
0.2409950769290602
 40
0.4989119003820461
 40
0.9617325294874635
 40
1.0
 40
1.0
 40
1.0
 40
1.0
 10
224.8076484656629
 20
183.6728856065558
 30
0.0
 10
225.434599527549
 20
183.6793581314117
 30
0.0
 10
226.7325237412632
 20
183.6927576569009
 30
0.0
 10
229.2346186788621
 20
183.7094084183783
 30
0.0
 10
231.2093750413026
 20
183.7148904651894
 30
0.0
 10
232.5131196289381
 20
183.7145026272487
 30
0.0
 10
232.6126849700453
 20
183.714473008551
 30
0.0
  0
SPLINE
  5
187
330
1F
100
AcDbEntity
  8
1
100
AcDbSpline
210
0.0
220
0.0
230
1.0
 70
     8
 71
     3
 72
    20
 73
    16
 74
     0
 42
0.000000001
 43
0.0000000001
 40
0.0
 40
0.0
 40
0.0
 40
0.0
 40
0.125
 40
0.125
 40
0.2499999999999998
 40
0.2499999999999998
 40
0.4999999999999993
 40
0.4999999999999993
 40
0.6249999999999995
 40
0.6249999999999995
 40
0.7499999999999997
 40
0.7499999999999997
 40
0.8749999999999998
 40
0.8749999999999998
 40
1.0
 40
1.0
 40
1.0
 40
1.0
 10
226.1651947370024
 20
182.2513476563938
 30
0.0
 10
226.3816448940326
 20
181.909281463784
 30
0.0
 10
226.6187586293828
 20
181.5826614274076
 30
0.0
 10
227.1339307725985
 20
180.9598669926652
 30
0.0
 10
227.4138184677774
 20
180.6620378912965
 30
0.0
 10
228.3037015710444
 20
179.8279291672903
 30
0.0
 10
228.9546517570234
 20
179.356361902472
 30
0.0
 10
230.0121967108884
 20
178.7696165867143
 30
0.0
 10
230.3794731871271
 20
178.5942673837868
 30
0.0
 10
231.1218961768408
 20
178.2923226124519
 30
0.0
 10
231.4992166323023
 20
178.1643630952927
 30
0.0
 10
232.2648114186304
 20
177.952348063664
 30
0.0
 10
232.6530912149611
 20
177.8683072128411
 30
0.0
 10
233.4395304960722
 20
177.743272209075
 30
0.0
 10
233.834822331822
 20
177.7028668826319
 30
0.0
 10
234.2279749647257
 20
177.6834318402919
 30
0.0
  0
SPLINE
  5
188
330
1F
100
AcDbEntity
  8
1
100
AcDbSpline
210
0.0
220
0.0
230
1.0
 70
     8
 71
     3
 72
     8
 73
     4
 74
     0
 42
0.000000001
 43
0.0000000001
 40
0.0
 40
0.0
 40
0.0
 40
0.0
 40
1.0
 40
1.0
 40
1.0
 40
1.0
 10
238.3446365923546
 20
164.9068664234617
 30
0.0
 10
238.1268597574033
 20
164.8246899557882
 30
0.0
 10
237.9027734325113
 20
164.769521096447
 30
0.0
 10
237.6718349980129
 20
164.7436825148673
 30
0.0
  0
SPLINE
  5
189
330
1F
100
AcDbEntity
  8
1
100
AcDbSpline
210
0.0
220
0.0
230
1.0
 70
     8
 71
     3
 72
     8
 73
     4
 74
     0
 42
0.000000001
 43
0.0000000001
 40
0.0
 40
0.0
 40
0.0
 40
0.0
 40
1.0
 40
1.0
 40
1.0
 40
1.0
 10
235.1594188665996
 20
165.080782147659
 30
0.0
 10
234.8970777139587
 20
165.2510283508497
 30
0.0
 10
234.6353543312049
 20
165.4222346387669
 30
0.0
 10
234.374371228222
 20
165.5945651478538
 30
0.0
  0
SPLINE
  5
18A
330
1F
100
AcDbEntity
  8
1
100
AcDbSpline
210
0.0
220
0.0
230
1.0
 70
    24
 71
     1
 72
     4
 73
     2
 74
     0
 42
0.000000001
 43
0.0000000001
 40
0.0
 40
0.0
 40
1.0
 40
1.0
 10
224.8220171224369
 20
183.5614253741346
 30
0.0
 10
224.8076484708168
 20
183.6728856028109
 30
0.0
  0
SPLINE
  5
18B
330
1F
100
AcDbEntity
  8
1
100
AcDbSpline
210
0.0
220
0.0
230
1.0
 70
     8
 71
     3
 72
     8
 73
     4
 74
     0
 42
0.000000001
 43
0.0000000001
 40
0.0
 40
0.0
 40
0.0
 40
0.0
 40
1.0
 40
1.0
 40
1.0
 40
1.0
 10
233.3151120560125
 20
163.2444883007089
 30
0.0
 10
233.4238916097262
 20
163.2410941009867
 30
0.0
 10
233.5273106479215
 20
163.2204338127755
 30
0.0
 10
233.6176345160953
 20
163.1898188885675
 30
0.0
  0
SPLINE
  5
18C
330
1F
100
AcDbEntity
  8
1
100
AcDbSpline
210
0.0
220
0.0
230
1.0
 70
     8
 71
     3
 72
    29
 73
    25
 74
     0
 42
0.000000001
 43
0.0000000001
 40
0.0
 40
0.0
 40
0.0
 40
0.0
 40
0.0286310669640264
 40
0.0571887548160197
 40
0.0857051732044795
 40
0.1142127532662193
 40
0.1427441177266573
 40
0.1713319483382132
 40
0.2000088529291638
 40
0.2288072343408993
 40
0.2577591634441901
 40
0.2868962582516266
 40
0.3922086294123956
 40
0.5013447676860169
 40
0.5451597654548709
 40
0.5901780965864302
 40
0.6364614925969137
 40
0.6840663704294732
 40
0.7330440708618572
 40
0.7834411196242425
 40
0.8352994992483944
 40
0.8886569224450948
 40
0.9435471002255541
 40
1.0
 40
1.0
 40
1.0
 40
1.0
 10
226.1593448823415
 20
182.2541978943321
 30
0.0
 10
226.1858980180987
 20
182.206210187291
 30
0.0
 10
226.238936236071
 20
182.1103577618261
 30
0.0
 10
226.3275768923171
 20
181.959766892959
 30
0.0
 10
226.4231120023604
 20
181.8047934068901
 30
0.0
 10
226.5265035792583
 20
181.6451834189458
 30
0.0
 10
226.6379105966658
 20
181.4813705870142
 30
0.0
 10
226.7577082766581
 20
181.313640201391
 30
0.0
 10
226.8862147911494
 20
181.1423528418755
 30
0.0
 10
227.0237563681445
 20
180.9678902797387
 30
0.0
 10
227.1706700217478
 20
180.7906530481369
 30
0.0
 10
227.4632026496169
 20
180.4551821251405
 30
0.0
 10
227.9564613221119
 20
179.9509443596752
 30
0.0
 10
228.5705145224996
 20
179.4371530777368
 30
0.0
 10
229.0847898651625
 20
179.0684911592616
 30
0.0
 10
229.4521686854061
 20
178.828429913637
 30
0.0
 10
229.8457110150237
 20
178.5957600420301
 30
0.0
 10
230.2657864619574
 20
178.37308299758
 30
0.0
 10
230.7125424664644
 20
178.1631755222038
 30
0.0
 10
231.1859302998136
 20
177.9690155905554
 30
0.0
 10
231.6856151217769
 20
177.7934822401146
 30
0.0
 10
232.2111517419921
 20
177.6405009149373
 30
0.0
 10
232.7611754548767
 20
177.5104867826929
 30
0.0
 10
233.1393013356616
 20
177.4496838735101
 30
0.0
 10
233.33101781161
 20
177.4188557285237
 30
0.0
  0
SPLINE
  5
18D
330
1F
100
AcDbEntity
  8
1
100
AcDbSpline
210
0.0
220
0.0
230
1.0
 70
     8
 71
     3
 72
    10
 73
     6
 74
     0
 42
0.000000001
 43
0.0000000001
 40
0.0
 40
0.0
 40
0.0
 40
0.0
 40
0.5275641435890669
 40
0.5275641435890669
 40
1.0
 40
1.0
 40
1.0
 40
1.0
 10
238.5413501327488
 20
180.3216609196759
 30
0.0
 10
238.5476838533653
 20
180.3138462299551
 30
0.0
 10
238.555496719657
 20
180.30711350785
 30
0.0
 10
238.5718013839888
 20
180.2973060883033
 30
0.0
 10
238.5803182502004
 20
180.2938116472122
 30
0.0
 10
238.5890948512686
 20
180.2916616920671
 30
0.0
  0
SPLINE
  5
18E
330
1F
100
AcDbEntity
  8
1
100
AcDbSpline
210
0.0
220
0.0
230
1.0
 70
     8
 71
     3
 72
    14
 73
    10
 74
     0
 42
0.000000001
 43
0.0000000001
 40
0.0
 40
0.0
 40
0.0
 40
0.0
 40
0.2764527118368676
 40
0.2764527118368676
 40
0.5540765605364263
 40
0.5540765605364263
 40
0.8433732362105825
 40
0.8433732362105825
 40
1.0
 40
1.0
 40
1.0
 40
1.0
 10
238.6546539345596
 20
180.2213098184685
 30
0.0
 10
238.6532870660078
 20
180.2306700076317
 30
0.0
 10
238.6502359628801
 20
180.2398567803481
 30
0.0
 10
238.6414131688479
 20
180.2564361026289
 30
0.0
 10
238.635517074475
 20
180.264046198576
 30
0.0
 10
238.6215241797084
 20
180.2770660893064
 30
0.0
 10
238.6131632192943
 20
180.2825471616138
 30
0.0
 10
238.5993727029111
 20
180.2886573736529
 30
0.0
 10
238.5942851511588
 20
180.2903902531733
 30
0.0
 10
238.5890948512686
 20
180.2916616920671
 30
0.0
  0
SPLINE
  5
18F
330
1F
100
AcDbEntity
  8
1
100
AcDbSpline
210
0.0
220
0.0
230
1.0
 70
     8
 71
     3
 72
    10
 73
     6
 74
     0
 42
0.000000001
 43
0.0000000001
 40
0.0
 40
0.0
 40
0.0
 40
0.0
 40
0.5373397090275561
 40
0.5373397090275561
 40
1.0
 40
1.0
 40
1.0
 40
1.0
 10
236.4917129578465
 20
181.5234421513203
 30
0.0
 10
236.4982360509572
 20
181.5162048467994
 30
0.0
 10
236.5060929160234
 20
181.5101134315149
 30
0.0
 10
236.5220910606587
 20
181.501860793754
 30
0.0
 10
236.5302139192692
 20
181.4991868783156
 30
0.0
 10
236.5385456458424
 20
181.4978966058964
 30
0.0
  0
SPLINE
  5
190
330
1F
100
AcDbEntity
  8
1
100
AcDbSpline
210
0.0
220
0.0
230
1.0
 70
     8
 71
     3
 72
    14
 73
    10
 74
     0
 42
0.000000001
 43
0.0000000001
 40
0.0
 40
0.0
 40
0.0
 40
0.0
 40
0.3040655795356315
 40
0.3040655795356315
 40
0.6107538131668998
 40
0.6107538131668998
 40
0.908132810757684
 40
0.908132810757684
 40
1.0
 40
1.0
 40
1.0
 40
1.0
 10
237.7026369586072
 20
181.8421195032375
 30
0.0
 10
237.7056351996569
 20
181.8518935173802
 30
0.0
 10
237.7069613275773
 20
181.8622750150613
 30
0.0
 10
237.7059824356302
 20
181.8826584825725
 30
0.0
 10
237.7036258419653
 20
181.8929505678116
 30
0.0
 10
237.6955432955571
 20
181.9114990205072
 30
0.0
 10
237.6897943580626
 20
181.9200771435947
 30
0.0
 10
237.680505012571
 20
181.9294906052633
 30
0.0
 10
237.6781477194624
 20
181.9316161291618
 30
0.0
 10
237.675671922413
 20
181.9335967982492
 30
0.0
  0
SPLINE
  5
191
330
1F
100
AcDbEntity
  8
1
100
AcDbSpline
210
0.0
220
0.0
230
1.0
 70
     8
 71
     3
 72
    10
 73
     6
 74
     0
 42
0.000000001
 43
0.0000000001
 40
0.0
 40
0.0
 40
0.0
 40
0.0
 40
0.5386513471140897
 40
0.5386513471140897
 40
1.0
 40
1.0
 40
1.0
 40
1.0
 10
237.7026369586072
 20
181.8421195032375
 30
0.0
 10
237.6996418323882
 20
181.8323556431812
 30
0.0
 10
237.6983146602651
 20
181.8219862233632
 30
0.0
 10
237.6992164111607
 20
181.8031258411314
 30
0.0
 10
237.7009761952109
 20
181.794378786519
 30
0.0
 10
237.7040302675052
 20
181.7861739397106
 30
0.0
  0
SPLINE
  5
192
330
1F
100
AcDbEntity
  8
1
100
AcDbSpline
210
0.0
220
0.0
230
1.0
 70
     8
 71
     3
 72
    10
 73
     6
 74
     0
 42
0.000000001
 43
0.0000000001
 40
0.0
 40
0.0
 40
0.0
 40
0.0
 40
0.5281910294147043
 40
0.5281910294147043
 40
1.0
 40
1.0
 40
1.0
 40
1.0
 10
237.7040302675052
 20
179.459407524333
 30
0.0
 10
237.7005452510177
 20
179.4503890434919
 30
0.0
 10
237.6987499419849
 20
179.4406716637675
 30
0.0
 10
237.6986576783709
 20
179.4224667895617
 30
0.0
 10
237.7000049908253
 20
179.4137557595835
 30
0.0
 10
237.7026369586072
 20
179.4054773937655
 30
0.0
  0
SPLINE
  5
193
330
1F
100
AcDbEntity
  8
1
100
AcDbSpline
210
0.0
220
0.0
230
1.0
 70
     8
 71
     3
 72
    14
 73
    10
 74
     0
 42
0.000000001
 43
0.0000000001
 40
0.0
 40
0.0
 40
0.0
 40
0.0
 40
0.2759548436939029
 40
0.2759548436939029
 40
0.5535523911871846
 40
0.5535523911871846
 40
0.842818882912906
 40
0.842818882912906
 40
1.0
 40
1.0
 40
1.0
 40
1.0
 10
237.675671922413
 20
179.3174137527032
 30
0.0
 10
237.6830024665073
 20
179.3230329432741
 30
0.0
 10
237.6893278707666
 20
179.3299603085056
 30
0.0
 10
237.6990680548999
 20
179.3452151908645
 30
0.0
 10
237.7026010184853
 20
179.3537522893975
 30
0.0
 10
237.7066530814352
 20
179.3715881164132
 30
0.0
 10
237.7070987053575
 20
179.3811395098342
 30
0.0
 10
237.7053127962596
 20
179.3954999794367
 30
0.0
 10
237.7042009736556
 20
179.4005580749181
 30
0.0
 10
237.7026369586072
 20
179.4054773937655
 30
0.0
  0
SPLINE
  5
194
330
1F
100
AcDbEntity
  8
1
100
AcDbSpline
210
0.0
220
0.0
230
1.0
 70
     8
 71
     3
 72
    10
 73
     6
 74
     0
 42
0.000000001
 43
0.0000000001
 40
0.0
 40
0.0
 40
0.0
 40
0.0
 40
0.4071689886844137
 40
0.4071689886844137
 40
1.0
 40
1.0
 40
1.0
 40
1.0
 10
238.5769929341695
 20
180.9403543869329
 30
0.0
 10
238.5713598769117
 20
180.9379478810848
 30
0.0
 10
238.5659508987947
 20
180.934978840027
 30
0.0
 10
238.5535901798014
 20
180.9264522027969
 30
0.0
 10
238.5469071398323
 20
180.9202213785777
 30
0.0
 10
238.5413501327488
 20
180.9131739780776
 30
0.0
  0
SPLINE
  5
195
330
1F
100
AcDbEntity
  8
1
100
AcDbSpline
210
0.0
220
0.0
230
1.0
 70
     8
 71
     3
 72
    14
 73
    10
 74
     0
 42
0.000000001
 43
0.0000000001
 40
0.0
 40
0.0
 40
0.0
 40
0.0
 40
0.0069241643819958
 40
0.0069241643819958
 40
0.4445601008161894
 40
0.4445601008161894
 40
0.8689119600788107
 40
0.8689119600788107
 40
1.0
 40
1.0
 40
1.0
 40
1.0
 10
238.6168781869304
 20
180.9573386939865
 30
0.0
 10
238.6170151169982
 20
180.9574320892688
 30
0.0
 10
238.6171517655445
 20
180.9575258512428
 30
0.0
 10
238.6259000904414
 20
180.9635645251539
 30
0.0
 10
238.6336190020019
 20
180.9711447008003
 30
0.0
 10
238.6455863364427
 20
180.9881067321434
 30
0.0
 10
238.650101773851
 20
180.997682063825
 30
0.0
 10
238.6535468629461
 20
181.0107587301549
 30
0.0
 10
238.6541931277581
 20
181.0139352744941
 30
0.0
 10
238.6546539345596
 20
181.0171360059953
 30
0.0
  0
SPLINE
  5
196
330
1F
100
AcDbEntity
  8
1
100
AcDbSpline
210
0.0
220
0.0
230
1.0
 70
     8
 71
     3
 72
     8
 73
     4
 74
     0
 42
0.000000001
 43
0.0000000001
 40
0.0
 40
0.0
 40
0.0
 40
0.0
 40
1.0
 40
1.0
 40
1.0
 40
1.0
 10
237.6472097596898
 20
179.2972747081106
 30
0.0
 10
237.6569444368211
 20
179.3036208230853
 30
0.0
 10
237.6664399527177
 20
179.3103370341958
 30
0.0
 10
237.675671922413
 20
179.3174137527032
 30
0.0
  0
SPLINE
  5
197
330
1F
100
AcDbEntity
  8
1
100
AcDbSpline
210
0.0
220
0.0
230
1.0
 70
     8
 71
     3
 72
    10
 73
     6
 74
     0
 42
0.000000001
 43
0.0000000001
 40
0.0
 40
0.0
 40
0.0
 40
0.0
 40
0.728039292017429
 40
0.728039292017429
 40
1.0
 40
1.0
 40
1.0
 40
1.0
 10
236.4917129578465
 20
181.5234421513203
 30
0.0
 10
236.4851831114742
 20
181.5306869485152
 30
0.0
 10
236.4773155849315
 20
181.536783406315
 30
0.0
 10
236.4655186087359
 20
181.5428652279339
 30
0.0
 10
236.4621768176597
 20
181.5443023757119
 30
0.0
 10
236.45874162688
 20
181.5455061034677
 30
0.0
  0
SPLINE
  5
198
330
1F
100
AcDbEntity
  8
1
100
AcDbSpline
210
0.0
220
0.0
230
1.0
 70
     8
 71
     3
 72
     8
 73
     4
 74
     0
 42
0.000000001
 43
0.0000000001
 40
0.0
 40
0.0
 40
0.0
 40
0.0
 40
1.0
 40
1.0
 40
1.0
 40
1.0
 10
236.5385456458424
 20
181.4978966058964
 30
0.0
 10
236.6201438362362
 20
181.4852601020942
 30
0.0
 10
236.7059151853571
 20
181.4956891060928
 30
0.0
 10
236.7857199698907
 20
181.5295937410727
 30
0.0
  0
SPLINE
  5
199
330
1F
100
AcDbEntity
  8
1
100
AcDbSpline
210
0.0
220
0.0
230
1.0
 70
     8
 71
     3
 72
    10
 73
     6
 74
     0
 42
0.000000001
 43
0.0000000001
 40
0.0
 40
0.0
 40
0.0
 40
0.0
 40
0.1505390653794997
 40
0.1505390653794997
 40
1.0
 40
1.0
 40
1.0
 40
1.0
 10
237.9543458505122
 20
179.7152205473527
 30
0.0
 10
237.9368635827267
 20
179.7077921420287
 30
0.0
 10
237.9197968097351
 20
179.6993337231262
 30
0.0
 10
237.8099510382084
 20
179.6363161043835
 30
0.0
 10
237.7405020374864
 20
179.553788701581
 30
0.0
 10
237.7040302675052
 20
179.459407524333
 30
0.0
  0
SPLINE
  5
19A
330
1F
100
AcDbEntity
  8
1
100
AcDbSpline
210
0.0
220
0.0
230
1.0
 70
     8
 71
     3
 72
    10
 73
     6
 74
     0
 42
0.000000001
 43
0.0000000001
 40
0.0
 40
0.0
 40
0.0
 40
0.0
 40
0.7663056357273824
 40
0.7663056357273824
 40
1.0
 40
1.0
 40
1.0
 40
1.0
 10
237.675671922413
 20
181.9335967982492
 30
0.0
 10
237.5937103708917
 20
181.9991670805529
 30
0.0
 10
237.4912551146468
 20
182.0357058367685
 30
0.0
 10
237.3523494766381
 20
182.0366389091883
 30
0.0
 10
237.3200456449732
 20
182.0335101698564
 30
0.0
 10
237.2883869059839
 20
182.0272264342703
 30
0.0
  0
SPLINE
  5
19B
330
1F
100
AcDbEntity
  8
1
100
AcDbSpline
210
0.0
220
0.0
230
1.0
 70
     8
 71
     3
 72
    10
 73
     6
 74
     0
 42
0.000000001
 43
0.0000000001
 40
0.0
 40
0.0
 40
0.0
 40
0.0
 40
0.3834628563446309
 40
0.3834628563446309
 40
1.0
 40
1.0
 40
1.0
 40
1.0
 10
238.4655745502135
 20
179.7704219124321
 30
0.0
 10
238.5185147731165
 20
179.8097058037589
 30
0.0
 10
238.5632370904671
 20
179.8594062478323
 30
0.0
 10
238.6496065898336
 20
180.0092571858789
 30
0.0
 10
238.6699098093266
 20
180.1168390019601
 30
0.0
 10
238.6546539345596
 20
180.2213098184685
 30
0.0
  0
SPLINE
  5
19C
330
1F
100
AcDbEntity
  8
1
100
AcDbSpline
210
0.0
220
0.0
230
1.0
 70
     8
 71
     3
 72
    10
 73
     6
 74
     0
 42
0.000000001
 43
0.0000000001
 40
0.0
 40
0.0
 40
0.0
 40
0.0
 40
0.5
 40
0.5
 40
1.0
 40
1.0
 40
1.0
 40
1.0
 10
237.7040302675052
 20
181.7861739397106
 30
0.0
 10
237.7404873183648
 20
181.6882310986204
 30
0.0
 10
237.809542752464
 20
181.6030499067826
 30
0.0
 10
237.9960230068361
 20
181.4933808831239
 30
0.0
 10
238.1067354302845
 20
181.4731046786657
 30
0.0
 10
238.2131853763297
 20
181.4871500396064
 30
0.0
  0
SPLINE
  5
19D
330
1F
100
AcDbEntity
  8
1
100
AcDbSpline
210
0.0
220
0.0
230
1.0
 70
     8
 71
     3
 72
    10
 73
     6
 74
     0
 42
0.000000001
 43
0.0000000001
 40
0.0
 40
0.0
 40
0.0
 40
0.0
 40
0.5
 40
0.5
 40
1.0
 40
1.0
 40
1.0
 40
1.0
 10
238.5413501327488
 20
180.9131739780776
 30
0.0
 10
238.4750154708406
 20
180.8290483107035
 30
0.0
 10
238.4362936615809
 20
180.7241108066418
 30
0.0
 10
238.4361633280762
 20
180.5073859150552
 30
0.0
 10
238.4749880464805
 20
180.4035399833131
 30
0.0
 10
238.5413501327488
 20
180.3216609196759
 30
0.0
  0
SPLINE
  5
19E
330
1F
100
AcDbEntity
  8
1
100
AcDbSpline
210
0.0
220
0.0
230
1.0
 70
     8
 71
     3
 72
    10
 73
     6
 74
     0
 42
0.000000001
 43
0.0000000001
 40
0.0
 40
0.0
 40
0.0
 40
0.0
 40
0.5
 40
0.5
 40
1.0
 40
1.0
 40
1.0
 40
1.0
 10
238.6546539345596
 20
181.0171360059953
 30
0.0
 10
238.669909413585
 20
181.123099485961
 30
0.0
 10
238.6496938348634
 20
181.2315326182083
 30
0.0
 10
238.5433073906584
 20
181.4177386926897
 30
0.0
 10
238.4598651004475
 20
181.4904799425461
 30
0.0
 10
238.3606930954205
 20
181.531287758712
 30
0.0
  0
SPLINE
  5
19F
330
1F
100
AcDbEntity
  8
1
100
AcDbSpline
210
0.0
220
0.0
230
1.0
 70
     8
 71
     3
 72
     8
 73
     4
 74
     0
 42
0.000000001
 43
0.0000000001
 40
0.0
 40
0.0
 40
0.0
 40
0.0
 40
1.0
 40
1.0
 40
1.0
 40
1.0
 10
238.2131853763297
 20
181.4871500396064
 30
0.0
 10
238.2213035797063
 20
181.4882211824378
 30
0.0
 10
238.2293233352996
 20
181.4904425760675
 30
0.0
 10
238.2368378247401
 20
181.4936386782509
 30
0.0
  0
SPLINE
  5
1A0
330
1F
100
AcDbEntity
  8
1
100
AcDbSpline
210
0.0
220
0.0
230
1.0
 70
     8
 71
     3
 72
     8
 73
     4
 74
     0
 42
0.000000001
 43
0.0000000001
 40
0.0
 40
0.0
 40
0.0
 40
0.0
 40
1.0
 40
1.0
 40
1.0
 40
1.0
 10
238.3606930954205
 20
181.531287758712
 30
0.0
 10
238.3535258425993
 20
181.5342369774503
 30
0.0
 10
238.3458780070391
 20
181.5362014589733
 30
0.0
 10
238.3381832088405
 20
181.5371295394363
 30
0.0
  0
SPLINE
  5
1A1
330
1F
100
AcDbEntity
  8
1
100
AcDbSpline
210
0.0
220
0.0
230
1.0
 70
     8
 71
     3
 72
    18
 73
    14
 74
     0
 42
0.000000001
 43
0.0000000001
 40
0.0
 40
0.0
 40
0.0
 40
0.0
 40
0.0584137219993339
 40
0.0584137219993339
 40
0.1211861405327116
 40
0.1211861405327116
 40
0.2467309775994669
 40
0.2467309775994669
 40
0.497820651732978
 40
0.497820651732978
 40
0.7489103258664889
 40
0.7489103258664889
 40
1.0
 40
1.0
 40
1.0
 40
1.0
 10
232.5802522976714
 20
180.659155588502
 30
0.0
 10
232.5805824152155
 20
180.5897664786336
 30
0.0
 10
232.5824270722278
 20
180.5193918229039
 30
0.0
 10
232.5886459617543
 20
180.3821691478886
 30
0.0
 10
232.5931871024073
 20
180.3146448844819
 30
0.0
 10
232.6087466506473
 20
180.1284178874657
 30
0.0
 10
232.6219179413265
 20
180.0207665383699
 30
0.0
 10
232.6632802594785
 20
179.7344625595092
 30
0.0
 10
232.6943373002352
 20
179.5829266701865
 30
0.0
 10
232.757788054657
 20
179.3125413413296
 30
0.0
 10
232.7903393293314
 20
179.1955465249649
 30
0.0
 10
232.8564214008762
 20
178.9809722468283
 30
0.0
 10
232.8899696490149
 20
178.883821831553
 30
0.0
 10
232.9238968130509
 20
178.7934121657811
 30
0.0
  0
SPLINE
  5
1A2
330
1F
100
AcDbEntity
  8
1
100
AcDbSpline
210
0.0
220
0.0
230
1.0
 70
     8
 71
     3
 72
    16
 73
    12
 74
     0
 42
0.000000001
 43
0.0000000001
 40
0.0
 40
0.0
 40
0.0
 40
0.0
 40
0.3229724588460205
 40
0.3229724588460205
 40
0.645944917692041
 40
0.645944917692041
 40
0.8074311471150512
 40
0.8074311471150512
 40
0.9689173765380612
 40
0.9689173765380612
 40
1.0
 40
1.0
 40
1.0
 40
1.0
 10
232.9238968130509
 20
178.7934121657811
 30
0.0
 10
232.9630991057927
 20
178.7057633806048
 30
0.0
 10
233.0074417971424
 20
178.6133530856034
 30
0.0
 10
233.1114444614098
 20
178.4144273323037
 30
0.0
 10
233.1706380719843
 20
178.3085199783939
 30
0.0
 10
233.2791379699076
 20
178.1318130823765
 30
0.0
 10
233.3186341771237
 20
178.0698956348204
 30
0.0
 10
233.4080576806154
 20
177.9365779078971
 30
0.0
 10
233.458146903094
 20
177.8649011724457
 30
0.0
 10
233.5272884608982
 20
177.7717223033575
 30
0.0
 10
233.5387727630487
 20
177.7563932145968
 30
0.0
 10
233.5506204969411
 20
177.7407563369414
 30
0.0
  0
SPLINE
  5
1A3
330
1F
100
AcDbEntity
  8
1
100
AcDbSpline
210
0.0
220
0.0
230
1.0
 70
     8
 71
     3
 72
    18
 73
    14
 74
     0
 42
0.000000001
 43
0.0000000001
 40
0.0
 40
0.0
 40
0.0
 40
0.0
 40
0.0584137220049588
 40
0.0584137220049588
 40
0.1211861405379615
 40
0.1211861405379615
 40
0.246730977603967
 40
0.246730977603967
 40
0.4978206517359782
 40
0.4978206517359782
 40
0.7489103258679891
 40
0.7489103258679891
 40
1.0
 40
1.0
 40
1.0
 40
1.0
 10
232.5802522976713
 20
180.6591555885233
 30
0.0
 10
232.5805824152151
 20
180.589766478648
 30
0.0
 10
232.5824270722274
 20
180.5193918229107
 30
0.0
 10
232.5886459617543
 20
180.3821691478886
 30
0.0
 10
232.5931871024073
 20
180.3146448844819
 30
0.0
 10
232.6087466506473
 20
180.1284178874657
 30
0.0
 10
232.6219179413265
 20
180.0207665383699
 30
0.0
 10
232.6632802594785
 20
179.7344625595092
 30
0.0
 10
232.6943373002352
 20
179.5829266701865
 30
0.0
 10
232.757788054657
 20
179.3125413413296
 30
0.0
 10
232.7903393293314
 20
179.1955465249649
 30
0.0
 10
232.8564214008762
 20
178.9809722468283
 30
0.0
 10
232.8899696490149
 20
178.883821831553
 30
0.0
 10
232.9238968130509
 20
178.7934121657811
 30
0.0
  0
SPLINE
  5
1A4
330
1F
100
AcDbEntity
  8
1
100
AcDbSpline
210
0.0
220
0.0
230
1.0
 70
     8
 71
     3
 72
    16
 73
    12
 74
     0
 42
0.000000001
 43
0.0000000001
 40
0.0
 40
0.0
 40
0.0
 40
0.0
 40
0.3230244970064131
 40
0.3230244970064131
 40
0.6460489940128263
 40
0.6460489940128263
 40
0.8075612425160334
 40
0.8075612425160334
 40
0.9690734910192407
 40
0.9690734910192407
 40
1.0
 40
1.0
 40
1.0
 40
1.0
 10
232.9238968130509
 20
178.7934121657811
 30
0.0
 10
232.9630991057927
 20
178.7057633806048
 30
0.0
 10
233.0074417971424
 20
178.6133530856034
 30
0.0
 10
233.1114444614098
 20
178.4144273323037
 30
0.0
 10
233.1706380719843
 20
178.3085199783939
 30
0.0
 10
233.2791379699076
 20
178.1318130823765
 30
0.0
 10
233.3186341771237
 20
178.0698956348204
 30
0.0
 10
233.4080576806154
 20
177.9365779078971
 30
0.0
 10
233.458146903094
 20
177.8649011724457
 30
0.0
 10
233.527230619392
 20
177.7718002536714
 30
0.0
 10
233.5386537288784
 20
177.7565521036298
 30
0.0
 10
233.5504363110685
 20
177.7409994430095
 30
0.0
  0
SPLINE
  5
1A5
330
1F
100
AcDbEntity
  8
1
100
AcDbSpline
210
0.0
220
0.0
230
1.0
 70
    24
 71
     1
 72
     4
 73
     2
 74
     0
 42
0.000000001
 43
0.0000000001
 40
0.0
 40
0.0
 40
1.0
 40
1.0
 10
241.1325736051949
 20
177.4673737216326
 30
0.0
 10
241.0365390063653
 20
177.5722938892457
 30
0.0
  0
SPLINE
  5
1A6
330
1F
100
AcDbEntity
  8
1
100
AcDbSpline
210
0.0
220
0.0
230
1.0
 70
    24
 71
     1
 72
     4
 73
     2
 74
     0
 42
0.000000001
 43
0.0000000001
 40
0.0
 40
0.0
 40
1.0
 40
1.0
 10
226.0984427157841
 20
182.2898681496375
 30
0.0
 10
225.9312828764689
 20
182.3871148918875
 30
0.0
  0
SPLINE
  5
1A7
330
1F
100
AcDbEntity
  8
1
100
AcDbSpline
210
0.0
220
0.0
230
1.0
 70
     8
 71
     3
 72
     8
 73
     4
 74
     0
 42
0.000000001
 43
0.0000000001
 40
0.0
 40
0.0
 40
0.0
 40
0.0
 40
1.0
 40
1.0
 40
1.0
 40
1.0
 10
232.6899335632276
 20
178.3330096061438
 30
0.0
 10
232.7239068482208
 20
178.2133423474893
 30
0.0
 10
232.7890592848991
 20
178.1033142979632
 30
0.0
 10
232.8765116834576
 20
178.0162217682831
 30
0.0
  0
SPLINE
  5
1A8
330
1F
100
AcDbEntity
  8
1
100
AcDbSpline
210
0.0
220
0.0
230
1.0
 70
     8
 71
     3
 72
    10
 73
     6
 74
     0
 42
0.000000001
 43
0.0000000001
 40
0.0
 40
0.0
 40
0.0
 40
0.0
 40
0.5
 40
0.5
 40
1.0
 40
1.0
 40
1.0
 40
1.0
 10
233.3035589573958
 20
177.7971812488482
 30
0.0
 10
233.2258372436371
 20
177.8084206724486
 30
0.0
 10
233.151203679725
 20
177.8321122883086
 30
0.0
 10
233.0061405146393
 20
177.9058494591089
 30
0.0
 10
232.9364300440556
 20
177.9565499732862
 30
0.0
 10
232.8765116834576
 20
178.0162217682831
 30
0.0
  0
MTEXT
  5
1A9
330
1F
100
AcDbEntity
  8
SK6
100
AcDbMText
 10
178.499967
 20
133.336391
 30
0.0
 40
3.5
 41
0.0
 71
     7
 72
     5
  1
\W0.7500;\H5.25;25E2R032M12-SRC10-C\H3.50;
  7
cesky
 73
     2
 44
0.8433729999999998
1001
ACAD
1000
MTEXTBEGIN
1070
    73
1070
     2
1070
    44
1040
0.8433729999999998
1070
    74
1070
     0
1000
MTEXTEND
  0
LINE
  5
1AB
330
1F
100
AcDbEntity
  8
4
100
AcDbLine
 10
207.505714
 20
173.2145379999999
 30
0.0
 11
244.159429
 21
173.2145379999999
 31
0.0
  0
LINE
  5
1AC
330
1F
100
AcDbEntity
  8
SK4
100
AcDbLine
 10
184.5057139999999
 20
173.2145379999999
 30
0.0
 11
214.505714
 21
173.2145379999999
 31
0.0
  0
LINE
  5
1AF
330
1F
100
AcDbEntity
  8
2
 60
     1
100
AcDbLine
 10
254.75471
 20
185.689434
 30
0.0
 11
255.195528
 21
183.189436
 31
0.0
  0
LINE
  5
1B0
330
1F
100
AcDbEntity
  8
2
 60
     1
100
AcDbLine
 10
255.195528
 20
183.189436
 30
0.0
 11
254.313893
 21
183.189432
 31
0.0
  0
LINE
  5
1B1
330
1F
100
AcDbEntity
  8
2
 60
     1
100
AcDbLine
 10
254.313893
 20
183.189432
 30
0.0
 11
254.75471
 21
185.689434
 31
0.0
  0
LINE
  5
1B4
330
1F
100
AcDbEntity
  8
2
 60
     1
100
AcDbLine
 10
242.505716
 20
201.736196
 30
0.0
 11
240.005717
 21
201.295378
 31
0.0
  0
LINE
  5
1B5
330
1F
100
AcDbEntity
  8
2
 60
     1
100
AcDbLine
 10
240.005717
 20
201.295378
 30
0.0
 11
240.005714
 21
202.177013
 31
0.0
  0
LINE
  5
1B6
330
1F
100
AcDbEntity
  8
2
 60
     1
100
AcDbLine
 10
240.005714
 20
202.177013
 30
0.0
 11
242.505716
 21
201.736196
 31
0.0
  0
LINE
  5
1B8
330
1F
100
AcDbEntity
  8
2
 60
     1
100
AcDbLine
 10
210.505714
 20
201.736196
 30
0.0
 11
213.005713
 21
202.177013
 31
0.0
  0
LINE
  5
1B9
330
1F
100
AcDbEntity
  8
2
 60
     1
100
AcDbLine
 10
213.005713
 20
202.177013
 30
0.0
 11
213.005716
 21
201.295378
 31
0.0
  0
LINE
  5
1BA
330
1F
100
AcDbEntity
  8
2
 60
     1
100
AcDbLine
 10
213.005716
 20
201.295378
 30
0.0
 11
210.505714
 21
201.736196
 31
0.0
  0
LINE
  5
1BD
330
1F
100
AcDbEntity
  8
2
 60
     1
100
AcDbLine
 10
237.542884
 20
192.897833
 30
0.0
 11
235.042886
 21
192.457016
 31
0.0
  0
LINE
  5
1BE
330
1F
100
AcDbEntity
  8
2
 60
     1
100
AcDbLine
 10
235.042886
 20
192.457016
 30
0.0
 11
235.042883
 21
193.33865
 31
0.0
  0
LINE
  5
1BF
330
1F
100
AcDbEntity
  8
2
 60
     1
100
AcDbLine
 10
235.042883
 20
193.33865
 30
0.0
 11
237.542884
 21
192.897833
 31
0.0
  0
LINE
  5
1C1
330
1F
100
AcDbEntity
  8
2
 60
     1
100
AcDbLine
 10
242.505716
 20
192.897833
 30
0.0
 11
245.005714
 21
193.33865
 31
0.0
  0
LINE
  5
1C2
330
1F
100
AcDbEntity
  8
2
 60
     1
100
AcDbLine
 10
245.005714
 20
193.33865
 30
0.0
 11
245.005717
 21
192.457016
 31
0.0
  0
LINE
  5
1C3
330
1F
100
AcDbEntity
  8
2
 60
     1
100
AcDbLine
 10
245.005717
 20
192.457016
 30
0.0
 11
242.505716
 21
192.897833
 31
0.0
  0
LINE
  5
23F
330
1F
100
AcDbEntity
  8
2
100
AcDbLine
 10
242.5507147989372
 20
192.8898984494244
 30
0.0
 11
242.569981016053
 21
192.9091646665401
 31
0.0
  0
LINE
  5
240
330
1F
100
AcDbEntity
  8
2
100
AcDbLine
 10
242.6270563021094
 20
192.8764373913859
 30
0.0
 11
242.6790079861718
 21
192.9283890754483
 31
0.0
  0
LINE
  5
241
330
1F
100
AcDbEntity
  8
2
100
AcDbLine
 10
242.7033978052816
 20
192.8629763333474
 30
0.0
 11
242.7880349562905
 21
192.9476134843563
 31
0.0
  0
LINE
  5
242
330
1F
100
AcDbEntity
  8
2
100
AcDbLine
 10
242.7797393084539
 20
192.849515275309
 30
0.0
 11
242.8970619264093
 21
192.9668378932643
 31
0.0
  0
LINE
  5
243
330
1F
100
AcDbEntity
  8
2
100
AcDbLine
 10
242.856080811626
 20
192.8360542172704
 30
0.0
 11
243.0060888965281
 21
192.9860623021724
 31
0.0
  0
LINE
  5
244
330
1F
100
AcDbEntity
  8
2
100
AcDbLine
 10
242.9324223147983
 20
192.822593159232
 30
0.0
 11
243.1151158666468
 21
193.0052867110805
 31
0.0
  0
LINE
  5
245
330
1F
100
AcDbEntity
  8
2
100
AcDbLine
 10
243.0087638179704
 20
192.8091321011934
 30
0.0
 11
243.2241428367656
 21
193.0245111199885
 31
0.0
  0
LINE
  5
246
330
1F
100
AcDbEntity
  8
2
100
AcDbLine
 10
243.0851053211426
 20
192.795671043155
 30
0.0
 11
243.3331698068843
 21
193.0437355288966
 31
0.0
  0
LINE
  5
247
330
1F
100
AcDbEntity
  8
2
100
AcDbLine
 10
243.1614468243149
 20
192.7822099851166
 30
0.0
 11
243.4421967770031
 21
193.0629599378048
 31
0.0
  0
LINE
  5
248
330
1F
100
AcDbEntity
  8
2
100
AcDbLine
 10
243.2377883274871
 20
192.768748927078
 30
0.0
 11
243.5512237471218
 21
193.0821843467128
 31
0.0
  0
LINE
  5
249
330
1F
100
AcDbEntity
  8
2
100
AcDbLine
 10
243.3141298306593
 20
192.7552878690395
 30
0.0
 11
243.6602507172406
 21
193.1014087556209
 31
0.0
  0
LINE
  5
24A
330
1F
100
AcDbEntity
  8
2
100
AcDbLine
 10
243.3904713338315
 20
192.741826811001
 30
0.0
 11
243.7692776873594
 21
193.1206331645289
 31
0.0
  0
LINE
  5
24B
330
1F
100
AcDbEntity
  8
2
100
AcDbLine
 10
243.4668128370037
 20
192.7283657529626
 30
0.0
 11
243.8783046574781
 21
193.139857573437
 31
0.0
  0
LINE
  5
24C
330
1F
100
AcDbEntity
  8
2
100
AcDbLine
 10
243.5431543401759
 20
192.7149046949242
 30
0.0
 11
243.9873316275969
 21
193.159081982345
 31
0.0
  0
LINE
  5
24D
330
1F
100
AcDbEntity
  8
2
100
AcDbLine
 10
243.6194958433481
 20
192.7014436368856
 30
0.0
 11
244.0963585977157
 21
193.1783063912531
 31
0.0
  0
LINE
  5
24E
330
1F
100
AcDbEntity
  8
2
100
AcDbLine
 10
243.6958373465204
 20
192.6879825788472
 30
0.0
 11
244.2053855678344
 21
193.1975308001612
 31
0.0
  0
LINE
  5
24F
330
1F
100
AcDbEntity
  8
2
100
AcDbLine
 10
243.7721788496926
 20
192.6745215208086
 30
0.0
 11
244.3144125379532
 21
193.2167552090693
 31
0.0
  0
LINE
  5
250
330
1F
100
AcDbEntity
  8
2
100
AcDbLine
 10
243.8485203528648
 20
192.6610604627702
 30
0.0
 11
244.4234395080719
 21
193.2359796179773
 31
0.0
  0
LINE
  5
251
330
1F
100
AcDbEntity
  8
2
100
AcDbLine
 10
243.924861856037
 20
192.6475994047316
 30
0.0
 11
244.5324664781907
 21
193.2552040268854
 31
0.0
  0
LINE
  5
252
330
1F
100
AcDbEntity
  8
2
100
AcDbLine
 10
244.0012033592092
 20
192.6341383466932
 30
0.0
 11
244.6414934483095
 21
193.2744284357935
 31
0.0
  0
LINE
  5
253
330
1F
100
AcDbEntity
  8
2
100
AcDbLine
 10
244.0775448623814
 20
192.6206772886548
 30
0.0
 11
244.7505204184282
 21
193.2936528447016
 31
0.0
  0
LINE
  5
254
330
1F
100
AcDbEntity
  8
2
100
AcDbLine
 10
244.1538863655537
 20
192.6072162306163
 30
0.0
 11
244.859547388547
 21
193.3128772536096
 31
0.0
  0
LINE
  5
255
330
1F
100
AcDbEntity
  8
2
100
AcDbLine
 10
244.2302278687258
 20
192.5937551725778
 30
0.0
 11
244.9685743586657
 21
193.3321016625177
 31
0.0
  0
LINE
  5
256
330
1F
100
AcDbEntity
  8
2
100
AcDbLine
 10
244.306569371898
 20
192.5802941145393
 30
0.0
 11
245.0057144385853
 21
193.2794391812265
 31
0.0
  0
LINE
  5
257
330
1F
100
AcDbEntity
  8
2
100
AcDbLine
 10
244.3829108750703
 20
192.5668330565008
 30
0.0
 11
245.0057147684473
 21
193.1896369498778
 31
0.0
  0
LINE
  5
258
330
1F
100
AcDbEntity
  8
2
100
AcDbLine
 10
244.4592523782425
 20
192.5533719984624
 30
0.0
 11
245.0057150983093
 21
193.0998347185292
 31
0.0
  0
LINE
  5
259
330
1F
100
AcDbEntity
  8
2
100
AcDbLine
 10
244.5355938814147
 20
192.5399109404239
 30
0.0
 11
245.0057154281713
 21
193.0100324871805
 31
0.0
  0
LINE
  5
25A
330
1F
100
AcDbEntity
  8
2
100
AcDbLine
 10
244.6119353845869
 20
192.5264498823854
 30
0.0
 11
245.0057157580333
 21
192.9202302558319
 31
0.0
  0
LINE
  5
25B
330
1F
100
AcDbEntity
  8
2
100
AcDbLine
 10
244.6882768877591
 20
192.5129888243469
 30
0.0
 11
245.0057160878953
 21
192.8304280244832
 31
0.0
  0
LINE
  5
25C
330
1F
100
AcDbEntity
  8
2
100
AcDbLine
 10
244.7646183909313
 20
192.4995277663084
 30
0.0
 11
245.0057164177573
 21
192.7406257931345
 31
0.0
  0
LINE
  5
25D
330
1F
100
AcDbEntity
  8
2
100
AcDbLine
 10
244.8409598941035
 20
192.4860667082699
 30
0.0
 11
245.0057167476193
 21
192.6508235617858
 31
0.0
  0
LINE
  5
25E
330
1F
100
AcDbEntity
  8
2
100
AcDbLine
 10
244.9173013972757
 20
192.4726056502314
 30
0.0
 11
245.0057170774813
 21
192.5610213304371
 31
0.0
  0
LINE
  5
25F
330
1F
100
AcDbEntity
  8
2
100
AcDbLine
 10
244.993642900448
 20
192.459144592193
 30
0.0
 11
245.0057174073434
 21
192.4712190990884
 31
0.0
  0
LINE
  5
262
330
1F
100
AcDbEntity
  8
2
100
AcDbLine
 10
235.0428827141261
 20
193.2846917511542
 30
0.0
 11
235.088753162212
 21
193.3305621992401
 31
0.0
  0
LINE
  5
263
330
1F
100
AcDbEntity
  8
2
100
AcDbLine
 10
235.042883043988
 20
193.1948895198055
 30
0.0
 11
235.1650946653842
 21
193.3171011412016
 31
0.0
  0
LINE
  5
264
330
1F
100
AcDbEntity
  8
2
100
AcDbLine
 10
235.0428833738501
 20
193.1050872884569
 30
0.0
 11
235.2414361685564
 21
193.3036400831632
 31
0.0
  0
LINE
  5
265
330
1F
100
AcDbEntity
  8
2
100
AcDbLine
 10
235.0428837037121
 20
193.0152850571082
 30
0.0
 11
235.3177776717286
 21
193.2901790251247
 31
0.0
  0
LINE
  5
266
330
1F
100
AcDbEntity
  8
2
100
AcDbLine
 10
235.0428840335741
 20
192.9254828257595
 30
0.0
 11
235.3941191749008
 21
193.2767179670861
 31
0.0
  0
LINE
  5
267
330
1F
100
AcDbEntity
  8
2
100
AcDbLine
 10
235.0428843634362
 20
192.8356805944108
 30
0.0
 11
235.470460678073
 21
193.2632569090477
 31
0.0
  0
LINE
  5
268
330
1F
100
AcDbEntity
  8
2
100
AcDbLine
 10
235.0428846932982
 20
192.7458783630622
 30
0.0
 11
235.5468021812452
 21
193.2497958510092
 31
0.0
  0
LINE
  5
269
330
1F
100
AcDbEntity
  8
2
100
AcDbLine
 10
235.0428850231602
 20
192.6560761317135
 30
0.0
 11
235.6231436844174
 21
193.2363347929707
 31
0.0
  0
LINE
  5
26A
330
1F
100
AcDbEntity
  8
2
100
AcDbLine
 10
235.0428853530222
 20
192.5662739003648
 30
0.0
 11
235.6994851875897
 21
193.2228737349323
 31
0.0
  0
LINE
  5
26B
330
1F
100
AcDbEntity
  8
2
100
AcDbLine
 10
235.0428856828843
 20
192.4764716690162
 30
0.0
 11
235.7758266907619
 21
193.2094126768937
 31
0.0
  0
LINE
  5
26C
330
1F
100
AcDbEntity
  8
2
100
AcDbLine
 10
235.1282914333788
 20
192.4720748583001
 30
0.0
 11
235.852168193934
 21
193.1959516188553
 31
0.0
  0
LINE
  5
26D
330
1F
100
AcDbEntity
  8
2
100
AcDbLine
 10
235.2373184034976
 20
192.4912992672081
 30
0.0
 11
235.9285096971063
 21
193.1824905608167
 31
0.0
  0
LINE
  5
26E
330
1F
100
AcDbEntity
  8
2
100
AcDbLine
 10
235.3463453736163
 20
192.5105236761162
 30
0.0
 11
236.0048512002785
 21
193.1690295027783
 31
0.0
  0
LINE
  5
26F
330
1F
100
AcDbEntity
  8
2
100
AcDbLine
 10
235.4553723437351
 20
192.5297480850242
 30
0.0
 11
236.0811927034506
 21
193.1555684447398
 31
0.0
  0
LINE
  5
270
330
1F
100
AcDbEntity
  8
2
100
AcDbLine
 10
235.5643993138539
 20
192.5489724939323
 30
0.0
 11
236.1575342066229
 21
193.1421073867013
 31
0.0
  0
LINE
  5
271
330
1F
100
AcDbEntity
  8
2
100
AcDbLine
 10
235.6734262839726
 20
192.5681969028404
 30
0.0
 11
236.2338757097951
 21
193.1286463286628
 31
0.0
  0
LINE
  5
272
330
1F
100
AcDbEntity
  8
2
100
AcDbLine
 10
235.7824532540913
 20
192.5874213117484
 30
0.0
 11
236.3102172129673
 21
193.1151852706244
 31
0.0
  0
LINE
  5
273
330
1F
100
AcDbEntity
  8
2
100
AcDbLine
 10
235.8914802242101
 20
192.6066457206565
 30
0.0
 11
236.3865587161395
 21
193.1017242125859
 31
0.0
  0
LINE
  5
274
330
1F
100
AcDbEntity
  8
2
100
AcDbLine
 10
236.0005071943289
 20
192.6258701295646
 30
0.0
 11
236.4629002193118
 21
193.0882631545474
 31
0.0
  0
LINE
  5
275
330
1F
100
AcDbEntity
  8
2
100
AcDbLine
 10
236.1095341644476
 20
192.6450945384726
 30
0.0
 11
236.5392417224839
 21
193.0748020965089
 31
0.0
  0
LINE
  5
276
330
1F
100
AcDbEntity
  8
2
100
AcDbLine
 10
236.2185611345664
 20
192.6643189473807
 30
0.0
 11
236.6155832256561
 21
193.0613410384704
 31
0.0
  0
LINE
  5
277
330
1F
100
AcDbEntity
  8
2
100
AcDbLine
 10
236.3275881046851
 20
192.6835433562887
 30
0.0
 11
236.6919247288283
 21
193.0478799804319
 31
0.0
  0
LINE
  5
278
330
1F
100
AcDbEntity
  8
2
100
AcDbLine
 10
236.4366150748039
 20
192.7027677651968
 30
0.0
 11
236.7682662320005
 21
193.0344189223934
 31
0.0
  0
LINE
  5
279
330
1F
100
AcDbEntity
  8
2
100
AcDbLine
 10
236.5456420449226
 20
192.7219921741049
 30
0.0
 11
236.8446077351728
 21
193.020957864355
 31
0.0
  0
LINE
  5
27A
330
1F
100
AcDbEntity
  8
2
100
AcDbLine
 10
236.6546690150414
 20
192.741216583013
 30
0.0
 11
236.920949238345
 21
193.0074968063165
 31
0.0
  0
LINE
  5
27B
330
1F
100
AcDbEntity
  8
2
100
AcDbLine
 10
236.7636959851601
 20
192.760440991921
 30
0.0
 11
236.9972907415171
 21
192.994035748278
 31
0.0
  0
LINE
  5
27C
330
1F
100
AcDbEntity
  8
2
100
AcDbLine
 10
236.8727229552789
 20
192.7796654008291
 30
0.0
 11
237.0736322446894
 21
192.9805746902395
 31
0.0
  0
LINE
  5
27D
330
1F
100
AcDbEntity
  8
2
100
AcDbLine
 10
236.9817499253977
 20
192.7988898097372
 30
0.0
 11
237.1499737478616
 21
192.967113632201
 31
0.0
  0
LINE
  5
27E
330
1F
100
AcDbEntity
  8
2
100
AcDbLine
 10
237.0907768955165
 20
192.8181142186453
 30
0.0
 11
237.2263152510338
 21
192.9536525741626
 31
0.0
  0
LINE
  5
27F
330
1F
100
AcDbEntity
  8
2
100
AcDbLine
 10
237.1998038656352
 20
192.8373386275533
 30
0.0
 11
237.302656754206
 21
192.9401915161241
 31
0.0
  0
LINE
  5
280
330
1F
100
AcDbEntity
  8
2
100
AcDbLine
 10
237.3088308357539
 20
192.8565630364613
 30
0.0
 11
237.3789982573782
 21
192.9267304580856
 31
0.0
  0
LINE
  5
281
330
1F
100
AcDbEntity
  8
2
100
AcDbLine
 10
237.4178578058727
 20
192.8757874453694
 30
0.0
 11
237.4553397605504
 21
192.9132694000471
 31
0.0
  0
LINE
  5
282
330
1F
100
AcDbEntity
  8
2
100
AcDbLine
 10
237.5268847759915
 20
192.8950118542775
 30
0.0
 11
237.5316812637226
 21
192.8998083420086
 31
0.0
  0
TEXT
  5
283
330
1F
100
AcDbEntity
  8
2
100
AcDbText
 10
239.7419783204497
 20
194.4811666666666
 30
0.0
 40
3.5
  1
5
 41
0.75
  7
cesky
100
AcDbText
  0
LINE
  5
284
330
1F
100
AcDbEntity
  8
2
100
AcDbLine
 10
210.5321799680966
 20
201.7315289694484
 30
0.0
 11
210.5435111582229
 21
201.7428601595747
 31
0.0
  0
LINE
  5
285
330
1F
100
AcDbEntity
  8
2
100
AcDbLine
 10
210.6085214712687
 20
201.7180679114099
 30
0.0
 11
210.6525381283416
 21
201.7620845684827
 31
0.0
  0
LINE
  5
286
330
1F
100
AcDbEntity
  8
2
100
AcDbLine
 10
210.684862974441
 20
201.7046068533714
 30
0.0
 11
210.7615650984604
 21
201.7813089773909
 31
0.0
  0
LINE
  5
287
330
1F
100
AcDbEntity
  8
2
100
AcDbLine
 10
210.7612044776131
 20
201.6911457953329
 30
0.0
 11
210.8705920685792
 21
201.8005333862989
 31
0.0
  0
LINE
  5
288
330
1F
100
AcDbEntity
  8
2
100
AcDbLine
 10
210.8375459807854
 20
201.6776847372945
 30
0.0
 11
210.979619038698
 21
201.819757795207
 31
0.0
  0
LINE
  5
289
330
1F
100
AcDbEntity
  8
2
100
AcDbLine
 10
210.9138874839576
 20
201.664223679256
 30
0.0
 11
211.0886460088167
 21
201.838982204115
 31
0.0
  0
LINE
  5
28A
330
1F
100
AcDbEntity
  8
2
100
AcDbLine
 10
210.9902289871298
 20
201.6507626212175
 30
0.0
 11
211.1976729789355
 21
201.8582066130231
 31
0.0
  0
LINE
  5
28B
330
1F
100
AcDbEntity
  8
2
100
AcDbLine
 10
211.066570490302
 20
201.6373015631791
 30
0.0
 11
211.3066999490542
 21
201.8774310219312
 31
0.0
  0
LINE
  5
28C
330
1F
100
AcDbEntity
  8
2
100
AcDbLine
 10
211.1429119934742
 20
201.6238405051405
 30
0.0
 11
211.4157269191729
 21
201.8966554308393
 31
0.0
  0
LINE
  5
28D
330
1F
100
AcDbEntity
  8
2
100
AcDbLine
 10
211.2192534966464
 20
201.6103794471021
 30
0.0
 11
211.5247538892917
 21
201.9158798397473
 31
0.0
  0
LINE
  5
28E
330
1F
100
AcDbEntity
  8
2
100
AcDbLine
 10
211.2955949998186
 20
201.5969183890636
 30
0.0
 11
211.6337808594105
 21
201.9351042486554
 31
0.0
  0
LINE
  5
28F
330
1F
100
AcDbEntity
  8
2
100
AcDbLine
 10
211.3719365029909
 20
201.5834573310251
 30
0.0
 11
211.7428078295292
 21
201.9543286575634
 31
0.0
  0
LINE
  5
290
330
1F
100
AcDbEntity
  8
2
100
AcDbLine
 10
211.4482780061631
 20
201.5699962729866
 30
0.0
 11
211.8518347996479
 21
201.9735530664715
 31
0.0
  0
LINE
  5
291
330
1F
100
AcDbEntity
  8
2
100
AcDbLine
 10
211.5246195093353
 20
201.5565352149481
 30
0.0
 11
211.9608617697668
 21
201.9927774753796
 31
0.0
  0
LINE
  5
292
330
1F
100
AcDbEntity
  8
2
100
AcDbLine
 10
211.6009610125075
 20
201.5430741569097
 30
0.0
 11
212.0698887398855
 21
202.0120018842876
 31
0.0
  0
LINE
  5
293
330
1F
100
AcDbEntity
  8
2
100
AcDbLine
 10
211.6773025156797
 20
201.5296130988712
 30
0.0
 11
212.1789157100043
 21
202.0312262931958
 31
0.0
  0
LINE
  5
294
330
1F
100
AcDbEntity
  8
2
100
AcDbLine
 10
211.7536440188519
 20
201.5161520408327
 30
0.0
 11
212.287942680123
 21
202.0504507021038
 31
0.0
  0
LINE
  5
295
330
1F
100
AcDbEntity
  8
2
100
AcDbLine
 10
211.8299855220241
 20
201.5026909827942
 30
0.0
 11
212.3969696502418
 21
202.0696751110119
 31
0.0
  0
LINE
  5
296
330
1F
100
AcDbEntity
  8
2
100
AcDbLine
 10
211.9063270251963
 20
201.4892299247557
 30
0.0
 11
212.5059966203606
 21
202.08889951992
 31
0.0
  0
LINE
  5
297
330
1F
100
AcDbEntity
  8
2
100
AcDbLine
 10
211.9826685283686
 20
201.4757688667173
 30
0.0
 11
212.6150235904793
 21
202.108123928828
 31
0.0
  0
LINE
  5
298
330
1F
100
AcDbEntity
  8
2
100
AcDbLine
 10
212.0590100315408
 20
201.4623078086788
 30
0.0
 11
212.7240505605981
 21
202.1273483377361
 31
0.0
  0
LINE
  5
299
330
1F
100
AcDbEntity
  8
2
100
AcDbLine
 10
212.135351534713
 20
201.4488467506403
 30
0.0
 11
212.8330775307168
 21
202.1465727466441
 31
0.0
  0
LINE
  5
29A
330
1F
100
AcDbEntity
  8
2
100
AcDbLine
 10
212.2116930378851
 20
201.4353856926018
 30
0.0
 11
212.9421045008356
 21
202.1657971555522
 31
0.0
  0
LINE
  5
29B
330
1F
100
AcDbEntity
  8
2
100
AcDbLine
 10
212.2880345410574
 20
201.4219246345633
 30
0.0
 11
213.0057128987518
 21
202.1396029922577
 31
0.0
  0
LINE
  5
29C
330
1F
100
AcDbEntity
  8
2
100
AcDbLine
 10
212.3643760442296
 20
201.4084635765249
 30
0.0
 11
213.0057132286139
 21
202.0498007609091
 31
0.0
  0
LINE
  5
29D
330
1F
100
AcDbEntity
  8
2
100
AcDbLine
 10
212.4407175474018
 20
201.3950025184863
 30
0.0
 11
213.0057135584759
 21
201.9599985295604
 31
0.0
  0
LINE
  5
29E
330
1F
100
AcDbEntity
  8
2
100
AcDbLine
 10
212.517059050574
 20
201.3815414604479
 30
0.0
 11
213.0057138883379
 21
201.8701962982117
 31
0.0
  0
LINE
  5
29F
330
1F
100
AcDbEntity
  8
2
100
AcDbLine
 10
212.5934005537462
 20
201.3680804024093
 30
0.0
 11
213.0057142181999
 21
201.780394066863
 31
0.0
  0
LINE
  5
2A0
330
1F
100
AcDbEntity
  8
2
100
AcDbLine
 10
212.6697420569184
 20
201.3546193443709
 30
0.0
 11
213.0057145480619
 21
201.6905918355144
 31
0.0
  0
LINE
  5
2A1
330
1F
100
AcDbEntity
  8
2
100
AcDbLine
 10
212.7460835600907
 20
201.3411582863325
 30
0.0
 11
213.005714877924
 21
201.6007896041657
 31
0.0
  0
LINE
  5
2A2
330
1F
100
AcDbEntity
  8
2
100
AcDbLine
 10
212.8224250632628
 20
201.327697228294
 30
0.0
 11
213.0057152077859
 21
201.5109873728171
 31
0.0
  0
LINE
  5
2A3
330
1F
100
AcDbEntity
  8
2
100
AcDbLine
 10
212.8987665664351
 20
201.3142361702555
 30
0.0
 11
213.005715537648
 21
201.4211851414684
 31
0.0
  0
LINE
  5
2A4
330
1F
100
AcDbEntity
  8
2
100
AcDbLine
 10
212.9751080696073
 20
201.300775112217
 30
0.0
 11
213.00571586751
 21
201.3313829101198
 31
0.0
  0
LINE
  5
2A5
330
1F
100
AcDbEntity
  8
2
100
AcDbLine
 10
240.0057144707925
 20
202.1090336398803
 30
0.0
 11
240.0635039622723
 21
202.1668231313602
 31
0.0
  0
LINE
  5
2A6
330
1F
100
AcDbEntity
  8
2
100
AcDbLine
 10
240.0057148006544
 20
202.0192314085316
 30
0.0
 11
240.1398454654445
 21
202.1533620733217
 31
0.0
  0
LINE
  5
2A7
330
1F
100
AcDbEntity
  8
2
100
AcDbLine
 10
240.0057151305165
 20
201.9294291771829
 30
0.0
 11
240.2161869686167
 21
202.1399010152832
 31
0.0
  0
LINE
  5
2A8
330
1F
100
AcDbEntity
  8
2
100
AcDbLine
 10
240.0057154603784
 20
201.8396269458342
 30
0.0
 11
240.2925284717889
 21
202.1264399572447
 31
0.0
  0
LINE
  5
2A9
330
1F
100
AcDbEntity
  8
2
100
AcDbLine
 10
240.0057157902404
 20
201.7498247144855
 30
0.0
 11
240.3688699749611
 21
202.1129788992062
 31
0.0
  0
LINE
  5
2AA
330
1F
100
AcDbEntity
  8
2
100
AcDbLine
 10
240.0057161201024
 20
201.6600224831369
 30
0.0
 11
240.4452114781333
 21
202.0995178411677
 31
0.0
  0
LINE
  5
2AB
330
1F
100
AcDbEntity
  8
2
100
AcDbLine
 10
240.0057164499644
 20
201.5702202517882
 30
0.0
 11
240.5215529813055
 21
202.0860567831292
 31
0.0
  0
LINE
  5
2AC
330
1F
100
AcDbEntity
  8
2
100
AcDbLine
 10
240.0057167798264
 20
201.4804180204395
 30
0.0
 11
240.5978944844777
 21
202.0725957250907
 31
0.0
  0
LINE
  5
2AD
330
1F
100
AcDbEntity
  8
2
100
AcDbLine
 10
240.0057171096884
 20
201.3906157890908
 30
0.0
 11
240.67423598765
 21
202.0591346670523
 31
0.0
  0
LINE
  5
2AE
330
1F
100
AcDbEntity
  8
2
100
AcDbLine
 10
240.0057174395505
 20
201.3008135577421
 30
0.0
 11
240.7505774908222
 21
202.0456736090138
 31
0.0
  0
LINE
  5
2AF
330
1F
100
AcDbEntity
  8
2
100
AcDbLine
 10
240.1081453708681
 20
201.3134389278491
 30
0.0
 11
240.8269189939943
 21
202.0322125509753
 31
0.0
  0
LINE
  5
2B0
330
1F
100
AcDbEntity
  8
2
100
AcDbLine
 10
240.2171723409869
 20
201.3326633367571
 30
0.0
 11
240.9032604971666
 21
202.0187514929368
 31
0.0
  0
LINE
  5
2B1
330
1F
100
AcDbEntity
  8
2
100
AcDbLine
 10
240.3261993111057
 20
201.3518877456653
 30
0.0
 11
240.9796020003388
 21
202.0052904348984
 31
0.0
  0
LINE
  5
2B2
330
1F
100
AcDbEntity
  8
2
100
AcDbLine
 10
240.4352262812244
 20
201.3711121545733
 30
0.0
 11
241.0559435035109
 21
201.9918293768598
 31
0.0
  0
LINE
  5
2B3
330
1F
100
AcDbEntity
  8
2
100
AcDbLine
 10
240.5442532513431
 20
201.3903365634813
 30
0.0
 11
241.1322850066832
 21
201.9783683188214
 31
0.0
  0
LINE
  5
2B4
330
1F
100
AcDbEntity
  8
2
100
AcDbLine
 10
240.6532802214619
 20
201.4095609723894
 30
0.0
 11
241.2086265098555
 21
201.9649072607829
 31
0.0
  0
LINE
  5
2B5
330
1F
100
AcDbEntity
  8
2
100
AcDbLine
 10
240.7623071915807
 20
201.4287853812975
 30
0.0
 11
241.2849680130276
 21
201.9514462027444
 31
0.0
  0
LINE
  5
2B6
330
1F
100
AcDbEntity
  8
2
100
AcDbLine
 10
240.8713341616994
 20
201.4480097902055
 30
0.0
 11
241.3613095161998
 21
201.9379851447059
 31
0.0
  0
LINE
  5
2B7
330
1F
100
AcDbEntity
  8
2
100
AcDbLine
 10
240.9803611318181
 20
201.4672341991136
 30
0.0
 11
241.437651019372
 21
201.9245240866674
 31
0.0
  0
LINE
  5
2B8
330
1F
100
AcDbEntity
  8
2
100
AcDbLine
 10
241.0893881019369
 20
201.4864586080217
 30
0.0
 11
241.5139925225442
 21
201.911063028629
 31
0.0
  0
LINE
  5
2B9
330
1F
100
AcDbEntity
  8
2
100
AcDbLine
 10
241.1984150720556
 20
201.5056830169297
 30
0.0
 11
241.5903340257164
 21
201.8976019705905
 31
0.0
  0
LINE
  5
2BA
330
1F
100
AcDbEntity
  8
2
100
AcDbLine
 10
241.3074420421744
 20
201.5249074258377
 30
0.0
 11
241.6666755288886
 21
201.884140912552
 31
0.0
  0
LINE
  5
2BB
330
1F
100
AcDbEntity
  8
2
100
AcDbLine
 10
241.4164690122932
 20
201.5441318347458
 30
0.0
 11
241.7430170320608
 21
201.8706798545135
 31
0.0
  0
LINE
  5
2BC
330
1F
100
AcDbEntity
  8
2
100
AcDbLine
 10
241.5254959824119
 20
201.5633562436539
 30
0.0
 11
241.8193585352331
 21
201.857218796475
 31
0.0
  0
LINE
  5
2BD
330
1F
100
AcDbEntity
  8
2
100
AcDbLine
 10
241.6345229525307
 20
201.582580652562
 30
0.0
 11
241.8957000384053
 21
201.8437577384365
 31
0.0
  0
LINE
  5
2BE
330
1F
100
AcDbEntity
  8
2
100
AcDbLine
 10
241.7435499226495
 20
201.60180506147
 30
0.0
 11
241.9720415415774
 21
201.8302966803981
 31
0.0
  0
LINE
  5
2BF
330
1F
100
AcDbEntity
  8
2
100
AcDbLine
 10
241.8525768927682
 20
201.621029470378
 30
0.0
 11
242.0483830447497
 21
201.8168356223596
 31
0.0
  0
LINE
  5
2C0
330
1F
100
AcDbEntity
  8
2
100
AcDbLine
 10
241.9616038628869
 20
201.6402538792862
 30
0.0
 11
242.1247245479219
 21
201.8033745643211
 31
0.0
  0
LINE
  5
2C1
330
1F
100
AcDbEntity
  8
2
100
AcDbLine
 10
242.0706308330057
 20
201.6594782881942
 30
0.0
 11
242.2010660510941
 21
201.7899135062826
 31
0.0
  0
LINE
  5
2C2
330
1F
100
AcDbEntity
  8
2
100
AcDbLine
 10
242.1796578031244
 20
201.6787026971023
 30
0.0
 11
242.2774075542663
 21
201.7764524482441
 31
0.0
  0
LINE
  5
2C3
330
1F
100
AcDbEntity
  8
2
100
AcDbLine
 10
242.2886847732432
 20
201.6979271060103
 30
0.0
 11
242.3537490574385
 21
201.7629913902056
 31
0.0
  0
LINE
  5
2C4
330
1F
100
AcDbEntity
  8
2
100
AcDbLine
 10
242.3977117433619
 20
201.7171515149184
 30
0.0
 11
242.4300905606107
 21
201.7495303321672
 31
0.0
  0
TEXT
  5
2C5
330
1F
100
AcDbEntity
  8
2
100
AcDbText
 10
224.9774955692199
 20
203.3195286666666
 30
0.0
 40
3.5
  1
32
 41
0.75
  7
cesky
100
AcDbText
  0
LINE
  5
2C6
330
1F
100
AcDbEntity
  8
2
100
AcDbLine
 10
254.7370072531085
 20
185.5890351208756
 30
0.0
 11
254.7671060654259
 21
185.6191339331932
 31
0.0
  0
LINE
  5
2C7
330
1F
100
AcDbEntity
  8
2
100
AcDbLine
 10
254.7177828744341
 20
185.4800081809906
 30
0.0
 11
254.7805671382877
 21
185.5427924448442
 31
0.0
  0
LINE
  5
2C8
330
1F
100
AcDbEntity
  8
2
100
AcDbLine
 10
254.6985584957598
 20
185.3709812411056
 30
0.0
 11
254.7940282111495
 21
185.4664509564954
 31
0.0
  0
LINE
  5
2C9
330
1F
100
AcDbEntity
  8
2
100
AcDbLine
 10
254.6793341170855
 20
185.2619543012206
 30
0.0
 11
254.8074892840114
 21
185.3901094681465
 31
0.0
  0
LINE
  5
2CA
330
1F
100
AcDbEntity
  8
2
100
AcDbLine
 10
254.660109738411
 20
185.1529273613355
 30
0.0
 11
254.8209503568731
 21
185.3137679797976
 31
0.0
  0
LINE
  5
2CB
330
1F
100
AcDbEntity
  8
2
100
AcDbLine
 10
254.6408853597367
 20
185.0439004214505
 30
0.0
 11
254.8344114297349
 21
185.2374264914487
 31
0.0
  0
LINE
  5
2CC
330
1F
100
AcDbEntity
  8
2
100
AcDbLine
 10
254.6216609810625
 20
184.9348734815655
 30
0.0
 11
254.8478725025967
 21
185.1610850030997
 31
0.0
  0
LINE
  5
2CD
330
1F
100
AcDbEntity
  8
2
100
AcDbLine
 10
254.6024366023881
 20
184.8258465416805
 30
0.0
 11
254.8613335754585
 21
185.0847435147509
 31
0.0
  0
LINE
  5
2CE
330
1F
100
AcDbEntity
  8
2
100
AcDbLine
 10
254.5832122237138
 20
184.7168196017955
 30
0.0
 11
254.8747946483203
 21
185.008402026402
 31
0.0
  0
LINE
  5
2CF
330
1F
100
AcDbEntity
  8
2
100
AcDbLine
 10
254.5639878450394
 20
184.6077926619104
 30
0.0
 11
254.8882557211821
 21
184.9320605380531
 31
0.0
  0
LINE
  5
2D0
330
1F
100
AcDbEntity
  8
2
100
AcDbLine
 10
254.5447634663651
 20
184.4987657220254
 30
0.0
 11
254.9017167940439
 21
184.8557190497042
 31
0.0
  0
LINE
  5
2D1
330
1F
100
AcDbEntity
  8
2
100
AcDbLine
 10
254.5255390876908
 20
184.3897387821404
 30
0.0
 11
254.9151778669057
 21
184.7793775613553
 31
0.0
  0
LINE
  5
2D2
330
1F
100
AcDbEntity
  8
2
100
AcDbLine
 10
254.5063147090164
 20
184.2807118422553
 30
0.0
 11
254.9286389397675
 21
184.7030360730064
 31
0.0
  0
LINE
  5
2D3
330
1F
100
AcDbEntity
  8
2
100
AcDbLine
 10
254.4870903303421
 20
184.1716849023703
 30
0.0
 11
254.9421000126293
 21
184.6266945846575
 31
0.0
  0
LINE
  5
2D4
330
1F
100
AcDbEntity
  8
2
100
AcDbLine
 10
254.4678659516677
 20
184.0626579624853
 30
0.0
 11
254.9555610854911
 21
184.5503530963086
 31
0.0
  0
LINE
  5
2D5
330
1F
100
AcDbEntity
  8
2
100
AcDbLine
 10
254.4486415729934
 20
183.9536310226003
 30
0.0
 11
254.9690221583528
 21
184.4740116079597
 31
0.0
  0
LINE
  5
2D6
330
1F
100
AcDbEntity
  8
2
100
AcDbLine
 10
254.4294171943191
 20
183.8446040827152
 30
0.0
 11
254.9824832312147
 21
184.3976701196108
 31
0.0
  0
LINE
  5
2D7
330
1F
100
AcDbEntity
  8
2
100
AcDbLine
 10
254.4101928156448
 20
183.7355771428303
 30
0.0
 11
254.9959443040765
 21
184.321328631262
 31
0.0
  0
LINE
  5
2D8
330
1F
100
AcDbEntity
  8
2
100
AcDbLine
 10
254.3909684369705
 20
183.6265502029452
 30
0.0
 11
255.0094053769383
 21
184.244987142913
 31
0.0
  0
LINE
  5
2D9
330
1F
100
AcDbEntity
  8
2
100
AcDbLine
 10
254.3717440582962
 20
183.5175232630602
 30
0.0
 11
255.0228664498
 21
184.1686456545641
 31
0.0
  0
LINE
  5
2DA
330
1F
100
AcDbEntity
  8
2
100
AcDbLine
 10
254.3525196796218
 20
183.4084963231752
 30
0.0
 11
255.0363275226618
 21
184.0923041662152
 31
0.0
  0
LINE
  5
2DB
330
1F
100
AcDbEntity
  8
2
100
AcDbLine
 10
254.3332953009474
 20
183.2994693832901
 30
0.0
 11
255.0497885955237
 21
184.0159626778663
 31
0.0
  0
LINE
  5
2DC
330
1F
100
AcDbEntity
  8
2
100
AcDbLine
 10
254.3140709222731
 20
183.1904424434051
 30
0.0
 11
255.0632496683855
 21
183.9396211895174
 31
0.0
  0
LINE
  5
2DD
330
1F
100
AcDbEntity
  8
2
100
AcDbLine
 10
254.4028637080006
 20
183.1894326679219
 30
0.0
 11
255.0767107412473
 21
183.8632797011686
 31
0.0
  0
LINE
  5
2DE
330
1F
100
AcDbEntity
  8
2
100
AcDbLine
 10
254.4926665990756
 20
183.1894329977862
 30
0.0
 11
255.0901718141091
 21
183.7869382128197
 31
0.0
  0
LINE
  5
2DF
330
1F
100
AcDbEntity
  8
2
100
AcDbLine
 10
254.5824694901508
 20
183.1894333276507
 30
0.0
 11
255.1036328869709
 21
183.7105967244708
 31
0.0
  0
LINE
  5
2E0
330
1F
100
AcDbEntity
  8
2
100
AcDbLine
 10
254.6722723812259
 20
183.1894336575151
 30
0.0
 11
255.1170939598326
 21
183.6342552361219
 31
0.0
  0
LINE
  5
2E1
330
1F
100
AcDbEntity
  8
2
100
AcDbLine
 10
254.762075272301
 20
183.1894339873795
 30
0.0
 11
255.1305550326944
 21
183.5579137477729
 31
0.0
  0
LINE
  5
2E2
330
1F
100
AcDbEntity
  8
2
100
AcDbLine
 10
254.8518781633761
 20
183.189434317244
 30
0.0
 11
255.1440161055562
 21
183.4815722594241
 31
0.0
  0
LINE
  5
2E3
330
1F
100
AcDbEntity
  8
2
100
AcDbLine
 10
254.9416810544512
 20
183.1894346471084
 30
0.0
 11
255.157477178418
 21
183.4052307710752
 31
0.0
  0
LINE
  5
2E4
330
1F
100
AcDbEntity
  8
2
100
AcDbLine
 10
255.0314839455264
 20
183.1894349769728
 30
0.0
 11
255.1709382512798
 21
183.3288892827263
 31
0.0
  0
LINE
  5
2E5
330
1F
100
AcDbEntity
  8
2
100
AcDbLine
 10
255.1212868366015
 20
183.1894353068373
 30
0.0
 11
255.1843993241416
 21
183.2525477943774
 31
0.0
  0
TEXT
  5
2E6
330
1F
100
AcDbEntity
  8
2
100
AcDbText
 10
252.2963773333334
 20
173.1046437659873
 30
0.0
 40
3.5
  1
25
 50
89.99999999999991
 41
0.75
  7
cesky
100
AcDbText
  0
TEXT
  5
2E7
330
1F
100
AcDbEntity
  8
2
100
AcDbText
 10
252.3868943333333
 20
166.2125384174279
 30
0.0
 40
3.5
  1
\U+00D8
 50
89.99999999999991
  7
cesky
100
AcDbText
  0
MTEXT
  5
2E8
330
1F
100
AcDbEntity
  8
SK2
100
AcDbMText
 10
168.812964
 20
176.2457879999999
 30
0.0
 40
3.5
 41
0.0
 71
     7
 72
     5
  1
\W0.7500;21
  7
cesky
 11
0.0000000000000001
 21
1.0
 31
0.0
 73
     2
 44
0.8433729999999998
1001
ACAD
1000
MTEXTBEGIN
1070
    73
1070
     2
1070
    44
1040
0.8433729999999998
1070
    74
1070
     0
1000
MTEXTEND
  0
MTEXT
  5
2E9
330
1F
100
AcDbEntity
  8
SK2
100
AcDbMText
 10
168.812964
 20
169.273132
 30
0.0
 40
3.5
 41
0.0
 71
     7
 72
     5
  1
%%c
  7
cesky
 11
0.0000000000000001
 21
1.0
 31
0.0
 73
     2
 44
0.8433729999999998
1001
ACAD
1000
MTEXTBEGIN
1070
    73
1070
     2
1070
    44
1040
0.8433729999999998
1070
    74
1070
     0
1000
MTEXTEND
  0
LINE
  5
2EA
330
1F
100
AcDbEntity
  8
SK2
100
AcDbLine
 10
210.005714
 20
183.7145379999999
 30
0.0
 11
168.104631
 21
183.7145379999999
 31
0.0
  0
LINE
  5
2EB
330
1F
100
AcDbEntity
  8
SK2
100
AcDbLine
 10
210.005714
 20
162.7145379999999
 30
0.0
 11
168.104631
 21
162.7145379999999
 31
0.0
  0
LINE
  5
2EC
330
1F
100
AcDbEntity
  8
SK2
100
AcDbLine
 10
170.104631
 20
183.7145379999999
 30
0.0
 11
170.104631
 21
162.7145379999999
 31
0.0
  0
SOLID
  5
2ED
330
1F
100
AcDbEntity
  8
SK2
100
AcDbTrace
 10
170.104631
 20
183.7145379999999
 30
0.0
 11
170.545449
 21
181.21454
 31
0.0
 12
169.663814
 22
181.214537
 32
0.0
 13
170.104631
 23
183.7145379999999
 33
0.0
  0
SOLID
  5
2EE
330
1F
100
AcDbEntity
  8
SK2
100
AcDbTrace
 10
170.104631
 20
162.7145379999999
 30
0.0
 11
169.663814
 21
165.214537
 31
0.0
 12
170.545449
 22
165.21454
 32
0.0
 13
170.104631
 23
162.7145379999999
 33
0.0
  0
MTEXT
  5
2EF
330
1F
100
AcDbEntity
  8
SK2
100
AcDbMText
 10
178.184253
 20
174.358288
 30
0.0
 40
3.5
 41
0.0
 71
     7
 72
     5
  1
\W0.7500;12
  7
cesky
 11
0.0000000000000001
 21
1.0
 31
0.0
 73
     2
 44
0.8433729999999998
1001
ACAD
1000
MTEXTBEGIN
1070
    73
1070
     2
1070
    44
1040
0.8433729999999998
1070
    74
1070
     0
1000
MTEXTEND
  0
MTEXT
  5
2F0
330
1F
100
AcDbEntity
  8
SK2
100
AcDbMText
 10
178.184253
 20
169.383288
 30
0.0
 40
3.5
 41
0.0
 71
     7
 72
     5
  1
\W0.7500;M
  7
cesky
 11
0.0000000000000001
 21
1.0
 31
0.0
 73
     2
 44
0.8433729999999998
1001
ACAD
1000
MTEXTBEGIN
1070
    73
1070
     2
1070
    44
1040
0.8433729999999998
1070
    74
1070
     0
1000
MTEXTEND
  0
LINE
  5
2F1
330
1F
100
AcDbEntity
  8
SK2
100
AcDbLine
 10
188.5057139999999
 20
179.214538
 30
0.0
 11
176.600919
 21
179.214538
 31
0.0
  0
LINE
  5
2F2
330
1F
100
AcDbEntity
  8
SK2
100
AcDbLine
 10
188.5057139999999
 20
167.214538
 30
0.0
 11
176.600919
 21
167.214538
 31
0.0
  0
LINE
  5
2F3
330
1F
100
AcDbEntity
  8
SK2
100
AcDbLine
 10
178.600919
 20
187.9645379999999
 30
0.0
 11
178.600919
 21
158.4645379999999
 31
0.0
  0
SOLID
  5
2F4
330
1F
100
AcDbEntity
  8
SK2
100
AcDbTrace
 10
178.600919
 20
179.214538
 30
0.0
 11
178.160102
 21
181.714537
 31
0.0
 12
179.041737
 22
181.71454
 32
0.0
 13
178.600919
 23
179.214538
 33
0.0
  0
SOLID
  5
2F5
330
1F
100
AcDbEntity
  8
SK2
100
AcDbTrace
 10
178.600919
 20
167.214538
 30
0.0
 11
179.041737
 21
164.71454
 31
0.0
 12
178.160102
 22
164.714537
 32
0.0
 13
178.600919
 23
167.214538
 33
0.0
  0
ENDSEC
  0
SECTION
  2
OBJECTS
  0
DICTIONARY
  5
C
330
0
100
AcDbDictionary
281
     1
  3
ACAD_CIP_PREVIOUS_PRODUCT_INFO
350
23D
  3
ACAD_COLOR
350
232
  3
ACAD_DETAILVIEWSTYLE
350
238
  3
ACAD_GROUP
350
D
  3
ACAD_LAYOUT
350
1A
  3
ACAD_MATERIAL
350
43
  3
ACAD_MLEADERSTYLE
350
1F3
  3
ACAD_MLINESTYLE
350
17
  3
ACAD_PLOTSETTINGS
350
19
  3
ACAD_PLOTSTYLENAME
350
E
  3
ACAD_SCALELIST
350
47
  3
ACAD_SECTIONVIEWSTYLE
350
236
  3
ACAD_TABLESTYLE
350
233
  3
ACAD_VISUALSTYLE
350
2A
  3
ACDB_RECOMPOSE_DATA
350
324
  3
AcDbVariableDictionary
350
1F1
  3
DWGPROPS
350
325
  0
DICTIONARY
  5
302
330
10
100
AcDbDictionary
280
     1
281
     1
  3
ADSK_XREC_LAYER_RECONCILED
360
303
  0
DICTIONARY
  5
304
330
2F6
100
AcDbDictionary
280
     1
281
     1
  3
ADSK_XREC_LAYER_RECONCILED
360
305
  0
DICTIONARY
  5
306
330
2F7
100
AcDbDictionary
280
     1
281
     1
  3
ADSK_XREC_LAYER_RECONCILED
360
307
  0
DICTIONARY
  5
308
330
2F8
100
AcDbDictionary
280
     1
281
     1
  3
ADSK_XREC_LAYER_RECONCILED
360
309
  0
DICTIONARY
  5
30A
330
2F9
100
AcDbDictionary
280
     1
281
     1
  3
ADSK_XREC_LAYER_RECONCILED
360
30B
  0
DICTIONARY
  5
30C
330
2FA
100
AcDbDictionary
280
     1
281
     1
  3
ADSK_XREC_LAYER_RECONCILED
360
30D
  0
DICTIONARY
  5
30E
330
2FC
100
AcDbDictionary
280
     1
281
     1
  3
ADSK_XREC_LAYER_RECONCILED
360
30F
  0
DICTIONARY
  5
310
330
2FD
100
AcDbDictionary
280
     1
281
     1
  3
ADSK_XREC_LAYER_RECONCILED
360
311
  0
DICTIONARY
  5
312
330
2FE
100
AcDbDictionary
280
     1
281
     1
  3
ADSK_XREC_LAYER_RECONCILED
360
313
  0
DICTIONARY
  5
314
330
2FF
100
AcDbDictionary
280
     1
281
     1
  3
ADSK_XREC_LAYER_RECONCILED
360
315
  0
DICTIONARY
  5
316
330
300
100
AcDbDictionary
280
     1
281
     1
  3
ADSK_XREC_LAYER_RECONCILED
360
317
  0
DICTIONARY
  5
318
330
301
100
AcDbDictionary
280
     1
281
     1
  3
ADSK_XREC_LAYER_RECONCILED
360
319
  0
DICTIONARY
  5
260
330
1F
100
AcDbDictionary
280
     1
281
     1
  3
ACAD_SORTENTS
360
261
  0
XRECORD
  5
23D
102
{ACAD_REACTORS
330
C
102
}
330
C
100
AcDbXrecord
280
     1
300
AMECH_PP
300
2015
300

  0
DICTIONARY
  5
232
102
{ACAD_REACTORS
330
C
102
}
330
C
100
AcDbDictionary
281
     1
  0
DICTIONARY
  5
238
102
{ACAD_REACTORS
330
C
102
}
330
C
100
AcDbDictionary
281
     1
  3
Metric50
350
239
  0
DICTIONARY
  5
D
102
{ACAD_REACTORS
330
C
102
}
330
C
100
AcDbDictionary
281
     1
  3
ASSORTED_PARTS
350
1DB
  3
CENTERLINE
350
1DC
  3
DIMENSION
350
1DD
  3
DIMENSION4
350
1DE
  3
DIMENSION5
350
1DF
  0
DICTIONARY
  5
1A
102
{ACAD_REACTORS
330
C
102
}
330
C
100
AcDbDictionary
281
     1
  3
Layout1
350
1E
  3
Layout2
350
26
  3
Model
350
22
  0
DICTIONARY
  5
43
102
{ACAD_REACTORS
330
C
102
}
330
C
100
AcDbDictionary
281
     1
  3
ByBlock
350
45
  3
ByLayer
350
44
  3
Global
350
46
  0
DICTIONARY
  5
1F3
102
{ACAD_REACTORS
330
C
102
}
330
C
100
AcDbDictionary
281
     1
  3
Standard
350
235
  0
DICTIONARY
  5
17
102
{ACAD_REACTORS
330
C
102
}
330
C
100
AcDbDictionary
281
     1
  3
Standard
350
18
  0
DICTIONARY
  5
19
102
{ACAD_REACTORS
330
C
102
}
330
C
100
AcDbDictionary
281
     1
  0
ACDBDICTIONARYWDFLT
  5
E
102
{ACAD_REACTORS
330
C
102
}
330
C
100
AcDbDictionary
281
     1
  3
Normal
350
F
100
AcDbDictionaryWithDefault
340
F
  0
DICTIONARY
  5
47
102
{ACAD_REACTORS
330
C
102
}
330
C
100
AcDbDictionary
281
     1
  3
A0
350
48
  3
A1
350
49
  3
A2
350
4A
  3
A3
350
4B
  3
A4
350
4C
  3
A5
350
4D
  3
A6
350
4E
  3
A7
350
4F
  3
A8
350
50
  3
A9
350
51
  3
B0
350
52
  3
B1
350
53
  3
B2
350
54
  3
B3
350
55
  3
B4
350
56
  3
B5
350
57
  3
B6
350
58
  3
B7
350
59
  3
B8
350
5A
  3
B9
350
5B
  3
C0
350
5C
  3
C1
350
5D
  3
C2
350
5E
  3
C3
350
5F
  3
C4
350
60
  3
C5
350
61
  3
C6
350
62
  3
C7
350
63
  3
C8
350
64
  3
C9
350
65
  3
D0
350
66
  3
D1
350
67
  3
D2
350
68
  0
DICTIONARY
  5
236
102
{ACAD_REACTORS
330
C
102
}
330
C
100
AcDbDictionary
281
     1
  3
Metric50
350
237
  0
DICTIONARY
  5
233
102
{ACAD_REACTORS
330
C
102
}
330
C
100
AcDbDictionary
281
     1
  3
Standard
350
234
  0
DICTIONARY
  5
2A
102
{ACAD_REACTORS
330
C
102
}
330
C
100
AcDbDictionary
281
     1
  3
2dWireframe
350
2F
  3
Basic
350
32
  3
Brighten
350
36
  3
ColorChange
350
3A
  3
Conceptual
350
34
  3
Dim
350
35
  3
EdgeColorOff
350
3D
  3
Facepattern
350
39
  3
Flat
350
2B
  3
FlatWithEdges
350
2C
  3
Gouraud
350
2D
  3
GouraudWithEdges
350
2E
  3
Hidden
350
31
  3
JitterOff
350
3B
  3
Linepattern
350
38
  3
OverhangOff
350
3C
  3
Realistic
350
33
  3
Shaded
350
42
  3
Shaded with edges
350
41
  3
Shades of Gray
350
3E
  3
Sketchy
350
3F
  3
Thicken
350
37
  3
Wireframe
350
30
  3
X-Ray
350
40
  0
XRECORD
  5
324
102
{ACAD_REACTORS
330
C
102
}
330
C
100
AcDbXrecord
280
     1
 90
        1
330
234
  0
DICTIONARY
  5
1F1
102
{ACAD_REACTORS
330
C
102
}
330
C
100
AcDbDictionary
281
     1
  3
CANNOSCALE
350
1F8
  3
CMLEADERSTYLE
350
31B
  3
CTABLESTYLE
350
31A
  3
CVIEWDETAILSTYLE
350
31C
  3
CVIEWSECTIONSTYLE
350
31D
  3
DIMASSOC
350
1F6
  3
HIDETEXT
350
1F7
  3
INDEXCTL
350
31F
  3
MSLTSCALE
350
1F9
  3
SORTENTS
350
31E
  3
XCLIPFRAME
350
320
  0
XRECORD
  5
325
102
{ACAD_REACTORS
330
C
102
}
330
C
100
AcDbXrecord
280
     1
  1
DWGPROPS COOKIE
  2

  3

  4

  6

  7

  8
hm1535
  9

300
=
301
=
302
=
303
=
304
=
305
=
306
=
307
=
308
=
309
=
 40
0.0020305439814815
 41
2457886.559959873
 42
2457886.562073345
  1

 90
        0
  0
XRECORD
  5
303
102
{ACAD_REACTORS
330
302
102
}
330
302
100
AcDbXrecord
280
     1
290
     1
  0
XRECORD
  5
305
102
{ACAD_REACTORS
330
304
102
}
330
304
100
AcDbXrecord
280
     1
290
     1
  0
XRECORD
  5
307
102
{ACAD_REACTORS
330
306
102
}
330
306
100
AcDbXrecord
280
     1
290
     1
  0
XRECORD
  5
309
102
{ACAD_REACTORS
330
308
102
}
330
308
100
AcDbXrecord
280
     1
290
     1
  0
XRECORD
  5
30B
102
{ACAD_REACTORS
330
30A
102
}
330
30A
100
AcDbXrecord
280
     1
290
     1
  0
XRECORD
  5
30D
102
{ACAD_REACTORS
330
30C
102
}
330
30C
100
AcDbXrecord
280
     1
290
     1
  0
XRECORD
  5
30F
102
{ACAD_REACTORS
330
30E
102
}
330
30E
100
AcDbXrecord
280
     1
290
     1
  0
XRECORD
  5
311
102
{ACAD_REACTORS
330
310
102
}
330
310
100
AcDbXrecord
280
     1
290
     1
  0
XRECORD
  5
313
102
{ACAD_REACTORS
330
312
102
}
330
312
100
AcDbXrecord
280
     1
290
     1
  0
XRECORD
  5
315
102
{ACAD_REACTORS
330
314
102
}
330
314
100
AcDbXrecord
280
     1
290
     1
  0
XRECORD
  5
317
102
{ACAD_REACTORS
330
316
102
}
330
316
100
AcDbXrecord
280
     1
290
     1
  0
XRECORD
  5
319
102
{ACAD_REACTORS
330
318
102
}
330
318
100
AcDbXrecord
280
     1
290
     1
  0
SORTENTSTABLE
  5
261
102
{ACAD_REACTORS
330
260
102
}
330
260
100
AcDbSortentsTable
330
1F
331
2E0
  5
24D
331
2F1
  5
2EA
331
280
  5
2BF
331
291
  5
289
331
2A2
  5
29A
331
2B3
  5
267
331
164
  5
164
331
15A
  5
15A
331
149
  5
149
331
138
  5
138
331
175
  5
175
331
186
  5
186
331
2B9
  5
26D
331
1B0
  5
1B4
331
25B
  5
2E1
331
24A
  5
2D0
331
2CA
  5
1BD
331
197
  5
197
331
BF
  5
BF
331
A6
  5
A6
331
F4
  5
F4
331
105
  5
105
331
116
  5
116
331
26F
  5
2AE
331
127
  5
127
331
DF
  5
DF
331
CE
  5
CE
331
AD
  5
AD
331
8C
  5
8C
331
85
  5
85
331
270
  5
2AF
331
2E1
  5
24E
331
2F2
  5
2EB
331
281
  5
2C0
331
292
  5
28A
331
2A3
  5
29B
331
2B4
  5
268
331
176
  5
176
331
165
  5
165
331
15B
  5
15B
331
14A
  5
14A
331
139
  5
139
331
128
  5
128
331
E0
  5
E0
331
1A8
  5
1A8
331
1B1
  5
1B5
331
2BA
  5
26E
331
25C
  5
2E2
331
24B
  5
2D1
331
2CB
  5
1BE
331
198
  5
198
331
187
  5
187
331
A7
  5
A7
331
F5
  5
F5
331
106
  5
106
331
117
  5
117
331
CF
  5
CF
331
AE
  5
AE
331
8D
  5
8D
331
118
  5
118
331
271
  5
2B0
331
2E2
  5
24F
331
2F3
  5
2EC
331
282
  5
2C1
331
293
  5
28B
331
2A4
  5
29C
331
2B5
  5
269
331
166
  5
166
331
15C
  5
15C
331
14B
  5
14B
331
13A
  5
13A
331
129
  5
129
331
E1
  5
E1
331
D0
  5
D0
331
177
  5
177
331
1A9
  5
1A9
331
2BB
  5
26F
331
25D
  5
2E3
331
24C
  5
2D2
331
2CC
  5
1BF
331
199
  5
199
331
188
  5
188
331
B0
  5
B0
331
F6
  5
F6
331
107
  5
107
331
AF
  5
AF
331
8E
  5
8E
331
87
  5
87
331
108
  5
108
331
119
  5
119
331
272
  5
2B1
331
2E3
  5
250
331
2F4
  5
2ED
331
283
  5
29D
331
294
  5
28C
331
2B6
  5
26A
331
2A5
  5
257
331
15D
  5
15D
331
14C
  5
14C
331
13B
  5
13B
331
12A
  5
12A
331
E2
  5
E2
331
D1
  5
D1
331
C0
  5
C0
331
167
  5
167
331
178
  5
178
331
2BC
  5
270
331
25E
  5
2E4
331
24D
  5
2D3
331
2CD
  5
1C1
331
19A
  5
19A
331
189
  5
189
331
B1
  5
B1
331
90
  5
90
331
F7
  5
F7
331
8F
  5
8F
331
6F
  5
6F
331
F8
  5
F8
331
109
  5
109
331
11A
  5
11A
331
273
  5
2B2
331
2E4
  5
251
331
2F5
  5
2EE
331
284
  5
27C
331
295
  5
28D
331
2B7
  5
26B
331
2A6
  5
258
331
168
  5
168
331
15E
  5
15E
331
14D
  5
14D
331
13C
  5
13C
331
12B
  5
12B
331
E3
  5
E3
331
D2
  5
D2
331
C1
  5
C1
331
98
  5
98
331
1AB
  5
1AB
331
2BD
  5
271
331
1B4
  5
254
331
25F
  5
2E5
331
24E
  5
2D4
331
2CE
  5
1C2
331
19B
  5
19B
331
18A
  5
18A
331
179
  5
179
331
91
  5
91
331
F9
  5
F9
331
10A
  5
10A
331
11B
  5
11B
331
274
  5
2B3
331
2E5
  5
252
331
285
  5
27D
331
296
  5
28E
331
2A7
  5
259
331
15F
  5
15F
331
14E
  5
14E
331
13D
  5
13D
331
12C
  5
12C
331
E4
  5
E4
331
D3
  5
D3
331
C2
  5
C2
331
99
  5
99
331
169
  5
169
331
17A
  5
17A
331
1AC
  5
1AC
331
2BE
  5
272
331
1B5
  5
255
331
24F
  5
2D5
331
2CF
  5
1C3
331
19C
  5
19C
331
18B
  5
18B
331
B3
  5
B3
331
92
  5
92
331
71
  5
71
331
250
  5
2D6
331
2D0
  5
1CF
331
E9
  5
E9
331
FA
  5
FA
331
10B
  5
10B
331
11C
  5
11C
331
275
  5
2B4
331
2E6
  5
1B0
331
286
  5
27E
331
297
  5
28F
331
2A8
  5
25A
331
14F
  5
14F
331
13E
  5
13E
331
12D
  5
12D
331
E5
  5
E5
331
D4
  5
D4
331
C3
  5
C3
331
9A
  5
9A
331
16A
  5
16A
331
17B
  5
17B
331
23F
  5
2C5
331
2BF
  5
273
331
1B6
  5
256
331
19D
  5
19D
331
18C
  5
18C
331
B4
  5
B4
331
93
  5
93
331
72
  5
72
331
240
  5
2C6
331
2C0
  5
274
331
1C1
  5
2C2
331
251
  5
2D7
331
2D1
  5
1DA
331
262
  5
2A1
331
EA
  5
EA
331
FB
  5
FB
331
10C
  5
10C
331
11D
  5
11D
331
276
  5
2B5
331
2E7
  5
1AF
331
287
  5
27F
331
298
  5
290
331
2A9
  5
25B
331
150
  5
150
331
13F
  5
13F
331
12E
  5
12E
331
E6
  5
E6
331
D5
  5
D5
331
C4
  5
C4
331
9B
  5
9B
331
16B
  5
16B
331
17C
  5
17C
331
19E
  5
19E
331
18D
  5
18D
331
B5
  5
B5
331
94
  5
94
331
73
  5
73
331
1B8
  5
279
331
241
  5
2C7
331
2C1
  5
275
331
1C2
  5
2C3
331
252
  5
2D8
331
2D2
  5
23F
331
263
  5
2A2
331
EB
  5
EB
331
FC
  5
FC
331
10D
  5
10D
331
11E
  5
11E
331
2E8
  5
2EF
331
277
  5
2B6
331
288
  5
280
331
299
  5
291
331
2AA
  5
25C
331
151
  5
151
331
140
  5
140
331
12F
  5
12F
331
E7
  5
E7
331
D6
  5
D6
331
C5
  5
C5
331
9C
  5
9C
331
16C
  5
16C
331
17D
  5
17D
331
1AF
  5
1B1
331
19F
  5
19F
331
18E
  5
18E
331
B6
  5
B6
331
95
  5
95
331
74
  5
74
331
1B9
  5
27A
331
242
  5
2C8
331
2C2
  5
276
331
1C3
  5
2C4
331
253
  5
2D9
331
2D3
  5
240
331
1A0
  5
1A0
331
264
  5
2A3
331
EC
  5
EC
331
FD
  5
FD
331
10E
  5
10E
331
2D8
  5
245
331
2E9
  5
2F0
331
278
  5
2B7
331
289
  5
281
331
29A
  5
292
331
2AB
  5
25D
331
16D
  5
16D
331
152
  5
152
331
141
  5
141
331
130
  5
130
331
11F
  5
11F
331
D7
  5
D7
331
C6
  5
C6
331
9D
  5
9D
331
17E
  5
17E
331
18F
  5
18F
331
B7
  5
B7
331
96
  5
96
331
1BA
  5
27B
331
243
  5
2C9
331
2C3
  5
277
331
254
  5
2DA
331
2D4
  5
241
331
1A1
  5
1A1
331
190
  5
190
331
265
  5
2A4
331
ED
  5
ED
331
B8
  5
B8
331
FE
  5
FE
331
10F
  5
10F
331
268
  5
2A7
331
2D9
  5
246
331
2EA
  5
2F1
331
279
  5
2B8
331
28A
  5
282
331
29B
  5
293
331
2AC
  5
25E
331
17F
  5
17F
331
16E
  5
16E
331
153
  5
153
331
142
  5
142
331
131
  5
131
331
120
  5
120
331
D8
  5
D8
331
C7
  5
C7
331
9E
  5
9E
331
180
  5
180
331
244
  5
2CA
331
2C4
  5
278
331
255
  5
2DB
331
2D5
  5
242
331
1A2
  5
1A2
331
191
  5
191
331
266
  5
2A5
331
EE
  5
EE
331
B9
  5
B9
331
A0
  5
A0
331
FF
  5
FF
331
110
  5
110
331
269
  5
2A8
331
2DA
  5
247
331
2EB
  5
2F2
331
27A
  5
2B9
331
28B
  5
283
331
29C
  5
294
331
2AD
  5
25F
331
16F
  5
16F
331
154
  5
154
331
143
  5
143
331
132
  5
132
331
121
  5
121
331
D9
  5
D9
331
C8
  5
C8
331
9F
  5
9F
331
170
  5
170
331
181
  5
181
331
245
  5
2CB
331
2C5
  5
253
331
256
  5
2DC
331
2D6
  5
243
331
1A3
  5
1A3
331
192
  5
192
331
267
  5
2A6
331
EF
  5
EF
331
BA
  5
BA
331
100
  5
100
331
111
  5
111
331
26A
  5
2A9
331
2DB
  5
248
331
2EC
  5
2F3
331
27B
  5
2BA
331
28C
  5
284
331
29D
  5
295
331
2AE
  5
262
331
155
  5
155
331
144
  5
144
331
133
  5
133
331
122
  5
122
331
DA
  5
DA
331
C9
  5
C9
331
A8
  5
A8
331
A1
  5
A1
331
171
  5
171
331
160
  5
160
331
182
  5
182
331
1BD
  5
29E
331
246
  5
2CC
331
2C6
  5
1B6
331
257
  5
2DD
331
2D7
  5
244
331
1A4
  5
1A4
331
193
  5
193
331
BB
  5
BB
331
A2
  5
A2
331
F0
  5
F0
331
101
  5
101
331
112
  5
112
331
26B
  5
2AA
331
2DC
  5
249
331
2ED
  5
2F4
331
27C
  5
2BB
331
28D
  5
285
331
29E
  5
296
331
2AF
  5
263
331
156
  5
156
331
145
  5
145
331
134
  5
134
331
123
  5
123
331
DB
  5
DB
331
CA
  5
CA
331
A9
  5
A9
331
88
  5
88
331
2B0
  5
264
331
1BE
  5
29F
331
258
  5
2DE
331
247
  5
2CD
331
2C7
  5
1B8
331
1A5
  5
1A5
331
194
  5
194
331
183
  5
183
331
172
  5
172
331
161
  5
161
331
F1
  5
F1
331
102
  5
102
331
113
  5
113
331
26C
  5
2AB
331
2DD
  5
24A
331
2EE
  5
2F5
331
27D
  5
2BC
331
28E
  5
286
331
29F
  5
297
331
157
  5
157
331
146
  5
146
331
135
  5
135
331
124
  5
124
331
DC
  5
DC
331
CB
  5
CB
331
AA
  5
AA
331
89
  5
89
331
2A0
  5
298
331
2B1
  5
265
331
173
  5
173
331
162
  5
162
331
158
  5
158
331
184
  5
184
331
1BF
  5
2A0
331
259
  5
2DF
331
248
  5
2CE
331
2C8
  5
1B9
331
1A6
  5
1A6
331
195
  5
195
331
BD
  5
BD
331
A4
  5
A4
331
F2
  5
F2
331
103
  5
103
331
114
  5
114
331
26D
  5
2AC
331
2DE
  5
24B
331
2EF
  5
2E8
331
27E
  5
2BD
331
28F
  5
287
331
147
  5
147
331
136
  5
136
331
125
  5
125
331
DD
  5
DD
331
CC
  5
CC
331
AB
  5
AB
331
8A
  5
8A
331
2F0
  5
2E9
331
290
  5
288
331
2A1
  5
299
331
2B2
  5
266
331
174
  5
174
331
163
  5
163
331
159
  5
159
331
148
  5
148
331
185
  5
185
331
2B8
  5
26C
331
25A
  5
2E0
331
249
  5
2CF
331
2C9
  5
1BA
331
1A7
  5
1A7
331
196
  5
196
331
BE
  5
BE
331
A5
  5
A5
331
F3
  5
F3
331
104
  5
104
331
115
  5
115
331
26E
  5
2AD
331
2DF
  5
24C
331
27F
  5
2BE
331
137
  5
137
331
126
  5
126
331
DE
  5
DE
331
CD
  5
CD
331
AC
  5
AC
331
8B
  5
8B
  0
ACDBDETAILVIEWSTYLE
  5
239
102
{ACAD_XDICTIONARY
360
360
102
}
102
{ACAD_REACTORS
330
238
102
}
330
238
100
AcDbModelDocViewStyle
 70
     0
  3
Metric50
290
     0
100
AcDbDetailViewStyle
 70
     0
 71
     0
 90
        3
 71
     1
340
11
 40
5.0
340
0
 40
5.0
300

 40
0.0
280
     1
 71
     2
340
16
 90
       25
 71
     3
340
11
 40
5.0
 90
        0
 40
15.0
 90
        1
300
%<\AcVar ViewDetailId>% (%<\AcVar ViewScale \f "%sn">%)
 71
     4
340
16
 90
       25
340
16
 90
       25
280
     0
  0
GROUP
  5
1DB
102
{ACAD_REACTORS
330
D
102
}
330
D
100
AcDbGroup
300

 70
     0
 71
     1
340
DF
340
E0
  0
GROUP
  5
1DC
102
{ACAD_REACTORS
330
D
102
}
330
D
100
AcDbGroup
300

 70
     0
 71
     1
340
E1
340
E2
  0
GROUP
  5
1DD
102
{ACAD_REACTORS
330
D
102
}
330
D
100
AcDbGroup
300

 70
     0
 71
     1
340
E3
340
E4
  0
GROUP
  5
1DE
102
{ACAD_REACTORS
330
D
102
}
330
D
100
AcDbGroup
300

 70
     0
 71
     1
340
E9
340
EA
340
EB
  0
GROUP
  5
1DF
102
{ACAD_REACTORS
330
D
102
}
330
D
100
AcDbGroup
300

 70
     0
 71
     1
340
F2
340
F3
340
F4
  0
LAYOUT
  5
1E
102
{ACAD_XDICTIONARY
360
326
102
}
102
{ACAD_REACTORS
330
1A
102
}
330
1A
100
AcDbPlotSettings
  1

  2
none_device
  4

  6

 40
0.0
 41
0.0
 42
0.0
 43
0.0
 44
0.0
 45
0.0
 46
0.0
 47
0.0
 48
0.0
 49
0.0
140
0.0
141
0.0
142
1.0
143
1.0
 70
   688
 72
     0
 73
     0
 74
     5
  7

 75
    16
147
1.0
148
0.0
149
0.0
100
AcDbLayout
  1
Layout1
 70
     1
 71
     1
 10
-0.5
 20
-0.5
 11
5.0
 21
5.0
 12
0.0
 22
0.0
 32
0.0
 14
-0.5
 24
-0.5
 34
-0.5
 15
5.0
 25
5.0
 35
5.0
146
0.0
 13
0.0
 23
0.0
 33
0.0
 16
1.0
 26
0.0
 36
0.0
 17
0.0
 27
1.0
 37
0.0
 76
     0
330
1B
  0
LAYOUT
  5
26
102
{ACAD_XDICTIONARY
360
32A
102
}
102
{ACAD_REACTORS
330
1A
102
}
330
1A
100
AcDbPlotSettings
  1

  2
none_device
  4

  6

 40
0.0
 41
0.0
 42
0.0
 43
0.0
 44
0.0
 45
0.0
 46
0.0
 47
0.0
 48
0.0
 49
0.0
140
0.0
141
0.0
142
1.0
143
1.0
 70
   688
 72
     0
 73
     0
 74
     5
  7

 75
    16
147
1.0
148
0.0
149
0.0
100
AcDbLayout
  1
Layout2
 70
     1
 71
     2
 10
0.0
 20
0.0
 11
0.0
 21
0.0
 12
0.0
 22
0.0
 32
0.0
 14
0.0
 24
0.0
 34
0.0
 15
0.0
 25
0.0
 35
0.0
146
0.0
 13
0.0
 23
0.0
 33
0.0
 16
1.0
 26
0.0
 36
0.0
 17
0.0
 27
1.0
 37
0.0
 76
     0
330
23
  0
LAYOUT
  5
22
102
{ACAD_XDICTIONARY
360
328
102
}
102
{ACAD_REACTORS
330
1A
102
}
330
1A
100
AcDbPlotSettings
  1

  2
none_device
  4
Letter_(8.50_x_11.00_Inches)
  6

 40
6.349999999999999
 41
6.349999999999999
 42
6.350005
 43
6.350005
 44
215.9
 45
279.4
 46
0.0
 47
0.0
 48
0.0
 49
0.0
140
0.0
141
0.0
142
1.0
143
1.0
 70
  1712
 72
     0
 73
     0
 74
     0
  7

 75
     0
147
1.0
148
0.0
149
0.0
100
AcDbLayout
  1
Model
 70
     1
 71
     0
 10
-0.5
 20
-0.5
 11
5.0
 21
5.0
 12
0.0
 22
0.0
 32
0.0
 14
-0.5
 24
-0.5
 34
-0.5
 15
5.0
 25
5.0
 35
5.0
146
0.0
 13
0.0
 23
0.0
 33
0.0
 16
1.0
 26
0.0
 36
0.0
 17
0.0
 27
1.0
 37
0.0
 76
     0
330
1F
331
1E0
  0
MATERIAL
  5
45
102
{ACAD_XDICTIONARY
360
22C
102
}
102
{ACAD_REACTORS
330
43
102
}
330
43
100
AcDbMaterial
  1
ByBlock
  0
MATERIAL
  5
44
102
{ACAD_XDICTIONARY
360
22A
102
}
102
{ACAD_REACTORS
330
43
102
}
330
43
100
AcDbMaterial
  1
ByLayer
  0
MATERIAL
  5
46
102
{ACAD_XDICTIONARY
360
22E
102
}
102
{ACAD_REACTORS
330
43
102
}
330
43
100
AcDbMaterial
  1
Global
  0
MLEADERSTYLE
  5
235
102
{ACAD_REACTORS
330
1F3
102
}
330
1F3
100
AcDbMLeaderStyle
170
     2
171
     1
172
     0
 90
        2
 40
0.0
 41
0.0
173
     1
 91
-1056964608
340
14
 92
       -2
290
     1
 42
2.0
291
     1
 43
0.36
  3
Standard
 44
4.0
300

342
11
174
     1
178
     6
175
     1
176
     0
 93
-1056964608
 45
4.0
292
     0
297
     0
 46
4.0
 94
-1056964608
 47
1.0
 49
1.0
140
1.0
293
     1
141
0.0
294
     1
177
     0
142
1.0
295
     0
296
     0
143
0.125
1001
ACAD_MLEADERVER
1070
     2
  0
MLINESTYLE
  5
18
102
{ACAD_REACTORS
330
17
102
}
330
17
100
AcDbMlineStyle
  2
STANDARD
 70
     0
  3

 62
   256
 51
90.0
 52
90.0
 71
     2
 49
0.5
 62
   256
  6
BYLAYER
 49
-0.5
 62
   256
  6
BYLAYER
  0
ACDBPLACEHOLDER
  5
F
102
{ACAD_REACTORS
330
E
102
}
330
E
  0
SCALE
  5
48
102
{ACAD_REACTORS
330
47
102
}
330
47
100
AcDbScale
 70
     0
300
1:1
140
1.0
141
1.0
290
     1
  0
SCALE
  5
49
102
{ACAD_REACTORS
330
47
102
}
330
47
100
AcDbScale
 70
     0
300
1:2
140
1.0
141
2.0
290
     0
  0
SCALE
  5
4A
102
{ACAD_REACTORS
330
47
102
}
330
47
100
AcDbScale
 70
     0
300
1:4
140
1.0
141
4.0
290
     0
  0
SCALE
  5
4B
102
{ACAD_REACTORS
330
47
102
}
330
47
100
AcDbScale
 70
     0
300
1:5
140
1.0
141
5.0
290
     0
  0
SCALE
  5
4C
102
{ACAD_REACTORS
330
47
102
}
330
47
100
AcDbScale
 70
     0
300
1:8
140
1.0
141
8.0
290
     0
  0
SCALE
  5
4D
102
{ACAD_REACTORS
330
47
102
}
330
47
100
AcDbScale
 70
     0
300
1:10
140
1.0
141
10.0
290
     0
  0
SCALE
  5
4E
102
{ACAD_REACTORS
330
47
102
}
330
47
100
AcDbScale
 70
     0
300
1:16
140
1.0
141
16.0
290
     0
  0
SCALE
  5
4F
102
{ACAD_REACTORS
330
47
102
}
330
47
100
AcDbScale
 70
     0
300
1:20
140
1.0
141
20.0
290
     0
  0
SCALE
  5
50
102
{ACAD_REACTORS
330
47
102
}
330
47
100
AcDbScale
 70
     0
300
1:30
140
1.0
141
30.0
290
     0
  0
SCALE
  5
51
102
{ACAD_REACTORS
330
47
102
}
330
47
100
AcDbScale
 70
     0
300
1:40
140
1.0
141
40.0
290
     0
  0
SCALE
  5
52
102
{ACAD_REACTORS
330
47
102
}
330
47
100
AcDbScale
 70
     0
300
1:50
140
1.0
141
50.0
290
     0
  0
SCALE
  5
53
102
{ACAD_REACTORS
330
47
102
}
330
47
100
AcDbScale
 70
     0
300
1:100
140
1.0
141
100.0
290
     0
  0
SCALE
  5
54
102
{ACAD_REACTORS
330
47
102
}
330
47
100
AcDbScale
 70
     0
300
2:1
140
2.0
141
1.0
290
     0
  0
SCALE
  5
55
102
{ACAD_REACTORS
330
47
102
}
330
47
100
AcDbScale
 70
     0
300
4:1
140
4.0
141
1.0
290
     0
  0
SCALE
  5
56
102
{ACAD_REACTORS
330
47
102
}
330
47
100
AcDbScale
 70
     0
300
8:1
140
8.0
141
1.0
290
     0
  0
SCALE
  5
57
102
{ACAD_REACTORS
330
47
102
}
330
47
100
AcDbScale
 70
     0
300
10:1
140
10.0
141
1.0
290
     0
  0
SCALE
  5
58
102
{ACAD_REACTORS
330
47
102
}
330
47
100
AcDbScale
 70
     0
300
100:1
140
100.0
141
1.0
290
     0
  0
SCALE
  5
59
102
{ACAD_REACTORS
330
47
102
}
330
47
100
AcDbScale
 70
     0
300
1/128" = 1'-0"
140
0.007812
141
12.0
290
     0
  0
SCALE
  5
5A
102
{ACAD_REACTORS
330
47
102
}
330
47
100
AcDbScale
 70
     0
300
1/64" = 1'-0"
140
0.015625
141
12.0
290
     0
  0
SCALE
  5
5B
102
{ACAD_REACTORS
330
47
102
}
330
47
100
AcDbScale
 70
     0
300
1/32" = 1'-0"
140
0.03125
141
12.0
290
     0
  0
SCALE
  5
5C
102
{ACAD_REACTORS
330
47
102
}
330
47
100
AcDbScale
 70
     0
300
1/16" = 1'-0"
140
0.0625
141
12.0
290
     0
  0
SCALE
  5
5D
102
{ACAD_REACTORS
330
47
102
}
330
47
100
AcDbScale
 70
     0
300
3/32" = 1'-0"
140
0.09375
141
12.0
290
     0
  0
SCALE
  5
5E
102
{ACAD_REACTORS
330
47
102
}
330
47
100
AcDbScale
 70
     0
300
1/8" = 1'-0"
140
0.125
141
12.0
290
     0
  0
SCALE
  5
5F
102
{ACAD_REACTORS
330
47
102
}
330
47
100
AcDbScale
 70
     0
300
3/16" = 1'-0"
140
0.1875
141
12.0
290
     0
  0
SCALE
  5
60
102
{ACAD_REACTORS
330
47
102
}
330
47
100
AcDbScale
 70
     0
300
1/4" = 1'-0"
140
0.25
141
12.0
290
     0
  0
SCALE
  5
61
102
{ACAD_REACTORS
330
47
102
}
330
47
100
AcDbScale
 70
     0
300
3/8" = 1'-0"
140
0.375
141
12.0
290
     0
  0
SCALE
  5
62
102
{ACAD_REACTORS
330
47
102
}
330
47
100
AcDbScale
 70
     0
300
1/2" = 1'-0"
140
0.5
141
12.0
290
     0
  0
SCALE
  5
63
102
{ACAD_REACTORS
330
47
102
}
330
47
100
AcDbScale
 70
     0
300
3/4" = 1'-0"
140
0.75
141
12.0
290
     0
  0
SCALE
  5
64
102
{ACAD_REACTORS
330
47
102
}
330
47
100
AcDbScale
 70
     0
300
1" = 1'-0"
140
1.0
141
12.0
290
     0
  0
SCALE
  5
65
102
{ACAD_REACTORS
330
47
102
}
330
47
100
AcDbScale
 70
     0
300
1-1/2" = 1'-0"
140
1.5
141
12.0
290
     0
  0
SCALE
  5
66
102
{ACAD_REACTORS
330
47
102
}
330
47
100
AcDbScale
 70
     0
300
3" = 1'-0"
140
3.0
141
12.0
290
     0
  0
SCALE
  5
67
102
{ACAD_REACTORS
330
47
102
}
330
47
100
AcDbScale
 70
     0
300
6" = 1'-0"
140
6.0
141
12.0
290
     0
  0
SCALE
  5
68
102
{ACAD_REACTORS
330
47
102
}
330
47
100
AcDbScale
 70
     0
300
1'-0" = 1'-0"
140
12.0
141
12.0
290
     0
  0
ACDBSECTIONVIEWSTYLE
  5
237
102
{ACAD_XDICTIONARY
360
35E
102
}
102
{ACAD_REACTORS
330
236
102
}
330
236
100
AcDbModelDocViewStyle
 70
     0
  3
Metric50
290
     0
100
AcDbSectionViewStyle
 70
     0
 71
     0
 90
      102
 71
     1
340
11
 40
5.0
340
0
340
0
 40
5.0
300
I, O, Q, S, X, Z
 40
10.0
 90
        0
 40
2.5
 90
        0
 71
     2
340
16
 90
       25
340
16
 90
       50
 40
5.0
 40
2.5
 40
5.0
 71
     3
340
11
 40
5.0
 90
        0
 40
15.0
 90
        1
300
%<\AcVar ViewSectionStartId>%-%<\AcVar ViewSectionEndId>% (%<\AcVar ViewScale \f "%sn">%)
 71
     4
300
ANSI31
 40
1.0
 90
        0
290
     0
290
     0
 90
        6
 40
0.0
 40
1.570796326794896
 40
0.2617993877991494
 40
1.308996938995747
 40
-0.2617993877991494
 40
1.832595714594046
  0
TABLESTYLE
  5
234
102
{ACAD_XDICTIONARY
360
322
102
}
102
{ACAD_REACTORS
330
233
102
}
330
233
100
AcDbTableStyle
  3
Standard
 70
     0
 71
     0
 40
1.5
 41
1.5
280
     0
281
     0
  7
Standard
140
4.5
170
     2
 62
     0
 63
     7
283
     0
274
    -2
284
     1
 64
     0
275
    -2
285
     1
 65
     0
276
    -2
286
     1
 66
     0
277
    -2
287
     1
 67
     0
278
    -2
288
     1
 68
     0
279
    -2
289
     1
 69
     0
  7
Standard
140
6.0
170
     5
 62
     0
 63
     7
283
     0
274
    -2
284
     1
 64
     0
275
    -2
285
     1
 65
     0
276
    -2
286
     1
 66
     0
277
    -2
287
     1
 67
     0
278
    -2
288
     1
 68
     0
279
    -2
289
     1
 69
     0
  7
Standard
140
4.5
170
     5
 62
     0
 63
     7
283
     0
274
    -2
284
     1
 64
     0
275
    -2
285
     1
 65
     0
276
    -2
286
     1
 66
     0
277
    -2
287
     1
 67
     0
278
    -2
288
     1
 68
     0
279
    -2
289
     1
 69
     0
  0
VISUALSTYLE
  5
2F
102
{ACAD_XDICTIONARY
360
334
102
}
102
{ACAD_REACTORS
330
2A
102
}
330
2A
100
AcDbVisualStyle
  2

 70
     4
 71
     0
 72
     2
 73
     0
 90
        0
 40
-0.6
 41
-30.0
 62
     5
 63
     7
 74
     1
 91
        4
 64
     7
 65
   257
 75
     1
175
     1
 42
1.0
 92
        0
 66
   257
 43
1.0
 76
     1
 77
     6
 78
     2
 67
     7
 79
     5
170
     0
171
     0
290
     0
174
     0
 93
        1
 44
0.0
173
     0
291
     0
 45
0.0
1001
ACAD
1000
AcDbSavedByObjectVersion
1070
     0
  0
VISUALSTYLE
  5
32
102
{ACAD_XDICTIONARY
360
33A
102
}
102
{ACAD_REACTORS
330
2A
102
}
330
2A
100
AcDbVisualStyle
  2

 70
     7
 71
     1
 72
     0
 73
     1
 90
        0
 40
-0.6
 41
-30.0
 62
     5
 63
     7
 74
     0
 91
        4
 64
     7
 65
   257
 75
     1
175
     1
 42
1.0
 92
        8
 66
     7
 43
1.0
 76
     1
 77
     6
 78
     2
 67
     7
 79
     5
170
     0
171
     0
290
     0
174
     0
 93
        1
 44
0.0
173
     0
291
     1
 45
0.0
1001
ACAD
1000
AcDbSavedByObjectVersion
1070
     0
  0
VISUALSTYLE
  5
36
102
{ACAD_XDICTIONARY
360
342
102
}
102
{ACAD_REACTORS
330
2A
102
}
330
2A
100
AcDbVisualStyle
  2

 70
    12
 71
     2
 72
     2
 73
     0
 90
        0
 40
-0.6
 41
-30.0
 62
     5
 63
     7
 74
     1
 91
        4
 64
     7
 65
   257
 75
     1
175
     1
 42
1.0
 92
        8
 66
     7
 43
1.0
 76
     1
 77
     6
 78
     2
 67
     7
 79
     5
170
     0
171
     0
290
     0
174
     0
 93
        1
 44
50.0
173
     0
291
     1
 45
0.0
1001
ACAD
1000
AcDbSavedByObjectVersion
1070
     0
  0
VISUALSTYLE
  5
3A
102
{ACAD_XDICTIONARY
360
34A
102
}
102
{ACAD_REACTORS
330
2A
102
}
330
2A
100
AcDbVisualStyle
  2

 70
    16
 71
     2
 72
     2
 73
     3
 90
        0
 40
-0.6
 41
-30.0
 62
     5
 63
     8
 74
     1
 91
        4
 64
     7
 65
   257
 75
     1
175
     1
 42
1.0
 92
        8
 66
     8
 43
1.0
 76
     1
 77
     6
 78
     2
 67
     7
 79
     5
170
     0
171
     0
290
     0
174
     0
 93
        1
 44
0.0
173
     0
291
     1
 45
0.0
1001
ACAD
1000
AcDbSavedByObjectVersion
1070
     0
  0
VISUALSTYLE
  5
34
102
{ACAD_XDICTIONARY
360
33E
102
}
102
{ACAD_REACTORS
330
2A
102
}
330
2A
100
AcDbVisualStyle
  2

 70
     9
 71
     3
 72
     2
 73
     0
 90
        0
 40
-0.6
 41
-30.0
 62
     5
 63
     7
 74
     2
 91
        2
 64
     7
 65
   257
 75
     1
175
     1
 42
179.0
 92
        8
 66
     7
 43
1.0
 76
     1
 77
     6
 78
     2
 67
     7
 79
     3
170
     0
171
     0
290
     0
174
     0
 93
        1
 44
0.0
173
     0
291
     0
 45
0.0
1001
ACAD
1000
AcDbSavedByObjectVersion
1070
     0
  0
VISUALSTYLE
  5
35
102
{ACAD_XDICTIONARY
360
340
102
}
102
{ACAD_REACTORS
330
2A
102
}
330
2A
100
AcDbVisualStyle
  2

 70
    11
 71
     2
 72
     2
 73
     0
 90
        0
 40
-0.6
 41
-30.0
 62
     5
 63
     7
 74
     1
 91
        4
 64
     7
 65
   257
 75
     1
175
     1
 42
1.0
 92
        8
 66
     7
 43
1.0
 76
     1
 77
     6
 78
     2
 67
     7
 79
     5
170
     0
171
     0
290
     0
174
     0
 93
        1
 44
-50.0
173
     0
291
     1
 45
0.0
1001
ACAD
1000
AcDbSavedByObjectVersion
1070
     0
  0
VISUALSTYLE
  5
3D
102
{ACAD_XDICTIONARY
360
350
102
}
102
{ACAD_REACTORS
330
2A
102
}
330
2A
100
AcDbVisualStyle
  2

 70
    22
 71
     2
 72
     2
 73
     0
 90
        0
 40
-0.6
 41
-30.0
 62
     5
 63
     7
 74
     1
 91
        4
 64
     7
 65
   257
 75
     1
175
     1
 42
1.0
 92
        8
 66
     7
 43
1.0
 76
     1
 77
     6
 78
     2
 67
     7
 79
     5
170
     0
171
     0
290
     0
174
     0
 93
        1
 44
0.0
173
     0
291
     1
 45
0.0
1001
ACAD
1000
AcDbSavedByObjectVersion
1070
     0
  0
VISUALSTYLE
  5
39
102
{ACAD_XDICTIONARY
360
348
102
}
102
{ACAD_REACTORS
330
2A
102
}
330
2A
100
AcDbVisualStyle
  2

 70
    15
 71
     2
 72
     2
 73
     0
 90
        0
 40
-0.6
 41
-30.0
 62
     5
 63
     7
 74
     1
 91
        4
 64
     7
 65
   257
 75
     1
175
     1
 42
1.0
 92
        8
 66
     7
 43
1.0
 76
     1
 77
     6
 78
     2
 67
     7
 79
     5
170
     0
171
     0
290
     0
174
     0
 93
        1
 44
0.0
173
     0
291
     1
 45
0.0
1001
ACAD
1000
AcDbSavedByObjectVersion
1070
     0
  0
VISUALSTYLE
  5
2B
102
{ACAD_XDICTIONARY
360
32C
102
}
102
{ACAD_REACTORS
330
2A
102
}
330
2A
100
AcDbVisualStyle
  2

 70
     0
 71
     2
 72
     1
 73
     1
 90
        2
 40
-0.6
 41
30.0
 62
     5
 63
     7
 74
     0
 91
        0
 64
     7
 65
   257
 75
     1
175
     1
 42
1.0
 92
        8
 66
     7
 43
1.0
 76
     1
 77
     6
 78
     2
 67
     7
 79
     5
170
     0
171
     0
290
     0
174
     0
 93
       13
 44
0.0
173
     0
291
     1
 45
0.0
1001
ACAD
1000
AcDbSavedByObjectVersion
1070
     0
  0
VISUALSTYLE
  5
2C
102
{ACAD_XDICTIONARY
360
32E
102
}
102
{ACAD_REACTORS
330
2A
102
}
330
2A
100
AcDbVisualStyle
  2

 70
     1
 71
     2
 72
     1
 73
     1
 90
        2
 40
-0.6
 41
30.0
 62
     5
 63
     7
 74
     1
 91
        0
 64
     7
 65
   257
 75
     1
175
     1
 42
1.0
 92
        0
 66
   257
 43
1.0
 76
     1
 77
     6
 78
     2
 67
     7
 79
     5
170
     0
171
     0
290
     0
174
     0
 93
       13
 44
0.0
173
     0
291
     1
 45
0.0
1001
ACAD
1000
AcDbSavedByObjectVersion
1070
     0
  0
VISUALSTYLE
  5
2D
102
{ACAD_XDICTIONARY
360
330
102
}
102
{ACAD_REACTORS
330
2A
102
}
330
2A
100
AcDbVisualStyle
  2

 70
     2
 71
     2
 72
     2
 73
     1
 90
        2
 40
-0.6
 41
30.0
 62
     5
 63
     7
 74
     0
 91
        0
 64
     7
 65
   257
 75
     1
175
     1
 42
1.0
 92
        0
 66
     7
 43
1.0
 76
     1
 77
     6
 78
     2
 67
     7
 79
     5
170
     0
171
     0
290
     0
174
     0
 93
       13
 44
0.0
173
     0
291
     1
 45
0.0
1001
ACAD
1000
AcDbSavedByObjectVersion
1070
     0
  0
VISUALSTYLE
  5
2E
102
{ACAD_XDICTIONARY
360
332
102
}
102
{ACAD_REACTORS
330
2A
102
}
330
2A
100
AcDbVisualStyle
  2

 70
     3
 71
     2
 72
     2
 73
     1
 90
        2
 40
-0.6
 41
30.0
 62
     5
 63
     7
 74
     1
 91
        0
 64
     7
 65
   257
 75
     1
175
     1
 42
1.0
 92
        0
 66
   257
 43
1.0
 76
     1
 77
     6
 78
     2
 67
     7
 79
     5
170
     0
171
     0
290
     0
174
     0
 93
       13
 44
0.0
173
     0
291
     1
 45
0.0
1001
ACAD
1000
AcDbSavedByObjectVersion
1070
     0
  0
VISUALSTYLE
  5
31
102
{ACAD_XDICTIONARY
360
338
102
}
102
{ACAD_REACTORS
330
2A
102
}
330
2A
100
AcDbVisualStyle
  2

 70
     6
 71
     1
 72
     2
 73
     2
 90
        0
 40
-0.6
 41
-30.0
 62
     5
 63
     7
 74
     2
 91
        2
 64
     7
 65
   257
 75
     2
175
     1
 42
40.0
 92
        0
 66
   257
 43
1.0
 76
     1
 77
     6
 78
     2
 67
     7
 79
     3
170
     0
171
     0
290
     0
174
     0
 93
        1
 44
0.0
173
     0
291
     0
 45
0.0
1001
ACAD
1000
AcDbSavedByObjectVersion
1070
     0
  0
VISUALSTYLE
  5
3B
102
{ACAD_XDICTIONARY
360
34C
102
}
102
{ACAD_REACTORS
330
2A
102
}
330
2A
100
AcDbVisualStyle
  2

 70
    20
 71
     2
 72
     2
 73
     0
 90
        0
 40
-0.6
 41
-30.0
 62
     5
 63
     7
 74
     1
 91
        4
 64
     7
 65
   257
 75
     1
175
     1
 42
1.0
 92
       10
 66
     7
 43
1.0
 76
     1
 77
     6
 78
     2
 67
     7
 79
     5
170
     0
171
     0
290
     0
174
     0
 93
        1
 44
0.0
173
     0
291
     1
 45
0.0
1001
ACAD
1000
AcDbSavedByObjectVersion
1070
     0
  0
VISUALSTYLE
  5
38
102
{ACAD_XDICTIONARY
360
346
102
}
102
{ACAD_REACTORS
330
2A
102
}
330
2A
100
AcDbVisualStyle
  2

 70
    14
 71
     2
 72
     2
 73
     0
 90
        0
 40
-0.6
 41
-30.0
 62
     5
 63
     7
 74
     1
 91
        4
 64
     7
 65
   257
 75
     7
175
     7
 42
1.0
 92
        8
 66
     7
 43
1.0
 76
     1
 77
     6
 78
     2
 67
     7
 79
     5
170
     0
171
     0
290
     0
174
     0
 93
        1
 44
0.0
173
     0
291
     1
 45
0.0
1001
ACAD
1000
AcDbSavedByObjectVersion
1070
     0
  0
VISUALSTYLE
  5
3C
102
{ACAD_XDICTIONARY
360
34E
102
}
102
{ACAD_REACTORS
330
2A
102
}
330
2A
100
AcDbVisualStyle
  2

 70
    21
 71
     2
 72
     2
 73
     0
 90
        0
 40
-0.6
 41
-30.0
 62
     5
 63
     7
 74
     1
 91
        4
 64
     7
 65
   257
 75
     1
175
     1
 42
1.0
 92
        9
 66
     7
 43
1.0
 76
     1
 77
     6
 78
     2
 67
     7
 79
     5
170
     0
171
     0
290
     0
174
     0
 93
        1
 44
0.0
173
     0
291
     1
 45
0.0
1001
ACAD
1000
AcDbSavedByObjectVersion
1070
     0
  0
VISUALSTYLE
  5
33
102
{ACAD_XDICTIONARY
360
33C
102
}
102
{ACAD_REACTORS
330
2A
102
}
330
2A
100
AcDbVisualStyle
  2

 70
     8
 71
     2
 72
     3
 73
     0
 90
        2
 40
-0.6
 41
30.0
 62
     5
 63
     7
 74
     0
 91
        0
 64
     7
 65
   257
 75
     1
175
     1
 42
1.0
 92
        8
 66
   257
 43
1.0
 76
     1
 77
     6
 78
     2
 67
     7
 79
     3
170
     0
171
     0
290
     0
174
     0
 93
       13
 44
0.0
173
     0
291
     0
 45
0.0
1001
ACAD
1000
AcDbSavedByObjectVersion
1070
     0
  0
VISUALSTYLE
  5
42
102
{ACAD_XDICTIONARY
360
35A
102
}
102
{ACAD_REACTORS
330
2A
102
}
330
2A
100
AcDbVisualStyle
  2

 70
    27
 71
     2
 72
     2
 73
     1
 90
        2
 40
-0.6
 41
30.0
 62
     5
 63
     7
 74
     0
 91
        4
 64
     7
 65
   257
 75
     1
175
     1
 42
1.0
 92
        8
 66
   257
 43
1.0
 76
     1
 77
     6
 78
     2
 67
     8
 79
     3
170
     0
171
     0
290
     0
174
     0
 93
        5
 44
0.0
173
     0
291
     0
 45
0.0
1001
ACAD
1000
AcDbSavedByObjectVersion
1070
     0
  0
VISUALSTYLE
  5
41
102
{ACAD_XDICTIONARY
360
358
102
}
102
{ACAD_REACTORS
330
2A
102
}
330
2A
100
AcDbVisualStyle
  2

 70
    26
 71
     2
 72
     2
 73
     1
 90
        2
 40
-0.6
 41
30.0
 62
     5
 63
     7
 74
     1
 91
       10
 64
     7
 65
   257
 75
     2
175
     1
 42
1.0
 92
        8
 66
   257
 43
1.0
 76
     1
 77
     6
 78
     2
 67
     7
 79
     3
170
     0
171
     0
290
     0
174
     0
 93
        5
 44
0.0
173
     0
291
     0
 45
0.0
1001
ACAD
1000
AcDbSavedByObjectVersion
1070
     0
  0
VISUALSTYLE
  5
3E
102
{ACAD_XDICTIONARY
360
352
102
}
102
{ACAD_REACTORS
330
2A
102
}
330
2A
100
AcDbVisualStyle
  2

 70
    23
 71
     2
 72
     2
 73
     3
 90
        0
 40
-0.6
 41
-30.0
 62
     5
 63
     7
 74
     2
 91
        2
 64
     7
 65
     7
 75
     1
175
     1
 42
40.0
 92
        8
 66
     7
 43
1.0
 76
     1
 77
     6
 78
     2
 67
     7
 79
     3
170
     0
171
     0
290
     0
174
     0
 93
        1
 44
0.0
173
     0
291
     0
 45
0.0
1001
ACAD
1000
AcDbSavedByObjectVersion
1070
     0
  0
VISUALSTYLE
  5
3F
102
{ACAD_XDICTIONARY
360
354
102
}
102
{ACAD_REACTORS
330
2A
102
}
330
2A
100
AcDbVisualStyle
  2

 70
    24
 71
     1
 72
     2
 73
     2
 90
        0
 40
-0.6
 41
-30.0
 62
     5
 63
     7
 74
     2
 91
        2
 64
     7
 65
     7
 75
     1
175
     1
 42
40.0
 92
       11
 66
     7
 43
1.0
 76
     1
 77
     6
 78
     2
 67
     7
 79
     6
170
     0
171
     0
290
     0
174
     0
 93
        1
 44
0.0
173
     0
291
     0
 45
0.0
1001
ACAD
1000
AcDbSavedByObjectVersion
1070
     0
  0
VISUALSTYLE
  5
37
102
{ACAD_XDICTIONARY
360
344
102
}
102
{ACAD_REACTORS
330
2A
102
}
330
2A
100
AcDbVisualStyle
  2

 70
    13
 71
     2
 72
     2
 73
     0
 90
        0
 40
-0.6
 41
-30.0
 62
     5
 63
     7
 74
     1
 91
        4
 64
     7
 65
   257
 75
     1
175
     1
 42
1.0
 92
       12
 66
     7
 43
1.0
 76
     1
 77
     6
 78
     2
 67
     7
 79
     5
170
     0
171
     0
290
     0
174
     0
 93
        1
 44
0.0
173
     0
291
     1
 45
0.0
1001
ACAD
1000
AcDbSavedByObjectVersion
1070
     0
  0
VISUALSTYLE
  5
30
102
{ACAD_XDICTIONARY
360
336
102
}
102
{ACAD_REACTORS
330
2A
102
}
330
2A
100
AcDbVisualStyle
  2

 70
     5
 71
     0
 72
     2
 73
     0
 90
        0
 40
-0.6
 41
-30.0
 62
     5
 63
     7
 74
     1
 91
        4
 64
     7
 65
   257
 75
     1
175
     1
 42
1.0
 92
        0
 66
   257
 43
1.0
 76
     1
 77
     6
 78
     2
 67
     7
 79
     3
170
     0
171
     0
290
     0
174
     0
 93
        1
 44
0.0
173
     0
291
     0
 45
0.0
1001
ACAD
1000
AcDbSavedByObjectVersion
1070
     0
  0
VISUALSTYLE
  5
40
102
{ACAD_XDICTIONARY
360
356
102
}
102
{ACAD_REACTORS
330
2A
102
}
330
2A
100
AcDbVisualStyle
  2

 70
    25
 71
     2
 72
     2
 73
     1
 90
        1
 40
0.5
 41
-30.0
 62
     5
 63
     7
 74
     1
 91
        0
 64
     7
 65
   257
 75
     1
175
     1
 42
1.0
 92
        8
 66
     7
 43
1.0
 76
     1
 77
     6
 78
     2
 67
     7
 79
     3
170
     0
171
     0
290
     0
174
     0
 93
       13
 44
0.0
173
     0
291
     0
 45
0.0
1001
ACAD
1000
AcDbSavedByObjectVersion
1070
     0
  0
DICTIONARYVAR
  5
1F8
102
{ACAD_REACTORS
330
1F1
102
}
330
1F1
100
DictionaryVariables
280
     0
  1
1:1
  0
DICTIONARYVAR
  5
31B
102
{ACAD_REACTORS
330
1F1
102
}
330
1F1
100
DictionaryVariables
280
     0
  1
STANDARD
  0
DICTIONARYVAR
  5
31A
102
{ACAD_REACTORS
330
1F1
102
}
330
1F1
100
DictionaryVariables
280
     0
  1
STANDARD
  0
DICTIONARYVAR
  5
31C
102
{ACAD_REACTORS
330
1F1
102
}
330
1F1
100
DictionaryVariables
280
     0
  1
Metric50
  0
DICTIONARYVAR
  5
31D
102
{ACAD_REACTORS
330
1F1
102
}
330
1F1
100
DictionaryVariables
280
     0
  1
Metric50
  0
DICTIONARYVAR
  5
1F6
102
{ACAD_REACTORS
330
1F1
102
}
330
1F1
100
DictionaryVariables
280
     0
  1
2
  0
DICTIONARYVAR
  5
1F7
102
{ACAD_REACTORS
330
1F1
102
}
330
1F1
100
DictionaryVariables
280
     0
  1
1
  0
DICTIONARYVAR
  5
31F
102
{ACAD_REACTORS
330
1F1
102
}
330
1F1
100
DictionaryVariables
280
     0
  1
0
  0
DICTIONARYVAR
  5
1F9
102
{ACAD_REACTORS
330
1F1
102
}
330
1F1
100
DictionaryVariables
280
     0
  1
1
  0
DICTIONARYVAR
  5
31E
102
{ACAD_REACTORS
330
1F1
102
}
330
1F1
100
DictionaryVariables
280
     0
  1
127
  0
DICTIONARYVAR
  5
320
102
{ACAD_REACTORS
330
1F1
102
}
330
1F1
100
DictionaryVariables
280
     0
  1
2
  0
DICTIONARY
  5
360
330
239
100
AcDbDictionary
280
     1
281
     1
  3
ACAD_XREC_ROUNDTRIP
360
361
  0
DICTIONARY
  5
326
330
1E
100
AcDbDictionary
280
     1
281
     1
  3
ACAD_XREC_ROUNDTRIP
360
327
  0
DICTIONARY
  5
32A
330
26
100
AcDbDictionary
280
     1
281
     1
  3
ACAD_XREC_ROUNDTRIP
360
32B
  0
DICTIONARY
  5
328
330
22
100
AcDbDictionary
280
     1
281
     1
  3
ACAD_XREC_ROUNDTRIP
360
329
  0
DICTIONARY
  5
22C
330
45
100
AcDbDictionary
280
     1
281
     1
  3
ACAD_XREC_ROUNDTRIP
360
22D
  0
DICTIONARY
  5
22A
330
44
100
AcDbDictionary
280
     1
281
     1
  3
ACAD_XREC_ROUNDTRIP
360
22B
  0
DICTIONARY
  5
22E
330
46
100
AcDbDictionary
280
     1
281
     1
  3
ACAD_XREC_ROUNDTRIP
360
22F
  0
DICTIONARY
  5
35E
330
237
100
AcDbDictionary
280
     1
281
     1
  3
ACAD_XREC_ROUNDTRIP
360
35F
  0
DICTIONARY
  5
322
330
234
100
AcDbDictionary
280
     1
281
     1
  3
ACAD_ROUNDTRIP_2008_TABLESTYLE_CELLSTYLEMAP
360
323
  3
ACAD_XREC_ROUNDTRIP
360
35C
  0
DICTIONARY
  5
334
330
2F
100
AcDbDictionary
280
     1
281
     1
  3
ACAD_XREC_ROUNDTRIP
360
335
  0
DICTIONARY
  5
33A
330
32
100
AcDbDictionary
280
     1
281
     1
  3
ACAD_XREC_ROUNDTRIP
360
33B
  0
DICTIONARY
  5
342
330
36
100
AcDbDictionary
280
     1
281
     1
  3
ACAD_XREC_ROUNDTRIP
360
343
  0
DICTIONARY
  5
34A
330
3A
100
AcDbDictionary
280
     1
281
     1
  3
ACAD_XREC_ROUNDTRIP
360
34B
  0
DICTIONARY
  5
33E
330
34
100
AcDbDictionary
280
     1
281
     1
  3
ACAD_XREC_ROUNDTRIP
360
33F
  0
DICTIONARY
  5
340
330
35
100
AcDbDictionary
280
     1
281
     1
  3
ACAD_XREC_ROUNDTRIP
360
341
  0
DICTIONARY
  5
350
330
3D
100
AcDbDictionary
280
     1
281
     1
  3
ACAD_XREC_ROUNDTRIP
360
351
  0
DICTIONARY
  5
348
330
39
100
AcDbDictionary
280
     1
281
     1
  3
ACAD_XREC_ROUNDTRIP
360
349
  0
DICTIONARY
  5
32C
330
2B
100
AcDbDictionary
280
     1
281
     1
  3
ACAD_XREC_ROUNDTRIP
360
32D
  0
DICTIONARY
  5
32E
330
2C
100
AcDbDictionary
280
     1
281
     1
  3
ACAD_XREC_ROUNDTRIP
360
32F
  0
DICTIONARY
  5
330
330
2D
100
AcDbDictionary
280
     1
281
     1
  3
ACAD_XREC_ROUNDTRIP
360
331
  0
DICTIONARY
  5
332
330
2E
100
AcDbDictionary
280
     1
281
     1
  3
ACAD_XREC_ROUNDTRIP
360
333
  0
DICTIONARY
  5
338
330
31
100
AcDbDictionary
280
     1
281
     1
  3
ACAD_XREC_ROUNDTRIP
360
339
  0
DICTIONARY
  5
34C
330
3B
100
AcDbDictionary
280
     1
281
     1
  3
ACAD_XREC_ROUNDTRIP
360
34D
  0
DICTIONARY
  5
346
330
38
100
AcDbDictionary
280
     1
281
     1
  3
ACAD_XREC_ROUNDTRIP
360
347
  0
DICTIONARY
  5
34E
330
3C
100
AcDbDictionary
280
     1
281
     1
  3
ACAD_XREC_ROUNDTRIP
360
34F
  0
DICTIONARY
  5
33C
330
33
100
AcDbDictionary
280
     1
281
     1
  3
ACAD_XREC_ROUNDTRIP
360
33D
  0
DICTIONARY
  5
35A
330
42
100
AcDbDictionary
280
     1
281
     1
  3
ACAD_XREC_ROUNDTRIP
360
35B
  0
DICTIONARY
  5
358
330
41
100
AcDbDictionary
280
     1
281
     1
  3
ACAD_XREC_ROUNDTRIP
360
359
  0
DICTIONARY
  5
352
330
3E
100
AcDbDictionary
280
     1
281
     1
  3
ACAD_XREC_ROUNDTRIP
360
353
  0
DICTIONARY
  5
354
330
3F
100
AcDbDictionary
280
     1
281
     1
  3
ACAD_XREC_ROUNDTRIP
360
355
  0
DICTIONARY
  5
344
330
37
100
AcDbDictionary
280
     1
281
     1
  3
ACAD_XREC_ROUNDTRIP
360
345
  0
DICTIONARY
  5
336
330
30
100
AcDbDictionary
280
     1
281
     1
  3
ACAD_XREC_ROUNDTRIP
360
337
  0
DICTIONARY
  5
356
330
40
100
AcDbDictionary
280
     1
281
     1
  3
ACAD_XREC_ROUNDTRIP
360
357
  0
XRECORD
  5
361
102
{ACAD_REACTORS
330
360
102
}
330
360
100
AcDbXrecord
280
     1
102
DISPLAYNAME
  1
Metric50
102
FLAGS
 90
        0
  0
XRECORD
  5
327
102
{ACAD_REACTORS
330
326
102
}
330
326
100
AcDbXrecord
280
     1
102
SHADEPLOT
 70
     0
102
SHADEPLOTRESLEVEL
 70
     2
102
SHADEPLOTCUSTOMDPI
 70
   300
  0
XRECORD
  5
32B
102
{ACAD_REACTORS
330
32A
102
}
330
32A
100
AcDbXrecord
280
     1
102
SHADEPLOT
 70
     0
102
SHADEPLOTRESLEVEL
 70
     2
102
SHADEPLOTCUSTOMDPI
 70
   300
  0
XRECORD
  5
329
102
{ACAD_REACTORS
330
328
102
}
330
328
100
AcDbXrecord
280
     1
102
SHADEPLOT
 70
     0
102
SHADEPLOTRESLEVEL
 70
     2
102
SHADEPLOTCUSTOMDPI
 70
   300
  0
XRECORD
  5
22D
102
{ACAD_REACTORS
330
22C
102
}
330
22C
100
AcDbXrecord
280
     1
102
MATERIAL
148
0.0
149
0.0
149
0.0
 93
        0
 94
      127
282
     0
 72
     1
 77
     1
171
     1
175
     1
179
     1
273
     0
  0
XRECORD
  5
22B
102
{ACAD_REACTORS
330
22A
102
}
330
22A
100
AcDbXrecord
280
     1
102
MATERIAL
148
0.0
149
0.0
149
0.0
 93
        0
 94
      127
282
     0
 72
     1
 77
     1
171
     1
175
     1
179
     1
273
     0
  0
XRECORD
  5
22F
102
{ACAD_REACTORS
330
22E
102
}
330
22E
100
AcDbXrecord
280
     1
102
MATERIAL
148
0.0
149
0.0
149
0.0
 93
        0
 94
      127
282
     0
 72
     1
 77
     1
171
     1
175
     1
179
     1
273
     0
  0
XRECORD
  5
35F
102
{ACAD_REACTORS
330
35E
102
}
330
35E
100
AcDbXrecord
280
     1
102
DISPLAYNAME
  1
Metric50
102
FLAGS
 90
        0
  0
CELLSTYLEMAP
  5
323
102
{ACAD_REACTORS
330
322
102
}
330
322
100
AcDbCellStyleMap
 90
        3
300
CELLSTYLE
  1
TABLEFORMAT_BEGIN
 90
        5
170
     1
 91
        0
 92
    32768
 62
   257
 93
        1
300
CONTENTFORMAT
  1
CONTENTFORMAT_BEGIN
 90
        0
 91
        0
 92
      512
 93
        0
300

 40
0.0
140
1.0
 94
        5
 62
     0
340
11
144
6.0
309
CONTENTFORMAT_END
171
     1
301
MARGIN
  1
CELLMARGIN_BEGIN
 40
1.5
 40
1.5
 40
1.5
 40
1.5
 40
4.5
 40
4.5
309
CELLMARGIN_END
 94
        6
 95
        1
302
GRIDFORMAT
  1
GRIDFORMAT_BEGIN
 90
        0
 91
        1
 62
     0
 92
       -2
340
0
 93
        0
 40
1.125
309
GRIDFORMAT_END
 95
        2
302
GRIDFORMAT
  1
GRIDFORMAT_BEGIN
 90
        0
 91
        1
 62
     0
 92
       -2
340
0
 93
        0
 40
1.125
309
GRIDFORMAT_END
 95
        4
302
GRIDFORMAT
  1
GRIDFORMAT_BEGIN
 90
        0
 91
        1
 62
     0
 92
       -2
340
0
 93
        0
 40
1.125
309
GRIDFORMAT_END
 95
        8
302
GRIDFORMAT
  1
GRIDFORMAT_BEGIN
 90
        0
 91
        1
 62
     0
 92
       -2
340
0
 93
        0
 40
1.125
309
GRIDFORMAT_END
 95
       16
302
GRIDFORMAT
  1
GRIDFORMAT_BEGIN
 90
        0
 91
        1
 62
     0
 92
       -2
340
0
 93
        0
 40
1.125
309
GRIDFORMAT_END
 95
       32
302
GRIDFORMAT
  1
GRIDFORMAT_BEGIN
 90
        0
 91
        1
 62
     0
 92
       -2
340
0
 93
        0
 40
1.125
309
GRIDFORMAT_END
309
TABLEFORMAT_END
  1
CELLSTYLE_BEGIN
 90
        1
 91
        1
300
_TITLE
309
CELLSTYLE_END
300
CELLSTYLE
  1
TABLEFORMAT_BEGIN
 90
        5
170
     1
 91
        0
 92
        0
 62
   257
 93
        1
300
CONTENTFORMAT
  1
CONTENTFORMAT_BEGIN
 90
        0
 91
        0
 92
      512
 93
        0
300

 40
0.0
140
1.0
 94
        5
 62
     0
340
11
144
4.5
309
CONTENTFORMAT_END
171
     1
301
MARGIN
  1
CELLMARGIN_BEGIN
 40
1.5
 40
1.5
 40
1.5
 40
1.5
 40
4.5
 40
4.5
309
CELLMARGIN_END
 94
        6
 95
        1
302
GRIDFORMAT
  1
GRIDFORMAT_BEGIN
 90
        0
 91
        1
 62
     0
 92
       -2
340
0
 93
        0
 40
1.125
309
GRIDFORMAT_END
 95
        2
302
GRIDFORMAT
  1
GRIDFORMAT_BEGIN
 90
        0
 91
        1
 62
     0
 92
       -2
340
0
 93
        0
 40
1.125
309
GRIDFORMAT_END
 95
        4
302
GRIDFORMAT
  1
GRIDFORMAT_BEGIN
 90
        0
 91
        1
 62
     0
 92
       -2
340
0
 93
        0
 40
1.125
309
GRIDFORMAT_END
 95
        8
302
GRIDFORMAT
  1
GRIDFORMAT_BEGIN
 90
        0
 91
        1
 62
     0
 92
       -2
340
0
 93
        0
 40
1.125
309
GRIDFORMAT_END
 95
       16
302
GRIDFORMAT
  1
GRIDFORMAT_BEGIN
 90
        0
 91
        1
 62
     0
 92
       -2
340
0
 93
        0
 40
1.125
309
GRIDFORMAT_END
 95
       32
302
GRIDFORMAT
  1
GRIDFORMAT_BEGIN
 90
        0
 91
        1
 62
     0
 92
       -2
340
0
 93
        0
 40
1.125
309
GRIDFORMAT_END
309
TABLEFORMAT_END
  1
CELLSTYLE_BEGIN
 90
        2
 91
        1
300
_HEADER
309
CELLSTYLE_END
300
CELLSTYLE
  1
TABLEFORMAT_BEGIN
 90
        5
170
     1
 91
        0
 92
        0
 62
   257
 93
        1
300
CONTENTFORMAT
  1
CONTENTFORMAT_BEGIN
 90
        0
 91
        0
 92
      512
 93
        0
300

 40
0.0
140
1.0
 94
        2
 62
     0
340
11
144
4.5
309
CONTENTFORMAT_END
171
     1
301
MARGIN
  1
CELLMARGIN_BEGIN
 40
1.5
 40
1.5
 40
1.5
 40
1.5
 40
4.5
 40
4.5
309
CELLMARGIN_END
 94
        6
 95
        1
302
GRIDFORMAT
  1
GRIDFORMAT_BEGIN
 90
        0
 91
        1
 62
     0
 92
       -2
340
0
 93
        0
 40
1.125
309
GRIDFORMAT_END
 95
        2
302
GRIDFORMAT
  1
GRIDFORMAT_BEGIN
 90
        0
 91
        1
 62
     0
 92
       -2
340
0
 93
        0
 40
1.125
309
GRIDFORMAT_END
 95
        4
302
GRIDFORMAT
  1
GRIDFORMAT_BEGIN
 90
        0
 91
        1
 62
     0
 92
       -2
340
0
 93
        0
 40
1.125
309
GRIDFORMAT_END
 95
        8
302
GRIDFORMAT
  1
GRIDFORMAT_BEGIN
 90
        0
 91
        1
 62
     0
 92
       -2
340
0
 93
        0
 40
1.125
309
GRIDFORMAT_END
 95
       16
302
GRIDFORMAT
  1
GRIDFORMAT_BEGIN
 90
        0
 91
        1
 62
     0
 92
       -2
340
0
 93
        0
 40
1.125
309
GRIDFORMAT_END
 95
       32
302
GRIDFORMAT
  1
GRIDFORMAT_BEGIN
 90
        0
 91
        1
 62
     0
 92
       -2
340
0
 93
        0
 40
1.125
309
GRIDFORMAT_END
309
TABLEFORMAT_END
  1
CELLSTYLE_BEGIN
 90
        3
 91
        2
300
_DATA
309
CELLSTYLE_END
  0
XRECORD
  5
35C
102
{ACAD_REACTORS
330
322
102
}
330
322
100
AcDbXrecord
280
     1
102
ACAD_ROUNDTRIP_PRE2007_TABLESTYLE
 90
      512
 91
        0
  1

 92
      512
 93
        0
  2

 94
      512
 95
        0
  3

  0
XRECORD
  5
335
102
{ACAD_REACTORS
330
334
102
}
330
334
100
AcDbXrecord
280
     1
102
RTVSPost2010Prop28
280
     1
102
RTVSPost2010PropOp28
 70
     1
102
RTVSPost2010Prop29
280
     1
102
RTVSPost2010PropOp29
 70
     1
102
RTVSPost2010Prop30
280
     0
102
RTVSPost2010PropOp30
 70
     1
102
RTVSPost2010Prop31
280
     0
102
RTVSPost2010PropOp31
 70
     1
102
RTVSPost2010Prop32
280
     0
102
RTVSPost2010PropOp32
 70
     1
102
RTVSPost2010Prop33
280
     0
102
RTVSPost2010PropOp33
 70
     1
102
RTVSPost2010Prop34
280
     0
102
RTVSPost2010PropOp34
 70
     1
102
RTVSPost2010Prop35
280
     0
102
RTVSPost2010PropOp35
 70
     1
102
RTVSPost2010Prop36
280
     0
102
RTVSPost2010PropOp36
 70
     1
102
RTVSPost2010Prop37
 90
       50
102
RTVSPost2010PropOp37
 70
     1
102
RTVSPost2010Prop38
140
0.0
102
RTVSPost2010PropOp38
 70
     1
102
RTVSPost2010Prop39
140
1.0
102
RTVSPost2010PropOp39
 70
     1
102
RTVSPost2010Prop40
 90
        0
102
RTVSPost2010PropOp40
 70
     1
102
RTVSPost2010Prop41ColorIndex
 90
       18
102
RTVSPost2010Prop41ColorRGB
 90
        0
102
RTVSPost2010PropOp41
 70
     1
102
RTVSPost2010Prop42
 90
       50
102
RTVSPost2010PropOp42
 70
     1
102
RTVSPost2010Prop43
 90
        3
102
RTVSPost2010PropOp43
 70
     1
102
RTVSPost2010Prop44ColorIndex
 90
        5
102
RTVSPost2010Prop44ColorRGB
 90
      255
102
RTVSPost2010PropOp44
 70
     1
102
RTVSPost2010Prop45
280
     0
102
RTVSPost2010PropOp45
 70
     1
102
RTVSPost2010Prop46
 90
       50
102
RTVSPost2010PropOp46
 70
     1
102
RTVSPost2010Prop47
 90
       50
102
RTVSPost2010PropOp47
 70
     1
102
RTVSPost2010Prop48
 90
       50
102
RTVSPost2010PropOp48
 70
     1
102
RTVSPost2010Prop49
280
     0
102
RTVSPost2010PropOp49
 70
     1
102
RTVSPost2010Prop50
 90
       50
102
RTVSPost2010PropOp50
 70
     1
102
RTVSPost2010Prop51ColorIndex
 90
      256
102
RTVSPost2010Prop51ColorRGB
 90
-16777216
102
RTVSPost2010PropOp51
 70
     0
102
RTVSPost2010Prop52
140
1.0
102
RTVSPost2010PropOp52
 70
     0
102
RTVSPost2010Prop53
 90
        2
102
RTVSPost2010PropOp53
 70
     1
102
RTVSPost2010Prop54
  1
strokes_ogs.tif
102
RTVSPost2010PropOp54
 70
     1
102
RTVSPost2010Prop55
280
     0
102
RTVSPost2010PropOp55
 70
     1
102
RTVSPost2010Prop56
140
1.0
102
RTVSPost2010PropOp56
 70
     1
102
RTVSPost2010Prop57
140
1.0
102
RTVSPost2010PropOp57
 70
     1
102
RTVSPropertyOp0
 70
     1
102
RTVSPropertyOp1
 70
     1
102
RTVSPropertyOp2
 70
     1
102
RTVSPropertyOp3
 70
     1
102
RTVSPropertyOp4
 70
     1
102
RTVSPropertyOp5
 70
     1
102
RTVSPropertyOp6
 70
     1
102
RTVSPropertyOp7
 70
     1
102
RTVSPropertyOp8
 70
     1
102
RTVSPropertyOp9
 70
     1
102
RTVSPropertyOp10
 70
     1
102
RTVSPropertyOp11
 70
     1
102
RTVSPropertyOp12
 70
     1
102
RTVSPropertyOp13
 70
     1
102
RTVSPropertyOp14
 70
     1
102
RTVSPropertyOp15
 70
     1
102
RTVSPropertyOp16
 70
     1
102
RTVSPropertyOp17
 70
     1
102
RTVSPropertyOp18
 70
     1
102
RTVSPropertyOp19
 70
     1
102
RTVSPropertyOp20
 70
     1
102
RTVSPropertyOp21
 70
     1
102
RTVSPropertyOp22
 70
     1
102
RTVSPropertyOp23
 70
     1
102
RTVSPropertyOp24
 70
     1
102
RTVSPropertyOp25
 70
     1
102
RTVSPropertyOp26
 70
     1
102
RTVSPropertyOp27
 70
     1
102
RTVSPropertyOp28
 70
     1
102
RTVSPropertyOp29
 70
     1
102
RTVSPropertyOp30
 70
     1
102
RTVSPropertyOp31
 70
     1
102
RTVSPropertyOp32
 70
     1
102
RTVSPropertyOp33
 70
     1
102
RTVSPropertyOp34
 70
     1
102
RTVSPropertyOp35
 70
     1
102
RTVSPropertyOp36
 70
     1
102
RTVSPropertyOp37
 70
     1
102
RTVSPropertyOp38
 70
     1
102
RTVSPropertyOp39
 70
     1
102
RTVSPropertyOp40
 70
     1
102
RTVSPropertyOp41
 70
     1
102
RTVSPropertyOp42
 70
     1
102
RTVSPropertyOp43
 70
     1
102
RTVSPropertyOp44
 70
     1
102
RTVSPropertyOp45
 70
     1
102
RTVSPropertyOp46
 70
     1
102
RTVSPropertyOp47
 70
     1
102
RTVSPropertyOp48
 70
     1
102
RTVSPropertyOp49
 70
     1
102
RTVSPropertyOp50
 70
     1
102
RTVSPropertyOp51
 70
     0
102
RTVSPropertyOp52
 70
     0
102
RTVSPropertyOp53
 70
     1
102
RTVSPropertyOp54
 70
     1
102
RTVSPropertyOp55
 70
     1
102
RTVSPropertyOp56
 70
     1
102
RTVSPropertyOp57
 70
     1
102
RTVSPropertyOp58
 70
     1
102
RTVSPropertyOp59
 70
     1
102
RTVSPropertyOp60
 70
     1
102
RTVSPropertyOp61
 70
     1
102
RTVSPropertyOp62
 70
     1
  0
XRECORD
  5
33B
102
{ACAD_REACTORS
330
33A
102
}
330
33A
100
AcDbXrecord
280
     1
102
RTVSPost2010Prop28
280
     0
102
RTVSPost2010PropOp28
 70
     1
102
RTVSPost2010Prop29
280
     1
102
RTVSPost2010PropOp29
 70
     1
102
RTVSPost2010Prop30
280
     1
102
RTVSPost2010PropOp30
 70
     1
102
RTVSPost2010Prop31
280
     0
102
RTVSPost2010PropOp31
 70
     1
102
RTVSPost2010Prop32
280
     0
102
RTVSPost2010PropOp32
 70
     1
102
RTVSPost2010Prop33
280
     0
102
RTVSPost2010PropOp33
 70
     1
102
RTVSPost2010Prop34
280
     0
102
RTVSPost2010PropOp34
 70
     1
102
RTVSPost2010Prop35
280
     0
102
RTVSPost2010PropOp35
 70
     1
102
RTVSPost2010Prop36
280
     0
102
RTVSPost2010PropOp36
 70
     1
102
RTVSPost2010Prop37
 90
       50
102
RTVSPost2010PropOp37
 70
     1
102
RTVSPost2010Prop38
140
0.0
102
RTVSPost2010PropOp38
 70
     1
102
RTVSPost2010Prop39
140
1.0
102
RTVSPost2010PropOp39
 70
     1
102
RTVSPost2010Prop40
 90
        0
102
RTVSPost2010PropOp40
 70
     1
102
RTVSPost2010Prop41ColorIndex
 90
       18
102
RTVSPost2010Prop41ColorRGB
 90
        0
102
RTVSPost2010PropOp41
 70
     1
102
RTVSPost2010Prop42
 90
       50
102
RTVSPost2010PropOp42
 70
     1
102
RTVSPost2010Prop43
 90
        3
102
RTVSPost2010PropOp43
 70
     1
102
RTVSPost2010Prop44ColorIndex
 90
        5
102
RTVSPost2010Prop44ColorRGB
 90
      255
102
RTVSPost2010PropOp44
 70
     1
102
RTVSPost2010Prop45
280
     0
102
RTVSPost2010PropOp45
 70
     1
102
RTVSPost2010Prop46
 90
       50
102
RTVSPost2010PropOp46
 70
     1
102
RTVSPost2010Prop47
 90
       50
102
RTVSPost2010PropOp47
 70
     1
102
RTVSPost2010Prop48
 90
       50
102
RTVSPost2010PropOp48
 70
     1
102
RTVSPost2010Prop49
280
     0
102
RTVSPost2010PropOp49
 70
     1
102
RTVSPost2010Prop50
 90
       50
102
RTVSPost2010PropOp50
 70
     1
102
RTVSPost2010Prop51ColorIndex
 90
      256
102
RTVSPost2010Prop51ColorRGB
 90
-16777216
102
RTVSPost2010PropOp51
 70
     0
102
RTVSPost2010Prop52
140
1.0
102
RTVSPost2010PropOp52
 70
     0
102
RTVSPost2010Prop53
 90
        2
102
RTVSPost2010PropOp53
 70
     1
102
RTVSPost2010Prop54
  1
strokes_ogs.tif
102
RTVSPost2010PropOp54
 70
     1
102
RTVSPost2010Prop55
280
     0
102
RTVSPost2010PropOp55
 70
     1
102
RTVSPost2010Prop56
140
1.0
102
RTVSPost2010PropOp56
 70
     1
102
RTVSPost2010Prop57
140
1.0
102
RTVSPost2010PropOp57
 70
     1
102
RTVSPropertyOp0
 70
     1
102
RTVSPropertyOp1
 70
     1
102
RTVSPropertyOp2
 70
     1
102
RTVSPropertyOp3
 70
     1
102
RTVSPropertyOp4
 70
     1
102
RTVSPropertyOp5
 70
     1
102
RTVSPropertyOp6
 70
     1
102
RTVSPropertyOp7
 70
     1
102
RTVSPropertyOp8
 70
     1
102
RTVSPropertyOp9
 70
     1
102
RTVSPropertyOp10
 70
     1
102
RTVSPropertyOp11
 70
     1
102
RTVSPropertyOp12
 70
     1
102
RTVSPropertyOp13
 70
     1
102
RTVSPropertyOp14
 70
     1
102
RTVSPropertyOp15
 70
     1
102
RTVSPropertyOp16
 70
     1
102
RTVSPropertyOp17
 70
     1
102
RTVSPropertyOp18
 70
     1
102
RTVSPropertyOp19
 70
     1
102
RTVSPropertyOp20
 70
     1
102
RTVSPropertyOp21
 70
     1
102
RTVSPropertyOp22
 70
     1
102
RTVSPropertyOp23
 70
     1
102
RTVSPropertyOp24
 70
     1
102
RTVSPropertyOp25
 70
     1
102
RTVSPropertyOp26
 70
     1
102
RTVSPropertyOp27
 70
     1
102
RTVSPropertyOp28
 70
     1
102
RTVSPropertyOp29
 70
     1
102
RTVSPropertyOp30
 70
     1
102
RTVSPropertyOp31
 70
     1
102
RTVSPropertyOp32
 70
     1
102
RTVSPropertyOp33
 70
     1
102
RTVSPropertyOp34
 70
     1
102
RTVSPropertyOp35
 70
     1
102
RTVSPropertyOp36
 70
     1
102
RTVSPropertyOp37
 70
     1
102
RTVSPropertyOp38
 70
     1
102
RTVSPropertyOp39
 70
     1
102
RTVSPropertyOp40
 70
     1
102
RTVSPropertyOp41
 70
     1
102
RTVSPropertyOp42
 70
     1
102
RTVSPropertyOp43
 70
     1
102
RTVSPropertyOp44
 70
     1
102
RTVSPropertyOp45
 70
     1
102
RTVSPropertyOp46
 70
     1
102
RTVSPropertyOp47
 70
     1
102
RTVSPropertyOp48
 70
     1
102
RTVSPropertyOp49
 70
     1
102
RTVSPropertyOp50
 70
     1
102
RTVSPropertyOp51
 70
     0
102
RTVSPropertyOp52
 70
     0
102
RTVSPropertyOp53
 70
     1
102
RTVSPropertyOp54
 70
     1
102
RTVSPropertyOp55
 70
     1
102
RTVSPropertyOp56
 70
     1
102
RTVSPropertyOp57
 70
     1
102
RTVSPropertyOp58
 70
     1
102
RTVSPropertyOp59
 70
     1
102
RTVSPropertyOp60
 70
     1
102
RTVSPropertyOp61
 70
     1
102
RTVSPropertyOp62
 70
     1
  0
XRECORD
  5
343
102
{ACAD_REACTORS
330
342
102
}
330
342
100
AcDbXrecord
280
     1
102
RTVSPost2010Prop28
280
     0
102
RTVSPost2010PropOp28
 70
     1
102
RTVSPost2010Prop29
280
     1
102
RTVSPost2010PropOp29
 70
     1
102
RTVSPost2010Prop30
280
     1
102
RTVSPost2010PropOp30
 70
     1
102
RTVSPost2010Prop31
280
     0
102
RTVSPost2010PropOp31
 70
     1
102
RTVSPost2010Prop32
280
     0
102
RTVSPost2010PropOp32
 70
     1
102
RTVSPost2010Prop33
280
     0
102
RTVSPost2010PropOp33
 70
     1
102
RTVSPost2010Prop34
280
     0
102
RTVSPost2010PropOp34
 70
     1
102
RTVSPost2010Prop35
280
     0
102
RTVSPost2010PropOp35
 70
     1
102
RTVSPost2010Prop36
280
     0
102
RTVSPost2010PropOp36
 70
     1
102
RTVSPost2010Prop37
 90
       50
102
RTVSPost2010PropOp37
 70
     1
102
RTVSPost2010Prop38
140
0.0
102
RTVSPost2010PropOp38
 70
     1
102
RTVSPost2010Prop39
140
1.0
102
RTVSPost2010PropOp39
 70
     1
102
RTVSPost2010Prop40
 90
        0
102
RTVSPost2010PropOp40
 70
     1
102
RTVSPost2010Prop41ColorIndex
 90
       18
102
RTVSPost2010Prop41ColorRGB
 90
        0
102
RTVSPost2010PropOp41
 70
     1
102
RTVSPost2010Prop42
 90
       50
102
RTVSPost2010PropOp42
 70
     1
102
RTVSPost2010Prop43
 90
        3
102
RTVSPost2010PropOp43
 70
     1
102
RTVSPost2010Prop44ColorIndex
 90
        5
102
RTVSPost2010Prop44ColorRGB
 90
      255
102
RTVSPost2010PropOp44
 70
     1
102
RTVSPost2010Prop45
280
     0
102
RTVSPost2010PropOp45
 70
     1
102
RTVSPost2010Prop46
 90
       50
102
RTVSPost2010PropOp46
 70
     1
102
RTVSPost2010Prop47
 90
       50
102
RTVSPost2010PropOp47
 70
     1
102
RTVSPost2010Prop48
 90
       50
102
RTVSPost2010PropOp48
 70
     1
102
RTVSPost2010Prop49
280
     0
102
RTVSPost2010PropOp49
 70
     1
102
RTVSPost2010Prop50
 90
       50
102
RTVSPost2010PropOp50
 70
     1
102
RTVSPost2010Prop51ColorIndex
 90
      256
102
RTVSPost2010Prop51ColorRGB
 90
-16777216
102
RTVSPost2010PropOp51
 70
     0
102
RTVSPost2010Prop52
140
1.0
102
RTVSPost2010PropOp52
 70
     0
102
RTVSPost2010Prop53
 90
        2
102
RTVSPost2010PropOp53
 70
     1
102
RTVSPost2010Prop54
  1
strokes_ogs.tif
102
RTVSPost2010PropOp54
 70
     1
102
RTVSPost2010Prop55
280
     0
102
RTVSPost2010PropOp55
 70
     1
102
RTVSPost2010Prop56
140
1.0
102
RTVSPost2010PropOp56
 70
     1
102
RTVSPost2010Prop57
140
1.0
102
RTVSPost2010PropOp57
 70
     1
102
RTVSPropertyOp0
 70
     1
102
RTVSPropertyOp1
 70
     1
102
RTVSPropertyOp2
 70
     1
102
RTVSPropertyOp3
 70
     1
102
RTVSPropertyOp4
 70
     1
102
RTVSPropertyOp5
 70
     1
102
RTVSPropertyOp6
 70
     1
102
RTVSPropertyOp7
 70
     1
102
RTVSPropertyOp8
 70
     1
102
RTVSPropertyOp9
 70
     1
102
RTVSPropertyOp10
 70
     1
102
RTVSPropertyOp11
 70
     1
102
RTVSPropertyOp12
 70
     1
102
RTVSPropertyOp13
 70
     1
102
RTVSPropertyOp14
 70
     1
102
RTVSPropertyOp15
 70
     1
102
RTVSPropertyOp16
 70
     1
102
RTVSPropertyOp17
 70
     1
102
RTVSPropertyOp18
 70
     1
102
RTVSPropertyOp19
 70
     1
102
RTVSPropertyOp20
 70
     1
102
RTVSPropertyOp21
 70
     1
102
RTVSPropertyOp22
 70
     1
102
RTVSPropertyOp23
 70
     1
102
RTVSPropertyOp24
 70
     1
102
RTVSPropertyOp25
 70
     1
102
RTVSPropertyOp26
 70
     1
102
RTVSPropertyOp27
 70
     1
102
RTVSPropertyOp28
 70
     1
102
RTVSPropertyOp29
 70
     1
102
RTVSPropertyOp30
 70
     1
102
RTVSPropertyOp31
 70
     1
102
RTVSPropertyOp32
 70
     1
102
RTVSPropertyOp33
 70
     1
102
RTVSPropertyOp34
 70
     1
102
RTVSPropertyOp35
 70
     1
102
RTVSPropertyOp36
 70
     1
102
RTVSPropertyOp37
 70
     1
102
RTVSPropertyOp38
 70
     1
102
RTVSPropertyOp39
 70
     1
102
RTVSPropertyOp40
 70
     1
102
RTVSPropertyOp41
 70
     1
102
RTVSPropertyOp42
 70
     1
102
RTVSPropertyOp43
 70
     1
102
RTVSPropertyOp44
 70
     1
102
RTVSPropertyOp45
 70
     1
102
RTVSPropertyOp46
 70
     1
102
RTVSPropertyOp47
 70
     1
102
RTVSPropertyOp48
 70
     1
102
RTVSPropertyOp49
 70
     1
102
RTVSPropertyOp50
 70
     1
102
RTVSPropertyOp51
 70
     0
102
RTVSPropertyOp52
 70
     0
102
RTVSPropertyOp53
 70
     1
102
RTVSPropertyOp54
 70
     1
102
RTVSPropertyOp55
 70
     1
102
RTVSPropertyOp56
 70
     1
102
RTVSPropertyOp57
 70
     1
102
RTVSPropertyOp58
 70
     1
102
RTVSPropertyOp59
 70
     1
102
RTVSPropertyOp60
 70
     1
102
RTVSPropertyOp61
 70
     1
102
RTVSPropertyOp62
 70
     1
  0
XRECORD
  5
34B
102
{ACAD_REACTORS
330
34A
102
}
330
34A
100
AcDbXrecord
280
     1
102
RTVSPost2010Prop28
280
     0
102
RTVSPost2010PropOp28
 70
     1
102
RTVSPost2010Prop29
280
     1
102
RTVSPost2010PropOp29
 70
     1
102
RTVSPost2010Prop30
280
     1
102
RTVSPost2010PropOp30
 70
     1
102
RTVSPost2010Prop31
280
     0
102
RTVSPost2010PropOp31
 70
     1
102
RTVSPost2010Prop32
280
     0
102
RTVSPost2010PropOp32
 70
     1
102
RTVSPost2010Prop33
280
     0
102
RTVSPost2010PropOp33
 70
     1
102
RTVSPost2010Prop34
280
     0
102
RTVSPost2010PropOp34
 70
     1
102
RTVSPost2010Prop35
280
     0
102
RTVSPost2010PropOp35
 70
     1
102
RTVSPost2010Prop36
280
     0
102
RTVSPost2010PropOp36
 70
     1
102
RTVSPost2010Prop37
 90
       50
102
RTVSPost2010PropOp37
 70
     1
102
RTVSPost2010Prop38
140
0.0
102
RTVSPost2010PropOp38
 70
     1
102
RTVSPost2010Prop39
140
1.0
102
RTVSPost2010PropOp39
 70
     1
102
RTVSPost2010Prop40
 90
        0
102
RTVSPost2010PropOp40
 70
     1
102
RTVSPost2010Prop41ColorIndex
 90
       18
102
RTVSPost2010Prop41ColorRGB
 90
        0
102
RTVSPost2010PropOp41
 70
     1
102
RTVSPost2010Prop42
 90
       50
102
RTVSPost2010PropOp42
 70
     1
102
RTVSPost2010Prop43
 90
        3
102
RTVSPost2010PropOp43
 70
     1
102
RTVSPost2010Prop44ColorIndex
 90
        5
102
RTVSPost2010Prop44ColorRGB
 90
      255
102
RTVSPost2010PropOp44
 70
     1
102
RTVSPost2010Prop45
280
     0
102
RTVSPost2010PropOp45
 70
     1
102
RTVSPost2010Prop46
 90
       50
102
RTVSPost2010PropOp46
 70
     1
102
RTVSPost2010Prop47
 90
       50
102
RTVSPost2010PropOp47
 70
     1
102
RTVSPost2010Prop48
 90
       50
102
RTVSPost2010PropOp48
 70
     1
102
RTVSPost2010Prop49
280
     0
102
RTVSPost2010PropOp49
 70
     1
102
RTVSPost2010Prop50
 90
       50
102
RTVSPost2010PropOp50
 70
     1
102
RTVSPost2010Prop51ColorIndex
 90
      256
102
RTVSPost2010Prop51ColorRGB
 90
-16777216
102
RTVSPost2010PropOp51
 70
     0
102
RTVSPost2010Prop52
140
1.0
102
RTVSPost2010PropOp52
 70
     0
102
RTVSPost2010Prop53
 90
        2
102
RTVSPost2010PropOp53
 70
     1
102
RTVSPost2010Prop54
  1
strokes_ogs.tif
102
RTVSPost2010PropOp54
 70
     1
102
RTVSPost2010Prop55
280
     0
102
RTVSPost2010PropOp55
 70
     1
102
RTVSPost2010Prop56
140
1.0
102
RTVSPost2010PropOp56
 70
     1
102
RTVSPost2010Prop57
140
1.0
102
RTVSPost2010PropOp57
 70
     1
102
RTVSPropertyOp0
 70
     1
102
RTVSPropertyOp1
 70
     1
102
RTVSPropertyOp2
 70
     1
102
RTVSPropertyOp3
 70
     1
102
RTVSPropertyOp4
 70
     1
102
RTVSPropertyOp5
 70
     1
102
RTVSPropertyOp6
 70
     1
102
RTVSPropertyOp7
 70
     1
102
RTVSPropertyOp8
 70
     1
102
RTVSPropertyOp9
 70
     1
102
RTVSPropertyOp10
 70
     1
102
RTVSPropertyOp11
 70
     1
102
RTVSPropertyOp12
 70
     1
102
RTVSPropertyOp13
 70
     1
102
RTVSPropertyOp14
 70
     1
102
RTVSPropertyOp15
 70
     1
102
RTVSPropertyOp16
 70
     1
102
RTVSPropertyOp17
 70
     1
102
RTVSPropertyOp18
 70
     1
102
RTVSPropertyOp19
 70
     1
102
RTVSPropertyOp20
 70
     1
102
RTVSPropertyOp21
 70
     1
102
RTVSPropertyOp22
 70
     1
102
RTVSPropertyOp23
 70
     1
102
RTVSPropertyOp24
 70
     1
102
RTVSPropertyOp25
 70
     1
102
RTVSPropertyOp26
 70
     1
102
RTVSPropertyOp27
 70
     1
102
RTVSPropertyOp28
 70
     1
102
RTVSPropertyOp29
 70
     1
102
RTVSPropertyOp30
 70
     1
102
RTVSPropertyOp31
 70
     1
102
RTVSPropertyOp32
 70
     1
102
RTVSPropertyOp33
 70
     1
102
RTVSPropertyOp34
 70
     1
102
RTVSPropertyOp35
 70
     1
102
RTVSPropertyOp36
 70
     1
102
RTVSPropertyOp37
 70
     1
102
RTVSPropertyOp38
 70
     1
102
RTVSPropertyOp39
 70
     1
102
RTVSPropertyOp40
 70
     1
102
RTVSPropertyOp41
 70
     1
102
RTVSPropertyOp42
 70
     1
102
RTVSPropertyOp43
 70
     1
102
RTVSPropertyOp44
 70
     1
102
RTVSPropertyOp45
 70
     1
102
RTVSPropertyOp46
 70
     1
102
RTVSPropertyOp47
 70
     1
102
RTVSPropertyOp48
 70
     1
102
RTVSPropertyOp49
 70
     1
102
RTVSPropertyOp50
 70
     1
102
RTVSPropertyOp51
 70
     0
102
RTVSPropertyOp52
 70
     0
102
RTVSPropertyOp53
 70
     1
102
RTVSPropertyOp54
 70
     1
102
RTVSPropertyOp55
 70
     1
102
RTVSPropertyOp56
 70
     1
102
RTVSPropertyOp57
 70
     1
102
RTVSPropertyOp58
 70
     1
102
RTVSPropertyOp59
 70
     1
102
RTVSPropertyOp60
 70
     1
102
RTVSPropertyOp61
 70
     1
102
RTVSPropertyOp62
 70
     1
  0
XRECORD
  5
33F
102
{ACAD_REACTORS
330
33E
102
}
330
33E
100
AcDbXrecord
280
     1
102
RTVSPost2010Prop28
280
     0
102
RTVSPost2010PropOp28
 70
     1
102
RTVSPost2010Prop29
280
     1
102
RTVSPost2010PropOp29
 70
     1
102
RTVSPost2010Prop30
280
     1
102
RTVSPost2010PropOp30
 70
     1
102
RTVSPost2010Prop31
280
     0
102
RTVSPost2010PropOp31
 70
     1
102
RTVSPost2010Prop32
280
     0
102
RTVSPost2010PropOp32
 70
     1
102
RTVSPost2010Prop33
280
     0
102
RTVSPost2010PropOp33
 70
     1
102
RTVSPost2010Prop34
280
     0
102
RTVSPost2010PropOp34
 70
     1
102
RTVSPost2010Prop35
280
     0
102
RTVSPost2010PropOp35
 70
     1
102
RTVSPost2010Prop36
280
     0
102
RTVSPost2010PropOp36
 70
     1
102
RTVSPost2010Prop37
 90
       50
102
RTVSPost2010PropOp37
 70
     1
102
RTVSPost2010Prop38
140
0.0
102
RTVSPost2010PropOp38
 70
     1
102
RTVSPost2010Prop39
140
1.0
102
RTVSPost2010PropOp39
 70
     1
102
RTVSPost2010Prop40
 90
        0
102
RTVSPost2010PropOp40
 70
     1
102
RTVSPost2010Prop41ColorIndex
 90
       18
102
RTVSPost2010Prop41ColorRGB
 90
        0
102
RTVSPost2010PropOp41
 70
     1
102
RTVSPost2010Prop42
 90
       50
102
RTVSPost2010PropOp42
 70
     1
102
RTVSPost2010Prop43
 90
        3
102
RTVSPost2010PropOp43
 70
     1
102
RTVSPost2010Prop44ColorIndex
 90
        5
102
RTVSPost2010Prop44ColorRGB
 90
      255
102
RTVSPost2010PropOp44
 70
     1
102
RTVSPost2010Prop45
280
     0
102
RTVSPost2010PropOp45
 70
     1
102
RTVSPost2010Prop46
 90
       50
102
RTVSPost2010PropOp46
 70
     1
102
RTVSPost2010Prop47
 90
       50
102
RTVSPost2010PropOp47
 70
     1
102
RTVSPost2010Prop48
 90
       50
102
RTVSPost2010PropOp48
 70
     1
102
RTVSPost2010Prop49
280
     0
102
RTVSPost2010PropOp49
 70
     1
102
RTVSPost2010Prop50
 90
       50
102
RTVSPost2010PropOp50
 70
     1
102
RTVSPost2010Prop51ColorIndex
 90
      256
102
RTVSPost2010Prop51ColorRGB
 90
-16777216
102
RTVSPost2010PropOp51
 70
     0
102
RTVSPost2010Prop52
140
1.0
102
RTVSPost2010PropOp52
 70
     0
102
RTVSPost2010Prop53
 90
        2
102
RTVSPost2010PropOp53
 70
     1
102
RTVSPost2010Prop54
  1
strokes_ogs.tif
102
RTVSPost2010PropOp54
 70
     1
102
RTVSPost2010Prop55
280
     0
102
RTVSPost2010PropOp55
 70
     1
102
RTVSPost2010Prop56
140
1.0
102
RTVSPost2010PropOp56
 70
     1
102
RTVSPost2010Prop57
140
1.0
102
RTVSPost2010PropOp57
 70
     1
102
RTVSPropertyOp0
 70
     1
102
RTVSPropertyOp1
 70
     1
102
RTVSPropertyOp2
 70
     1
102
RTVSPropertyOp3
 70
     1
102
RTVSPropertyOp4
 70
     1
102
RTVSPropertyOp5
 70
     1
102
RTVSPropertyOp6
 70
     1
102
RTVSPropertyOp7
 70
     1
102
RTVSPropertyOp8
 70
     1
102
RTVSPropertyOp9
 70
     1
102
RTVSPropertyOp10
 70
     1
102
RTVSPropertyOp11
 70
     1
102
RTVSPropertyOp12
 70
     1
102
RTVSPropertyOp13
 70
     1
102
RTVSPropertyOp14
 70
     1
102
RTVSPropertyOp15
 70
     1
102
RTVSPropertyOp16
 70
     1
102
RTVSPropertyOp17
 70
     1
102
RTVSPropertyOp18
 70
     1
102
RTVSPropertyOp19
 70
     1
102
RTVSPropertyOp20
 70
     1
102
RTVSPropertyOp21
 70
     1
102
RTVSPropertyOp22
 70
     1
102
RTVSPropertyOp23
 70
     1
102
RTVSPropertyOp24
 70
     1
102
RTVSPropertyOp25
 70
     1
102
RTVSPropertyOp26
 70
     1
102
RTVSPropertyOp27
 70
     1
102
RTVSPropertyOp28
 70
     1
102
RTVSPropertyOp29
 70
     1
102
RTVSPropertyOp30
 70
     1
102
RTVSPropertyOp31
 70
     1
102
RTVSPropertyOp32
 70
     1
102
RTVSPropertyOp33
 70
     1
102
RTVSPropertyOp34
 70
     1
102
RTVSPropertyOp35
 70
     1
102
RTVSPropertyOp36
 70
     1
102
RTVSPropertyOp37
 70
     1
102
RTVSPropertyOp38
 70
     1
102
RTVSPropertyOp39
 70
     1
102
RTVSPropertyOp40
 70
     1
102
RTVSPropertyOp41
 70
     1
102
RTVSPropertyOp42
 70
     1
102
RTVSPropertyOp43
 70
     1
102
RTVSPropertyOp44
 70
     1
102
RTVSPropertyOp45
 70
     1
102
RTVSPropertyOp46
 70
     1
102
RTVSPropertyOp47
 70
     1
102
RTVSPropertyOp48
 70
     1
102
RTVSPropertyOp49
 70
     1
102
RTVSPropertyOp50
 70
     1
102
RTVSPropertyOp51
 70
     0
102
RTVSPropertyOp52
 70
     0
102
RTVSPropertyOp53
 70
     1
102
RTVSPropertyOp54
 70
     1
102
RTVSPropertyOp55
 70
     1
102
RTVSPropertyOp56
 70
     1
102
RTVSPropertyOp57
 70
     1
102
RTVSPropertyOp58
 70
     1
102
RTVSPropertyOp59
 70
     1
102
RTVSPropertyOp60
 70
     1
102
RTVSPropertyOp61
 70
     1
102
RTVSPropertyOp62
 70
     1
  0
XRECORD
  5
341
102
{ACAD_REACTORS
330
340
102
}
330
340
100
AcDbXrecord
280
     1
102
RTVSPost2010Prop28
280
     0
102
RTVSPost2010PropOp28
 70
     1
102
RTVSPost2010Prop29
280
     1
102
RTVSPost2010PropOp29
 70
     1
102
RTVSPost2010Prop30
280
     1
102
RTVSPost2010PropOp30
 70
     1
102
RTVSPost2010Prop31
280
     0
102
RTVSPost2010PropOp31
 70
     1
102
RTVSPost2010Prop32
280
     0
102
RTVSPost2010PropOp32
 70
     1
102
RTVSPost2010Prop33
280
     0
102
RTVSPost2010PropOp33
 70
     1
102
RTVSPost2010Prop34
280
     0
102
RTVSPost2010PropOp34
 70
     1
102
RTVSPost2010Prop35
280
     0
102
RTVSPost2010PropOp35
 70
     1
102
RTVSPost2010Prop36
280
     0
102
RTVSPost2010PropOp36
 70
     1
102
RTVSPost2010Prop37
 90
       50
102
RTVSPost2010PropOp37
 70
     1
102
RTVSPost2010Prop38
140
0.0
102
RTVSPost2010PropOp38
 70
     1
102
RTVSPost2010Prop39
140
1.0
102
RTVSPost2010PropOp39
 70
     1
102
RTVSPost2010Prop40
 90
        0
102
RTVSPost2010PropOp40
 70
     1
102
RTVSPost2010Prop41ColorIndex
 90
       18
102
RTVSPost2010Prop41ColorRGB
 90
        0
102
RTVSPost2010PropOp41
 70
     1
102
RTVSPost2010Prop42
 90
       50
102
RTVSPost2010PropOp42
 70
     1
102
RTVSPost2010Prop43
 90
        3
102
RTVSPost2010PropOp43
 70
     1
102
RTVSPost2010Prop44ColorIndex
 90
        5
102
RTVSPost2010Prop44ColorRGB
 90
      255
102
RTVSPost2010PropOp44
 70
     1
102
RTVSPost2010Prop45
280
     0
102
RTVSPost2010PropOp45
 70
     1
102
RTVSPost2010Prop46
 90
       50
102
RTVSPost2010PropOp46
 70
     1
102
RTVSPost2010Prop47
 90
       50
102
RTVSPost2010PropOp47
 70
     1
102
RTVSPost2010Prop48
 90
       50
102
RTVSPost2010PropOp48
 70
     1
102
RTVSPost2010Prop49
280
     0
102
RTVSPost2010PropOp49
 70
     1
102
RTVSPost2010Prop50
 90
       50
102
RTVSPost2010PropOp50
 70
     1
102
RTVSPost2010Prop51ColorIndex
 90
      256
102
RTVSPost2010Prop51ColorRGB
 90
-16777216
102
RTVSPost2010PropOp51
 70
     0
102
RTVSPost2010Prop52
140
1.0
102
RTVSPost2010PropOp52
 70
     0
102
RTVSPost2010Prop53
 90
        2
102
RTVSPost2010PropOp53
 70
     1
102
RTVSPost2010Prop54
  1
strokes_ogs.tif
102
RTVSPost2010PropOp54
 70
     1
102
RTVSPost2010Prop55
280
     0
102
RTVSPost2010PropOp55
 70
     1
102
RTVSPost2010Prop56
140
1.0
102
RTVSPost2010PropOp56
 70
     1
102
RTVSPost2010Prop57
140
1.0
102
RTVSPost2010PropOp57
 70
     1
102
RTVSPropertyOp0
 70
     1
102
RTVSPropertyOp1
 70
     1
102
RTVSPropertyOp2
 70
     1
102
RTVSPropertyOp3
 70
     1
102
RTVSPropertyOp4
 70
     1
102
RTVSPropertyOp5
 70
     1
102
RTVSPropertyOp6
 70
     1
102
RTVSPropertyOp7
 70
     1
102
RTVSPropertyOp8
 70
     1
102
RTVSPropertyOp9
 70
     1
102
RTVSPropertyOp10
 70
     1
102
RTVSPropertyOp11
 70
     1
102
RTVSPropertyOp12
 70
     1
102
RTVSPropertyOp13
 70
     1
102
RTVSPropertyOp14
 70
     1
102
RTVSPropertyOp15
 70
     1
102
RTVSPropertyOp16
 70
     1
102
RTVSPropertyOp17
 70
     1
102
RTVSPropertyOp18
 70
     1
102
RTVSPropertyOp19
 70
     1
102
RTVSPropertyOp20
 70
     1
102
RTVSPropertyOp21
 70
     1
102
RTVSPropertyOp22
 70
     1
102
RTVSPropertyOp23
 70
     1
102
RTVSPropertyOp24
 70
     1
102
RTVSPropertyOp25
 70
     1
102
RTVSPropertyOp26
 70
     1
102
RTVSPropertyOp27
 70
     1
102
RTVSPropertyOp28
 70
     1
102
RTVSPropertyOp29
 70
     1
102
RTVSPropertyOp30
 70
     1
102
RTVSPropertyOp31
 70
     1
102
RTVSPropertyOp32
 70
     1
102
RTVSPropertyOp33
 70
     1
102
RTVSPropertyOp34
 70
     1
102
RTVSPropertyOp35
 70
     1
102
RTVSPropertyOp36
 70
     1
102
RTVSPropertyOp37
 70
     1
102
RTVSPropertyOp38
 70
     1
102
RTVSPropertyOp39
 70
     1
102
RTVSPropertyOp40
 70
     1
102
RTVSPropertyOp41
 70
     1
102
RTVSPropertyOp42
 70
     1
102
RTVSPropertyOp43
 70
     1
102
RTVSPropertyOp44
 70
     1
102
RTVSPropertyOp45
 70
     1
102
RTVSPropertyOp46
 70
     1
102
RTVSPropertyOp47
 70
     1
102
RTVSPropertyOp48
 70
     1
102
RTVSPropertyOp49
 70
     1
102
RTVSPropertyOp50
 70
     1
102
RTVSPropertyOp51
 70
     0
102
RTVSPropertyOp52
 70
     0
102
RTVSPropertyOp53
 70
     1
102
RTVSPropertyOp54
 70
     1
102
RTVSPropertyOp55
 70
     1
102
RTVSPropertyOp56
 70
     1
102
RTVSPropertyOp57
 70
     1
102
RTVSPropertyOp58
 70
     1
102
RTVSPropertyOp59
 70
     1
102
RTVSPropertyOp60
 70
     1
102
RTVSPropertyOp61
 70
     1
102
RTVSPropertyOp62
 70
     1
  0
XRECORD
  5
351
102
{ACAD_REACTORS
330
350
102
}
330
350
100
AcDbXrecord
280
     1
102
RTVSPost2010Prop28
280
     0
102
RTVSPost2010PropOp28
 70
     0
102
RTVSPost2010Prop29
280
     1
102
RTVSPost2010PropOp29
 70
     0
102
RTVSPost2010Prop30
280
     1
102
RTVSPost2010PropOp30
 70
     0
102
RTVSPost2010Prop31
280
     0
102
RTVSPost2010PropOp31
 70
     0
102
RTVSPost2010Prop32
280
     0
102
RTVSPost2010PropOp32
 70
     0
102
RTVSPost2010Prop33
280
     0
102
RTVSPost2010PropOp33
 70
     0
102
RTVSPost2010Prop34
280
     0
102
RTVSPost2010PropOp34
 70
     0
102
RTVSPost2010Prop35
280
     0
102
RTVSPost2010PropOp35
 70
     0
102
RTVSPost2010Prop36
280
     0
102
RTVSPost2010PropOp36
 70
     0
102
RTVSPost2010Prop37
 90
       50
102
RTVSPost2010PropOp37
 70
     0
102
RTVSPost2010Prop38
140
0.0
102
RTVSPost2010PropOp38
 70
     0
102
RTVSPost2010Prop39
140
1.0
102
RTVSPost2010PropOp39
 70
     0
102
RTVSPost2010Prop40
 90
        0
102
RTVSPost2010PropOp40
 70
     0
102
RTVSPost2010Prop41ColorIndex
 90
       18
102
RTVSPost2010Prop41ColorRGB
 90
        0
102
RTVSPost2010PropOp41
 70
     0
102
RTVSPost2010Prop42
 90
       50
102
RTVSPost2010PropOp42
 70
     0
102
RTVSPost2010Prop43
 90
        3
102
RTVSPost2010PropOp43
 70
     0
102
RTVSPost2010Prop44ColorIndex
 90
        5
102
RTVSPost2010Prop44ColorRGB
 90
      255
102
RTVSPost2010PropOp44
 70
     0
102
RTVSPost2010Prop45
280
     0
102
RTVSPost2010PropOp45
 70
     0
102
RTVSPost2010Prop46
 90
       50
102
RTVSPost2010PropOp46
 70
     0
102
RTVSPost2010Prop47
 90
       50
102
RTVSPost2010PropOp47
 70
     0
102
RTVSPost2010Prop48
 90
       50
102
RTVSPost2010PropOp48
 70
     0
102
RTVSPost2010Prop49
280
     0
102
RTVSPost2010PropOp49
 70
     0
102
RTVSPost2010Prop50
 90
       50
102
RTVSPost2010PropOp50
 70
     0
102
RTVSPost2010Prop51ColorIndex
 90
      256
102
RTVSPost2010Prop51ColorRGB
 90
-16777216
102
RTVSPost2010PropOp51
 70
     0
102
RTVSPost2010Prop52
140
1.0
102
RTVSPost2010PropOp52
 70
     0
102
RTVSPost2010Prop53
 90
        2
102
RTVSPost2010PropOp53
 70
     0
102
RTVSPost2010Prop54
  1
strokes_ogs.tif
102
RTVSPost2010PropOp54
 70
     0
102
RTVSPost2010Prop55
280
     0
102
RTVSPost2010PropOp55
 70
     0
102
RTVSPost2010Prop56
140
1.0
102
RTVSPost2010PropOp56
 70
     0
102
RTVSPost2010Prop57
140
1.0
102
RTVSPost2010PropOp57
 70
     0
102
RTVSPropertyOp0
 70
     0
102
RTVSPropertyOp1
 70
     0
102
RTVSPropertyOp2
 70
     0
102
RTVSPropertyOp3
 70
     0
102
RTVSPropertyOp4
 70
     0
102
RTVSPropertyOp5
 70
     0
102
RTVSPropertyOp6
 70
     0
102
RTVSPropertyOp7
 70
     0
102
RTVSPropertyOp8
 70
     0
102
RTVSPropertyOp9
 70
     0
102
RTVSPropertyOp10
 70
     0
102
RTVSPropertyOp11
 70
     0
102
RTVSPropertyOp12
 70
     0
102
RTVSPropertyOp13
 70
     0
102
RTVSPropertyOp14
 70
     2
102
RTVSPropertyOp15
 70
     0
102
RTVSPropertyOp16
 70
     0
102
RTVSPropertyOp17
 70
     0
102
RTVSPropertyOp18
 70
     0
102
RTVSPropertyOp19
 70
     0
102
RTVSPropertyOp20
 70
     0
102
RTVSPropertyOp21
 70
     0
102
RTVSPropertyOp22
 70
     0
102
RTVSPropertyOp23
 70
     0
102
RTVSPropertyOp24
 70
     0
102
RTVSPropertyOp25
 70
     0
102
RTVSPropertyOp26
 70
     0
102
RTVSPropertyOp27
 70
     0
102
RTVSPropertyOp28
 70
     0
102
RTVSPropertyOp29
 70
     0
102
RTVSPropertyOp30
 70
     0
102
RTVSPropertyOp31
 70
     0
102
RTVSPropertyOp32
 70
     0
102
RTVSPropertyOp33
 70
     0
102
RTVSPropertyOp34
 70
     0
102
RTVSPropertyOp35
 70
     0
102
RTVSPropertyOp36
 70
     0
102
RTVSPropertyOp37
 70
     0
102
RTVSPropertyOp38
 70
     0
102
RTVSPropertyOp39
 70
     0
102
RTVSPropertyOp40
 70
     0
102
RTVSPropertyOp41
 70
     0
102
RTVSPropertyOp42
 70
     0
102
RTVSPropertyOp43
 70
     0
102
RTVSPropertyOp44
 70
     0
102
RTVSPropertyOp45
 70
     0
102
RTVSPropertyOp46
 70
     0
102
RTVSPropertyOp47
 70
     0
102
RTVSPropertyOp48
 70
     0
102
RTVSPropertyOp49
 70
     0
102
RTVSPropertyOp50
 70
     0
102
RTVSPropertyOp51
 70
     0
102
RTVSPropertyOp52
 70
     0
102
RTVSPropertyOp53
 70
     0
102
RTVSPropertyOp54
 70
     0
102
RTVSPropertyOp55
 70
     0
102
RTVSPropertyOp56
 70
     0
102
RTVSPropertyOp57
 70
     0
102
RTVSPropertyOp58
 70
     1
102
RTVSPropertyOp59
 70
     1
102
RTVSPropertyOp60
 70
     1
102
RTVSPropertyOp61
 70
     1
102
RTVSPropertyOp62
 70
     1
  0
XRECORD
  5
349
102
{ACAD_REACTORS
330
348
102
}
330
348
100
AcDbXrecord
280
     1
102
RTVSPost2010Prop28
280
     0
102
RTVSPost2010PropOp28
 70
     1
102
RTVSPost2010Prop29
280
     1
102
RTVSPost2010PropOp29
 70
     1
102
RTVSPost2010Prop30
280
     1
102
RTVSPost2010PropOp30
 70
     1
102
RTVSPost2010Prop31
280
     0
102
RTVSPost2010PropOp31
 70
     1
102
RTVSPost2010Prop32
280
     0
102
RTVSPost2010PropOp32
 70
     1
102
RTVSPost2010Prop33
280
     0
102
RTVSPost2010PropOp33
 70
     1
102
RTVSPost2010Prop34
280
     0
102
RTVSPost2010PropOp34
 70
     1
102
RTVSPost2010Prop35
280
     0
102
RTVSPost2010PropOp35
 70
     1
102
RTVSPost2010Prop36
280
     0
102
RTVSPost2010PropOp36
 70
     1
102
RTVSPost2010Prop37
 90
       50
102
RTVSPost2010PropOp37
 70
     1
102
RTVSPost2010Prop38
140
0.0
102
RTVSPost2010PropOp38
 70
     1
102
RTVSPost2010Prop39
140
1.0
102
RTVSPost2010PropOp39
 70
     1
102
RTVSPost2010Prop40
 90
        0
102
RTVSPost2010PropOp40
 70
     1
102
RTVSPost2010Prop41ColorIndex
 90
       18
102
RTVSPost2010Prop41ColorRGB
 90
        0
102
RTVSPost2010PropOp41
 70
     1
102
RTVSPost2010Prop42
 90
       50
102
RTVSPost2010PropOp42
 70
     1
102
RTVSPost2010Prop43
 90
        3
102
RTVSPost2010PropOp43
 70
     1
102
RTVSPost2010Prop44ColorIndex
 90
        5
102
RTVSPost2010Prop44ColorRGB
 90
      255
102
RTVSPost2010PropOp44
 70
     1
102
RTVSPost2010Prop45
280
     0
102
RTVSPost2010PropOp45
 70
     1
102
RTVSPost2010Prop46
 90
       50
102
RTVSPost2010PropOp46
 70
     1
102
RTVSPost2010Prop47
 90
       50
102
RTVSPost2010PropOp47
 70
     1
102
RTVSPost2010Prop48
 90
       50
102
RTVSPost2010PropOp48
 70
     1
102
RTVSPost2010Prop49
280
     0
102
RTVSPost2010PropOp49
 70
     1
102
RTVSPost2010Prop50
 90
       50
102
RTVSPost2010PropOp50
 70
     1
102
RTVSPost2010Prop51ColorIndex
 90
      256
102
RTVSPost2010Prop51ColorRGB
 90
-16777216
102
RTVSPost2010PropOp51
 70
     0
102
RTVSPost2010Prop52
140
1.0
102
RTVSPost2010PropOp52
 70
     0
102
RTVSPost2010Prop53
 90
        2
102
RTVSPost2010PropOp53
 70
     1
102
RTVSPost2010Prop54
  1
strokes_ogs.tif
102
RTVSPost2010PropOp54
 70
     1
102
RTVSPost2010Prop55
280
     0
102
RTVSPost2010PropOp55
 70
     1
102
RTVSPost2010Prop56
140
1.0
102
RTVSPost2010PropOp56
 70
     1
102
RTVSPost2010Prop57
140
1.0
102
RTVSPost2010PropOp57
 70
     1
102
RTVSPropertyOp0
 70
     1
102
RTVSPropertyOp1
 70
     1
102
RTVSPropertyOp2
 70
     1
102
RTVSPropertyOp3
 70
     1
102
RTVSPropertyOp4
 70
     1
102
RTVSPropertyOp5
 70
     1
102
RTVSPropertyOp6
 70
     1
102
RTVSPropertyOp7
 70
     1
102
RTVSPropertyOp8
 70
     1
102
RTVSPropertyOp9
 70
     1
102
RTVSPropertyOp10
 70
     1
102
RTVSPropertyOp11
 70
     1
102
RTVSPropertyOp12
 70
     1
102
RTVSPropertyOp13
 70
     1
102
RTVSPropertyOp14
 70
     1
102
RTVSPropertyOp15
 70
     1
102
RTVSPropertyOp16
 70
     1
102
RTVSPropertyOp17
 70
     1
102
RTVSPropertyOp18
 70
     1
102
RTVSPropertyOp19
 70
     1
102
RTVSPropertyOp20
 70
     1
102
RTVSPropertyOp21
 70
     1
102
RTVSPropertyOp22
 70
     1
102
RTVSPropertyOp23
 70
     1
102
RTVSPropertyOp24
 70
     1
102
RTVSPropertyOp25
 70
     1
102
RTVSPropertyOp26
 70
     1
102
RTVSPropertyOp27
 70
     1
102
RTVSPropertyOp28
 70
     1
102
RTVSPropertyOp29
 70
     1
102
RTVSPropertyOp30
 70
     1
102
RTVSPropertyOp31
 70
     1
102
RTVSPropertyOp32
 70
     1
102
RTVSPropertyOp33
 70
     1
102
RTVSPropertyOp34
 70
     1
102
RTVSPropertyOp35
 70
     1
102
RTVSPropertyOp36
 70
     1
102
RTVSPropertyOp37
 70
     1
102
RTVSPropertyOp38
 70
     1
102
RTVSPropertyOp39
 70
     1
102
RTVSPropertyOp40
 70
     1
102
RTVSPropertyOp41
 70
     1
102
RTVSPropertyOp42
 70
     1
102
RTVSPropertyOp43
 70
     1
102
RTVSPropertyOp44
 70
     1
102
RTVSPropertyOp45
 70
     1
102
RTVSPropertyOp46
 70
     1
102
RTVSPropertyOp47
 70
     1
102
RTVSPropertyOp48
 70
     1
102
RTVSPropertyOp49
 70
     1
102
RTVSPropertyOp50
 70
     1
102
RTVSPropertyOp51
 70
     0
102
RTVSPropertyOp52
 70
     0
102
RTVSPropertyOp53
 70
     1
102
RTVSPropertyOp54
 70
     1
102
RTVSPropertyOp55
 70
     1
102
RTVSPropertyOp56
 70
     1
102
RTVSPropertyOp57
 70
     1
102
RTVSPropertyOp58
 70
     1
102
RTVSPropertyOp59
 70
     1
102
RTVSPropertyOp60
 70
     1
102
RTVSPropertyOp61
 70
     1
102
RTVSPropertyOp62
 70
     1
  0
XRECORD
  5
32D
102
{ACAD_REACTORS
330
32C
102
}
330
32C
100
AcDbXrecord
280
     1
102
RTVSPost2010Prop28
280
     0
102
RTVSPost2010PropOp28
 70
     1
102
RTVSPost2010Prop29
280
     1
102
RTVSPost2010PropOp29
 70
     1
102
RTVSPost2010Prop30
280
     1
102
RTVSPost2010PropOp30
 70
     1
102
RTVSPost2010Prop31
280
     0
102
RTVSPost2010PropOp31
 70
     1
102
RTVSPost2010Prop32
280
     0
102
RTVSPost2010PropOp32
 70
     1
102
RTVSPost2010Prop33
280
     0
102
RTVSPost2010PropOp33
 70
     1
102
RTVSPost2010Prop34
280
     0
102
RTVSPost2010PropOp34
 70
     1
102
RTVSPost2010Prop35
280
     0
102
RTVSPost2010PropOp35
 70
     1
102
RTVSPost2010Prop36
280
     0
102
RTVSPost2010PropOp36
 70
     1
102
RTVSPost2010Prop37
 90
       50
102
RTVSPost2010PropOp37
 70
     1
102
RTVSPost2010Prop38
140
0.0
102
RTVSPost2010PropOp38
 70
     1
102
RTVSPost2010Prop39
140
1.0
102
RTVSPost2010PropOp39
 70
     1
102
RTVSPost2010Prop40
 90
        0
102
RTVSPost2010PropOp40
 70
     1
102
RTVSPost2010Prop41ColorIndex
 90
       18
102
RTVSPost2010Prop41ColorRGB
 90
        0
102
RTVSPost2010PropOp41
 70
     1
102
RTVSPost2010Prop42
 90
       50
102
RTVSPost2010PropOp42
 70
     1
102
RTVSPost2010Prop43
 90
        3
102
RTVSPost2010PropOp43
 70
     1
102
RTVSPost2010Prop44ColorIndex
 90
        5
102
RTVSPost2010Prop44ColorRGB
 90
      255
102
RTVSPost2010PropOp44
 70
     1
102
RTVSPost2010Prop45
280
     0
102
RTVSPost2010PropOp45
 70
     1
102
RTVSPost2010Prop46
 90
       50
102
RTVSPost2010PropOp46
 70
     1
102
RTVSPost2010Prop47
 90
       50
102
RTVSPost2010PropOp47
 70
     1
102
RTVSPost2010Prop48
 90
       50
102
RTVSPost2010PropOp48
 70
     1
102
RTVSPost2010Prop49
280
     0
102
RTVSPost2010PropOp49
 70
     1
102
RTVSPost2010Prop50
 90
       50
102
RTVSPost2010PropOp50
 70
     1
102
RTVSPost2010Prop51ColorIndex
 90
      256
102
RTVSPost2010Prop51ColorRGB
 90
-16777216
102
RTVSPost2010PropOp51
 70
     0
102
RTVSPost2010Prop52
140
1.0
102
RTVSPost2010PropOp52
 70
     0
102
RTVSPost2010Prop53
 90
        2
102
RTVSPost2010PropOp53
 70
     1
102
RTVSPost2010Prop54
  1
strokes_ogs.tif
102
RTVSPost2010PropOp54
 70
     1
102
RTVSPost2010Prop55
280
     0
102
RTVSPost2010PropOp55
 70
     1
102
RTVSPost2010Prop56
140
1.0
102
RTVSPost2010PropOp56
 70
     1
102
RTVSPost2010Prop57
140
1.0
102
RTVSPost2010PropOp57
 70
     1
102
RTVSPropertyOp0
 70
     1
102
RTVSPropertyOp1
 70
     1
102
RTVSPropertyOp2
 70
     1
102
RTVSPropertyOp3
 70
     1
102
RTVSPropertyOp4
 70
     1
102
RTVSPropertyOp5
 70
     1
102
RTVSPropertyOp6
 70
     1
102
RTVSPropertyOp7
 70
     1
102
RTVSPropertyOp8
 70
     1
102
RTVSPropertyOp9
 70
     1
102
RTVSPropertyOp10
 70
     1
102
RTVSPropertyOp11
 70
     1
102
RTVSPropertyOp12
 70
     1
102
RTVSPropertyOp13
 70
     1
102
RTVSPropertyOp14
 70
     1
102
RTVSPropertyOp15
 70
     1
102
RTVSPropertyOp16
 70
     1
102
RTVSPropertyOp17
 70
     1
102
RTVSPropertyOp18
 70
     1
102
RTVSPropertyOp19
 70
     1
102
RTVSPropertyOp20
 70
     1
102
RTVSPropertyOp21
 70
     1
102
RTVSPropertyOp22
 70
     1
102
RTVSPropertyOp23
 70
     1
102
RTVSPropertyOp24
 70
     1
102
RTVSPropertyOp25
 70
     1
102
RTVSPropertyOp26
 70
     1
102
RTVSPropertyOp27
 70
     1
102
RTVSPropertyOp28
 70
     1
102
RTVSPropertyOp29
 70
     1
102
RTVSPropertyOp30
 70
     1
102
RTVSPropertyOp31
 70
     1
102
RTVSPropertyOp32
 70
     1
102
RTVSPropertyOp33
 70
     1
102
RTVSPropertyOp34
 70
     1
102
RTVSPropertyOp35
 70
     1
102
RTVSPropertyOp36
 70
     1
102
RTVSPropertyOp37
 70
     1
102
RTVSPropertyOp38
 70
     1
102
RTVSPropertyOp39
 70
     1
102
RTVSPropertyOp40
 70
     1
102
RTVSPropertyOp41
 70
     1
102
RTVSPropertyOp42
 70
     1
102
RTVSPropertyOp43
 70
     1
102
RTVSPropertyOp44
 70
     1
102
RTVSPropertyOp45
 70
     1
102
RTVSPropertyOp46
 70
     1
102
RTVSPropertyOp47
 70
     1
102
RTVSPropertyOp48
 70
     1
102
RTVSPropertyOp49
 70
     1
102
RTVSPropertyOp50
 70
     1
102
RTVSPropertyOp51
 70
     0
102
RTVSPropertyOp52
 70
     0
102
RTVSPropertyOp53
 70
     1
102
RTVSPropertyOp54
 70
     1
102
RTVSPropertyOp55
 70
     1
102
RTVSPropertyOp56
 70
     1
102
RTVSPropertyOp57
 70
     1
102
RTVSPropertyOp58
 70
     1
102
RTVSPropertyOp59
 70
     1
102
RTVSPropertyOp60
 70
     1
102
RTVSPropertyOp61
 70
     1
102
RTVSPropertyOp62
 70
     1
  0
XRECORD
  5
32F
102
{ACAD_REACTORS
330
32E
102
}
330
32E
100
AcDbXrecord
280
     1
102
RTVSPost2010Prop28
280
     0
102
RTVSPost2010PropOp28
 70
     1
102
RTVSPost2010Prop29
280
     1
102
RTVSPost2010PropOp29
 70
     1
102
RTVSPost2010Prop30
280
     1
102
RTVSPost2010PropOp30
 70
     1
102
RTVSPost2010Prop31
280
     0
102
RTVSPost2010PropOp31
 70
     1
102
RTVSPost2010Prop32
280
     0
102
RTVSPost2010PropOp32
 70
     1
102
RTVSPost2010Prop33
280
     0
102
RTVSPost2010PropOp33
 70
     1
102
RTVSPost2010Prop34
280
     0
102
RTVSPost2010PropOp34
 70
     1
102
RTVSPost2010Prop35
280
     0
102
RTVSPost2010PropOp35
 70
     1
102
RTVSPost2010Prop36
280
     0
102
RTVSPost2010PropOp36
 70
     1
102
RTVSPost2010Prop37
 90
       50
102
RTVSPost2010PropOp37
 70
     1
102
RTVSPost2010Prop38
140
0.0
102
RTVSPost2010PropOp38
 70
     1
102
RTVSPost2010Prop39
140
1.0
102
RTVSPost2010PropOp39
 70
     1
102
RTVSPost2010Prop40
 90
        0
102
RTVSPost2010PropOp40
 70
     1
102
RTVSPost2010Prop41ColorIndex
 90
       18
102
RTVSPost2010Prop41ColorRGB
 90
        0
102
RTVSPost2010PropOp41
 70
     1
102
RTVSPost2010Prop42
 90
       50
102
RTVSPost2010PropOp42
 70
     1
102
RTVSPost2010Prop43
 90
        3
102
RTVSPost2010PropOp43
 70
     1
102
RTVSPost2010Prop44ColorIndex
 90
        5
102
RTVSPost2010Prop44ColorRGB
 90
      255
102
RTVSPost2010PropOp44
 70
     1
102
RTVSPost2010Prop45
280
     0
102
RTVSPost2010PropOp45
 70
     1
102
RTVSPost2010Prop46
 90
       50
102
RTVSPost2010PropOp46
 70
     1
102
RTVSPost2010Prop47
 90
       50
102
RTVSPost2010PropOp47
 70
     1
102
RTVSPost2010Prop48
 90
       50
102
RTVSPost2010PropOp48
 70
     1
102
RTVSPost2010Prop49
280
     0
102
RTVSPost2010PropOp49
 70
     1
102
RTVSPost2010Prop50
 90
       50
102
RTVSPost2010PropOp50
 70
     1
102
RTVSPost2010Prop51ColorIndex
 90
      256
102
RTVSPost2010Prop51ColorRGB
 90
-16777216
102
RTVSPost2010PropOp51
 70
     0
102
RTVSPost2010Prop52
140
1.0
102
RTVSPost2010PropOp52
 70
     0
102
RTVSPost2010Prop53
 90
        2
102
RTVSPost2010PropOp53
 70
     1
102
RTVSPost2010Prop54
  1
strokes_ogs.tif
102
RTVSPost2010PropOp54
 70
     1
102
RTVSPost2010Prop55
280
     0
102
RTVSPost2010PropOp55
 70
     1
102
RTVSPost2010Prop56
140
1.0
102
RTVSPost2010PropOp56
 70
     1
102
RTVSPost2010Prop57
140
1.0
102
RTVSPost2010PropOp57
 70
     1
102
RTVSPropertyOp0
 70
     1
102
RTVSPropertyOp1
 70
     1
102
RTVSPropertyOp2
 70
     1
102
RTVSPropertyOp3
 70
     1
102
RTVSPropertyOp4
 70
     1
102
RTVSPropertyOp5
 70
     1
102
RTVSPropertyOp6
 70
     1
102
RTVSPropertyOp7
 70
     1
102
RTVSPropertyOp8
 70
     1
102
RTVSPropertyOp9
 70
     1
102
RTVSPropertyOp10
 70
     1
102
RTVSPropertyOp11
 70
     1
102
RTVSPropertyOp12
 70
     1
102
RTVSPropertyOp13
 70
     1
102
RTVSPropertyOp14
 70
     1
102
RTVSPropertyOp15
 70
     1
102
RTVSPropertyOp16
 70
     1
102
RTVSPropertyOp17
 70
     1
102
RTVSPropertyOp18
 70
     1
102
RTVSPropertyOp19
 70
     1
102
RTVSPropertyOp20
 70
     1
102
RTVSPropertyOp21
 70
     1
102
RTVSPropertyOp22
 70
     1
102
RTVSPropertyOp23
 70
     1
102
RTVSPropertyOp24
 70
     1
102
RTVSPropertyOp25
 70
     1
102
RTVSPropertyOp26
 70
     1
102
RTVSPropertyOp27
 70
     1
102
RTVSPropertyOp28
 70
     1
102
RTVSPropertyOp29
 70
     1
102
RTVSPropertyOp30
 70
     1
102
RTVSPropertyOp31
 70
     1
102
RTVSPropertyOp32
 70
     1
102
RTVSPropertyOp33
 70
     1
102
RTVSPropertyOp34
 70
     1
102
RTVSPropertyOp35
 70
     1
102
RTVSPropertyOp36
 70
     1
102
RTVSPropertyOp37
 70
     1
102
RTVSPropertyOp38
 70
     1
102
RTVSPropertyOp39
 70
     1
102
RTVSPropertyOp40
 70
     1
102
RTVSPropertyOp41
 70
     1
102
RTVSPropertyOp42
 70
     1
102
RTVSPropertyOp43
 70
     1
102
RTVSPropertyOp44
 70
     1
102
RTVSPropertyOp45
 70
     1
102
RTVSPropertyOp46
 70
     1
102
RTVSPropertyOp47
 70
     1
102
RTVSPropertyOp48
 70
     1
102
RTVSPropertyOp49
 70
     1
102
RTVSPropertyOp50
 70
     1
102
RTVSPropertyOp51
 70
     0
102
RTVSPropertyOp52
 70
     0
102
RTVSPropertyOp53
 70
     1
102
RTVSPropertyOp54
 70
     1
102
RTVSPropertyOp55
 70
     1
102
RTVSPropertyOp56
 70
     1
102
RTVSPropertyOp57
 70
     1
102
RTVSPropertyOp58
 70
     1
102
RTVSPropertyOp59
 70
     1
102
RTVSPropertyOp60
 70
     1
102
RTVSPropertyOp61
 70
     1
102
RTVSPropertyOp62
 70
     1
  0
XRECORD
  5
331
102
{ACAD_REACTORS
330
330
102
}
330
330
100
AcDbXrecord
280
     1
102
RTVSPost2010Prop28
280
     0
102
RTVSPost2010PropOp28
 70
     1
102
RTVSPost2010Prop29
280
     1
102
RTVSPost2010PropOp29
 70
     1
102
RTVSPost2010Prop30
280
     1
102
RTVSPost2010PropOp30
 70
     1
102
RTVSPost2010Prop31
280
     0
102
RTVSPost2010PropOp31
 70
     1
102
RTVSPost2010Prop32
280
     0
102
RTVSPost2010PropOp32
 70
     1
102
RTVSPost2010Prop33
280
     0
102
RTVSPost2010PropOp33
 70
     1
102
RTVSPost2010Prop34
280
     0
102
RTVSPost2010PropOp34
 70
     1
102
RTVSPost2010Prop35
280
     0
102
RTVSPost2010PropOp35
 70
     1
102
RTVSPost2010Prop36
280
     0
102
RTVSPost2010PropOp36
 70
     1
102
RTVSPost2010Prop37
 90
       50
102
RTVSPost2010PropOp37
 70
     1
102
RTVSPost2010Prop38
140
0.0
102
RTVSPost2010PropOp38
 70
     1
102
RTVSPost2010Prop39
140
1.0
102
RTVSPost2010PropOp39
 70
     1
102
RTVSPost2010Prop40
 90
        0
102
RTVSPost2010PropOp40
 70
     1
102
RTVSPost2010Prop41ColorIndex
 90
       18
102
RTVSPost2010Prop41ColorRGB
 90
        0
102
RTVSPost2010PropOp41
 70
     1
102
RTVSPost2010Prop42
 90
       50
102
RTVSPost2010PropOp42
 70
     1
102
RTVSPost2010Prop43
 90
        3
102
RTVSPost2010PropOp43
 70
     1
102
RTVSPost2010Prop44ColorIndex
 90
        5
102
RTVSPost2010Prop44ColorRGB
 90
      255
102
RTVSPost2010PropOp44
 70
     1
102
RTVSPost2010Prop45
280
     0
102
RTVSPost2010PropOp45
 70
     1
102
RTVSPost2010Prop46
 90
       50
102
RTVSPost2010PropOp46
 70
     1
102
RTVSPost2010Prop47
 90
       50
102
RTVSPost2010PropOp47
 70
     1
102
RTVSPost2010Prop48
 90
       50
102
RTVSPost2010PropOp48
 70
     1
102
RTVSPost2010Prop49
280
     0
102
RTVSPost2010PropOp49
 70
     1
102
RTVSPost2010Prop50
 90
       50
102
RTVSPost2010PropOp50
 70
     1
102
RTVSPost2010Prop51ColorIndex
 90
      256
102
RTVSPost2010Prop51ColorRGB
 90
-16777216
102
RTVSPost2010PropOp51
 70
     0
102
RTVSPost2010Prop52
140
1.0
102
RTVSPost2010PropOp52
 70
     0
102
RTVSPost2010Prop53
 90
        2
102
RTVSPost2010PropOp53
 70
     1
102
RTVSPost2010Prop54
  1
strokes_ogs.tif
102
RTVSPost2010PropOp54
 70
     1
102
RTVSPost2010Prop55
280
     0
102
RTVSPost2010PropOp55
 70
     1
102
RTVSPost2010Prop56
140
1.0
102
RTVSPost2010PropOp56
 70
     1
102
RTVSPost2010Prop57
140
1.0
102
RTVSPost2010PropOp57
 70
     1
102
RTVSPropertyOp0
 70
     1
102
RTVSPropertyOp1
 70
     1
102
RTVSPropertyOp2
 70
     1
102
RTVSPropertyOp3
 70
     1
102
RTVSPropertyOp4
 70
     1
102
RTVSPropertyOp5
 70
     1
102
RTVSPropertyOp6
 70
     1
102
RTVSPropertyOp7
 70
     1
102
RTVSPropertyOp8
 70
     1
102
RTVSPropertyOp9
 70
     1
102
RTVSPropertyOp10
 70
     1
102
RTVSPropertyOp11
 70
     1
102
RTVSPropertyOp12
 70
     1
102
RTVSPropertyOp13
 70
     1
102
RTVSPropertyOp14
 70
     1
102
RTVSPropertyOp15
 70
     1
102
RTVSPropertyOp16
 70
     1
102
RTVSPropertyOp17
 70
     1
102
RTVSPropertyOp18
 70
     1
102
RTVSPropertyOp19
 70
     1
102
RTVSPropertyOp20
 70
     1
102
RTVSPropertyOp21
 70
     1
102
RTVSPropertyOp22
 70
     1
102
RTVSPropertyOp23
 70
     1
102
RTVSPropertyOp24
 70
     1
102
RTVSPropertyOp25
 70
     1
102
RTVSPropertyOp26
 70
     1
102
RTVSPropertyOp27
 70
     1
102
RTVSPropertyOp28
 70
     1
102
RTVSPropertyOp29
 70
     1
102
RTVSPropertyOp30
 70
     1
102
RTVSPropertyOp31
 70
     1
102
RTVSPropertyOp32
 70
     1
102
RTVSPropertyOp33
 70
     1
102
RTVSPropertyOp34
 70
     1
102
RTVSPropertyOp35
 70
     1
102
RTVSPropertyOp36
 70
     1
102
RTVSPropertyOp37
 70
     1
102
RTVSPropertyOp38
 70
     1
102
RTVSPropertyOp39
 70
     1
102
RTVSPropertyOp40
 70
     1
102
RTVSPropertyOp41
 70
     1
102
RTVSPropertyOp42
 70
     1
102
RTVSPropertyOp43
 70
     1
102
RTVSPropertyOp44
 70
     1
102
RTVSPropertyOp45
 70
     1
102
RTVSPropertyOp46
 70
     1
102
RTVSPropertyOp47
 70
     1
102
RTVSPropertyOp48
 70
     1
102
RTVSPropertyOp49
 70
     1
102
RTVSPropertyOp50
 70
     1
102
RTVSPropertyOp51
 70
     0
102
RTVSPropertyOp52
 70
     0
102
RTVSPropertyOp53
 70
     1
102
RTVSPropertyOp54
 70
     1
102
RTVSPropertyOp55
 70
     1
102
RTVSPropertyOp56
 70
     1
102
RTVSPropertyOp57
 70
     1
102
RTVSPropertyOp58
 70
     1
102
RTVSPropertyOp59
 70
     1
102
RTVSPropertyOp60
 70
     1
102
RTVSPropertyOp61
 70
     1
102
RTVSPropertyOp62
 70
     1
  0
XRECORD
  5
333
102
{ACAD_REACTORS
330
332
102
}
330
332
100
AcDbXrecord
280
     1
102
RTVSPost2010Prop28
280
     0
102
RTVSPost2010PropOp28
 70
     1
102
RTVSPost2010Prop29
280
     1
102
RTVSPost2010PropOp29
 70
     1
102
RTVSPost2010Prop30
280
     1
102
RTVSPost2010PropOp30
 70
     1
102
RTVSPost2010Prop31
280
     0
102
RTVSPost2010PropOp31
 70
     1
102
RTVSPost2010Prop32
280
     0
102
RTVSPost2010PropOp32
 70
     1
102
RTVSPost2010Prop33
280
     0
102
RTVSPost2010PropOp33
 70
     1
102
RTVSPost2010Prop34
280
     0
102
RTVSPost2010PropOp34
 70
     1
102
RTVSPost2010Prop35
280
     0
102
RTVSPost2010PropOp35
 70
     1
102
RTVSPost2010Prop36
280
     0
102
RTVSPost2010PropOp36
 70
     1
102
RTVSPost2010Prop37
 90
       50
102
RTVSPost2010PropOp37
 70
     1
102
RTVSPost2010Prop38
140
0.0
102
RTVSPost2010PropOp38
 70
     1
102
RTVSPost2010Prop39
140
1.0
102
RTVSPost2010PropOp39
 70
     1
102
RTVSPost2010Prop40
 90
        0
102
RTVSPost2010PropOp40
 70
     1
102
RTVSPost2010Prop41ColorIndex
 90
       18
102
RTVSPost2010Prop41ColorRGB
 90
        0
102
RTVSPost2010PropOp41
 70
     1
102
RTVSPost2010Prop42
 90
       50
102
RTVSPost2010PropOp42
 70
     1
102
RTVSPost2010Prop43
 90
        3
102
RTVSPost2010PropOp43
 70
     1
102
RTVSPost2010Prop44ColorIndex
 90
        5
102
RTVSPost2010Prop44ColorRGB
 90
      255
102
RTVSPost2010PropOp44
 70
     1
102
RTVSPost2010Prop45
280
     0
102
RTVSPost2010PropOp45
 70
     1
102
RTVSPost2010Prop46
 90
       50
102
RTVSPost2010PropOp46
 70
     1
102
RTVSPost2010Prop47
 90
       50
102
RTVSPost2010PropOp47
 70
     1
102
RTVSPost2010Prop48
 90
       50
102
RTVSPost2010PropOp48
 70
     1
102
RTVSPost2010Prop49
280
     0
102
RTVSPost2010PropOp49
 70
     1
102
RTVSPost2010Prop50
 90
       50
102
RTVSPost2010PropOp50
 70
     1
102
RTVSPost2010Prop51ColorIndex
 90
      256
102
RTVSPost2010Prop51ColorRGB
 90
-16777216
102
RTVSPost2010PropOp51
 70
     0
102
RTVSPost2010Prop52
140
1.0
102
RTVSPost2010PropOp52
 70
     0
102
RTVSPost2010Prop53
 90
        2
102
RTVSPost2010PropOp53
 70
     1
102
RTVSPost2010Prop54
  1
strokes_ogs.tif
102
RTVSPost2010PropOp54
 70
     1
102
RTVSPost2010Prop55
280
     0
102
RTVSPost2010PropOp55
 70
     1
102
RTVSPost2010Prop56
140
1.0
102
RTVSPost2010PropOp56
 70
     1
102
RTVSPost2010Prop57
140
1.0
102
RTVSPost2010PropOp57
 70
     1
102
RTVSPropertyOp0
 70
     1
102
RTVSPropertyOp1
 70
     1
102
RTVSPropertyOp2
 70
     1
102
RTVSPropertyOp3
 70
     1
102
RTVSPropertyOp4
 70
     1
102
RTVSPropertyOp5
 70
     1
102
RTVSPropertyOp6
 70
     1
102
RTVSPropertyOp7
 70
     1
102
RTVSPropertyOp8
 70
     1
102
RTVSPropertyOp9
 70
     1
102
RTVSPropertyOp10
 70
     1
102
RTVSPropertyOp11
 70
     1
102
RTVSPropertyOp12
 70
     1
102
RTVSPropertyOp13
 70
     1
102
RTVSPropertyOp14
 70
     1
102
RTVSPropertyOp15
 70
     1
102
RTVSPropertyOp16
 70
     1
102
RTVSPropertyOp17
 70
     1
102
RTVSPropertyOp18
 70
     1
102
RTVSPropertyOp19
 70
     1
102
RTVSPropertyOp20
 70
     1
102
RTVSPropertyOp21
 70
     1
102
RTVSPropertyOp22
 70
     1
102
RTVSPropertyOp23
 70
     1
102
RTVSPropertyOp24
 70
     1
102
RTVSPropertyOp25
 70
     1
102
RTVSPropertyOp26
 70
     1
102
RTVSPropertyOp27
 70
     1
102
RTVSPropertyOp28
 70
     1
102
RTVSPropertyOp29
 70
     1
102
RTVSPropertyOp30
 70
     1
102
RTVSPropertyOp31
 70
     1
102
RTVSPropertyOp32
 70
     1
102
RTVSPropertyOp33
 70
     1
102
RTVSPropertyOp34
 70
     1
102
RTVSPropertyOp35
 70
     1
102
RTVSPropertyOp36
 70
     1
102
RTVSPropertyOp37
 70
     1
102
RTVSPropertyOp38
 70
     1
102
RTVSPropertyOp39
 70
     1
102
RTVSPropertyOp40
 70
     1
102
RTVSPropertyOp41
 70
     1
102
RTVSPropertyOp42
 70
     1
102
RTVSPropertyOp43
 70
     1
102
RTVSPropertyOp44
 70
     1
102
RTVSPropertyOp45
 70
     1
102
RTVSPropertyOp46
 70
     1
102
RTVSPropertyOp47
 70
     1
102
RTVSPropertyOp48
 70
     1
102
RTVSPropertyOp49
 70
     1
102
RTVSPropertyOp50
 70
     1
102
RTVSPropertyOp51
 70
     0
102
RTVSPropertyOp52
 70
     0
102
RTVSPropertyOp53
 70
     1
102
RTVSPropertyOp54
 70
     1
102
RTVSPropertyOp55
 70
     1
102
RTVSPropertyOp56
 70
     1
102
RTVSPropertyOp57
 70
     1
102
RTVSPropertyOp58
 70
     1
102
RTVSPropertyOp59
 70
     1
102
RTVSPropertyOp60
 70
     1
102
RTVSPropertyOp61
 70
     1
102
RTVSPropertyOp62
 70
     1
  0
XRECORD
  5
339
102
{ACAD_REACTORS
330
338
102
}
330
338
100
AcDbXrecord
280
     1
102
RTVSPost2010Prop28
280
     0
102
RTVSPost2010PropOp28
 70
     1
102
RTVSPost2010Prop29
280
     1
102
RTVSPost2010PropOp29
 70
     1
102
RTVSPost2010Prop30
280
     1
102
RTVSPost2010PropOp30
 70
     1
102
RTVSPost2010Prop31
280
     0
102
RTVSPost2010PropOp31
 70
     1
102
RTVSPost2010Prop32
280
     0
102
RTVSPost2010PropOp32
 70
     1
102
RTVSPost2010Prop33
280
     0
102
RTVSPost2010PropOp33
 70
     1
102
RTVSPost2010Prop34
280
     0
102
RTVSPost2010PropOp34
 70
     1
102
RTVSPost2010Prop35
280
     0
102
RTVSPost2010PropOp35
 70
     1
102
RTVSPost2010Prop36
280
     0
102
RTVSPost2010PropOp36
 70
     1
102
RTVSPost2010Prop37
 90
       50
102
RTVSPost2010PropOp37
 70
     1
102
RTVSPost2010Prop38
140
0.0
102
RTVSPost2010PropOp38
 70
     1
102
RTVSPost2010Prop39
140
1.0
102
RTVSPost2010PropOp39
 70
     1
102
RTVSPost2010Prop40
 90
        0
102
RTVSPost2010PropOp40
 70
     1
102
RTVSPost2010Prop41ColorIndex
 90
       18
102
RTVSPost2010Prop41ColorRGB
 90
        0
102
RTVSPost2010PropOp41
 70
     1
102
RTVSPost2010Prop42
 90
       50
102
RTVSPost2010PropOp42
 70
     1
102
RTVSPost2010Prop43
 90
        3
102
RTVSPost2010PropOp43
 70
     1
102
RTVSPost2010Prop44ColorIndex
 90
        5
102
RTVSPost2010Prop44ColorRGB
 90
      255
102
RTVSPost2010PropOp44
 70
     1
102
RTVSPost2010Prop45
280
     0
102
RTVSPost2010PropOp45
 70
     1
102
RTVSPost2010Prop46
 90
       50
102
RTVSPost2010PropOp46
 70
     1
102
RTVSPost2010Prop47
 90
       50
102
RTVSPost2010PropOp47
 70
     1
102
RTVSPost2010Prop48
 90
       50
102
RTVSPost2010PropOp48
 70
     1
102
RTVSPost2010Prop49
280
     0
102
RTVSPost2010PropOp49
 70
     1
102
RTVSPost2010Prop50
 90
       50
102
RTVSPost2010PropOp50
 70
     1
102
RTVSPost2010Prop51ColorIndex
 90
      256
102
RTVSPost2010Prop51ColorRGB
 90
-16777216
102
RTVSPost2010PropOp51
 70
     0
102
RTVSPost2010Prop52
140
1.0
102
RTVSPost2010PropOp52
 70
     0
102
RTVSPost2010Prop53
 90
        2
102
RTVSPost2010PropOp53
 70
     1
102
RTVSPost2010Prop54
  1
strokes_ogs.tif
102
RTVSPost2010PropOp54
 70
     1
102
RTVSPost2010Prop55
280
     0
102
RTVSPost2010PropOp55
 70
     1
102
RTVSPost2010Prop56
140
1.0
102
RTVSPost2010PropOp56
 70
     1
102
RTVSPost2010Prop57
140
1.0
102
RTVSPost2010PropOp57
 70
     1
102
RTVSPropertyOp0
 70
     1
102
RTVSPropertyOp1
 70
     1
102
RTVSPropertyOp2
 70
     1
102
RTVSPropertyOp3
 70
     1
102
RTVSPropertyOp4
 70
     1
102
RTVSPropertyOp5
 70
     1
102
RTVSPropertyOp6
 70
     1
102
RTVSPropertyOp7
 70
     1
102
RTVSPropertyOp8
 70
     1
102
RTVSPropertyOp9
 70
     1
102
RTVSPropertyOp10
 70
     1
102
RTVSPropertyOp11
 70
     1
102
RTVSPropertyOp12
 70
     1
102
RTVSPropertyOp13
 70
     1
102
RTVSPropertyOp14
 70
     1
102
RTVSPropertyOp15
 70
     1
102
RTVSPropertyOp16
 70
     1
102
RTVSPropertyOp17
 70
     1
102
RTVSPropertyOp18
 70
     1
102
RTVSPropertyOp19
 70
     1
102
RTVSPropertyOp20
 70
     1
102
RTVSPropertyOp21
 70
     1
102
RTVSPropertyOp22
 70
     1
102
RTVSPropertyOp23
 70
     1
102
RTVSPropertyOp24
 70
     1
102
RTVSPropertyOp25
 70
     1
102
RTVSPropertyOp26
 70
     1
102
RTVSPropertyOp27
 70
     1
102
RTVSPropertyOp28
 70
     1
102
RTVSPropertyOp29
 70
     1
102
RTVSPropertyOp30
 70
     1
102
RTVSPropertyOp31
 70
     1
102
RTVSPropertyOp32
 70
     1
102
RTVSPropertyOp33
 70
     1
102
RTVSPropertyOp34
 70
     1
102
RTVSPropertyOp35
 70
     1
102
RTVSPropertyOp36
 70
     1
102
RTVSPropertyOp37
 70
     1
102
RTVSPropertyOp38
 70
     1
102
RTVSPropertyOp39
 70
     1
102
RTVSPropertyOp40
 70
     1
102
RTVSPropertyOp41
 70
     1
102
RTVSPropertyOp42
 70
     1
102
RTVSPropertyOp43
 70
     1
102
RTVSPropertyOp44
 70
     1
102
RTVSPropertyOp45
 70
     1
102
RTVSPropertyOp46
 70
     1
102
RTVSPropertyOp47
 70
     1
102
RTVSPropertyOp48
 70
     1
102
RTVSPropertyOp49
 70
     1
102
RTVSPropertyOp50
 70
     1
102
RTVSPropertyOp51
 70
     0
102
RTVSPropertyOp52
 70
     0
102
RTVSPropertyOp53
 70
     1
102
RTVSPropertyOp54
 70
     1
102
RTVSPropertyOp55
 70
     1
102
RTVSPropertyOp56
 70
     1
102
RTVSPropertyOp57
 70
     1
102
RTVSPropertyOp58
 70
     1
102
RTVSPropertyOp59
 70
     1
102
RTVSPropertyOp60
 70
     1
102
RTVSPropertyOp61
 70
     1
102
RTVSPropertyOp62
 70
     1
  0
XRECORD
  5
34D
102
{ACAD_REACTORS
330
34C
102
}
330
34C
100
AcDbXrecord
280
     1
102
RTVSPost2010Prop28
280
     0
102
RTVSPost2010PropOp28
 70
     0
102
RTVSPost2010Prop29
280
     1
102
RTVSPost2010PropOp29
 70
     0
102
RTVSPost2010Prop30
280
     1
102
RTVSPost2010PropOp30
 70
     0
102
RTVSPost2010Prop31
280
     0
102
RTVSPost2010PropOp31
 70
     0
102
RTVSPost2010Prop32
280
     0
102
RTVSPost2010PropOp32
 70
     0
102
RTVSPost2010Prop33
280
     0
102
RTVSPost2010PropOp33
 70
     0
102
RTVSPost2010Prop34
280
     0
102
RTVSPost2010PropOp34
 70
     0
102
RTVSPost2010Prop35
280
     0
102
RTVSPost2010PropOp35
 70
     0
102
RTVSPost2010Prop36
280
     0
102
RTVSPost2010PropOp36
 70
     0
102
RTVSPost2010Prop37
 90
       50
102
RTVSPost2010PropOp37
 70
     0
102
RTVSPost2010Prop38
140
0.0
102
RTVSPost2010PropOp38
 70
     0
102
RTVSPost2010Prop39
140
1.0
102
RTVSPost2010PropOp39
 70
     0
102
RTVSPost2010Prop40
 90
        0
102
RTVSPost2010PropOp40
 70
     0
102
RTVSPost2010Prop41ColorIndex
 90
       18
102
RTVSPost2010Prop41ColorRGB
 90
        0
102
RTVSPost2010PropOp41
 70
     0
102
RTVSPost2010Prop42
 90
       50
102
RTVSPost2010PropOp42
 70
     0
102
RTVSPost2010Prop43
 90
        3
102
RTVSPost2010PropOp43
 70
     0
102
RTVSPost2010Prop44ColorIndex
 90
        5
102
RTVSPost2010Prop44ColorRGB
 90
      255
102
RTVSPost2010PropOp44
 70
     0
102
RTVSPost2010Prop45
280
     0
102
RTVSPost2010PropOp45
 70
     0
102
RTVSPost2010Prop46
 90
       50
102
RTVSPost2010PropOp46
 70
     0
102
RTVSPost2010Prop47
 90
       50
102
RTVSPost2010PropOp47
 70
     0
102
RTVSPost2010Prop48
 90
       50
102
RTVSPost2010PropOp48
 70
     0
102
RTVSPost2010Prop49
280
     0
102
RTVSPost2010PropOp49
 70
     0
102
RTVSPost2010Prop50
 90
       50
102
RTVSPost2010PropOp50
 70
     0
102
RTVSPost2010Prop51ColorIndex
 90
      256
102
RTVSPost2010Prop51ColorRGB
 90
-16777216
102
RTVSPost2010PropOp51
 70
     0
102
RTVSPost2010Prop52
140
1.0
102
RTVSPost2010PropOp52
 70
     0
102
RTVSPost2010Prop53
 90
        2
102
RTVSPost2010PropOp53
 70
     0
102
RTVSPost2010Prop54
  1
strokes_ogs.tif
102
RTVSPost2010PropOp54
 70
     0
102
RTVSPost2010Prop55
280
     0
102
RTVSPost2010PropOp55
 70
     0
102
RTVSPost2010Prop56
140
1.0
102
RTVSPost2010PropOp56
 70
     0
102
RTVSPost2010Prop57
140
1.0
102
RTVSPost2010PropOp57
 70
     0
102
RTVSPropertyOp0
 70
     0
102
RTVSPropertyOp1
 70
     0
102
RTVSPropertyOp2
 70
     0
102
RTVSPropertyOp3
 70
     0
102
RTVSPropertyOp4
 70
     0
102
RTVSPropertyOp5
 70
     0
102
RTVSPropertyOp6
 70
     0
102
RTVSPropertyOp7
 70
     0
102
RTVSPropertyOp8
 70
     0
102
RTVSPropertyOp9
 70
     0
102
RTVSPropertyOp10
 70
     0
102
RTVSPropertyOp11
 70
     0
102
RTVSPropertyOp12
 70
     0
102
RTVSPropertyOp13
 70
     0
102
RTVSPropertyOp14
 70
     2
102
RTVSPropertyOp15
 70
     0
102
RTVSPropertyOp16
 70
     0
102
RTVSPropertyOp17
 70
     0
102
RTVSPropertyOp18
 70
     0
102
RTVSPropertyOp19
 70
     0
102
RTVSPropertyOp20
 70
     0
102
RTVSPropertyOp21
 70
     0
102
RTVSPropertyOp22
 70
     0
102
RTVSPropertyOp23
 70
     0
102
RTVSPropertyOp24
 70
     0
102
RTVSPropertyOp25
 70
     0
102
RTVSPropertyOp26
 70
     0
102
RTVSPropertyOp27
 70
     0
102
RTVSPropertyOp28
 70
     0
102
RTVSPropertyOp29
 70
     0
102
RTVSPropertyOp30
 70
     0
102
RTVSPropertyOp31
 70
     0
102
RTVSPropertyOp32
 70
     0
102
RTVSPropertyOp33
 70
     0
102
RTVSPropertyOp34
 70
     0
102
RTVSPropertyOp35
 70
     0
102
RTVSPropertyOp36
 70
     0
102
RTVSPropertyOp37
 70
     0
102
RTVSPropertyOp38
 70
     0
102
RTVSPropertyOp39
 70
     0
102
RTVSPropertyOp40
 70
     0
102
RTVSPropertyOp41
 70
     0
102
RTVSPropertyOp42
 70
     0
102
RTVSPropertyOp43
 70
     0
102
RTVSPropertyOp44
 70
     0
102
RTVSPropertyOp45
 70
     0
102
RTVSPropertyOp46
 70
     0
102
RTVSPropertyOp47
 70
     0
102
RTVSPropertyOp48
 70
     0
102
RTVSPropertyOp49
 70
     0
102
RTVSPropertyOp50
 70
     0
102
RTVSPropertyOp51
 70
     0
102
RTVSPropertyOp52
 70
     0
102
RTVSPropertyOp53
 70
     0
102
RTVSPropertyOp54
 70
     0
102
RTVSPropertyOp55
 70
     0
102
RTVSPropertyOp56
 70
     0
102
RTVSPropertyOp57
 70
     0
102
RTVSPropertyOp58
 70
     1
102
RTVSPropertyOp59
 70
     1
102
RTVSPropertyOp60
 70
     1
102
RTVSPropertyOp61
 70
     1
102
RTVSPropertyOp62
 70
     1
  0
XRECORD
  5
347
102
{ACAD_REACTORS
330
346
102
}
330
346
100
AcDbXrecord
280
     1
102
RTVSPost2010Prop28
280
     0
102
RTVSPost2010PropOp28
 70
     1
102
RTVSPost2010Prop29
280
     1
102
RTVSPost2010PropOp29
 70
     1
102
RTVSPost2010Prop30
280
     1
102
RTVSPost2010PropOp30
 70
     1
102
RTVSPost2010Prop31
280
     0
102
RTVSPost2010PropOp31
 70
     1
102
RTVSPost2010Prop32
280
     0
102
RTVSPost2010PropOp32
 70
     1
102
RTVSPost2010Prop33
280
     0
102
RTVSPost2010PropOp33
 70
     1
102
RTVSPost2010Prop34
280
     0
102
RTVSPost2010PropOp34
 70
     1
102
RTVSPost2010Prop35
280
     0
102
RTVSPost2010PropOp35
 70
     1
102
RTVSPost2010Prop36
280
     0
102
RTVSPost2010PropOp36
 70
     1
102
RTVSPost2010Prop37
 90
       50
102
RTVSPost2010PropOp37
 70
     1
102
RTVSPost2010Prop38
140
0.0
102
RTVSPost2010PropOp38
 70
     1
102
RTVSPost2010Prop39
140
1.0
102
RTVSPost2010PropOp39
 70
     1
102
RTVSPost2010Prop40
 90
        0
102
RTVSPost2010PropOp40
 70
     1
102
RTVSPost2010Prop41ColorIndex
 90
       18
102
RTVSPost2010Prop41ColorRGB
 90
        0
102
RTVSPost2010PropOp41
 70
     1
102
RTVSPost2010Prop42
 90
       50
102
RTVSPost2010PropOp42
 70
     1
102
RTVSPost2010Prop43
 90
        3
102
RTVSPost2010PropOp43
 70
     1
102
RTVSPost2010Prop44ColorIndex
 90
        5
102
RTVSPost2010Prop44ColorRGB
 90
      255
102
RTVSPost2010PropOp44
 70
     1
102
RTVSPost2010Prop45
280
     0
102
RTVSPost2010PropOp45
 70
     1
102
RTVSPost2010Prop46
 90
       50
102
RTVSPost2010PropOp46
 70
     1
102
RTVSPost2010Prop47
 90
       50
102
RTVSPost2010PropOp47
 70
     1
102
RTVSPost2010Prop48
 90
       50
102
RTVSPost2010PropOp48
 70
     1
102
RTVSPost2010Prop49
280
     0
102
RTVSPost2010PropOp49
 70
     1
102
RTVSPost2010Prop50
 90
       50
102
RTVSPost2010PropOp50
 70
     1
102
RTVSPost2010Prop51ColorIndex
 90
      256
102
RTVSPost2010Prop51ColorRGB
 90
-16777216
102
RTVSPost2010PropOp51
 70
     0
102
RTVSPost2010Prop52
140
1.0
102
RTVSPost2010PropOp52
 70
     0
102
RTVSPost2010Prop53
 90
        2
102
RTVSPost2010PropOp53
 70
     1
102
RTVSPost2010Prop54
  1
strokes_ogs.tif
102
RTVSPost2010PropOp54
 70
     1
102
RTVSPost2010Prop55
280
     0
102
RTVSPost2010PropOp55
 70
     1
102
RTVSPost2010Prop56
140
1.0
102
RTVSPost2010PropOp56
 70
     1
102
RTVSPost2010Prop57
140
1.0
102
RTVSPost2010PropOp57
 70
     1
102
RTVSPropertyOp0
 70
     1
102
RTVSPropertyOp1
 70
     1
102
RTVSPropertyOp2
 70
     1
102
RTVSPropertyOp3
 70
     1
102
RTVSPropertyOp4
 70
     1
102
RTVSPropertyOp5
 70
     1
102
RTVSPropertyOp6
 70
     1
102
RTVSPropertyOp7
 70
     1
102
RTVSPropertyOp8
 70
     1
102
RTVSPropertyOp9
 70
     1
102
RTVSPropertyOp10
 70
     1
102
RTVSPropertyOp11
 70
     1
102
RTVSPropertyOp12
 70
     1
102
RTVSPropertyOp13
 70
     1
102
RTVSPropertyOp14
 70
     1
102
RTVSPropertyOp15
 70
     1
102
RTVSPropertyOp16
 70
     1
102
RTVSPropertyOp17
 70
     1
102
RTVSPropertyOp18
 70
     1
102
RTVSPropertyOp19
 70
     1
102
RTVSPropertyOp20
 70
     1
102
RTVSPropertyOp21
 70
     1
102
RTVSPropertyOp22
 70
     1
102
RTVSPropertyOp23
 70
     1
102
RTVSPropertyOp24
 70
     1
102
RTVSPropertyOp25
 70
     1
102
RTVSPropertyOp26
 70
     1
102
RTVSPropertyOp27
 70
     1
102
RTVSPropertyOp28
 70
     1
102
RTVSPropertyOp29
 70
     1
102
RTVSPropertyOp30
 70
     1
102
RTVSPropertyOp31
 70
     1
102
RTVSPropertyOp32
 70
     1
102
RTVSPropertyOp33
 70
     1
102
RTVSPropertyOp34
 70
     1
102
RTVSPropertyOp35
 70
     1
102
RTVSPropertyOp36
 70
     1
102
RTVSPropertyOp37
 70
     1
102
RTVSPropertyOp38
 70
     1
102
RTVSPropertyOp39
 70
     1
102
RTVSPropertyOp40
 70
     1
102
RTVSPropertyOp41
 70
     1
102
RTVSPropertyOp42
 70
     1
102
RTVSPropertyOp43
 70
     1
102
RTVSPropertyOp44
 70
     1
102
RTVSPropertyOp45
 70
     1
102
RTVSPropertyOp46
 70
     1
102
RTVSPropertyOp47
 70
     1
102
RTVSPropertyOp48
 70
     1
102
RTVSPropertyOp49
 70
     1
102
RTVSPropertyOp50
 70
     1
102
RTVSPropertyOp51
 70
     0
102
RTVSPropertyOp52
 70
     0
102
RTVSPropertyOp53
 70
     1
102
RTVSPropertyOp54
 70
     1
102
RTVSPropertyOp55
 70
     1
102
RTVSPropertyOp56
 70
     1
102
RTVSPropertyOp57
 70
     1
102
RTVSPropertyOp58
 70
     1
102
RTVSPropertyOp59
 70
     1
102
RTVSPropertyOp60
 70
     1
102
RTVSPropertyOp61
 70
     1
102
RTVSPropertyOp62
 70
     1
  0
XRECORD
  5
34F
102
{ACAD_REACTORS
330
34E
102
}
330
34E
100
AcDbXrecord
280
     1
102
RTVSPost2010Prop28
280
     0
102
RTVSPost2010PropOp28
 70
     0
102
RTVSPost2010Prop29
280
     1
102
RTVSPost2010PropOp29
 70
     0
102
RTVSPost2010Prop30
280
     1
102
RTVSPost2010PropOp30
 70
     0
102
RTVSPost2010Prop31
280
     0
102
RTVSPost2010PropOp31
 70
     0
102
RTVSPost2010Prop32
280
     0
102
RTVSPost2010PropOp32
 70
     0
102
RTVSPost2010Prop33
280
     0
102
RTVSPost2010PropOp33
 70
     0
102
RTVSPost2010Prop34
280
     0
102
RTVSPost2010PropOp34
 70
     0
102
RTVSPost2010Prop35
280
     0
102
RTVSPost2010PropOp35
 70
     0
102
RTVSPost2010Prop36
280
     0
102
RTVSPost2010PropOp36
 70
     0
102
RTVSPost2010Prop37
 90
       50
102
RTVSPost2010PropOp37
 70
     0
102
RTVSPost2010Prop38
140
0.0
102
RTVSPost2010PropOp38
 70
     0
102
RTVSPost2010Prop39
140
1.0
102
RTVSPost2010PropOp39
 70
     0
102
RTVSPost2010Prop40
 90
        0
102
RTVSPost2010PropOp40
 70
     0
102
RTVSPost2010Prop41ColorIndex
 90
       18
102
RTVSPost2010Prop41ColorRGB
 90
        0
102
RTVSPost2010PropOp41
 70
     0
102
RTVSPost2010Prop42
 90
       50
102
RTVSPost2010PropOp42
 70
     0
102
RTVSPost2010Prop43
 90
        3
102
RTVSPost2010PropOp43
 70
     0
102
RTVSPost2010Prop44ColorIndex
 90
        5
102
RTVSPost2010Prop44ColorRGB
 90
      255
102
RTVSPost2010PropOp44
 70
     0
102
RTVSPost2010Prop45
280
     0
102
RTVSPost2010PropOp45
 70
     0
102
RTVSPost2010Prop46
 90
       50
102
RTVSPost2010PropOp46
 70
     0
102
RTVSPost2010Prop47
 90
       50
102
RTVSPost2010PropOp47
 70
     0
102
RTVSPost2010Prop48
 90
       50
102
RTVSPost2010PropOp48
 70
     0
102
RTVSPost2010Prop49
280
     0
102
RTVSPost2010PropOp49
 70
     0
102
RTVSPost2010Prop50
 90
       50
102
RTVSPost2010PropOp50
 70
     0
102
RTVSPost2010Prop51ColorIndex
 90
      256
102
RTVSPost2010Prop51ColorRGB
 90
-16777216
102
RTVSPost2010PropOp51
 70
     0
102
RTVSPost2010Prop52
140
1.0
102
RTVSPost2010PropOp52
 70
     0
102
RTVSPost2010Prop53
 90
        2
102
RTVSPost2010PropOp53
 70
     0
102
RTVSPost2010Prop54
  1
strokes_ogs.tif
102
RTVSPost2010PropOp54
 70
     0
102
RTVSPost2010Prop55
280
     0
102
RTVSPost2010PropOp55
 70
     0
102
RTVSPost2010Prop56
140
1.0
102
RTVSPost2010PropOp56
 70
     0
102
RTVSPost2010Prop57
140
1.0
102
RTVSPost2010PropOp57
 70
     0
102
RTVSPropertyOp0
 70
     0
102
RTVSPropertyOp1
 70
     0
102
RTVSPropertyOp2
 70
     0
102
RTVSPropertyOp3
 70
     0
102
RTVSPropertyOp4
 70
     0
102
RTVSPropertyOp5
 70
     0
102
RTVSPropertyOp6
 70
     0
102
RTVSPropertyOp7
 70
     0
102
RTVSPropertyOp8
 70
     0
102
RTVSPropertyOp9
 70
     0
102
RTVSPropertyOp10
 70
     0
102
RTVSPropertyOp11
 70
     0
102
RTVSPropertyOp12
 70
     0
102
RTVSPropertyOp13
 70
     0
102
RTVSPropertyOp14
 70
     2
102
RTVSPropertyOp15
 70
     0
102
RTVSPropertyOp16
 70
     0
102
RTVSPropertyOp17
 70
     0
102
RTVSPropertyOp18
 70
     0
102
RTVSPropertyOp19
 70
     0
102
RTVSPropertyOp20
 70
     0
102
RTVSPropertyOp21
 70
     0
102
RTVSPropertyOp22
 70
     0
102
RTVSPropertyOp23
 70
     0
102
RTVSPropertyOp24
 70
     0
102
RTVSPropertyOp25
 70
     0
102
RTVSPropertyOp26
 70
     0
102
RTVSPropertyOp27
 70
     0
102
RTVSPropertyOp28
 70
     0
102
RTVSPropertyOp29
 70
     0
102
RTVSPropertyOp30
 70
     0
102
RTVSPropertyOp31
 70
     0
102
RTVSPropertyOp32
 70
     0
102
RTVSPropertyOp33
 70
     0
102
RTVSPropertyOp34
 70
     0
102
RTVSPropertyOp35
 70
     0
102
RTVSPropertyOp36
 70
     0
102
RTVSPropertyOp37
 70
     0
102
RTVSPropertyOp38
 70
     0
102
RTVSPropertyOp39
 70
     0
102
RTVSPropertyOp40
 70
     0
102
RTVSPropertyOp41
 70
     0
102
RTVSPropertyOp42
 70
     0
102
RTVSPropertyOp43
 70
     0
102
RTVSPropertyOp44
 70
     0
102
RTVSPropertyOp45
 70
     0
102
RTVSPropertyOp46
 70
     0
102
RTVSPropertyOp47
 70
     0
102
RTVSPropertyOp48
 70
     0
102
RTVSPropertyOp49
 70
     0
102
RTVSPropertyOp50
 70
     0
102
RTVSPropertyOp51
 70
     0
102
RTVSPropertyOp52
 70
     0
102
RTVSPropertyOp53
 70
     0
102
RTVSPropertyOp54
 70
     0
102
RTVSPropertyOp55
 70
     0
102
RTVSPropertyOp56
 70
     0
102
RTVSPropertyOp57
 70
     0
102
RTVSPropertyOp58
 70
     1
102
RTVSPropertyOp59
 70
     1
102
RTVSPropertyOp60
 70
     1
102
RTVSPropertyOp61
 70
     1
102
RTVSPropertyOp62
 70
     1
  0
XRECORD
  5
33D
102
{ACAD_REACTORS
330
33C
102
}
330
33C
100
AcDbXrecord
280
     1
102
RTVSPost2010Prop28
280
     0
102
RTVSPost2010PropOp28
 70
     1
102
RTVSPost2010Prop29
280
     1
102
RTVSPost2010PropOp29
 70
     1
102
RTVSPost2010Prop30
280
     1
102
RTVSPost2010PropOp30
 70
     1
102
RTVSPost2010Prop31
280
     0
102
RTVSPost2010PropOp31
 70
     1
102
RTVSPost2010Prop32
280
     0
102
RTVSPost2010PropOp32
 70
     1
102
RTVSPost2010Prop33
280
     0
102
RTVSPost2010PropOp33
 70
     1
102
RTVSPost2010Prop34
280
     0
102
RTVSPost2010PropOp34
 70
     1
102
RTVSPost2010Prop35
280
     0
102
RTVSPost2010PropOp35
 70
     1
102
RTVSPost2010Prop36
280
     0
102
RTVSPost2010PropOp36
 70
     1
102
RTVSPost2010Prop37
 90
       50
102
RTVSPost2010PropOp37
 70
     1
102
RTVSPost2010Prop38
140
0.0
102
RTVSPost2010PropOp38
 70
     1
102
RTVSPost2010Prop39
140
1.0
102
RTVSPost2010PropOp39
 70
     1
102
RTVSPost2010Prop40
 90
        0
102
RTVSPost2010PropOp40
 70
     1
102
RTVSPost2010Prop41ColorIndex
 90
       18
102
RTVSPost2010Prop41ColorRGB
 90
        0
102
RTVSPost2010PropOp41
 70
     1
102
RTVSPost2010Prop42
 90
       50
102
RTVSPost2010PropOp42
 70
     1
102
RTVSPost2010Prop43
 90
        3
102
RTVSPost2010PropOp43
 70
     1
102
RTVSPost2010Prop44ColorIndex
 90
        5
102
RTVSPost2010Prop44ColorRGB
 90
      255
102
RTVSPost2010PropOp44
 70
     1
102
RTVSPost2010Prop45
280
     0
102
RTVSPost2010PropOp45
 70
     1
102
RTVSPost2010Prop46
 90
       50
102
RTVSPost2010PropOp46
 70
     1
102
RTVSPost2010Prop47
 90
       50
102
RTVSPost2010PropOp47
 70
     1
102
RTVSPost2010Prop48
 90
       50
102
RTVSPost2010PropOp48
 70
     1
102
RTVSPost2010Prop49
280
     0
102
RTVSPost2010PropOp49
 70
     1
102
RTVSPost2010Prop50
 90
       50
102
RTVSPost2010PropOp50
 70
     1
102
RTVSPost2010Prop51ColorIndex
 90
      256
102
RTVSPost2010Prop51ColorRGB
 90
-16777216
102
RTVSPost2010PropOp51
 70
     0
102
RTVSPost2010Prop52
140
1.0
102
RTVSPost2010PropOp52
 70
     0
102
RTVSPost2010Prop53
 90
        2
102
RTVSPost2010PropOp53
 70
     1
102
RTVSPost2010Prop54
  1
strokes_ogs.tif
102
RTVSPost2010PropOp54
 70
     1
102
RTVSPost2010Prop55
280
     0
102
RTVSPost2010PropOp55
 70
     1
102
RTVSPost2010Prop56
140
1.0
102
RTVSPost2010PropOp56
 70
     1
102
RTVSPost2010Prop57
140
1.0
102
RTVSPost2010PropOp57
 70
     1
102
RTVSPropertyOp0
 70
     1
102
RTVSPropertyOp1
 70
     1
102
RTVSPropertyOp2
 70
     1
102
RTVSPropertyOp3
 70
     1
102
RTVSPropertyOp4
 70
     1
102
RTVSPropertyOp5
 70
     1
102
RTVSPropertyOp6
 70
     1
102
RTVSPropertyOp7
 70
     1
102
RTVSPropertyOp8
 70
     1
102
RTVSPropertyOp9
 70
     1
102
RTVSPropertyOp10
 70
     1
102
RTVSPropertyOp11
 70
     1
102
RTVSPropertyOp12
 70
     1
102
RTVSPropertyOp13
 70
     1
102
RTVSPropertyOp14
 70
     1
102
RTVSPropertyOp15
 70
     1
102
RTVSPropertyOp16
 70
     1
102
RTVSPropertyOp17
 70
     1
102
RTVSPropertyOp18
 70
     1
102
RTVSPropertyOp19
 70
     1
102
RTVSPropertyOp20
 70
     1
102
RTVSPropertyOp21
 70
     1
102
RTVSPropertyOp22
 70
     1
102
RTVSPropertyOp23
 70
     1
102
RTVSPropertyOp24
 70
     1
102
RTVSPropertyOp25
 70
     1
102
RTVSPropertyOp26
 70
     1
102
RTVSPropertyOp27
 70
     1
102
RTVSPropertyOp28
 70
     1
102
RTVSPropertyOp29
 70
     1
102
RTVSPropertyOp30
 70
     1
102
RTVSPropertyOp31
 70
     1
102
RTVSPropertyOp32
 70
     1
102
RTVSPropertyOp33
 70
     1
102
RTVSPropertyOp34
 70
     1
102
RTVSPropertyOp35
 70
     1
102
RTVSPropertyOp36
 70
     1
102
RTVSPropertyOp37
 70
     1
102
RTVSPropertyOp38
 70
     1
102
RTVSPropertyOp39
 70
     1
102
RTVSPropertyOp40
 70
     1
102
RTVSPropertyOp41
 70
     1
102
RTVSPropertyOp42
 70
     1
102
RTVSPropertyOp43
 70
     1
102
RTVSPropertyOp44
 70
     1
102
RTVSPropertyOp45
 70
     1
102
RTVSPropertyOp46
 70
     1
102
RTVSPropertyOp47
 70
     1
102
RTVSPropertyOp48
 70
     1
102
RTVSPropertyOp49
 70
     1
102
RTVSPropertyOp50
 70
     1
102
RTVSPropertyOp51
 70
     0
102
RTVSPropertyOp52
 70
     0
102
RTVSPropertyOp53
 70
     1
102
RTVSPropertyOp54
 70
     1
102
RTVSPropertyOp55
 70
     1
102
RTVSPropertyOp56
 70
     1
102
RTVSPropertyOp57
 70
     1
102
RTVSPropertyOp58
 70
     1
102
RTVSPropertyOp59
 70
     1
102
RTVSPropertyOp60
 70
     1
102
RTVSPropertyOp61
 70
     1
102
RTVSPropertyOp62
 70
     1
  0
XRECORD
  5
35B
102
{ACAD_REACTORS
330
35A
102
}
330
35A
100
AcDbXrecord
280
     1
102
RTVSPost2010Prop28
280
     0
102
RTVSPost2010PropOp28
 70
     1
102
RTVSPost2010Prop29
280
     1
102
RTVSPost2010PropOp29
 70
     1
102
RTVSPost2010Prop30
280
     1
102
RTVSPost2010PropOp30
 70
     1
102
RTVSPost2010Prop31
280
     0
102
RTVSPost2010PropOp31
 70
     1
102
RTVSPost2010Prop32
280
     0
102
RTVSPost2010PropOp32
 70
     1
102
RTVSPost2010Prop33
280
     0
102
RTVSPost2010PropOp33
 70
     1
102
RTVSPost2010Prop34
280
     0
102
RTVSPost2010PropOp34
 70
     1
102
RTVSPost2010Prop35
280
     0
102
RTVSPost2010PropOp35
 70
     1
102
RTVSPost2010Prop36
280
     0
102
RTVSPost2010PropOp36
 70
     1
102
RTVSPost2010Prop37
 90
       50
102
RTVSPost2010PropOp37
 70
     1
102
RTVSPost2010Prop38
140
0.0
102
RTVSPost2010PropOp38
 70
     1
102
RTVSPost2010Prop39
140
1.0
102
RTVSPost2010PropOp39
 70
     1
102
RTVSPost2010Prop40
 90
        0
102
RTVSPost2010PropOp40
 70
     1
102
RTVSPost2010Prop41ColorIndex
 90
       18
102
RTVSPost2010Prop41ColorRGB
 90
        0
102
RTVSPost2010PropOp41
 70
     1
102
RTVSPost2010Prop42
 90
       50
102
RTVSPost2010PropOp42
 70
     1
102
RTVSPost2010Prop43
 90
        3
102
RTVSPost2010PropOp43
 70
     1
102
RTVSPost2010Prop44ColorIndex
 90
        5
102
RTVSPost2010Prop44ColorRGB
 90
      255
102
RTVSPost2010PropOp44
 70
     1
102
RTVSPost2010Prop45
280
     0
102
RTVSPost2010PropOp45
 70
     1
102
RTVSPost2010Prop46
 90
       50
102
RTVSPost2010PropOp46
 70
     1
102
RTVSPost2010Prop47
 90
       50
102
RTVSPost2010PropOp47
 70
     1
102
RTVSPost2010Prop48
 90
       50
102
RTVSPost2010PropOp48
 70
     1
102
RTVSPost2010Prop49
280
     0
102
RTVSPost2010PropOp49
 70
     1
102
RTVSPost2010Prop50
 90
       50
102
RTVSPost2010PropOp50
 70
     1
102
RTVSPost2010Prop51ColorIndex
 90
      256
102
RTVSPost2010Prop51ColorRGB
 90
-16777216
102
RTVSPost2010PropOp51
 70
     0
102
RTVSPost2010Prop52
140
1.0
102
RTVSPost2010PropOp52
 70
     0
102
RTVSPost2010Prop53
 90
        2
102
RTVSPost2010PropOp53
 70
     1
102
RTVSPost2010Prop54
  1
strokes_ogs.tif
102
RTVSPost2010PropOp54
 70
     1
102
RTVSPost2010Prop55
280
     0
102
RTVSPost2010PropOp55
 70
     1
102
RTVSPost2010Prop56
140
1.0
102
RTVSPost2010PropOp56
 70
     1
102
RTVSPost2010Prop57
140
1.0
102
RTVSPost2010PropOp57
 70
     1
102
RTVSPropertyOp0
 70
     1
102
RTVSPropertyOp1
 70
     1
102
RTVSPropertyOp2
 70
     1
102
RTVSPropertyOp3
 70
     1
102
RTVSPropertyOp4
 70
     1
102
RTVSPropertyOp5
 70
     1
102
RTVSPropertyOp6
 70
     1
102
RTVSPropertyOp7
 70
     1
102
RTVSPropertyOp8
 70
     1
102
RTVSPropertyOp9
 70
     1
102
RTVSPropertyOp10
 70
     1
102
RTVSPropertyOp11
 70
     1
102
RTVSPropertyOp12
 70
     1
102
RTVSPropertyOp13
 70
     1
102
RTVSPropertyOp14
 70
     1
102
RTVSPropertyOp15
 70
     1
102
RTVSPropertyOp16
 70
     1
102
RTVSPropertyOp17
 70
     1
102
RTVSPropertyOp18
 70
     1
102
RTVSPropertyOp19
 70
     1
102
RTVSPropertyOp20
 70
     1
102
RTVSPropertyOp21
 70
     1
102
RTVSPropertyOp22
 70
     1
102
RTVSPropertyOp23
 70
     1
102
RTVSPropertyOp24
 70
     1
102
RTVSPropertyOp25
 70
     1
102
RTVSPropertyOp26
 70
     1
102
RTVSPropertyOp27
 70
     1
102
RTVSPropertyOp28
 70
     1
102
RTVSPropertyOp29
 70
     1
102
RTVSPropertyOp30
 70
     1
102
RTVSPropertyOp31
 70
     1
102
RTVSPropertyOp32
 70
     1
102
RTVSPropertyOp33
 70
     1
102
RTVSPropertyOp34
 70
     1
102
RTVSPropertyOp35
 70
     1
102
RTVSPropertyOp36
 70
     1
102
RTVSPropertyOp37
 70
     1
102
RTVSPropertyOp38
 70
     1
102
RTVSPropertyOp39
 70
     1
102
RTVSPropertyOp40
 70
     1
102
RTVSPropertyOp41
 70
     1
102
RTVSPropertyOp42
 70
     1
102
RTVSPropertyOp43
 70
     1
102
RTVSPropertyOp44
 70
     1
102
RTVSPropertyOp45
 70
     1
102
RTVSPropertyOp46
 70
     1
102
RTVSPropertyOp47
 70
     1
102
RTVSPropertyOp48
 70
     1
102
RTVSPropertyOp49
 70
     1
102
RTVSPropertyOp50
 70
     1
102
RTVSPropertyOp51
 70
     0
102
RTVSPropertyOp52
 70
     0
102
RTVSPropertyOp53
 70
     1
102
RTVSPropertyOp54
 70
     1
102
RTVSPropertyOp55
 70
     1
102
RTVSPropertyOp56
 70
     1
102
RTVSPropertyOp57
 70
     1
102
RTVSPropertyOp58
 70
     1
102
RTVSPropertyOp59
 70
     1
102
RTVSPropertyOp60
 70
     1
102
RTVSPropertyOp61
 70
     1
102
RTVSPropertyOp62
 70
     1
  0
XRECORD
  5
359
102
{ACAD_REACTORS
330
358
102
}
330
358
100
AcDbXrecord
280
     1
102
RTVSPost2010Prop28
280
     0
102
RTVSPost2010PropOp28
 70
     1
102
RTVSPost2010Prop29
280
     1
102
RTVSPost2010PropOp29
 70
     1
102
RTVSPost2010Prop30
280
     1
102
RTVSPost2010PropOp30
 70
     1
102
RTVSPost2010Prop31
280
     0
102
RTVSPost2010PropOp31
 70
     1
102
RTVSPost2010Prop32
280
     0
102
RTVSPost2010PropOp32
 70
     1
102
RTVSPost2010Prop33
280
     0
102
RTVSPost2010PropOp33
 70
     1
102
RTVSPost2010Prop34
280
     0
102
RTVSPost2010PropOp34
 70
     1
102
RTVSPost2010Prop35
280
     0
102
RTVSPost2010PropOp35
 70
     1
102
RTVSPost2010Prop36
280
     0
102
RTVSPost2010PropOp36
 70
     1
102
RTVSPost2010Prop37
 90
       50
102
RTVSPost2010PropOp37
 70
     1
102
RTVSPost2010Prop38
140
0.0
102
RTVSPost2010PropOp38
 70
     1
102
RTVSPost2010Prop39
140
1.0
102
RTVSPost2010PropOp39
 70
     1
102
RTVSPost2010Prop40
 90
        0
102
RTVSPost2010PropOp40
 70
     1
102
RTVSPost2010Prop41ColorIndex
 90
       18
102
RTVSPost2010Prop41ColorRGB
 90
        0
102
RTVSPost2010PropOp41
 70
     1
102
RTVSPost2010Prop42
 90
       50
102
RTVSPost2010PropOp42
 70
     1
102
RTVSPost2010Prop43
 90
        3
102
RTVSPost2010PropOp43
 70
     1
102
RTVSPost2010Prop44ColorIndex
 90
        5
102
RTVSPost2010Prop44ColorRGB
 90
      255
102
RTVSPost2010PropOp44
 70
     1
102
RTVSPost2010Prop45
280
     0
102
RTVSPost2010PropOp45
 70
     1
102
RTVSPost2010Prop46
 90
       50
102
RTVSPost2010PropOp46
 70
     1
102
RTVSPost2010Prop47
 90
       50
102
RTVSPost2010PropOp47
 70
     1
102
RTVSPost2010Prop48
 90
       50
102
RTVSPost2010PropOp48
 70
     1
102
RTVSPost2010Prop49
280
     0
102
RTVSPost2010PropOp49
 70
     1
102
RTVSPost2010Prop50
 90
       50
102
RTVSPost2010PropOp50
 70
     1
102
RTVSPost2010Prop51ColorIndex
 90
      256
102
RTVSPost2010Prop51ColorRGB
 90
-16777216
102
RTVSPost2010PropOp51
 70
     0
102
RTVSPost2010Prop52
140
1.0
102
RTVSPost2010PropOp52
 70
     0
102
RTVSPost2010Prop53
 90
        2
102
RTVSPost2010PropOp53
 70
     1
102
RTVSPost2010Prop54
  1
strokes_ogs.tif
102
RTVSPost2010PropOp54
 70
     1
102
RTVSPost2010Prop55
280
     0
102
RTVSPost2010PropOp55
 70
     1
102
RTVSPost2010Prop56
140
1.0
102
RTVSPost2010PropOp56
 70
     1
102
RTVSPost2010Prop57
140
1.0
102
RTVSPost2010PropOp57
 70
     1
102
RTVSPropertyOp0
 70
     1
102
RTVSPropertyOp1
 70
     1
102
RTVSPropertyOp2
 70
     1
102
RTVSPropertyOp3
 70
     1
102
RTVSPropertyOp4
 70
     1
102
RTVSPropertyOp5
 70
     1
102
RTVSPropertyOp6
 70
     1
102
RTVSPropertyOp7
 70
     1
102
RTVSPropertyOp8
 70
     1
102
RTVSPropertyOp9
 70
     1
102
RTVSPropertyOp10
 70
     1
102
RTVSPropertyOp11
 70
     1
102
RTVSPropertyOp12
 70
     1
102
RTVSPropertyOp13
 70
     1
102
RTVSPropertyOp14
 70
     1
102
RTVSPropertyOp15
 70
     1
102
RTVSPropertyOp16
 70
     1
102
RTVSPropertyOp17
 70
     1
102
RTVSPropertyOp18
 70
     1
102
RTVSPropertyOp19
 70
     1
102
RTVSPropertyOp20
 70
     1
102
RTVSPropertyOp21
 70
     1
102
RTVSPropertyOp22
 70
     1
102
RTVSPropertyOp23
 70
     1
102
RTVSPropertyOp24
 70
     1
102
RTVSPropertyOp25
 70
     1
102
RTVSPropertyOp26
 70
     1
102
RTVSPropertyOp27
 70
     1
102
RTVSPropertyOp28
 70
     1
102
RTVSPropertyOp29
 70
     1
102
RTVSPropertyOp30
 70
     1
102
RTVSPropertyOp31
 70
     1
102
RTVSPropertyOp32
 70
     1
102
RTVSPropertyOp33
 70
     1
102
RTVSPropertyOp34
 70
     1
102
RTVSPropertyOp35
 70
     1
102
RTVSPropertyOp36
 70
     1
102
RTVSPropertyOp37
 70
     1
102
RTVSPropertyOp38
 70
     1
102
RTVSPropertyOp39
 70
     1
102
RTVSPropertyOp40
 70
     1
102
RTVSPropertyOp41
 70
     1
102
RTVSPropertyOp42
 70
     1
102
RTVSPropertyOp43
 70
     1
102
RTVSPropertyOp44
 70
     1
102
RTVSPropertyOp45
 70
     1
102
RTVSPropertyOp46
 70
     1
102
RTVSPropertyOp47
 70
     1
102
RTVSPropertyOp48
 70
     1
102
RTVSPropertyOp49
 70
     1
102
RTVSPropertyOp50
 70
     1
102
RTVSPropertyOp51
 70
     0
102
RTVSPropertyOp52
 70
     0
102
RTVSPropertyOp53
 70
     1
102
RTVSPropertyOp54
 70
     1
102
RTVSPropertyOp55
 70
     1
102
RTVSPropertyOp56
 70
     1
102
RTVSPropertyOp57
 70
     1
102
RTVSPropertyOp58
 70
     1
102
RTVSPropertyOp59
 70
     1
102
RTVSPropertyOp60
 70
     1
102
RTVSPropertyOp61
 70
     1
102
RTVSPropertyOp62
 70
     1
  0
XRECORD
  5
353
102
{ACAD_REACTORS
330
352
102
}
330
352
100
AcDbXrecord
280
     1
102
RTVSPost2010Prop28
280
     0
102
RTVSPost2010PropOp28
 70
     1
102
RTVSPost2010Prop29
280
     1
102
RTVSPost2010PropOp29
 70
     1
102
RTVSPost2010Prop30
280
     1
102
RTVSPost2010PropOp30
 70
     1
102
RTVSPost2010Prop31
280
     0
102
RTVSPost2010PropOp31
 70
     1
102
RTVSPost2010Prop32
280
     0
102
RTVSPost2010PropOp32
 70
     1
102
RTVSPost2010Prop33
280
     0
102
RTVSPost2010PropOp33
 70
     1
102
RTVSPost2010Prop34
280
     0
102
RTVSPost2010PropOp34
 70
     1
102
RTVSPost2010Prop35
280
     0
102
RTVSPost2010PropOp35
 70
     1
102
RTVSPost2010Prop36
280
     0
102
RTVSPost2010PropOp36
 70
     1
102
RTVSPost2010Prop37
 90
       50
102
RTVSPost2010PropOp37
 70
     1
102
RTVSPost2010Prop38
140
0.0
102
RTVSPost2010PropOp38
 70
     1
102
RTVSPost2010Prop39
140
1.0
102
RTVSPost2010PropOp39
 70
     1
102
RTVSPost2010Prop40
 90
        0
102
RTVSPost2010PropOp40
 70
     1
102
RTVSPost2010Prop41ColorIndex
 90
       18
102
RTVSPost2010Prop41ColorRGB
 90
        0
102
RTVSPost2010PropOp41
 70
     1
102
RTVSPost2010Prop42
 90
       50
102
RTVSPost2010PropOp42
 70
     1
102
RTVSPost2010Prop43
 90
        3
102
RTVSPost2010PropOp43
 70
     1
102
RTVSPost2010Prop44ColorIndex
 90
        5
102
RTVSPost2010Prop44ColorRGB
 90
      255
102
RTVSPost2010PropOp44
 70
     1
102
RTVSPost2010Prop45
280
     0
102
RTVSPost2010PropOp45
 70
     1
102
RTVSPost2010Prop46
 90
       50
102
RTVSPost2010PropOp46
 70
     1
102
RTVSPost2010Prop47
 90
       50
102
RTVSPost2010PropOp47
 70
     1
102
RTVSPost2010Prop48
 90
       50
102
RTVSPost2010PropOp48
 70
     1
102
RTVSPost2010Prop49
280
     0
102
RTVSPost2010PropOp49
 70
     1
102
RTVSPost2010Prop50
 90
       50
102
RTVSPost2010PropOp50
 70
     1
102
RTVSPost2010Prop51ColorIndex
 90
      256
102
RTVSPost2010Prop51ColorRGB
 90
-16777216
102
RTVSPost2010PropOp51
 70
     0
102
RTVSPost2010Prop52
140
1.0
102
RTVSPost2010PropOp52
 70
     0
102
RTVSPost2010Prop53
 90
        2
102
RTVSPost2010PropOp53
 70
     1
102
RTVSPost2010Prop54
  1
strokes_ogs.tif
102
RTVSPost2010PropOp54
 70
     1
102
RTVSPost2010Prop55
280
     0
102
RTVSPost2010PropOp55
 70
     1
102
RTVSPost2010Prop56
140
1.0
102
RTVSPost2010PropOp56
 70
     1
102
RTVSPost2010Prop57
140
1.0
102
RTVSPost2010PropOp57
 70
     1
102
RTVSPropertyOp0
 70
     1
102
RTVSPropertyOp1
 70
     1
102
RTVSPropertyOp2
 70
     1
102
RTVSPropertyOp3
 70
     1
102
RTVSPropertyOp4
 70
     1
102
RTVSPropertyOp5
 70
     1
102
RTVSPropertyOp6
 70
     1
102
RTVSPropertyOp7
 70
     1
102
RTVSPropertyOp8
 70
     1
102
RTVSPropertyOp9
 70
     1
102
RTVSPropertyOp10
 70
     1
102
RTVSPropertyOp11
 70
     1
102
RTVSPropertyOp12
 70
     1
102
RTVSPropertyOp13
 70
     1
102
RTVSPropertyOp14
 70
     1
102
RTVSPropertyOp15
 70
     1
102
RTVSPropertyOp16
 70
     1
102
RTVSPropertyOp17
 70
     1
102
RTVSPropertyOp18
 70
     1
102
RTVSPropertyOp19
 70
     1
102
RTVSPropertyOp20
 70
     1
102
RTVSPropertyOp21
 70
     1
102
RTVSPropertyOp22
 70
     1
102
RTVSPropertyOp23
 70
     1
102
RTVSPropertyOp24
 70
     1
102
RTVSPropertyOp25
 70
     1
102
RTVSPropertyOp26
 70
     1
102
RTVSPropertyOp27
 70
     1
102
RTVSPropertyOp28
 70
     1
102
RTVSPropertyOp29
 70
     1
102
RTVSPropertyOp30
 70
     1
102
RTVSPropertyOp31
 70
     1
102
RTVSPropertyOp32
 70
     1
102
RTVSPropertyOp33
 70
     1
102
RTVSPropertyOp34
 70
     1
102
RTVSPropertyOp35
 70
     1
102
RTVSPropertyOp36
 70
     1
102
RTVSPropertyOp37
 70
     1
102
RTVSPropertyOp38
 70
     1
102
RTVSPropertyOp39
 70
     1
102
RTVSPropertyOp40
 70
     1
102
RTVSPropertyOp41
 70
     1
102
RTVSPropertyOp42
 70
     1
102
RTVSPropertyOp43
 70
     1
102
RTVSPropertyOp44
 70
     1
102
RTVSPropertyOp45
 70
     1
102
RTVSPropertyOp46
 70
     1
102
RTVSPropertyOp47
 70
     1
102
RTVSPropertyOp48
 70
     1
102
RTVSPropertyOp49
 70
     1
102
RTVSPropertyOp50
 70
     1
102
RTVSPropertyOp51
 70
     0
102
RTVSPropertyOp52
 70
     0
102
RTVSPropertyOp53
 70
     1
102
RTVSPropertyOp54
 70
     1
102
RTVSPropertyOp55
 70
     1
102
RTVSPropertyOp56
 70
     1
102
RTVSPropertyOp57
 70
     1
102
RTVSPropertyOp58
 70
     1
102
RTVSPropertyOp59
 70
     1
102
RTVSPropertyOp60
 70
     1
102
RTVSPropertyOp61
 70
     1
102
RTVSPropertyOp62
 70
     1
  0
XRECORD
  5
355
102
{ACAD_REACTORS
330
354
102
}
330
354
100
AcDbXrecord
280
     1
102
RTVSPost2010Prop28
280
     0
102
RTVSPost2010PropOp28
 70
     1
102
RTVSPost2010Prop29
280
     1
102
RTVSPost2010PropOp29
 70
     1
102
RTVSPost2010Prop30
280
     1
102
RTVSPost2010PropOp30
 70
     1
102
RTVSPost2010Prop31
280
     0
102
RTVSPost2010PropOp31
 70
     1
102
RTVSPost2010Prop32
280
     0
102
RTVSPost2010PropOp32
 70
     1
102
RTVSPost2010Prop33
280
     0
102
RTVSPost2010PropOp33
 70
     1
102
RTVSPost2010Prop34
280
     0
102
RTVSPost2010PropOp34
 70
     1
102
RTVSPost2010Prop35
280
     0
102
RTVSPost2010PropOp35
 70
     1
102
RTVSPost2010Prop36
280
     0
102
RTVSPost2010PropOp36
 70
     1
102
RTVSPost2010Prop37
 90
       50
102
RTVSPost2010PropOp37
 70
     1
102
RTVSPost2010Prop38
140
0.0
102
RTVSPost2010PropOp38
 70
     1
102
RTVSPost2010Prop39
140
1.0
102
RTVSPost2010PropOp39
 70
     1
102
RTVSPost2010Prop40
 90
        0
102
RTVSPost2010PropOp40
 70
     1
102
RTVSPost2010Prop41ColorIndex
 90
       18
102
RTVSPost2010Prop41ColorRGB
 90
        0
102
RTVSPost2010PropOp41
 70
     1
102
RTVSPost2010Prop42
 90
       50
102
RTVSPost2010PropOp42
 70
     1
102
RTVSPost2010Prop43
 90
        3
102
RTVSPost2010PropOp43
 70
     1
102
RTVSPost2010Prop44ColorIndex
 90
        5
102
RTVSPost2010Prop44ColorRGB
 90
      255
102
RTVSPost2010PropOp44
 70
     1
102
RTVSPost2010Prop45
280
     0
102
RTVSPost2010PropOp45
 70
     1
102
RTVSPost2010Prop46
 90
       50
102
RTVSPost2010PropOp46
 70
     1
102
RTVSPost2010Prop47
 90
       50
102
RTVSPost2010PropOp47
 70
     1
102
RTVSPost2010Prop48
 90
       50
102
RTVSPost2010PropOp48
 70
     1
102
RTVSPost2010Prop49
280
     0
102
RTVSPost2010PropOp49
 70
     1
102
RTVSPost2010Prop50
 90
       50
102
RTVSPost2010PropOp50
 70
     1
102
RTVSPost2010Prop51ColorIndex
 90
      256
102
RTVSPost2010Prop51ColorRGB
 90
-16777216
102
RTVSPost2010PropOp51
 70
     0
102
RTVSPost2010Prop52
140
1.0
102
RTVSPost2010PropOp52
 70
     0
102
RTVSPost2010Prop53
 90
        2
102
RTVSPost2010PropOp53
 70
     1
102
RTVSPost2010Prop54
  1
strokes_ogs.tif
102
RTVSPost2010PropOp54
 70
     1
102
RTVSPost2010Prop55
280
     0
102
RTVSPost2010PropOp55
 70
     1
102
RTVSPost2010Prop56
140
1.0
102
RTVSPost2010PropOp56
 70
     1
102
RTVSPost2010Prop57
140
1.0
102
RTVSPost2010PropOp57
 70
     1
102
RTVSPropertyOp0
 70
     1
102
RTVSPropertyOp1
 70
     1
102
RTVSPropertyOp2
 70
     1
102
RTVSPropertyOp3
 70
     1
102
RTVSPropertyOp4
 70
     1
102
RTVSPropertyOp5
 70
     1
102
RTVSPropertyOp6
 70
     1
102
RTVSPropertyOp7
 70
     1
102
RTVSPropertyOp8
 70
     1
102
RTVSPropertyOp9
 70
     1
102
RTVSPropertyOp10
 70
     1
102
RTVSPropertyOp11
 70
     1
102
RTVSPropertyOp12
 70
     1
102
RTVSPropertyOp13
 70
     1
102
RTVSPropertyOp14
 70
     1
102
RTVSPropertyOp15
 70
     1
102
RTVSPropertyOp16
 70
     1
102
RTVSPropertyOp17
 70
     1
102
RTVSPropertyOp18
 70
     1
102
RTVSPropertyOp19
 70
     1
102
RTVSPropertyOp20
 70
     1
102
RTVSPropertyOp21
 70
     1
102
RTVSPropertyOp22
 70
     1
102
RTVSPropertyOp23
 70
     1
102
RTVSPropertyOp24
 70
     1
102
RTVSPropertyOp25
 70
     1
102
RTVSPropertyOp26
 70
     1
102
RTVSPropertyOp27
 70
     1
102
RTVSPropertyOp28
 70
     1
102
RTVSPropertyOp29
 70
     1
102
RTVSPropertyOp30
 70
     1
102
RTVSPropertyOp31
 70
     1
102
RTVSPropertyOp32
 70
     1
102
RTVSPropertyOp33
 70
     1
102
RTVSPropertyOp34
 70
     1
102
RTVSPropertyOp35
 70
     1
102
RTVSPropertyOp36
 70
     1
102
RTVSPropertyOp37
 70
     1
102
RTVSPropertyOp38
 70
     1
102
RTVSPropertyOp39
 70
     1
102
RTVSPropertyOp40
 70
     1
102
RTVSPropertyOp41
 70
     1
102
RTVSPropertyOp42
 70
     1
102
RTVSPropertyOp43
 70
     1
102
RTVSPropertyOp44
 70
     1
102
RTVSPropertyOp45
 70
     1
102
RTVSPropertyOp46
 70
     1
102
RTVSPropertyOp47
 70
     1
102
RTVSPropertyOp48
 70
     1
102
RTVSPropertyOp49
 70
     1
102
RTVSPropertyOp50
 70
     1
102
RTVSPropertyOp51
 70
     0
102
RTVSPropertyOp52
 70
     0
102
RTVSPropertyOp53
 70
     1
102
RTVSPropertyOp54
 70
     1
102
RTVSPropertyOp55
 70
     1
102
RTVSPropertyOp56
 70
     1
102
RTVSPropertyOp57
 70
     1
102
RTVSPropertyOp58
 70
     1
102
RTVSPropertyOp59
 70
     1
102
RTVSPropertyOp60
 70
     1
102
RTVSPropertyOp61
 70
     1
102
RTVSPropertyOp62
 70
     1
  0
XRECORD
  5
345
102
{ACAD_REACTORS
330
344
102
}
330
344
100
AcDbXrecord
280
     1
102
RTVSPost2010Prop28
280
     0
102
RTVSPost2010PropOp28
 70
     1
102
RTVSPost2010Prop29
280
     1
102
RTVSPost2010PropOp29
 70
     1
102
RTVSPost2010Prop30
280
     1
102
RTVSPost2010PropOp30
 70
     1
102
RTVSPost2010Prop31
280
     0
102
RTVSPost2010PropOp31
 70
     1
102
RTVSPost2010Prop32
280
     0
102
RTVSPost2010PropOp32
 70
     1
102
RTVSPost2010Prop33
280
     0
102
RTVSPost2010PropOp33
 70
     1
102
RTVSPost2010Prop34
280
     0
102
RTVSPost2010PropOp34
 70
     1
102
RTVSPost2010Prop35
280
     0
102
RTVSPost2010PropOp35
 70
     1
102
RTVSPost2010Prop36
280
     0
102
RTVSPost2010PropOp36
 70
     1
102
RTVSPost2010Prop37
 90
       50
102
RTVSPost2010PropOp37
 70
     1
102
RTVSPost2010Prop38
140
0.0
102
RTVSPost2010PropOp38
 70
     1
102
RTVSPost2010Prop39
140
1.0
102
RTVSPost2010PropOp39
 70
     1
102
RTVSPost2010Prop40
 90
        0
102
RTVSPost2010PropOp40
 70
     1
102
RTVSPost2010Prop41ColorIndex
 90
       18
102
RTVSPost2010Prop41ColorRGB
 90
        0
102
RTVSPost2010PropOp41
 70
     1
102
RTVSPost2010Prop42
 90
       50
102
RTVSPost2010PropOp42
 70
     1
102
RTVSPost2010Prop43
 90
        3
102
RTVSPost2010PropOp43
 70
     1
102
RTVSPost2010Prop44ColorIndex
 90
        5
102
RTVSPost2010Prop44ColorRGB
 90
      255
102
RTVSPost2010PropOp44
 70
     1
102
RTVSPost2010Prop45
280
     0
102
RTVSPost2010PropOp45
 70
     1
102
RTVSPost2010Prop46
 90
       50
102
RTVSPost2010PropOp46
 70
     1
102
RTVSPost2010Prop47
 90
       50
102
RTVSPost2010PropOp47
 70
     1
102
RTVSPost2010Prop48
 90
       50
102
RTVSPost2010PropOp48
 70
     1
102
RTVSPost2010Prop49
280
     0
102
RTVSPost2010PropOp49
 70
     1
102
RTVSPost2010Prop50
 90
       50
102
RTVSPost2010PropOp50
 70
     1
102
RTVSPost2010Prop51ColorIndex
 90
      256
102
RTVSPost2010Prop51ColorRGB
 90
-16777216
102
RTVSPost2010PropOp51
 70
     0
102
RTVSPost2010Prop52
140
1.0
102
RTVSPost2010PropOp52
 70
     0
102
RTVSPost2010Prop53
 90
        2
102
RTVSPost2010PropOp53
 70
     1
102
RTVSPost2010Prop54
  1
strokes_ogs.tif
102
RTVSPost2010PropOp54
 70
     1
102
RTVSPost2010Prop55
280
     0
102
RTVSPost2010PropOp55
 70
     1
102
RTVSPost2010Prop56
140
1.0
102
RTVSPost2010PropOp56
 70
     1
102
RTVSPost2010Prop57
140
1.0
102
RTVSPost2010PropOp57
 70
     1
102
RTVSPropertyOp0
 70
     1
102
RTVSPropertyOp1
 70
     1
102
RTVSPropertyOp2
 70
     1
102
RTVSPropertyOp3
 70
     1
102
RTVSPropertyOp4
 70
     1
102
RTVSPropertyOp5
 70
     1
102
RTVSPropertyOp6
 70
     1
102
RTVSPropertyOp7
 70
     1
102
RTVSPropertyOp8
 70
     1
102
RTVSPropertyOp9
 70
     1
102
RTVSPropertyOp10
 70
     1
102
RTVSPropertyOp11
 70
     1
102
RTVSPropertyOp12
 70
     1
102
RTVSPropertyOp13
 70
     1
102
RTVSPropertyOp14
 70
     1
102
RTVSPropertyOp15
 70
     1
102
RTVSPropertyOp16
 70
     1
102
RTVSPropertyOp17
 70
     1
102
RTVSPropertyOp18
 70
     1
102
RTVSPropertyOp19
 70
     1
102
RTVSPropertyOp20
 70
     1
102
RTVSPropertyOp21
 70
     1
102
RTVSPropertyOp22
 70
     1
102
RTVSPropertyOp23
 70
     1
102
RTVSPropertyOp24
 70
     1
102
RTVSPropertyOp25
 70
     1
102
RTVSPropertyOp26
 70
     1
102
RTVSPropertyOp27
 70
     1
102
RTVSPropertyOp28
 70
     1
102
RTVSPropertyOp29
 70
     1
102
RTVSPropertyOp30
 70
     1
102
RTVSPropertyOp31
 70
     1
102
RTVSPropertyOp32
 70
     1
102
RTVSPropertyOp33
 70
     1
102
RTVSPropertyOp34
 70
     1
102
RTVSPropertyOp35
 70
     1
102
RTVSPropertyOp36
 70
     1
102
RTVSPropertyOp37
 70
     1
102
RTVSPropertyOp38
 70
     1
102
RTVSPropertyOp39
 70
     1
102
RTVSPropertyOp40
 70
     1
102
RTVSPropertyOp41
 70
     1
102
RTVSPropertyOp42
 70
     1
102
RTVSPropertyOp43
 70
     1
102
RTVSPropertyOp44
 70
     1
102
RTVSPropertyOp45
 70
     1
102
RTVSPropertyOp46
 70
     1
102
RTVSPropertyOp47
 70
     1
102
RTVSPropertyOp48
 70
     1
102
RTVSPropertyOp49
 70
     1
102
RTVSPropertyOp50
 70
     1
102
RTVSPropertyOp51
 70
     0
102
RTVSPropertyOp52
 70
     0
102
RTVSPropertyOp53
 70
     1
102
RTVSPropertyOp54
 70
     1
102
RTVSPropertyOp55
 70
     1
102
RTVSPropertyOp56
 70
     1
102
RTVSPropertyOp57
 70
     1
102
RTVSPropertyOp58
 70
     1
102
RTVSPropertyOp59
 70
     1
102
RTVSPropertyOp60
 70
     1
102
RTVSPropertyOp61
 70
     1
102
RTVSPropertyOp62
 70
     1
  0
XRECORD
  5
337
102
{ACAD_REACTORS
330
336
102
}
330
336
100
AcDbXrecord
280
     1
102
RTVSPost2010Prop28
280
     0
102
RTVSPost2010PropOp28
 70
     1
102
RTVSPost2010Prop29
280
     1
102
RTVSPost2010PropOp29
 70
     1
102
RTVSPost2010Prop30
280
     1
102
RTVSPost2010PropOp30
 70
     1
102
RTVSPost2010Prop31
280
     0
102
RTVSPost2010PropOp31
 70
     1
102
RTVSPost2010Prop32
280
     0
102
RTVSPost2010PropOp32
 70
     1
102
RTVSPost2010Prop33
280
     0
102
RTVSPost2010PropOp33
 70
     1
102
RTVSPost2010Prop34
280
     0
102
RTVSPost2010PropOp34
 70
     1
102
RTVSPost2010Prop35
280
     0
102
RTVSPost2010PropOp35
 70
     1
102
RTVSPost2010Prop36
280
     0
102
RTVSPost2010PropOp36
 70
     1
102
RTVSPost2010Prop37
 90
       50
102
RTVSPost2010PropOp37
 70
     1
102
RTVSPost2010Prop38
140
0.0
102
RTVSPost2010PropOp38
 70
     1
102
RTVSPost2010Prop39
140
1.0
102
RTVSPost2010PropOp39
 70
     1
102
RTVSPost2010Prop40
 90
        0
102
RTVSPost2010PropOp40
 70
     1
102
RTVSPost2010Prop41ColorIndex
 90
       18
102
RTVSPost2010Prop41ColorRGB
 90
        0
102
RTVSPost2010PropOp41
 70
     1
102
RTVSPost2010Prop42
 90
       50
102
RTVSPost2010PropOp42
 70
     1
102
RTVSPost2010Prop43
 90
        3
102
RTVSPost2010PropOp43
 70
     1
102
RTVSPost2010Prop44ColorIndex
 90
        5
102
RTVSPost2010Prop44ColorRGB
 90
      255
102
RTVSPost2010PropOp44
 70
     1
102
RTVSPost2010Prop45
280
     0
102
RTVSPost2010PropOp45
 70
     1
102
RTVSPost2010Prop46
 90
       50
102
RTVSPost2010PropOp46
 70
     1
102
RTVSPost2010Prop47
 90
       50
102
RTVSPost2010PropOp47
 70
     1
102
RTVSPost2010Prop48
 90
       50
102
RTVSPost2010PropOp48
 70
     1
102
RTVSPost2010Prop49
280
     0
102
RTVSPost2010PropOp49
 70
     1
102
RTVSPost2010Prop50
 90
       50
102
RTVSPost2010PropOp50
 70
     1
102
RTVSPost2010Prop51ColorIndex
 90
      256
102
RTVSPost2010Prop51ColorRGB
 90
-16777216
102
RTVSPost2010PropOp51
 70
     0
102
RTVSPost2010Prop52
140
1.0
102
RTVSPost2010PropOp52
 70
     0
102
RTVSPost2010Prop53
 90
        2
102
RTVSPost2010PropOp53
 70
     1
102
RTVSPost2010Prop54
  1
strokes_ogs.tif
102
RTVSPost2010PropOp54
 70
     1
102
RTVSPost2010Prop55
280
     0
102
RTVSPost2010PropOp55
 70
     1
102
RTVSPost2010Prop56
140
1.0
102
RTVSPost2010PropOp56
 70
     1
102
RTVSPost2010Prop57
140
1.0
102
RTVSPost2010PropOp57
 70
     1
102
RTVSPropertyOp0
 70
     1
102
RTVSPropertyOp1
 70
     1
102
RTVSPropertyOp2
 70
     1
102
RTVSPropertyOp3
 70
     1
102
RTVSPropertyOp4
 70
     1
102
RTVSPropertyOp5
 70
     1
102
RTVSPropertyOp6
 70
     1
102
RTVSPropertyOp7
 70
     1
102
RTVSPropertyOp8
 70
     1
102
RTVSPropertyOp9
 70
     1
102
RTVSPropertyOp10
 70
     1
102
RTVSPropertyOp11
 70
     1
102
RTVSPropertyOp12
 70
     1
102
RTVSPropertyOp13
 70
     1
102
RTVSPropertyOp14
 70
     1
102
RTVSPropertyOp15
 70
     1
102
RTVSPropertyOp16
 70
     1
102
RTVSPropertyOp17
 70
     1
102
RTVSPropertyOp18
 70
     1
102
RTVSPropertyOp19
 70
     1
102
RTVSPropertyOp20
 70
     1
102
RTVSPropertyOp21
 70
     1
102
RTVSPropertyOp22
 70
     1
102
RTVSPropertyOp23
 70
     1
102
RTVSPropertyOp24
 70
     1
102
RTVSPropertyOp25
 70
     1
102
RTVSPropertyOp26
 70
     1
102
RTVSPropertyOp27
 70
     1
102
RTVSPropertyOp28
 70
     1
102
RTVSPropertyOp29
 70
     1
102
RTVSPropertyOp30
 70
     1
102
RTVSPropertyOp31
 70
     1
102
RTVSPropertyOp32
 70
     1
102
RTVSPropertyOp33
 70
     1
102
RTVSPropertyOp34
 70
     1
102
RTVSPropertyOp35
 70
     1
102
RTVSPropertyOp36
 70
     1
102
RTVSPropertyOp37
 70
     1
102
RTVSPropertyOp38
 70
     1
102
RTVSPropertyOp39
 70
     1
102
RTVSPropertyOp40
 70
     1
102
RTVSPropertyOp41
 70
     1
102
RTVSPropertyOp42
 70
     1
102
RTVSPropertyOp43
 70
     1
102
RTVSPropertyOp44
 70
     1
102
RTVSPropertyOp45
 70
     1
102
RTVSPropertyOp46
 70
     1
102
RTVSPropertyOp47
 70
     1
102
RTVSPropertyOp48
 70
     1
102
RTVSPropertyOp49
 70
     1
102
RTVSPropertyOp50
 70
     1
102
RTVSPropertyOp51
 70
     0
102
RTVSPropertyOp52
 70
     0
102
RTVSPropertyOp53
 70
     1
102
RTVSPropertyOp54
 70
     1
102
RTVSPropertyOp55
 70
     1
102
RTVSPropertyOp56
 70
     1
102
RTVSPropertyOp57
 70
     1
102
RTVSPropertyOp58
 70
     1
102
RTVSPropertyOp59
 70
     1
102
RTVSPropertyOp60
 70
     1
102
RTVSPropertyOp61
 70
     1
102
RTVSPropertyOp62
 70
     1
  0
XRECORD
  5
357
102
{ACAD_REACTORS
330
356
102
}
330
356
100
AcDbXrecord
280
     1
102
RTVSPost2010Prop28
280
     0
102
RTVSPost2010PropOp28
 70
     1
102
RTVSPost2010Prop29
280
     1
102
RTVSPost2010PropOp29
 70
     1
102
RTVSPost2010Prop30
280
     1
102
RTVSPost2010PropOp30
 70
     1
102
RTVSPost2010Prop31
280
     0
102
RTVSPost2010PropOp31
 70
     1
102
RTVSPost2010Prop32
280
     0
102
RTVSPost2010PropOp32
 70
     1
102
RTVSPost2010Prop33
280
     0
102
RTVSPost2010PropOp33
 70
     1
102
RTVSPost2010Prop34
280
     0
102
RTVSPost2010PropOp34
 70
     1
102
RTVSPost2010Prop35
280
     0
102
RTVSPost2010PropOp35
 70
     1
102
RTVSPost2010Prop36
280
     0
102
RTVSPost2010PropOp36
 70
     1
102
RTVSPost2010Prop37
 90
       50
102
RTVSPost2010PropOp37
 70
     1
102
RTVSPost2010Prop38
140
0.0
102
RTVSPost2010PropOp38
 70
     1
102
RTVSPost2010Prop39
140
1.0
102
RTVSPost2010PropOp39
 70
     1
102
RTVSPost2010Prop40
 90
        0
102
RTVSPost2010PropOp40
 70
     1
102
RTVSPost2010Prop41ColorIndex
 90
       18
102
RTVSPost2010Prop41ColorRGB
 90
        0
102
RTVSPost2010PropOp41
 70
     1
102
RTVSPost2010Prop42
 90
       50
102
RTVSPost2010PropOp42
 70
     1
102
RTVSPost2010Prop43
 90
        3
102
RTVSPost2010PropOp43
 70
     1
102
RTVSPost2010Prop44ColorIndex
 90
        5
102
RTVSPost2010Prop44ColorRGB
 90
      255
102
RTVSPost2010PropOp44
 70
     1
102
RTVSPost2010Prop45
280
     0
102
RTVSPost2010PropOp45
 70
     1
102
RTVSPost2010Prop46
 90
       50
102
RTVSPost2010PropOp46
 70
     1
102
RTVSPost2010Prop47
 90
       50
102
RTVSPost2010PropOp47
 70
     1
102
RTVSPost2010Prop48
 90
       50
102
RTVSPost2010PropOp48
 70
     1
102
RTVSPost2010Prop49
280
     0
102
RTVSPost2010PropOp49
 70
     1
102
RTVSPost2010Prop50
 90
       50
102
RTVSPost2010PropOp50
 70
     1
102
RTVSPost2010Prop51ColorIndex
 90
      256
102
RTVSPost2010Prop51ColorRGB
 90
-16777216
102
RTVSPost2010PropOp51
 70
     0
102
RTVSPost2010Prop52
140
1.0
102
RTVSPost2010PropOp52
 70
     0
102
RTVSPost2010Prop53
 90
        2
102
RTVSPost2010PropOp53
 70
     1
102
RTVSPost2010Prop54
  1
strokes_ogs.tif
102
RTVSPost2010PropOp54
 70
     1
102
RTVSPost2010Prop55
280
     0
102
RTVSPost2010PropOp55
 70
     1
102
RTVSPost2010Prop56
140
1.0
102
RTVSPost2010PropOp56
 70
     1
102
RTVSPost2010Prop57
140
1.0
102
RTVSPost2010PropOp57
 70
     1
102
RTVSPropertyOp0
 70
     1
102
RTVSPropertyOp1
 70
     1
102
RTVSPropertyOp2
 70
     1
102
RTVSPropertyOp3
 70
     1
102
RTVSPropertyOp4
 70
     1
102
RTVSPropertyOp5
 70
     1
102
RTVSPropertyOp6
 70
     1
102
RTVSPropertyOp7
 70
     1
102
RTVSPropertyOp8
 70
     1
102
RTVSPropertyOp9
 70
     1
102
RTVSPropertyOp10
 70
     1
102
RTVSPropertyOp11
 70
     1
102
RTVSPropertyOp12
 70
     1
102
RTVSPropertyOp13
 70
     1
102
RTVSPropertyOp14
 70
     1
102
RTVSPropertyOp15
 70
     1
102
RTVSPropertyOp16
 70
     1
102
RTVSPropertyOp17
 70
     1
102
RTVSPropertyOp18
 70
     1
102
RTVSPropertyOp19
 70
     1
102
RTVSPropertyOp20
 70
     1
102
RTVSPropertyOp21
 70
     1
102
RTVSPropertyOp22
 70
     1
102
RTVSPropertyOp23
 70
     1
102
RTVSPropertyOp24
 70
     1
102
RTVSPropertyOp25
 70
     1
102
RTVSPropertyOp26
 70
     1
102
RTVSPropertyOp27
 70
     1
102
RTVSPropertyOp28
 70
     1
102
RTVSPropertyOp29
 70
     1
102
RTVSPropertyOp30
 70
     1
102
RTVSPropertyOp31
 70
     1
102
RTVSPropertyOp32
 70
     1
102
RTVSPropertyOp33
 70
     1
102
RTVSPropertyOp34
 70
     1
102
RTVSPropertyOp35
 70
     1
102
RTVSPropertyOp36
 70
     1
102
RTVSPropertyOp37
 70
     1
102
RTVSPropertyOp38
 70
     1
102
RTVSPropertyOp39
 70
     1
102
RTVSPropertyOp40
 70
     1
102
RTVSPropertyOp41
 70
     1
102
RTVSPropertyOp42
 70
     1
102
RTVSPropertyOp43
 70
     1
102
RTVSPropertyOp44
 70
     1
102
RTVSPropertyOp45
 70
     1
102
RTVSPropertyOp46
 70
     1
102
RTVSPropertyOp47
 70
     1
102
RTVSPropertyOp48
 70
     1
102
RTVSPropertyOp49
 70
     1
102
RTVSPropertyOp50
 70
     1
102
RTVSPropertyOp51
 70
     0
102
RTVSPropertyOp52
 70
     0
102
RTVSPropertyOp53
 70
     1
102
RTVSPropertyOp54
 70
     1
102
RTVSPropertyOp55
 70
     1
102
RTVSPropertyOp56
 70
     1
102
RTVSPropertyOp57
 70
     1
102
RTVSPropertyOp58
 70
     1
102
RTVSPropertyOp59
 70
     1
102
RTVSPropertyOp60
 70
     1
102
RTVSPropertyOp61
 70
     1
102
RTVSPropertyOp62
 70
     1
  0
ENDSEC
  0
EOF
