  0
SECTION
  2
HEADER
  9
$ACADVER
  1
AC1018
  9
$ACADMAINTVER
 70
   104
  9
$DWGCODEPAGE
  3
ANSI_1250
  9
$LASTSAVEDBY
  1
wq7085
  9
$INSBASE
 10
0.0
 20
0.0
 30
0.0
  9
$EXTMIN
 10
210.8544172655015
 20
124.799924
 30
0.0
  9
$EXTMAX
 10
334.842434
 20
374.5602246666667
 30
0.0
  9
$LIMMIN
 10
-0.5
 20
-0.5
  9
$LIMMAX
 10
5.0
 20
5.0
  9
$ORTHOMODE
 70
     0
  9
$REGENMODE
 70
     1
  9
$FILLMODE
 70
     1
  9
$QTEXTMODE
 70
     0
  9
$MIRRTEXT
 70
     1
  9
$LTSCALE
 40
1.0
  9
$ATTMODE
 70
     1
  9
$TEXTSIZE
 40
0.2
  9
$TRACEWID
 40
0.05
  9
$TEXTSTYLE
  7
Standard
  9
$CLAYER
  8
0
  9
$CELTYPE
  6
ByLayer
  9
$CECOLOR
 62
   256
  9
$CELTSCALE
 40
1.0
  9
$DISPSILH
 70
     0
  9
$DIMSCALE
 40
1.0
  9
$DIMASZ
 40
0.18
  9
$DIMEXO
 40
0.0625
  9
$DIMDLI
 40
0.38
  9
$DIMRND
 40
0.0
  9
$DIMDLE
 40
0.0
  9
$DIMEXE
 40
0.18
  9
$DIMTP
 40
0.0
  9
$DIMTM
 40
0.0
  9
$DIMTXT
 40
0.18
  9
$DIMCEN
 40
0.09
  9
$DIMTSZ
 40
0.0
  9
$DIMTOL
 70
     0
  9
$DIMLIM
 70
     0
  9
$DIMTIH
 70
     1
  9
$DIMTOH
 70
     1
  9
$DIMSE1
 70
     0
  9
$DIMSE2
 70
     0
  9
$DIMTAD
 70
     0
  9
$DIMZIN
 70
     0
  9
$DIMBLK
  1

  9
$DIMASO
 70
     1
  9
$DIMSHO
 70
     1
  9
$DIMPOST
  1

  9
$DIMAPOST
  1

  9
$DIMALT
 70
     0
  9
$DIMALTD
 70
     2
  9
$DIMALTF
 40
25.4
  9
$DIMLFAC
 40
1.0
  9
$DIMTOFL
 70
     0
  9
$DIMTVP
 40
0.0
  9
$DIMTIX
 70
     0
  9
$DIMSOXD
 70
     0
  9
$DIMSAH
 70
     0
  9
$DIMBLK1
  1

  9
$DIMBLK2
  1

  9
$DIMSTYLE
  2
Standard
  9
$DIMCLRD
 70
     0
  9
$DIMCLRE
 70
     0
  9
$DIMCLRT
 70
     0
  9
$DIMTFAC
 40
1.0
  9
$DIMGAP
 40
0.09
  9
$DIMJUST
 70
     0
  9
$DIMSD1
 70
     0
  9
$DIMSD2
 70
     0
  9
$DIMTOLJ
 70
     1
  9
$DIMTZIN
 70
     0
  9
$DIMALTZ
 70
     0
  9
$DIMALTTZ
 70
     0
  9
$DIMUPT
 70
     0
  9
$DIMDEC
 70
     4
  9
$DIMTDEC
 70
     4
  9
$DIMALTU
 70
     2
  9
$DIMALTTD
 70
     2
  9
$DIMTXSTY
  7
Standard
  9
$DIMAUNIT
 70
     0
  9
$DIMADEC
 70
     0
  9
$DIMALTRND
 40
0.0
  9
$DIMAZIN
 70
     0
  9
$DIMDSEP
 70
    46
  9
$DIMATFIT
 70
     3
  9
$DIMFRAC
 70
     0
  9
$DIMLDRBLK
  1

  9
$DIMLUNIT
 70
     2
  9
$DIMLWD
 70
    -2
  9
$DIMLWE
 70
    -2
  9
$DIMTMOVE
 70
     0
  9
$LUNITS
 70
     2
  9
$LUPREC
 70
     4
  9
$SKETCHINC
 40
0.1
  9
$FILLETRAD
 40
0.5
  9
$AUNITS
 70
     0
  9
$AUPREC
 70
     0
  9
$MENU
  1
.
  9
$ELEVATION
 40
0.0
  9
$PELEVATION
 40
0.0
  9
$THICKNESS
 40
0.0
  9
$LIMCHECK
 70
     0
  9
$CHAMFERA
 40
0.0
  9
$CHAMFERB
 40
0.0
  9
$CHAMFERC
 40
0.0
  9
$CHAMFERD
 40
0.0
  9
$SKPOLY
 70
     0
  9
$TDCREATE
 40
2458856.548773148
  9
$TDUCREATE
 40
2458856.507114954
  9
$TDUPDATE
 40
2458856.550196760
  9
$TDUUPDATE
 40
2458856.508530093
  9
$TDINDWG
 40
0.0010995486
  9
$TDUSRTIMER
 40
0.0010995486
  9
$USRTIMER
 70
     1
  9
$ANGBASE
 50
0.0
  9
$ANGDIR
 70
     0
  9
$PDMODE
 70
     0
  9
$PDSIZE
 40
0.0
  9
$PLINEWID
 40
0.0
  9
$SPLFRAME
 70
     0
  9
$SPLINETYPE
 70
     6
  9
$SPLINESEGS
 70
     8
  9
$HANDSEED
  5
436
  9
$SURFTAB1
 70
     6
  9
$SURFTAB2
 70
     6
  9
$SURFTYPE
 70
     6
  9
$SURFU
 70
     6
  9
$SURFV
 70
     6
  9
$UCSBASE
  2

  9
$UCSNAME
  2

  9
$UCSORG
 10
278.315042
 20
295.201634
 30
0.0
  9
$UCSXDIR
 10
1.0
 20
0.0
 30
0.0
  9
$UCSYDIR
 10
0.0
 20
1.0
 30
0.0
  9
$UCSORTHOREF
  2

  9
$UCSORTHOVIEW
 70
     0
  9
$UCSORGTOP
 10
0.0
 20
0.0
 30
0.0
  9
$UCSORGBOTTOM
 10
0.0
 20
0.0
 30
0.0
  9
$UCSORGLEFT
 10
0.0
 20
0.0
 30
0.0
  9
$UCSORGRIGHT
 10
0.0
 20
0.0
 30
0.0
  9
$UCSORGFRONT
 10
0.0
 20
0.0
 30
0.0
  9
$UCSORGBACK
 10
0.0
 20
0.0
 30
0.0
  9
$PUCSBASE
  2

  9
$PUCSNAME
  2

  9
$PUCSORG
 10
0.0
 20
0.0
 30
0.0
  9
$PUCSXDIR
 10
1.0
 20
0.0
 30
0.0
  9
$PUCSYDIR
 10
0.0
 20
1.0
 30
0.0
  9
$PUCSORTHOREF
  2

  9
$PUCSORTHOVIEW
 70
     0
  9
$PUCSORGTOP
 10
0.0
 20
0.0
 30
0.0
  9
$PUCSORGBOTTOM
 10
0.0
 20
0.0
 30
0.0
  9
$PUCSORGLEFT
 10
0.0
 20
0.0
 30
0.0
  9
$PUCSORGRIGHT
 10
0.0
 20
0.0
 30
0.0
  9
$PUCSORGFRONT
 10
0.0
 20
0.0
 30
0.0
  9
$PUCSORGBACK
 10
0.0
 20
0.0
 30
0.0
  9
$USERI1
 70
     0
  9
$USERI2
 70
     0
  9
$USERI3
 70
     0
  9
$USERI4
 70
     0
  9
$USERI5
 70
     0
  9
$USERR1
 40
0.0
  9
$USERR2
 40
0.0
  9
$USERR3
 40
0.0
  9
$USERR4
 40
0.0
  9
$USERR5
 40
0.0
  9
$WORLDVIEW
 70
     1
  9
$SHADEDGE
 70
     3
  9
$SHADEDIF
 70
    70
  9
$TILEMODE
 70
     1
  9
$MAXACTVP
 70
    64
  9
$PINSBASE
 10
0.0
 20
0.0
 30
0.0
  9
$PLIMCHECK
 70
     0
  9
$PEXTMIN
 10
-0.5
 20
-0.5
 30
-0.5
  9
$PEXTMAX
 10
5.0
 20
5.0
 30
5.0
  9
$PLIMMIN
 10
-0.5
 20
-0.5
  9
$PLIMMAX
 10
5.0
 20
5.0
  9
$UNITMODE
 70
     0
  9
$VISRETAIN
 70
     1
  9
$PLINEGEN
 70
     0
  9
$PSLTSCALE
 70
     1
  9
$TREEDEPTH
 70
  3020
  9
$CMLSTYLE
  2
Standard
  9
$CMLJUST
 70
     0
  9
$CMLSCALE
 40
1.0
  9
$PROXYGRAPHICS
 70
     1
  9
$MEASUREMENT
 70
     1
  9
$CELWEIGHT
370
    13
  9
$ENDCAPS
280
     0
  9
$JOINSTYLE
280
     0
  9
$LWDISPLAY
290
     0
  9
$INSUNITS
 70
     4
  9
$HYPERLINKBASE
  1

  9
$STYLESHEET
  1

  9
$XEDIT
290
     1
  9
$CEPSNTYPE
380
     0
  9
$PSTYLEMODE
290
     1
  9
$FINGERPRINTGUID
  2
{EA66C405-AAF5-4E5D-95A2-7A4ECB911F9B}
  9
$VERSIONGUID
  2
{79919F6F-5E64-6C49-944A-1F635E2B9440}
  9
$EXTNAMES
290
     1
  9
$PSVPSCALE
 40
0.0
  9
$OLESTARTUP
290
     0
  9
$SORTENTS
280
   127
  9
$INDEXCTL
280
     0
  9
$HIDETEXT
280
     1
  9
$XCLIPFRAME
290
     0
  9
$HALOGAP
280
     0
  9
$OBSCOLOR
 70
   257
  9
$OBSLTYPE
280
     0
  9
$INTERSECTIONDISPLAY
280
     0
  9
$INTERSECTIONCOLOR
 70
   257
  9
$DIMASSOC
280
     2
  9
$PROJECTNAME
  1

  0
ENDSEC
  0
SECTION
  2
CLASSES
  0
CLASS
  1
ACDBDICTIONARYWDFLT
  2
AcDbDictionaryWithDefault
  3
ObjectDBX Classes
 90
        0
 91
        1
280
     0
281
     0
  0
CLASS
  1
VISUALSTYLE
  2
AcDbVisualStyle
  3
ObjectDBX Classes
 90
     4095
 91
       24
280
     0
281
     0
  0
CLASS
  1
MATERIAL
  2
AcDbMaterial
  3
ObjectDBX Classes
 90
     1153
 91
        3
280
     0
281
     0
  0
CLASS
  1
SCALE
  2
AcDbScale
  3
ObjectDBX Classes
 90
     1153
 91
       33
280
     0
281
     0
  0
CLASS
  1
TABLESTYLE
  2
AcDbTableStyle
  3
ObjectDBX Classes
 90
     4095
 91
        1
280
     0
281
     0
  0
CLASS
  1
MLEADERSTYLE
  2
AcDbMLeaderStyle
  3
ACDB_MLEADERSTYLE_CLASS
 90
     4095
 91
        1
280
     0
281
     0
  0
CLASS
  1
SUN
  2
AcDbSun
  3
SCENEOE
 90
     1153
 91
        0
280
     0
281
     0
  0
CLASS
  1
DIMASSOC
  2
AcDbDimAssoc
  3
"AcDbDimAssoc|Product Desc:     AcDim ARX App For Dimension|Company:          Autodesk, Inc.|WEB Address:      www.autodesk.com"
 90
        0
 91
        5
280
     0
281
     0
  0
CLASS
  1
DICTIONARYVAR
  2
AcDbDictionaryVar
  3
ObjectDBX Classes
 90
        0
 91
        8
280
     0
281
     0
  0
CLASS
  1
CELLSTYLEMAP
  2
AcDbCellStyleMap
  3
ObjectDBX Classes
 90
     1152
 91
        2
280
     0
281
     0
  0
CLASS
  1
ACDBSECTIONVIEWSTYLE
  2
AcDbSectionViewStyle
  3
ObjectDBX Classes
 90
     1025
 91
        1
280
     0
281
     0
  0
CLASS
  1
ACDBDETAILVIEWSTYLE
  2
AcDbDetailViewStyle
  3
ObjectDBX Classes
 90
     1025
 91
        1
280
     0
281
     0
  0
CLASS
  1
SORTENTSTABLE
  2
AcDbSortentsTable
  3
ObjectDBX Classes
 90
        0
 91
        1
280
     0
281
     0
  0
ENDSEC
  0
SECTION
  2
TABLES
  0
TABLE
  2
VPORT
  5
8
330
0
100
AcDbSymbolTable
 70
    16
  0
VPORT
  5
29
330
8
100
AcDbSymbolTableRecord
100
AcDbViewportTableRecord
  2
*Active
 70
     0
 10
0.0
 20
0.0
 11
1.0
 21
1.0
 12
267.8771507268723
 22
315.9368283325372
 13
0.0
 23
0.0
 14
0.5
 24
0.5
 15
0.5
 25
0.5
 16
0.0
 26
0.0
 36
1.0
 17
0.0
 27
0.0
 37
0.0
 40
213.9900945070277
 41
2.292712066905615
 42
50.0
 43
341.643622
 44
-341.643622
 50
0.0
 51
0.0
 71
     0
 72
   100
 73
     1
 74
     3
 75
     0
 76
     0
 77
     0
 78
     0
281
     0
 65
     1
110
278.315042
120
295.201634
130
0.0
111
1.0
121
0.0
131
0.0
112
0.0
122
1.0
132
0.0
 79
     0
146
0.0
1001
ACAD_NAV_VCDISPLAY
1070
     3
  0
VPORT
  5
20B
330
8
100
AcDbSymbolTableRecord
100
AcDbViewportTableRecord
  2
L1
 70
     0
 10
0.0
 20
0.0
 11
1.0
 21
1.0
 12
272.662239
 22
249.68466
 13
0.0
 23
0.0
 14
0.5
 24
0.5
 15
0.5
 25
0.5
 16
0.0
 26
0.0
 36
1.0
 17
0.0
 27
0.0
 37
0.0
 40
207.433333
 41
0.085602
 42
50.0
 43
341.643622
 44
-341.643622
 50
0.0
 51
0.0
 71
     0
 72
   100
 73
     1
 74
     3
 75
     0
 76
     0
 77
     0
 78
     0
281
     0
 65
     1
110
0.0
120
0.0
130
0.0
111
1.0
121
0.0
131
0.0
112
0.0
122
1.0
132
0.0
 79
     0
146
0.0
  0
VPORT
  5
20C
330
8
100
AcDbSymbolTableRecord
100
AcDbViewportTableRecord
  2
L2
 70
     0
 10
0.0
 20
0.0
 11
0.5
 21
1.0
 12
0.0
 22
0.0
 13
0.0
 23
0.0
 14
0.5
 24
0.5
 15
0.5
 25
0.5
 16
0.0
 26
-1.0
 36
0.0
 17
0.0
 27
0.0
 37
0.0
 40
1311.475104
 41
0.01354
 42
50.0
 43
675.4659889999999
 44
-675.4659889999999
 50
0.0
 51
0.0
 71
     0
 72
   100
 73
     1
 74
     3
 75
     0
 76
     0
 77
     0
 78
     0
281
     0
 65
     1
110
0.0
120
0.0
130
0.0
111
1.0
121
0.0
131
0.0
112
0.0
122
1.0
132
0.0
 79
     0
146
0.0
  0
VPORT
  5
20D
330
8
100
AcDbSymbolTableRecord
100
AcDbViewportTableRecord
  2
L2
 70
     0
 10
0.5
 20
0.0
 11
1.0
 21
1.0
 12
0.0
 22
0.0
 13
0.0
 23
0.0
 14
0.5
 24
0.5
 15
0.5
 25
0.5
 16
1.0
 26
0.0
 36
0.0
 17
0.0
 27
0.0
 37
0.0
 40
1311.475104
 41
0.01354
 42
50.0
 43
663.889211
 44
-663.889211
 50
0.0
 51
0.0
 71
     0
 72
   100
 73
     1
 74
     3
 75
     0
 76
     0
 77
     0
 78
     0
281
     0
 65
     1
110
0.0
120
0.0
130
0.0
111
1.0
121
0.0
131
0.0
112
0.0
122
1.0
132
0.0
 79
     0
146
0.0
  0
VPORT
  5
20E
330
8
100
AcDbSymbolTableRecord
100
AcDbViewportTableRecord
  2
L3
 70
     0
 10
0.0
 20
0.5
 11
1.0
 21
1.0
 12
272.662239
 22
249.68466
 13
0.0
 23
0.0
 14
0.5
 24
0.5
 15
0.5
 25
0.5
 16
0.0
 26
0.0
 36
1.0
 17
0.0
 27
0.0
 37
0.0
 40
207.433333
 41
0.085602
 42
50.0
 43
341.643622
 44
-341.643622
 50
0.0
 51
0.0
 71
     0
 72
   100
 73
     1
 74
     3
 75
     0
 76
     0
 77
     0
 78
     0
281
     0
 65
     1
110
0.0
120
0.0
130
0.0
111
1.0
121
0.0
131
0.0
112
0.0
122
1.0
132
0.0
 79
     0
146
0.0
  0
VPORT
  5
20F
330
8
100
AcDbSymbolTableRecord
100
AcDbViewportTableRecord
  2
L3
 70
     0
 10
0.0
 20
0.0
 11
1.0
 21
0.5
 12
0.0
 22
0.0
 13
0.0
 23
0.0
 14
0.5
 24
0.5
 15
0.5
 25
0.5
 16
0.0
 26
-1.0
 36
0.0
 17
0.0
 27
0.0
 37
0.0
 40
1311.475104
 41
0.01354
 42
50.0
 43
675.4659889999999
 44
-675.4659889999999
 50
0.0
 51
0.0
 71
     0
 72
   100
 73
     1
 74
     3
 75
     0
 76
     0
 77
     0
 78
     0
281
     0
 65
     1
110
0.0
120
0.0
130
0.0
111
1.0
121
0.0
131
0.0
112
0.0
122
1.0
132
0.0
 79
     0
146
0.0
  0
VPORT
  5
210
330
8
100
AcDbSymbolTableRecord
100
AcDbViewportTableRecord
  2
L4
 70
     0
 10
0.0
 20
0.5
 11
0.5
 21
1.0
 12
272.662239
 22
249.68466
 13
0.0
 23
0.0
 14
0.5
 24
0.5
 15
0.5
 25
0.5
 16
0.0
 26
0.0
 36
1.0
 17
0.0
 27
0.0
 37
0.0
 40
207.433333
 41
0.085602
 42
50.0
 43
341.643622
 44
-341.643622
 50
0.0
 51
0.0
 71
     0
 72
   100
 73
     1
 74
     3
 75
     0
 76
     0
 77
     0
 78
     0
281
     0
 65
     1
110
0.0
120
0.0
130
0.0
111
1.0
121
0.0
131
0.0
112
0.0
122
1.0
132
0.0
 79
     0
146
0.0
  0
VPORT
  5
211
330
8
100
AcDbSymbolTableRecord
100
AcDbViewportTableRecord
  2
L4
 70
     0
 10
0.0
 20
0.0
 11
0.5
 21
0.5
 12
0.0
 22
0.0
 13
0.0
 23
0.0
 14
0.5
 24
0.5
 15
0.5
 25
0.5
 16
0.0
 26
-1.0
 36
0.0
 17
0.0
 27
0.0
 37
0.0
 40
1311.475104
 41
0.01354
 42
50.0
 43
675.4659889999999
 44
-675.4659889999999
 50
0.0
 51
0.0
 71
     0
 72
   100
 73
     1
 74
     3
 75
     0
 76
     0
 77
     0
 78
     0
281
     0
 65
     1
110
0.0
120
0.0
130
0.0
111
1.0
121
0.0
131
0.0
112
0.0
122
1.0
132
0.0
 79
     0
146
0.0
  0
VPORT
  5
212
330
8
100
AcDbSymbolTableRecord
100
AcDbViewportTableRecord
  2
L4
 70
     0
 10
0.5
 20
0.0
 11
1.0
 21
0.5
 12
0.0
 22
0.0
 13
0.0
 23
0.0
 14
0.5
 24
0.5
 15
0.5
 25
0.5
 16
1.0
 26
0.0
 36
0.0
 17
0.0
 27
0.0
 37
0.0
 40
1311.475104
 41
0.01354
 42
50.0
 43
663.889211
 44
-663.889211
 50
0.0
 51
0.0
 71
     0
 72
   100
 73
     1
 74
     3
 75
     0
 76
     0
 77
     0
 78
     0
281
     0
 65
     1
110
0.0
120
0.0
130
0.0
111
1.0
121
0.0
131
0.0
112
0.0
122
1.0
132
0.0
 79
     0
146
0.0
  0
VPORT
  5
213
330
8
100
AcDbSymbolTableRecord
100
AcDbViewportTableRecord
  2
L4
 70
     0
 10
0.5
 20
0.5
 11
1.0
 21
1.0
 12
0.0
 22
0.0
 13
0.0
 23
0.0
 14
0.5
 24
0.5
 15
0.5
 25
0.5
 16
0.5773502691896259
 26
-0.5773502691896259
 36
0.5773502691896259
 17
0.0
 27
0.0
 37
0.0
 40
1287.818467
 41
0.013788
 42
50.0
 43
670.773434
 44
-670.773434
 50
0.0
 51
0.0
 71
     0
 72
   100
 73
     1
 74
     3
 75
     0
 76
     0
 77
     0
 78
     0
281
     0
 65
     1
110
0.0
120
0.0
130
0.0
111
1.0
121
0.0
131
0.0
112
0.0
122
1.0
132
0.0
 79
     0
146
0.0
  0
VPORT
  5
214
330
8
100
AcDbSymbolTableRecord
100
AcDbViewportTableRecord
  2
L6
 70
     0
 10
0.0
 20
0.5
 11
0.333333
 21
1.0
 12
0.0
 22
0.0
 13
0.0
 23
0.0
 14
0.5
 24
0.5
 15
0.5
 25
0.5
 16
0.7188730927569434
 26
-0.5850486126764433
 36
0.3754192287502549
 17
0.0
 27
0.0
 37
0.0
 40
1359.077926
 41
0.013065
 42
50.0
 43
703.6802759999999
 44
-703.6802759999999
 50
0.0
 51
0.0
 71
     0
 72
   100
 73
     1
 74
     3
 75
     0
 76
     0
 77
     0
 78
     0
281
     0
 65
     1
110
0.0
120
0.0
130
0.0
111
1.0
121
0.0
131
0.0
112
0.0
122
1.0
132
0.0
 79
     0
146
0.0
  0
VPORT
  5
215
330
8
100
AcDbSymbolTableRecord
100
AcDbViewportTableRecord
  2
L6
 70
     0
 10
0.0
 20
0.0
 11
0.333333
 21
0.5
 12
0.0
 22
0.0
 13
0.0
 23
0.0
 14
0.5
 24
0.5
 15
0.5
 25
0.5
 16
-1.0
 26
0.0
 36
0.0
 17
0.0
 27
0.0
 37
0.0
 40
1311.475104
 41
0.01354
 42
50.0
 43
663.889211
 44
-663.889211
 50
0.0
 51
0.0
 71
     0
 72
   100
 73
     1
 74
     3
 75
     0
 76
     0
 77
     0
 78
     0
281
     0
 65
     1
110
0.0
120
0.0
130
0.0
111
1.0
121
0.0
131
0.0
112
0.0
122
1.0
132
0.0
 79
     0
146
0.0
  0
VPORT
  5
216
330
8
100
AcDbSymbolTableRecord
100
AcDbViewportTableRecord
  2
L6
 70
     0
 10
0.333333
 20
0.5
 11
0.666667
 21
1.0
 12
272.662239
 22
249.68466
 13
0.0
 23
0.0
 14
0.5
 24
0.5
 15
0.5
 25
0.5
 16
0.0
 26
0.0
 36
1.0
 17
0.0
 27
0.0
 37
0.0
 40
207.433333
 41
0.085602
 42
50.0
 43
341.643622
 44
-341.643622
 50
0.0
 51
0.0
 71
     0
 72
   100
 73
     1
 74
     3
 75
     0
 76
     0
 77
     0
 78
     0
281
     0
 65
     1
110
0.0
120
0.0
130
0.0
111
1.0
121
0.0
131
0.0
112
0.0
122
1.0
132
0.0
 79
     0
146
0.0
  0
VPORT
  5
217
330
8
100
AcDbSymbolTableRecord
100
AcDbViewportTableRecord
  2
L6
 70
     0
 10
0.333333
 20
0.0
 11
0.666667
 21
0.5
 12
0.0
 22
0.0
 13
0.0
 23
0.0
 14
0.5
 24
0.5
 15
0.5
 25
0.5
 16
0.0
 26
-1.0
 36
0.0
 17
0.0
 27
0.0
 37
0.0
 40
1311.475104
 41
0.01354
 42
50.0
 43
675.4659889999999
 44
-675.4659889999999
 50
0.0
 51
0.0
 71
     0
 72
   100
 73
     1
 74
     3
 75
     0
 76
     0
 77
     0
 78
     0
281
     0
 65
     1
110
0.0
120
0.0
130
0.0
111
1.0
121
0.0
131
0.0
112
0.0
122
1.0
132
0.0
 79
     0
146
0.0
  0
VPORT
  5
218
330
8
100
AcDbSymbolTableRecord
100
AcDbViewportTableRecord
  2
L6
 70
     0
 10
0.666667
 20
0.5
 11
1.0
 21
1.0
 12
0.0
 22
0.0
 13
0.0
 23
0.0
 14
0.5
 24
0.5
 15
0.5
 25
0.5
 16
0.5773502691896259
 26
-0.5773502691896259
 36
0.5773502691896259
 17
0.0
 27
0.0
 37
0.0
 40
1287.818467
 41
0.013788
 42
50.0
 43
670.773434
 44
-670.773434
 50
0.0
 51
0.0
 71
     0
 72
   100
 73
     1
 74
     3
 75
     0
 76
     0
 77
     0
 78
     0
281
     0
 65
     1
110
0.0
120
0.0
130
0.0
111
1.0
121
0.0
131
0.0
112
0.0
122
1.0
132
0.0
 79
     0
146
0.0
  0
VPORT
  5
219
330
8
100
AcDbSymbolTableRecord
100
AcDbViewportTableRecord
  2
L6
 70
     0
 10
0.666667
 20
0.0
 11
1.0
 21
0.5
 12
0.0
 22
0.0
 13
0.0
 23
0.0
 14
0.5
 24
0.5
 15
0.5
 25
0.5
 16
1.0
 26
0.0
 36
0.0
 17
0.0
 27
0.0
 37
0.0
 40
1311.475104
 41
0.01354
 42
50.0
 43
663.889211
 44
-663.889211
 50
0.0
 51
0.0
 71
     0
 72
   100
 73
     1
 74
     3
 75
     0
 76
     0
 77
     0
 78
     0
281
     0
 65
     1
110
0.0
120
0.0
130
0.0
111
1.0
121
0.0
131
0.0
112
0.0
122
1.0
132
0.0
 79
     0
146
0.0
  0
ENDTAB
  0
TABLE
  2
LTYPE
  5
5
330
0
100
AcDbSymbolTable
 70
     7
  0
LTYPE
  5
14
330
5
100
AcDbSymbolTableRecord
100
AcDbLinetypeTableRecord
  2
ByBlock
 70
     0
  3

 72
    65
 73
     0
 40
0.0
  0
LTYPE
  5
15
330
5
100
AcDbSymbolTableRecord
100
AcDbLinetypeTableRecord
  2
ByLayer
 70
     0
  3

 72
    65
 73
     0
 40
0.0
  0
LTYPE
  5
16
330
5
100
AcDbSymbolTableRecord
100
AcDbLinetypeTableRecord
  2
Continuous
 70
     0
  3
Solid line
 72
    65
 73
     0
 40
0.0
  0
LTYPE
  5
6E
330
5
100
AcDbSymbolTableRecord
100
AcDbLinetypeTableRecord
  2
CENTER
 70
     0
  3
____ _ ____ _ ____ _ ____
 72
    65
 73
     4
 40
47.4
 49
22.0
 74
     4
 75
     0
340
0
 46
0.0
 50
0.0
 44
0.0
 45
0.0
 49
-8.5
 74
     4
 75
     0
340
0
 46
0.0
 50
0.0
 44
0.0
 45
0.0
 49
8.5
 74
     4
 75
     0
340
0
 46
0.0
 50
0.0
 44
0.0
 45
0.0
 49
-8.5
 74
     4
 75
     0
340
0
 46
0.0
 50
0.0
 44
0.0
 45
0.0
  0
LTYPE
  5
6F
330
5
100
AcDbSymbolTableRecord
100
AcDbLinetypeTableRecord
  2
DASHDOT
 70
     0
  3
_._._._._._._._._._._._._._._._.
 72
    65
 73
     4
 40
70.0
 49
31.0
 74
     4
 75
     0
340
0
 46
0.0
 50
0.0
 44
0.0
 45
0.0
 49
-13.0
 74
     4
 75
     0
340
0
 46
0.0
 50
0.0
 44
0.0
 45
0.0
 49
13.0
 74
     4
 75
     0
340
0
 46
0.0
 50
0.0
 44
0.0
 45
0.0
 49
-13.0
 74
     4
 75
     0
340
0
 46
0.0
 50
0.0
 44
0.0
 45
0.0
  0
LTYPE
  5
70
330
5
100
AcDbSymbolTableRecord
100
AcDbLinetypeTableRecord
  2
DASHED
 70
     0
  3
__ __ __ __ __ __ __ __ __
 72
    65
 73
     2
 40
25.72
 49
12.86
 74
     4
 75
     0
340
0
 46
0.0
 50
0.0
 44
0.0
 45
0.0
 49
-12.86
 74
     4
 75
     0
340
0
 46
0.0
 50
0.0
 44
0.0
 45
0.0
  0
LTYPE
  5
71
330
5
100
AcDbSymbolTableRecord
100
AcDbLinetypeTableRecord
  2
DOT
 70
     0
  3
.........................
 72
    65
 73
     2
 40
10.0
 49
0.0
 74
     4
 75
     0
340
0
 46
0.0
 50
0.0
 44
0.0
 45
0.0
 49
-10.0
 74
     4
 75
     0
340
0
 46
0.0
 50
0.0
 44
0.0
 45
0.0
  0
LTYPE
  5
72
330
5
100
AcDbSymbolTableRecord
100
AcDbLinetypeTableRecord
  2
PHANTOM
 70
     0
  3
____ _ _ ____ _ _ _____ _ _ ____
 72
    65
 73
     6
 40
50.5
 49
18.0
 74
     4
 75
     0
340
0
 46
0.0
 50
0.0
 44
0.0
 45
0.0
 49
-6.5
 74
     4
 75
     0
340
0
 46
0.0
 50
0.0
 44
0.0
 45
0.0
 49
6.5
 74
     4
 75
     0
340
0
 46
0.0
 50
0.0
 44
0.0
 45
0.0
 49
-6.5
 74
     4
 75
     0
340
0
 46
0.0
 50
0.0
 44
0.0
 45
0.0
 49
6.5
 74
     4
 75
     0
340
0
 46
0.0
 50
0.0
 44
0.0
 45
0.0
 49
-6.5
 74
     4
 75
     0
340
0
 46
0.0
 50
0.0
 44
0.0
 45
0.0
  0
LTYPE
  5
3D6
330
5
100
AcDbSymbolTableRecord
100
AcDbLinetypeTableRecord
  2
CENTER2
 70
     0
  3
Center (.5x) ___ _ ___ _ ___ _ ___ _ ___ _ ___
 72
    65
 73
     4
 40
1.125
 49
0.75
 74
     0
 49
-0.125
 74
     0
 49
0.125
 74
     0
 49
-0.125
 74
     0
  0
ENDTAB
  0
TABLE
  2
LAYER
  5
2
330
0
100
AcDbSymbolTable
 70
    22
  0
LAYER
  5
10
102
{ACAD_XDICTIONARY
360
3E1
102
}
330
2
100
AcDbSymbolTableRecord
100
AcDbLayerTableRecord
  2
0
 70
     0
 62
     7
  6
Continuous
370
    -3
390
F
  0
LAYER
  5
D3
102
{ACAD_XDICTIONARY
360
3E3
102
}
330
2
100
AcDbSymbolTableRecord
100
AcDbLayerTableRecord
  2
14
 70
     0
 62
     7
420
 16777215
  6
Continuous
370
    -3
390
F
  0
LAYER
  5
18A
330
2
100
AcDbSymbolTableRecord
100
AcDbLayerTableRecord
  2
Defpoints
 70
     0
 62
     7
  6
Continuous
290
     0
370
    -3
390
F
  0
LAYER
  5
3D3
102
{ACAD_XDICTIONARY
360
3E5
102
}
330
2
100
AcDbSymbolTableRecord
100
AcDbLayerTableRecord
  2
1
 70
     0
 62
     4
  6
Continuous
370
    -3
390
F
  0
LAYER
  5
3D4
102
{ACAD_XDICTIONARY
360
3E7
102
}
330
2
100
AcDbSymbolTableRecord
100
AcDbLayerTableRecord
  2
2
 70
     0
 62
     7
  6
Continuous
370
    -3
390
F
  0
LAYER
  5
3D5
102
{ACAD_XDICTIONARY
360
3E9
102
}
330
2
100
AcDbSymbolTableRecord
100
AcDbLayerTableRecord
  2
4
 70
     0
 62
     2
  6
CENTER2
370
    -3
390
F
  0
LAYER
  5
3D7
102
{ACAD_XDICTIONARY
360
3EB
102
}
330
2
100
AcDbSymbolTableRecord
100
AcDbLayerTableRecord
  2
SK1
 70
     0
 62
     4
  6
Continuous
370
    -3
390
F
  0
LAYER
  5
3D8
102
{ACAD_XDICTIONARY
360
3ED
102
}
330
2
100
AcDbSymbolTableRecord
100
AcDbLayerTableRecord
  2
SK2
 70
     0
 62
     7
  6
Continuous
370
    -3
390
F
  0
LAYER
  5
3DA
102
{ACAD_XDICTIONARY
360
3EF
102
}
330
2
100
AcDbSymbolTableRecord
100
AcDbLayerTableRecord
  2
SK4
 70
     0
 62
     2
  6
CENTER2
370
    -3
390
F
  0
LAYER
  5
3DB
102
{ACAD_XDICTIONARY
360
3F1
102
}
330
2
100
AcDbSymbolTableRecord
100
AcDbLayerTableRecord
  2
SK6
 70
     0
 62
     5
  6
Continuous
370
    -3
390
F
  0
LAYER
  5
3DC
102
{ACAD_XDICTIONARY
360
3F3
102
}
330
2
100
AcDbSymbolTableRecord
100
AcDbLayerTableRecord
  2
CUT
 70
     0
 62
     1
  6
Continuous
370
    -3
390
F
  0
LAYER
  5
3DD
102
{ACAD_XDICTIONARY
360
3F5
102
}
330
2
100
AcDbSymbolTableRecord
100
AcDbLayerTableRecord
  2
NOCUT
 70
     0
 62
     7
  6
Continuous
370
    -3
390
F
  0
LAYER
  5
3DE
102
{ACAD_XDICTIONARY
360
3F7
102
}
330
2
100
AcDbSymbolTableRecord
100
AcDbLayerTableRecord
  2
80
 70
     0
 62
     6
  6
Continuous
370
    -3
390
F
  0
LAYER
  5
3DF
102
{ACAD_XDICTIONARY
360
3F9
102
}
330
2
100
AcDbSymbolTableRecord
100
AcDbLayerTableRecord
  2
81
 70
     0
 62
     3
  6
Continuous
370
    -3
390
F
  0
ENDTAB
  0
TABLE
  2
STYLE
  5
3
330
0
100
AcDbSymbolTable
 70
     3
  0
STYLE
  5
11
330
3
100
AcDbSymbolTableRecord
100
AcDbTextStyleTableRecord
  2
Standard
 70
     0
 40
0.0
 41
1.0
 50
0.0
 71
     0
 42
0.2
  3
txt
  4

  0
STYLE
  5
174
330
3
100
AcDbSymbolTableRecord
100
AcDbTextStyleTableRecord
  2
cesky
 70
     0
 40
0.0
 41
1.0
 50
0.0
 71
     0
 42
0.2
  3
simplex.shx
  4

  0
STYLE
  5
175
330
3
100
AcDbSymbolTableRecord
100
AcDbTextStyleTableRecord
  2
DWGDirectTextStyle
 70
     0
 40
0.0
 41
1.0
 50
0.0
 71
     0
 42
0.2
  3
simplex
  4

  0
ENDTAB
  0
TABLE
  2
VIEW
  5
6
330
0
100
AcDbSymbolTable
 70
     0
  0
ENDTAB
  0
TABLE
  2
UCS
  5
7
330
0
100
AcDbSymbolTable
 70
     0
  0
ENDTAB
  0
TABLE
  2
APPID
  5
9
330
0
100
AcDbSymbolTable
 70
     7
  0
APPID
  5
12
330
9
100
AcDbSymbolTableRecord
100
AcDbRegAppTableRecord
  2
ACAD
 70
     0
  0
APPID
  5
186
330
9
100
AcDbSymbolTableRecord
100
AcDbRegAppTableRecord
  2
ACAD_DSTYLE_DIMBREAK
 70
     0
  0
APPID
  5
21A
330
9
100
AcDbSymbolTableRecord
100
AcDbRegAppTableRecord
  2
ACAD_DSTYLE_DIM_LINETYPE
 70
     0
  0
APPID
  5
21B
330
9
100
AcDbSymbolTableRecord
100
AcDbRegAppTableRecord
  2
ACAD_DSTYLE_DIM_EXT1_LINETYPE
 70
     0
  0
APPID
  5
21C
330
9
100
AcDbSymbolTableRecord
100
AcDbRegAppTableRecord
  2
ACAD_DSTYLE_DIM_EXT2_LINETYPE
 70
     0
  0
APPID
  5
25C
330
9
100
AcDbSymbolTableRecord
100
AcDbRegAppTableRecord
  2
ACAD_MLEADERVER
 70
     0
  0
APPID
  5
3FE
330
9
100
AcDbSymbolTableRecord
100
AcDbRegAppTableRecord
  2
ACAD_NAV_VCDISPLAY
 70
     0
  0
ENDTAB
  0
TABLE
  2
DIMSTYLE
  5
A
330
0
100
AcDbSymbolTable
 70
     1
100
AcDbDimStyleTable
 71
     0
  0
DIMSTYLE
105
27
330
A
100
AcDbSymbolTableRecord
100
AcDbDimStyleTableRecord
  2
Standard
 70
     0
340
11
1001
ACAD_DSTYLE_DIMBREAK
1070
   391
1040
6.349999999999999
  0
ENDTAB
  0
TABLE
  2
BLOCK_RECORD
  5
1
330
0
100
AcDbSymbolTable
 70
    13
  0
BLOCK_RECORD
  5
1F
102
{ACAD_XDICTIONARY
360
26C
102
}
330
1
100
AcDbSymbolTableRecord
100
AcDbBlockTableRecord
  2
*Model_Space
340
22
  0
BLOCK_RECORD
  5
1B
330
1
100
AcDbSymbolTableRecord
100
AcDbBlockTableRecord
  2
*Paper_Space
340
1E
  0
BLOCK_RECORD
  5
23
330
1
100
AcDbSymbolTableRecord
100
AcDbBlockTableRecord
  2
*Paper_Space0
340
26
  0
BLOCK_RECORD
  5
181
330
1
100
AcDbSymbolTableRecord
100
AcDbBlockTableRecord
  2
ASSORTED_DRAFT1
340
0
  0
BLOCK_RECORD
  5
18B
330
1
100
AcDbSymbolTableRecord
100
AcDbBlockTableRecord
  2
*D2
340
0
  0
BLOCK_RECORD
  5
196
330
1
100
AcDbSymbolTableRecord
100
AcDbBlockTableRecord
  2
_U0
340
0
  0
BLOCK_RECORD
  5
1A1
330
1
100
AcDbSymbolTableRecord
100
AcDbBlockTableRecord
  2
*D4
340
0
  0
BLOCK_RECORD
  5
1AD
330
1
100
AcDbSymbolTableRecord
100
AcDbBlockTableRecord
  2
_U1
340
0
  0
BLOCK_RECORD
  5
1B9
330
1
100
AcDbSymbolTableRecord
100
AcDbBlockTableRecord
  2
*D6
340
0
  0
BLOCK_RECORD
  5
1C5
330
1
100
AcDbSymbolTableRecord
100
AcDbBlockTableRecord
  2
_U2
340
0
  0
BLOCK_RECORD
  5
1D1
330
1
100
AcDbSymbolTableRecord
100
AcDbBlockTableRecord
  2
*D8
340
0
  0
BLOCK_RECORD
  5
1DF
330
1
100
AcDbSymbolTableRecord
100
AcDbBlockTableRecord
  2
_U3
340
0
  0
BLOCK_RECORD
  5
1EB
330
1
100
AcDbSymbolTableRecord
100
AcDbBlockTableRecord
  2
*D10
340
0
  0
BLOCK_RECORD
  5
1F7
330
1
100
AcDbSymbolTableRecord
100
AcDbBlockTableRecord
  2
_U4
340
0
  0
BLOCK_RECORD
  5
200
330
1
100
AcDbSymbolTableRecord
100
AcDbBlockTableRecord
  2
_U5
340
0
  0
ENDTAB
  0
ENDSEC
  0
SECTION
  2
BLOCKS
  0
BLOCK
  5
20
330
1F
100
AcDbEntity
  8
0
100
AcDbBlockBegin
  2
*Model_Space
 70
     0
 10
0.0
 20
0.0
 30
0.0
  3
*Model_Space
  1

  0
ENDBLK
  5
21
330
1F
100
AcDbEntity
  8
0
100
AcDbBlockEnd
  0
BLOCK
  5
1C
330
1B
100
AcDbEntity
 67
     1
  8
0
100
AcDbBlockBegin
  2
*Paper_Space
 70
     0
 10
0.0
 20
0.0
 30
0.0
  3
*Paper_Space
  1

  0
ENDBLK
  5
1D
330
1B
100
AcDbEntity
 67
     1
  8
0
100
AcDbBlockEnd
  0
BLOCK
  5
24
330
23
100
AcDbEntity
 67
     1
  8
0
100
AcDbBlockBegin
  2
*Paper_Space0
 70
     0
 10
0.0
 20
0.0
 30
0.0
  3
*Paper_Space0
  1

  0
ENDBLK
  5
25
330
23
100
AcDbEntity
 67
     1
  8
0
100
AcDbBlockEnd
  0
BLOCK
  5
184
330
181
100
AcDbEntity
  8
0
100
AcDbBlockBegin
  2
ASSORTED_DRAFT1
 70
     0
 10
0.0
 20
0.0
 30
0.0
  3
ASSORTED_DRAFT1
  1

  0
SOLID
  5
182
330
181
100
AcDbEntity
  8
0
 62
   254
370
    13
100
AcDbTrace
 10
270.445042
 20
158.352681
 30
0.0
 11
275.445038
 21
159.461155
 31
0.0
 12
275.445046
 22
157.244208
 32
0.0
 13
270.445042
 23
158.352681
 33
0.0
  0
ENDBLK
  5
185
330
181
100
AcDbEntity
  8
0
100
AcDbBlockEnd
  0
BLOCK
  5
18C
330
18B
100
AcDbEntity
  8
0
100
AcDbBlockBegin
  2
*D2
 70
     1
 10
0.0
 20
0.0
 30
0.0
  3
*D2
  1

  0
LINE
  5
18E
330
18B
100
AcDbEntity
  8
0
 62
   254
370
    -2
100
AcDbLine
 10
305.134553
 20
295.201634
 30
0.0
 11
334.842434
 21
295.201634
 31
0.0
  0
LINE
  5
18F
330
18B
100
AcDbEntity
  8
0
 62
   254
370
    -2
100
AcDbLine
 10
312.315042
 20
305.201634
 30
0.0
 11
334.842434
 21
305.201634
 31
0.0
  0
LINE
  5
190
330
18B
100
AcDbEntity
  8
0
 62
   254
370
    -2
100
AcDbLine
 10
333.8424339999999
 20
308.701634
 30
0.0
 11
333.8424339999999
 21
312.201634
 31
0.0
  0
SOLID
  5
191
330
18B
100
AcDbEntity
  8
0
 62
   254
100
AcDbTrace
 10
333.2591
 20
308.701634
 30
0.0
 11
334.425767
 21
308.701634
 31
0.0
 12
333.8424339999999
 22
305.201634
 32
0.0
 13
333.8424339999999
 23
305.201634
 33
0.0
  0
MTEXT
  5
192
330
18B
100
AcDbEntity
  8
0
 62
   254
370
    13
100
AcDbMText
 10
328.592434
 20
281.868301
 30
0.0
 40
3.5
 41
0.0
 71
     5
 72
     1
  1
\A1;20
  7
cesky
 11
0.0
 21
1.0
 31
0.0
 73
     1
 44
1.0
  0
POINT
  5
193
330
18B
100
AcDbEntity
  8
Defpoints
 62
     0
100
AcDbPoint
 10
305.134553
 20
295.201634
 30
0.0
  0
POINT
  5
194
330
18B
100
AcDbEntity
  8
Defpoints
 62
     0
100
AcDbPoint
 10
312.315042
 20
305.201634
 30
0.0
  0
POINT
  5
195
330
18B
100
AcDbEntity
  8
Defpoints
 62
     0
100
AcDbPoint
 10
333.8424339999999
 20
305.201634
 30
0.0
  0
ENDBLK
  5
18D
330
18B
100
AcDbEntity
  8
0
100
AcDbBlockEnd
  0
BLOCK
  5
19C
330
196
100
AcDbEntity
  8
0
100
AcDbBlockBegin
  2
_U0
 70
     0
 10
0.0
 20
0.0
 30
0.0
  3
_U0
  1

  0
ENDBLK
  5
19D
330
196
100
AcDbEntity
  8
0
100
AcDbBlockEnd
  0
BLOCK
  5
1A2
330
1A1
100
AcDbEntity
  8
0
100
AcDbBlockBegin
  2
*D4
 70
     1
 10
0.0
 20
0.0
 30
0.0
  3
*D4
  1

  0
LINE
  5
1A4
330
1A1
100
AcDbEntity
  8
0
 62
    95
370
    -2
100
AcDbLine
 10
278.315042
 20
296.201207
 30
0.0
 11
278.315042
 21
356.263586
 31
0.0
  0
LINE
  5
1A5
330
1A1
100
AcDbEntity
  8
0
 62
    95
370
    -2
100
AcDbLine
 10
310.315042
 20
307.201634
 30
0.0
 11
310.315042
 21
356.263586
 31
0.0
  0
LINE
  5
1A6
330
1A1
100
AcDbEntity
  8
0
 62
    95
370
    -2
100
AcDbLine
 10
281.815042
 20
355.263586
 30
0.0
 11
306.815042
 21
355.263586
 31
0.0
  0
SOLID
  5
1A7
330
1A1
100
AcDbEntity
  8
0
 62
    95
100
AcDbTrace
 10
281.815042
 20
355.846919
 30
0.0
 11
281.815042
 21
354.680252
 31
0.0
 12
278.315042
 22
355.263586
 32
0.0
 13
278.315042
 23
355.263586
 33
0.0
  0
SOLID
  5
1A8
330
1A1
100
AcDbEntity
  8
0
 62
    95
100
AcDbTrace
 10
306.815042
 20
354.680252
 30
0.0
 11
306.815042
 21
355.846919
 31
0.0
 12
310.315042
 22
355.263586
 32
0.0
 13
310.315042
 23
355.263586
 33
0.0
  0
MTEXT
  5
1A9
330
1A1
100
AcDbEntity
  8
0
 62
    95
370
    13
100
AcDbMText
 10
289.3347
 20
360.513586
 30
0.0
 40
3.5
 41
0.0
 71
     5
 72
     1
  1
\A1;32
  7
cesky
 73
     1
 44
1.0
  0
POINT
  5
1AA
330
1A1
100
AcDbEntity
  8
Defpoints
 62
     0
100
AcDbPoint
 10
278.315042
 20
296.201207
 30
0.0
  0
POINT
  5
1AB
330
1A1
100
AcDbEntity
  8
Defpoints
 62
     0
100
AcDbPoint
 10
310.315042
 20
307.201634
 30
0.0
  0
POINT
  5
1AC
330
1A1
100
AcDbEntity
  8
Defpoints
 62
     0
100
AcDbPoint
 10
310.315042
 20
355.263586
 30
0.0
  0
ENDBLK
  5
1A3
330
1A1
100
AcDbEntity
  8
0
100
AcDbBlockEnd
  0
BLOCK
  5
1B4
330
1AD
100
AcDbEntity
  8
0
100
AcDbBlockBegin
  2
_U1
 70
     0
 10
0.0
 20
0.0
 30
0.0
  3
_U1
  1

  0
ENDBLK
  5
1B5
330
1AD
100
AcDbEntity
  8
0
100
AcDbBlockEnd
  0
BLOCK
  5
1BA
330
1B9
100
AcDbEntity
  8
0
100
AcDbBlockBegin
  2
*D6
 70
     1
 10
0.0
 20
0.0
 30
0.0
  3
*D6
  1

  0
LINE
  5
1BC
330
1B9
100
AcDbEntity
  8
0
 62
   254
370
    -2
100
AcDbLine
 10
310.315042
 20
305.201634
 30
0.0
 11
310.315042
 21
343.651256
 31
0.0
  0
LINE
  5
1BD
330
1B9
100
AcDbEntity
  8
0
 62
   254
370
    -2
100
AcDbLine
 10
278.315042
 20
305.201634
 30
0.0
 11
278.315042
 21
343.651256
 31
0.0
  0
LINE
  5
1BE
330
1B9
100
AcDbEntity
  8
0
 62
   254
370
    -2
100
AcDbLine
 10
306.815042
 20
342.651256
 30
0.0
 11
281.815042
 21
342.651256
 31
0.0
  0
SOLID
  5
1BF
330
1B9
100
AcDbEntity
  8
0
 62
   254
100
AcDbTrace
 10
306.815042
 20
342.067922
 30
0.0
 11
306.815042
 21
343.2345890000001
 31
0.0
 12
310.315042
 22
342.651256
 32
0.0
 13
310.315042
 23
342.651256
 33
0.0
  0
SOLID
  5
1C0
330
1B9
100
AcDbEntity
  8
0
 62
   254
100
AcDbTrace
 10
281.815042
 20
343.2345890000001
 30
0.0
 11
281.815042
 21
342.067922
 31
0.0
 12
278.315042
 22
342.651256
 32
0.0
 13
278.315042
 23
342.651256
 33
0.0
  0
MTEXT
  5
1C1
330
1B9
100
AcDbEntity
  8
0
 62
   254
370
    13
100
AcDbMText
 10
294.315042
 20
347.901256
 30
0.0
 40
3.5
 41
0.0
 71
     5
 72
     1
  1
\A1;32
  7
cesky
 73
     1
 44
1.0
  0
POINT
  5
1C2
330
1B9
100
AcDbEntity
  8
Defpoints
 62
     0
100
AcDbPoint
 10
310.315042
 20
305.201634
 30
0.0
  0
POINT
  5
1C3
330
1B9
100
AcDbEntity
  8
Defpoints
 62
     0
100
AcDbPoint
 10
278.315042
 20
305.201634
 30
0.0
  0
POINT
  5
1C4
330
1B9
100
AcDbEntity
  8
Defpoints
 62
     0
100
AcDbPoint
 10
278.315042
 20
342.651256
 30
0.0
  0
ENDBLK
  5
1BB
330
1B9
100
AcDbEntity
  8
0
100
AcDbBlockEnd
  0
BLOCK
  5
1CC
330
1C5
100
AcDbEntity
  8
0
100
AcDbBlockBegin
  2
_U2
 70
     0
 10
0.0
 20
0.0
 30
0.0
  3
_U2
  1

  0
ENDBLK
  5
1CD
330
1C5
100
AcDbEntity
  8
0
100
AcDbBlockEnd
  0
BLOCK
  5
1D2
330
1D1
100
AcDbEntity
  8
0
100
AcDbBlockBegin
  2
*D8
 70
     1
 10
0.0
 20
0.0
 30
0.0
  3
*D8
  1

  0
LINE
  5
1D4
330
1D1
100
AcDbEntity
  8
0
 62
   254
370
    -2
100
AcDbLine
 10
310.315042
 20
303.201634
 30
0.0
 11
310.315042
 21
326.1885299999999
 31
0.0
  0
LINE
  5
1D5
330
1D1
100
AcDbEntity
  8
0
 62
   254
370
    -2
100
AcDbLine
 10
305.782282
 20
309.66036
 30
0.0
 11
305.782282
 21
326.1885299999999
 31
0.0
  0
LINE
  5
1D6
330
1D1
100
AcDbEntity
  8
0
 62
   254
370
    -2
100
AcDbLine
 10
310.315042
 20
325.18853
 30
0.0
 11
331.648375
 21
325.18853
 31
0.0
  0
LINE
  5
1D7
330
1D1
100
AcDbEntity
  8
0
 62
   254
370
    -2
100
AcDbLine
 10
313.815042
 20
325.18853
 30
0.0
 11
317.315042
 21
325.18853
 31
0.0
  0
LINE
  5
1D8
330
1D1
100
AcDbEntity
  8
0
 62
   254
370
    -2
100
AcDbLine
 10
302.282282
 20
325.18853
 30
0.0
 11
298.782282
 21
325.18853
 31
0.0
  0
SOLID
  5
1D9
330
1D1
100
AcDbEntity
  8
0
 62
   254
100
AcDbTrace
 10
313.815042
 20
325.771863
 30
0.0
 11
313.815042
 21
324.605197
 31
0.0
 12
310.315042
 22
325.18853
 32
0.0
 13
310.315042
 23
325.18853
 33
0.0
  0
SOLID
  5
1DA
330
1D1
100
AcDbEntity
  8
0
 62
   254
100
AcDbTrace
 10
302.282282
 20
324.605197
 30
0.0
 11
302.282282
 21
325.771863
 31
0.0
 12
305.782282
 22
325.18853
 32
0.0
 13
305.782282
 23
325.18853
 33
0.0
  0
MTEXT
  5
1DB
330
1D1
100
AcDbEntity
  8
0
 62
   254
370
    13
100
AcDbMText
 10
324.481709
 20
330.43853
 30
0.0
 40
3.5
 41
0.0
 71
     5
 72
     1
  1
\A1;4.5
  7
cesky
 73
     1
 44
1.0
  0
POINT
  5
1DC
330
1D1
100
AcDbEntity
  8
Defpoints
 62
     0
100
AcDbPoint
 10
310.315042
 20
303.201634
 30
0.0
  0
POINT
  5
1DD
330
1D1
100
AcDbEntity
  8
Defpoints
 62
     0
100
AcDbPoint
 10
305.782282
 20
309.66036
 30
0.0
  0
POINT
  5
1DE
330
1D1
100
AcDbEntity
  8
Defpoints
 62
     0
100
AcDbPoint
 10
305.782282
 20
325.18853
 30
0.0
  0
ENDBLK
  5
1D3
330
1D1
100
AcDbEntity
  8
0
100
AcDbBlockEnd
  0
BLOCK
  5
1E6
330
1DF
100
AcDbEntity
  8
0
100
AcDbBlockBegin
  2
_U3
 70
     0
 10
0.0
 20
0.0
 30
0.0
  3
_U3
  1

  0
ENDBLK
  5
1E7
330
1DF
100
AcDbEntity
  8
0
100
AcDbBlockEnd
  0
BLOCK
  5
1EC
330
1EB
100
AcDbEntity
  8
0
100
AcDbBlockBegin
  2
*D10
 70
     1
 10
0.0
 20
0.0
 30
0.0
  3
*D10
  1

  0
LINE
  5
1EE
330
1EB
100
AcDbEntity
  8
0
 62
    95
370
    -2
100
AcDbLine
 10
228.315042
 20
296.941377
 30
0.0
 11
228.315042
 21
371.019392
 31
0.0
  0
LINE
  5
1EF
330
1EB
100
AcDbEntity
  8
0
 62
    95
370
    -2
100
AcDbLine
 10
310.315042
 20
307.201634
 30
0.0
 11
310.315042
 21
371.019392
 31
0.0
  0
LINE
  5
1F0
330
1EB
100
AcDbEntity
  8
0
 62
    95
370
    -2
100
AcDbLine
 10
231.815042
 20
370.019392
 30
0.0
 11
306.815042
 21
370.019392
 31
0.0
  0
SOLID
  5
1F1
330
1EB
100
AcDbEntity
  8
0
 62
    95
100
AcDbTrace
 10
231.815042
 20
370.602725
 30
0.0
 11
231.815042
 21
369.436058
 31
0.0
 12
228.315042
 22
370.019392
 32
0.0
 13
228.315042
 23
370.019392
 33
0.0
  0
SOLID
  5
1F2
330
1EB
100
AcDbEntity
  8
0
 62
    95
100
AcDbTrace
 10
306.815042
 20
369.436058
 30
0.0
 11
306.815042
 21
370.602725
 31
0.0
 12
310.315042
 22
370.019392
 32
0.0
 13
310.315042
 23
370.019392
 33
0.0
  0
MTEXT
  5
1F3
330
1EB
100
AcDbEntity
  8
0
 62
    95
370
    13
100
AcDbMText
 10
269.315042
 20
375.269392
 30
0.0
 40
3.5
 41
0.0
 71
     5
 72
     1
  1
\A1;82
  7
cesky
 73
     1
 44
1.0
  0
POINT
  5
1F4
330
1EB
100
AcDbEntity
  8
Defpoints
 62
     0
100
AcDbPoint
 10
228.315042
 20
296.941377
 30
0.0
  0
POINT
  5
1F5
330
1EB
100
AcDbEntity
  8
Defpoints
 62
     0
100
AcDbPoint
 10
310.315042
 20
307.201634
 30
0.0
  0
POINT
  5
1F6
330
1EB
100
AcDbEntity
  8
Defpoints
 62
     0
100
AcDbPoint
 10
310.315042
 20
370.019392
 30
0.0
  0
ENDBLK
  5
1ED
330
1EB
100
AcDbEntity
  8
0
100
AcDbBlockEnd
  0
BLOCK
  5
1FE
330
1F7
100
AcDbEntity
  8
0
100
AcDbBlockBegin
  2
_U4
 70
     0
 10
0.0
 20
0.0
 30
0.0
  3
_U4
  1

  0
ENDBLK
  5
1FF
330
1F7
100
AcDbEntity
  8
0
100
AcDbBlockEnd
  0
BLOCK
  5
208
330
200
100
AcDbEntity
  8
0
100
AcDbBlockBegin
  2
_U5
 70
     0
 10
0.0
 20
0.0
 30
0.0
  3
_U5
  1

  0
ENDBLK
  5
209
330
200
100
AcDbEntity
  8
0
100
AcDbBlockEnd
  0
ENDSEC
  0
SECTION
  2
ENTITIES
  0
POINT
  5
73
102
{ACAD_REACTORS
330
3E0
102
}
330
1F
100
AcDbEntity
  8
80
100
AcDbPoint
 10
278.315042
 20
295.201634
 30
0.0
  0
POINT
  5
76
330
1F
100
AcDbEntity
  8
4
 60
     1
100
AcDbPoint
 10
294.248353
 20
295.201634
 30
0.0
  0
POINT
  5
78
330
1F
100
AcDbEntity
  8
4
 60
     1
100
AcDbPoint
 10
305.134553
 20
295.201634
 30
0.0
  0
POINT
  5
79
330
1F
100
AcDbEntity
  8
SK4
 60
     1
100
AcDbPoint
 10
229.315042
 20
295.201634
 30
0.0
  0
POINT
  5
7A
330
1F
100
AcDbEntity
  8
SK4
 60
     1
100
AcDbPoint
 10
278.315042
 20
295.201634
 30
0.0
  0
POINT
  5
7B
330
1F
100
AcDbEntity
  8
SK6
 60
     1
100
AcDbPoint
 10
305.782282
 20
309.66036
 30
0.0
  0
POINT
  5
7C
330
1F
100
AcDbEntity
  8
SK6
 60
     1
100
AcDbPoint
 10
228.315042
 20
296.941377
 30
0.0
  0
LINE
  5
7D
330
1F
100
AcDbEntity
  8
1
100
AcDbLine
 10
305.129846
 20
304.542986
 30
0.0
 11
305.125954
 21
304.54623
 31
0.0
  0
LINE
  5
7F
330
1F
100
AcDbEntity
  8
1
100
AcDbLine
 10
304.776045
 20
302.732262
 30
0.0
 11
304.602199
 21
302.884697
 31
0.0
  0
LINE
  5
80
330
1F
100
AcDbEntity
  8
1
100
AcDbLine
 10
305.656338
 20
304.055195
 30
0.0
 11
305.823242
 21
303.908848
 31
0.0
  0
LINE
  5
81
330
1F
100
AcDbEntity
  8
1
100
AcDbLine
 10
284.315042
 20
287.519045
 30
0.0
 11
284.315042
 21
302.884223
 31
0.0
  0
LINE
  5
83
330
1F
100
AcDbEntity
  8
1
100
AcDbLine
 10
304.655654
 20
304.958799
 30
0.0
 11
305.12189
 21
304.549989
 31
0.0
  0
LINE
  5
84
330
1F
100
AcDbEntity
  8
1
100
AcDbLine
 10
305.616472
 20
304.621623
 30
0.0
 11
305.21624
 21
304.972559
 31
0.0
  0
LINE
  5
85
330
1F
100
AcDbEntity
  8
1
100
AcDbLine
 10
305.557005
 20
304.553328
 30
0.0
 11
305.156647
 21
304.904375
 31
0.0
  0
LINE
  5
86
330
1F
100
AcDbEntity
  8
1
100
AcDbLine
 10
304.548927
 20
304.40438
 30
0.0
 11
304.089468
 21
304.807248
 31
0.0
  0
LINE
  5
87
330
1F
100
AcDbEntity
  8
1
100
AcDbLine
 10
303.69252
 20
304.367727
 30
0.0
 11
304.15175
 21
303.965059
 31
0.0
  0
LINE
  5
88
330
1F
100
AcDbEntity
  8
1
100
AcDbLine
 10
303.709316
 20
303.292415
 30
0.0
 11
304.110367
 21
302.94076
 31
0.0
  0
LINE
  5
89
330
1F
100
AcDbEntity
  8
1
100
AcDbLine
 10
303.648623
 20
303.227159
 30
0.0
 11
304.052806
 21
302.872759
 31
0.0
  0
LINE
  5
8A
330
1F
100
AcDbEntity
  8
1
100
AcDbLine
 10
309.815042
 20
302.608664
 30
0.0
 11
309.815042
 21
302.595057
 31
0.0
  0
LINE
  5
8B
330
1F
100
AcDbEntity
  8
1
100
AcDbLine
 10
306.429496
 20
298.70696
 30
0.0
 11
306.313123
 21
298.811827
 31
0.0
  0
LINE
  5
8C
330
1F
100
AcDbEntity
  8
1
100
AcDbLine
 10
309.815042
 20
296.929466
 30
0.0
 11
309.815042
 21
302.595057
 31
0.0
  0
LINE
  5
8D
330
1F
100
AcDbEntity
  8
1
100
AcDbLine
 10
309.815042
 20
296.929466
 30
0.0
 11
309.815042
 21
296.58322
 31
0.0
  0
LINE
  5
8E
330
1F
100
AcDbEntity
  8
1
100
AcDbLine
 10
305.239886
 20
281.900525
 30
0.0
 11
305.134973
 21
282.017185
 31
0.0
  0
LINE
  5
8F
330
1F
100
AcDbEntity
  8
1
100
AcDbLine
 10
282.975296
 20
304.201634
 30
0.0
 11
279.410487
 21
304.201634
 31
0.0
  0
LINE
  5
90
330
1F
100
AcDbEntity
  8
1
100
AcDbLine
 10
279.410487
 20
286.201634
 30
0.0
 11
282.975296
 21
286.201634
 31
0.0
  0
LINE
  5
91
330
1F
100
AcDbEntity
  8
SK1
100
AcDbLine
 10
228.315042
 20
304.201634
 30
0.0
 11
228.315042
 21
286.201634
 31
0.0
  0
LINE
  5
92
330
1F
100
AcDbEntity
  8
SK1
100
AcDbLine
 10
228.315042
 20
286.201634
 30
0.0
 11
229.315042
 21
285.201634
 31
0.0
  0
LINE
  5
93
330
1F
100
AcDbEntity
  8
SK1
100
AcDbLine
 10
229.315042
 20
305.201634
 30
0.0
 11
228.315042
 21
304.201634
 31
0.0
  0
LINE
  5
94
330
1F
100
AcDbEntity
  8
SK1
100
AcDbLine
 10
229.315042
 20
305.201634
 30
0.0
 11
229.315042
 21
285.201634
 31
0.0
  0
LINE
  5
95
330
1F
100
AcDbEntity
  8
1
100
AcDbLine
 10
278.315042
 20
305.201634
 30
0.0
 11
278.315042
 21
285.201634
 31
0.0
  0
LINE
  5
96
330
1F
100
AcDbEntity
  8
SK1
100
AcDbLine
 10
229.315042
 20
285.201634
 30
0.0
 11
278.315042
 21
285.201634
 31
0.0
  0
LINE
  5
97
330
1F
100
AcDbEntity
  8
SK1
100
AcDbLine
 10
278.315042
 20
305.201634
 30
0.0
 11
229.315042
 21
305.201634
 31
0.0
  0
LINE
  5
98
330
1F
100
AcDbEntity
  8
1
100
AcDbLine
 10
309.815042
 20
290.047479
 30
0.0
 11
309.815042
 21
291.076066
 31
0.0
  0
LINE
  5
99
330
1F
100
AcDbEntity
  8
1
100
AcDbLine
 10
309.815042
 20
291.076066
 30
0.0
 11
309.815042
 21
291.412494
 31
0.0
  0
LINE
  5
9A
330
1F
100
AcDbEntity
  8
1
100
AcDbLine
 10
307.227673
 20
291.348828
 30
0.0
 11
309.815042
 21
291.076066
 31
0.0
  0
LINE
  5
9B
330
1F
100
AcDbEntity
  8
1
100
AcDbLine
 10
285.475296
 20
285.531761
 30
0.0
 11
288.3167
 21
283.891276
 31
0.0
  0
LINE
  5
9C
330
1F
100
AcDbEntity
  8
1
100
AcDbLine
 10
288.3167
 20
306.511992
 30
0.0
 11
285.475296
 21
304.871507
 31
0.0
  0
LINE
  5
9D
330
1F
100
AcDbEntity
  8
1
100
AcDbLine
 10
309.815042
 20
290.047479
 30
0.0
 11
309.815042
 21
286.598734
 31
0.0
  0
LINE
  5
9E
330
1F
100
AcDbEntity
  8
1
100
AcDbLine
 10
309.815042
 20
293.820048
 30
0.0
 11
309.815042
 21
291.412494
 31
0.0
  0
LINE
  5
9F
330
1F
100
AcDbEntity
  8
1
100
AcDbLine
 10
294.248353
 20
281.790805
 30
0.0
 11
294.248353
 21
305.150354
 31
0.0
  0
LINE
  5
A0
330
1F
100
AcDbEntity
  8
1
100
AcDbLine
 10
305.134553
 20
282.020142
 30
0.0
 11
305.134553
 21
281.273822
 31
0.0
  0
LINE
  5
A1
330
1F
100
AcDbEntity
  8
1
100
AcDbLine
 10
305.134553
 20
298.393958
 30
0.0
 11
305.134553
 21
282.077825
 31
0.0
  0
LINE
  5
A2
330
1F
100
AcDbEntity
  8
1
100
AcDbLine
 10
309.815048
 20
287.794602
 30
0.0
 11
310.315042
 21
286.6306259999999
 31
0.0
  0
LINE
  5
A4
330
1F
100
AcDbEntity
  8
1
100
AcDbLine
 10
310.315042
 20
286.6306259999999
 30
0.0
 11
310.315042
 21
285.201634
 31
0.0
  0
LINE
  5
A5
330
1F
100
AcDbEntity
  8
1
100
AcDbLine
 10
305.372096
 20
280.738724
 30
0.0
 11
310.315042
 21
285.201634
 31
0.0
  0
LINE
  5
A6
330
1F
100
AcDbEntity
  8
1
100
AcDbLine
 10
310.315042
 20
285.201634
 30
0.0
 11
309.8040000000001
 21
286.588677
 31
0.0
  0
LINE
  5
A7
330
1F
100
AcDbEntity
  8
1
100
AcDbLine
 10
306.520504
 20
283.607262
 30
0.0
 11
305.372096
 21
280.738724
 31
0.0
  0
LINE
  5
A8
330
1F
100
AcDbEntity
  8
1
100
AcDbLine
 10
305.372096
 20
280.738724
 30
0.0
 11
303.954874
 21
280.888129
 31
0.0
  0
LINE
  5
A9
330
1F
100
AcDbEntity
  8
1
100
AcDbLine
 10
303.7822569999999
 20
281.080377
 30
0.0
 11
303.954874
 21
280.888129
 31
0.0
  0
LINE
  5
AA
330
1F
100
AcDbEntity
  8
1
100
AcDbLine
 10
303.954874
 20
280.888129
 30
0.0
 11
304.038263
 21
281.0650569999999
 31
0.0
  0
LINE
  5
AB
330
1F
100
AcDbEntity
  8
1
100
AcDbLine
 10
310.315042
 20
303.772642
 30
0.0
 11
310.315042
 21
305.201634
 31
0.0
  0
LINE
  5
AC
330
1F
100
AcDbEntity
  8
1
100
AcDbLine
 10
305.372096
 20
309.664544
 30
0.0
 11
310.315042
 21
305.201634
 31
0.0
  0
LINE
  5
AD
330
1F
100
AcDbEntity
  8
1
100
AcDbLine
 10
305.372096
 20
309.664544
 30
0.0
 11
303.954874
 21
309.515139
 31
0.0
  0
LINE
  5
AE
330
1F
100
AcDbEntity
  8
1
100
AcDbLine
 10
299.011929
 20
304.010053
 30
0.0
 11
303.954874
 21
309.515139
 31
0.0
  0
LINE
  5
AF
330
1F
100
AcDbEntity
  8
1
100
AcDbLine
 10
299.011929
 20
304.010053
 30
0.0
 11
299.011929
 21
302.581061
 31
0.0
  0
LINE
  5
B0
330
1F
100
AcDbEntity
  8
1
100
AcDbLine
 10
299.9296950000001
 20
301.752424
 30
0.0
 11
299.011929
 21
302.581061
 31
0.0
  0
LINE
  5
B1
330
1F
100
AcDbEntity
  8
1
100
AcDbLine
 10
305.278493
 20
298.257688
 30
0.0
 11
305.372096
 21
298.267556
 31
0.0
  0
LINE
  5
B2
330
1F
100
AcDbEntity
  8
1
100
AcDbLine
 10
306.571419
 20
298.961115
 30
0.0
 11
309.786192
 21
302.541491
 31
0.0
  0
LINE
  5
B3
330
1F
100
AcDbEntity
  8
1
100
AcDbLine
 10
309.786192
 20
302.541491
 30
0.0
 11
310.315042
 21
303.772642
 31
0.0
  0
LINE
  5
B4
330
1F
100
AcDbEntity
  8
1
100
AcDbLine
 10
305.372096
 20
298.267556
 30
0.0
 11
310.315042
 21
303.772642
 31
0.0
  0
LINE
  5
B5
330
1F
100
AcDbEntity
  8
1
100
AcDbLine
 10
305.372096
 20
298.267556
 30
0.0
 11
306.571419
 21
298.961115
 31
0.0
  0
LINE
  5
B6
330
1F
100
AcDbEntity
  8
1
100
AcDbLine
 10
305.902276
 20
289.593094
 30
0.0
 11
305.89112
 21
289.583312
 31
0.0
  0
LINE
  5
B7
330
1F
100
AcDbEntity
  8
1
100
AcDbLine
 10
304.071588
 20
303.375931
 30
0.0
 11
304.077196
 21
303.370623
 31
0.0
  0
LINE
  5
B8
330
1F
100
AcDbEntity
  8
1
100
AcDbLine
 10
304.07157
 20
303.375945
 30
0.0
 11
303.605112
 21
303.784951
 31
0.0
  0
LINE
  5
B9
330
1F
100
AcDbEntity
  8
1
100
AcDbLine
 10
304.659251
 20
304.95545
 30
0.0
 11
305.125953
 21
304.54623
 31
0.0
  0
LINE
  5
BA
330
1F
100
AcDbEntity
  8
1
100
AcDbLine
 10
306.342827
 20
305.211795
 30
0.0
 11
306.067581
 21
305.45314
 31
0.0
  0
LINE
  5
BB
330
1F
100
AcDbEntity
  8
1
100
AcDbLine
 10
303.298586
 20
302.295186
 30
0.0
 11
303.573833
 21
302.053841
 31
0.0
  0
LINE
  5
BC
330
1F
100
AcDbEntity
  8
1
100
AcDbLine
 10
306.342827
 20
305.211795
 30
0.0
 11
306.342731
 21
305.21188
 31
0.0
  0
LINE
  5
BF
330
1F
100
AcDbEntity
  8
80
100
AcDbLine
 10
277.315468
 20
295.201634
 30
0.0
 11
279.314616
 21
295.201634
 31
0.0
  0
LINE
  5
C1
330
1F
100
AcDbEntity
  8
80
100
AcDbLine
 10
278.315042
 20
294.20206
 30
0.0
 11
278.315042
 21
296.201207
 31
0.0
  0
LINE
  5
C2
330
1F
100
AcDbEntity
  8
81
100
AcDbLine
 10
308.315042
 20
305.201634
 30
0.0
 11
312.315042
 21
305.201634
 31
0.0
  0
LINE
  5
C3
330
1F
100
AcDbEntity
  8
81
100
AcDbLine
 10
310.315042
 20
303.201634
 30
0.0
 11
310.315042
 21
307.201634
 31
0.0
  0
LINE
  5
D2
330
1F
100
AcDbEntity
  8
NOCUT
100
AcDbLine
 10
291.94335
 20
295.216384
 30
0.0
 11
303.715042
 21
295.216384
 31
0.0
  0
LINE
  5
D4
330
1F
100
AcDbEntity
  8
14
 60
     1
100
AcDbLine
 10
229.315042
 20
299.979424
 30
0.0
 11
229.315042
 21
290.453344
 31
0.0
  0
LINE
  5
D5
330
1F
100
AcDbEntity
  8
14
 60
     1
100
AcDbLine
 10
229.315042
 20
305.201634
 30
0.0
 11
229.315042
 21
285.231134
 31
0.0
  0
LINE
  5
D6
330
1F
100
AcDbEntity
  8
NOCUT
100
AcDbLine
 10
291.94335
 20
295.216384
 30
0.0
 11
290.815042
 21
298.3163839999999
 31
0.0
  0
LINE
  5
D7
330
1F
100
AcDbEntity
  8
NOCUT
100
AcDbLine
 10
290.815042
 20
298.3163839999999
 30
0.0
 11
229.315042
 21
298.3163839999999
 31
0.0
  0
LINE
  5
D8
330
1F
100
AcDbEntity
  8
NOCUT
100
AcDbLine
 10
229.315042
 20
298.3163839999999
 30
0.0
 11
228.315042
 21
299.316384
 31
0.0
  0
LINE
  5
D9
330
1F
100
AcDbEntity
  8
NOCUT
100
AcDbLine
 10
228.315042
 20
299.316384
 30
0.0
 11
228.315042
 21
304.201634
 31
0.0
  0
LINE
  5
DA
330
1F
100
AcDbEntity
  8
NOCUT
100
AcDbLine
 10
228.315042
 20
304.201634
 30
0.0
 11
229.315042
 21
305.201634
 31
0.0
  0
LINE
  5
DB
330
1F
100
AcDbEntity
  8
NOCUT
100
AcDbLine
 10
229.315042
 20
305.201634
 30
0.0
 11
278.316489
 21
305.201634
 31
0.0
  0
LINE
  5
DC
330
1F
100
AcDbEntity
  8
NOCUT
100
AcDbLine
 10
279.410487
 20
304.216384
 30
0.0
 11
282.975296
 21
304.216384
 31
0.0
  0
LINE
  5
DD
330
1F
100
AcDbEntity
  8
NOCUT
100
AcDbLine
 10
285.475296
 20
304.886257
 30
0.0
 11
294.248353
 21
309.951384
 31
0.0
  0
LINE
  5
DE
330
1F
100
AcDbEntity
  8
NOCUT
100
AcDbLine
 10
294.248353
 20
309.951384
 30
0.0
 11
305.134553
 21
309.951384
 31
0.0
  0
LINE
  5
DF
330
1F
100
AcDbEntity
  8
NOCUT
100
AcDbLine
 10
305.134553
 20
309.951384
 30
0.0
 11
309.815042
 21
304.771384
 31
0.0
  0
LINE
  5
E0
330
1F
100
AcDbEntity
  8
NOCUT
100
AcDbLine
 10
309.815042
 20
304.771384
 30
0.0
 11
309.815042
 21
303.516384
 31
0.0
  0
LINE
  5
E1
330
1F
100
AcDbEntity
  8
NOCUT
100
AcDbLine
 10
309.815042
 20
303.516384
 30
0.0
 11
303.715042
 21
297.828042
 31
0.0
  0
LINE
  5
E2
330
1F
100
AcDbEntity
  8
NOCUT
100
AcDbLine
 10
303.715042
 20
297.828042
 30
0.0
 11
303.715042
 21
295.216384
 31
0.0
  0
LINE
  5
E7
102
{ACAD_REACTORS
330
20A
102
}
330
1F
100
AcDbEntity
  8
SK2
100
AcDbLine
 10
217.328917
 20
305.201634
 30
0.0
 11
217.328917
 21
285.201634
 31
0.0
  0
LINE
  5
E8
102
{ACAD_REACTORS
330
20A
102
}
330
1F
100
AcDbEntity
  8
SK2
100
AcDbLine
 10
229.315042
 20
285.201634
 30
0.0
 11
216.328917
 21
285.201634
 31
0.0
  0
LINE
  5
E9
102
{ACAD_REACTORS
330
20A
102
}
330
1F
100
AcDbEntity
  8
SK2
100
AcDbLine
 10
229.315042
 20
305.201634
 30
0.0
 11
216.328917
 21
305.201634
 31
0.0
  0
LINE
  5
EA
330
1F
100
AcDbEntity
  8
SK2
 60
     1
100
AcDbLine
 10
217.328917
 20
285.201634
 30
0.0
 11
216.711772
 21
288.701632
 31
0.0
  0
LINE
  5
EB
330
1F
100
AcDbEntity
  8
SK2
 60
     1
100
AcDbLine
 10
216.711772
 20
288.701632
 30
0.0
 11
217.946061
 21
288.701636
 31
0.0
  0
LINE
  5
EC
330
1F
100
AcDbEntity
  8
SK2
 60
     1
100
AcDbLine
 10
217.946061
 20
288.701636
 30
0.0
 11
217.328917
 21
285.201634
 31
0.0
  0
LINE
  5
ED
330
1F
100
AcDbEntity
  8
SK2
 60
     1
100
AcDbLine
 10
217.328917
 20
305.201634
 30
0.0
 11
217.946061
 21
301.701636
 31
0.0
  0
LINE
  5
EE
330
1F
100
AcDbEntity
  8
SK2
 60
     1
100
AcDbLine
 10
217.946061
 20
301.701636
 30
0.0
 11
216.711772
 21
301.701632
 31
0.0
  0
LINE
  5
EF
330
1F
100
AcDbEntity
  8
SK2
 60
     1
100
AcDbLine
 10
216.711772
 20
301.701632
 30
0.0
 11
217.328917
 21
305.201634
 31
0.0
  0
ARC
  5
F4
330
1F
100
AcDbEntity
  8
1
100
AcDbCircle
 10
282.975296
 20
309.201634
 30
0.0
 40
5.0
100
AcDbArc
 50
270.0
 51
300.0
  0
ARC
  5
F5
330
1F
100
AcDbEntity
  8
1
100
AcDbCircle
 10
282.975296
 20
281.201634
 30
0.0
 40
5.0
100
AcDbArc
 50
60.0
 51
90.0
  0
ARC
  5
F6
330
1F
100
AcDbEntity
  8
1
100
AcDbCircle
 10
279.410487
 20
305.301634
 30
0.0
 40
1.099999999999998
100
AcDbArc
 50
185.215909
 51
270.0
  0
ARC
  5
F7
330
1F
100
AcDbEntity
  8
1
100
AcDbCircle
 10
279.410487
 20
285.101634
 30
0.0
 40
1.099999999999998
100
AcDbArc
 50
90.0
 51
174.784091
  0
ARC
  5
104
330
1F
100
AcDbEntity
  8
NOCUT
100
AcDbCircle
 10
279.410487
 20
305.316384
 30
0.0
 40
1.099999999999998
100
AcDbArc
 50
185.987886
 51
270.0
  0
ARC
  5
105
330
1F
100
AcDbEntity
  8
NOCUT
100
AcDbCircle
 10
282.975296
 20
309.216384
 30
0.0
 40
5.0
100
AcDbArc
 50
270.0
 51
300.0
  0
ELLIPSE
  5
106
330
1F
100
AcDbEntity
  8
1
100
AcDbEllipse
 10
311.398875
 20
295.201634
 30
0.0
 11
-70.45838546522545
 21
-2.774144380098908
 31
0.0
210
0.0
220
0.0
230
1.0
 40
0.205391
 41
4.812611245144752
 42
4.950177788333163
  0
ELLIPSE
  5
107
330
1F
100
AcDbEntity
  8
1
100
AcDbEllipse
 10
301.652644
 20
302.595459
 30
0.0
 11
-3.441954591365596
 21
-0.1807432609831461
 31
0.0
210
0.0
220
0.0
230
0.9999999999999998
 40
0.226407
 41
0.9831641332095715
 42
1.001155822372982
  0
ELLIPSE
  5
108
330
1F
100
AcDbEntity
  8
1
100
AcDbEllipse
 10
307.227673
 20
288.967174
 30
0.0
 11
0.9889265519020444
 21
-1.127840536132274
 31
0.0
210
0.0
220
0.0
230
1.0
 40
0.9000889999999998
 41
4.093964880427042
 42
5.501002295780173
  0
ELLIPSE
  5
109
330
1F
100
AcDbEntity
  8
1
100
AcDbEllipse
 10
307.227673
 20
288.967174
 30
0.0
 11
0.9889265519020444
 21
-1.127840536132274
 31
0.0
210
0.0
220
0.0
230
1.0
 40
0.9000889999999998
 41
0.857793456603909
 42
3.854984618417361
  0
ELLIPSE
  5
10A
330
1F
100
AcDbEntity
  8
1
100
AcDbEllipse
 10
307.227673
 20
288.967174
 30
0.0
 11
1.648210919836741
 21
-1.879734226887122
 31
0.0
210
0.0
220
0.0
230
1.0
 40
0.9000889999999998
 41
2.369281899727043
 42
2.797308983013536
  0
ELLIPSE
  5
10B
330
1F
100
AcDbEntity
  8
1
100
AcDbEllipse
 10
394.729897
 20
354.836117
 30
0.0
 11
-106.6063856458265
 21
-70.7679816654028
 31
0.0
210
0.0
220
0.0
230
0.9999999999999998
 40
0.063245
 41
0.0081594582509278
 42
0.1582100591611667
  0
ELLIPSE
  5
10C
330
1F
100
AcDbEntity
  8
1
100
AcDbEllipse
 10
394.729897
 20
235.567151
 30
0.0
 11
-106.6063856455606
 21
70.76798166522341
 31
0.0
210
0.0
220
0.0
230
0.9999999999999998
 40
0.063245
 41
5.982047662607246
 42
6.25176610727486
  0
ELLIPSE
  5
10D
330
1F
100
AcDbEntity
  8
1
100
AcDbEllipse
 10
311.398875
 20
295.201634
 30
0.0
 11
-70.45838547535879
 21
2.774144379801353
 31
0.0
210
0.0
220
0.0
230
0.9999999999999998
 40
0.205391
 41
1.333007518831717
 42
1.478667275396575
  0
ELLIPSE
  5
10E
330
1F
100
AcDbEntity
  8
1
100
AcDbEllipse
 10
285.790257
 20
295.201634
 30
0.0
 11
-24.00013686993541
 21
10.23480966843838
 31
0.0
210
0.0
220
0.0
230
1.0
 40
0.441682
 41
2.620177026171266
 42
2.671177962463473
  0
ELLIPSE
  5
10F
330
1F
100
AcDbEntity
  8
1
100
AcDbEllipse
 10
304.375501
 20
295.201634
 30
0.0
 11
-21.54359289014981
 21
14.51265750857544
 31
0.0
210
0.0
220
0.0
230
1.0
 40
0.118369
 41
4.756829963579249
 42
5.279652656042522
  0
ELLIPSE
  5
110
330
1F
100
AcDbEntity
  8
1
100
AcDbEllipse
 10
304.876429
 20
303.704632
 30
0.0
 11
-1.483389827853041
 21
-1.691760804198379
 31
0.0
210
0.0
220
0.0
230
1.0
 40
0.9000889999999998
 41
3.211593051467104
 42
3.749394518571354
  0
ELLIPSE
  5
111
330
1F
100
AcDbEntity
  8
1
100
AcDbEllipse
 10
304.876429
 20
303.704632
 30
0.0
 11
-1.483389827853041
 21
-1.691760804198379
 31
0.0
210
0.0
220
0.0
230
1.0
 40
0.9000889999999998
 41
5.675386699142918
 42
6.213188286463614
  0
ELLIPSE
  5
112
330
1F
100
AcDbEntity
  8
1
100
AcDbEllipse
 10
304.663485
 20
303.891348
 30
0.0
 11
1.483389827853035
 21
1.691760804198369
 31
0.0
210
0.0
220
0.0
230
0.9999999999999998
 40
0.9000889999999998
 41
0.0
 42
6.283185307179585
  0
ELLIPSE
  5
113
330
1F
100
AcDbEntity
  8
1
100
AcDbEllipse
 10
306.891202
 20
288.465253
 30
0.0
 11
0.9889265519020444
 21
-1.127840536132274
 31
0.0
210
0.0
220
0.0
230
1.0
 40
0.9000889999999998
 41
3.141622449841444
 42
3.152716119956944
  0
ELLIPSE
  5
114
330
1F
100
AcDbEntity
  8
1
100
AcDbEllipse
 10
307.022244
 20
288.580155
 30
0.0
 11
0.7252128047281655
 21
-0.8270830598303332
 31
0.0
210
0.0
220
0.0
230
1.0
 40
0.9000889999999998
 41
5.705456484932573
 42
6.283185307179585
  0
ELLIPSE
  5
115
330
1F
100
AcDbEntity
  8
1
100
AcDbEllipse
 10
307.022244
 20
288.580155
 30
0.0
 11
0.7252128047281655
 21
-0.8270830598303332
 31
0.0
210
0.0
220
0.0
230
1.0
 40
0.9000889999999998
 41
0.0
 42
0.0130875143194705
  0
ELLIPSE
  5
116
330
1F
100
AcDbEntity
  8
1
100
AcDbEllipse
 10
307.022244
 20
288.580155
 30
0.0
 11
0.7252128047281655
 21
-0.8270830598303332
 31
0.0
210
0.0
220
0.0
230
1.0
 40
0.9000889999999998
 41
0.0130875840553176
 42
4.340925846660102
  0
ELLIPSE
  5
117
330
1F
100
AcDbEntity
  8
1
100
AcDbEllipse
 10
305.094718
 20
304.969675
 30
0.0
 11
0.0658662705990444
 21
0.0751184704289522
 31
0.0
210
0.0
220
0.0
230
1.0
 40
0.9000889999999998
 41
4.112165806238306
 42
4.961100958649166
  0
ELLIPSE
  5
118
330
1F
100
AcDbEntity
  8
1
100
AcDbEllipse
 10
305.2582109999999
 20
304.891734
 30
0.0
 11
0.0658662705990445
 21
0.0751184704289523
 31
0.0
210
0.0
220
0.0
230
1.0
 40
0.9000889999999998
 41
0.4469743770503118
 42
1.819508305059398
  0
ELLIPSE
  5
119
330
1F
100
AcDbEntity
  8
1
100
AcDbEllipse
 10
305.120484
 20
304.465531
 30
0.0
 11
0.3665425743715517
 21
0.4180306139009015
 31
0.0
210
0.0
220
0.0
230
1.0
 40
0.9000889999999998
 41
5.810036111059976
 42
6.730159684229812
  0
ELLIPSE
  5
11A
330
1F
100
AcDbEntity
  8
1
100
AcDbEllipse
 10
305.528777
 20
304.647443
 30
0.0
 11
0.0658662705990444
 21
0.0751184704289522
 31
0.0
210
0.0
220
0.0
230
1.0
 40
0.9000889999999998
 41
4.437502183050754
 42
5.810036111060009
  0
ELLIPSE
  5
11B
330
1F
100
AcDbEntity
  8
1
100
AcDbEllipse
 10
305.62317
 20
304.492544
 30
0.0
 11
0.0658662705990444
 21
0.0751184704289522
 31
0.0
210
0.0
220
0.0
230
1.0
 40
0.9000889999999998
 41
1.295909529461074
 42
2.144844681871858
  0
ELLIPSE
  5
11C
330
1F
100
AcDbEntity
  8
1
100
AcDbEllipse
 10
306.045625
 20
304.451503
 30
0.0
 11
0.3665425743715515
 21
0.4180306139009013
 31
0.0
210
0.0
220
0.0
230
1.0
 40
0.9000889999999998
 41
2.144844681871876
 42
3.064968255041714
  0
ELLIPSE
  5
11D
330
1F
100
AcDbEntity
  8
1
100
AcDbEllipse
 10
305.722204
 20
304.130314
 30
0.0
 11
0.0658662705990444
 21
0.0751184704289522
 31
0.0
210
0.0
220
0.0
230
1.0
 40
0.9000889999999998
 41
3.064968255041653
 42
3.913903407452553
  0
ELLIPSE
  5
11E
330
1F
100
AcDbEntity
  8
1
100
AcDbEllipse
 10
305.722204
 20
303.939961
 30
0.0
 11
0.0658662705990445
 21
0.0751184704289523
 31
0.0
210
0.0
220
0.0
230
1.0
 40
0.9000889999999998
 41
5.682962133033255
 42
7.055496061042326
  0
ELLIPSE
  5
11F
330
1F
100
AcDbEntity
  8
1
100
AcDbEllipse
 10
305.299749
 20
303.809849
 30
0.0
 11
0.3665425743715517
 21
0.4180306139009015
 31
0.0
210
0.0
220
0.0
230
1.0
 40
0.9000889999999998
 41
4.762838559863374
 42
5.682962133033231
  0
ELLIPSE
  5
120
330
1F
100
AcDbEntity
  8
1
100
AcDbEllipse
 10
305.62317
 20
303.55685
 30
0.0
 11
0.0658662705990444
 21
0.0751184704289522
 31
0.0
210
0.0
220
0.0
230
1.0
 40
0.9000889999999998
 41
3.390304631854305
 42
4.762838559863398
  0
ELLIPSE
  5
121
330
1F
100
AcDbEntity
  8
1
100
AcDbEllipse
 10
305.528777
 20
303.382049
 30
0.0
 11
0.0658662705990444
 21
0.0751184704289522
 31
0.0
210
0.0
220
0.0
230
1.0
 40
0.9000889999999998
 41
0.2487119782644648
 42
1.097647130675285
  0
ELLIPSE
  5
122
330
1F
100
AcDbEntity
  8
1
100
AcDbEllipse
 10
305.666504
 20
302.984884
 30
0.0
 11
0.3665425743715515
 21
0.4180306139009013
 31
0.0
210
0.0
220
0.0
230
1.0
 40
0.9000889999999998
 41
1.097647130675269
 42
2.017770703845128
  0
ELLIPSE
  5
123
330
1F
100
AcDbEntity
  8
1
100
AcDbEllipse
 10
305.2582109999999
 20
303.080712
 30
0.0
 11
0.0658662705990444
 21
0.0751184704289522
 31
0.0
210
0.0
220
0.0
230
1.0
 40
0.9000889999999998
 41
2.017770703845096
 42
2.866705856255941
  0
ELLIPSE
  5
124
330
1F
100
AcDbEntity
  8
1
100
AcDbEllipse
 10
305.094718
 20
302.9683
 30
0.0
 11
0.0658662705990445
 21
0.0751184704289523
 31
0.0
210
0.0
220
0.0
230
1.0
 40
0.9000889999999998
 41
4.635764581836706
 42
6.008298509845706
  0
ELLIPSE
  5
125
330
1F
100
AcDbEntity
  8
1
100
AcDbEllipse
 10
304.809989
 20
303.264391
 30
0.0
 11
0.3665425743715517
 21
0.4180306139009015
 31
0.0
210
0.0
220
0.0
230
1.0
 40
0.9000889999999998
 41
3.715641008666768
 42
4.635764581836625
  0
ELLIPSE
  5
126
330
1F
100
AcDbEntity
  8
1
100
AcDbEllipse
 10
304.725117
 20
302.82948
 30
0.0
 11
0.0658662705990444
 21
0.0751184704289522
 31
0.0
210
0.0
220
0.0
230
1.0
 40
0.9000889999999998
 41
2.343107080657662
 42
3.715641008666698
  0
ELLIPSE
  5
127
330
1F
100
AcDbEntity
  8
1
100
AcDbEllipse
 10
304.536332
 20
302.809578
 30
0.0
 11
0.0658662705990444
 21
0.0751184704289522
 31
0.0
210
0.0
220
0.0
230
1.0
 40
0.9000889999999998
 41
5.484699734247504
 42
6.333634886658307
  0
ELLIPSE
  5
128
330
1F
100
AcDbEntity
  8
1
100
AcDbEllipse
 10
304.251603
 20
302.453455
 30
0.0
 11
0.3665425743715515
 21
0.4180306139009013
 31
0.0
210
0.0
220
0.0
230
1.0
 40
0.9000889999999998
 41
0.0504495794786659
 42
0.9705731526485369
  0
ELLIPSE
  5
129
330
1F
100
AcDbEntity
  8
1
100
AcDbEllipse
 10
304.166731
 20
302.870471
 30
0.0
 11
0.0658662705990444
 21
0.0751184704289522
 31
0.0
210
0.0
220
0.0
230
1.0
 40
0.9000889999999998
 41
0.970573152648506
 42
1.819508305059363
  0
ELLIPSE
  5
12A
330
1F
100
AcDbEntity
  8
1
100
AcDbEllipse
 10
304.003239
 20
302.948412
 30
0.0
 11
0.0658662705990445
 21
0.0751184704289523
 31
0.0
210
0.0
220
0.0
230
1.0
 40
0.9000889999999998
 41
3.588567030639982
 42
4.961100958649131
  0
ELLIPSE
  5
12B
330
1F
100
AcDbEntity
  8
1
100
AcDbEllipse
 10
304.140965
 20
303.374615
 30
0.0
 11
0.3665425743715517
 21
0.4180306139009015
 31
0.0
210
0.0
220
0.0
230
1.0
 40
0.9000889999999998
 41
2.668443457470179
 42
3.588567030640022
  0
ELLIPSE
  5
12C
330
1F
100
AcDbEntity
  8
1
100
AcDbEllipse
 10
303.732672
 20
303.192703
 30
0.0
 11
0.0658662705990444
 21
0.0751184704289522
 31
0.0
210
0.0
220
0.0
230
1.0
 40
0.9000889999999998
 41
1.295909529461005
 42
2.668443457470214
  0
ELLIPSE
  5
12D
330
1F
100
AcDbEntity
  8
1
100
AcDbEllipse
 10
303.63828
 20
303.347602
 30
0.0
 11
0.0658662705990444
 21
0.0751184704289522
 31
0.0
210
0.0
220
0.0
230
1.0
 40
0.9000889999999998
 41
4.437502183050867
 42
5.286437335461673
  0
ELLIPSE
  5
12E
330
1F
100
AcDbEntity
  8
1
100
AcDbEllipse
 10
303.215824
 20
303.388643
 30
0.0
 11
0.3665425743715515
 21
0.4180306139009013
 31
0.0
210
0.0
220
0.0
230
1.0
 40
0.9000889999999998
 41
5.286437335461673
 42
6.206560908631512
  0
ELLIPSE
  5
12F
330
1F
100
AcDbEntity
  8
1
100
AcDbEllipse
 10
303.539246
 20
303.709832
 30
0.0
 11
0.0658662705990444
 21
0.0751184704289522
 31
0.0
210
0.0
220
0.0
230
1.0
 40
0.9000889999999998
 41
6.206560908631561
 42
7.055496061042375
  0
ELLIPSE
  5
130
330
1F
100
AcDbEntity
  8
1
100
AcDbEllipse
 10
303.539246
 20
303.900185
 30
0.0
 11
0.0658662705990445
 21
0.0751184704289523
 31
0.0
210
0.0
220
0.0
230
1.0
 40
0.9000889999999998
 41
2.54136947944345
 42
3.913903407452528
  0
ELLIPSE
  5
131
330
1F
100
AcDbEntity
  8
1
100
AcDbEllipse
 10
303.961701
 20
304.030297
 30
0.0
 11
0.3665425743715517
 21
0.4180306139009015
 31
0.0
210
0.0
220
0.0
230
1.0
 40
0.9000889999999998
 41
1.62124590627358
 42
2.541369479443424
  0
ELLIPSE
  5
132
330
1F
100
AcDbEntity
  8
1
100
AcDbEllipse
 10
303.63828
 20
304.283296
 30
0.0
 11
0.0658662705990444
 21
0.0751184704289522
 31
0.0
210
0.0
220
0.0
230
1.0
 40
0.9000889999999998
 41
0.248711978264456
 42
1.621245906273603
  0
ELLIPSE
  5
133
330
1F
100
AcDbEntity
  8
1
100
AcDbEllipse
 10
303.732672
 20
304.458097
 30
0.0
 11
0.0658662705990444
 21
0.0751184704289522
 31
0.0
210
0.0
220
0.0
230
1.0
 40
0.9000889999999998
 41
3.390304631854211
 42
4.239239784265047
  0
ELLIPSE
  5
134
330
1F
100
AcDbEntity
  8
1
100
AcDbEllipse
 10
303.594946
 20
304.8552620000001
 30
0.0
 11
0.3665425743715515
 21
0.4180306139009013
 31
0.0
210
0.0
220
0.0
230
1.0
 40
0.9000889999999998
 41
4.239239784265076
 42
5.159363357434927
  0
ELLIPSE
  5
135
330
1F
100
AcDbEntity
  8
1
100
AcDbEllipse
 10
304.003239
 20
304.759434
 30
0.0
 11
0.0658662705990444
 21
0.0751184704289522
 31
0.0
210
0.0
220
0.0
230
1.0
 40
0.9000889999999998
 41
5.159363357434906
 42
6.0082985098458
  0
ELLIPSE
  5
136
330
1F
100
AcDbEntity
  8
1
100
AcDbEllipse
 10
304.166731
 20
304.871846
 30
0.0
 11
0.0658662705990445
 21
0.0751184704289523
 31
0.0
210
0.0
220
0.0
230
1.0
 40
0.9000889999999998
 41
1.494171928246914
 42
2.866705856255923
  0
ELLIPSE
  5
137
330
1F
100
AcDbEntity
  8
1
100
AcDbEllipse
 10
304.45146
 20
304.575755
 30
0.0
 11
0.3665425743715517
 21
0.4180306139009015
 31
0.0
210
0.0
220
0.0
230
1.0
 40
0.9000889999999998
 41
0.5740483550769909
 42
1.494171928246838
  0
ELLIPSE
  5
138
330
1F
100
AcDbEntity
  8
1
100
AcDbEllipse
 10
304.536332
 20
305.010666
 30
0.0
 11
0.0658662705990444
 21
0.0751184704289522
 31
0.0
210
0.0
220
0.0
230
1.0
 40
0.9000889999999998
 41
5.484699734247431
 42
6.857233662256596
  0
ELLIPSE
  5
139
330
1F
100
AcDbEntity
  8
1
100
AcDbEllipse
 10
304.725117
 20
305.030568
 30
0.0
 11
0.0658662705990444
 21
0.0751184704289522
 31
0.0
210
0.0
220
0.0
230
1.0
 40
0.9000889999999998
 41
2.343107080657662
 42
3.192042233068471
  0
ELLIPSE
  5
13A
330
1F
100
AcDbEntity
  8
1
100
AcDbEllipse
 10
305.009846
 20
305.386692
 30
0.0
 11
0.3665425743715515
 21
0.4180306139009013
 31
0.0
210
0.0
220
0.0
230
1.0
 40
0.9000889999999998
 41
3.192042233068459
 42
4.112165806238321
  0
ELLIPSE
  5
13B
330
1F
100
AcDbEntity
  8
1
100
AcDbEllipse
 10
304.630725
 20
303.920073
 30
0.0
 11
-0.9889265519020449
 21
-1.127840536132272
 31
0.0
210
0.0
220
0.0
230
1.0
 40
0.9000889999999998
 41
0.0
 42
6.283185307179585
  0
ELLIPSE
  5
13C
330
1F
100
AcDbEntity
  8
1
100
AcDbEllipse
 10
304.683084
 20
303.874163
 30
0.0
 11
-1.384497172662863
 21
-1.578976750585181
 31
0.0
210
0.0
220
0.0
230
0.9999999999999998
 40
0.9000889999999998
 41
0.0
 42
6.283185307179585
  0
ELLIPSE
  5
13D
330
1F
100
AcDbEntity
  8
1
100
AcDbEllipse
 10
304.95833
 20
303.632818
 30
0.0
 11
1.384497172662864
 21
1.578976750585181
 31
0.0
210
0.0
220
0.0
230
0.9999999999999998
 40
0.9000889999999998
 41
6.027507830805071
 42
6.270097792860112
  0
ELLIPSE
  5
13E
330
1F
100
AcDbEntity
  8
1
100
AcDbEllipse
 10
304.95833
 20
303.632818
 30
0.0
 11
1.384497172662864
 21
1.578976750585181
 31
0.0
210
0.0
220
0.0
230
0.9999999999999998
 40
0.9000889999999998
 41
3.141562244121837
 42
3.397209488311982
  0
ELLIPSE
  5
13F
330
1F
100
AcDbEntity
  8
1
100
AcDbEllipse
 10
304.95833
 20
303.632818
 30
0.0
 11
1.384497172662864
 21
1.578976750585181
 31
0.0
210
0.0
220
0.0
230
0.9999999999999998
 40
0.9000889999999998
 41
6.270097792860112
 42
6.283185307179585
  0
SPLINE
  5
142
330
1F
100
AcDbEntity
  8
1
100
AcDbSpline
210
0.0
220
0.0
230
1.0
 70
     8
 71
     3
 72
     8
 73
     4
 74
     0
 42
0.000000001
 43
0.0000000001
 40
0.0
 40
0.0
 40
0.0
 40
0.0
 40
1.0
 40
1.0
 40
1.0
 40
1.0
 10
309.8150419452959
 20
302.5950574272478
 30
0.0
 10
309.8114215928035
 20
302.5912199744791
 30
0.0
 10
309.8078015496772
 20
302.5873822737394
 30
0.0
 10
309.8041818172403
 20
302.5835443239676
 30
0.0
  0
SPLINE
  5
143
330
1F
100
AcDbEntity
  8
1
100
AcDbSpline
210
0.0
220
0.0
230
1.0
 70
     8
 71
     3
 72
    10
 73
     6
 74
     0
 42
0.000000001
 43
0.0000000001
 40
0.0
 40
0.0
 40
0.0
 40
0.0
 40
0.3992191485586649
 40
0.3992191485586649
 40
1.0
 40
1.0
 40
1.0
 40
1.0
 10
307.0960253806479
 20
299.5462865331987
 30
0.0
 10
307.005434596627
 20
299.4361126205781
 30
0.0
 10
306.9155150927542
 20
299.3254006460093
 30
0.0
 10
306.6921963169475
 20
299.0465406321847
 30
0.0
 10
306.559763673174
 20
298.8776177959493
 30
0.0
 10
306.4294959956384
 20
298.7069596395866
 30
0.0
  0
SPLINE
  5
144
330
1F
100
AcDbEntity
  8
1
100
AcDbSpline
210
0.0
220
0.0
230
1.0
 70
     8
 71
     3
 72
    33
 73
    29
 74
     0
 42
0.000000001
 43
0.0000000001
 40
0.0
 40
0.0
 40
0.0
 40
0.0
 40
0.0817687341015554
 40
0.1735918606913977
 40
0.1735918606913977
 40
0.2195034239863185
 40
0.2195034239863185
 40
0.2654149872812389
 40
0.2654149872812389
 40
0.3572381138710812
 40
0.4490612404609234
 40
0.4490612404609234
 40
0.4949728037558449
 40
0.4949728037558449
 40
0.5408843670507667
 40
0.5408843670507667
 40
0.6327074936406141
 40
0.6327074936406141
 40
0.6786190569355382
 40
0.6786190569355382
 40
0.7245306202304619
 40
0.7245306202304619
 40
0.8163537468203079
 40
0.9081768734101542
 40
0.9081768734101542
 40
0.9540884367050772
 40
0.9540884367050772
 40
1.0
 40
1.0
 40
1.0
 40
1.0
 10
305.9962147851419
 20
297.5763070941939
 30
0.0
 10
306.0199006691604
 20
297.6027318995136
 30
0.0
 10
306.0684182856349
 20
297.66103045258
 30
0.0
 10
306.1134585734459
 20
297.7237509347092
 30
0.0
 10
306.1477974776395
 20
297.7753418171926
 30
0.0
 10
306.1590460596156
 20
297.7929034925808
 30
0.0
 10
306.1808732654658
 20
297.8283053758345
 30
0.0
 10
306.1914479524046
 20
297.8461332782243
 30
0.0
 10
306.2221997424773
 20
297.8999776222279
 30
0.0
 10
306.2606173381034
 20
297.9727286979168
 30
0.0
 10
306.2941323520931
 20
298.0472615925094
 30
0.0
 10
306.3174378007269
 20
298.103813349406
 30
0.0
 10
306.3248554679967
 20
298.1226679440538
 30
0.0
 10
306.3389191373478
 20
298.1601434616767
 30
0.0
 10
306.3455805802661
 20
298.1788017039921
 30
0.0
 10
306.3644827483109
 20
298.2345341887909
 30
0.0
 10
306.3756457292346
 20
298.2713668750882
 30
0.0
 10
306.3902651316433
 20
298.3261058747678
 30
0.0
 10
306.3947829763302
 20
298.3442670376119
 30
0.0
 10
306.4030999095368
 20
298.3804123812623
 30
0.0
 10
306.4069096341437
 20
298.3984542390697
 30
0.0
 10
306.4171501544052
 20
298.4518512123048
 30
0.0
 10
306.4276159319862
 20
298.5208460005159
 30
0.0
 10
306.431922043508
 20
298.5855260406111
 30
0.0
 10
306.4328057066466
 20
298.6323857428238
 30
0.0
 10
306.4327080829778
 20
298.647729922677
 30
0.0
 10
306.4317072116089
 20
298.6778528589512
 30
0.0
 10
306.4307989163489
 20
298.6926522708921
 30
0.0
 10
306.4294959956384
 20
298.7069596395866
 30
0.0
  0
SPLINE
  5
145
330
1F
100
AcDbEntity
  8
1
100
AcDbSpline
210
0.0
220
0.0
230
1.0
 70
     8
 71
     3
 72
    12
 73
     8
 74
     0
 42
0.000000001
 43
0.0000000001
 40
0.0
 40
0.0
 40
0.0
 40
0.0
 40
0.4058442060940341
 40
0.4058442060940341
 40
0.8116884121880678
 40
0.8116884121880678
 40
1.0
 40
1.0
 40
1.0
 40
1.0
 10
309.815041945296
 20
296.5832202410386
 30
0.0
 10
309.6364593498473
 20
296.3987078543227
 30
0.0
 10
309.4549022634139
 20
296.2130975777078
 30
0.0
 10
309.0867509195901
 20
295.8400177957425
 30
0.0
 10
308.9001549427597
 20
295.6525476557437
 30
0.0
 10
308.6238235450019
 20
295.3769269323287
 30
0.0
 10
308.535781812303
 20
295.2894014922422
 30
0.0
 10
308.4473056616052
 20
295.2017157077017
 30
0.0
  0
SPLINE
  5
146
330
1F
100
AcDbEntity
  8
1
100
AcDbSpline
210
0.0
220
0.0
230
1.0
 70
     8
 71
     3
 72
    12
 73
     8
 74
     0
 42
0.000000001
 43
0.0000000001
 40
0.0
 40
0.0
 40
0.0
 40
0.0
 40
0.1581383992486425
 40
0.1581383992486425
 40
0.5790691996243213
 40
0.5790691996243213
 40
1.0
 40
1.0
 40
1.0
 40
1.0
 10
307.7141801288419
 20
295.9208680376755
 30
0.0
 10
307.8241269116201
 20
295.9731146448575
 30
0.0
 10
307.9342304944951
 20
296.0255424727328
 30
0.0
 10
308.3379110603707
 20
296.218105281306
 30
0.0
 10
308.6323307910537
 20
296.359214262165
 30
0.0
 10
309.222653600119
 20
296.6431465933544
 30
0.0
 10
309.5185589250021
 20
296.7859725400635
 30
0.0
 10
309.8150419452959
 20
296.9294661544921
 30
0.0
  0
SPLINE
  5
147
330
1F
100
AcDbEntity
  8
1
100
AcDbSpline
210
0.0
220
0.0
230
1.0
 70
     8
 71
     3
 72
    42
 73
    38
 74
     0
 42
0.000000001
 43
0.0000000001
 40
0.0
 40
0.0
 40
0.0
 40
0.0
 40
0.098849124506096
 40
0.098849124506096
 40
0.1569785104070329
 40
0.1569785104070329
 40
0.1860432033574998
 40
0.1860432033574998
 40
0.2151078963079667
 40
0.2151078963079667
 40
0.3313666681098336
 40
0.3313666681098336
 40
0.3894960540107688
 40
0.3894960540107688
 40
0.4185607469612358
 40
0.4185607469612358
 40
0.4476254399117029
 40
0.4476254399117029
 40
0.5638842117135779
 40
0.5638842117135779
 40
0.5929489046640474
 40
0.5929489046640474
 40
0.6220135976145171
 40
0.6220135976145171
 40
0.6801429835154581
 40
0.6801429835154581
 40
0.7964017553173385
 40
0.7964017553173385
 40
0.8254664482678085
 40
0.8254664482678085
 40
0.8545311412182787
 40
0.8545311412182787
 40
0.9126605271192184
 40
0.9126605271192184
 40
0.970789913020158
 40
0.970789913020158
 40
1.0
 40
1.0
 40
1.0
 40
1.0
 10
299.571469526058
 20
304.6345654030877
 30
0.0
 10
299.4837655624296
 20
304.6269316242022
 30
0.0
 10
299.3972417428612
 20
304.6125653344006
 30
0.0
 10
299.2614733734105
 20
304.5797588316574
 30
0.0
 10
299.2115570235019
 20
304.5654206619473
 30
0.0
 10
299.1371948440392
 20
304.5406440204112
 30
0.0
 10
299.112492965454
 20
304.5318394485875
 30
0.0
 10
299.0632573925797
 20
304.513131583479
 30
0.0
 10
299.0388059987769
 20
304.5032569965417
 30
0.0
 10
298.9181709301833
 20
304.4516819658355
 30
0.0
 10
298.8260146471848
 20
304.4031354414843
 30
0.0
 10
298.6938500281188
 20
304.3202740807918
 30
0.0
 10
298.6508137060867
 20
304.2909681602353
 30
0.0
 10
298.5877919731357
 20
304.244486280045
 30
0.0
 10
298.5670426953709
 20
304.2285683878195
 30
0.0
 10
298.5264793418889
 20
304.1962314819198
 30
0.0
 10
298.5066095485109
 20
304.1797724179104
 30
0.0
 10
298.4092715503459
 20
304.096071913425
 30
0.0
 10
298.3377779858697
 20
304.0246640294825
 30
0.0
 10
298.2562025108371
 20
303.9301054111268
 30
0.0
 10
298.2402806464966
 20
303.9109256795394
 30
0.0
 10
298.2092340619253
 20
303.8720240535735
 30
0.0
 10
298.1940772541379
 20
303.85225607654
 30
0.0
 10
298.1502242379143
 20
303.792673511096
 30
0.0
 10
298.1230419504266
 20
303.7524724565994
 30
0.0
 10
298.0475100622043
 20
303.6304410586932
 30
0.0
 10
298.0051004141384
 20
303.5472142952493
 30
0.0
 10
297.9626029066334
 20
303.4404363942111
 30
0.0
 10
297.954625632673
 20
303.4189130174458
 30
0.0
 10
297.9398168512219
 20
303.3756858241968
 30
0.0
 10
297.9330257921162
 20
303.3541045445482
 30
0.0
 10
297.9144868354014
 20
303.2894364998667
 30
0.0
 10
297.90456711387
 20
303.2464261867294
 30
0.0
 10
297.8897191824854
 20
303.1604833569935
 30
0.0
 10
297.8847898425278
 20
303.1175512418208
 30
0.0
 10
297.8813724332423
 20
303.0529908740177
 30
0.0
 10
297.8808991948156
 20
303.0313900517058
 30
0.0
 10
297.8811327328634
 20
303.0097679490038
 30
0.0
  0
SPLINE
  5
148
330
1F
100
AcDbEntity
  8
1
100
AcDbSpline
210
0.0
220
0.0
230
1.0
 70
     8
 71
     3
 72
     8
 73
     4
 74
     0
 42
0.000000001
 43
0.0000000001
 40
0.0
 40
0.0
 40
0.0
 40
0.0
 40
1.0
 40
1.0
 40
1.0
 40
1.0
 10
305.239886144681
 20
281.9005246799644
 30
0.0
 10
305.2561786247466
 20
281.7713577862361
 30
0.0
 10
305.2666162905178
 20
281.6478839678798
 30
0.0
 10
305.2711574464274
 20
281.530143768625
 30
0.0
  0
SPLINE
  5
149
330
1F
100
AcDbEntity
  8
1
100
AcDbSpline
210
0.0
220
0.0
230
1.0
 70
     8
 71
     3
 72
     8
 73
     4
 74
     0
 42
0.000000001
 43
0.0000000001
 40
0.0
 40
0.0
 40
0.0
 40
0.0
 40
1.0
 40
1.0
 40
1.0
 40
1.0
 10
305.2711574464274
 20
281.530143768625
 30
0.0
 10
305.2263222917306
 20
281.4442017548259
 30
0.0
 10
305.1807801767013
 20
281.3587662410418
 30
0.0
 10
305.1345527778317
 20
281.2738216972028
 30
0.0
  0
SPLINE
  5
14A
330
1F
100
AcDbEntity
  8
1
100
AcDbSpline
210
0.0
220
0.0
230
1.0
 70
     8
 71
     3
 72
    15
 73
    11
 74
     0
 42
0.000000001
 43
0.0000000001
 40
0.0
 40
0.0
 40
0.0
 40
0.0
 40
0.2499999999999989
 40
0.4999999999999978
 40
0.4999999999999978
 40
0.6249999999999995
 40
0.6249999999999995
 40
0.7500000000000011
 40
0.7500000000000011
 40
1.0
 40
1.0
 40
1.0
 40
1.0
 10
305.1345527778317
 20
282.0201416521975
 30
0.0
 10
305.1362178243122
 20
282.0011300396533
 30
0.0
 10
305.1431244664596
 20
281.9675857533768
 30
0.0
 10
305.1570697236108
 20
281.942807399849
 30
0.0
 10
305.1702669462866
 20
281.9276009924388
 30
0.0
 10
305.1751238701543
 20
281.9230967569226
 30
0.0
 10
305.185789597835
 20
281.9152547563572
 30
0.0
 10
305.1915833774947
 20
281.9119350494406
 30
0.0
 10
305.2101556677135
 20
281.903874357164
 30
0.0
 10
305.2241867410052
 20
281.9009713024984
 30
0.0
 10
305.239886144681
 20
281.9005246799643
 30
0.0
  0
SPLINE
  5
14B
330
1F
100
AcDbEntity
  8
1
100
AcDbSpline
210
0.0
220
0.0
230
1.0
 70
     8
 71
     3
 72
     8
 73
     4
 74
     0
 42
0.000000001
 43
0.0000000001
 40
0.0
 40
0.0
 40
0.0
 40
0.0
 40
1.0
 40
1.0
 40
1.0
 40
1.0
 10
293.8632224490377
 20
308.351892199226
 30
0.0
 10
293.9914966865526
 20
308.4389085330039
 30
0.0
 10
294.1198752833495
 20
308.5257629604008
 30
0.0
 10
294.2483533267035
 20
308.6124631031779
 30
0.0
  0
SPLINE
  5
14C
330
1F
100
AcDbEntity
  8
1
100
AcDbSpline
210
0.0
220
0.0
230
1.0
 70
     8
 71
     3
 72
    59
 73
    55
 74
     0
 42
0.000000001
 43
0.0000000001
 40
0.0
 40
0.0
 40
0.0
 40
0.0
 40
0.0624999999999991
 40
0.0624999999999991
 40
0.1249999999999983
 40
0.1249999999999983
 40
0.140624999999998
 40
0.1484374999999979
 40
0.1484374999999979
 40
0.1562499999999979
 40
0.1562499999999979
 40
0.1874999999999984
 40
0.1874999999999984
 40
0.2499999999999997
 40
0.2499999999999997
 40
0.2812500000000003
 40
0.2812500000000003
 40
0.2968750000000009
 40
0.2968750000000009
 40
0.3125000000000016
 40
0.3125000000000016
 40
0.3750000000000041
 40
0.3750000000000041
 40
0.4062500000000056
 40
0.4062500000000056
 40
0.4218750000000058
 40
0.4218750000000058
 40
0.4375000000000062
 40
0.4375000000000062
 40
0.5000000000000047
 40
0.5000000000000047
 40
0.5625000000000034
 40
0.5625000000000034
 40
0.5937500000000027
 40
0.5937500000000027
 40
0.6093750000000023
 40
0.6093750000000023
 40
0.6250000000000022
 40
0.6250000000000022
 40
0.6875000000000019
 40
0.6875000000000019
 40
0.7500000000000018
 40
0.7500000000000018
 40
0.7812500000000019
 40
0.7812500000000019
 40
0.7968750000000022
 40
0.7968750000000022
 40
0.8125000000000021
 40
0.8125000000000021
 40
0.8750000000000014
 40
0.8750000000000014
 40
0.9375000000000007
 40
0.9375000000000007
 40
1.0
 40
1.0
 40
1.0
 40
1.0
 10
288.1635790592717
 20
284.0154786845639
 30
0.0
 10
288.1371732417711
 20
284.0459315173141
 30
0.0
 10
288.1245754770887
 20
284.0732889626389
 30
0.0
 10
288.1276076326176
 20
284.1213980656628
 30
0.0
 10
288.1432329691003
 20
284.142152964387
 30
0.0
 10
288.1812026533229
 20
284.163354789191
 30
0.0
 10
288.1939792155573
 20
284.1693573616277
 30
0.0
 10
288.2088658893471
 20
284.1747981366342
 30
0.0
 10
288.2192632046895
 20
284.1782973651289
 30
0.0
 10
288.2247054347282
 20
284.1799849224519
 30
0.0
 10
288.2529930196454
 20
284.1880630843983
 30
0.0
 10
288.2790782575004
 20
284.1933873487088
 30
0.0
 10
288.367192956978
 20
284.2058948624794
 30
0.0
 10
288.4390521597913
 20
284.2096278128478
 30
0.0
 10
288.5650708741675
 20
284.2078337434111
 30
0.0
 10
288.6101229924891
 20
284.2059996957114
 30
0.0
 10
288.6821546708787
 20
284.2012993420673
 30
0.0
 10
288.7069541916015
 20
284.1994030026475
 30
0.0
 10
288.7577293597548
 20
284.1949685141726
 30
0.0
 10
288.7837104192795
 20
284.1924312294275
 30
0.0
 10
288.9164660846435
 20
284.178144318351
 30
0.0
 10
289.0317482236313
 20
284.1616094554967
 30
0.0
 10
289.2166095005192
 20
284.1289385190998
 30
0.0
 10
289.280228293712
 20
284.1167335519439
 30
0.0
 10
289.378513050018
 20
284.0964001792983
 30
0.0
 10
289.411751159122
 20
284.0892845493758
 30
0.0
 10
289.4791618484447
 20
284.074366382013
 30
0.0
 10
289.5133802776143
 20
284.0665527404275
 30
0.0
 10
289.6859737673249
 20
284.0259259327561
 30
0.0
 10
289.8290725123469
 20
283.9884059934747
 30
0.0
 10
290.1239337001527
 20
283.9032665365999
 30
0.0
 10
290.2757028132754
 20
283.8556456475109
 30
0.0
 10
290.5092804615992
 20
283.7763745050245
 30
0.0
 10
290.5881310937159
 20
283.7486420476117
 30
0.0
 10
290.7078549666462
 20
283.7050280988045
 30
0.0
 10
290.747963488453
 20
283.6901684067809
 30
0.0
 10
290.8282755108633
 20
283.6599158591713
 30
0.0
 10
290.8685218061988
 20
283.6445074976893
 30
0.0
 10
291.0701856599736
 20
283.5660593510715
 30
0.0
 10
291.2328910339426
 20
283.4988073763267
 30
0.0
 10
291.5607225194835
 20
283.3553074635963
 30
0.0
 10
291.7258500957164
 20
283.2790591786056
 30
0.0
 10
291.9752700446717
 20
283.1578082949789
 30
0.0
 10
292.0586996116942
 20
283.1162436719038
 30
0.0
 10
292.1842801519544
 20
283.0521471680913
 30
0.0
 10
292.2262440400979
 20
283.030473802407
 30
0.0
 10
292.3101819601089
 20
282.9866095801138
 30
0.0
 10
292.352063703764
 20
282.9644673567564
 30
0.0
 10
292.5610420071519
 20
282.8527186310392
 30
0.0
 10
292.7268475008436
 20
282.7600025073431
 30
0.0
 10
293.0558458175642
 20
282.5682130915001
 30
0.0
 10
293.2190384987314
 20
282.46913933298
 30
0.0
 10
293.5429503814178
 20
282.2648379946551
 30
0.0
 10
293.7036694248235
 20
282.1596102896478
 30
0.0
 10
293.8632224490377
 20
282.0513756239872
 30
0.0
  0
SPLINE
  5
14D
330
1F
100
AcDbEntity
  8
1
100
AcDbSpline
210
0.0
220
0.0
230
1.0
 70
     8
 71
     3
 72
     8
 73
     4
 74
     0
 42
0.000000001
 43
0.0000000001
 40
0.0
 40
0.0
 40
0.0
 40
0.0
 40
1.0
 40
1.0
 40
1.0
 40
1.0
 10
293.8632224490377
 20
282.0513756239872
 30
0.0
 10
293.9914966865599
 20
281.9643592902045
 30
0.0
 10
294.1198752833638
 20
281.8775048628027
 30
0.0
 10
294.248353326725
 20
281.7908047200209
 30
0.0
  0
SPLINE
  5
14E
330
1F
100
AcDbEntity
  8
1
100
AcDbSpline
210
0.0
220
0.0
230
1.0
 70
     8
 71
     3
 72
    30
 73
    26
 74
     0
 42
0.000000001
 43
0.0000000001
 40
0.0
 40
0.0
 40
0.0
 40
0.0
 40
0.0779767589447796
 40
0.0779767589447796
 40
0.1438355618772968
 40
0.1438355618772968
 40
0.1767649633435552
 40
0.1767649633435552
 40
0.2096943648098139
 40
0.2096943648098139
 40
0.3414119706748466
 40
0.3414119706748466
 40
0.4731295765398793
 40
0.4731295765398793
 40
0.538988379472396
 40
0.538988379472396
 40
0.5719177809386541
 40
0.5719177809386541
 40
0.604847182404912
 40
0.604847182404912
 40
0.7365647882699414
 40
0.7365647882699414
 40
0.8682823941349708
 40
0.8682823941349708
 40
1.0
 40
1.0
 40
1.0
 40
1.0
 10
290.1590985605839
 20
306.5120713940583
 30
0.0
 10
290.2484348643307
 20
306.5397300108803
 30
0.0
 10
290.3392360089588
 20
306.5691839520273
 30
0.0
 10
290.5092804615992
 20
306.6268933181887
 30
0.0
 10
290.5881310937159
 20
306.6546257756016
 30
0.0
 10
290.7078549666462
 20
306.6982397244087
 30
0.0
 10
290.747963488453
 20
306.7130994164323
 30
0.0
 10
290.8282755108632
 20
306.7433519640418
 30
0.0
 10
290.8685218061988
 20
306.7587603255238
 30
0.0
 10
291.0701856599736
 20
306.8372084721418
 30
0.0
 10
291.2328910339426
 20
306.9044604468865
 30
0.0
 10
291.5607225194833
 20
307.0479603596169
 30
0.0
 10
291.7258500957164
 20
307.1242086446077
 30
0.0
 10
291.9752700446717
 20
307.2454595282342
 30
0.0
 10
292.0586996116942
 20
307.2870241513094
 30
0.0
 10
292.1842801519544
 20
307.3511206551219
 30
0.0
 10
292.2262440400979
 20
307.3727940208062
 30
0.0
 10
292.3101819601089
 20
307.4166582430994
 30
0.0
 10
292.352063703764
 20
307.4388004664569
 30
0.0
 10
292.5610420071518
 20
307.550549192174
 30
0.0
 10
292.7268475008436
 20
307.6432653158702
 30
0.0
 10
293.0558458175642
 20
307.8350547317132
 30
0.0
 10
293.2190384987314
 20
307.9341284902333
 30
0.0
 10
293.5429503814178
 20
308.1384298285582
 30
0.0
 10
293.7036694248235
 20
308.2436575335655
 30
0.0
 10
293.8632224490377
 20
308.351892199226
 30
0.0
  0
SPLINE
  5
14F
330
1F
100
AcDbEntity
  8
1
100
AcDbSpline
210
0.0
220
0.0
230
1.0
 70
     8
 71
     3
 72
    62
 73
    58
 74
     0
 42
0.000000001
 43
0.0000000001
 40
0.0
 40
0.0
 40
0.0
 40
0.0
 40
0.0624999999999988
 40
0.0624999999999988
 40
0.0937499999999969
 40
0.0937499999999969
 40
0.109374999999996
 40
0.109374999999996
 40
0.1249999999999951
 40
0.1249999999999951
 40
0.1874999999999922
 40
0.1874999999999922
 40
0.2187499999999922
 40
0.2187499999999922
 40
0.2499999999999922
 40
0.2499999999999922
 40
0.3124999999999884
 40
0.3124999999999884
 40
0.343749999999987
 40
0.343749999999987
 40
0.359374999999986
 40
0.359374999999986
 40
0.3749999999999849
 40
0.3749999999999849
 40
0.4374999999999673
 40
0.4374999999999673
 40
0.468749999999961
 40
0.468749999999961
 40
0.4999999999999546
 40
0.4999999999999546
 40
0.562499999999948
 40
0.562499999999948
 40
0.5781249999999499
 40
0.5781249999999499
 40
0.5937499999999523
 40
0.5937499999999523
 40
0.6249999999999537
 40
0.6249999999999537
 40
0.6874999999999564
 40
0.6874999999999564
 40
0.703124999999957
 40
0.703124999999957
 40
0.7187499999999576
 40
0.7499999999999635
 40
0.7499999999999635
 40
0.8124999999999714
 40
0.8124999999999714
 40
0.8281249999999744
 40
0.8281249999999744
 40
0.8437499999999776
 40
0.8749999999999822
 40
0.8749999999999822
 40
0.9374999999999914
 40
0.9374999999999914
 40
0.9687499999999955
 40
0.9687499999999955
 40
1.0
 40
1.0
 40
1.0
 40
1.0
 10
306.4254390473195
 20
283.5211540346639
 30
0.0
 10
306.4110741811458
 20
283.5330335335338
 30
0.0
 10
306.393821654742
 20
283.5414282567263
 30
0.0
 10
306.3635625227342
 20
283.5486079014298
 30
0.0
 10
306.3527425314418
 20
283.5500943588816
 30
0.0
 10
306.3353700668683
 20
283.5508927427355
 30
0.0
 10
306.32937857932
 20
283.5509185319508
 30
0.0
 10
306.3171261211727
 20
283.550484116337
 30
0.0
 10
306.3108530943707
 20
283.5500252340663
 30
0.0
 10
306.2787636665716
 20
283.5465283950054
 30
0.0
 10
306.2507902193214
 20
283.5399097500466
 30
0.0
 10
306.2053717972583
 20
283.5240458828881
 30
0.0
 10
306.1896528868343
 20
283.5177634832983
 30
0.0
 10
306.15701466939
 20
283.5031061239282
 30
0.0
 10
306.1400287297803
 20
283.4946880578637
 30
0.0
 10
306.0883137133997
 20
283.4667216013524
 30
0.0
 10
306.0525407421675
 20
283.4443709964812
 30
0.0
 10
305.9969784085242
 20
283.4051986151397
 30
0.0
 10
305.9781385355556
 20
283.3911952499075
 30
0.0
 10
305.9493866908837
 20
283.368713113521
 30
0.0
 10
305.9396967144117
 20
283.3609528155976
 30
0.0
 10
305.9202653788781
 20
283.3450211793323
 30
0.0
 10
305.9105496129245
 20
283.336871846952
 30
0.0
 10
305.8619714243954
 20
283.2952229593103
 30
0.0
 10
305.8231124220672
 20
283.2590355117694
 30
0.0
 10
305.7648321641315
 20
283.2005121661969
 30
0.0
 10
305.7454064938657
 20
283.1802937002649
 30
0.0
 10
305.7065542414244
 20
283.1383999084843
 30
0.0
 10
305.6873842388661
 20
283.1169993679448
 30
0.0
 10
305.6308427007035
 20
283.0517661937611
 30
0.0
 10
305.5943255928224
 20
283.006792300946
 30
0.0
 10
305.5500761227565
 20
282.9487937659304
 30
0.0
 10
305.5412965141448
 20
282.9371044139323
 30
0.0
 10
305.5238777431929
 20
282.9135459663122
 30
0.0
 10
305.5152578865982
 20
282.9017021270291
 30
0.0
 10
305.4898407961053
 20
282.8662313145814
 30
0.0
 10
305.4734128171971
 20
282.8425675269103
 30
0.0
 10
305.4256002550097
 20
282.7715407098296
 30
0.0
 10
305.3956771014172
 20
282.7241422773521
 30
0.0
 10
305.3606177819962
 20
282.6648796359728
 30
0.0
 10
305.3537109668025
 20
282.6530031363529
 30
0.0
 10
305.3402368249204
 20
282.6294312961927
 30
0.0
 10
305.3205091577378
 20
282.5943037980289
 30
0.0
 10
305.3021886170216
 20
282.5598543078535
 30
0.0
 10
305.2673505971554
 20
282.4918440729654
 30
0.0
 10
305.246516827663
 20
282.4476830164897
 30
0.0
 10
305.2234228987473
 20
282.3939967565275
 30
0.0
 10
305.2189481988742
 20
282.3833239937681
 30
0.0
 10
305.2103663351029
 20
282.3623040401678
 30
0.0
 10
305.1980180946244
 20
282.3312015282673
 30
0.0
 10
305.1872074056643
 20
282.3013591480968
 30
0.0
 10
305.167583752418
 20
282.2433281657706
 30
0.0
 10
305.1571508857362
 20
282.206835132151
 30
0.0
 10
305.1455278768155
 20
282.1554783025348
 30
0.0
 10
305.1423276342808
 20
282.1389025679077
 30
0.0
 10
305.137372006096
 20
282.1072815013892
 30
0.0
 10
305.1356042462842
 20
282.0921899842094
 30
0.0
 10
305.1345527778317
 20
282.0778249410884
 30
0.0
  0
SPLINE
  5
150
330
1F
100
AcDbEntity
  8
1
100
AcDbSpline
210
0.0
220
0.0
230
1.0
 70
     8
 71
     3
 72
    10
 73
     6
 74
     0
 42
0.000000001
 43
0.0000000001
 40
0.0
 40
0.0
 40
0.0
 40
0.0
 40
0.5
 40
0.5
 40
1.0
 40
1.0
 40
1.0
 40
1.0
 10
306.4254390473192
 20
283.5211540346641
 30
0.0
 10
306.9913054707188
 20
284.0330496505466
 30
0.0
 10
307.5568414252974
 20
284.5453118053828
 30
0.0
 10
308.6868798849963
 20
285.5709823638362
 30
0.0
 10
309.2513911556583
 20
286.0843810451671
 30
0.0
 10
309.8150419452959
 20
286.5987341276224
 30
0.0
  0
SPLINE
  5
151
330
1F
100
AcDbEntity
  8
1
100
AcDbSpline
210
0.0
220
0.0
230
1.0
 70
     8
 71
     3
 72
     8
 73
     4
 74
     0
 42
0.000000001
 43
0.0000000001
 40
0.0
 40
0.0
 40
0.0
 40
0.0
 40
1.0
 40
1.0
 40
1.0
 40
1.0
 10
308.6424028364662
 20
288.9027330977462
 30
0.0
 10
309.0355709845941
 20
289.2818856698308
 30
0.0
 10
309.426830790812
 20
289.6630641847286
 30
0.0
 10
309.8150419452959
 20
290.0474792234576
 30
0.0
  0
SPLINE
  5
152
330
1F
100
AcDbEntity
  8
1
100
AcDbSpline
210
0.0
220
0.0
230
1.0
 70
     8
 71
     3
 72
    54
 73
    50
 74
     0
 42
0.000000001
 43
0.0000000001
 40
0.0
 40
0.0
 40
0.0
 40
0.0
 40
0.0624999999999818
 40
0.0624999999999818
 40
0.0937499999999719
 40
0.0937499999999719
 40
0.1249999999999619
 40
0.1249999999999619
 40
0.1874999999999457
 40
0.1874999999999457
 40
0.2187499999999384
 40
0.2187499999999384
 40
0.2343749999999327
 40
0.2343749999999327
 40
0.2499999999999269
 40
0.2499999999999269
 40
0.3124999999999112
 40
0.3124999999999112
 40
0.3749999999998955
 40
0.3749999999998955
 40
0.3906249999998928
 40
0.3906249999998928
 40
0.4062499999998901
 40
0.4062499999998901
 40
0.4374999999998833
 40
0.4374999999998833
 40
0.4999999999998747
 40
0.4999999999998747
 40
0.5156249999998756
 40
0.5156249999998756
 40
0.5312499999998765
 40
0.5624999999998829
 40
0.5937499999998894
 40
0.5937499999998894
 40
0.6249999999998958
 40
0.6249999999998958
 40
0.6874999999999135
 40
0.6874999999999135
 40
0.7499999999999308
 40
0.7499999999999308
 40
0.8124999999999486
 40
0.8124999999999486
 40
0.874999999999966
 40
0.874999999999966
 40
0.9374999999999838
 40
0.9374999999999838
 40
0.968749999999992
 40
0.968749999999992
 40
1.0
 40
1.0
 40
1.0
 40
1.0
 10
307.2136816934025
 20
287.5397262534236
 30
0.0
 10
307.2400207063745
 20
287.5234025314671
 30
0.0
 10
307.2673220401378
 20
287.5088300340503
 30
0.0
 10
307.3100027832155
 20
287.4899886089218
 30
0.0
 10
307.324537522964
 20
287.4842062240857
 30
0.0
 10
307.3541684190214
 20
287.4737697315449
 30
0.0
 10
307.3692056220042
 20
287.4691349847536
 30
0.0
 10
307.4150402314614
 20
287.4570845596537
 30
0.0
 10
307.4465553374644
 20
287.4515111355917
 30
0.0
 10
307.4955754488279
 20
287.4474260791902
 30
0.0
 10
307.5122079099862
 20
287.4467794851655
 30
0.0
 10
307.5376479308875
 20
287.4469859216725
 30
0.0
 10
307.5462099417994
 20
287.4472510411046
 30
0.0
 10
307.563508360274
 20
287.4481946881307
 30
0.0
 10
307.572259742112
 20
287.448874933672
 30
0.0
 10
307.6162649026997
 20
287.4533446029947
 30
0.0
 10
307.6522264301969
 20
287.4603054440655
 30
0.0
 10
307.7259704959737
 20
287.4819357600074
 30
0.0
 10
307.7637508654802
 20
287.4965953132702
 30
0.0
 10
307.812383889282
 20
287.5206740675291
 30
0.0
 10
307.8221812903506
 20
287.5257794231666
 30
0.0
 10
307.8419263910718
 20
287.5366017023121
 30
0.0
 10
307.8519017534987
 20
287.5423355364409
 30
0.0
 10
307.8818578432301
 20
287.5603816866136
 30
0.0
 10
307.9017807946552
 20
287.5734783950284
 30
0.0
 10
307.9614068208696
 20
287.6160187740299
 30
0.0
 10
308.0009694611366
 20
287.6487006413549
 30
0.0
 10
308.050156677089
 20
287.6952952406796
 30
0.0
 10
308.059996453002
 20
287.7049198465119
 30
0.0
 10
308.0794257092656
 20
287.7245273304266
 30
0.0
 10
308.1082719793547
 20
287.754546999867
 30
0.0
 10
308.1548978350353
 20
287.8075343962089
 30
0.0
 10
308.1907052482979
 20
287.8529310508574
 30
0.0
 10
308.2257823271188
 20
287.8997779886205
 30
0.0
 10
308.2430249354993
 20
287.9240360330537
 30
0.0
 10
308.29282466764
 20
287.9976442275319
 30
0.0
 10
308.3236838090006
 20
288.0480679232066
 30
0.0
 10
308.3814199722167
 20
288.151214300477
 30
0.0
 10
308.4083107323754
 20
288.2039810670991
 30
0.0
 10
308.4584144898183
 20
288.3114262224458
 30
0.0
 10
308.4811829027091
 20
288.3651334098349
 30
0.0
 10
308.5228756803708
 20
288.4725894594159
 30
0.0
 10
308.5417945532887
 20
288.5263379738066
 30
0.0
 10
308.5762057486077
 20
288.6339295614813
 30
0.0
 10
308.5916954447011
 20
288.6877724561921
 30
0.0
 10
308.6125444998137
 20
288.7686391941106
 30
0.0
 10
308.619106676992
 20
288.7956638685021
 30
0.0
 10
308.6313760929837
 20
288.8494018062841
 30
0.0
 10
308.6370893941975
 20
288.8761315642824
 30
0.0
 10
308.6424028364661
 20
288.9027330977462
 30
0.0
  0
SPLINE
  5
153
330
1F
100
AcDbEntity
  8
1
100
AcDbSpline
210
0.0
220
0.0
230
1.0
 70
     8
 71
     3
 72
     8
 73
     4
 74
     0
 42
0.000000001
 43
0.0000000001
 40
0.0
 40
0.0
 40
0.0
 40
0.0
 40
1.0
 40
1.0
 40
1.0
 40
1.0
 10
306.4354482773101
 20
286.8069913156169
 30
0.0
 10
306.6953050303387
 20
287.0507632197274
 30
0.0
 10
306.9547515340154
 20
287.2949706546625
 30
0.0
 10
307.2136816934025
 20
287.5397262534236
 30
0.0
  0
SPLINE
  5
154
330
1F
100
AcDbEntity
  8
1
100
AcDbSpline
210
0.0
220
0.0
230
1.0
 70
     8
 71
     3
 72
    80
 73
    76
 74
     0
 42
0.000000001
 43
0.0000000001
 40
0.0
 40
0.0
 40
0.0
 40
0.0
 40
0.0312500000000003
 40
0.0312500000000003
 40
0.0625000000000006
 40
0.0625000000000006
 40
0.0781250000000015
 40
0.0781250000000015
 40
0.0937500000000025
 40
0.0937500000000025
 40
0.1250000000000043
 40
0.1250000000000043
 40
0.1562500000000061
 40
0.1562500000000061
 40
0.1718750000000079
 40
0.1718750000000079
 40
0.1875000000000096
 40
0.1875000000000096
 40
0.218750000000011
 40
0.218750000000011
 40
0.2343750000000108
 40
0.2343750000000108
 40
0.2421875000000106
 40
0.2421875000000106
 40
0.2500000000000105
 40
0.2500000000000105
 40
0.2812500000000098
 40
0.312500000000009
 40
0.312500000000009
 40
0.3281250000000087
 40
0.3281250000000087
 40
0.3437500000000083
 40
0.3437500000000083
 40
0.3750000000000087
 40
0.3750000000000087
 40
0.3906250000000084
 40
0.3984375000000088
 40
0.3984375000000088
 40
0.406250000000009
 40
0.406250000000009
 40
0.4375000000000089
 40
0.4375000000000089
 40
0.4687500000000088
 40
0.4687500000000088
 40
0.4843750000000088
 40
0.4843750000000088
 40
0.5000000000000088
 40
0.5000000000000088
 40
0.5312500000000086
 40
0.5312500000000086
 40
0.5625000000000084
 40
0.5625000000000084
 40
0.5781250000000079
 40
0.5781250000000079
 40
0.5937500000000075
 40
0.5937500000000075
 40
0.6250000000000068
 40
0.6250000000000068
 40
0.6875000000000054
 40
0.6875000000000054
 40
0.7500000000000037
 40
0.7500000000000037
 40
0.7656250000000036
 40
0.7656250000000036
 40
0.7812500000000034
 40
0.8125000000000031
 40
0.8125000000000031
 40
0.8750000000000021
 40
0.8750000000000021
 40
0.937500000000001
 40
0.937500000000001
 40
0.9687500000000001
 40
0.9687500000000001
 40
0.9843750000000001
 40
1.0
 40
1.0
 40
1.0
 40
1.0
 10
308.1164780275462
 20
292.1281605139449
 30
0.0
 10
308.0626741056455
 20
292.1498189014744
 30
0.0
 10
308.0077318464793
 20
292.1680685197127
 30
0.0
 10
307.8955287493002
 20
292.1972516709589
 30
0.0
 10
307.8382688665378
 20
292.2081884746626
 30
0.0
 10
307.7505414842738
 20
292.2185481314168
 30
0.0
 10
307.7211272394301
 20
292.2209720053507
 30
0.0
 10
307.6622152302497
 20
292.2236998882356
 30
0.0
 10
307.6326778053108
 20
292.2240088158723
 30
0.0
 10
307.5438275375913
 20
292.2217021268879
 30
0.0
 10
307.4842783452889
 20
292.2158633574353
 30
0.0
 10
307.3645447431113
 20
292.1950000733677
 30
0.0
 10
307.3043608395634
 20
292.1799804915203
 30
0.0
 10
307.2135622772677
 20
292.1498383444503
 30
0.0
 10
307.1831452373086
 20
292.1384851093017
 30
0.0
 10
307.1228803784268
 20
292.1134055128636
 30
0.0
 10
307.0929507662499
 20
292.0996572852685
 30
0.0
 10
307.0037729283703
 20
292.0547266493596
 30
0.0
 10
306.9451347984665
 20
292.0198717036642
 30
0.0
 10
306.8584227576961
 20
291.9597763096299
 30
0.0
 10
306.8297264802773
 20
291.9384391941163
 30
0.0
 10
306.7869989800329
 20
291.9043846390202
 30
0.0
 10
306.7728093168042
 20
291.8926913827416
 30
0.0
 10
306.7445367807194
 20
291.8686028444059
 30
0.0
 10
306.7304349513194
 20
291.8561889284418
 30
0.0
 10
306.6607471843995
 20
291.7928267070885
 30
0.0
 10
306.5537151833656
 20
291.682572815828
 30
0.0
 10
306.4553046439332
 20
291.5547055779146
 30
0.0
 10
306.38471353251
 20
291.4520073620106
 30
0.0
 10
306.36172030274
 20
291.4166390767801
 30
0.0
 10
306.3168183185585
 20
291.3435661337031
 30
0.0
 10
306.2951537031311
 20
291.3062543558316
 30
0.0
 10
306.2326257031234
 20
291.1924645548943
 30
0.0
 10
306.1941185544493
 20
291.1139712339545
 30
0.0
 10
306.1407561416526
 20
290.9925101631109
 30
0.0
 10
306.1151773325529
 20
290.930847082052
 30
0.0
 10
306.0912054772058
 20
290.8678096897503
 30
0.0
 10
306.0755775125573
 20
290.8254809491743
 30
0.0
 10
306.067928427939
 20
290.8041299776833
 30
0.0
 10
306.0307731605143
 20
290.6972516420347
 30
0.0
 10
306.0044186636109
 20
290.6111069540613
 30
0.0
 10
305.9575993409044
 20
290.4377148487515
 30
0.0
 10
305.9371382557642
 20
290.3504666582447
 30
0.0
 10
305.9104339657146
 20
290.2188613818292
 30
0.0
 10
305.9021800827045
 20
290.1747520654901
 30
0.0
 10
305.8870821007777
 20
290.0871031800672
 30
0.0
 10
305.8802256998626
 20
290.0435241435991
 30
0.0
 10
305.8615705803134
 20
289.9134824278968
 30
0.0
 10
305.8516791577012
 20
289.8277133062742
 30
0.0
 10
305.8363187671264
 20
289.6578629629099
 30
0.0
 10
305.8308523408639
 20
289.5737823964089
 30
0.0
 10
305.8256151404322
 20
289.4488452736326
 30
0.0
 10
305.824364392641
 20
289.4073971966827
 30
0.0
 10
305.822806090427
 20
289.3248860372357
 30
0.0
 10
305.8224988488972
 20
289.2837706959952
 30
0.0
 10
305.8229304721555
 20
289.1613413038962
 30
0.0
 10
305.8250101859256
 20
289.0814657702557
 30
0.0
 10
305.8359174714857
 20
288.8465284760302
 30
0.0
 10
305.8493735535158
 20
288.6961250031434
 30
0.0
 10
305.8862777714322
 20
288.4059492033841
 30
0.0
 10
305.9097456068603
 20
288.2661919435596
 30
0.0
 10
305.9445536408278
 20
288.09756721343
 30
0.0
 10
305.951794328346
 20
288.0641370495259
 30
0.0
 10
305.966730606796
 20
287.9982303047229
 30
0.0
 10
305.9898454753089
 20
287.9006629358746
 30
0.0
 10
306.0149975717147
 20
287.8068322888899
 30
0.0
 10
306.0678324962024
 20
287.6238647347313
 30
0.0
 10
306.1064137456646
 20
287.5081233900941
 30
0.0
 10
306.1897629789
 20
287.2881898534593
 30
0.0
 10
306.2345323669618
 20
287.1840010263466
 30
0.0
 10
306.3063190893702
 20
287.0361822899273
 30
0.0
 10
306.3310239497353
 20
286.9883248701506
 30
0.0
 10
306.3692815367588
 20
286.9186811422155
 30
0.0
 10
306.3951872485429
 20
286.8729667629765
 30
0.0
 10
306.4219139294158
 20
286.8286972934973
 30
0.0
 10
306.4354482773101
 20
286.8069913156169
 30
0.0
  0
SPLINE
  5
155
330
1F
100
AcDbEntity
  8
1
100
AcDbSpline
210
0.0
220
0.0
230
1.0
 70
     8
 71
     3
 72
    10
 73
     6
 74
     0
 42
0.000000001
 43
0.0000000001
 40
0.0
 40
0.0
 40
0.0
 40
0.0
 40
0.5
 40
0.5
 40
1.0
 40
1.0
 40
1.0
 40
1.0
 10
309.8150419452959
 20
291.4124942004219
 30
0.0
 10
309.5424783171043
 20
291.5341310948439
 30
0.0
 10
309.2634641650768
 20
291.6543228420391
 30
0.0
 10
308.6962673875092
 20
291.8926522716112
 30
0.0
 10
308.4080629533958
 20
292.0107850680903
 30
0.0
 10
308.1164780275462
 20
292.1281605139449
 30
0.0
  0
SPLINE
  5
156
330
1F
100
AcDbEntity
  8
1
100
AcDbSpline
210
0.0
220
0.0
230
1.0
 70
     8
 71
     3
 72
    16
 73
    12
 74
     0
 42
0.000000001
 43
0.0000000001
 40
0.0
 40
0.0
 40
0.0
 40
0.0
 40
0.1249999999999997
 40
0.1249999999999997
 40
0.2499999999999993
 40
0.2499999999999993
 40
0.4999999999999997
 40
0.4999999999999997
 40
0.7499999999999999
 40
0.7499999999999999
 40
1.0
 40
1.0
 40
1.0
 40
1.0
 10
309.815041945296
 20
293.8200475821747
 30
0.0
 10
309.6364702557173
 20
294.0045487008939
 30
0.0
 10
309.4549224564785
 20
294.1901496173962
 30
0.0
 10
309.0867865941399
 20
294.5632140400414
 30
0.0
 10
308.9001968132901
 20
294.7506781809651
 30
0.0
 10
308.3339580890686
 20
295.315461312559
 30
0.0
 10
307.9478887592766
 20
295.6951529062444
 30
0.0
 10
307.1629083978797
 20
296.4592816429398
 30
0.0
 10
306.7639759834526
 20
296.8437266878027
 30
0.0
 10
305.9561929950658
 20
297.6162819549291
 30
0.0
 10
305.5473301730425
 20
298.0043967033675
 30
0.0
 10
305.1345527778317
 20
298.3939580513625
 30
0.0
  0
SPLINE
  5
157
330
1F
100
AcDbEntity
  8
1
100
AcDbSpline
210
0.0
220
0.0
230
1.0
 70
     8
 71
     3
 72
    16
 73
    12
 74
     0
 42
0.000000001
 43
0.0000000001
 40
0.0
 40
0.0
 40
0.0
 40
0.0
 40
0.1083873781806095
 40
0.2174213857100498
 40
0.3271171306304381
 40
0.4374894492431725
 40
0.5485529067115641
 40
0.6603217980017519
 40
0.7728101491414489
 40
0.8860317187757912
 40
1.0
 40
1.0
 40
1.0
 40
1.0
 10
305.1345527778317
 20
282.0778249410882
 30
0.0
 10
305.1342174628958
 20
282.075727567077
 30
0.0
 10
305.1335448325653
 20
282.0715203063098
 30
0.0
 10
305.1328392486933
 20
282.065196213468
 30
0.0
 10
305.1323531393649
 20
282.058840736134
 30
0.0
 10
305.1321101027227
 20
282.0524554030855
 30
0.0
 10
305.1321059281177
 20
282.0460414342574
 30
0.0
 10
305.1323421410927
 20
282.0395999643622
 30
0.0
 10
305.132825358703
 20
282.0331327148257
 30
0.0
 10
305.1335357069964
 20
282.0266390491497
 30
0.0
 10
305.1342130121802
 20
282.0223121915851
 30
0.0
 10
305.1345527778317
 20
282.0201416521975
 30
0.0
  0
SPLINE
  5
158
330
1F
100
AcDbEntity
  8
1
100
AcDbSpline
210
0.0
220
0.0
230
1.0
 70
     8
 71
     3
 72
    20
 73
    16
 74
     0
 42
0.000000001
 43
0.0000000001
 40
0.0
 40
0.0
 40
0.0
 40
0.0
 40
0.125
 40
0.125
 40
0.2499999999999999
 40
0.2499999999999999
 40
0.3749999999999999
 40
0.3749999999999999
 40
0.4999999999999999
 40
0.4999999999999999
 40
0.6249999999999999
 40
0.6249999999999999
 40
0.7499999999999997
 40
0.7499999999999997
 40
1.0
 40
1.0
 40
1.0
 40
1.0
 10
304.0136696734762
 20
303.9474416865782
 30
0.0
 10
304.0175788732298
 20
303.9519387835136
 30
0.0
 10
304.0218524685894
 20
303.9560144166381
 30
0.0
 10
304.031089836338
 20
303.9633668521359
 30
0.0
 10
304.0361080345212
 20
303.9666696739014
 30
0.0
 10
304.0465645979021
 20
303.9722949844523
 30
0.0
 10
304.0519822784136
 20
303.9746212354246
 30
0.0
 10
304.0631781713758
 20
303.9783472848951
 30
0.0
 10
304.0690107870873
 20
303.9797537437141
 30
0.0
 10
304.0807769399596
 20
303.9815662471662
 30
0.0
 10
304.0866668609084
 20
303.9819763122554
 30
0.0
 10
304.0984598421826
 20
303.9818541521182
 30
0.0
 10
304.1043922958637
 20
303.9813164163759
 30
0.0
 10
304.1220170273162
 20
303.9782765751023
 30
0.0
 10
304.1331588081182
 20
303.9744728969705
 30
0.0
 10
304.1436997761641
 20
303.9689113240645
 30
0.0
  0
SPLINE
  5
159
330
1F
100
AcDbEntity
  8
1
100
AcDbSpline
210
0.0
220
0.0
230
1.0
 70
     8
 71
     3
 72
    22
 73
    18
 74
     0
 42
0.000000001
 43
0.0000000001
 40
0.0
 40
0.0
 40
0.0
 40
0.0
 40
0.125
 40
0.125
 40
0.25
 40
0.25
 40
0.375
 40
0.375
 40
0.5
 40
0.5
 40
0.625
 40
0.625
 40
0.75
 40
0.75
 40
0.875
 40
0.875
 40
1.0
 40
1.0
 40
1.0
 40
1.0
 10
304.5432088880324
 20
304.4138549000737
 30
0.0
 10
304.5398848649501
 20
304.4187977354391
 30
0.0
 10
304.5369622222868
 20
304.4239907488314
 30
0.0
 10
304.5319957536956
 20
304.4346831880285
 30
0.0
 10
304.5299351153967
 20
304.4402060256755
 30
0.0
 10
304.5266830898789
 20
304.4516152034528
 30
0.0
 10
304.5255028558545
 20
304.4575015691598
 30
0.0
 10
304.5241199967331
 20
304.4692424587541
 30
0.0
 10
304.5239004749213
 20
304.4751467206335
 30
0.0
 10
304.5244454792966
 20
304.4870258418594
 30
0.0
 10
304.5252193249506
 20
304.4929748515419
 30
0.0
 10
304.5277294374616
 20
304.5045162949816
 30
0.0
 10
304.5294660481487
 20
304.5101614761174
 30
0.0
 10
304.5339564631889
 20
304.5211863773728
 30
0.0
 10
304.5366823372725
 20
304.5264779067903
 30
0.0
 10
304.5429747167801
 20
304.5364031018632
 30
0.0
 10
304.5465550839292
 20
304.5410730358796
 30
0.0
 10
304.5505970741784
 20
304.5454315462056
 30
0.0
  0
SPLINE
  5
15A
330
1F
100
AcDbEntity
  8
1
100
AcDbSpline
210
0.0
220
0.0
230
1.0
 70
     8
 71
     3
 72
    14
 73
    10
 74
     0
 42
0.000000001
 43
0.0000000001
 40
0.0
 40
0.0
 40
0.0
 40
0.0
 40
0.25
 40
0.25
 40
0.5
 40
0.5
 40
0.75
 40
0.75
 40
1.0
 40
1.0
 40
1.0
 40
1.0
 10
304.2299443329057
 20
303.9615242966896
 30
0.0
 10
304.2228566277511
 20
303.9590993280855
 30
0.0
 10
304.215490741626
 20
303.9574644542101
 30
0.0
 10
304.2007702028519
 20
303.9557724072786
 30
0.0
 10
304.1933983998882
 20
303.9556943854842
 30
0.0
 10
304.1786328750465
 20
303.9570228867871
 30
0.0
 10
304.1712498955155
 20
303.9584507258717
 30
0.0
 10
304.1571236137304
 20
303.9626539866125
 30
0.0
 10
304.1502921207079
 20
303.9654331041667
 30
0.0
 10
304.1436997761641
 20
303.9689113240645
 30
0.0
  0
SPLINE
  5
15B
330
1F
100
AcDbEntity
  8
1
100
AcDbSpline
210
0.0
220
0.0
230
1.0
 70
     8
 71
     3
 72
    14
 73
    10
 74
     0
 42
0.000000001
 43
0.0000000001
 40
0.0
 40
0.0
 40
0.0
 40
0.0
 40
0.25
 40
0.25
 40
0.5
 40
0.5
 40
0.75
 40
0.75
 40
1.0
 40
1.0
 40
1.0
 40
1.0
 10
304.543208888032
 20
304.4138549000738
 30
0.0
 10
304.547367267273
 20
304.4076713738269
 30
0.0
 10
304.5509120128214
 20
304.4010749157113
 30
0.0
 10
304.5566206806112
 20
304.3873680889427
 30
0.0
 10
304.5587745633138
 20
304.3803115029356
 30
0.0
 10
304.5616638080189
 20
304.3657872920708
 30
0.0
 10
304.5623815476969
 20
304.3582835276539
 30
0.0
 10
304.5622519565787
 20
304.3435165528709
 30
0.0
 10
304.5614298769513
 20
304.336172813987
 30
0.0
 10
304.5597815208902
 20
304.3288724586288
 30
0.0
  0
SPLINE
  5
15C
330
1F
100
AcDbEntity
  8
1
100
AcDbSpline
210
0.0
220
0.0
230
1.0
 70
     8
 71
     3
 72
    21
 73
    17
 74
     0
 42
0.000000001
 43
0.0000000001
 40
0.0
 40
0.0
 40
0.0
 40
0.0
 40
0.2500000000000224
 40
0.2500000000000224
 40
0.3125000000000349
 40
0.3125000000000349
 40
0.3750000000000473
 40
0.3750000000000473
 40
0.5000000000000413
 40
0.6250000000000354
 40
0.6250000000000354
 40
0.6875000000000324
 40
0.6875000000000324
 40
0.7500000000000293
 40
0.7500000000000293
 40
1.0
 40
1.0
 40
1.0
 40
1.0
 10
304.5597815208902
 20
304.3288724586288
 30
0.0
 10
304.5502176245011
 20
304.286515201058
 30
0.0
 10
304.5358743763963
 20
304.2461226654834
 30
0.0
 10
304.5116475856728
 20
304.1982105971278
 30
0.0
 10
304.5064834278607
 20
304.1887587269702
 30
0.0
 10
304.4954929415854
 20
304.1701259435406
 30
0.0
 10
304.489649752698
 20
304.1609246767635
 30
0.0
 10
304.4713690575596
 20
304.1341463145516
 30
0.0
 10
304.444860917154
 20
304.1003820215022
 30
0.0
 10
304.4141654749782
 20
304.0704246503809
 30
0.0
 10
304.38955194249
 20
304.0494040727621
 30
0.0
 10
304.3810498218083
 20
304.042615935697
 30
0.0
 10
304.3636697801376
 20
304.0296542265506
 30
0.0
 10
304.3548105115493
 20
304.0234906016853
 30
0.0
 10
304.3097001318048
 20
303.9941978237427
 30
0.0
 10
304.2710391933707
 20
303.9755843830283
 30
0.0
 10
304.2299443329057
 20
303.9615242966896
 30
0.0
  0
SPLINE
  5
15D
330
1F
100
AcDbEntity
  8
1
100
AcDbSpline
210
0.0
220
0.0
230
1.0
 70
     8
 71
     3
 72
    21
 73
    17
 74
     0
 42
0.000000001
 43
0.0000000001
 40
0.0
 40
0.0
 40
0.0
 40
0.0
 40
0.1434838053679256
 40
0.1434838053679256
 40
0.2148601549205912
 40
0.2148601549205912
 40
0.2862365044732569
 40
0.2862365044732569
 40
0.428989203578583
 40
0.5717419026839092
 40
0.5717419026839092
 40
0.6431182522365804
 40
0.6431182522365804
 40
0.7144946017892517
 40
0.7144946017892517
 40
1.0
 40
1.0
 40
1.0
 40
1.0
 10
303.8827507572442
 20
303.5410653072775
 30
0.0
 10
303.8805613085801
 20
303.5616400832201
 30
0.0
 10
303.8796260972269
 20
303.5823638845328
 30
0.0
 10
303.8801002652839
 20
303.6136224568984
 30
0.0
 10
303.8805746295072
 20
303.6240661938419
 30
0.0
 10
303.8821425017983
 20
303.6447950785103
 30
0.0
 10
303.8832350689241
 20
303.6551050023169
 30
0.0
 10
303.8874214883685
 20
303.6858745062975
 30
0.0
 10
303.8954206867856
 20
303.7264742452791
 30
0.0
 10
303.9082203850344
 20
303.7662285412326
 30
0.0
 10
303.9196810919443
 20
303.7957161045076
 30
0.0
 10
303.9238069608861
 20
303.8054702350822
 30
0.0
 10
303.9325705022621
 20
303.8246138683778
 30
0.0
 10
303.9372198718934
 20
303.83403445932
 30
0.0
 10
303.9617813581849
 20
303.8803940260307
 30
0.0
 10
303.9855847847981
 20
303.9151331644327
 30
0.0
 10
304.0136696734762
 20
303.9474416865782
 30
0.0
  0
SPLINE
  5
15E
330
1F
100
AcDbEntity
  8
1
100
AcDbSpline
210
0.0
220
0.0
230
1.0
 70
     8
 71
     3
 72
    21
 73
    17
 74
     0
 42
0.000000001
 43
0.0000000001
 40
0.0
 40
0.0
 40
0.0
 40
0.0
 40
0.291492135048515
 40
0.291492135048515
 40
0.3643651688106133
 40
0.3643651688106133
 40
0.4372382025727117
 40
0.4372382025727117
 40
0.582984270096913
 40
0.7287303376211142
 40
0.7287303376211142
 40
0.8016033713832149
 40
0.8016033713832149
 40
0.8744764051453156
 40
0.8744764051453156
 40
1.0
 40
1.0
 40
1.0
 40
1.0
 10
304.5505970741784
 20
304.5454315462056
 30
0.0
 10
304.579670201036
 20
304.5767813307924
 30
0.0
 10
304.6117367643353
 20
304.6042608462388
 30
0.0
 10
304.6555337051433
 20
304.6337904015385
 30
0.0
 10
304.6645011938809
 20
304.6394624479336
 30
0.0
 10
304.6826123151995
 20
304.6501892803876
 30
0.0
 10
304.6917760995922
 20
304.6552592208607
 30
0.0
 10
304.7195858466023
 20
304.6696049250745
 30
0.0
 10
304.7575124893143
 20
304.6864336573741
 30
0.0
 10
304.7971197336319
 20
304.6986978694306
 30
0.0
 10
304.8274771722766
 20
304.706126363097
 30
0.0
 10
304.8376860361488
 20
304.7082996774764
 30
0.0
 10
304.8580538997
 20
304.7120001360707
 30
0.0
 10
304.8682447774561
 20
304.713535458959
 30
0.0
 10
304.8960083744318
 20
304.7168731008286
 30
0.0
 10
304.9135943704507
 20
304.7180783228894
 30
0.0
 10
304.9312021138594
 20
304.7183654152028
 30
0.0
  0
SPLINE
  5
15F
330
1F
100
AcDbEntity
  8
1
100
AcDbSpline
210
0.0
220
0.0
230
1.0
 70
     8
 71
     3
 72
    21
 73
    17
 74
     0
 42
0.000000001
 43
0.0000000001
 40
0.0
 40
0.0
 40
0.0
 40
0.0
 40
0.2731449073054213
 40
0.2731449073054213
 40
0.3414311341317813
 40
0.3414311341317813
 40
0.4097173609581414
 40
0.4097173609581414
 40
0.5462898146108626
 40
0.6828622682635836
 40
0.6828622682635836
 40
0.7511484950899522
 40
0.7511484950899522
 40
0.8194347219163208
 40
0.8194347219163208
 40
1.0
 40
1.0
 40
1.0
 40
1.0
 10
304.0771960236764
 20
303.3706225498451
 30
0.0
 10
304.1068244048738
 20
303.3403358701611
 30
0.0
 10
304.1321642913376
 20
303.3075378930738
 30
0.0
 10
304.1582437325238
 20
303.2634167224603
 30
0.0
 10
304.1631763129087
 20
303.2544341605213
 30
0.0
 10
304.1724540564445
 20
303.2361436285448
 30
0.0
 10
304.1768067158746
 20
303.2268121432152
 30
0.0
 10
304.1887732080596
 20
303.1987412265662
 30
0.0
 10
304.2019606442193
 20
303.1608712181832
 30
0.0
 10
304.2097214273505
 20
303.1221509565394
 30
0.0
 10
304.2134771276635
 20
303.0927809449746
 30
0.0
 10
304.2143856230163
 20
303.0829001571253
 30
0.0
 10
304.2154901223377
 20
303.0632101007839
 30
0.0
 10
304.21568818629
 20
303.0534198778639
 30
0.0
 10
304.2151670954479
 20
303.0179276204206
 30
0.0
 10
304.2124341771325
 20
302.9925279114166
 30
0.0
 10
304.2074219165397
 20
302.9674257971791
 30
0.0
  0
SPLINE
  5
160
330
1F
100
AcDbEntity
  8
1
100
AcDbSpline
210
0.0
220
0.0
230
1.0
 70
     8
 71
     3
 72
    21
 73
    17
 74
     0
 42
0.000000001
 43
0.0000000001
 40
0.0
 40
0.0
 40
0.0
 40
0.0
 40
0.1395850243605768
 40
0.1395850243605768
 40
0.211286272330528
 40
0.211286272330528
 40
0.2829875203004794
 40
0.2829875203004794
 40
0.4263900162403811
 40
0.5697925121802827
 40
0.5697925121802827
 40
0.6414937601502354
 40
0.6414937601502354
 40
0.7131950081201884
 40
0.7131950081201884
 40
1.0
 40
1.0
 40
1.0
 40
1.0
 10
305.5240804323083
 20
304.449840200186
 30
0.0
 10
305.5059749407465
 20
304.4451403269673
 30
0.0
 10
305.4875743211742
 20
304.4416603275042
 30
0.0
 10
305.4592376839036
 20
304.438276155468
 30
0.0
 10
305.4495362512096
 20
304.4374601943431
 30
0.0
 10
305.429952813609
 20
304.4365174260233
 30
0.0
 10
305.4200467404434
 20
304.4363935751853
 30
0.0
 10
305.3904914403165
 20
304.4370795257206
 30
0.0
 10
305.3512561455819
 20
304.4407816347791
 30
0.0
 10
305.312340958044
 20
304.4499469052313
 30
0.0
 10
305.2832827065007
 20
304.4589005046382
 30
0.0
 10
305.2735835819327
 20
304.4622461542155
 30
0.0
 10
305.2544139317532
 20
304.4695752041133
 30
0.0
 10
305.2449609692283
 20
304.4735486868207
 30
0.0
 10
305.1983383098733
 20
304.4949050932352
 30
0.0
 10
305.1630666550558
 20
304.5166948383573
 30
0.0
 10
305.129845971704
 20
304.5429858783596
 30
0.0
  0
LINE
  5
171
330
1F
100
AcDbEntity
  8
4
100
AcDbLine
 10
276.2483529999999
 20
295.201634
 30
0.0
 11
323.134553
 21
295.201634
 31
0.0
  0
LINE
  5
172
330
1F
100
AcDbEntity
  8
SK4
100
AcDbLine
 10
225.315042
 20
295.201634
 30
0.0
 11
282.315042
 21
295.201634
 31
0.0
  0
LINE
  5
177
330
1F
100
AcDbEntity
  8
SK2
 60
     1
100
AcDbLine
 10
217.328917
 20
285.201634
 30
0.0
 11
216.711772
 21
288.701632
 31
0.0
  0
LINE
  5
178
330
1F
100
AcDbEntity
  8
SK2
 60
     1
100
AcDbLine
 10
216.711772
 20
288.701632
 30
0.0
 11
217.946061
 21
288.701636
 31
0.0
  0
LINE
  5
179
330
1F
100
AcDbEntity
  8
SK2
 60
     1
100
AcDbLine
 10
217.946061
 20
288.701636
 30
0.0
 11
217.328917
 21
285.201634
 31
0.0
  0
LINE
  5
17B
330
1F
100
AcDbEntity
  8
SK2
 60
     1
100
AcDbLine
 10
217.328917
 20
305.201634
 30
0.0
 11
217.946061
 21
301.701636
 31
0.0
  0
LINE
  5
17C
330
1F
100
AcDbEntity
  8
SK2
 60
     1
100
AcDbLine
 10
217.946061
 20
301.701636
 30
0.0
 11
216.711772
 21
301.701632
 31
0.0
  0
LINE
  5
17D
330
1F
100
AcDbEntity
  8
SK2
 60
     1
100
AcDbLine
 10
216.711772
 20
301.701632
 30
0.0
 11
217.328917
 21
305.201634
 31
0.0
  0
MTEXT
  5
17F
330
1F
100
AcDbEntity
  8
SK6
100
AcDbMText
 10
254.193552
 20
248.663229
 30
0.0
 40
3.5
 41
0.0
 71
     7
 72
     5
  1
\W0.7219;20N2R032B20-SSE09-C
  7
cesky
 73
     2
 44
0.8433729999999998
  0
MTEXT
  5
26E
330
1F
100
AcDbEntity
  8
2
100
AcDbMText
 10
333.655017
 20
291.653899
 30
0.0
 40
3.5
 41
0.0
 71
     7
 72
     5
  1
\W0.7045;20
  7
cesky
 11
0.0000000000000001
 21
1.0
 31
0.0
 73
     2
 44
0.8433729999999998
  0
MTEXT
  5
26F
330
1F
100
AcDbEntity
  8
2
100
AcDbMText
 10
333.655017
 20
284.916399
 30
0.0
 40
3.5
 41
0.0
 71
     7
 72
     5
  1
\W3.0115;\H2.63;%%c\H3.50;
  7
cesky
 11
0.0000000000000001
 21
1.0
 31
0.0
 73
     2
 44
0.8433729999999998
  0
LINE
  5
270
330
1F
100
AcDbEntity
  8
2
100
AcDbLine
 10
312.315042
 20
305.201634
 30
0.0
 11
334.842434
 21
305.201634
 31
0.0
  0
LINE
  5
271
330
1F
100
AcDbEntity
  8
2
100
AcDbLine
 10
333.8424339999999
 20
305.201634
 30
0.0
 11
333.8424339999999
 21
284.7588990000001
 31
0.0
  0
SOLID
  5
272
330
1F
100
AcDbEntity
  8
2
100
AcDbTrace
 10
333.8424339999999
 20
305.201634
 30
0.0
 11
334.459578
 21
301.701636
 31
0.0
 12
333.225289
 22
301.701632
 32
0.0
 13
333.225289
 23
301.701632
 33
0.0
  0
MTEXT
  5
273
330
1F
100
AcDbEntity
  8
2
100
AcDbMText
 10
292.500542
 20
342.5254220000001
 30
0.0
 40
3.5
 41
0.0
 71
     7
 72
     5
  1
\W0.7045;32
  7
cesky
 73
     2
 44
0.8433729999999998
  0
LINE
  5
274
330
1F
100
AcDbEntity
  8
2
100
AcDbLine
 10
310.315042
 20
305.201634
 30
0.0
 11
310.315042
 21
343.651256
 31
0.0
  0
LINE
  5
275
330
1F
100
AcDbEntity
  8
2
100
AcDbLine
 10
278.315042
 20
305.201634
 30
0.0
 11
278.315042
 21
343.651256
 31
0.0
  0
LINE
  5
276
330
1F
100
AcDbEntity
  8
2
100
AcDbLine
 10
310.315042
 20
342.651256
 30
0.0
 11
278.315042
 21
342.651256
 31
0.0
  0
SOLID
  5
277
330
1F
100
AcDbEntity
  8
2
100
AcDbTrace
 10
310.315042
 20
342.651256
 30
0.0
 11
306.815044
 21
342.034111
 31
0.0
 12
306.81504
 22
343.2684
 32
0.0
 13
306.81504
 23
343.2684
 33
0.0
  0
SOLID
  5
278
330
1F
100
AcDbEntity
  8
2
100
AcDbTrace
 10
278.315042
 20
342.651256
 30
0.0
 11
281.81504
 21
343.2684
 31
0.0
 12
281.815044
 22
342.034111
 32
0.0
 13
281.815044
 23
342.034111
 33
0.0
  0
MTEXT
  5
279
330
1F
100
AcDbEntity
  8
2
100
AcDbMText
 10
317.000542
 20
325.062697
 30
0.0
 40
3.5
 41
0.0
 71
     7
 72
     5
  1
\W0.8874;4,5
  7
cesky
 73
     2
 44
0.8433729999999998
  0
LINE
  5
27A
330
1F
100
AcDbEntity
  8
2
100
AcDbLine
 10
310.315042
 20
307.201634
 30
0.0
 11
310.315042
 21
326.1885299999999
 31
0.0
  0
LINE
  5
27B
330
1F
100
AcDbEntity
  8
2
100
AcDbLine
 10
305.782282
 20
309.66036
 30
0.0
 11
305.782282
 21
326.1885299999999
 31
0.0
  0
LINE
  5
27C
330
1F
100
AcDbEntity
  8
2
100
AcDbLine
 10
297.032282
 20
325.18853
 30
0.0
 11
323.340042
 21
325.18853
 31
0.0
  0
SOLID
  5
27D
330
1F
100
AcDbEntity
  8
2
100
AcDbTrace
 10
310.315042
 20
325.18853
 30
0.0
 11
313.81504
 21
325.805674
 31
0.0
 12
313.815044
 22
324.5713859999999
 32
0.0
 13
313.815044
 23
324.5713859999999
 33
0.0
  0
SOLID
  5
27E
330
1F
100
AcDbEntity
  8
2
100
AcDbTrace
 10
305.782282
 20
325.18853
 30
0.0
 11
302.282284
 21
324.5713859999999
 31
0.0
 12
302.28228
 22
325.805674
 32
0.0
 13
302.28228
 23
325.805674
 33
0.0
  0
MTEXT
  5
27F
330
1F
100
AcDbEntity
  8
2
100
AcDbMText
 10
295.388535
 20
332.050961
 30
0.0
 40
3.5
 41
0.0
 71
     7
 72
     5
  1
\W1.0515;45%%d
  7
cesky
 11
0.9265042318873552
 21
0.3762843450036448
 31
0.0
 73
     2
 44
0.8433729999999998
  0
LINE
  5
280
330
1F
100
AcDbEntity
  8
2
100
AcDbLine
 10
305.372096
 20
310.019392
 30
0.0
 11
288.041614
 21
327.836093
 31
0.0
  0
LINE
  5
281
330
1F
100
AcDbEntity
  8
2
100
AcDbLine
 10
310.315042
 20
307.201634
 30
0.0
 11
310.315042
 21
336.882077
 31
0.0
  0
ARC
  5
282
330
1F
100
AcDbEntity
  8
2
100
AcDbCircle
 10
310.315042
 20
304.937768
 30
0.0
 40
30.94430907974104
100
AcDbArc
 50
90.0
 51
134.207374
  0
SOLID
  5
283
330
1F
100
AcDbEntity
  8
2
100
AcDbTrace
 10
288.738873
 20
327.119273
 30
0.0
 11
290.898021
 21
329.942202
 31
0.0
 12
291.733311
 22
329.033489
 32
0.0
 13
288.738873
 23
327.119273
 33
0.0
  0
SOLID
  5
284
330
1F
100
AcDbEntity
  8
2
100
AcDbTrace
 10
310.315042
 20
335.882077
 30
0.0
 11
306.83387
 21
335.166329
 31
0.0
 12
306.799006
 22
336.400125
 32
0.0
 13
310.315042
 23
335.882077
 33
0.0
  0
TEXT
  5
285
330
1F
100
AcDbEntity
  8
SK2
100
AcDbText
 10
216.4749600390457
 20
286.712237238763
 30
0.0
 40
4.379999999999999
  1
\U+2205
 50
89.99999999999992
 41
3.011499999999999
  7
cesky
100
AcDbText
  0
TEXT
  5
286
330
1F
100
AcDbEntity
  8
SK2
100
AcDbText
 10
215.9748333333333
 20
296.579702
 30
0.0
 40
3.5
  1
20
 50
89.99999999999992
 41
0.7045
  7
cesky
100
AcDbText
  0
LINE
  5
287
330
1F
100
AcDbEntity
  8
SK2
100
AcDbLine
 10
216.7157560242445
 20
288.6790384504312
 30
0.0
 11
216.7383493161449
 21
288.7016317423316
 31
0.0
  0
LINE
  5
288
330
1F
100
AcDbEntity
  8
SK2
100
AcDbLine
 10
216.7199289568316
 20
288.6553725890431
 30
0.0
 11
216.7661882123781
 21
288.7016318445895
 31
0.0
  0
LINE
  5
289
330
1F
100
AcDbEntity
  8
SK2
100
AcDbLine
 10
216.7241018894188
 20
288.631706727655
 30
0.0
 11
216.7940271086114
 21
288.7016319468476
 31
0.0
  0
LINE
  5
28A
330
1F
100
AcDbEntity
  8
SK2
100
AcDbLine
 10
216.728274822006
 20
288.6080408662668
 30
0.0
 11
216.8218660048447
 21
288.7016320491055
 31
0.0
  0
LINE
  5
28B
330
1F
100
AcDbEntity
  8
SK2
100
AcDbLine
 10
216.7324477545931
 20
288.5843750048786
 30
0.0
 11
216.8497049010781
 21
288.7016321513635
 31
0.0
  0
LINE
  5
28C
330
1F
100
AcDbEntity
  8
SK2
100
AcDbLine
 10
216.7366206871803
 20
288.5607091434904
 30
0.0
 11
216.8775437973113
 21
288.7016322536214
 31
0.0
  0
LINE
  5
28D
330
1F
100
AcDbEntity
  8
SK2
100
AcDbLine
 10
216.7407936197675
 20
288.5370432821023
 30
0.0
 11
216.9053826935446
 21
288.7016323558794
 31
0.0
  0
LINE
  5
28E
330
1F
100
AcDbEntity
  8
SK2
100
AcDbLine
 10
216.7449665523546
 20
288.5133774207142
 30
0.0
 11
216.9332215897779
 21
288.7016324581375
 31
0.0
  0
LINE
  5
28F
330
1F
100
AcDbEntity
  8
SK2
100
AcDbLine
 10
216.7491394849418
 20
288.489711559326
 30
0.0
 11
216.9610604860112
 21
288.7016325603954
 31
0.0
  0
LINE
  5
290
330
1F
100
AcDbEntity
  8
SK2
100
AcDbLine
 10
216.7533124175289
 20
288.4660456979379
 30
0.0
 11
216.9888993822445
 21
288.7016326626533
 31
0.0
  0
LINE
  5
291
330
1F
100
AcDbEntity
  8
SK2
100
AcDbLine
 10
216.7574853501161
 20
288.4423798365497
 30
0.0
 11
217.0167382784778
 21
288.7016327649113
 31
0.0
  0
LINE
  5
292
330
1F
100
AcDbEntity
  8
SK2
100
AcDbLine
 10
216.7616582827033
 20
288.4187139751615
 30
0.0
 11
217.0445771747111
 21
288.7016328671693
 31
0.0
  0
LINE
  5
293
330
1F
100
AcDbEntity
  8
SK2
100
AcDbLine
 10
216.7658312152904
 20
288.3950481137733
 30
0.0
 11
217.0724160709443
 21
288.7016329694273
 31
0.0
  0
LINE
  5
294
330
1F
100
AcDbEntity
  8
SK2
100
AcDbLine
 10
216.7700041478775
 20
288.3713822523851
 30
0.0
 11
217.1002549671777
 21
288.7016330716853
 31
0.0
  0
LINE
  5
295
330
1F
100
AcDbEntity
  8
SK2
100
AcDbLine
 10
216.7741770804647
 20
288.347716390997
 30
0.0
 11
217.1280938634109
 21
288.7016331739432
 31
0.0
  0
LINE
  5
296
330
1F
100
AcDbEntity
  8
SK2
100
AcDbLine
 10
216.7783500130518
 20
288.3240505296088
 30
0.0
 11
217.1559327596442
 21
288.7016332762012
 31
0.0
  0
LINE
  5
297
330
1F
100
AcDbEntity
  8
SK2
100
AcDbLine
 10
216.782522945639
 20
288.3003846682207
 30
0.0
 11
217.1837716558775
 21
288.7016333784592
 31
0.0
  0
LINE
  5
298
330
1F
100
AcDbEntity
  8
SK2
100
AcDbLine
 10
216.7866958782262
 20
288.2767188068326
 30
0.0
 11
217.2116105521109
 21
288.7016334807172
 31
0.0
  0
LINE
  5
299
330
1F
100
AcDbEntity
  8
SK2
100
AcDbLine
 10
216.7908688108134
 20
288.2530529454444
 30
0.0
 11
217.2394494483441
 21
288.7016335829751
 31
0.0
  0
LINE
  5
29A
330
1F
100
AcDbEntity
  8
SK2
100
AcDbLine
 10
216.7950417434005
 20
288.2293870840562
 30
0.0
 11
217.2672883445774
 21
288.7016336852331
 31
0.0
  0
LINE
  5
29B
330
1F
100
AcDbEntity
  8
SK2
100
AcDbLine
 10
216.7992146759877
 20
288.2057212226681
 30
0.0
 11
217.2951272408107
 21
288.7016337874911
 31
0.0
  0
LINE
  5
29C
330
1F
100
AcDbEntity
  8
SK2
100
AcDbLine
 10
216.8033876085748
 20
288.1820553612799
 30
0.0
 11
217.3229661370439
 21
288.7016338897491
 31
0.0
  0
LINE
  5
29D
330
1F
100
AcDbEntity
  8
SK2
100
AcDbLine
 10
216.8075605411619
 20
288.1583894998918
 30
0.0
 11
217.3508050332772
 21
288.701633992007
 31
0.0
  0
LINE
  5
29E
330
1F
100
AcDbEntity
  8
SK2
100
AcDbLine
 10
216.8117334737491
 20
288.1347236385036
 30
0.0
 11
217.3786439295105
 21
288.701634094265
 31
0.0
  0
LINE
  5
29F
330
1F
100
AcDbEntity
  8
SK2
100
AcDbLine
 10
216.8159064063363
 20
288.1110577771155
 30
0.0
 11
217.4064828257438
 21
288.701634196523
 31
0.0
  0
LINE
  5
2A0
330
1F
100
AcDbEntity
  8
SK2
100
AcDbLine
 10
216.8200793389234
 20
288.0873919157273
 30
0.0
 11
217.4343217219771
 21
288.701634298781
 31
0.0
  0
LINE
  5
2A1
330
1F
100
AcDbEntity
  8
SK2
100
AcDbLine
 10
216.8242522715106
 20
288.0637260543391
 30
0.0
 11
217.4621606182104
 21
288.7016344010389
 31
0.0
  0
LINE
  5
2A2
330
1F
100
AcDbEntity
  8
SK2
100
AcDbLine
 10
216.8284252040978
 20
288.040060192951
 30
0.0
 11
217.4899995144436
 21
288.7016345032969
 31
0.0
  0
LINE
  5
2A3
330
1F
100
AcDbEntity
  8
SK2
100
AcDbLine
 10
216.8325981366849
 20
288.0163943315628
 30
0.0
 11
217.517838410677
 21
288.7016346055549
 31
0.0
  0
LINE
  5
2A4
330
1F
100
AcDbEntity
  8
SK2
100
AcDbLine
 10
216.8367710692721
 20
287.9927284701747
 30
0.0
 11
217.5456773069103
 21
288.7016347078129
 31
0.0
  0
LINE
  5
2A5
330
1F
100
AcDbEntity
  8
SK2
100
AcDbLine
 10
216.8409440018593
 20
287.9690626087866
 30
0.0
 11
217.5735162031436
 21
288.7016348100709
 31
0.0
  0
LINE
  5
2A6
330
1F
100
AcDbEntity
  8
SK2
100
AcDbLine
 10
216.8451169344464
 20
287.9453967473984
 30
0.0
 11
217.6013550993768
 21
288.7016349123288
 31
0.0
  0
LINE
  5
2A7
330
1F
100
AcDbEntity
  8
SK2
100
AcDbLine
 10
216.8492898670336
 20
287.9217308860102
 30
0.0
 11
217.6291939956102
 21
288.7016350145868
 31
0.0
  0
LINE
  5
2A8
330
1F
100
AcDbEntity
  8
SK2
100
AcDbLine
 10
216.8534627996207
 20
287.898065024622
 30
0.0
 11
217.6570328918434
 21
288.7016351168448
 31
0.0
  0
LINE
  5
2A9
330
1F
100
AcDbEntity
  8
SK2
100
AcDbLine
 10
216.8576357322078
 20
287.8743991632339
 30
0.0
 11
217.6848717880767
 21
288.7016352191027
 31
0.0
  0
LINE
  5
2AA
330
1F
100
AcDbEntity
  8
SK2
100
AcDbLine
 10
216.861808664795
 20
287.8507333018458
 30
0.0
 11
217.71271068431
 21
288.7016353213607
 31
0.0
  0
LINE
  5
2AB
330
1F
100
AcDbEntity
  8
SK2
100
AcDbLine
 10
216.8659815973822
 20
287.8270674404576
 30
0.0
 11
217.7405495805433
 21
288.7016354236187
 31
0.0
  0
LINE
  5
2AC
330
1F
100
AcDbEntity
  8
SK2
100
AcDbLine
 10
216.8701545299693
 20
287.8034015790694
 30
0.0
 11
217.7683884767766
 21
288.7016355258767
 31
0.0
  0
LINE
  5
2AD
330
1F
100
AcDbEntity
  8
SK2
100
AcDbLine
 10
216.8743274625565
 20
287.7797357176813
 30
0.0
 11
217.7962273730099
 21
288.7016356281347
 31
0.0
  0
LINE
  5
2AE
330
1F
100
AcDbEntity
  8
SK2
100
AcDbLine
 10
216.8785003951437
 20
287.7560698562931
 30
0.0
 11
217.8240662692432
 21
288.7016357303927
 31
0.0
  0
LINE
  5
2AF
330
1F
100
AcDbEntity
  8
SK2
100
AcDbLine
 10
216.8826733277308
 20
287.732403994905
 30
0.0
 11
217.8519051654764
 21
288.7016358326506
 31
0.0
  0
LINE
  5
2B0
330
1F
100
AcDbEntity
  8
SK2
100
AcDbLine
 10
216.886846260318
 20
287.7087381335168
 30
0.0
 11
217.8797440617098
 21
288.7016359349086
 31
0.0
  0
LINE
  5
2B1
330
1F
100
AcDbEntity
  8
SK2
100
AcDbLine
 10
216.8910191929051
 20
287.6850722721286
 30
0.0
 11
217.907582957943
 21
288.7016360371666
 31
0.0
  0
LINE
  5
2B2
330
1F
100
AcDbEntity
  8
SK2
100
AcDbLine
 10
216.8951921254922
 20
287.6614064107405
 30
0.0
 11
217.9354218541764
 21
288.7016361394246
 31
0.0
  0
LINE
  5
2B3
330
1F
100
AcDbEntity
  8
SK2
100
AcDbLine
 10
216.8993650580794
 20
287.6377405493523
 30
0.0
 11
217.9423791146169
 21
288.6807546058898
 31
0.0
  0
LINE
  5
2B4
330
1F
100
AcDbEntity
  8
SK2
100
AcDbLine
 10
216.9035379906666
 20
287.6140746879642
 30
0.0
 11
217.9364195572278
 21
288.6469562545254
 31
0.0
  0
LINE
  5
2B5
330
1F
100
AcDbEntity
  8
SK2
100
AcDbLine
 10
216.9077109232537
 20
287.590408826576
 30
0.0
 11
217.9304599998387
 21
288.613157903161
 31
0.0
  0
LINE
  5
2B6
330
1F
100
AcDbEntity
  8
SK2
100
AcDbLine
 10
216.9118838558409
 20
287.5667429651878
 30
0.0
 11
217.9245004424497
 21
288.5793595517966
 31
0.0
  0
LINE
  5
2B7
330
1F
100
AcDbEntity
  8
SK2
100
AcDbLine
 10
216.9160567884281
 20
287.5430771037997
 30
0.0
 11
217.9185408850607
 21
288.5455612004323
 31
0.0
  0
LINE
  5
2B8
330
1F
100
AcDbEntity
  8
SK2
100
AcDbLine
 10
216.9202297210152
 20
287.5194112424115
 30
0.0
 11
217.9125813276716
 21
288.511762849068
 31
0.0
  0
LINE
  5
2B9
330
1F
100
AcDbEntity
  8
SK2
100
AcDbLine
 10
216.9244026536023
 20
287.4957453810234
 30
0.0
 11
217.9066217702826
 21
288.4779644977036
 31
0.0
  0
LINE
  5
2BA
330
1F
100
AcDbEntity
  8
SK2
100
AcDbLine
 10
216.9285755861896
 20
287.4720795196353
 30
0.0
 11
217.9006622128936
 21
288.4441661463392
 31
0.0
  0
LINE
  5
2BB
330
1F
100
AcDbEntity
  8
SK2
100
AcDbLine
 10
216.9327485187767
 20
287.448413658247
 30
0.0
 11
217.8947026555045
 21
288.4103677949749
 31
0.0
  0
LINE
  5
2BC
330
1F
100
AcDbEntity
  8
SK2
100
AcDbLine
 10
216.9369214513638
 20
287.4247477968589
 30
0.0
 11
217.8887430981154
 21
288.3765694436105
 31
0.0
  0
LINE
  5
2BD
330
1F
100
AcDbEntity
  8
SK2
100
AcDbLine
 10
216.941094383951
 20
287.4010819354707
 30
0.0
 11
217.8827835407264
 21
288.3427710922461
 31
0.0
  0
LINE
  5
2BE
330
1F
100
AcDbEntity
  8
SK2
100
AcDbLine
 10
216.9452673165381
 20
287.3774160740826
 30
0.0
 11
217.8768239833374
 21
288.3089727408818
 31
0.0
  0
LINE
  5
2BF
330
1F
100
AcDbEntity
  8
SK2
100
AcDbLine
 10
216.9494402491253
 20
287.3537502126945
 30
0.0
 11
217.8708644259483
 21
288.2751743895175
 31
0.0
  0
LINE
  5
2C0
330
1F
100
AcDbEntity
  8
SK2
100
AcDbLine
 10
216.9536131817125
 20
287.3300843513062
 30
0.0
 11
217.8649048685593
 21
288.2413760381531
 31
0.0
  0
LINE
  5
2C1
330
1F
100
AcDbEntity
  8
SK2
100
AcDbLine
 10
216.9577861142997
 20
287.3064184899182
 30
0.0
 11
217.8589453111702
 21
288.2075776867887
 31
0.0
  0
LINE
  5
2C2
330
1F
100
AcDbEntity
  8
SK2
100
AcDbLine
 10
216.9619590468868
 20
287.28275262853
 30
0.0
 11
217.8529857537812
 21
288.1737793354244
 31
0.0
  0
LINE
  5
2C3
330
1F
100
AcDbEntity
  8
SK2
100
AcDbLine
 10
216.9661319794739
 20
287.2590867671418
 30
0.0
 11
217.8470261963922
 21
288.1399809840601
 31
0.0
  0
LINE
  5
2C4
330
1F
100
AcDbEntity
  8
SK2
100
AcDbLine
 10
216.9703049120611
 20
287.2354209057537
 30
0.0
 11
217.8410666390031
 21
288.1061826326956
 31
0.0
  0
LINE
  5
2C5
330
1F
100
AcDbEntity
  8
SK2
100
AcDbLine
 10
216.9744778446483
 20
287.2117550443655
 30
0.0
 11
217.8351070816141
 21
288.0723842813313
 31
0.0
  0
LINE
  5
2C6
330
1F
100
AcDbEntity
  8
SK2
100
AcDbLine
 10
216.9786507772354
 20
287.1880891829773
 30
0.0
 11
217.829147524225
 21
288.0385859299669
 31
0.0
  0
LINE
  5
2C7
330
1F
100
AcDbEntity
  8
SK2
100
AcDbLine
 10
216.9828237098226
 20
287.1644233215892
 30
0.0
 11
217.823187966836
 21
288.0047875786026
 31
0.0
  0
LINE
  5
2C8
330
1F
100
AcDbEntity
  8
SK2
100
AcDbLine
 10
216.9869966424097
 20
287.140757460201
 30
0.0
 11
217.817228409447
 21
287.9709892272383
 31
0.0
  0
LINE
  5
2C9
330
1F
100
AcDbEntity
  8
SK2
100
AcDbLine
 10
216.9911695749969
 20
287.1170915988129
 30
0.0
 11
217.8112688520579
 21
287.9371908758738
 31
0.0
  0
LINE
  5
2CA
330
1F
100
AcDbEntity
  8
SK2
100
AcDbLine
 10
216.9953425075841
 20
287.0934257374247
 30
0.0
 11
217.8053092946688
 21
287.9033925245095
 31
0.0
  0
LINE
  5
2CB
330
1F
100
AcDbEntity
  8
SK2
100
AcDbLine
 10
216.9995154401712
 20
287.0697598760365
 30
0.0
 11
217.7993497372798
 21
287.8695941731452
 31
0.0
  0
LINE
  5
2CC
330
1F
100
AcDbEntity
  8
SK2
100
AcDbLine
 10
217.0036883727584
 20
287.0460940146484
 30
0.0
 11
217.7933901798908
 21
287.8357958217808
 31
0.0
  0
LINE
  5
2CD
330
1F
100
AcDbEntity
  8
SK2
100
AcDbLine
 10
217.0078613053455
 20
287.0224281532602
 30
0.0
 11
217.7874306225017
 21
287.8019974704164
 31
0.0
  0
LINE
  5
2CE
330
1F
100
AcDbEntity
  8
SK2
100
AcDbLine
 10
217.0120342379327
 20
286.9987622918721
 30
0.0
 11
217.7814710651127
 21
287.7681991190521
 31
0.0
  0
LINE
  5
2CF
330
1F
100
AcDbEntity
  8
SK2
100
AcDbLine
 10
217.0162071705199
 20
286.9750964304839
 30
0.0
 11
217.7755115077236
 21
287.7344007676877
 31
0.0
  0
LINE
  5
2D0
330
1F
100
AcDbEntity
  8
SK2
100
AcDbLine
 10
217.020380103107
 20
286.9514305690957
 30
0.0
 11
217.7695519503346
 21
287.7006024163234
 31
0.0
  0
LINE
  5
2D1
330
1F
100
AcDbEntity
  8
SK2
100
AcDbLine
 10
217.0245530356941
 20
286.9277647077076
 30
0.0
 11
217.7635923929456
 21
287.666804064959
 31
0.0
  0
LINE
  5
2D2
330
1F
100
AcDbEntity
  8
SK2
100
AcDbLine
 10
217.0287259682813
 20
286.9040988463195
 30
0.0
 11
217.7576328355566
 21
287.6330057135947
 31
0.0
  0
LINE
  5
2D3
330
1F
100
AcDbEntity
  8
SK2
100
AcDbLine
 10
217.0328989008685
 20
286.8804329849313
 30
0.0
 11
217.7516732781675
 21
287.5992073622303
 31
0.0
  0
LINE
  5
2D4
330
1F
100
AcDbEntity
  8
SK2
100
AcDbLine
 10
217.0370718334556
 20
286.8567671235431
 30
0.0
 11
217.7457137207785
 21
287.565409010866
 31
0.0
  0
LINE
  5
2D5
330
1F
100
AcDbEntity
  8
SK2
100
AcDbLine
 10
217.0412447660428
 20
286.8331012621549
 30
0.0
 11
217.7397541633894
 21
287.5316106595016
 31
0.0
  0
LINE
  5
2D6
330
1F
100
AcDbEntity
  8
SK2
100
AcDbLine
 10
217.0454176986299
 20
286.8094354007668
 30
0.0
 11
217.7337946060003
 21
287.4978123081373
 31
0.0
  0
LINE
  5
2D7
330
1F
100
AcDbEntity
  8
SK2
100
AcDbLine
 10
217.0495906312171
 20
286.7857695393786
 30
0.0
 11
217.7278350486113
 21
287.4640139567729
 31
0.0
  0
LINE
  5
2D8
330
1F
100
AcDbEntity
  8
SK2
100
AcDbLine
 10
217.0537635638042
 20
286.7621036779905
 30
0.0
 11
217.7218754912222
 21
287.4302156054085
 31
0.0
  0
LINE
  5
2D9
330
1F
100
AcDbEntity
  8
SK2
100
AcDbLine
 10
217.0579364963914
 20
286.7384378166024
 30
0.0
 11
217.7159159338332
 21
287.3964172540441
 31
0.0
  0
LINE
  5
2DA
330
1F
100
AcDbEntity
  8
SK2
100
AcDbLine
 10
217.0621094289785
 20
286.7147719552142
 30
0.0
 11
217.7099563764442
 21
287.3626189026798
 31
0.0
  0
LINE
  5
2DB
330
1F
100
AcDbEntity
  8
SK2
100
AcDbLine
 10
217.0662823615657
 20
286.6911060938261
 30
0.0
 11
217.7039968190551
 21
287.3288205513154
 31
0.0
  0
LINE
  5
2DC
330
1F
100
AcDbEntity
  8
SK2
100
AcDbLine
 10
217.0704552941529
 20
286.6674402324379
 30
0.0
 11
217.698037261666
 21
287.2950221999511
 31
0.0
  0
LINE
  5
2DD
330
1F
100
AcDbEntity
  8
SK2
100
AcDbLine
 10
217.07462822674
 20
286.6437743710497
 30
0.0
 11
217.692077704277
 21
287.2612238485867
 31
0.0
  0
LINE
  5
2DE
330
1F
100
AcDbEntity
  8
SK2
100
AcDbLine
 10
217.0788011593272
 20
286.6201085096616
 30
0.0
 11
217.686118146888
 21
287.2274254972224
 31
0.0
  0
LINE
  5
2DF
330
1F
100
AcDbEntity
  8
SK2
100
AcDbLine
 10
217.0829740919143
 20
286.5964426482734
 30
0.0
 11
217.680158589499
 21
287.193627145858
 31
0.0
  0
LINE
  5
2E0
330
1F
100
AcDbEntity
  8
SK2
100
AcDbLine
 10
217.0871470245015
 20
286.5727767868852
 30
0.0
 11
217.6741990321099
 21
287.1598287944936
 31
0.0
  0
LINE
  5
2E1
330
1F
100
AcDbEntity
  8
SK2
100
AcDbLine
 10
217.0913199570887
 20
286.5491109254971
 30
0.0
 11
217.6682394747209
 21
287.1260304431293
 31
0.0
  0
LINE
  5
2E2
330
1F
100
AcDbEntity
  8
SK2
100
AcDbLine
 10
217.0954928896758
 20
286.5254450641089
 30
0.0
 11
217.6622799173318
 21
287.0922320917649
 31
0.0
  0
LINE
  5
2E3
330
1F
100
AcDbEntity
  8
SK2
100
AcDbLine
 10
217.099665822263
 20
286.5017792027208
 30
0.0
 11
217.6563203599428
 21
287.0584337404006
 31
0.0
  0
LINE
  5
2E4
330
1F
100
AcDbEntity
  8
SK2
100
AcDbLine
 10
217.1038387548501
 20
286.4781133413326
 30
0.0
 11
217.6503608025537
 21
287.0246353890362
 31
0.0
  0
LINE
  5
2E5
330
1F
100
AcDbEntity
  8
SK2
100
AcDbLine
 10
217.1080116874373
 20
286.4544474799444
 30
0.0
 11
217.6444012451647
 21
286.9908370376719
 31
0.0
  0
LINE
  5
2E6
330
1F
100
AcDbEntity
  8
SK2
100
AcDbLine
 10
217.1121846200244
 20
286.4307816185563
 30
0.0
 11
217.6384416877756
 21
286.9570386863075
 31
0.0
  0
LINE
  5
2E7
330
1F
100
AcDbEntity
  8
SK2
100
AcDbLine
 10
217.1163575526116
 20
286.4071157571682
 30
0.0
 11
217.6324821303866
 21
286.9232403349431
 31
0.0
  0
LINE
  5
2E8
330
1F
100
AcDbEntity
  8
SK2
100
AcDbLine
 10
217.1205304851988
 20
286.38344989578
 30
0.0
 11
217.6265225729976
 21
286.8894419835788
 31
0.0
  0
LINE
  5
2E9
330
1F
100
AcDbEntity
  8
SK2
100
AcDbLine
 10
217.1247034177859
 20
286.3597840343918
 30
0.0
 11
217.6205630156085
 21
286.8556436322144
 31
0.0
  0
LINE
  5
2EA
330
1F
100
AcDbEntity
  8
SK2
100
AcDbLine
 10
217.1288763503731
 20
286.3361181730037
 30
0.0
 11
217.6146034582195
 21
286.8218452808501
 31
0.0
  0
LINE
  5
2EB
330
1F
100
AcDbEntity
  8
SK2
100
AcDbLine
 10
217.1330492829603
 20
286.3124523116156
 30
0.0
 11
217.6086439008305
 21
286.7880469294858
 31
0.0
  0
LINE
  5
2EC
330
1F
100
AcDbEntity
  8
SK2
100
AcDbLine
 10
217.1372222155474
 20
286.2887864502274
 30
0.0
 11
217.6026843434414
 21
286.7542485781214
 31
0.0
  0
LINE
  5
2ED
330
1F
100
AcDbEntity
  8
SK2
100
AcDbLine
 10
217.1413951481345
 20
286.2651205888393
 30
0.0
 11
217.5967247860523
 21
286.7204502267569
 31
0.0
  0
LINE
  5
2EE
330
1F
100
AcDbEntity
  8
SK2
100
AcDbLine
 10
217.1455680807217
 20
286.2414547274511
 30
0.0
 11
217.5907652286633
 21
286.6866518753926
 31
0.0
  0
LINE
  5
2EF
330
1F
100
AcDbEntity
  8
SK2
100
AcDbLine
 10
217.1497410133089
 20
286.2177888660629
 30
0.0
 11
217.5848056712742
 21
286.6528535240283
 31
0.0
  0
LINE
  5
2F0
330
1F
100
AcDbEntity
  8
SK2
100
AcDbLine
 10
217.153913945896
 20
286.1941230046747
 30
0.0
 11
217.5788461138852
 21
286.6190551726639
 31
0.0
  0
LINE
  5
2F1
330
1F
100
AcDbEntity
  8
SK2
100
AcDbLine
 10
217.1580868784832
 20
286.1704571432866
 30
0.0
 11
217.5728865564962
 21
286.5852568212996
 31
0.0
  0
LINE
  5
2F2
330
1F
100
AcDbEntity
  8
SK2
100
AcDbLine
 10
217.1622598110704
 20
286.1467912818985
 30
0.0
 11
217.5669269991071
 21
286.5514584699352
 31
0.0
  0
LINE
  5
2F3
330
1F
100
AcDbEntity
  8
SK2
100
AcDbLine
 10
217.1664327436575
 20
286.1231254205103
 30
0.0
 11
217.560967441718
 21
286.5176601185708
 31
0.0
  0
LINE
  5
2F4
330
1F
100
AcDbEntity
  8
SK2
100
AcDbLine
 10
217.1706056762446
 20
286.0994595591222
 30
0.0
 11
217.555007884329
 21
286.4838617672065
 31
0.0
  0
LINE
  5
2F5
330
1F
100
AcDbEntity
  8
SK2
100
AcDbLine
 10
217.1747786088318
 20
286.075793697734
 30
0.0
 11
217.54904832694
 21
286.4500634158422
 31
0.0
  0
LINE
  5
2F6
330
1F
100
AcDbEntity
  8
SK2
100
AcDbLine
 10
217.1789515414189
 20
286.0521278363458
 30
0.0
 11
217.5430887695509
 21
286.4162650644778
 31
0.0
  0
LINE
  5
2F7
330
1F
100
AcDbEntity
  8
SK2
100
AcDbLine
 10
217.1831244740061
 20
286.0284619749576
 30
0.0
 11
217.5371292121619
 21
286.3824667131135
 31
0.0
  0
LINE
  5
2F8
330
1F
100
AcDbEntity
  8
SK2
100
AcDbLine
 10
217.1872974065933
 20
286.0047961135695
 30
0.0
 11
217.5311696547729
 21
286.3486683617491
 31
0.0
  0
LINE
  5
2F9
330
1F
100
AcDbEntity
  8
SK2
100
AcDbLine
 10
217.1914703391804
 20
285.9811302521813
 30
0.0
 11
217.5252100973838
 21
286.3148700103847
 31
0.0
  0
LINE
  5
2FA
330
1F
100
AcDbEntity
  8
SK2
100
AcDbLine
 10
217.1956432717676
 20
285.9574643907931
 30
0.0
 11
217.5192505399948
 21
286.2810716590203
 31
0.0
  0
LINE
  5
2FB
330
1F
100
AcDbEntity
  8
SK2
100
AcDbLine
 10
217.1998162043547
 20
285.9337985294049
 30
0.0
 11
217.5132909826057
 21
286.247273307656
 31
0.0
  0
LINE
  5
2FC
330
1F
100
AcDbEntity
  8
SK2
100
AcDbLine
 10
217.2039891369419
 20
285.9101326680169
 30
0.0
 11
217.5073314252167
 21
286.2134749562916
 31
0.0
  0
LINE
  5
2FD
330
1F
100
AcDbEntity
  8
SK2
100
AcDbLine
 10
217.2081620695291
 20
285.8864668066287
 30
0.0
 11
217.5013718678276
 21
286.1796766049273
 31
0.0
  0
LINE
  5
2FE
330
1F
100
AcDbEntity
  8
SK2
100
AcDbLine
 10
217.2123350021162
 20
285.8628009452405
 30
0.0
 11
217.4954123104386
 21
286.1458782535629
 31
0.0
  0
LINE
  5
2FF
330
1F
100
AcDbEntity
  8
SK2
100
AcDbLine
 10
217.2165079347033
 20
285.8391350838523
 30
0.0
 11
217.4894527530496
 21
286.1120799021986
 31
0.0
  0
LINE
  5
300
330
1F
100
AcDbEntity
  8
SK2
100
AcDbLine
 10
217.2206808672905
 20
285.8154692224642
 30
0.0
 11
217.4834931956605
 21
286.0782815508342
 31
0.0
  0
LINE
  5
301
330
1F
100
AcDbEntity
  8
SK2
100
AcDbLine
 10
217.2248537998777
 20
285.7918033610761
 30
0.0
 11
217.4775336382715
 21
286.0444831994698
 31
0.0
  0
LINE
  5
302
330
1F
100
AcDbEntity
  8
SK2
100
AcDbLine
 10
217.2290267324648
 20
285.7681374996879
 30
0.0
 11
217.4715740808824
 21
286.0106848481055
 31
0.0
  0
LINE
  5
303
330
1F
100
AcDbEntity
  8
SK2
100
AcDbLine
 10
217.233199665052
 20
285.7444716382997
 30
0.0
 11
217.4656145234934
 21
285.9768864967411
 31
0.0
  0
LINE
  5
304
330
1F
100
AcDbEntity
  8
SK2
100
AcDbLine
 10
217.2373725976392
 20
285.7208057769116
 30
0.0
 11
217.4596549661044
 21
285.9430881453768
 31
0.0
  0
LINE
  5
305
330
1F
100
AcDbEntity
  8
SK2
100
AcDbLine
 10
217.2415455302263
 20
285.6971399155234
 30
0.0
 11
217.4536954087153
 21
285.9092897940124
 31
0.0
  0
LINE
  5
306
330
1F
100
AcDbEntity
  8
SK2
100
AcDbLine
 10
217.2457184628135
 20
285.6734740541353
 30
0.0
 11
217.4477358513263
 21
285.875491442648
 31
0.0
  0
LINE
  5
307
330
1F
100
AcDbEntity
  8
SK2
100
AcDbLine
 10
217.2498913954007
 20
285.6498081927471
 30
0.0
 11
217.4417762939372
 21
285.8416930912837
 31
0.0
  0
LINE
  5
308
330
1F
100
AcDbEntity
  8
SK2
100
AcDbLine
 10
217.2540643279878
 20
285.626142331359
 30
0.0
 11
217.4358167365481
 21
285.8078947399193
 31
0.0
  0
LINE
  5
309
330
1F
100
AcDbEntity
  8
SK2
100
AcDbLine
 10
217.258237260575
 20
285.6024764699709
 30
0.0
 11
217.4298571791591
 21
285.774096388555
 31
0.0
  0
LINE
  5
30A
330
1F
100
AcDbEntity
  8
SK2
100
AcDbLine
 10
217.2624101931621
 20
285.5788106085827
 30
0.0
 11
217.4238976217701
 21
285.7402980371906
 31
0.0
  0
LINE
  5
30B
330
1F
100
AcDbEntity
  8
SK2
100
AcDbLine
 10
217.2665831257492
 20
285.5551447471945
 30
0.0
 11
217.417938064381
 21
285.7064996858262
 31
0.0
  0
LINE
  5
30C
330
1F
100
AcDbEntity
  8
SK2
100
AcDbLine
 10
217.2707560583364
 20
285.5314788858063
 30
0.0
 11
217.411978506992
 21
285.6727013344619
 31
0.0
  0
LINE
  5
30D
330
1F
100
AcDbEntity
  8
SK2
100
AcDbLine
 10
217.2749289909236
 20
285.5078130244182
 30
0.0
 11
217.4060189496029
 21
285.6389029830975
 31
0.0
  0
LINE
  5
30E
330
1F
100
AcDbEntity
  8
SK2
100
AcDbLine
 10
217.2791019235107
 20
285.4841471630301
 30
0.0
 11
217.4000593922139
 21
285.6051046317332
 31
0.0
  0
LINE
  5
30F
330
1F
100
AcDbEntity
  8
SK2
100
AcDbLine
 10
217.2832748560979
 20
285.4604813016419
 30
0.0
 11
217.3940998348248
 21
285.5713062803689
 31
0.0
  0
LINE
  5
310
330
1F
100
AcDbEntity
  8
SK2
100
AcDbLine
 10
217.2874477886851
 20
285.4368154402537
 30
0.0
 11
217.3881402774358
 21
285.5375079290045
 31
0.0
  0
LINE
  5
311
330
1F
100
AcDbEntity
  8
SK2
100
AcDbLine
 10
217.2916207212722
 20
285.4131495788656
 30
0.0
 11
217.3821807200468
 21
285.5037095776401
 31
0.0
  0
LINE
  5
312
330
1F
100
AcDbEntity
  8
SK2
100
AcDbLine
 10
217.2957936538594
 20
285.3894837174774
 30
0.0
 11
217.3762211626577
 21
285.4699112262758
 31
0.0
  0
LINE
  5
313
330
1F
100
AcDbEntity
  8
SK2
100
AcDbLine
 10
217.2999665864465
 20
285.3658178560892
 30
0.0
 11
217.3702616052687
 21
285.4361128749114
 31
0.0
  0
LINE
  5
314
330
1F
100
AcDbEntity
  8
SK2
100
AcDbLine
 10
217.3041395190337
 20
285.3421519947011
 30
0.0
 11
217.3643020478796
 21
285.4023145235471
 31
0.0
  0
LINE
  5
315
330
1F
100
AcDbEntity
  8
SK2
100
AcDbLine
 10
217.3083124516208
 20
285.3184861333129
 30
0.0
 11
217.3583424904906
 21
285.3685161721827
 31
0.0
  0
LINE
  5
316
330
1F
100
AcDbEntity
  8
SK2
100
AcDbLine
 10
217.312485384208
 20
285.2948202719248
 30
0.0
 11
217.3523829331015
 21
285.3347178208183
 31
0.0
  0
LINE
  5
317
330
1F
100
AcDbEntity
  8
SK2
100
AcDbLine
 10
217.3166583167951
 20
285.2711544105366
 30
0.0
 11
217.3464233757125
 21
285.300919469454
 31
0.0
  0
LINE
  5
318
330
1F
100
AcDbEntity
  8
SK2
100
AcDbLine
 10
217.3208312493823
 20
285.2474885491485
 30
0.0
 11
217.3404638183235
 21
285.2671211180896
 31
0.0
  0
LINE
  5
319
330
1F
100
AcDbEntity
  8
SK2
100
AcDbLine
 10
217.3250041819695
 20
285.2238226877603
 30
0.0
 11
217.3345042609344
 21
285.2333227667252
 31
0.0
  0
LINE
  5
31A
330
1F
100
AcDbEntity
  8
SK2
100
AcDbLine
 10
217.3260302081796
 20
305.1852639942708
 30
0.0
 11
217.3309377855205
 21
305.1901715716117
 31
0.0
  0
LINE
  5
31B
330
1F
100
AcDbEntity
  8
SK2
100
AcDbLine
 10
217.3200706507905
 20
305.1514656429064
 30
0.0
 11
217.3351107181076
 21
305.1665057102235
 31
0.0
  0
LINE
  5
31C
330
1F
100
AcDbEntity
  8
SK2
100
AcDbLine
 10
217.3141110934015
 20
305.1176672915421
 30
0.0
 11
217.3392836506948
 21
305.1428398488354
 31
0.0
  0
LINE
  5
31D
330
1F
100
AcDbEntity
  8
SK2
100
AcDbLine
 10
217.3081515360124
 20
305.0838689401777
 30
0.0
 11
217.3434565832819
 21
305.1191739874472
 31
0.0
  0
LINE
  5
31E
330
1F
100
AcDbEntity
  8
SK2
100
AcDbLine
 10
217.3021919786233
 20
305.0500705888133
 30
0.0
 11
217.3476295158691
 21
305.0955081260591
 31
0.0
  0
LINE
  5
31F
330
1F
100
AcDbEntity
  8
SK2
100
AcDbLine
 10
217.2962324212343
 20
305.016272237449
 30
0.0
 11
217.3518024484563
 21
305.0718422646709
 31
0.0
  0
LINE
  5
320
330
1F
100
AcDbEntity
  8
SK2
100
AcDbLine
 10
217.2902728638453
 20
304.9824738860846
 30
0.0
 11
217.3559753810434
 21
305.0481764032828
 31
0.0
  0
LINE
  5
321
330
1F
100
AcDbEntity
  8
SK2
100
AcDbLine
 10
217.2843133064562
 20
304.9486755347202
 30
0.0
 11
217.3601483136306
 21
305.0245105418946
 31
0.0
  0
LINE
  5
322
330
1F
100
AcDbEntity
  8
SK2
100
AcDbLine
 10
217.2783537490672
 20
304.9148771833559
 30
0.0
 11
217.3643212462177
 21
305.0008446805064
 31
0.0
  0
LINE
  5
323
330
1F
100
AcDbEntity
  8
SK2
100
AcDbLine
 10
217.2723941916782
 20
304.8810788319916
 30
0.0
 11
217.3684941788049
 21
304.9771788191182
 31
0.0
  0
LINE
  5
324
330
1F
100
AcDbEntity
  8
SK2
100
AcDbLine
 10
217.2664346342891
 20
304.8472804806272
 30
0.0
 11
217.3726671113921
 21
304.9535129577301
 31
0.0
  0
LINE
  5
325
330
1F
100
AcDbEntity
  8
SK2
100
AcDbLine
 10
217.2604750769
 20
304.8134821292628
 30
0.0
 11
217.3768400439792
 21
304.929847096342
 31
0.0
  0
LINE
  5
326
330
1F
100
AcDbEntity
  8
SK2
100
AcDbLine
 10
217.254515519511
 20
304.7796837778984
 30
0.0
 11
217.3810129765664
 21
304.9061812349538
 31
0.0
  0
LINE
  5
327
330
1F
100
AcDbEntity
  8
SK2
100
AcDbLine
 10
217.248555962122
 20
304.7458854265341
 30
0.0
 11
217.3851859091535
 21
304.8825153735656
 31
0.0
  0
LINE
  5
328
330
1F
100
AcDbEntity
  8
SK2
100
AcDbLine
 10
217.242596404733
 20
304.7120870751697
 30
0.0
 11
217.3893588417407
 21
304.8588495121775
 31
0.0
  0
LINE
  5
329
330
1F
100
AcDbEntity
  8
SK2
100
AcDbLine
 10
217.2366368473439
 20
304.6782887238054
 30
0.0
 11
217.3935317743278
 21
304.8351836507893
 31
0.0
  0
LINE
  5
32A
330
1F
100
AcDbEntity
  8
SK2
100
AcDbLine
 10
217.2306772899548
 20
304.644490372441
 30
0.0
 11
217.3977047069151
 21
304.8115177894012
 31
0.0
  0
LINE
  5
32B
330
1F
100
AcDbEntity
  8
SK2
100
AcDbLine
 10
217.2247177325658
 20
304.6106920210767
 30
0.0
 11
217.4018776395021
 21
304.787851928013
 31
0.0
  0
LINE
  5
32C
330
1F
100
AcDbEntity
  8
SK2
100
AcDbLine
 10
217.2187581751767
 20
304.5768936697123
 30
0.0
 11
217.4060505720893
 21
304.7641860666249
 31
0.0
  0
LINE
  5
32D
330
1F
100
AcDbEntity
  8
SK2
100
AcDbLine
 10
217.2127986177876
 20
304.5430953183479
 30
0.0
 11
217.4102235046765
 21
304.7405202052368
 31
0.0
  0
LINE
  5
32E
330
1F
100
AcDbEntity
  8
SK2
100
AcDbLine
 10
217.2068390603986
 20
304.5092969669836
 30
0.0
 11
217.4143964372636
 21
304.7168543438486
 31
0.0
  0
LINE
  5
32F
330
1F
100
AcDbEntity
  8
SK2
100
AcDbLine
 10
217.2008795030096
 20
304.4754986156192
 30
0.0
 11
217.4185693698508
 21
304.6931884824604
 31
0.0
  0
LINE
  5
330
330
1F
100
AcDbEntity
  8
SK2
100
AcDbLine
 10
217.1949199456205
 20
304.4417002642548
 30
0.0
 11
217.422742302438
 21
304.6695226210723
 31
0.0
  0
LINE
  5
331
330
1F
100
AcDbEntity
  8
SK2
100
AcDbLine
 10
217.1889603882315
 20
304.4079019128905
 30
0.0
 11
217.4269152350251
 21
304.6458567596841
 31
0.0
  0
LINE
  5
332
330
1F
100
AcDbEntity
  8
SK2
100
AcDbLine
 10
217.1830008308425
 20
304.3741035615262
 30
0.0
 11
217.4310881676122
 21
304.6221908982959
 31
0.0
  0
LINE
  5
333
330
1F
100
AcDbEntity
  8
SK2
100
AcDbLine
 10
217.1770412734534
 20
304.3403052101618
 30
0.0
 11
217.4352611001994
 21
304.5985250369077
 31
0.0
  0
LINE
  5
334
330
1F
100
AcDbEntity
  8
SK2
100
AcDbLine
 10
217.1710817160644
 20
304.3065068587974
 30
0.0
 11
217.4394340327865
 21
304.5748591755196
 31
0.0
  0
LINE
  5
335
330
1F
100
AcDbEntity
  8
SK2
100
AcDbLine
 10
217.1651221586753
 20
304.272708507433
 30
0.0
 11
217.4436069653737
 21
304.5511933141314
 31
0.0
  0
LINE
  5
336
330
1F
100
AcDbEntity
  8
SK2
100
AcDbLine
 10
217.1591626012863
 20
304.2389101560687
 30
0.0
 11
217.4477798979609
 21
304.5275274527433
 31
0.0
  0
LINE
  5
337
330
1F
100
AcDbEntity
  8
SK2
100
AcDbLine
 10
217.1532030438973
 20
304.2051118047043
 30
0.0
 11
217.4519528305481
 21
304.5038615913551
 31
0.0
  0
LINE
  5
338
330
1F
100
AcDbEntity
  8
SK2
100
AcDbLine
 10
217.1472434865083
 20
304.17131345334
 30
0.0
 11
217.4561257631352
 21
304.480195729967
 31
0.0
  0
LINE
  5
339
330
1F
100
AcDbEntity
  8
SK2
100
AcDbLine
 10
217.1412839291192
 20
304.1375151019756
 30
0.0
 11
217.4602986957224
 21
304.4565298685788
 31
0.0
  0
LINE
  5
33A
330
1F
100
AcDbEntity
  8
SK2
100
AcDbLine
 10
217.1353243717302
 20
304.1037167506113
 30
0.0
 11
217.4644716283095
 21
304.4328640071906
 31
0.0
  0
LINE
  5
33B
330
1F
100
AcDbEntity
  8
SK2
100
AcDbLine
 10
217.1293648143411
 20
304.0699183992469
 30
0.0
 11
217.4686445608966
 21
304.4091981458025
 31
0.0
  0
LINE
  5
33C
330
1F
100
AcDbEntity
  8
SK2
100
AcDbLine
 10
217.123405256952
 20
304.0361200478826
 30
0.0
 11
217.4728174934838
 21
304.3855322844144
 31
0.0
  0
LINE
  5
33D
330
1F
100
AcDbEntity
  8
SK2
100
AcDbLine
 10
217.117445699563
 20
304.0023216965181
 30
0.0
 11
217.476990426071
 21
304.3618664230262
 31
0.0
  0
LINE
  5
33E
330
1F
100
AcDbEntity
  8
SK2
100
AcDbLine
 10
217.1114861421739
 20
303.9685233451539
 30
0.0
 11
217.4811633586581
 21
304.338200561638
 31
0.0
  0
LINE
  5
33F
330
1F
100
AcDbEntity
  8
SK2
100
AcDbLine
 10
217.1055265847849
 20
303.9347249937895
 30
0.0
 11
217.4853362912452
 21
304.3145347002499
 31
0.0
  0
LINE
  5
340
330
1F
100
AcDbEntity
  8
SK2
100
AcDbLine
 10
217.0995670273959
 20
303.9009266424252
 30
0.0
 11
217.4895092238324
 21
304.2908688388617
 31
0.0
  0
LINE
  5
341
330
1F
100
AcDbEntity
  8
SK2
100
AcDbLine
 10
217.0936074700068
 20
303.8671282910608
 30
0.0
 11
217.4936821564196
 21
304.2672029774736
 31
0.0
  0
LINE
  5
342
330
1F
100
AcDbEntity
  8
SK2
100
AcDbLine
 10
217.0876479126178
 20
303.8333299396965
 30
0.0
 11
217.4978550890068
 21
304.2435371160854
 31
0.0
  0
LINE
  5
343
330
1F
100
AcDbEntity
  8
SK2
100
AcDbLine
 10
217.0816883552287
 20
303.7995315883321
 30
0.0
 11
217.5020280215939
 21
304.2198712546972
 31
0.0
  0
LINE
  5
344
330
1F
100
AcDbEntity
  8
SK2
100
AcDbLine
 10
217.0757287978397
 20
303.7657332369677
 30
0.0
 11
217.506200954181
 21
304.1962053933091
 31
0.0
  0
LINE
  5
345
330
1F
100
AcDbEntity
  8
SK2
100
AcDbLine
 10
217.0697692404506
 20
303.7319348856033
 30
0.0
 11
217.5103738867682
 21
304.1725395319209
 31
0.0
  0
LINE
  5
346
330
1F
100
AcDbEntity
  8
SK2
100
AcDbLine
 10
217.0638096830616
 20
303.698136534239
 30
0.0
 11
217.5145468193554
 21
304.1488736705328
 31
0.0
  0
LINE
  5
347
330
1F
100
AcDbEntity
  8
SK2
100
AcDbLine
 10
217.0578501256725
 20
303.6643381828746
 30
0.0
 11
217.5187197519426
 21
304.1252078091446
 31
0.0
  0
LINE
  5
348
330
1F
100
AcDbEntity
  8
SK2
100
AcDbLine
 10
217.0518905682835
 20
303.6305398315103
 30
0.0
 11
217.5228926845297
 21
304.1015419477564
 31
0.0
  0
LINE
  5
349
330
1F
100
AcDbEntity
  8
SK2
100
AcDbLine
 10
217.0459310108945
 20
303.5967414801459
 30
0.0
 11
217.5270656171169
 21
304.0778760863683
 31
0.0
  0
LINE
  5
34A
330
1F
100
AcDbEntity
  8
SK2
100
AcDbLine
 10
217.0399714535055
 20
303.5629431287816
 30
0.0
 11
217.531238549704
 21
304.0542102249801
 31
0.0
  0
LINE
  5
34B
330
1F
100
AcDbEntity
  8
SK2
100
AcDbLine
 10
217.0340118961164
 20
303.5291447774172
 30
0.0
 11
217.5354114822912
 21
304.030544363592
 31
0.0
  0
LINE
  5
34C
330
1F
100
AcDbEntity
  8
SK2
100
AcDbLine
 10
217.0280523387273
 20
303.4953464260528
 30
0.0
 11
217.5395844148782
 21
304.0068785022037
 31
0.0
  0
LINE
  5
34D
330
1F
100
AcDbEntity
  8
SK2
100
AcDbLine
 10
217.0220927813383
 20
303.4615480746885
 30
0.0
 11
217.5437573474654
 21
303.9832126408156
 31
0.0
  0
LINE
  5
34E
330
1F
100
AcDbEntity
  8
SK2
100
AcDbLine
 10
217.0161332239493
 20
303.4277497233241
 30
0.0
 11
217.5479302800527
 21
303.9595467794275
 31
0.0
  0
LINE
  5
34F
330
1F
100
AcDbEntity
  8
SK2
100
AcDbLine
 10
217.0101736665602
 20
303.3939513719597
 30
0.0
 11
217.5521032126398
 21
303.9358809180393
 31
0.0
  0
LINE
  5
350
330
1F
100
AcDbEntity
  8
SK2
100
AcDbLine
 10
217.0042141091712
 20
303.3601530205954
 30
0.0
 11
217.556276145227
 21
303.9122150566512
 31
0.0
  0
LINE
  5
351
330
1F
100
AcDbEntity
  8
SK2
100
AcDbLine
 10
216.9982545517822
 20
303.3263546692311
 30
0.0
 11
217.5604490778141
 21
303.8885491952631
 31
0.0
  0
LINE
  5
352
330
1F
100
AcDbEntity
  8
SK2
100
AcDbLine
 10
216.9922949943931
 20
303.2925563178667
 30
0.0
 11
217.5646220104013
 21
303.8648833338749
 31
0.0
  0
LINE
  5
353
330
1F
100
AcDbEntity
  8
SK2
100
AcDbLine
 10
216.986335437004
 20
303.2587579665024
 30
0.0
 11
217.5687949429884
 21
303.8412174724868
 31
0.0
  0
LINE
  5
354
330
1F
100
AcDbEntity
  8
SK2
100
AcDbLine
 10
216.980375879615
 20
303.224959615138
 30
0.0
 11
217.5729678755756
 21
303.8175516110986
 31
0.0
  0
LINE
  5
355
330
1F
100
AcDbEntity
  8
SK2
100
AcDbLine
 10
216.9744163222259
 20
303.1911612637736
 30
0.0
 11
217.5771408081627
 21
303.7938857497104
 31
0.0
  0
LINE
  5
356
330
1F
100
AcDbEntity
  8
SK2
100
AcDbLine
 10
216.9684567648369
 20
303.1573629124093
 30
0.0
 11
217.5813137407499
 21
303.7702198883223
 31
0.0
  0
LINE
  5
357
330
1F
100
AcDbEntity
  8
SK2
100
AcDbLine
 10
216.9624972074479
 20
303.1235645610449
 30
0.0
 11
217.5854866733371
 21
303.7465540269341
 31
0.0
  0
LINE
  5
358
330
1F
100
AcDbEntity
  8
SK2
100
AcDbLine
 10
216.9565376500588
 20
303.0897662096805
 30
0.0
 11
217.5896596059242
 21
303.722888165546
 31
0.0
  0
LINE
  5
359
330
1F
100
AcDbEntity
  8
SK2
100
AcDbLine
 10
216.9505780926697
 20
303.0559678583162
 30
0.0
 11
217.5938325385114
 21
303.6992223041578
 31
0.0
  0
LINE
  5
35A
330
1F
100
AcDbEntity
  8
SK2
100
AcDbLine
 10
216.9446185352807
 20
303.0221695069518
 30
0.0
 11
217.5980054710985
 21
303.6755564427696
 31
0.0
  0
LINE
  5
35B
330
1F
100
AcDbEntity
  8
SK2
100
AcDbLine
 10
216.9386589778917
 20
302.9883711555874
 30
0.0
 11
217.6021784036857
 21
303.6518905813815
 31
0.0
  0
LINE
  5
35C
330
1F
100
AcDbEntity
  8
SK2
100
AcDbLine
 10
216.9326994205027
 20
302.9545728042231
 30
0.0
 11
217.6063513362728
 21
303.6282247199933
 31
0.0
  0
LINE
  5
35D
330
1F
100
AcDbEntity
  8
SK2
100
AcDbLine
 10
216.9267398631137
 20
302.9207744528588
 30
0.0
 11
217.61052426886
 21
303.6045588586051
 31
0.0
  0
LINE
  5
35E
330
1F
100
AcDbEntity
  8
SK2
100
AcDbLine
 10
216.9207803057245
 20
302.8869761014943
 30
0.0
 11
217.6146972014471
 21
303.580892997217
 31
0.0
  0
LINE
  5
35F
330
1F
100
AcDbEntity
  8
SK2
100
AcDbLine
 10
216.9148207483355
 20
302.85317775013
 30
0.0
 11
217.6188701340343
 21
303.5572271358288
 31
0.0
  0
LINE
  5
360
330
1F
100
AcDbEntity
  8
SK2
100
AcDbLine
 10
216.9088611909465
 20
302.8193793987656
 30
0.0
 11
217.6230430666215
 21
303.5335612744407
 31
0.0
  0
LINE
  5
361
330
1F
100
AcDbEntity
  8
SK2
100
AcDbLine
 10
216.9029016335574
 20
302.7855810474012
 30
0.0
 11
217.6272159992086
 21
303.5098954130525
 31
0.0
  0
LINE
  5
362
330
1F
100
AcDbEntity
  8
SK2
100
AcDbLine
 10
216.8969420761683
 20
302.7517826960369
 30
0.0
 11
217.6313889317958
 21
303.4862295516643
 31
0.0
  0
LINE
  5
363
330
1F
100
AcDbEntity
  8
SK2
100
AcDbLine
 10
216.8909825187793
 20
302.7179843446726
 30
0.0
 11
217.6355618643829
 21
303.4625636902762
 31
0.0
  0
LINE
  5
364
330
1F
100
AcDbEntity
  8
SK2
100
AcDbLine
 10
216.8850229613903
 20
302.6841859933082
 30
0.0
 11
217.6397347969701
 21
303.438897828888
 31
0.0
  0
LINE
  5
365
330
1F
100
AcDbEntity
  8
SK2
100
AcDbLine
 10
216.8790634040012
 20
302.6503876419439
 30
0.0
 11
217.6439077295572
 21
303.4152319674999
 31
0.0
  0
LINE
  5
366
330
1F
100
AcDbEntity
  8
SK2
100
AcDbLine
 10
216.8731038466122
 20
302.6165892905796
 30
0.0
 11
217.6480806621444
 21
303.3915661061117
 31
0.0
  0
LINE
  5
367
330
1F
100
AcDbEntity
  8
SK2
100
AcDbLine
 10
216.8671442892231
 20
302.5827909392152
 30
0.0
 11
217.6522535947315
 21
303.3679002447235
 31
0.0
  0
LINE
  5
368
330
1F
100
AcDbEntity
  8
SK2
100
AcDbLine
 10
216.8611847318341
 20
302.5489925878508
 30
0.0
 11
217.6564265273187
 21
303.3442343833354
 31
0.0
  0
LINE
  5
369
330
1F
100
AcDbEntity
  8
SK2
100
AcDbLine
 10
216.8552251744451
 20
302.5151942364865
 30
0.0
 11
217.6605994599058
 21
303.3205685219472
 31
0.0
  0
LINE
  5
36A
330
1F
100
AcDbEntity
  8
SK2
100
AcDbLine
 10
216.849265617056
 20
302.4813958851221
 30
0.0
 11
217.664772392493
 21
303.2969026605591
 31
0.0
  0
LINE
  5
36B
330
1F
100
AcDbEntity
  8
SK2
100
AcDbLine
 10
216.843306059667
 20
302.4475975337578
 30
0.0
 11
217.6689453250802
 21
303.2732367991709
 31
0.0
  0
LINE
  5
36C
330
1F
100
AcDbEntity
  8
SK2
100
AcDbLine
 10
216.8373465022779
 20
302.4137991823934
 30
0.0
 11
217.6731182576673
 21
303.2495709377828
 31
0.0
  0
LINE
  5
36D
330
1F
100
AcDbEntity
  8
SK2
100
AcDbLine
 10
216.8313869448889
 20
302.380000831029
 30
0.0
 11
217.6772911902545
 21
303.2259050763946
 31
0.0
  0
LINE
  5
36E
330
1F
100
AcDbEntity
  8
SK2
100
AcDbLine
 10
216.8254273874999
 20
302.3462024796647
 30
0.0
 11
217.6814641228416
 21
303.2022392150064
 31
0.0
  0
LINE
  5
36F
330
1F
100
AcDbEntity
  8
SK2
100
AcDbLine
 10
216.8194678301109
 20
302.3124041283003
 30
0.0
 11
217.6856370554288
 21
303.1785733536183
 31
0.0
  0
LINE
  5
370
330
1F
100
AcDbEntity
  8
SK2
100
AcDbLine
 10
216.8135082727218
 20
302.2786057769359
 30
0.0
 11
217.689809988016
 21
303.1549074922302
 31
0.0
  0
LINE
  5
371
330
1F
100
AcDbEntity
  8
SK2
100
AcDbLine
 10
216.8075487153327
 20
302.2448074255716
 30
0.0
 11
217.6939829206032
 21
303.131241630842
 31
0.0
  0
LINE
  5
372
330
1F
100
AcDbEntity
  8
SK2
100
AcDbLine
 10
216.8015891579436
 20
302.2110090742072
 30
0.0
 11
217.6981558531903
 21
303.1075757694538
 31
0.0
  0
LINE
  5
373
330
1F
100
AcDbEntity
  8
SK2
100
AcDbLine
 10
216.7956296005546
 20
302.1772107228429
 30
0.0
 11
217.7023287857775
 21
303.0839099080657
 31
0.0
  0
LINE
  5
374
330
1F
100
AcDbEntity
  8
SK2
100
AcDbLine
 10
216.7896700431656
 20
302.1434123714785
 30
0.0
 11
217.7065017183646
 21
303.0602440466775
 31
0.0
  0
LINE
  5
375
330
1F
100
AcDbEntity
  8
SK2
100
AcDbLine
 10
216.7837104857766
 20
302.1096140201141
 30
0.0
 11
217.7106746509518
 21
303.0365781852894
 31
0.0
  0
LINE
  5
376
330
1F
100
AcDbEntity
  8
SK2
100
AcDbLine
 10
216.7777509283875
 20
302.0758156687497
 30
0.0
 11
217.714847583539
 21
303.0129123239012
 31
0.0
  0
LINE
  5
377
330
1F
100
AcDbEntity
  8
SK2
100
AcDbLine
 10
216.7717913709985
 20
302.0420173173854
 30
0.0
 11
217.719020516126
 21
302.9892464625131
 31
0.0
  0
LINE
  5
378
330
1F
100
AcDbEntity
  8
SK2
100
AcDbLine
 10
216.7658318136094
 20
302.0082189660211
 30
0.0
 11
217.7231934487132
 21
302.9655806011249
 31
0.0
  0
LINE
  5
379
330
1F
100
AcDbEntity
  8
SK2
100
AcDbLine
 10
216.7598722562203
 20
301.9744206146567
 30
0.0
 11
217.7273663813003
 21
302.9419147397367
 31
0.0
  0
LINE
  5
37A
330
1F
100
AcDbEntity
  8
SK2
100
AcDbLine
 10
216.7539126988313
 20
301.9406222632924
 30
0.0
 11
217.7315393138875
 21
302.9182488783486
 31
0.0
  0
LINE
  5
37B
330
1F
100
AcDbEntity
  8
SK2
100
AcDbLine
 10
216.7479531414423
 20
301.906823911928
 30
0.0
 11
217.7357122464747
 21
302.8945830169604
 31
0.0
  0
LINE
  5
37C
330
1F
100
AcDbEntity
  8
SK2
100
AcDbLine
 10
216.7419935840532
 20
301.8730255605636
 30
0.0
 11
217.7398851790619
 21
302.8709171555723
 31
0.0
  0
LINE
  5
37D
330
1F
100
AcDbEntity
  8
SK2
100
AcDbLine
 10
216.7360340266642
 20
301.8392272091993
 30
0.0
 11
217.744058111649
 21
302.8472512941841
 31
0.0
  0
LINE
  5
37E
330
1F
100
AcDbEntity
  8
SK2
100
AcDbLine
 10
216.7300744692752
 20
301.8054288578349
 30
0.0
 11
217.7482310442362
 21
302.823585432796
 31
0.0
  0
LINE
  5
37F
330
1F
100
AcDbEntity
  8
SK2
100
AcDbLine
 10
216.7241149118861
 20
301.7716305064706
 30
0.0
 11
217.7524039768233
 21
302.7999195714078
 31
0.0
  0
LINE
  5
380
330
1F
100
AcDbEntity
  8
SK2
100
AcDbLine
 10
216.718155354497
 20
301.7378321551062
 30
0.0
 11
217.7565769094105
 21
302.7762537100197
 31
0.0
  0
LINE
  5
381
330
1F
100
AcDbEntity
  8
SK2
100
AcDbLine
 10
216.712195797108
 20
301.7040338037419
 30
0.0
 11
217.7607498419977
 21
302.7525878486315
 31
0.0
  0
LINE
  5
382
330
1F
100
AcDbEntity
  8
SK2
100
AcDbLine
 10
216.7376325270402
 20
301.7016317396987
 30
0.0
 11
217.7649227745848
 21
302.7289219872433
 31
0.0
  0
LINE
  5
383
330
1F
100
AcDbEntity
  8
SK2
100
AcDbLine
 10
216.7654714232735
 20
301.7016318419567
 30
0.0
 11
217.769095707172
 21
302.7052561258551
 31
0.0
  0
LINE
  5
384
330
1F
100
AcDbEntity
  8
SK2
100
AcDbLine
 10
216.7933103195067
 20
301.7016319442145
 30
0.0
 11
217.7732686397591
 21
302.681590264467
 31
0.0
  0
LINE
  5
385
330
1F
100
AcDbEntity
  8
SK2
100
AcDbLine
 10
216.8211492157401
 20
301.7016320464727
 30
0.0
 11
217.7774415723463
 21
302.6579244030788
 31
0.0
  0
LINE
  5
386
330
1F
100
AcDbEntity
  8
SK2
100
AcDbLine
 10
216.8489881119733
 20
301.7016321487306
 30
0.0
 11
217.7816145049334
 21
302.6342585416907
 31
0.0
  0
LINE
  5
387
330
1F
100
AcDbEntity
  8
SK2
100
AcDbLine
 10
216.8768270082066
 20
301.7016322509885
 30
0.0
 11
217.7857874375205
 21
302.6105926803025
 31
0.0
  0
LINE
  5
388
330
1F
100
AcDbEntity
  8
SK2
100
AcDbLine
 10
216.9046659044399
 20
301.7016323532465
 30
0.0
 11
217.7899603701077
 21
302.5869268189143
 31
0.0
  0
LINE
  5
389
330
1F
100
AcDbEntity
  8
SK2
100
AcDbLine
 10
216.9325048006732
 20
301.7016324555045
 30
0.0
 11
217.7941333026949
 21
302.5632609575262
 31
0.0
  0
LINE
  5
38A
330
1F
100
AcDbEntity
  8
SK2
100
AcDbLine
 10
216.9603436969064
 20
301.7016325577624
 30
0.0
 11
217.7983062352821
 21
302.5395950961381
 31
0.0
  0
LINE
  5
38B
330
1F
100
AcDbEntity
  8
SK2
100
AcDbLine
 10
216.9881825931398
 20
301.7016326600205
 30
0.0
 11
217.8024791678692
 21
302.5159292347499
 31
0.0
  0
LINE
  5
38C
330
1F
100
AcDbEntity
  8
SK2
100
AcDbLine
 10
217.0160214893731
 20
301.7016327622784
 30
0.0
 11
217.8066521004564
 21
302.4922633733618
 31
0.0
  0
LINE
  5
38D
330
1F
100
AcDbEntity
  8
SK2
100
AcDbLine
 10
217.0438603856063
 20
301.7016328645364
 30
0.0
 11
217.8108250330435
 21
302.4685975119736
 31
0.0
  0
LINE
  5
38E
330
1F
100
AcDbEntity
  8
SK2
100
AcDbLine
 10
217.0716992818396
 20
301.7016329667944
 30
0.0
 11
217.8149979656307
 21
302.4449316505855
 31
0.0
  0
LINE
  5
38F
330
1F
100
AcDbEntity
  8
SK2
100
AcDbLine
 10
217.0995381780729
 20
301.7016330690524
 30
0.0
 11
217.8191708982178
 21
302.4212657891973
 31
0.0
  0
LINE
  5
390
330
1F
100
AcDbEntity
  8
SK2
100
AcDbLine
 10
217.1273770743062
 20
301.7016331713104
 30
0.0
 11
217.8233438308049
 21
302.3975999278091
 31
0.0
  0
LINE
  5
391
330
1F
100
AcDbEntity
  8
SK2
100
AcDbLine
 10
217.1552159705395
 20
301.7016332735683
 30
0.0
 11
217.8275167633921
 21
302.3739340664209
 31
0.0
  0
LINE
  5
392
330
1F
100
AcDbEntity
  8
SK2
100
AcDbLine
 10
217.1830548667728
 20
301.7016333758263
 30
0.0
 11
217.8316896959793
 21
302.3502682050328
 31
0.0
  0
LINE
  5
393
330
1F
100
AcDbEntity
  8
SK2
100
AcDbLine
 10
217.2108937630061
 20
301.7016334780842
 30
0.0
 11
217.8358626285665
 21
302.3266023436447
 31
0.0
  0
LINE
  5
394
330
1F
100
AcDbEntity
  8
SK2
100
AcDbLine
 10
217.2387326592394
 20
301.7016335803423
 30
0.0
 11
217.8400355611536
 21
302.3029364822564
 31
0.0
  0
LINE
  5
395
330
1F
100
AcDbEntity
  8
SK2
100
AcDbLine
 10
217.2665715554727
 20
301.7016336826003
 30
0.0
 11
217.8442084937408
 21
302.2792706208683
 31
0.0
  0
LINE
  5
396
330
1F
100
AcDbEntity
  8
SK2
100
AcDbLine
 10
217.294410451706
 20
301.7016337848582
 30
0.0
 11
217.8483814263279
 21
302.2556047594802
 31
0.0
  0
LINE
  5
397
330
1F
100
AcDbEntity
  8
SK2
100
AcDbLine
 10
217.3222493479392
 20
301.7016338871162
 30
0.0
 11
217.8525543589151
 21
302.231938898092
 31
0.0
  0
LINE
  5
398
330
1F
100
AcDbEntity
  8
SK2
100
AcDbLine
 10
217.3500882441725
 20
301.7016339893741
 30
0.0
 11
217.8567272915022
 21
302.2082730367039
 31
0.0
  0
LINE
  5
399
330
1F
100
AcDbEntity
  8
SK2
100
AcDbLine
 10
217.3779271404058
 20
301.7016340916321
 30
0.0
 11
217.8609002240894
 21
302.1846071753157
 31
0.0
  0
LINE
  5
39A
330
1F
100
AcDbEntity
  8
SK2
100
AcDbLine
 10
217.4057660366391
 20
301.7016341938901
 30
0.0
 11
217.8650731566766
 21
302.1609413139275
 31
0.0
  0
LINE
  5
39B
330
1F
100
AcDbEntity
  8
SK2
100
AcDbLine
 10
217.4336049328724
 20
301.701634296148
 30
0.0
 11
217.8692460892637
 21
302.1372754525394
 31
0.0
  0
LINE
  5
39C
330
1F
100
AcDbEntity
  8
SK2
100
AcDbLine
 10
217.4614438291057
 20
301.7016343984061
 30
0.0
 11
217.8734190218508
 21
302.1136095911511
 31
0.0
  0
LINE
  5
39D
330
1F
100
AcDbEntity
  8
SK2
100
AcDbLine
 10
217.489282725339
 20
301.701634500664
 30
0.0
 11
217.877591954438
 21
302.089943729763
 31
0.0
  0
LINE
  5
39E
330
1F
100
AcDbEntity
  8
SK2
100
AcDbLine
 10
217.5171216215723
 20
301.701634602922
 30
0.0
 11
217.8817648870253
 21
302.066277868375
 31
0.0
  0
LINE
  5
39F
330
1F
100
AcDbEntity
  8
SK2
100
AcDbLine
 10
217.5449605178056
 20
301.70163470518
 30
0.0
 11
217.8859378196124
 21
302.0426120069868
 31
0.0
  0
LINE
  5
3A0
330
1F
100
AcDbEntity
  8
SK2
100
AcDbLine
 10
217.5727994140388
 20
301.7016348074379
 30
0.0
 11
217.8901107521995
 21
302.0189461455986
 31
0.0
  0
LINE
  5
3A1
330
1F
100
AcDbEntity
  8
SK2
100
AcDbLine
 10
217.6006383102721
 20
301.7016349096959
 30
0.0
 11
217.8942836847866
 21
301.9952802842104
 31
0.0
  0
LINE
  5
3A2
330
1F
100
AcDbEntity
  8
SK2
100
AcDbLine
 10
217.6284772065055
 20
301.7016350119539
 30
0.0
 11
217.8984566173738
 21
301.9716144228223
 31
0.0
  0
LINE
  5
3A3
330
1F
100
AcDbEntity
  8
SK2
100
AcDbLine
 10
217.6563161027387
 20
301.7016351142119
 30
0.0
 11
217.902629549961
 21
301.9479485614342
 31
0.0
  0
LINE
  5
3A4
330
1F
100
AcDbEntity
  8
SK2
100
AcDbLine
 10
217.684154998972
 20
301.7016352164698
 30
0.0
 11
217.9068024825481
 21
301.924282700046
 31
0.0
  0
LINE
  5
3A5
330
1F
100
AcDbEntity
  8
SK2
100
AcDbLine
 10
217.7119938952053
 20
301.7016353187278
 30
0.0
 11
217.9109754151353
 21
301.9006168386578
 31
0.0
  0
LINE
  5
3A6
330
1F
100
AcDbEntity
  8
SK2
100
AcDbLine
 10
217.7398327914386
 20
301.7016354209858
 30
0.0
 11
217.9151483477224
 21
301.8769509772696
 31
0.0
  0
LINE
  5
3A7
330
1F
100
AcDbEntity
  8
SK2
100
AcDbLine
 10
217.7676716876719
 20
301.7016355232438
 30
0.0
 11
217.9193212803096
 21
301.8532851158815
 31
0.0
  0
LINE
  5
3A8
330
1F
100
AcDbEntity
  8
SK2
100
AcDbLine
 10
217.7955105839052
 20
301.7016356255017
 30
0.0
 11
217.9234942128968
 21
301.8296192544934
 31
0.0
  0
LINE
  5
3A9
330
1F
100
AcDbEntity
  8
SK2
100
AcDbLine
 10
217.8233494801385
 20
301.7016357277597
 30
0.0
 11
217.9276671454839
 21
301.8059533931052
 31
0.0
  0
LINE
  5
3AA
330
1F
100
AcDbEntity
  8
SK2
100
AcDbLine
 10
217.8511883763718
 20
301.7016358300177
 30
0.0
 11
217.9318400780711
 21
301.782287531717
 31
0.0
  0
LINE
  5
3AB
330
1F
100
AcDbEntity
  8
SK2
100
AcDbLine
 10
217.879027272605
 20
301.7016359322756
 30
0.0
 11
217.9360130106583
 21
301.7586216703289
 31
0.0
  0
LINE
  5
3AC
330
1F
100
AcDbEntity
  8
SK2
100
AcDbLine
 10
217.9068661688384
 20
301.7016360345337
 30
0.0
 11
217.9401859432454
 21
301.7349558089407
 31
0.0
  0
LINE
  5
3AD
330
1F
100
AcDbEntity
  8
SK2
100
AcDbLine
 10
217.9347050650716
 20
301.7016361367916
 30
0.0
 11
217.9443588758325
 21
301.7112899475525
 31
0.0
  0
MTEXT
  5
3AE
330
1F
100
AcDbEntity
  8
SK2
100
AcDbMText
 10
287.5202
 20
355.137752
 30
0.0
 40
3.5
 41
0.0
 71
     7
 72
     5
  1
\W0.7045;32
  7
cesky
 73
     2
 44
0.8433729999999998
  0
LINE
  5
3AF
330
1F
100
AcDbEntity
  8
SK2
100
AcDbLine
 10
278.315042
 20
296.201207
 30
0.0
 11
278.315042
 21
356.263586
 31
0.0
  0
LINE
  5
3B0
330
1F
100
AcDbEntity
  8
SK2
100
AcDbLine
 10
310.315042
 20
307.201634
 30
0.0
 11
310.315042
 21
356.263586
 31
0.0
  0
LINE
  5
3B1
330
1F
100
AcDbEntity
  8
SK2
100
AcDbLine
 10
278.315042
 20
355.263586
 30
0.0
 11
310.315042
 21
355.263586
 31
0.0
  0
SOLID
  5
3B2
330
1F
100
AcDbEntity
  8
SK2
100
AcDbTrace
 10
278.315042
 20
355.263586
 30
0.0
 11
281.81504
 21
355.88073
 31
0.0
 12
281.815044
 22
354.646441
 32
0.0
 13
281.815044
 23
354.646441
 33
0.0
  0
SOLID
  5
3B3
330
1F
100
AcDbEntity
  8
SK2
100
AcDbTrace
 10
310.315042
 20
355.263586
 30
0.0
 11
306.815044
 21
354.646441
 31
0.0
 12
306.81504
 22
355.88073
 32
0.0
 13
306.81504
 23
355.88073
 33
0.0
  0
MTEXT
  5
3B4
330
1F
100
AcDbEntity
  8
SK2
100
AcDbMText
 10
267.500542
 20
369.893558
 30
0.0
 40
3.5
 41
0.0
 71
     7
 72
     5
  1
\W0.7045;82
  7
cesky
 73
     2
 44
0.8433729999999998
  0
LINE
  5
3B5
330
1F
100
AcDbEntity
  8
SK2
100
AcDbLine
 10
228.315042
 20
296.941377
 30
0.0
 11
228.315042
 21
371.019392
 31
0.0
  0
LINE
  5
3B6
330
1F
100
AcDbEntity
  8
SK2
100
AcDbLine
 10
310.315042
 20
307.201634
 30
0.0
 11
310.315042
 21
371.019392
 31
0.0
  0
LINE
  5
3B7
330
1F
100
AcDbEntity
  8
SK2
100
AcDbLine
 10
228.315042
 20
370.019392
 30
0.0
 11
310.315042
 21
370.019392
 31
0.0
  0
SOLID
  5
3B8
330
1F
100
AcDbEntity
  8
SK2
100
AcDbTrace
 10
228.315042
 20
370.019392
 30
0.0
 11
231.81504
 21
370.636536
 31
0.0
 12
231.815044
 22
369.4022470000001
 32
0.0
 13
231.815044
 23
369.4022470000001
 33
0.0
  0
SOLID
  5
3B9
330
1F
100
AcDbEntity
  8
SK2
100
AcDbTrace
 10
310.315042
 20
370.019392
 30
0.0
 11
306.815044
 21
369.4022470000001
 31
0.0
 12
306.81504
 22
370.636536
 32
0.0
 13
306.81504
 23
370.636536
 33
0.0
  0
LINE
  5
3C0
330
1F
100
AcDbEntity
  8
CUT
100
AcDbLine
 10
310.315042
 20
305.201634
 30
0.0
 11
310.315042
 21
303.784766
 31
0.0
  0
LINE
  5
3C1
330
1F
100
AcDbEntity
  8
CUT
100
AcDbLine
 10
299.011929
 20
303.276226
 30
0.0
 11
299.011929
 21
304.768707
 31
0.0
  0
ARC
  5
3C2
330
1F
100
AcDbEntity
  8
CUT
100
AcDbCircle
 10
436.5925560078083
 20
438.1915343290176
 30
0.0
 40
183.4309331432487
100
AcDbArc
 50
224.3267053338324
 51
225.1353678833004
  0
ARC
  5
3C3
330
1F
100
AcDbEntity
  8
CUT
100
AcDbCircle
 10
377.1202143308684
 20
378.2098586035146
 30
0.0
 40
98.96370253559817
100
AcDbArc
 50
225.0423928711521
 51
227.0407897962348
  0
ARC
  5
3C4
330
1F
100
AcDbEntity
  8
CUT
100
AcDbCircle
 10
352.9607885793522
 20
352.4120149388731
 30
0.0
 40
63.61980652843739
100
AcDbArc
 50
227.1309939038703
 51
227.9080895267852
  0
ARC
  5
3C5
330
1F
100
AcDbEntity
  8
CUT
100
AcDbCircle
 10
-3147.337640469988
 20
3410.870487358949
 30
0.0
 40
4648.585134469027
100
AcDbArc
 50
317.988492799709
 51
318.0567778085471
  0
ARC
  5
3C6
330
1F
100
AcDbEntity
  8
CUT
100
AcDbCircle
 10
-756.9578683303713
 20
1258.553326965719
 30
0.0
 40
1432.005695247984
100
AcDbArc
 50
317.8890400642349
 51
317.9629291017643
  0
LINE
  5
3C7
330
1F
100
AcDbEntity
  8
CUT
100
AcDbLine
 10
303.9548743426913
 20
309.9835080994196
 30
0.0
 11
303.9548743426913
 21
309.9835080994196
 31
0.0
  0
ARC
  5
3C8
330
1F
100
AcDbEntity
  8
CUT
100
AcDbCircle
 10
301.53243753329
 20
433.6626277755994
 30
0.0
 40
123.7028408888427
100
AcDbArc
 50
271.1220783353466
 51
271.7787108268181
  0
LINE
  5
3C9
330
1F
100
AcDbEntity
  8
CUT
100
AcDbLine
 10
305.3720962884744
 20
298.2953629291878
 30
0.0
 11
305.3720962884744
 21
298.2953629291878
 31
0.0
  0
ARC
  5
3CA
330
1F
100
AcDbEntity
  8
CUT
100
AcDbCircle
 10
300.9740486165895
 20
327.7970966056173
 30
0.0
 40
29.82775742893093
100
AcDbArc
 50
275.7354058554926
 51
278.4790719893982
  0
ARC
  5
3CB
330
1F
100
AcDbEntity
  8
CUT
100
AcDbCircle
 10
165.5443765205006
 20
435.2149279316554
 30
0.0
 40
186.6274473489181
100
AcDbArc
 50
315.6559034381966
 51
316.4831309255284
  0
ARC
  5
3CC
330
1F
100
AcDbEntity
  8
CUT
100
AcDbCircle
 10
63.51778733059979
 20
532.3805008204001
 30
0.0
 40
327.5194217662666
100
AcDbArc
 50
316.4464873636042
 51
316.9178627590542
  0
ARC
  5
3CD
330
1F
100
AcDbEntity
  8
CUT
100
AcDbCircle
 10
-21.75233317994616
 20
612.432451268643
 30
0.0
 40
444.4778377561411
100
AcDbArc
 50
316.888918145392
 51
317.1204789799383
  0
ARC
  5
3CE
330
1F
100
AcDbEntity
  8
CUT
100
AcDbCircle
 10
320.3945068409299
 20
316.0479671029769
 30
0.0
 40
24.32533012696825
100
AcDbArc
 50
225.3781401473748
 51
227.4818588017563
  0
ARC
  5
3CF
330
1F
100
AcDbEntity
  8
CUT
100
AcDbCircle
 10
338.5245447395289
 20
334.4832568253063
 30
0.0
 40
50.18180302968967
100
AcDbArc
 50
223.8999907258778
 51
225.4297486724518
  0
ARC
  5
3D0
330
1F
100
AcDbEntity
  8
CUT
100
AcDbCircle
 10
377.9163328023137
 20
372.6380253810309
 30
0.0
 40
105.0223370224225
100
AcDbArc
 50
223.2662448842823
 51
223.9971720687275
  0
ARC
  5
3D1
330
1F
100
AcDbEntity
  8
CUT
100
AcDbCircle
 10
466.9355916368438
 20
456.4423503152537
 30
0.0
 40
227.2826873413689
100
AcDbArc
 50
222.5936540755753
 51
223.2691417539424
  0
ARC
  5
3D2
330
1F
100
AcDbEntity
  8
CUT
100
AcDbCircle
 10
578.2939781406116
 20
559.4261051420434
 30
0.0
 40
378.9607152598754
100
AcDbArc
 50
222.5261989685896
 51
222.6612407159622
  0
ENDSEC
  0
SECTION
  2
OBJECTS
  0
DICTIONARY
  5
C
330
0
100
AcDbDictionary
281
     1
  3
ACAD_CIP_PREVIOUS_PRODUCT_INFO
350
26B
  3
ACAD_COLOR
350
266
  3
ACAD_DETAILVIEWSTYLE
350
262
  3
ACAD_GROUP
350
D
  3
ACAD_LAYOUT
350
1A
  3
ACAD_MATERIAL
350
43
  3
ACAD_MLEADERSTYLE
350
6B
  3
ACAD_MLINESTYLE
350
17
  3
ACAD_PLOTSETTINGS
350
19
  3
ACAD_PLOTSTYLENAME
350
E
  3
ACAD_SCALELIST
350
47
  3
ACAD_SECTIONVIEWSTYLE
350
263
  3
ACAD_TABLESTYLE
350
69
  3
ACAD_VISUALSTYLE
350
2A
  3
ACDB_RECOMPOSE_DATA
350
400
  3
AcDbVariableDictionary
350
21F
  0
DICTIONARY
  5
3E1
330
10
100
AcDbDictionary
280
     1
281
     1
  3
ADSK_XREC_LAYER_RECONCILED
360
3E2
  0
DICTIONARY
  5
3E3
330
D3
100
AcDbDictionary
280
     1
281
     1
  3
ADSK_XREC_LAYER_RECONCILED
360
3E4
  0
DICTIONARY
  5
3E5
330
3D3
100
AcDbDictionary
280
     1
281
     1
  3
ADSK_XREC_LAYER_RECONCILED
360
3E6
  0
DICTIONARY
  5
3E7
330
3D4
100
AcDbDictionary
280
     1
281
     1
  3
ADSK_XREC_LAYER_RECONCILED
360
3E8
  0
DICTIONARY
  5
3E9
330
3D5
100
AcDbDictionary
280
     1
281
     1
  3
ADSK_XREC_LAYER_RECONCILED
360
3EA
  0
DICTIONARY
  5
3EB
330
3D7
100
AcDbDictionary
280
     1
281
     1
  3
ADSK_XREC_LAYER_RECONCILED
360
3EC
  0
DICTIONARY
  5
3ED
330
3D8
100
AcDbDictionary
280
     1
281
     1
  3
ADSK_XREC_LAYER_RECONCILED
360
3EE
  0
DICTIONARY
  5
3EF
330
3DA
100
AcDbDictionary
280
     1
281
     1
  3
ADSK_XREC_LAYER_RECONCILED
360
3F0
  0
DICTIONARY
  5
3F1
330
3DB
100
AcDbDictionary
280
     1
281
     1
  3
ADSK_XREC_LAYER_RECONCILED
360
3F2
  0
DICTIONARY
  5
3F3
330
3DC
100
AcDbDictionary
280
     1
281
     1
  3
ADSK_XREC_LAYER_RECONCILED
360
3F4
  0
DICTIONARY
  5
3F5
330
3DD
100
AcDbDictionary
280
     1
281
     1
  3
ADSK_XREC_LAYER_RECONCILED
360
3F6
  0
DICTIONARY
  5
3F7
330
3DE
100
AcDbDictionary
280
     1
281
     1
  3
ADSK_XREC_LAYER_RECONCILED
360
3F8
  0
DICTIONARY
  5
3F9
330
3DF
100
AcDbDictionary
280
     1
281
     1
  3
ADSK_XREC_LAYER_RECONCILED
360
3FA
  0
DICTIONARY
  5
26C
330
1F
100
AcDbDictionary
280
     1
281
     1
  3
ACAD_SORTENTS
360
26D
  0
XRECORD
  5
26B
102
{ACAD_REACTORS
330
C
102
}
330
C
100
AcDbXrecord
280
     1
300
ACD
300
2019
300
87084ACD_2019_0F
  0
DICTIONARY
  5
266
102
{ACAD_REACTORS
330
C
102
}
330
C
100
AcDbDictionary
281
     1
  0
DICTIONARY
  5
262
102
{ACAD_REACTORS
330
C
102
}
330
C
100
AcDbDictionary
281
     1
  3
Metric50
350
268
  0
DICTIONARY
  5
D
102
{ACAD_REACTORS
330
C
102
}
330
C
100
AcDbDictionary
281
     1
  3
ANNOTATION
350
20A
  3
NULOVY_BOD
350
3E0
  0
DICTIONARY
  5
1A
102
{ACAD_REACTORS
330
C
102
}
330
C
100
AcDbDictionary
281
     1
  3
Layout1
350
1E
  3
Layout2
350
26
  3
Model
350
22
  0
DICTIONARY
  5
43
102
{ACAD_REACTORS
330
C
102
}
330
C
100
AcDbDictionary
281
     1
  3
ByBlock
350
45
  3
ByLayer
350
44
  3
Global
350
46
  0
DICTIONARY
  5
6B
102
{ACAD_REACTORS
330
C
102
}
330
C
100
AcDbDictionary
281
     1
  3
Standard
350
6C
  0
DICTIONARY
  5
17
102
{ACAD_REACTORS
330
C
102
}
330
C
100
AcDbDictionary
281
     1
  3
Standard
350
18
  0
DICTIONARY
  5
19
102
{ACAD_REACTORS
330
C
102
}
330
C
100
AcDbDictionary
281
     1
  0
ACDBDICTIONARYWDFLT
  5
E
102
{ACAD_REACTORS
330
C
102
}
330
C
100
AcDbDictionary
281
     1
  3
Normal
350
F
100
AcDbDictionaryWithDefault
340
F
  0
DICTIONARY
  5
47
102
{ACAD_REACTORS
330
C
102
}
330
C
100
AcDbDictionary
281
     1
  3
A0
350
48
  3
A1
350
49
  3
A2
350
4A
  3
A3
350
4B
  3
A4
350
4C
  3
A5
350
4D
  3
A6
350
4E
  3
A7
350
4F
  3
A8
350
50
  3
A9
350
51
  3
B0
350
52
  3
B1
350
53
  3
B2
350
54
  3
B3
350
55
  3
B4
350
56
  3
B5
350
57
  3
B6
350
58
  3
B7
350
59
  3
B8
350
5A
  3
B9
350
5B
  3
C0
350
5C
  3
C1
350
5D
  3
C2
350
5E
  3
C3
350
5F
  3
C4
350
60
  3
C5
350
61
  3
C6
350
62
  3
C7
350
63
  3
C8
350
64
  3
C9
350
65
  3
D0
350
66
  3
D1
350
67
  3
D2
350
68
  0
DICTIONARY
  5
263
102
{ACAD_REACTORS
330
C
102
}
330
C
100
AcDbDictionary
281
     1
  3
Metric50
350
267
  0
DICTIONARY
  5
69
102
{ACAD_REACTORS
330
C
102
}
330
C
100
AcDbDictionary
281
     1
  3
Standard
350
6A
  0
DICTIONARY
  5
2A
102
{ACAD_REACTORS
330
C
102
}
330
C
100
AcDbDictionary
281
     1
  3
2dWireframe
350
2F
  3
Basic
350
32
  3
Brighten
350
36
  3
ColorChange
350
3A
  3
Conceptual
350
34
  3
Dim
350
35
  3
EdgeColorOff
350
3D
  3
Facepattern
350
39
  3
Flat
350
2B
  3
FlatWithEdges
350
2C
  3
Gouraud
350
2D
  3
GouraudWithEdges
350
2E
  3
Hidden
350
31
  3
JitterOff
350
3B
  3
Linepattern
350
38
  3
OverhangOff
350
3C
  3
Realistic
350
33
  3
Shaded
350
42
  3
Shaded with edges
350
41
  3
Shades of Gray
350
3E
  3
Sketchy
350
3F
  3
Thicken
350
37
  3
Wireframe
350
30
  3
X-Ray
350
40
  0
XRECORD
  5
400
102
{ACAD_REACTORS
330
C
102
}
330
C
100
AcDbXrecord
280
     1
 90
        1
330
6A
  0
DICTIONARY
  5
21F
102
{ACAD_REACTORS
330
C
102
}
330
C
100
AcDbDictionary
281
     1
  3
CANNOSCALE
350
220
  3
CMLEADERSTYLE
350
261
  3
CTABLESTYLE
350
260
  3
CVIEWDETAILSTYLE
350
3FB
  3
CVIEWSECTIONSTYLE
350
3FC
  3
MSLTSCALE
350
221
  3
XCLIPFRAME
350
3FD
  0
XRECORD
  5
3E2
102
{ACAD_REACTORS
330
3E1
102
}
330
3E1
100
AcDbXrecord
280
     1
290
     1
  0
XRECORD
  5
3E4
102
{ACAD_REACTORS
330
3E3
102
}
330
3E3
100
AcDbXrecord
280
     1
290
     1
  0
XRECORD
  5
3E6
102
{ACAD_REACTORS
330
3E5
102
}
330
3E5
100
AcDbXrecord
280
     1
290
     1
  0
XRECORD
  5
3E8
102
{ACAD_REACTORS
330
3E7
102
}
330
3E7
100
AcDbXrecord
280
     1
290
     1
  0
XRECORD
  5
3EA
102
{ACAD_REACTORS
330
3E9
102
}
330
3E9
100
AcDbXrecord
280
     1
290
     1
  0
XRECORD
  5
3EC
102
{ACAD_REACTORS
330
3EB
102
}
330
3EB
100
AcDbXrecord
280
     1
290
     1
  0
XRECORD
  5
3EE
102
{ACAD_REACTORS
330
3ED
102
}
330
3ED
100
AcDbXrecord
280
     1
290
     1
  0
XRECORD
  5
3F0
102
{ACAD_REACTORS
330
3EF
102
}
330
3EF
100
AcDbXrecord
280
     1
290
     1
  0
XRECORD
  5
3F2
102
{ACAD_REACTORS
330
3F1
102
}
330
3F1
100
AcDbXrecord
280
     1
290
     1
  0
XRECORD
  5
3F4
102
{ACAD_REACTORS
330
3F3
102
}
330
3F3
100
AcDbXrecord
280
     1
290
     1
  0
XRECORD
  5
3F6
102
{ACAD_REACTORS
330
3F5
102
}
330
3F5
100
AcDbXrecord
280
     1
290
     1
  0
XRECORD
  5
3F8
102
{ACAD_REACTORS
330
3F7
102
}
330
3F7
100
AcDbXrecord
280
     1
290
     1
  0
XRECORD
  5
3FA
102
{ACAD_REACTORS
330
3F9
102
}
330
3F9
100
AcDbXrecord
280
     1
290
     1
  0
SORTENTSTABLE
  5
26D
102
{ACAD_REACTORS
330
26C
102
}
330
26C
100
AcDbSortentsTable
330
1F
331
177
  5
179
331
178
  5
17B
331
179
  5
17C
331
17B
  5
2FF
331
17C
  5
300
331
17D
  5
301
331
17F
  5
396
331
26E
  5
397
331
26F
  5
398
331
270
  5
399
331
271
  5
39A
331
272
  5
39B
331
273
  5
3A2
331
274
  5
3A3
331
275
  5
3A4
331
276
  5
3A5
331
277
  5
3A6
331
278
  5
3A7
331
279
  5
3A8
331
27A
  5
3A9
331
27B
  5
3AA
331
27C
  5
3AB
331
27D
  5
3AC
331
27E
  5
3AD
331
27F
  5
3B4
331
280
  5
3B5
331
281
  5
3B6
331
282
  5
3B7
331
283
  5
3B8
331
284
  5
3B9
331
285
  5
177
331
286
  5
178
331
287
  5
17D
331
288
  5
17F
331
289
  5
19E
331
28A
  5
1E8
331
28B
  5
26E
331
28C
  5
26F
331
28D
  5
270
331
28E
  5
272
331
28F
  5
273
331
290
  5
274
331
291
  5
275
331
292
  5
276
331
293
  5
277
331
294
  5
278
331
295
  5
279
331
296
  5
27A
331
297
  5
27B
331
298
  5
27C
331
299
  5
27D
331
29A
  5
27F
331
29B
  5
280
331
29C
  5
281
331
29D
  5
282
331
29E
  5
283
331
29F
  5
284
331
2A0
  5
285
331
2A1
  5
286
331
2A2
  5
287
331
2A3
  5
288
331
2A4
  5
289
331
2A5
  5
28A
331
2A6
  5
28B
331
2A7
  5
28C
331
2A8
  5
28D
331
2A9
  5
28E
331
2AA
  5
28F
331
2AB
  5
290
331
2AC
  5
291
331
2AD
  5
292
331
2AE
  5
293
331
2AF
  5
294
331
2B0
  5
295
331
2B1
  5
296
331
2B2
  5
297
331
2B3
  5
298
331
2B4
  5
299
331
2B5
  5
29A
331
2B6
  5
29B
331
2B7
  5
29C
331
2B8
  5
29D
331
2B9
  5
29E
331
2BA
  5
29F
331
2BB
  5
2A0
331
2BC
  5
2A1
331
2BD
  5
2A2
331
2BE
  5
2A3
331
2BF
  5
2A4
331
2C0
  5
2A5
331
2C1
  5
2A6
331
2C2
  5
2A7
331
2C3
  5
2A8
331
2C4
  5
2A9
331
2C5
  5
2AA
331
2C6
  5
2AB
331
2C7
  5
2AC
331
2C8
  5
2AD
331
2C9
  5
2AE
331
2CA
  5
2AF
331
2CB
  5
2B0
331
2CC
  5
2B1
331
2CD
  5
2B2
331
2CE
  5
2B3
331
2CF
  5
2B4
331
2D0
  5
2B5
331
2D1
  5
2B6
331
2D2
  5
2B7
331
2D3
  5
2B8
331
2D4
  5
2B9
331
2D5
  5
2BA
331
2D6
  5
2BB
331
2D7
  5
2BC
331
2D8
  5
2BD
331
2D9
  5
2BE
331
2DA
  5
2BF
331
2DB
  5
2C0
331
2DC
  5
2C1
331
2DD
  5
2C2
331
2DE
  5
2C3
331
2DF
  5
2C4
331
2E0
  5
2C5
331
2E1
  5
2C6
331
2E2
  5
2C7
331
2E3
  5
2C8
331
2E4
  5
2C9
331
2E5
  5
2CA
331
2E6
  5
2CB
331
2E7
  5
2CC
331
2E8
  5
2CD
331
2E9
  5
2CE
331
2EA
  5
2CF
331
2EB
  5
2D0
331
2EC
  5
2D1
331
2ED
  5
2D2
331
2EE
  5
2D3
331
2EF
  5
2D4
331
2F0
  5
2D5
331
2F1
  5
2D6
331
2F2
  5
2D7
331
2F3
  5
2D8
331
2F4
  5
2D9
331
2F5
  5
2DA
331
2F6
  5
2DB
331
2F7
  5
2DC
331
2F8
  5
2DD
331
2F9
  5
2DE
331
2FA
  5
2DF
331
2FB
  5
2E0
331
2FC
  5
2E1
331
2FD
  5
2E2
331
2FE
  5
2E3
331
2FF
  5
2E4
331
300
  5
2E5
331
301
  5
2E6
331
302
  5
2E7
331
303
  5
2E8
331
304
  5
2E9
331
305
  5
2EA
331
306
  5
2EB
331
307
  5
2EC
331
308
  5
2ED
331
309
  5
2EE
331
30A
  5
2EF
331
30B
  5
2F0
331
30C
  5
2F1
331
30D
  5
2F2
331
30E
  5
2F3
331
30F
  5
2F4
331
310
  5
2F5
331
311
  5
2F6
331
312
  5
2F7
331
313
  5
2F8
331
314
  5
2F9
331
315
  5
2FA
331
316
  5
2FB
331
317
  5
2FC
331
318
  5
2FD
331
319
  5
2FE
331
31A
  5
302
331
31B
  5
303
331
31C
  5
304
331
31D
  5
305
331
31E
  5
306
331
31F
  5
307
331
320
  5
308
331
321
  5
309
331
322
  5
30A
331
323
  5
30B
331
324
  5
30C
331
325
  5
30D
331
326
  5
30E
331
327
  5
30F
331
328
  5
310
331
329
  5
311
331
32A
  5
312
331
32B
  5
313
331
32C
  5
314
331
32D
  5
315
331
32E
  5
316
331
32F
  5
317
331
330
  5
318
331
331
  5
319
331
332
  5
31A
331
333
  5
31B
331
334
  5
31C
331
335
  5
31D
331
336
  5
31E
331
337
  5
31F
331
338
  5
320
331
339
  5
321
331
33A
  5
322
331
33B
  5
323
331
33C
  5
324
331
33D
  5
325
331
33E
  5
326
331
33F
  5
327
331
340
  5
328
331
341
  5
329
331
342
  5
32A
331
343
  5
32B
331
344
  5
32C
331
345
  5
32D
331
346
  5
32E
331
347
  5
32F
331
348
  5
330
331
349
  5
331
331
34A
  5
332
331
34B
  5
333
331
34C
  5
334
331
34D
  5
335
331
34E
  5
336
331
34F
  5
337
331
350
  5
338
331
351
  5
339
331
352
  5
33A
331
353
  5
33B
331
354
  5
33C
331
355
  5
33D
331
356
  5
33E
331
357
  5
33F
331
358
  5
340
331
359
  5
341
331
35A
  5
342
331
35B
  5
343
331
35C
  5
344
331
35D
  5
345
331
35E
  5
346
331
35F
  5
347
331
360
  5
348
331
361
  5
349
331
362
  5
34A
331
363
  5
34B
331
364
  5
34C
331
365
  5
34D
331
366
  5
34E
331
367
  5
34F
331
368
  5
350
331
369
  5
351
331
36A
  5
352
331
36B
  5
353
331
36C
  5
354
331
36D
  5
355
331
36E
  5
356
331
36F
  5
357
331
370
  5
358
331
371
  5
359
331
372
  5
35A
331
373
  5
35B
331
374
  5
35C
331
375
  5
35D
331
376
  5
35E
331
377
  5
35F
331
378
  5
360
331
379
  5
361
331
37A
  5
362
331
37B
  5
363
331
37C
  5
364
331
37D
  5
365
331
37E
  5
366
331
37F
  5
367
331
380
  5
368
331
381
  5
369
331
382
  5
36A
331
383
  5
36B
331
384
  5
36C
331
385
  5
36D
331
386
  5
36E
331
387
  5
36F
331
388
  5
370
331
389
  5
371
331
38A
  5
372
331
38B
  5
373
331
38C
  5
374
331
38D
  5
375
331
38E
  5
376
331
38F
  5
377
331
390
  5
378
331
391
  5
379
331
392
  5
37A
331
393
  5
37B
331
394
  5
37C
331
395
  5
37D
331
396
  5
37E
331
397
  5
37F
331
398
  5
380
331
399
  5
381
331
39A
  5
382
331
39B
  5
383
331
39C
  5
384
331
39D
  5
385
331
39E
  5
386
331
39F
  5
387
331
3A0
  5
388
331
3A1
  5
389
331
3A2
  5
38A
331
3A3
  5
38B
331
3A4
  5
38C
331
3A5
  5
38D
331
3A6
  5
38E
331
3A7
  5
38F
331
3A8
  5
390
331
3A9
  5
391
331
3AA
  5
392
331
3AB
  5
393
331
3AC
  5
394
331
3AD
  5
395
331
3AE
  5
39C
331
3AF
  5
39D
331
3B0
  5
39E
331
3B1
  5
39F
331
3B2
  5
3A0
331
3B3
  5
3A1
331
3B4
  5
3AE
331
3B5
  5
3AF
331
3B6
  5
3B0
331
3B7
  5
3B1
331
3B8
  5
3B2
331
3B9
  5
3B3
331
3C0
  5
3D1
331
3C1
  5
3D2
331
3C2
  5
3C0
331
3C3
  5
3C1
331
3C4
  5
3C2
331
3C5
  5
3C3
331
3C6
  5
3C4
331
3C7
  5
3C5
331
3C8
  5
3C6
331
3C9
  5
3C7
331
3CA
  5
3C8
331
3CB
  5
3C9
331
3CC
  5
3CA
331
3CD
  5
3CB
331
3CE
  5
3CC
331
3CF
  5
3CD
331
3D0
  5
3CE
331
3D1
  5
3CF
331
3D2
  5
3D0
  0
ACDBDETAILVIEWSTYLE
  5
268
102
{ACAD_XDICTIONARY
360
434
102
}
102
{ACAD_REACTORS
330
262
102
}
330
262
100
AcDbModelDocViewStyle
 70
     0
  3
Metric50
290
     0
100
AcDbDetailViewStyle
 70
     0
 71
     0
 90
        3
 71
     1
340
11
 62
   256
 40
5.0
340
0
 62
   256
 40
5.0
300

 40
0.0
280
     1
 71
     2
340
16
 90
       25
 62
   256
 71
     3
340
11
 62
   256
 40
5.0
 90
        0
 40
15.0
 90
        1
300
%<\AcVar ViewDetailId>% (%<\AcVar ViewScale \f "%sn">%)
 71
     4
340
16
 90
       25
 62
   256
340
16
 90
       25
 62
   256
280
     0
  0
GROUP
  5
20A
102
{ACAD_REACTORS
330
D
102
}
330
D
100
AcDbGroup
300

 70
     0
 71
     1
340
E7
340
E8
340
E9
  0
GROUP
  5
3E0
102
{ACAD_REACTORS
330
D
102
}
330
D
100
AcDbGroup
300

 70
     0
 71
     1
340
73
  0
LAYOUT
  5
1E
102
{ACAD_REACTORS
330
1A
102
}
330
1A
100
AcDbPlotSettings
  1

  2
none_device
  4

  6

 40
0.0
 41
0.0
 42
0.0
 43
0.0
 44
0.0
 45
0.0
 46
0.0
 47
0.0
 48
0.0
 49
0.0
140
0.0
141
0.0
142
1.0
143
1.0
 70
   688
 72
     0
 73
     0
 74
     5
  7

 75
    16
147
1.0
 76
     0
 77
     2
 78
   300
148
0.0
149
0.0
100
AcDbLayout
  1
Layout1
 70
     1
 71
     1
 10
-0.5
 20
-0.5
 11
5.0
 21
5.0
 12
0.0
 22
0.0
 32
0.0
 14
-0.5
 24
-0.5
 34
-0.5
 15
5.0
 25
5.0
 35
5.0
146
0.0
 13
0.0
 23
0.0
 33
0.0
 16
1.0
 26
0.0
 36
0.0
 17
0.0
 27
1.0
 37
0.0
 76
     0
330
1B
  0
LAYOUT
  5
26
102
{ACAD_REACTORS
330
1A
102
}
330
1A
100
AcDbPlotSettings
  1

  2
none_device
  4

  6

 40
0.0
 41
0.0
 42
0.0
 43
0.0
 44
0.0
 45
0.0
 46
0.0
 47
0.0
 48
0.0
 49
0.0
140
0.0
141
0.0
142
1.0
143
1.0
 70
   688
 72
     0
 73
     0
 74
     5
  7

 75
    16
147
1.0
 76
     0
 77
     2
 78
   300
148
0.0
149
0.0
100
AcDbLayout
  1
Layout2
 70
     1
 71
     2
 10
0.0
 20
0.0
 11
0.0
 21
0.0
 12
0.0
 22
0.0
 32
0.0
 14
0.0
 24
0.0
 34
0.0
 15
0.0
 25
0.0
 35
0.0
146
0.0
 13
0.0
 23
0.0
 33
0.0
 16
1.0
 26
0.0
 36
0.0
 17
0.0
 27
1.0
 37
0.0
 76
     0
330
23
  0
LAYOUT
  5
22
102
{ACAD_REACTORS
330
1A
102
}
330
1A
100
AcDbPlotSettings
  1

  2
none_device
  4
Letter_(8.50_x_11.00_Inches)
  6

 40
6.349999999999999
 41
6.349999999999999
 42
6.350005
 43
6.350005
 44
215.9
 45
279.4
 46
0.0
 47
0.0
 48
0.0
 49
0.0
140
0.0
141
0.0
142
1.0
143
1.0
 70
  1712
 72
     0
 73
     0
 74
     0
  7

 75
     0
147
1.0
 76
     0
 77
     2
 78
   300
148
0.0
149
0.0
100
AcDbLayout
  1
Model
 70
     1
 71
     0
 10
-0.5
 20
-0.5
 11
5.0
 21
5.0
 12
0.0
 22
0.0
 32
0.0
 14
-0.5
 24
-0.5
 34
-0.5
 15
5.0
 25
5.0
 35
5.0
146
0.0
 13
0.0
 23
0.0
 33
0.0
 16
1.0
 26
0.0
 36
0.0
 17
0.0
 27
1.0
 37
0.0
 76
     0
330
1F
331
29
  0
MATERIAL
  5
45
102
{ACAD_XDICTIONARY
360
255
102
}
102
{ACAD_REACTORS
330
43
102
}
330
43
100
AcDbMaterial
  1
ByBlock
  0
MATERIAL
  5
44
102
{ACAD_XDICTIONARY
360
253
102
}
102
{ACAD_REACTORS
330
43
102
}
330
43
100
AcDbMaterial
  1
ByLayer
  0
MATERIAL
  5
46
102
{ACAD_XDICTIONARY
360
257
102
}
102
{ACAD_REACTORS
330
43
102
}
330
43
100
AcDbMaterial
  1
Global
  0
MLEADERSTYLE
  5
6C
102
{ACAD_REACTORS
330
6B
102
}
330
6B
100
AcDbMLeaderStyle
170
     2
171
     1
172
     0
 90
        2
 40
0.0
 41
0.0
173
     1
 91
-1056964608
340
14
 92
       -2
290
     1
 42
0.09
291
     1
 43
0.36
  3
Standard
 44
0.18
300

342
11
174
     1
178
     6
175
     1
176
     0
 93
-1056964608
 45
0.18
292
     0
297
     0
 46
0.18
 94
-1056964608
 47
1.0
 49
1.0
140
1.0
293
     1
141
0.0
294
     1
177
     0
142
1.0
295
     0
296
     0
143
0.125
1001
ACAD_MLEADERVER
1070
     2
  0
MLINESTYLE
  5
18
102
{ACAD_REACTORS
330
17
102
}
330
17
100
AcDbMlineStyle
  2
STANDARD
 70
     0
  3

 62
   256
 51
90.0
 52
90.0
 71
     2
 49
0.5
 62
   256
  6
BYLAYER
 49
-0.5
 62
   256
  6
BYLAYER
  0
ACDBPLACEHOLDER
  5
F
102
{ACAD_REACTORS
330
E
102
}
330
E
  0
SCALE
  5
48
102
{ACAD_REACTORS
330
47
102
}
330
47
100
AcDbScale
 70
     0
300
1:1
140
1.0
141
1.0
290
     1
  0
SCALE
  5
49
102
{ACAD_REACTORS
330
47
102
}
330
47
100
AcDbScale
 70
     0
300
1:2
140
1.0
141
2.0
290
     0
  0
SCALE
  5
4A
102
{ACAD_REACTORS
330
47
102
}
330
47
100
AcDbScale
 70
     0
300
1:4
140
1.0
141
4.0
290
     0
  0
SCALE
  5
4B
102
{ACAD_REACTORS
330
47
102
}
330
47
100
AcDbScale
 70
     0
300
1:5
140
1.0
141
5.0
290
     0
  0
SCALE
  5
4C
102
{ACAD_REACTORS
330
47
102
}
330
47
100
AcDbScale
 70
     0
300
1:8
140
1.0
141
8.0
290
     0
  0
SCALE
  5
4D
102
{ACAD_REACTORS
330
47
102
}
330
47
100
AcDbScale
 70
     0
300
1:10
140
1.0
141
10.0
290
     0
  0
SCALE
  5
4E
102
{ACAD_REACTORS
330
47
102
}
330
47
100
AcDbScale
 70
     0
300
1:16
140
1.0
141
16.0
290
     0
  0
SCALE
  5
4F
102
{ACAD_REACTORS
330
47
102
}
330
47
100
AcDbScale
 70
     0
300
1:20
140
1.0
141
20.0
290
     0
  0
SCALE
  5
50
102
{ACAD_REACTORS
330
47
102
}
330
47
100
AcDbScale
 70
     0
300
1:30
140
1.0
141
30.0
290
     0
  0
SCALE
  5
51
102
{ACAD_REACTORS
330
47
102
}
330
47
100
AcDbScale
 70
     0
300
1:40
140
1.0
141
40.0
290
     0
  0
SCALE
  5
52
102
{ACAD_REACTORS
330
47
102
}
330
47
100
AcDbScale
 70
     0
300
1:50
140
1.0
141
50.0
290
     0
  0
SCALE
  5
53
102
{ACAD_REACTORS
330
47
102
}
330
47
100
AcDbScale
 70
     0
300
1:100
140
1.0
141
100.0
290
     0
  0
SCALE
  5
54
102
{ACAD_REACTORS
330
47
102
}
330
47
100
AcDbScale
 70
     0
300
2:1
140
2.0
141
1.0
290
     0
  0
SCALE
  5
55
102
{ACAD_REACTORS
330
47
102
}
330
47
100
AcDbScale
 70
     0
300
4:1
140
4.0
141
1.0
290
     0
  0
SCALE
  5
56
102
{ACAD_REACTORS
330
47
102
}
330
47
100
AcDbScale
 70
     0
300
8:1
140
8.0
141
1.0
290
     0
  0
SCALE
  5
57
102
{ACAD_REACTORS
330
47
102
}
330
47
100
AcDbScale
 70
     0
300
10:1
140
10.0
141
1.0
290
     0
  0
SCALE
  5
58
102
{ACAD_REACTORS
330
47
102
}
330
47
100
AcDbScale
 70
     0
300
100:1
140
100.0
141
1.0
290
     0
  0
SCALE
  5
59
102
{ACAD_REACTORS
330
47
102
}
330
47
100
AcDbScale
 70
     0
300
1/128" = 1'-0"
140
0.007812
141
12.0
290
     0
  0
SCALE
  5
5A
102
{ACAD_REACTORS
330
47
102
}
330
47
100
AcDbScale
 70
     0
300
1/64" = 1'-0"
140
0.015625
141
12.0
290
     0
  0
SCALE
  5
5B
102
{ACAD_REACTORS
330
47
102
}
330
47
100
AcDbScale
 70
     0
300
1/32" = 1'-0"
140
0.03125
141
12.0
290
     0
  0
SCALE
  5
5C
102
{ACAD_REACTORS
330
47
102
}
330
47
100
AcDbScale
 70
     0
300
1/16" = 1'-0"
140
0.0625
141
12.0
290
     0
  0
SCALE
  5
5D
102
{ACAD_REACTORS
330
47
102
}
330
47
100
AcDbScale
 70
     0
300
3/32" = 1'-0"
140
0.09375
141
12.0
290
     0
  0
SCALE
  5
5E
102
{ACAD_REACTORS
330
47
102
}
330
47
100
AcDbScale
 70
     0
300
1/8" = 1'-0"
140
0.125
141
12.0
290
     0
  0
SCALE
  5
5F
102
{ACAD_REACTORS
330
47
102
}
330
47
100
AcDbScale
 70
     0
300
3/16" = 1'-0"
140
0.1875
141
12.0
290
     0
  0
SCALE
  5
60
102
{ACAD_REACTORS
330
47
102
}
330
47
100
AcDbScale
 70
     0
300
1/4" = 1'-0"
140
0.25
141
12.0
290
     0
  0
SCALE
  5
61
102
{ACAD_REACTORS
330
47
102
}
330
47
100
AcDbScale
 70
     0
300
3/8" = 1'-0"
140
0.375
141
12.0
290
     0
  0
SCALE
  5
62
102
{ACAD_REACTORS
330
47
102
}
330
47
100
AcDbScale
 70
     0
300
1/2" = 1'-0"
140
0.5
141
12.0
290
     0
  0
SCALE
  5
63
102
{ACAD_REACTORS
330
47
102
}
330
47
100
AcDbScale
 70
     0
300
3/4" = 1'-0"
140
0.75
141
12.0
290
     0
  0
SCALE
  5
64
102
{ACAD_REACTORS
330
47
102
}
330
47
100
AcDbScale
 70
     0
300
1" = 1'-0"
140
1.0
141
12.0
290
     0
  0
SCALE
  5
65
102
{ACAD_REACTORS
330
47
102
}
330
47
100
AcDbScale
 70
     0
300
1-1/2" = 1'-0"
140
1.5
141
12.0
290
     0
  0
SCALE
  5
66
102
{ACAD_REACTORS
330
47
102
}
330
47
100
AcDbScale
 70
     0
300
3" = 1'-0"
140
3.0
141
12.0
290
     0
  0
SCALE
  5
67
102
{ACAD_REACTORS
330
47
102
}
330
47
100
AcDbScale
 70
     0
300
6" = 1'-0"
140
6.0
141
12.0
290
     0
  0
SCALE
  5
68
102
{ACAD_REACTORS
330
47
102
}
330
47
100
AcDbScale
 70
     0
300
1'-0" = 1'-0"
140
12.0
141
12.0
290
     0
  0
ACDBSECTIONVIEWSTYLE
  5
267
102
{ACAD_XDICTIONARY
360
432
102
}
102
{ACAD_REACTORS
330
263
102
}
330
263
100
AcDbModelDocViewStyle
 70
     0
  3
Metric50
290
     0
100
AcDbSectionViewStyle
 70
     0
 71
     0
 90
      102
 71
     1
340
11
 62
   256
 40
5.0
340
0
340
0
 62
   256
 40
5.0
300
I, O, Q, S, X, Z
 40
10.0
 90
        0
 40
2.5
 90
        0
 71
     2
340
16
 90
       25
 62
   256
340
16
 90
       50
 62
   256
 40
5.0
 40
2.5
 40
5.0
 71
     3
340
11
 62
   256
 40
5.0
 90
        0
 40
15.0
 90
        1
300
%<\AcVar ViewSectionStartId>%-%<\AcVar ViewSectionEndId>% (%<\AcVar ViewScale \f "%sn">%)
 71
     4
 62
   256
 62
   257
300
ANSI31
 40
1.0
 90
        0
290
     0
290
     0
 90
        6
 40
0.0
 40
1.570796326794896
 40
0.2617993877991494
 40
1.308996938995747
 40
-0.2617993877991494
 40
1.832595714594046
  0
TABLESTYLE
  5
6A
102
{ACAD_XDICTIONARY
360
259
102
}
102
{ACAD_REACTORS
330
69
102
}
330
69
100
AcDbTableStyle
  3
Standard
 70
     0
 71
     0
 40
0.06
 41
0.06
280
     0
281
     0
  7
Standard
140
0.18
170
     2
 62
     0
 63
     7
283
     0
274
    -2
284
     1
 64
     0
275
    -2
285
     1
 65
     0
276
    -2
286
     1
 66
     0
277
    -2
287
     1
 67
     0
278
    -2
288
     1
 68
     0
279
    -2
289
     1
 69
     0
  7
Standard
140
0.25
170
     5
 62
     0
 63
     7
283
     0
274
    -2
284
     1
 64
     0
275
    -2
285
     1
 65
     0
276
    -2
286
     1
 66
     0
277
    -2
287
     1
 67
     0
278
    -2
288
     1
 68
     0
279
    -2
289
     1
 69
     0
  7
Standard
140
0.18
170
     5
 62
     0
 63
     7
283
     0
274
    -2
284
     1
 64
     0
275
    -2
285
     1
 65
     0
276
    -2
286
     1
 66
     0
277
    -2
287
     1
 67
     0
278
    -2
288
     1
 68
     0
279
    -2
289
     1
 69
     0
  0
VISUALSTYLE
  5
2F
102
{ACAD_XDICTIONARY
360
409
102
}
102
{ACAD_REACTORS
330
2A
102
}
330
2A
100
AcDbVisualStyle
  2

 70
     4
 71
     0
 72
     2
 73
     0
 90
        0
 40
-0.6
 41
-30.0
 62
     5
 63
     7
421
 16777215
 74
     1
 91
        4
 64
     7
 65
   257
 75
     1
175
     1
 42
1.0
 92
        0
 66
   257
 43
1.0
 76
     1
 77
     6
 78
     2
 67
     7
 79
     5
170
     0
171
     0
290
     0
174
     0
 93
        1
 44
0.0
173
     0
291
     0
 45
0.0
1001
ACAD
1000
AcDbSavedByObjectVersion
1070
     0
  0
VISUALSTYLE
  5
32
102
{ACAD_XDICTIONARY
360
40F
102
}
102
{ACAD_REACTORS
330
2A
102
}
330
2A
100
AcDbVisualStyle
  2

 70
     7
 71
     1
 72
     0
 73
     1
 90
        0
 40
-0.6
 41
-30.0
 62
     5
 63
     7
421
 16777215
 74
     0
 91
        4
 64
     7
 65
   257
 75
     1
175
     1
 42
1.0
 92
        8
 66
     7
 43
1.0
 76
     1
 77
     6
 78
     2
 67
     7
 79
     5
170
     0
171
     0
290
     0
174
     0
 93
        1
 44
0.0
173
     0
291
     1
 45
0.0
1001
ACAD
1000
AcDbSavedByObjectVersion
1070
     0
  0
VISUALSTYLE
  5
36
102
{ACAD_XDICTIONARY
360
417
102
}
102
{ACAD_REACTORS
330
2A
102
}
330
2A
100
AcDbVisualStyle
  2

 70
    12
 71
     2
 72
     2
 73
     0
 90
        0
 40
-0.6
 41
-30.0
 62
     5
 63
     7
421
 16777215
 74
     1
 91
        4
 64
     7
 65
   257
 75
     1
175
     1
 42
1.0
 92
        8
 66
     7
 43
1.0
 76
     1
 77
     6
 78
     2
 67
     7
 79
     5
170
     0
171
     0
290
     0
174
     0
 93
        1
 44
50.0
173
     0
291
     1
 45
0.0
1001
ACAD
1000
AcDbSavedByObjectVersion
1070
     0
  0
VISUALSTYLE
  5
3A
102
{ACAD_XDICTIONARY
360
41F
102
}
102
{ACAD_REACTORS
330
2A
102
}
330
2A
100
AcDbVisualStyle
  2

 70
    16
 71
     2
 72
     2
 73
     3
 90
        0
 40
-0.6
 41
-30.0
 62
     5
 63
     8
421
  8421504
 74
     1
 91
        4
 64
     7
 65
   257
 75
     1
175
     1
 42
1.0
 92
        8
 66
     8
424
  8421504
 43
1.0
 76
     1
 77
     6
 78
     2
 67
     7
 79
     5
170
     0
171
     0
290
     0
174
     0
 93
        1
 44
0.0
173
     0
291
     1
 45
0.0
1001
ACAD
1000
AcDbSavedByObjectVersion
1070
     0
  0
VISUALSTYLE
  5
34
102
{ACAD_XDICTIONARY
360
413
102
}
102
{ACAD_REACTORS
330
2A
102
}
330
2A
100
AcDbVisualStyle
  2

 70
     9
 71
     3
 72
     2
 73
     0
 90
        0
 40
-0.6
 41
-30.0
 62
     5
 63
     7
421
 16777215
 74
     2
 91
        2
 64
     7
 65
   257
 75
     1
175
     1
 42
179.0
 92
        8
 66
     7
 43
1.0
 76
     1
 77
     6
 78
     2
 67
     7
 79
     3
170
     0
171
     0
290
     0
174
     0
 93
        1
 44
0.0
173
     0
291
     0
 45
0.0
1001
ACAD
1000
AcDbSavedByObjectVersion
1070
     0
  0
VISUALSTYLE
  5
35
102
{ACAD_XDICTIONARY
360
415
102
}
102
{ACAD_REACTORS
330
2A
102
}
330
2A
100
AcDbVisualStyle
  2

 70
    11
 71
     2
 72
     2
 73
     0
 90
        0
 40
-0.6
 41
-30.0
 62
     5
 63
     7
421
 16777215
 74
     1
 91
        4
 64
     7
 65
   257
 75
     1
175
     1
 42
1.0
 92
        8
 66
     7
 43
1.0
 76
     1
 77
     6
 78
     2
 67
     7
 79
     5
170
     0
171
     0
290
     0
174
     0
 93
        1
 44
-50.0
173
     0
291
     1
 45
0.0
1001
ACAD
1000
AcDbSavedByObjectVersion
1070
     0
  0
VISUALSTYLE
  5
3D
102
{ACAD_XDICTIONARY
360
425
102
}
102
{ACAD_REACTORS
330
2A
102
}
330
2A
100
AcDbVisualStyle
  2

 70
    22
 71
     2
 72
     2
 73
     0
 90
        0
 40
-0.6
 41
-30.0
 62
     5
 63
     7
421
 16777215
 74
     1
 91
        4
 64
     7
 65
   257
 75
     1
175
     1
 42
1.0
 92
        8
 66
     7
 43
1.0
 76
     1
 77
     6
 78
     2
 67
     7
 79
     5
170
     0
171
     0
290
     0
174
     0
 93
        1
 44
0.0
173
     0
291
     1
 45
0.0
1001
ACAD
1000
AcDbSavedByObjectVersion
1070
     0
  0
VISUALSTYLE
  5
39
102
{ACAD_XDICTIONARY
360
41D
102
}
102
{ACAD_REACTORS
330
2A
102
}
330
2A
100
AcDbVisualStyle
  2

 70
    15
 71
     2
 72
     2
 73
     0
 90
        0
 40
-0.6
 41
-30.0
 62
     5
 63
     7
421
 16777215
 74
     1
 91
        4
 64
     7
 65
   257
 75
     1
175
     1
 42
1.0
 92
        8
 66
     7
 43
1.0
 76
     1
 77
     6
 78
     2
 67
     7
 79
     5
170
     0
171
     0
290
     0
174
     0
 93
        1
 44
0.0
173
     0
291
     1
 45
0.0
1001
ACAD
1000
AcDbSavedByObjectVersion
1070
     0
  0
VISUALSTYLE
  5
2B
102
{ACAD_XDICTIONARY
360
401
102
}
102
{ACAD_REACTORS
330
2A
102
}
330
2A
100
AcDbVisualStyle
  2

 70
     0
 71
     2
 72
     1
 73
     1
 90
        2
 40
-0.6
 41
30.0
 62
     5
 63
     7
421
 16777215
 74
     0
 91
        0
 64
     7
 65
   257
 75
     1
175
     1
 42
1.0
 92
        8
 66
     7
 43
1.0
 76
     1
 77
     6
 78
     2
 67
     7
 79
     5
170
     0
171
     0
290
     0
174
     0
 93
       13
 44
0.0
173
     0
291
     1
 45
0.0
1001
ACAD
1000
AcDbSavedByObjectVersion
1070
     0
  0
VISUALSTYLE
  5
2C
102
{ACAD_XDICTIONARY
360
403
102
}
102
{ACAD_REACTORS
330
2A
102
}
330
2A
100
AcDbVisualStyle
  2

 70
     1
 71
     2
 72
     1
 73
     1
 90
        2
 40
-0.6
 41
30.0
 62
     5
 63
     7
421
 16777215
 74
     1
 91
        0
 64
     7
 65
   257
 75
     1
175
     1
 42
1.0
 92
        0
 66
   257
 43
1.0
 76
     1
 77
     6
 78
     2
 67
     7
 79
     5
170
     0
171
     0
290
     0
174
     0
 93
       13
 44
0.0
173
     0
291
     1
 45
0.0
1001
ACAD
1000
AcDbSavedByObjectVersion
1070
     0
  0
VISUALSTYLE
  5
2D
102
{ACAD_XDICTIONARY
360
405
102
}
102
{ACAD_REACTORS
330
2A
102
}
330
2A
100
AcDbVisualStyle
  2

 70
     2
 71
     2
 72
     2
 73
     1
 90
        2
 40
-0.6
 41
30.0
 62
     5
 63
     7
421
 16777215
 74
     0
 91
        0
 64
     7
 65
   257
 75
     1
175
     1
 42
1.0
 92
        0
 66
     7
 43
1.0
 76
     1
 77
     6
 78
     2
 67
     7
 79
     5
170
     0
171
     0
290
     0
174
     0
 93
       13
 44
0.0
173
     0
291
     1
 45
0.0
1001
ACAD
1000
AcDbSavedByObjectVersion
1070
     0
  0
VISUALSTYLE
  5
2E
102
{ACAD_XDICTIONARY
360
407
102
}
102
{ACAD_REACTORS
330
2A
102
}
330
2A
100
AcDbVisualStyle
  2

 70
     3
 71
     2
 72
     2
 73
     1
 90
        2
 40
-0.6
 41
30.0
 62
     5
 63
     7
421
 16777215
 74
     1
 91
        0
 64
     7
 65
   257
 75
     1
175
     1
 42
1.0
 92
        0
 66
   257
 43
1.0
 76
     1
 77
     6
 78
     2
 67
     7
 79
     5
170
     0
171
     0
290
     0
174
     0
 93
       13
 44
0.0
173
     0
291
     1
 45
0.0
1001
ACAD
1000
AcDbSavedByObjectVersion
1070
     0
  0
VISUALSTYLE
  5
31
102
{ACAD_XDICTIONARY
360
40D
102
}
102
{ACAD_REACTORS
330
2A
102
}
330
2A
100
AcDbVisualStyle
  2

 70
     6
 71
     1
 72
     2
 73
     2
 90
        0
 40
-0.6
 41
-30.0
 62
     5
 63
     7
421
 16777215
 74
     2
 91
        2
 64
     7
 65
   257
 75
     2
175
     1
 42
40.0
 92
        0
 66
   257
 43
1.0
 76
     1
 77
     6
 78
     2
 67
     7
 79
     3
170
     0
171
     0
290
     0
174
     0
 93
        1
 44
0.0
173
     0
291
     0
 45
0.0
1001
ACAD
1000
AcDbSavedByObjectVersion
1070
     0
  0
VISUALSTYLE
  5
3B
102
{ACAD_XDICTIONARY
360
421
102
}
102
{ACAD_REACTORS
330
2A
102
}
330
2A
100
AcDbVisualStyle
  2

 70
    20
 71
     2
 72
     2
 73
     0
 90
        0
 40
-0.6
 41
-30.0
 62
     5
 63
     7
421
 16777215
 74
     1
 91
        4
 64
     7
 65
   257
 75
     1
175
     1
 42
1.0
 92
       10
 66
     7
 43
1.0
 76
     1
 77
     6
 78
     2
 67
     7
 79
     5
170
     0
171
     0
290
     0
174
     0
 93
        1
 44
0.0
173
     0
291
     1
 45
0.0
1001
ACAD
1000
AcDbSavedByObjectVersion
1070
     0
  0
VISUALSTYLE
  5
38
102
{ACAD_XDICTIONARY
360
41B
102
}
102
{ACAD_REACTORS
330
2A
102
}
330
2A
100
AcDbVisualStyle
  2

 70
    14
 71
     2
 72
     2
 73
     0
 90
        0
 40
-0.6
 41
-30.0
 62
     5
 63
     7
421
 16777215
 74
     1
 91
        4
 64
     7
 65
   257
 75
     7
175
     7
 42
1.0
 92
        8
 66
     7
 43
1.0
 76
     1
 77
     6
 78
     2
 67
     7
 79
     5
170
     0
171
     0
290
     0
174
     0
 93
        1
 44
0.0
173
     0
291
     1
 45
0.0
1001
ACAD
1000
AcDbSavedByObjectVersion
1070
     0
  0
VISUALSTYLE
  5
3C
102
{ACAD_XDICTIONARY
360
423
102
}
102
{ACAD_REACTORS
330
2A
102
}
330
2A
100
AcDbVisualStyle
  2

 70
    21
 71
     2
 72
     2
 73
     0
 90
        0
 40
-0.6
 41
-30.0
 62
     5
 63
     7
421
 16777215
 74
     1
 91
        4
 64
     7
 65
   257
 75
     1
175
     1
 42
1.0
 92
        9
 66
     7
 43
1.0
 76
     1
 77
     6
 78
     2
 67
     7
 79
     5
170
     0
171
     0
290
     0
174
     0
 93
        1
 44
0.0
173
     0
291
     1
 45
0.0
1001
ACAD
1000
AcDbSavedByObjectVersion
1070
     0
  0
VISUALSTYLE
  5
33
102
{ACAD_XDICTIONARY
360
411
102
}
102
{ACAD_REACTORS
330
2A
102
}
330
2A
100
AcDbVisualStyle
  2

 70
     8
 71
     2
 72
     3
 73
     0
 90
        2
 40
-0.6
 41
30.0
 62
     5
 63
     7
421
 16777215
 74
     0
 91
        0
 64
     7
 65
   257
 75
     1
175
     1
 42
1.0
 92
        8
 66
   257
 43
1.0
 76
     1
 77
     6
 78
     2
 67
     7
 79
     3
170
     0
171
     0
290
     0
174
     0
 93
       13
 44
0.0
173
     0
291
     0
 45
0.0
1001
ACAD
1000
AcDbSavedByObjectVersion
1070
     0
  0
VISUALSTYLE
  5
42
102
{ACAD_XDICTIONARY
360
42F
102
}
102
{ACAD_REACTORS
330
2A
102
}
330
2A
100
AcDbVisualStyle
  2

 70
    27
 71
     2
 72
     2
 73
     1
 90
        2
 40
-0.6
 41
30.0
 62
     5
 63
     7
421
 16777215
 74
     0
 91
        4
 64
     7
 65
   257
 75
     1
175
     1
 42
1.0
 92
        8
 66
   257
 43
1.0
 76
     1
 77
     6
 78
     2
 67
     8
425
  7895160
 79
     3
170
     0
171
     0
290
     0
174
     0
 93
        5
 44
0.0
173
     0
291
     0
 45
0.0
1001
ACAD
1000
AcDbSavedByObjectVersion
1070
     0
  0
VISUALSTYLE
  5
41
102
{ACAD_XDICTIONARY
360
42D
102
}
102
{ACAD_REACTORS
330
2A
102
}
330
2A
100
AcDbVisualStyle
  2

 70
    26
 71
     2
 72
     2
 73
     1
 90
        2
 40
-0.6
 41
30.0
 62
     5
 63
     7
421
 16777215
 74
     1
 91
       10
 64
     7
 65
   257
 75
     2
175
     1
 42
1.0
 92
        8
 66
   257
 43
1.0
 76
     1
 77
     6
 78
     2
 67
     7
 79
     3
170
     0
171
     0
290
     0
174
     0
 93
        5
 44
0.0
173
     0
291
     0
 45
0.0
1001
ACAD
1000
AcDbSavedByObjectVersion
1070
     0
  0
VISUALSTYLE
  5
3E
102
{ACAD_XDICTIONARY
360
427
102
}
102
{ACAD_REACTORS
330
2A
102
}
330
2A
100
AcDbVisualStyle
  2

 70
    23
 71
     2
 72
     2
 73
     3
 90
        0
 40
-0.6
 41
-30.0
 62
     5
 63
     7
421
 16777215
 74
     2
 91
        2
 64
     7
 65
     7
 75
     1
175
     1
 42
40.0
 92
        8
 66
     7
 43
1.0
 76
     1
 77
     6
 78
     2
 67
     7
 79
     3
170
     0
171
     0
290
     0
174
     0
 93
        1
 44
0.0
173
     0
291
     0
 45
0.0
1001
ACAD
1000
AcDbSavedByObjectVersion
1070
     0
  0
VISUALSTYLE
  5
3F
102
{ACAD_XDICTIONARY
360
429
102
}
102
{ACAD_REACTORS
330
2A
102
}
330
2A
100
AcDbVisualStyle
  2

 70
    24
 71
     1
 72
     2
 73
     2
 90
        0
 40
-0.6
 41
-30.0
 62
     5
 63
     7
421
 16777215
 74
     2
 91
        2
 64
     7
 65
     7
 75
     1
175
     1
 42
40.0
 92
       11
 66
     7
 43
1.0
 76
     1
 77
     6
 78
     2
 67
     7
 79
     6
170
     0
171
     0
290
     0
174
     0
 93
        1
 44
0.0
173
     0
291
     0
 45
0.0
1001
ACAD
1000
AcDbSavedByObjectVersion
1070
     0
  0
VISUALSTYLE
  5
37
102
{ACAD_XDICTIONARY
360
419
102
}
102
{ACAD_REACTORS
330
2A
102
}
330
2A
100
AcDbVisualStyle
  2

 70
    13
 71
     2
 72
     2
 73
     0
 90
        0
 40
-0.6
 41
-30.0
 62
     5
 63
     7
421
 16777215
 74
     1
 91
        4
 64
     7
 65
   257
 75
     1
175
     1
 42
1.0
 92
       12
 66
     7
 43
1.0
 76
     1
 77
     6
 78
     2
 67
     7
 79
     5
170
     0
171
     0
290
     0
174
     0
 93
        1
 44
0.0
173
     0
291
     1
 45
0.0
1001
ACAD
1000
AcDbSavedByObjectVersion
1070
     0
  0
VISUALSTYLE
  5
30
102
{ACAD_XDICTIONARY
360
40B
102
}
102
{ACAD_REACTORS
330
2A
102
}
330
2A
100
AcDbVisualStyle
  2

 70
     5
 71
     0
 72
     2
 73
     0
 90
        0
 40
-0.6
 41
-30.0
 62
     5
 63
     7
421
 16777215
 74
     1
 91
        4
 64
     7
 65
   257
 75
     1
175
     1
 42
1.0
 92
        0
 66
   257
 43
1.0
 76
     1
 77
     6
 78
     2
 67
     7
 79
     3
170
     0
171
     0
290
     0
174
     0
 93
        1
 44
0.0
173
     0
291
     0
 45
0.0
1001
ACAD
1000
AcDbSavedByObjectVersion
1070
     0
  0
VISUALSTYLE
  5
40
102
{ACAD_XDICTIONARY
360
42B
102
}
102
{ACAD_REACTORS
330
2A
102
}
330
2A
100
AcDbVisualStyle
  2

 70
    25
 71
     2
 72
     2
 73
     1
 90
        1
 40
0.5
 41
-30.0
 62
     5
 63
     7
421
 16777215
 74
     1
 91
        0
 64
     7
 65
   257
 75
     1
175
     1
 42
1.0
 92
        8
 66
     7
 43
1.0
 76
     1
 77
     6
 78
     2
 67
     7
 79
     3
170
     0
171
     0
290
     0
174
     0
 93
       13
 44
0.0
173
     0
291
     0
 45
0.0
1001
ACAD
1000
AcDbSavedByObjectVersion
1070
     0
  0
DICTIONARYVAR
  5
220
102
{ACAD_REACTORS
330
21F
102
}
330
21F
100
DictionaryVariables
280
     0
  1
1:1
  0
DICTIONARYVAR
  5
261
102
{ACAD_REACTORS
330
21F
102
}
330
21F
100
DictionaryVariables
280
     0
  1
STANDARD
  0
DICTIONARYVAR
  5
260
102
{ACAD_REACTORS
330
21F
102
}
330
21F
100
DictionaryVariables
280
     0
  1
STANDARD
  0
DICTIONARYVAR
  5
3FB
102
{ACAD_REACTORS
330
21F
102
}
330
21F
100
DictionaryVariables
280
     0
  1
Metric50
  0
DICTIONARYVAR
  5
3FC
102
{ACAD_REACTORS
330
21F
102
}
330
21F
100
DictionaryVariables
280
     0
  1
Metric50
  0
DICTIONARYVAR
  5
221
102
{ACAD_REACTORS
330
21F
102
}
330
21F
100
DictionaryVariables
280
     0
  1
1
  0
DICTIONARYVAR
  5
3FD
102
{ACAD_REACTORS
330
21F
102
}
330
21F
100
DictionaryVariables
280
     0
  1
2
  0
DICTIONARY
  5
434
330
268
100
AcDbDictionary
280
     1
281
     1
  3
ACAD_XREC_ROUNDTRIP
360
435
  0
DICTIONARY
  5
255
330
45
100
AcDbDictionary
280
     1
281
     1
  3
ACAD_XREC_ROUNDTRIP
360
256
  0
DICTIONARY
  5
253
330
44
100
AcDbDictionary
280
     1
281
     1
  3
ACAD_XREC_ROUNDTRIP
360
254
  0
DICTIONARY
  5
257
330
46
100
AcDbDictionary
280
     1
281
     1
  3
ACAD_XREC_ROUNDTRIP
360
258
  0
DICTIONARY
  5
432
330
267
100
AcDbDictionary
280
     1
281
     1
  3
ACAD_XREC_ROUNDTRIP
360
433
  0
DICTIONARY
  5
259
330
6A
100
AcDbDictionary
280
     1
281
     1
  3
ACAD_ROUNDTRIP_2008_TABLESTYLE_CELLSTYLEMAP
360
3FF
  3
ACAD_XREC_ROUNDTRIP
360
431
  0
DICTIONARY
  5
409
330
2F
100
AcDbDictionary
280
     1
281
     1
  3
ACAD_XREC_ROUNDTRIP
360
40A
  0
DICTIONARY
  5
40F
330
32
100
AcDbDictionary
280
     1
281
     1
  3
ACAD_XREC_ROUNDTRIP
360
410
  0
DICTIONARY
  5
417
330
36
100
AcDbDictionary
280
     1
281
     1
  3
ACAD_XREC_ROUNDTRIP
360
418
  0
DICTIONARY
  5
41F
330
3A
100
AcDbDictionary
280
     1
281
     1
  3
ACAD_XREC_ROUNDTRIP
360
420
  0
DICTIONARY
  5
413
330
34
100
AcDbDictionary
280
     1
281
     1
  3
ACAD_XREC_ROUNDTRIP
360
414
  0
DICTIONARY
  5
415
330
35
100
AcDbDictionary
280
     1
281
     1
  3
ACAD_XREC_ROUNDTRIP
360
416
  0
DICTIONARY
  5
425
330
3D
100
AcDbDictionary
280
     1
281
     1
  3
ACAD_XREC_ROUNDTRIP
360
426
  0
DICTIONARY
  5
41D
330
39
100
AcDbDictionary
280
     1
281
     1
  3
ACAD_XREC_ROUNDTRIP
360
41E
  0
DICTIONARY
  5
401
330
2B
100
AcDbDictionary
280
     1
281
     1
  3
ACAD_XREC_ROUNDTRIP
360
402
  0
DICTIONARY
  5
403
330
2C
100
AcDbDictionary
280
     1
281
     1
  3
ACAD_XREC_ROUNDTRIP
360
404
  0
DICTIONARY
  5
405
330
2D
100
AcDbDictionary
280
     1
281
     1
  3
ACAD_XREC_ROUNDTRIP
360
406
  0
DICTIONARY
  5
407
330
2E
100
AcDbDictionary
280
     1
281
     1
  3
ACAD_XREC_ROUNDTRIP
360
408
  0
DICTIONARY
  5
40D
330
31
100
AcDbDictionary
280
     1
281
     1
  3
ACAD_XREC_ROUNDTRIP
360
40E
  0
DICTIONARY
  5
421
330
3B
100
AcDbDictionary
280
     1
281
     1
  3
ACAD_XREC_ROUNDTRIP
360
422
  0
DICTIONARY
  5
41B
330
38
100
AcDbDictionary
280
     1
281
     1
  3
ACAD_XREC_ROUNDTRIP
360
41C
  0
DICTIONARY
  5
423
330
3C
100
AcDbDictionary
280
     1
281
     1
  3
ACAD_XREC_ROUNDTRIP
360
424
  0
DICTIONARY
  5
411
330
33
100
AcDbDictionary
280
     1
281
     1
  3
ACAD_XREC_ROUNDTRIP
360
412
  0
DICTIONARY
  5
42F
330
42
100
AcDbDictionary
280
     1
281
     1
  3
ACAD_XREC_ROUNDTRIP
360
430
  0
DICTIONARY
  5
42D
330
41
100
AcDbDictionary
280
     1
281
     1
  3
ACAD_XREC_ROUNDTRIP
360
42E
  0
DICTIONARY
  5
427
330
3E
100
AcDbDictionary
280
     1
281
     1
  3
ACAD_XREC_ROUNDTRIP
360
428
  0
DICTIONARY
  5
429
330
3F
100
AcDbDictionary
280
     1
281
     1
  3
ACAD_XREC_ROUNDTRIP
360
42A
  0
DICTIONARY
  5
419
330
37
100
AcDbDictionary
280
     1
281
     1
  3
ACAD_XREC_ROUNDTRIP
360
41A
  0
DICTIONARY
  5
40B
330
30
100
AcDbDictionary
280
     1
281
     1
  3
ACAD_XREC_ROUNDTRIP
360
40C
  0
DICTIONARY
  5
42B
330
40
100
AcDbDictionary
280
     1
281
     1
  3
ACAD_XREC_ROUNDTRIP
360
42C
  0
XRECORD
  5
435
102
{ACAD_REACTORS
330
434
102
}
330
434
100
AcDbXrecord
280
     1
102
DISPLAYNAME
  1
Metric50
102
FLAGS
 90
        0
  0
XRECORD
  5
256
102
{ACAD_REACTORS
330
255
102
}
330
255
100
AcDbXrecord
280
     1
102
MATERIAL
148
0.0
149
0.0
149
0.0
 93
        0
 94
      127
282
     0
 72
     1
 77
     1
171
     1
175
     1
179
     1
273
     0
  0
XRECORD
  5
254
102
{ACAD_REACTORS
330
253
102
}
330
253
100
AcDbXrecord
280
     1
102
MATERIAL
148
0.0
149
0.0
149
0.0
 93
        0
 94
      127
282
     0
 72
     1
 77
     1
171
     1
175
     1
179
     1
273
     0
  0
XRECORD
  5
258
102
{ACAD_REACTORS
330
257
102
}
330
257
100
AcDbXrecord
280
     1
102
MATERIAL
148
0.0
149
0.0
149
0.0
 93
        0
 94
      127
282
     0
 72
     1
 77
     1
171
     1
175
     1
179
     1
273
     0
  0
XRECORD
  5
433
102
{ACAD_REACTORS
330
432
102
}
330
432
100
AcDbXrecord
280
     1
102
DISPLAYNAME
  1
Metric50
102
FLAGS
 90
        0
  0
CELLSTYLEMAP
  5
3FF
102
{ACAD_REACTORS
330
259
102
}
330
259
100
AcDbCellStyleMap
 90
        3
300
CELLSTYLE
  1
TABLEFORMAT_BEGIN
 90
        5
170
     1
 91
        0
 92
    32768
 62
   257
 93
        1
300
CONTENTFORMAT
  1
CONTENTFORMAT_BEGIN
 90
        0
 91
        0
 92
        4
 93
        0
300

 40
0.0
140
1.0
 94
        5
 62
     0
340
11
144
0.25
309
CONTENTFORMAT_END
171
     1
301
MARGIN
  1
CELLMARGIN_BEGIN
 40
0.06
 40
0.06
 40
0.06
 40
0.06
 40
0.18
 40
0.18
309
CELLMARGIN_END
 94
        6
 95
        1
302
GRIDFORMAT
  1
GRIDFORMAT_BEGIN
 90
        0
 91
        1
 62
     0
 92
       -2
340
14
 93
        0
 40
0.045
309
GRIDFORMAT_END
 95
        2
302
GRIDFORMAT
  1
GRIDFORMAT_BEGIN
 90
        0
 91
        1
 62
     0
 92
       -2
340
14
 93
        0
 40
0.045
309
GRIDFORMAT_END
 95
        4
302
GRIDFORMAT
  1
GRIDFORMAT_BEGIN
 90
        0
 91
        1
 62
     0
 92
       -2
340
14
 93
        0
 40
0.045
309
GRIDFORMAT_END
 95
        8
302
GRIDFORMAT
  1
GRIDFORMAT_BEGIN
 90
        0
 91
        1
 62
     0
 92
       -2
340
14
 93
        0
 40
0.045
309
GRIDFORMAT_END
 95
       16
302
GRIDFORMAT
  1
GRIDFORMAT_BEGIN
 90
        0
 91
        1
 62
     0
 92
       -2
340
14
 93
        0
 40
0.045
309
GRIDFORMAT_END
 95
       32
302
GRIDFORMAT
  1
GRIDFORMAT_BEGIN
 90
        0
 91
        1
 62
     0
 92
       -2
340
14
 93
        0
 40
0.045
309
GRIDFORMAT_END
309
TABLEFORMAT_END
  1
CELLSTYLE_BEGIN
 90
        1
 91
        1
300
_TITLE
309
CELLSTYLE_END
300
CELLSTYLE
  1
TABLEFORMAT_BEGIN
 90
        5
170
     1
 91
        0
 92
        0
 62
   257
 93
        1
300
CONTENTFORMAT
  1
CONTENTFORMAT_BEGIN
 90
        0
 91
        0
 92
        4
 93
        0
300

 40
0.0
140
1.0
 94
        5
 62
     0
340
11
144
0.18
309
CONTENTFORMAT_END
171
     1
301
MARGIN
  1
CELLMARGIN_BEGIN
 40
0.06
 40
0.06
 40
0.06
 40
0.06
 40
0.18
 40
0.18
309
CELLMARGIN_END
 94
        6
 95
        1
302
GRIDFORMAT
  1
GRIDFORMAT_BEGIN
 90
        0
 91
        1
 62
     0
 92
       -2
340
14
 93
        0
 40
0.045
309
GRIDFORMAT_END
 95
        2
302
GRIDFORMAT
  1
GRIDFORMAT_BEGIN
 90
        0
 91
        1
 62
     0
 92
       -2
340
14
 93
        0
 40
0.045
309
GRIDFORMAT_END
 95
        4
302
GRIDFORMAT
  1
GRIDFORMAT_BEGIN
 90
        0
 91
        1
 62
     0
 92
       -2
340
14
 93
        0
 40
0.045
309
GRIDFORMAT_END
 95
        8
302
GRIDFORMAT
  1
GRIDFORMAT_BEGIN
 90
        0
 91
        1
 62
     0
 92
       -2
340
14
 93
        0
 40
0.045
309
GRIDFORMAT_END
 95
       16
302
GRIDFORMAT
  1
GRIDFORMAT_BEGIN
 90
        0
 91
        1
 62
     0
 92
       -2
340
14
 93
        0
 40
0.045
309
GRIDFORMAT_END
 95
       32
302
GRIDFORMAT
  1
GRIDFORMAT_BEGIN
 90
        0
 91
        1
 62
     0
 92
       -2
340
14
 93
        0
 40
0.045
309
GRIDFORMAT_END
309
TABLEFORMAT_END
  1
CELLSTYLE_BEGIN
 90
        2
 91
        1
300
_HEADER
309
CELLSTYLE_END
300
CELLSTYLE
  1
TABLEFORMAT_BEGIN
 90
        5
170
     1
 91
        0
 92
        0
 62
   257
 93
        1
300
CONTENTFORMAT
  1
CONTENTFORMAT_BEGIN
 90
        0
 91
        0
 92
        4
 93
        0
300

 40
0.0
140
1.0
 94
        2
 62
     0
340
11
144
0.18
309
CONTENTFORMAT_END
171
     1
301
MARGIN
  1
CELLMARGIN_BEGIN
 40
0.06
 40
0.06
 40
0.06
 40
0.06
 40
0.18
 40
0.18
309
CELLMARGIN_END
 94
        6
 95
        1
302
GRIDFORMAT
  1
GRIDFORMAT_BEGIN
 90
        0
 91
        1
 62
     0
 92
       -2
340
14
 93
        0
 40
0.045
309
GRIDFORMAT_END
 95
        2
302
GRIDFORMAT
  1
GRIDFORMAT_BEGIN
 90
        0
 91
        1
 62
     0
 92
       -2
340
14
 93
        0
 40
0.045
309
GRIDFORMAT_END
 95
        4
302
GRIDFORMAT
  1
GRIDFORMAT_BEGIN
 90
        0
 91
        1
 62
     0
 92
       -2
340
14
 93
        0
 40
0.045
309
GRIDFORMAT_END
 95
        8
302
GRIDFORMAT
  1
GRIDFORMAT_BEGIN
 90
        0
 91
        1
 62
     0
 92
       -2
340
14
 93
        0
 40
0.045
309
GRIDFORMAT_END
 95
       16
302
GRIDFORMAT
  1
GRIDFORMAT_BEGIN
 90
        0
 91
        1
 62
     0
 92
       -2
340
14
 93
        0
 40
0.045
309
GRIDFORMAT_END
 95
       32
302
GRIDFORMAT
  1
GRIDFORMAT_BEGIN
 90
        0
 91
        1
 62
     0
 92
       -2
340
14
 93
        0
 40
0.045
309
GRIDFORMAT_END
309
TABLEFORMAT_END
  1
CELLSTYLE_BEGIN
 90
        3
 91
        2
300
_DATA
309
CELLSTYLE_END
  0
XRECORD
  5
431
102
{ACAD_REACTORS
330
259
102
}
330
259
100
AcDbXrecord
280
     1
102
ACAD_ROUNDTRIP_PRE2007_TABLESTYLE
 90
        4
 91
        0
  1

 92
        4
 93
        0
  2

 94
        4
 95
        0
  3

  0
XRECORD
  5
40A
102
{ACAD_REACTORS
330
409
102
}
330
409
100
AcDbXrecord
280
     1
102
RTVSPost2010Prop28
280
     1
102
RTVSPost2010PropOp28
 70
     1
102
RTVSPost2010Prop29
280
     1
102
RTVSPost2010PropOp29
 70
     1
102
RTVSPost2010Prop30
280
     0
102
RTVSPost2010PropOp30
 70
     1
102
RTVSPost2010Prop31
280
     0
102
RTVSPost2010PropOp31
 70
     1
102
RTVSPost2010Prop32
280
     0
102
RTVSPost2010PropOp32
 70
     1
102
RTVSPost2010Prop33
280
     0
102
RTVSPost2010PropOp33
 70
     1
102
RTVSPost2010Prop34
280
     0
102
RTVSPost2010PropOp34
 70
     1
102
RTVSPost2010Prop35
280
     0
102
RTVSPost2010PropOp35
 70
     1
102
RTVSPost2010Prop36
280
     0
102
RTVSPost2010PropOp36
 70
     1
102
RTVSPost2010Prop37
 90
       50
102
RTVSPost2010PropOp37
 70
     1
102
RTVSPost2010Prop38
140
0.0
102
RTVSPost2010PropOp38
 70
     1
102
RTVSPost2010Prop39
140
1.0
102
RTVSPost2010PropOp39
 70
     1
102
RTVSPost2010Prop40
 90
        0
102
RTVSPost2010PropOp40
 70
     1
102
RTVSPost2010Prop41ColorIndex
 90
       18
102
RTVSPost2010Prop41ColorRGB
 90
        0
102
RTVSPost2010PropOp41
 70
     1
102
RTVSPost2010Prop42
 90
       50
102
RTVSPost2010PropOp42
 70
     1
102
RTVSPost2010Prop43
 90
        3
102
RTVSPost2010PropOp43
 70
     1
102
RTVSPost2010Prop44ColorIndex
 90
        5
102
RTVSPost2010Prop44ColorRGB
 90
      255
102
RTVSPost2010PropOp44
 70
     1
102
RTVSPost2010Prop45
280
     0
102
RTVSPost2010PropOp45
 70
     1
102
RTVSPost2010Prop46
 90
       50
102
RTVSPost2010PropOp46
 70
     1
102
RTVSPost2010Prop47
 90
       50
102
RTVSPost2010PropOp47
 70
     1
102
RTVSPost2010Prop48
 90
       50
102
RTVSPost2010PropOp48
 70
     1
102
RTVSPost2010Prop49
280
     0
102
RTVSPost2010PropOp49
 70
     1
102
RTVSPost2010Prop50
 90
       50
102
RTVSPost2010PropOp50
 70
     1
102
RTVSPost2010Prop51ColorIndex
 90
      256
102
RTVSPost2010Prop51ColorRGB
 90
-16777216
102
RTVSPost2010PropOp51
 70
     0
102
RTVSPost2010Prop52
140
1.0
102
RTVSPost2010PropOp52
 70
     0
102
RTVSPost2010Prop53
 90
        2
102
RTVSPost2010PropOp53
 70
     1
102
RTVSPost2010Prop54
  1
strokes_ogs.tif
102
RTVSPost2010PropOp54
 70
     1
102
RTVSPost2010Prop55
280
     0
102
RTVSPost2010PropOp55
 70
     1
102
RTVSPost2010Prop56
140
1.0
102
RTVSPost2010PropOp56
 70
     1
102
RTVSPost2010Prop57
140
1.0
102
RTVSPost2010PropOp57
 70
     1
102
RTVSPropertyOp0
 70
     1
102
RTVSPropertyOp1
 70
     1
102
RTVSPropertyOp2
 70
     1
102
RTVSPropertyOp3
 70
     1
102
RTVSPropertyOp4
 70
     1
102
RTVSPropertyOp5
 70
     1
102
RTVSPropertyOp6
 70
     1
102
RTVSPropertyOp7
 70
     1
102
RTVSPropertyOp8
 70
     1
102
RTVSPropertyOp9
 70
     1
102
RTVSPropertyOp10
 70
     1
102
RTVSPropertyOp11
 70
     1
102
RTVSPropertyOp12
 70
     1
102
RTVSPropertyOp13
 70
     1
102
RTVSPropertyOp14
 70
     1
102
RTVSPropertyOp15
 70
     1
102
RTVSPropertyOp16
 70
     1
102
RTVSPropertyOp17
 70
     1
102
RTVSPropertyOp18
 70
     1
102
RTVSPropertyOp19
 70
     1
102
RTVSPropertyOp20
 70
     1
102
RTVSPropertyOp21
 70
     1
102
RTVSPropertyOp22
 70
     1
102
RTVSPropertyOp23
 70
     1
102
RTVSPropertyOp24
 70
     1
102
RTVSPropertyOp25
 70
     1
102
RTVSPropertyOp26
 70
     1
102
RTVSPropertyOp27
 70
     1
102
RTVSPropertyOp28
 70
     1
102
RTVSPropertyOp29
 70
     1
102
RTVSPropertyOp30
 70
     1
102
RTVSPropertyOp31
 70
     1
102
RTVSPropertyOp32
 70
     1
102
RTVSPropertyOp33
 70
     1
102
RTVSPropertyOp34
 70
     1
102
RTVSPropertyOp35
 70
     1
102
RTVSPropertyOp36
 70
     1
102
RTVSPropertyOp37
 70
     1
102
RTVSPropertyOp38
 70
     1
102
RTVSPropertyOp39
 70
     1
102
RTVSPropertyOp40
 70
     1
102
RTVSPropertyOp41
 70
     1
102
RTVSPropertyOp42
 70
     1
102
RTVSPropertyOp43
 70
     1
102
RTVSPropertyOp44
 70
     1
102
RTVSPropertyOp45
 70
     1
102
RTVSPropertyOp46
 70
     1
102
RTVSPropertyOp47
 70
     1
102
RTVSPropertyOp48
 70
     1
102
RTVSPropertyOp49
 70
     1
102
RTVSPropertyOp50
 70
     1
102
RTVSPropertyOp51
 70
     0
102
RTVSPropertyOp52
 70
     0
102
RTVSPropertyOp53
 70
     1
102
RTVSPropertyOp54
 70
     1
102
RTVSPropertyOp55
 70
     1
102
RTVSPropertyOp56
 70
     1
102
RTVSPropertyOp57
 70
     1
102
RTVSPropertyOp58
 70
     1
102
RTVSPropertyOp59
 70
     1
102
RTVSPropertyOp60
 70
     1
102
RTVSPropertyOp61
 70
     1
102
RTVSPropertyOp62
 70
     1
  0
XRECORD
  5
410
102
{ACAD_REACTORS
330
40F
102
}
330
40F
100
AcDbXrecord
280
     1
102
RTVSPost2010Prop28
280
     0
102
RTVSPost2010PropOp28
 70
     1
102
RTVSPost2010Prop29
280
     1
102
RTVSPost2010PropOp29
 70
     1
102
RTVSPost2010Prop30
280
     1
102
RTVSPost2010PropOp30
 70
     1
102
RTVSPost2010Prop31
280
     0
102
RTVSPost2010PropOp31
 70
     1
102
RTVSPost2010Prop32
280
     0
102
RTVSPost2010PropOp32
 70
     1
102
RTVSPost2010Prop33
280
     0
102
RTVSPost2010PropOp33
 70
     1
102
RTVSPost2010Prop34
280
     0
102
RTVSPost2010PropOp34
 70
     1
102
RTVSPost2010Prop35
280
     0
102
RTVSPost2010PropOp35
 70
     1
102
RTVSPost2010Prop36
280
     0
102
RTVSPost2010PropOp36
 70
     1
102
RTVSPost2010Prop37
 90
       50
102
RTVSPost2010PropOp37
 70
     1
102
RTVSPost2010Prop38
140
0.0
102
RTVSPost2010PropOp38
 70
     1
102
RTVSPost2010Prop39
140
1.0
102
RTVSPost2010PropOp39
 70
     1
102
RTVSPost2010Prop40
 90
        0
102
RTVSPost2010PropOp40
 70
     1
102
RTVSPost2010Prop41ColorIndex
 90
       18
102
RTVSPost2010Prop41ColorRGB
 90
        0
102
RTVSPost2010PropOp41
 70
     1
102
RTVSPost2010Prop42
 90
       50
102
RTVSPost2010PropOp42
 70
     1
102
RTVSPost2010Prop43
 90
        3
102
RTVSPost2010PropOp43
 70
     1
102
RTVSPost2010Prop44ColorIndex
 90
        5
102
RTVSPost2010Prop44ColorRGB
 90
      255
102
RTVSPost2010PropOp44
 70
     1
102
RTVSPost2010Prop45
280
     0
102
RTVSPost2010PropOp45
 70
     1
102
RTVSPost2010Prop46
 90
       50
102
RTVSPost2010PropOp46
 70
     1
102
RTVSPost2010Prop47
 90
       50
102
RTVSPost2010PropOp47
 70
     1
102
RTVSPost2010Prop48
 90
       50
102
RTVSPost2010PropOp48
 70
     1
102
RTVSPost2010Prop49
280
     0
102
RTVSPost2010PropOp49
 70
     1
102
RTVSPost2010Prop50
 90
       50
102
RTVSPost2010PropOp50
 70
     1
102
RTVSPost2010Prop51ColorIndex
 90
      256
102
RTVSPost2010Prop51ColorRGB
 90
-16777216
102
RTVSPost2010PropOp51
 70
     0
102
RTVSPost2010Prop52
140
1.0
102
RTVSPost2010PropOp52
 70
     0
102
RTVSPost2010Prop53
 90
        2
102
RTVSPost2010PropOp53
 70
     1
102
RTVSPost2010Prop54
  1
strokes_ogs.tif
102
RTVSPost2010PropOp54
 70
     1
102
RTVSPost2010Prop55
280
     0
102
RTVSPost2010PropOp55
 70
     1
102
RTVSPost2010Prop56
140
1.0
102
RTVSPost2010PropOp56
 70
     1
102
RTVSPost2010Prop57
140
1.0
102
RTVSPost2010PropOp57
 70
     1
102
RTVSPropertyOp0
 70
     1
102
RTVSPropertyOp1
 70
     1
102
RTVSPropertyOp2
 70
     1
102
RTVSPropertyOp3
 70
     1
102
RTVSPropertyOp4
 70
     1
102
RTVSPropertyOp5
 70
     1
102
RTVSPropertyOp6
 70
     1
102
RTVSPropertyOp7
 70
     1
102
RTVSPropertyOp8
 70
     1
102
RTVSPropertyOp9
 70
     1
102
RTVSPropertyOp10
 70
     1
102
RTVSPropertyOp11
 70
     1
102
RTVSPropertyOp12
 70
     1
102
RTVSPropertyOp13
 70
     1
102
RTVSPropertyOp14
 70
     1
102
RTVSPropertyOp15
 70
     1
102
RTVSPropertyOp16
 70
     1
102
RTVSPropertyOp17
 70
     1
102
RTVSPropertyOp18
 70
     1
102
RTVSPropertyOp19
 70
     1
102
RTVSPropertyOp20
 70
     1
102
RTVSPropertyOp21
 70
     1
102
RTVSPropertyOp22
 70
     1
102
RTVSPropertyOp23
 70
     1
102
RTVSPropertyOp24
 70
     1
102
RTVSPropertyOp25
 70
     1
102
RTVSPropertyOp26
 70
     1
102
RTVSPropertyOp27
 70
     1
102
RTVSPropertyOp28
 70
     1
102
RTVSPropertyOp29
 70
     1
102
RTVSPropertyOp30
 70
     1
102
RTVSPropertyOp31
 70
     1
102
RTVSPropertyOp32
 70
     1
102
RTVSPropertyOp33
 70
     1
102
RTVSPropertyOp34
 70
     1
102
RTVSPropertyOp35
 70
     1
102
RTVSPropertyOp36
 70
     1
102
RTVSPropertyOp37
 70
     1
102
RTVSPropertyOp38
 70
     1
102
RTVSPropertyOp39
 70
     1
102
RTVSPropertyOp40
 70
     1
102
RTVSPropertyOp41
 70
     1
102
RTVSPropertyOp42
 70
     1
102
RTVSPropertyOp43
 70
     1
102
RTVSPropertyOp44
 70
     1
102
RTVSPropertyOp45
 70
     1
102
RTVSPropertyOp46
 70
     1
102
RTVSPropertyOp47
 70
     1
102
RTVSPropertyOp48
 70
     1
102
RTVSPropertyOp49
 70
     1
102
RTVSPropertyOp50
 70
     1
102
RTVSPropertyOp51
 70
     0
102
RTVSPropertyOp52
 70
     0
102
RTVSPropertyOp53
 70
     1
102
RTVSPropertyOp54
 70
     1
102
RTVSPropertyOp55
 70
     1
102
RTVSPropertyOp56
 70
     1
102
RTVSPropertyOp57
 70
     1
102
RTVSPropertyOp58
 70
     1
102
RTVSPropertyOp59
 70
     1
102
RTVSPropertyOp60
 70
     1
102
RTVSPropertyOp61
 70
     1
102
RTVSPropertyOp62
 70
     1
  0
XRECORD
  5
418
102
{ACAD_REACTORS
330
417
102
}
330
417
100
AcDbXrecord
280
     1
102
RTVSPost2010Prop28
280
     0
102
RTVSPost2010PropOp28
 70
     1
102
RTVSPost2010Prop29
280
     1
102
RTVSPost2010PropOp29
 70
     1
102
RTVSPost2010Prop30
280
     1
102
RTVSPost2010PropOp30
 70
     1
102
RTVSPost2010Prop31
280
     0
102
RTVSPost2010PropOp31
 70
     1
102
RTVSPost2010Prop32
280
     0
102
RTVSPost2010PropOp32
 70
     1
102
RTVSPost2010Prop33
280
     0
102
RTVSPost2010PropOp33
 70
     1
102
RTVSPost2010Prop34
280
     0
102
RTVSPost2010PropOp34
 70
     1
102
RTVSPost2010Prop35
280
     0
102
RTVSPost2010PropOp35
 70
     1
102
RTVSPost2010Prop36
280
     0
102
RTVSPost2010PropOp36
 70
     1
102
RTVSPost2010Prop37
 90
       50
102
RTVSPost2010PropOp37
 70
     1
102
RTVSPost2010Prop38
140
0.0
102
RTVSPost2010PropOp38
 70
     1
102
RTVSPost2010Prop39
140
1.0
102
RTVSPost2010PropOp39
 70
     1
102
RTVSPost2010Prop40
 90
        0
102
RTVSPost2010PropOp40
 70
     1
102
RTVSPost2010Prop41ColorIndex
 90
       18
102
RTVSPost2010Prop41ColorRGB
 90
        0
102
RTVSPost2010PropOp41
 70
     1
102
RTVSPost2010Prop42
 90
       50
102
RTVSPost2010PropOp42
 70
     1
102
RTVSPost2010Prop43
 90
        3
102
RTVSPost2010PropOp43
 70
     1
102
RTVSPost2010Prop44ColorIndex
 90
        5
102
RTVSPost2010Prop44ColorRGB
 90
      255
102
RTVSPost2010PropOp44
 70
     1
102
RTVSPost2010Prop45
280
     0
102
RTVSPost2010PropOp45
 70
     1
102
RTVSPost2010Prop46
 90
       50
102
RTVSPost2010PropOp46
 70
     1
102
RTVSPost2010Prop47
 90
       50
102
RTVSPost2010PropOp47
 70
     1
102
RTVSPost2010Prop48
 90
       50
102
RTVSPost2010PropOp48
 70
     1
102
RTVSPost2010Prop49
280
     0
102
RTVSPost2010PropOp49
 70
     1
102
RTVSPost2010Prop50
 90
       50
102
RTVSPost2010PropOp50
 70
     1
102
RTVSPost2010Prop51ColorIndex
 90
      256
102
RTVSPost2010Prop51ColorRGB
 90
-16777216
102
RTVSPost2010PropOp51
 70
     0
102
RTVSPost2010Prop52
140
1.0
102
RTVSPost2010PropOp52
 70
     0
102
RTVSPost2010Prop53
 90
        2
102
RTVSPost2010PropOp53
 70
     1
102
RTVSPost2010Prop54
  1
strokes_ogs.tif
102
RTVSPost2010PropOp54
 70
     1
102
RTVSPost2010Prop55
280
     0
102
RTVSPost2010PropOp55
 70
     1
102
RTVSPost2010Prop56
140
1.0
102
RTVSPost2010PropOp56
 70
     1
102
RTVSPost2010Prop57
140
1.0
102
RTVSPost2010PropOp57
 70
     1
102
RTVSPropertyOp0
 70
     1
102
RTVSPropertyOp1
 70
     1
102
RTVSPropertyOp2
 70
     1
102
RTVSPropertyOp3
 70
     1
102
RTVSPropertyOp4
 70
     1
102
RTVSPropertyOp5
 70
     1
102
RTVSPropertyOp6
 70
     1
102
RTVSPropertyOp7
 70
     1
102
RTVSPropertyOp8
 70
     1
102
RTVSPropertyOp9
 70
     1
102
RTVSPropertyOp10
 70
     1
102
RTVSPropertyOp11
 70
     1
102
RTVSPropertyOp12
 70
     1
102
RTVSPropertyOp13
 70
     1
102
RTVSPropertyOp14
 70
     1
102
RTVSPropertyOp15
 70
     1
102
RTVSPropertyOp16
 70
     1
102
RTVSPropertyOp17
 70
     1
102
RTVSPropertyOp18
 70
     1
102
RTVSPropertyOp19
 70
     1
102
RTVSPropertyOp20
 70
     1
102
RTVSPropertyOp21
 70
     1
102
RTVSPropertyOp22
 70
     1
102
RTVSPropertyOp23
 70
     1
102
RTVSPropertyOp24
 70
     1
102
RTVSPropertyOp25
 70
     1
102
RTVSPropertyOp26
 70
     1
102
RTVSPropertyOp27
 70
     1
102
RTVSPropertyOp28
 70
     1
102
RTVSPropertyOp29
 70
     1
102
RTVSPropertyOp30
 70
     1
102
RTVSPropertyOp31
 70
     1
102
RTVSPropertyOp32
 70
     1
102
RTVSPropertyOp33
 70
     1
102
RTVSPropertyOp34
 70
     1
102
RTVSPropertyOp35
 70
     1
102
RTVSPropertyOp36
 70
     1
102
RTVSPropertyOp37
 70
     1
102
RTVSPropertyOp38
 70
     1
102
RTVSPropertyOp39
 70
     1
102
RTVSPropertyOp40
 70
     1
102
RTVSPropertyOp41
 70
     1
102
RTVSPropertyOp42
 70
     1
102
RTVSPropertyOp43
 70
     1
102
RTVSPropertyOp44
 70
     1
102
RTVSPropertyOp45
 70
     1
102
RTVSPropertyOp46
 70
     1
102
RTVSPropertyOp47
 70
     1
102
RTVSPropertyOp48
 70
     1
102
RTVSPropertyOp49
 70
     1
102
RTVSPropertyOp50
 70
     1
102
RTVSPropertyOp51
 70
     0
102
RTVSPropertyOp52
 70
     0
102
RTVSPropertyOp53
 70
     1
102
RTVSPropertyOp54
 70
     1
102
RTVSPropertyOp55
 70
     1
102
RTVSPropertyOp56
 70
     1
102
RTVSPropertyOp57
 70
     1
102
RTVSPropertyOp58
 70
     1
102
RTVSPropertyOp59
 70
     1
102
RTVSPropertyOp60
 70
     1
102
RTVSPropertyOp61
 70
     1
102
RTVSPropertyOp62
 70
     1
  0
XRECORD
  5
420
102
{ACAD_REACTORS
330
41F
102
}
330
41F
100
AcDbXrecord
280
     1
102
RTVSPost2010Prop28
280
     0
102
RTVSPost2010PropOp28
 70
     1
102
RTVSPost2010Prop29
280
     1
102
RTVSPost2010PropOp29
 70
     1
102
RTVSPost2010Prop30
280
     1
102
RTVSPost2010PropOp30
 70
     1
102
RTVSPost2010Prop31
280
     0
102
RTVSPost2010PropOp31
 70
     1
102
RTVSPost2010Prop32
280
     0
102
RTVSPost2010PropOp32
 70
     1
102
RTVSPost2010Prop33
280
     0
102
RTVSPost2010PropOp33
 70
     1
102
RTVSPost2010Prop34
280
     0
102
RTVSPost2010PropOp34
 70
     1
102
RTVSPost2010Prop35
280
     0
102
RTVSPost2010PropOp35
 70
     1
102
RTVSPost2010Prop36
280
     0
102
RTVSPost2010PropOp36
 70
     1
102
RTVSPost2010Prop37
 90
       50
102
RTVSPost2010PropOp37
 70
     1
102
RTVSPost2010Prop38
140
0.0
102
RTVSPost2010PropOp38
 70
     1
102
RTVSPost2010Prop39
140
1.0
102
RTVSPost2010PropOp39
 70
     1
102
RTVSPost2010Prop40
 90
        0
102
RTVSPost2010PropOp40
 70
     1
102
RTVSPost2010Prop41ColorIndex
 90
       18
102
RTVSPost2010Prop41ColorRGB
 90
        0
102
RTVSPost2010PropOp41
 70
     1
102
RTVSPost2010Prop42
 90
       50
102
RTVSPost2010PropOp42
 70
     1
102
RTVSPost2010Prop43
 90
        3
102
RTVSPost2010PropOp43
 70
     1
102
RTVSPost2010Prop44ColorIndex
 90
        5
102
RTVSPost2010Prop44ColorRGB
 90
      255
102
RTVSPost2010PropOp44
 70
     1
102
RTVSPost2010Prop45
280
     0
102
RTVSPost2010PropOp45
 70
     1
102
RTVSPost2010Prop46
 90
       50
102
RTVSPost2010PropOp46
 70
     1
102
RTVSPost2010Prop47
 90
       50
102
RTVSPost2010PropOp47
 70
     1
102
RTVSPost2010Prop48
 90
       50
102
RTVSPost2010PropOp48
 70
     1
102
RTVSPost2010Prop49
280
     0
102
RTVSPost2010PropOp49
 70
     1
102
RTVSPost2010Prop50
 90
       50
102
RTVSPost2010PropOp50
 70
     1
102
RTVSPost2010Prop51ColorIndex
 90
      256
102
RTVSPost2010Prop51ColorRGB
 90
-16777216
102
RTVSPost2010PropOp51
 70
     0
102
RTVSPost2010Prop52
140
1.0
102
RTVSPost2010PropOp52
 70
     0
102
RTVSPost2010Prop53
 90
        2
102
RTVSPost2010PropOp53
 70
     1
102
RTVSPost2010Prop54
  1
strokes_ogs.tif
102
RTVSPost2010PropOp54
 70
     1
102
RTVSPost2010Prop55
280
     0
102
RTVSPost2010PropOp55
 70
     1
102
RTVSPost2010Prop56
140
1.0
102
RTVSPost2010PropOp56
 70
     1
102
RTVSPost2010Prop57
140
1.0
102
RTVSPost2010PropOp57
 70
     1
102
RTVSPropertyOp0
 70
     1
102
RTVSPropertyOp1
 70
     1
102
RTVSPropertyOp2
 70
     1
102
RTVSPropertyOp3
 70
     1
102
RTVSPropertyOp4
 70
     1
102
RTVSPropertyOp5
 70
     1
102
RTVSPropertyOp6
 70
     1
102
RTVSPropertyOp7
 70
     1
102
RTVSPropertyOp8
 70
     1
102
RTVSPropertyOp9
 70
     1
102
RTVSPropertyOp10
 70
     1
102
RTVSPropertyOp11
 70
     1
102
RTVSPropertyOp12
 70
     1
102
RTVSPropertyOp13
 70
     1
102
RTVSPropertyOp14
 70
     1
102
RTVSPropertyOp15
 70
     1
102
RTVSPropertyOp16
 70
     1
102
RTVSPropertyOp17
 70
     1
102
RTVSPropertyOp18
 70
     1
102
RTVSPropertyOp19
 70
     1
102
RTVSPropertyOp20
 70
     1
102
RTVSPropertyOp21
 70
     1
102
RTVSPropertyOp22
 70
     1
102
RTVSPropertyOp23
 70
     1
102
RTVSPropertyOp24
 70
     1
102
RTVSPropertyOp25
 70
     1
102
RTVSPropertyOp26
 70
     1
102
RTVSPropertyOp27
 70
     1
102
RTVSPropertyOp28
 70
     1
102
RTVSPropertyOp29
 70
     1
102
RTVSPropertyOp30
 70
     1
102
RTVSPropertyOp31
 70
     1
102
RTVSPropertyOp32
 70
     1
102
RTVSPropertyOp33
 70
     1
102
RTVSPropertyOp34
 70
     1
102
RTVSPropertyOp35
 70
     1
102
RTVSPropertyOp36
 70
     1
102
RTVSPropertyOp37
 70
     1
102
RTVSPropertyOp38
 70
     1
102
RTVSPropertyOp39
 70
     1
102
RTVSPropertyOp40
 70
     1
102
RTVSPropertyOp41
 70
     1
102
RTVSPropertyOp42
 70
     1
102
RTVSPropertyOp43
 70
     1
102
RTVSPropertyOp44
 70
     1
102
RTVSPropertyOp45
 70
     1
102
RTVSPropertyOp46
 70
     1
102
RTVSPropertyOp47
 70
     1
102
RTVSPropertyOp48
 70
     1
102
RTVSPropertyOp49
 70
     1
102
RTVSPropertyOp50
 70
     1
102
RTVSPropertyOp51
 70
     0
102
RTVSPropertyOp52
 70
     0
102
RTVSPropertyOp53
 70
     1
102
RTVSPropertyOp54
 70
     1
102
RTVSPropertyOp55
 70
     1
102
RTVSPropertyOp56
 70
     1
102
RTVSPropertyOp57
 70
     1
102
RTVSPropertyOp58
 70
     1
102
RTVSPropertyOp59
 70
     1
102
RTVSPropertyOp60
 70
     1
102
RTVSPropertyOp61
 70
     1
102
RTVSPropertyOp62
 70
     1
  0
XRECORD
  5
414
102
{ACAD_REACTORS
330
413
102
}
330
413
100
AcDbXrecord
280
     1
102
RTVSPost2010Prop28
280
     0
102
RTVSPost2010PropOp28
 70
     1
102
RTVSPost2010Prop29
280
     1
102
RTVSPost2010PropOp29
 70
     1
102
RTVSPost2010Prop30
280
     1
102
RTVSPost2010PropOp30
 70
     1
102
RTVSPost2010Prop31
280
     0
102
RTVSPost2010PropOp31
 70
     1
102
RTVSPost2010Prop32
280
     0
102
RTVSPost2010PropOp32
 70
     1
102
RTVSPost2010Prop33
280
     0
102
RTVSPost2010PropOp33
 70
     1
102
RTVSPost2010Prop34
280
     0
102
RTVSPost2010PropOp34
 70
     1
102
RTVSPost2010Prop35
280
     0
102
RTVSPost2010PropOp35
 70
     1
102
RTVSPost2010Prop36
280
     0
102
RTVSPost2010PropOp36
 70
     1
102
RTVSPost2010Prop37
 90
       50
102
RTVSPost2010PropOp37
 70
     1
102
RTVSPost2010Prop38
140
0.0
102
RTVSPost2010PropOp38
 70
     1
102
RTVSPost2010Prop39
140
1.0
102
RTVSPost2010PropOp39
 70
     1
102
RTVSPost2010Prop40
 90
        0
102
RTVSPost2010PropOp40
 70
     1
102
RTVSPost2010Prop41ColorIndex
 90
       18
102
RTVSPost2010Prop41ColorRGB
 90
        0
102
RTVSPost2010PropOp41
 70
     1
102
RTVSPost2010Prop42
 90
       50
102
RTVSPost2010PropOp42
 70
     1
102
RTVSPost2010Prop43
 90
        3
102
RTVSPost2010PropOp43
 70
     1
102
RTVSPost2010Prop44ColorIndex
 90
        5
102
RTVSPost2010Prop44ColorRGB
 90
      255
102
RTVSPost2010PropOp44
 70
     1
102
RTVSPost2010Prop45
280
     0
102
RTVSPost2010PropOp45
 70
     1
102
RTVSPost2010Prop46
 90
       50
102
RTVSPost2010PropOp46
 70
     1
102
RTVSPost2010Prop47
 90
       50
102
RTVSPost2010PropOp47
 70
     1
102
RTVSPost2010Prop48
 90
       50
102
RTVSPost2010PropOp48
 70
     1
102
RTVSPost2010Prop49
280
     0
102
RTVSPost2010PropOp49
 70
     1
102
RTVSPost2010Prop50
 90
       50
102
RTVSPost2010PropOp50
 70
     1
102
RTVSPost2010Prop51ColorIndex
 90
      256
102
RTVSPost2010Prop51ColorRGB
 90
-16777216
102
RTVSPost2010PropOp51
 70
     0
102
RTVSPost2010Prop52
140
1.0
102
RTVSPost2010PropOp52
 70
     0
102
RTVSPost2010Prop53
 90
        2
102
RTVSPost2010PropOp53
 70
     1
102
RTVSPost2010Prop54
  1
strokes_ogs.tif
102
RTVSPost2010PropOp54
 70
     1
102
RTVSPost2010Prop55
280
     0
102
RTVSPost2010PropOp55
 70
     1
102
RTVSPost2010Prop56
140
1.0
102
RTVSPost2010PropOp56
 70
     1
102
RTVSPost2010Prop57
140
1.0
102
RTVSPost2010PropOp57
 70
     1
102
RTVSPropertyOp0
 70
     1
102
RTVSPropertyOp1
 70
     1
102
RTVSPropertyOp2
 70
     1
102
RTVSPropertyOp3
 70
     1
102
RTVSPropertyOp4
 70
     1
102
RTVSPropertyOp5
 70
     1
102
RTVSPropertyOp6
 70
     1
102
RTVSPropertyOp7
 70
     1
102
RTVSPropertyOp8
 70
     1
102
RTVSPropertyOp9
 70
     1
102
RTVSPropertyOp10
 70
     1
102
RTVSPropertyOp11
 70
     1
102
RTVSPropertyOp12
 70
     1
102
RTVSPropertyOp13
 70
     1
102
RTVSPropertyOp14
 70
     1
102
RTVSPropertyOp15
 70
     1
102
RTVSPropertyOp16
 70
     1
102
RTVSPropertyOp17
 70
     1
102
RTVSPropertyOp18
 70
     1
102
RTVSPropertyOp19
 70
     1
102
RTVSPropertyOp20
 70
     1
102
RTVSPropertyOp21
 70
     1
102
RTVSPropertyOp22
 70
     1
102
RTVSPropertyOp23
 70
     1
102
RTVSPropertyOp24
 70
     1
102
RTVSPropertyOp25
 70
     1
102
RTVSPropertyOp26
 70
     1
102
RTVSPropertyOp27
 70
     1
102
RTVSPropertyOp28
 70
     1
102
RTVSPropertyOp29
 70
     1
102
RTVSPropertyOp30
 70
     1
102
RTVSPropertyOp31
 70
     1
102
RTVSPropertyOp32
 70
     1
102
RTVSPropertyOp33
 70
     1
102
RTVSPropertyOp34
 70
     1
102
RTVSPropertyOp35
 70
     1
102
RTVSPropertyOp36
 70
     1
102
RTVSPropertyOp37
 70
     1
102
RTVSPropertyOp38
 70
     1
102
RTVSPropertyOp39
 70
     1
102
RTVSPropertyOp40
 70
     1
102
RTVSPropertyOp41
 70
     1
102
RTVSPropertyOp42
 70
     1
102
RTVSPropertyOp43
 70
     1
102
RTVSPropertyOp44
 70
     1
102
RTVSPropertyOp45
 70
     1
102
RTVSPropertyOp46
 70
     1
102
RTVSPropertyOp47
 70
     1
102
RTVSPropertyOp48
 70
     1
102
RTVSPropertyOp49
 70
     1
102
RTVSPropertyOp50
 70
     1
102
RTVSPropertyOp51
 70
     0
102
RTVSPropertyOp52
 70
     0
102
RTVSPropertyOp53
 70
     1
102
RTVSPropertyOp54
 70
     1
102
RTVSPropertyOp55
 70
     1
102
RTVSPropertyOp56
 70
     1
102
RTVSPropertyOp57
 70
     1
102
RTVSPropertyOp58
 70
     1
102
RTVSPropertyOp59
 70
     1
102
RTVSPropertyOp60
 70
     1
102
RTVSPropertyOp61
 70
     1
102
RTVSPropertyOp62
 70
     1
  0
XRECORD
  5
416
102
{ACAD_REACTORS
330
415
102
}
330
415
100
AcDbXrecord
280
     1
102
RTVSPost2010Prop28
280
     0
102
RTVSPost2010PropOp28
 70
     1
102
RTVSPost2010Prop29
280
     1
102
RTVSPost2010PropOp29
 70
     1
102
RTVSPost2010Prop30
280
     1
102
RTVSPost2010PropOp30
 70
     1
102
RTVSPost2010Prop31
280
     0
102
RTVSPost2010PropOp31
 70
     1
102
RTVSPost2010Prop32
280
     0
102
RTVSPost2010PropOp32
 70
     1
102
RTVSPost2010Prop33
280
     0
102
RTVSPost2010PropOp33
 70
     1
102
RTVSPost2010Prop34
280
     0
102
RTVSPost2010PropOp34
 70
     1
102
RTVSPost2010Prop35
280
     0
102
RTVSPost2010PropOp35
 70
     1
102
RTVSPost2010Prop36
280
     0
102
RTVSPost2010PropOp36
 70
     1
102
RTVSPost2010Prop37
 90
       50
102
RTVSPost2010PropOp37
 70
     1
102
RTVSPost2010Prop38
140
0.0
102
RTVSPost2010PropOp38
 70
     1
102
RTVSPost2010Prop39
140
1.0
102
RTVSPost2010PropOp39
 70
     1
102
RTVSPost2010Prop40
 90
        0
102
RTVSPost2010PropOp40
 70
     1
102
RTVSPost2010Prop41ColorIndex
 90
       18
102
RTVSPost2010Prop41ColorRGB
 90
        0
102
RTVSPost2010PropOp41
 70
     1
102
RTVSPost2010Prop42
 90
       50
102
RTVSPost2010PropOp42
 70
     1
102
RTVSPost2010Prop43
 90
        3
102
RTVSPost2010PropOp43
 70
     1
102
RTVSPost2010Prop44ColorIndex
 90
        5
102
RTVSPost2010Prop44ColorRGB
 90
      255
102
RTVSPost2010PropOp44
 70
     1
102
RTVSPost2010Prop45
280
     0
102
RTVSPost2010PropOp45
 70
     1
102
RTVSPost2010Prop46
 90
       50
102
RTVSPost2010PropOp46
 70
     1
102
RTVSPost2010Prop47
 90
       50
102
RTVSPost2010PropOp47
 70
     1
102
RTVSPost2010Prop48
 90
       50
102
RTVSPost2010PropOp48
 70
     1
102
RTVSPost2010Prop49
280
     0
102
RTVSPost2010PropOp49
 70
     1
102
RTVSPost2010Prop50
 90
       50
102
RTVSPost2010PropOp50
 70
     1
102
RTVSPost2010Prop51ColorIndex
 90
      256
102
RTVSPost2010Prop51ColorRGB
 90
-16777216
102
RTVSPost2010PropOp51
 70
     0
102
RTVSPost2010Prop52
140
1.0
102
RTVSPost2010PropOp52
 70
     0
102
RTVSPost2010Prop53
 90
        2
102
RTVSPost2010PropOp53
 70
     1
102
RTVSPost2010Prop54
  1
strokes_ogs.tif
102
RTVSPost2010PropOp54
 70
     1
102
RTVSPost2010Prop55
280
     0
102
RTVSPost2010PropOp55
 70
     1
102
RTVSPost2010Prop56
140
1.0
102
RTVSPost2010PropOp56
 70
     1
102
RTVSPost2010Prop57
140
1.0
102
RTVSPost2010PropOp57
 70
     1
102
RTVSPropertyOp0
 70
     1
102
RTVSPropertyOp1
 70
     1
102
RTVSPropertyOp2
 70
     1
102
RTVSPropertyOp3
 70
     1
102
RTVSPropertyOp4
 70
     1
102
RTVSPropertyOp5
 70
     1
102
RTVSPropertyOp6
 70
     1
102
RTVSPropertyOp7
 70
     1
102
RTVSPropertyOp8
 70
     1
102
RTVSPropertyOp9
 70
     1
102
RTVSPropertyOp10
 70
     1
102
RTVSPropertyOp11
 70
     1
102
RTVSPropertyOp12
 70
     1
102
RTVSPropertyOp13
 70
     1
102
RTVSPropertyOp14
 70
     1
102
RTVSPropertyOp15
 70
     1
102
RTVSPropertyOp16
 70
     1
102
RTVSPropertyOp17
 70
     1
102
RTVSPropertyOp18
 70
     1
102
RTVSPropertyOp19
 70
     1
102
RTVSPropertyOp20
 70
     1
102
RTVSPropertyOp21
 70
     1
102
RTVSPropertyOp22
 70
     1
102
RTVSPropertyOp23
 70
     1
102
RTVSPropertyOp24
 70
     1
102
RTVSPropertyOp25
 70
     1
102
RTVSPropertyOp26
 70
     1
102
RTVSPropertyOp27
 70
     1
102
RTVSPropertyOp28
 70
     1
102
RTVSPropertyOp29
 70
     1
102
RTVSPropertyOp30
 70
     1
102
RTVSPropertyOp31
 70
     1
102
RTVSPropertyOp32
 70
     1
102
RTVSPropertyOp33
 70
     1
102
RTVSPropertyOp34
 70
     1
102
RTVSPropertyOp35
 70
     1
102
RTVSPropertyOp36
 70
     1
102
RTVSPropertyOp37
 70
     1
102
RTVSPropertyOp38
 70
     1
102
RTVSPropertyOp39
 70
     1
102
RTVSPropertyOp40
 70
     1
102
RTVSPropertyOp41
 70
     1
102
RTVSPropertyOp42
 70
     1
102
RTVSPropertyOp43
 70
     1
102
RTVSPropertyOp44
 70
     1
102
RTVSPropertyOp45
 70
     1
102
RTVSPropertyOp46
 70
     1
102
RTVSPropertyOp47
 70
     1
102
RTVSPropertyOp48
 70
     1
102
RTVSPropertyOp49
 70
     1
102
RTVSPropertyOp50
 70
     1
102
RTVSPropertyOp51
 70
     0
102
RTVSPropertyOp52
 70
     0
102
RTVSPropertyOp53
 70
     1
102
RTVSPropertyOp54
 70
     1
102
RTVSPropertyOp55
 70
     1
102
RTVSPropertyOp56
 70
     1
102
RTVSPropertyOp57
 70
     1
102
RTVSPropertyOp58
 70
     1
102
RTVSPropertyOp59
 70
     1
102
RTVSPropertyOp60
 70
     1
102
RTVSPropertyOp61
 70
     1
102
RTVSPropertyOp62
 70
     1
  0
XRECORD
  5
426
102
{ACAD_REACTORS
330
425
102
}
330
425
100
AcDbXrecord
280
     1
102
RTVSPost2010Prop28
280
     0
102
RTVSPost2010PropOp28
 70
     0
102
RTVSPost2010Prop29
280
     1
102
RTVSPost2010PropOp29
 70
     0
102
RTVSPost2010Prop30
280
     1
102
RTVSPost2010PropOp30
 70
     0
102
RTVSPost2010Prop31
280
     0
102
RTVSPost2010PropOp31
 70
     0
102
RTVSPost2010Prop32
280
     0
102
RTVSPost2010PropOp32
 70
     0
102
RTVSPost2010Prop33
280
     0
102
RTVSPost2010PropOp33
 70
     0
102
RTVSPost2010Prop34
280
     0
102
RTVSPost2010PropOp34
 70
     0
102
RTVSPost2010Prop35
280
     0
102
RTVSPost2010PropOp35
 70
     0
102
RTVSPost2010Prop36
280
     0
102
RTVSPost2010PropOp36
 70
     0
102
RTVSPost2010Prop37
 90
       50
102
RTVSPost2010PropOp37
 70
     0
102
RTVSPost2010Prop38
140
0.0
102
RTVSPost2010PropOp38
 70
     0
102
RTVSPost2010Prop39
140
1.0
102
RTVSPost2010PropOp39
 70
     0
102
RTVSPost2010Prop40
 90
        0
102
RTVSPost2010PropOp40
 70
     0
102
RTVSPost2010Prop41ColorIndex
 90
       18
102
RTVSPost2010Prop41ColorRGB
 90
        0
102
RTVSPost2010PropOp41
 70
     0
102
RTVSPost2010Prop42
 90
       50
102
RTVSPost2010PropOp42
 70
     0
102
RTVSPost2010Prop43
 90
        3
102
RTVSPost2010PropOp43
 70
     0
102
RTVSPost2010Prop44ColorIndex
 90
        5
102
RTVSPost2010Prop44ColorRGB
 90
      255
102
RTVSPost2010PropOp44
 70
     0
102
RTVSPost2010Prop45
280
     0
102
RTVSPost2010PropOp45
 70
     0
102
RTVSPost2010Prop46
 90
       50
102
RTVSPost2010PropOp46
 70
     0
102
RTVSPost2010Prop47
 90
       50
102
RTVSPost2010PropOp47
 70
     0
102
RTVSPost2010Prop48
 90
       50
102
RTVSPost2010PropOp48
 70
     0
102
RTVSPost2010Prop49
280
     0
102
RTVSPost2010PropOp49
 70
     0
102
RTVSPost2010Prop50
 90
       50
102
RTVSPost2010PropOp50
 70
     0
102
RTVSPost2010Prop51ColorIndex
 90
      256
102
RTVSPost2010Prop51ColorRGB
 90
-16777216
102
RTVSPost2010PropOp51
 70
     0
102
RTVSPost2010Prop52
140
1.0
102
RTVSPost2010PropOp52
 70
     0
102
RTVSPost2010Prop53
 90
        2
102
RTVSPost2010PropOp53
 70
     0
102
RTVSPost2010Prop54
  1
strokes_ogs.tif
102
RTVSPost2010PropOp54
 70
     0
102
RTVSPost2010Prop55
280
     0
102
RTVSPost2010PropOp55
 70
     0
102
RTVSPost2010Prop56
140
1.0
102
RTVSPost2010PropOp56
 70
     0
102
RTVSPost2010Prop57
140
1.0
102
RTVSPost2010PropOp57
 70
     0
102
RTVSPropertyOp0
 70
     0
102
RTVSPropertyOp1
 70
     0
102
RTVSPropertyOp2
 70
     0
102
RTVSPropertyOp3
 70
     0
102
RTVSPropertyOp4
 70
     0
102
RTVSPropertyOp5
 70
     0
102
RTVSPropertyOp6
 70
     0
102
RTVSPropertyOp7
 70
     0
102
RTVSPropertyOp8
 70
     0
102
RTVSPropertyOp9
 70
     0
102
RTVSPropertyOp10
 70
     0
102
RTVSPropertyOp11
 70
     0
102
RTVSPropertyOp12
 70
     0
102
RTVSPropertyOp13
 70
     0
102
RTVSPropertyOp14
 70
     2
102
RTVSPropertyOp15
 70
     0
102
RTVSPropertyOp16
 70
     0
102
RTVSPropertyOp17
 70
     0
102
RTVSPropertyOp18
 70
     0
102
RTVSPropertyOp19
 70
     0
102
RTVSPropertyOp20
 70
     0
102
RTVSPropertyOp21
 70
     0
102
RTVSPropertyOp22
 70
     0
102
RTVSPropertyOp23
 70
     0
102
RTVSPropertyOp24
 70
     0
102
RTVSPropertyOp25
 70
     0
102
RTVSPropertyOp26
 70
     0
102
RTVSPropertyOp27
 70
     0
102
RTVSPropertyOp28
 70
     0
102
RTVSPropertyOp29
 70
     0
102
RTVSPropertyOp30
 70
     0
102
RTVSPropertyOp31
 70
     0
102
RTVSPropertyOp32
 70
     0
102
RTVSPropertyOp33
 70
     0
102
RTVSPropertyOp34
 70
     0
102
RTVSPropertyOp35
 70
     0
102
RTVSPropertyOp36
 70
     0
102
RTVSPropertyOp37
 70
     0
102
RTVSPropertyOp38
 70
     0
102
RTVSPropertyOp39
 70
     0
102
RTVSPropertyOp40
 70
     0
102
RTVSPropertyOp41
 70
     0
102
RTVSPropertyOp42
 70
     0
102
RTVSPropertyOp43
 70
     0
102
RTVSPropertyOp44
 70
     0
102
RTVSPropertyOp45
 70
     0
102
RTVSPropertyOp46
 70
     0
102
RTVSPropertyOp47
 70
     0
102
RTVSPropertyOp48
 70
     0
102
RTVSPropertyOp49
 70
     0
102
RTVSPropertyOp50
 70
     0
102
RTVSPropertyOp51
 70
     0
102
RTVSPropertyOp52
 70
     0
102
RTVSPropertyOp53
 70
     0
102
RTVSPropertyOp54
 70
     0
102
RTVSPropertyOp55
 70
     0
102
RTVSPropertyOp56
 70
     0
102
RTVSPropertyOp57
 70
     0
102
RTVSPropertyOp58
 70
     1
102
RTVSPropertyOp59
 70
     1
102
RTVSPropertyOp60
 70
     1
102
RTVSPropertyOp61
 70
     1
102
RTVSPropertyOp62
 70
     1
  0
XRECORD
  5
41E
102
{ACAD_REACTORS
330
41D
102
}
330
41D
100
AcDbXrecord
280
     1
102
RTVSPost2010Prop28
280
     0
102
RTVSPost2010PropOp28
 70
     1
102
RTVSPost2010Prop29
280
     1
102
RTVSPost2010PropOp29
 70
     1
102
RTVSPost2010Prop30
280
     1
102
RTVSPost2010PropOp30
 70
     1
102
RTVSPost2010Prop31
280
     0
102
RTVSPost2010PropOp31
 70
     1
102
RTVSPost2010Prop32
280
     0
102
RTVSPost2010PropOp32
 70
     1
102
RTVSPost2010Prop33
280
     0
102
RTVSPost2010PropOp33
 70
     1
102
RTVSPost2010Prop34
280
     0
102
RTVSPost2010PropOp34
 70
     1
102
RTVSPost2010Prop35
280
     0
102
RTVSPost2010PropOp35
 70
     1
102
RTVSPost2010Prop36
280
     0
102
RTVSPost2010PropOp36
 70
     1
102
RTVSPost2010Prop37
 90
       50
102
RTVSPost2010PropOp37
 70
     1
102
RTVSPost2010Prop38
140
0.0
102
RTVSPost2010PropOp38
 70
     1
102
RTVSPost2010Prop39
140
1.0
102
RTVSPost2010PropOp39
 70
     1
102
RTVSPost2010Prop40
 90
        0
102
RTVSPost2010PropOp40
 70
     1
102
RTVSPost2010Prop41ColorIndex
 90
       18
102
RTVSPost2010Prop41ColorRGB
 90
        0
102
RTVSPost2010PropOp41
 70
     1
102
RTVSPost2010Prop42
 90
       50
102
RTVSPost2010PropOp42
 70
     1
102
RTVSPost2010Prop43
 90
        3
102
RTVSPost2010PropOp43
 70
     1
102
RTVSPost2010Prop44ColorIndex
 90
        5
102
RTVSPost2010Prop44ColorRGB
 90
      255
102
RTVSPost2010PropOp44
 70
     1
102
RTVSPost2010Prop45
280
     0
102
RTVSPost2010PropOp45
 70
     1
102
RTVSPost2010Prop46
 90
       50
102
RTVSPost2010PropOp46
 70
     1
102
RTVSPost2010Prop47
 90
       50
102
RTVSPost2010PropOp47
 70
     1
102
RTVSPost2010Prop48
 90
       50
102
RTVSPost2010PropOp48
 70
     1
102
RTVSPost2010Prop49
280
     0
102
RTVSPost2010PropOp49
 70
     1
102
RTVSPost2010Prop50
 90
       50
102
RTVSPost2010PropOp50
 70
     1
102
RTVSPost2010Prop51ColorIndex
 90
      256
102
RTVSPost2010Prop51ColorRGB
 90
-16777216
102
RTVSPost2010PropOp51
 70
     0
102
RTVSPost2010Prop52
140
1.0
102
RTVSPost2010PropOp52
 70
     0
102
RTVSPost2010Prop53
 90
        2
102
RTVSPost2010PropOp53
 70
     1
102
RTVSPost2010Prop54
  1
strokes_ogs.tif
102
RTVSPost2010PropOp54
 70
     1
102
RTVSPost2010Prop55
280
     0
102
RTVSPost2010PropOp55
 70
     1
102
RTVSPost2010Prop56
140
1.0
102
RTVSPost2010PropOp56
 70
     1
102
RTVSPost2010Prop57
140
1.0
102
RTVSPost2010PropOp57
 70
     1
102
RTVSPropertyOp0
 70
     1
102
RTVSPropertyOp1
 70
     1
102
RTVSPropertyOp2
 70
     1
102
RTVSPropertyOp3
 70
     1
102
RTVSPropertyOp4
 70
     1
102
RTVSPropertyOp5
 70
     1
102
RTVSPropertyOp6
 70
     1
102
RTVSPropertyOp7
 70
     1
102
RTVSPropertyOp8
 70
     1
102
RTVSPropertyOp9
 70
     1
102
RTVSPropertyOp10
 70
     1
102
RTVSPropertyOp11
 70
     1
102
RTVSPropertyOp12
 70
     1
102
RTVSPropertyOp13
 70
     1
102
RTVSPropertyOp14
 70
     1
102
RTVSPropertyOp15
 70
     1
102
RTVSPropertyOp16
 70
     1
102
RTVSPropertyOp17
 70
     1
102
RTVSPropertyOp18
 70
     1
102
RTVSPropertyOp19
 70
     1
102
RTVSPropertyOp20
 70
     1
102
RTVSPropertyOp21
 70
     1
102
RTVSPropertyOp22
 70
     1
102
RTVSPropertyOp23
 70
     1
102
RTVSPropertyOp24
 70
     1
102
RTVSPropertyOp25
 70
     1
102
RTVSPropertyOp26
 70
     1
102
RTVSPropertyOp27
 70
     1
102
RTVSPropertyOp28
 70
     1
102
RTVSPropertyOp29
 70
     1
102
RTVSPropertyOp30
 70
     1
102
RTVSPropertyOp31
 70
     1
102
RTVSPropertyOp32
 70
     1
102
RTVSPropertyOp33
 70
     1
102
RTVSPropertyOp34
 70
     1
102
RTVSPropertyOp35
 70
     1
102
RTVSPropertyOp36
 70
     1
102
RTVSPropertyOp37
 70
     1
102
RTVSPropertyOp38
 70
     1
102
RTVSPropertyOp39
 70
     1
102
RTVSPropertyOp40
 70
     1
102
RTVSPropertyOp41
 70
     1
102
RTVSPropertyOp42
 70
     1
102
RTVSPropertyOp43
 70
     1
102
RTVSPropertyOp44
 70
     1
102
RTVSPropertyOp45
 70
     1
102
RTVSPropertyOp46
 70
     1
102
RTVSPropertyOp47
 70
     1
102
RTVSPropertyOp48
 70
     1
102
RTVSPropertyOp49
 70
     1
102
RTVSPropertyOp50
 70
     1
102
RTVSPropertyOp51
 70
     0
102
RTVSPropertyOp52
 70
     0
102
RTVSPropertyOp53
 70
     1
102
RTVSPropertyOp54
 70
     1
102
RTVSPropertyOp55
 70
     1
102
RTVSPropertyOp56
 70
     1
102
RTVSPropertyOp57
 70
     1
102
RTVSPropertyOp58
 70
     1
102
RTVSPropertyOp59
 70
     1
102
RTVSPropertyOp60
 70
     1
102
RTVSPropertyOp61
 70
     1
102
RTVSPropertyOp62
 70
     1
  0
XRECORD
  5
402
102
{ACAD_REACTORS
330
401
102
}
330
401
100
AcDbXrecord
280
     1
102
RTVSPost2010Prop28
280
     0
102
RTVSPost2010PropOp28
 70
     1
102
RTVSPost2010Prop29
280
     1
102
RTVSPost2010PropOp29
 70
     1
102
RTVSPost2010Prop30
280
     1
102
RTVSPost2010PropOp30
 70
     1
102
RTVSPost2010Prop31
280
     0
102
RTVSPost2010PropOp31
 70
     1
102
RTVSPost2010Prop32
280
     0
102
RTVSPost2010PropOp32
 70
     1
102
RTVSPost2010Prop33
280
     0
102
RTVSPost2010PropOp33
 70
     1
102
RTVSPost2010Prop34
280
     0
102
RTVSPost2010PropOp34
 70
     1
102
RTVSPost2010Prop35
280
     0
102
RTVSPost2010PropOp35
 70
     1
102
RTVSPost2010Prop36
280
     0
102
RTVSPost2010PropOp36
 70
     1
102
RTVSPost2010Prop37
 90
       50
102
RTVSPost2010PropOp37
 70
     1
102
RTVSPost2010Prop38
140
0.0
102
RTVSPost2010PropOp38
 70
     1
102
RTVSPost2010Prop39
140
1.0
102
RTVSPost2010PropOp39
 70
     1
102
RTVSPost2010Prop40
 90
        0
102
RTVSPost2010PropOp40
 70
     1
102
RTVSPost2010Prop41ColorIndex
 90
       18
102
RTVSPost2010Prop41ColorRGB
 90
        0
102
RTVSPost2010PropOp41
 70
     1
102
RTVSPost2010Prop42
 90
       50
102
RTVSPost2010PropOp42
 70
     1
102
RTVSPost2010Prop43
 90
        3
102
RTVSPost2010PropOp43
 70
     1
102
RTVSPost2010Prop44ColorIndex
 90
        5
102
RTVSPost2010Prop44ColorRGB
 90
      255
102
RTVSPost2010PropOp44
 70
     1
102
RTVSPost2010Prop45
280
     0
102
RTVSPost2010PropOp45
 70
     1
102
RTVSPost2010Prop46
 90
       50
102
RTVSPost2010PropOp46
 70
     1
102
RTVSPost2010Prop47
 90
       50
102
RTVSPost2010PropOp47
 70
     1
102
RTVSPost2010Prop48
 90
       50
102
RTVSPost2010PropOp48
 70
     1
102
RTVSPost2010Prop49
280
     0
102
RTVSPost2010PropOp49
 70
     1
102
RTVSPost2010Prop50
 90
       50
102
RTVSPost2010PropOp50
 70
     1
102
RTVSPost2010Prop51ColorIndex
 90
      256
102
RTVSPost2010Prop51ColorRGB
 90
-16777216
102
RTVSPost2010PropOp51
 70
     0
102
RTVSPost2010Prop52
140
1.0
102
RTVSPost2010PropOp52
 70
     0
102
RTVSPost2010Prop53
 90
        2
102
RTVSPost2010PropOp53
 70
     1
102
RTVSPost2010Prop54
  1
strokes_ogs.tif
102
RTVSPost2010PropOp54
 70
     1
102
RTVSPost2010Prop55
280
     0
102
RTVSPost2010PropOp55
 70
     1
102
RTVSPost2010Prop56
140
1.0
102
RTVSPost2010PropOp56
 70
     1
102
RTVSPost2010Prop57
140
1.0
102
RTVSPost2010PropOp57
 70
     1
102
RTVSPropertyOp0
 70
     1
102
RTVSPropertyOp1
 70
     1
102
RTVSPropertyOp2
 70
     1
102
RTVSPropertyOp3
 70
     1
102
RTVSPropertyOp4
 70
     1
102
RTVSPropertyOp5
 70
     1
102
RTVSPropertyOp6
 70
     1
102
RTVSPropertyOp7
 70
     1
102
RTVSPropertyOp8
 70
     1
102
RTVSPropertyOp9
 70
     1
102
RTVSPropertyOp10
 70
     1
102
RTVSPropertyOp11
 70
     1
102
RTVSPropertyOp12
 70
     1
102
RTVSPropertyOp13
 70
     1
102
RTVSPropertyOp14
 70
     1
102
RTVSPropertyOp15
 70
     1
102
RTVSPropertyOp16
 70
     1
102
RTVSPropertyOp17
 70
     1
102
RTVSPropertyOp18
 70
     1
102
RTVSPropertyOp19
 70
     1
102
RTVSPropertyOp20
 70
     1
102
RTVSPropertyOp21
 70
     1
102
RTVSPropertyOp22
 70
     1
102
RTVSPropertyOp23
 70
     1
102
RTVSPropertyOp24
 70
     1
102
RTVSPropertyOp25
 70
     1
102
RTVSPropertyOp26
 70
     1
102
RTVSPropertyOp27
 70
     1
102
RTVSPropertyOp28
 70
     1
102
RTVSPropertyOp29
 70
     1
102
RTVSPropertyOp30
 70
     1
102
RTVSPropertyOp31
 70
     1
102
RTVSPropertyOp32
 70
     1
102
RTVSPropertyOp33
 70
     1
102
RTVSPropertyOp34
 70
     1
102
RTVSPropertyOp35
 70
     1
102
RTVSPropertyOp36
 70
     1
102
RTVSPropertyOp37
 70
     1
102
RTVSPropertyOp38
 70
     1
102
RTVSPropertyOp39
 70
     1
102
RTVSPropertyOp40
 70
     1
102
RTVSPropertyOp41
 70
     1
102
RTVSPropertyOp42
 70
     1
102
RTVSPropertyOp43
 70
     1
102
RTVSPropertyOp44
 70
     1
102
RTVSPropertyOp45
 70
     1
102
RTVSPropertyOp46
 70
     1
102
RTVSPropertyOp47
 70
     1
102
RTVSPropertyOp48
 70
     1
102
RTVSPropertyOp49
 70
     1
102
RTVSPropertyOp50
 70
     1
102
RTVSPropertyOp51
 70
     0
102
RTVSPropertyOp52
 70
     0
102
RTVSPropertyOp53
 70
     1
102
RTVSPropertyOp54
 70
     1
102
RTVSPropertyOp55
 70
     1
102
RTVSPropertyOp56
 70
     1
102
RTVSPropertyOp57
 70
     1
102
RTVSPropertyOp58
 70
     1
102
RTVSPropertyOp59
 70
     1
102
RTVSPropertyOp60
 70
     1
102
RTVSPropertyOp61
 70
     1
102
RTVSPropertyOp62
 70
     1
  0
XRECORD
  5
404
102
{ACAD_REACTORS
330
403
102
}
330
403
100
AcDbXrecord
280
     1
102
RTVSPost2010Prop28
280
     0
102
RTVSPost2010PropOp28
 70
     1
102
RTVSPost2010Prop29
280
     1
102
RTVSPost2010PropOp29
 70
     1
102
RTVSPost2010Prop30
280
     1
102
RTVSPost2010PropOp30
 70
     1
102
RTVSPost2010Prop31
280
     0
102
RTVSPost2010PropOp31
 70
     1
102
RTVSPost2010Prop32
280
     0
102
RTVSPost2010PropOp32
 70
     1
102
RTVSPost2010Prop33
280
     0
102
RTVSPost2010PropOp33
 70
     1
102
RTVSPost2010Prop34
280
     0
102
RTVSPost2010PropOp34
 70
     1
102
RTVSPost2010Prop35
280
     0
102
RTVSPost2010PropOp35
 70
     1
102
RTVSPost2010Prop36
280
     0
102
RTVSPost2010PropOp36
 70
     1
102
RTVSPost2010Prop37
 90
       50
102
RTVSPost2010PropOp37
 70
     1
102
RTVSPost2010Prop38
140
0.0
102
RTVSPost2010PropOp38
 70
     1
102
RTVSPost2010Prop39
140
1.0
102
RTVSPost2010PropOp39
 70
     1
102
RTVSPost2010Prop40
 90
        0
102
RTVSPost2010PropOp40
 70
     1
102
RTVSPost2010Prop41ColorIndex
 90
       18
102
RTVSPost2010Prop41ColorRGB
 90
        0
102
RTVSPost2010PropOp41
 70
     1
102
RTVSPost2010Prop42
 90
       50
102
RTVSPost2010PropOp42
 70
     1
102
RTVSPost2010Prop43
 90
        3
102
RTVSPost2010PropOp43
 70
     1
102
RTVSPost2010Prop44ColorIndex
 90
        5
102
RTVSPost2010Prop44ColorRGB
 90
      255
102
RTVSPost2010PropOp44
 70
     1
102
RTVSPost2010Prop45
280
     0
102
RTVSPost2010PropOp45
 70
     1
102
RTVSPost2010Prop46
 90
       50
102
RTVSPost2010PropOp46
 70
     1
102
RTVSPost2010Prop47
 90
       50
102
RTVSPost2010PropOp47
 70
     1
102
RTVSPost2010Prop48
 90
       50
102
RTVSPost2010PropOp48
 70
     1
102
RTVSPost2010Prop49
280
     0
102
RTVSPost2010PropOp49
 70
     1
102
RTVSPost2010Prop50
 90
       50
102
RTVSPost2010PropOp50
 70
     1
102
RTVSPost2010Prop51ColorIndex
 90
      256
102
RTVSPost2010Prop51ColorRGB
 90
-16777216
102
RTVSPost2010PropOp51
 70
     0
102
RTVSPost2010Prop52
140
1.0
102
RTVSPost2010PropOp52
 70
     0
102
RTVSPost2010Prop53
 90
        2
102
RTVSPost2010PropOp53
 70
     1
102
RTVSPost2010Prop54
  1
strokes_ogs.tif
102
RTVSPost2010PropOp54
 70
     1
102
RTVSPost2010Prop55
280
     0
102
RTVSPost2010PropOp55
 70
     1
102
RTVSPost2010Prop56
140
1.0
102
RTVSPost2010PropOp56
 70
     1
102
RTVSPost2010Prop57
140
1.0
102
RTVSPost2010PropOp57
 70
     1
102
RTVSPropertyOp0
 70
     1
102
RTVSPropertyOp1
 70
     1
102
RTVSPropertyOp2
 70
     1
102
RTVSPropertyOp3
 70
     1
102
RTVSPropertyOp4
 70
     1
102
RTVSPropertyOp5
 70
     1
102
RTVSPropertyOp6
 70
     1
102
RTVSPropertyOp7
 70
     1
102
RTVSPropertyOp8
 70
     1
102
RTVSPropertyOp9
 70
     1
102
RTVSPropertyOp10
 70
     1
102
RTVSPropertyOp11
 70
     1
102
RTVSPropertyOp12
 70
     1
102
RTVSPropertyOp13
 70
     1
102
RTVSPropertyOp14
 70
     1
102
RTVSPropertyOp15
 70
     1
102
RTVSPropertyOp16
 70
     1
102
RTVSPropertyOp17
 70
     1
102
RTVSPropertyOp18
 70
     1
102
RTVSPropertyOp19
 70
     1
102
RTVSPropertyOp20
 70
     1
102
RTVSPropertyOp21
 70
     1
102
RTVSPropertyOp22
 70
     1
102
RTVSPropertyOp23
 70
     1
102
RTVSPropertyOp24
 70
     1
102
RTVSPropertyOp25
 70
     1
102
RTVSPropertyOp26
 70
     1
102
RTVSPropertyOp27
 70
     1
102
RTVSPropertyOp28
 70
     1
102
RTVSPropertyOp29
 70
     1
102
RTVSPropertyOp30
 70
     1
102
RTVSPropertyOp31
 70
     1
102
RTVSPropertyOp32
 70
     1
102
RTVSPropertyOp33
 70
     1
102
RTVSPropertyOp34
 70
     1
102
RTVSPropertyOp35
 70
     1
102
RTVSPropertyOp36
 70
     1
102
RTVSPropertyOp37
 70
     1
102
RTVSPropertyOp38
 70
     1
102
RTVSPropertyOp39
 70
     1
102
RTVSPropertyOp40
 70
     1
102
RTVSPropertyOp41
 70
     1
102
RTVSPropertyOp42
 70
     1
102
RTVSPropertyOp43
 70
     1
102
RTVSPropertyOp44
 70
     1
102
RTVSPropertyOp45
 70
     1
102
RTVSPropertyOp46
 70
     1
102
RTVSPropertyOp47
 70
     1
102
RTVSPropertyOp48
 70
     1
102
RTVSPropertyOp49
 70
     1
102
RTVSPropertyOp50
 70
     1
102
RTVSPropertyOp51
 70
     0
102
RTVSPropertyOp52
 70
     0
102
RTVSPropertyOp53
 70
     1
102
RTVSPropertyOp54
 70
     1
102
RTVSPropertyOp55
 70
     1
102
RTVSPropertyOp56
 70
     1
102
RTVSPropertyOp57
 70
     1
102
RTVSPropertyOp58
 70
     1
102
RTVSPropertyOp59
 70
     1
102
RTVSPropertyOp60
 70
     1
102
RTVSPropertyOp61
 70
     1
102
RTVSPropertyOp62
 70
     1
  0
XRECORD
  5
406
102
{ACAD_REACTORS
330
405
102
}
330
405
100
AcDbXrecord
280
     1
102
RTVSPost2010Prop28
280
     0
102
RTVSPost2010PropOp28
 70
     1
102
RTVSPost2010Prop29
280
     1
102
RTVSPost2010PropOp29
 70
     1
102
RTVSPost2010Prop30
280
     1
102
RTVSPost2010PropOp30
 70
     1
102
RTVSPost2010Prop31
280
     0
102
RTVSPost2010PropOp31
 70
     1
102
RTVSPost2010Prop32
280
     0
102
RTVSPost2010PropOp32
 70
     1
102
RTVSPost2010Prop33
280
     0
102
RTVSPost2010PropOp33
 70
     1
102
RTVSPost2010Prop34
280
     0
102
RTVSPost2010PropOp34
 70
     1
102
RTVSPost2010Prop35
280
     0
102
RTVSPost2010PropOp35
 70
     1
102
RTVSPost2010Prop36
280
     0
102
RTVSPost2010PropOp36
 70
     1
102
RTVSPost2010Prop37
 90
       50
102
RTVSPost2010PropOp37
 70
     1
102
RTVSPost2010Prop38
140
0.0
102
RTVSPost2010PropOp38
 70
     1
102
RTVSPost2010Prop39
140
1.0
102
RTVSPost2010PropOp39
 70
     1
102
RTVSPost2010Prop40
 90
        0
102
RTVSPost2010PropOp40
 70
     1
102
RTVSPost2010Prop41ColorIndex
 90
       18
102
RTVSPost2010Prop41ColorRGB
 90
        0
102
RTVSPost2010PropOp41
 70
     1
102
RTVSPost2010Prop42
 90
       50
102
RTVSPost2010PropOp42
 70
     1
102
RTVSPost2010Prop43
 90
        3
102
RTVSPost2010PropOp43
 70
     1
102
RTVSPost2010Prop44ColorIndex
 90
        5
102
RTVSPost2010Prop44ColorRGB
 90
      255
102
RTVSPost2010PropOp44
 70
     1
102
RTVSPost2010Prop45
280
     0
102
RTVSPost2010PropOp45
 70
     1
102
RTVSPost2010Prop46
 90
       50
102
RTVSPost2010PropOp46
 70
     1
102
RTVSPost2010Prop47
 90
       50
102
RTVSPost2010PropOp47
 70
     1
102
RTVSPost2010Prop48
 90
       50
102
RTVSPost2010PropOp48
 70
     1
102
RTVSPost2010Prop49
280
     0
102
RTVSPost2010PropOp49
 70
     1
102
RTVSPost2010Prop50
 90
       50
102
RTVSPost2010PropOp50
 70
     1
102
RTVSPost2010Prop51ColorIndex
 90
      256
102
RTVSPost2010Prop51ColorRGB
 90
-16777216
102
RTVSPost2010PropOp51
 70
     0
102
RTVSPost2010Prop52
140
1.0
102
RTVSPost2010PropOp52
 70
     0
102
RTVSPost2010Prop53
 90
        2
102
RTVSPost2010PropOp53
 70
     1
102
RTVSPost2010Prop54
  1
strokes_ogs.tif
102
RTVSPost2010PropOp54
 70
     1
102
RTVSPost2010Prop55
280
     0
102
RTVSPost2010PropOp55
 70
     1
102
RTVSPost2010Prop56
140
1.0
102
RTVSPost2010PropOp56
 70
     1
102
RTVSPost2010Prop57
140
1.0
102
RTVSPost2010PropOp57
 70
     1
102
RTVSPropertyOp0
 70
     1
102
RTVSPropertyOp1
 70
     1
102
RTVSPropertyOp2
 70
     1
102
RTVSPropertyOp3
 70
     1
102
RTVSPropertyOp4
 70
     1
102
RTVSPropertyOp5
 70
     1
102
RTVSPropertyOp6
 70
     1
102
RTVSPropertyOp7
 70
     1
102
RTVSPropertyOp8
 70
     1
102
RTVSPropertyOp9
 70
     1
102
RTVSPropertyOp10
 70
     1
102
RTVSPropertyOp11
 70
     1
102
RTVSPropertyOp12
 70
     1
102
RTVSPropertyOp13
 70
     1
102
RTVSPropertyOp14
 70
     1
102
RTVSPropertyOp15
 70
     1
102
RTVSPropertyOp16
 70
     1
102
RTVSPropertyOp17
 70
     1
102
RTVSPropertyOp18
 70
     1
102
RTVSPropertyOp19
 70
     1
102
RTVSPropertyOp20
 70
     1
102
RTVSPropertyOp21
 70
     1
102
RTVSPropertyOp22
 70
     1
102
RTVSPropertyOp23
 70
     1
102
RTVSPropertyOp24
 70
     1
102
RTVSPropertyOp25
 70
     1
102
RTVSPropertyOp26
 70
     1
102
RTVSPropertyOp27
 70
     1
102
RTVSPropertyOp28
 70
     1
102
RTVSPropertyOp29
 70
     1
102
RTVSPropertyOp30
 70
     1
102
RTVSPropertyOp31
 70
     1
102
RTVSPropertyOp32
 70
     1
102
RTVSPropertyOp33
 70
     1
102
RTVSPropertyOp34
 70
     1
102
RTVSPropertyOp35
 70
     1
102
RTVSPropertyOp36
 70
     1
102
RTVSPropertyOp37
 70
     1
102
RTVSPropertyOp38
 70
     1
102
RTVSPropertyOp39
 70
     1
102
RTVSPropertyOp40
 70
     1
102
RTVSPropertyOp41
 70
     1
102
RTVSPropertyOp42
 70
     1
102
RTVSPropertyOp43
 70
     1
102
RTVSPropertyOp44
 70
     1
102
RTVSPropertyOp45
 70
     1
102
RTVSPropertyOp46
 70
     1
102
RTVSPropertyOp47
 70
     1
102
RTVSPropertyOp48
 70
     1
102
RTVSPropertyOp49
 70
     1
102
RTVSPropertyOp50
 70
     1
102
RTVSPropertyOp51
 70
     0
102
RTVSPropertyOp52
 70
     0
102
RTVSPropertyOp53
 70
     1
102
RTVSPropertyOp54
 70
     1
102
RTVSPropertyOp55
 70
     1
102
RTVSPropertyOp56
 70
     1
102
RTVSPropertyOp57
 70
     1
102
RTVSPropertyOp58
 70
     1
102
RTVSPropertyOp59
 70
     1
102
RTVSPropertyOp60
 70
     1
102
RTVSPropertyOp61
 70
     1
102
RTVSPropertyOp62
 70
     1
  0
XRECORD
  5
408
102
{ACAD_REACTORS
330
407
102
}
330
407
100
AcDbXrecord
280
     1
102
RTVSPost2010Prop28
280
     0
102
RTVSPost2010PropOp28
 70
     1
102
RTVSPost2010Prop29
280
     1
102
RTVSPost2010PropOp29
 70
     1
102
RTVSPost2010Prop30
280
     1
102
RTVSPost2010PropOp30
 70
     1
102
RTVSPost2010Prop31
280
     0
102
RTVSPost2010PropOp31
 70
     1
102
RTVSPost2010Prop32
280
     0
102
RTVSPost2010PropOp32
 70
     1
102
RTVSPost2010Prop33
280
     0
102
RTVSPost2010PropOp33
 70
     1
102
RTVSPost2010Prop34
280
     0
102
RTVSPost2010PropOp34
 70
     1
102
RTVSPost2010Prop35
280
     0
102
RTVSPost2010PropOp35
 70
     1
102
RTVSPost2010Prop36
280
     0
102
RTVSPost2010PropOp36
 70
     1
102
RTVSPost2010Prop37
 90
       50
102
RTVSPost2010PropOp37
 70
     1
102
RTVSPost2010Prop38
140
0.0
102
RTVSPost2010PropOp38
 70
     1
102
RTVSPost2010Prop39
140
1.0
102
RTVSPost2010PropOp39
 70
     1
102
RTVSPost2010Prop40
 90
        0
102
RTVSPost2010PropOp40
 70
     1
102
RTVSPost2010Prop41ColorIndex
 90
       18
102
RTVSPost2010Prop41ColorRGB
 90
        0
102
RTVSPost2010PropOp41
 70
     1
102
RTVSPost2010Prop42
 90
       50
102
RTVSPost2010PropOp42
 70
     1
102
RTVSPost2010Prop43
 90
        3
102
RTVSPost2010PropOp43
 70
     1
102
RTVSPost2010Prop44ColorIndex
 90
        5
102
RTVSPost2010Prop44ColorRGB
 90
      255
102
RTVSPost2010PropOp44
 70
     1
102
RTVSPost2010Prop45
280
     0
102
RTVSPost2010PropOp45
 70
     1
102
RTVSPost2010Prop46
 90
       50
102
RTVSPost2010PropOp46
 70
     1
102
RTVSPost2010Prop47
 90
       50
102
RTVSPost2010PropOp47
 70
     1
102
RTVSPost2010Prop48
 90
       50
102
RTVSPost2010PropOp48
 70
     1
102
RTVSPost2010Prop49
280
     0
102
RTVSPost2010PropOp49
 70
     1
102
RTVSPost2010Prop50
 90
       50
102
RTVSPost2010PropOp50
 70
     1
102
RTVSPost2010Prop51ColorIndex
 90
      256
102
RTVSPost2010Prop51ColorRGB
 90
-16777216
102
RTVSPost2010PropOp51
 70
     0
102
RTVSPost2010Prop52
140
1.0
102
RTVSPost2010PropOp52
 70
     0
102
RTVSPost2010Prop53
 90
        2
102
RTVSPost2010PropOp53
 70
     1
102
RTVSPost2010Prop54
  1
strokes_ogs.tif
102
RTVSPost2010PropOp54
 70
     1
102
RTVSPost2010Prop55
280
     0
102
RTVSPost2010PropOp55
 70
     1
102
RTVSPost2010Prop56
140
1.0
102
RTVSPost2010PropOp56
 70
     1
102
RTVSPost2010Prop57
140
1.0
102
RTVSPost2010PropOp57
 70
     1
102
RTVSPropertyOp0
 70
     1
102
RTVSPropertyOp1
 70
     1
102
RTVSPropertyOp2
 70
     1
102
RTVSPropertyOp3
 70
     1
102
RTVSPropertyOp4
 70
     1
102
RTVSPropertyOp5
 70
     1
102
RTVSPropertyOp6
 70
     1
102
RTVSPropertyOp7
 70
     1
102
RTVSPropertyOp8
 70
     1
102
RTVSPropertyOp9
 70
     1
102
RTVSPropertyOp10
 70
     1
102
RTVSPropertyOp11
 70
     1
102
RTVSPropertyOp12
 70
     1
102
RTVSPropertyOp13
 70
     1
102
RTVSPropertyOp14
 70
     1
102
RTVSPropertyOp15
 70
     1
102
RTVSPropertyOp16
 70
     1
102
RTVSPropertyOp17
 70
     1
102
RTVSPropertyOp18
 70
     1
102
RTVSPropertyOp19
 70
     1
102
RTVSPropertyOp20
 70
     1
102
RTVSPropertyOp21
 70
     1
102
RTVSPropertyOp22
 70
     1
102
RTVSPropertyOp23
 70
     1
102
RTVSPropertyOp24
 70
     1
102
RTVSPropertyOp25
 70
     1
102
RTVSPropertyOp26
 70
     1
102
RTVSPropertyOp27
 70
     1
102
RTVSPropertyOp28
 70
     1
102
RTVSPropertyOp29
 70
     1
102
RTVSPropertyOp30
 70
     1
102
RTVSPropertyOp31
 70
     1
102
RTVSPropertyOp32
 70
     1
102
RTVSPropertyOp33
 70
     1
102
RTVSPropertyOp34
 70
     1
102
RTVSPropertyOp35
 70
     1
102
RTVSPropertyOp36
 70
     1
102
RTVSPropertyOp37
 70
     1
102
RTVSPropertyOp38
 70
     1
102
RTVSPropertyOp39
 70
     1
102
RTVSPropertyOp40
 70
     1
102
RTVSPropertyOp41
 70
     1
102
RTVSPropertyOp42
 70
     1
102
RTVSPropertyOp43
 70
     1
102
RTVSPropertyOp44
 70
     1
102
RTVSPropertyOp45
 70
     1
102
RTVSPropertyOp46
 70
     1
102
RTVSPropertyOp47
 70
     1
102
RTVSPropertyOp48
 70
     1
102
RTVSPropertyOp49
 70
     1
102
RTVSPropertyOp50
 70
     1
102
RTVSPropertyOp51
 70
     0
102
RTVSPropertyOp52
 70
     0
102
RTVSPropertyOp53
 70
     1
102
RTVSPropertyOp54
 70
     1
102
RTVSPropertyOp55
 70
     1
102
RTVSPropertyOp56
 70
     1
102
RTVSPropertyOp57
 70
     1
102
RTVSPropertyOp58
 70
     1
102
RTVSPropertyOp59
 70
     1
102
RTVSPropertyOp60
 70
     1
102
RTVSPropertyOp61
 70
     1
102
RTVSPropertyOp62
 70
     1
  0
XRECORD
  5
40E
102
{ACAD_REACTORS
330
40D
102
}
330
40D
100
AcDbXrecord
280
     1
102
RTVSPost2010Prop28
280
     0
102
RTVSPost2010PropOp28
 70
     1
102
RTVSPost2010Prop29
280
     1
102
RTVSPost2010PropOp29
 70
     1
102
RTVSPost2010Prop30
280
     1
102
RTVSPost2010PropOp30
 70
     1
102
RTVSPost2010Prop31
280
     0
102
RTVSPost2010PropOp31
 70
     1
102
RTVSPost2010Prop32
280
     0
102
RTVSPost2010PropOp32
 70
     1
102
RTVSPost2010Prop33
280
     0
102
RTVSPost2010PropOp33
 70
     1
102
RTVSPost2010Prop34
280
     0
102
RTVSPost2010PropOp34
 70
     1
102
RTVSPost2010Prop35
280
     0
102
RTVSPost2010PropOp35
 70
     1
102
RTVSPost2010Prop36
280
     0
102
RTVSPost2010PropOp36
 70
     1
102
RTVSPost2010Prop37
 90
       50
102
RTVSPost2010PropOp37
 70
     1
102
RTVSPost2010Prop38
140
0.0
102
RTVSPost2010PropOp38
 70
     1
102
RTVSPost2010Prop39
140
1.0
102
RTVSPost2010PropOp39
 70
     1
102
RTVSPost2010Prop40
 90
        0
102
RTVSPost2010PropOp40
 70
     1
102
RTVSPost2010Prop41ColorIndex
 90
       18
102
RTVSPost2010Prop41ColorRGB
 90
        0
102
RTVSPost2010PropOp41
 70
     1
102
RTVSPost2010Prop42
 90
       50
102
RTVSPost2010PropOp42
 70
     1
102
RTVSPost2010Prop43
 90
        3
102
RTVSPost2010PropOp43
 70
     1
102
RTVSPost2010Prop44ColorIndex
 90
        5
102
RTVSPost2010Prop44ColorRGB
 90
      255
102
RTVSPost2010PropOp44
 70
     1
102
RTVSPost2010Prop45
280
     0
102
RTVSPost2010PropOp45
 70
     1
102
RTVSPost2010Prop46
 90
       50
102
RTVSPost2010PropOp46
 70
     1
102
RTVSPost2010Prop47
 90
       50
102
RTVSPost2010PropOp47
 70
     1
102
RTVSPost2010Prop48
 90
       50
102
RTVSPost2010PropOp48
 70
     1
102
RTVSPost2010Prop49
280
     0
102
RTVSPost2010PropOp49
 70
     1
102
RTVSPost2010Prop50
 90
       50
102
RTVSPost2010PropOp50
 70
     1
102
RTVSPost2010Prop51ColorIndex
 90
      256
102
RTVSPost2010Prop51ColorRGB
 90
-16777216
102
RTVSPost2010PropOp51
 70
     0
102
RTVSPost2010Prop52
140
1.0
102
RTVSPost2010PropOp52
 70
     0
102
RTVSPost2010Prop53
 90
        2
102
RTVSPost2010PropOp53
 70
     1
102
RTVSPost2010Prop54
  1
strokes_ogs.tif
102
RTVSPost2010PropOp54
 70
     1
102
RTVSPost2010Prop55
280
     0
102
RTVSPost2010PropOp55
 70
     1
102
RTVSPost2010Prop56
140
1.0
102
RTVSPost2010PropOp56
 70
     1
102
RTVSPost2010Prop57
140
1.0
102
RTVSPost2010PropOp57
 70
     1
102
RTVSPropertyOp0
 70
     1
102
RTVSPropertyOp1
 70
     1
102
RTVSPropertyOp2
 70
     1
102
RTVSPropertyOp3
 70
     1
102
RTVSPropertyOp4
 70
     1
102
RTVSPropertyOp5
 70
     1
102
RTVSPropertyOp6
 70
     1
102
RTVSPropertyOp7
 70
     1
102
RTVSPropertyOp8
 70
     1
102
RTVSPropertyOp9
 70
     1
102
RTVSPropertyOp10
 70
     1
102
RTVSPropertyOp11
 70
     1
102
RTVSPropertyOp12
 70
     1
102
RTVSPropertyOp13
 70
     1
102
RTVSPropertyOp14
 70
     1
102
RTVSPropertyOp15
 70
     1
102
RTVSPropertyOp16
 70
     1
102
RTVSPropertyOp17
 70
     1
102
RTVSPropertyOp18
 70
     1
102
RTVSPropertyOp19
 70
     1
102
RTVSPropertyOp20
 70
     1
102
RTVSPropertyOp21
 70
     1
102
RTVSPropertyOp22
 70
     1
102
RTVSPropertyOp23
 70
     1
102
RTVSPropertyOp24
 70
     1
102
RTVSPropertyOp25
 70
     1
102
RTVSPropertyOp26
 70
     1
102
RTVSPropertyOp27
 70
     1
102
RTVSPropertyOp28
 70
     1
102
RTVSPropertyOp29
 70
     1
102
RTVSPropertyOp30
 70
     1
102
RTVSPropertyOp31
 70
     1
102
RTVSPropertyOp32
 70
     1
102
RTVSPropertyOp33
 70
     1
102
RTVSPropertyOp34
 70
     1
102
RTVSPropertyOp35
 70
     1
102
RTVSPropertyOp36
 70
     1
102
RTVSPropertyOp37
 70
     1
102
RTVSPropertyOp38
 70
     1
102
RTVSPropertyOp39
 70
     1
102
RTVSPropertyOp40
 70
     1
102
RTVSPropertyOp41
 70
     1
102
RTVSPropertyOp42
 70
     1
102
RTVSPropertyOp43
 70
     1
102
RTVSPropertyOp44
 70
     1
102
RTVSPropertyOp45
 70
     1
102
RTVSPropertyOp46
 70
     1
102
RTVSPropertyOp47
 70
     1
102
RTVSPropertyOp48
 70
     1
102
RTVSPropertyOp49
 70
     1
102
RTVSPropertyOp50
 70
     1
102
RTVSPropertyOp51
 70
     0
102
RTVSPropertyOp52
 70
     0
102
RTVSPropertyOp53
 70
     1
102
RTVSPropertyOp54
 70
     1
102
RTVSPropertyOp55
 70
     1
102
RTVSPropertyOp56
 70
     1
102
RTVSPropertyOp57
 70
     1
102
RTVSPropertyOp58
 70
     1
102
RTVSPropertyOp59
 70
     1
102
RTVSPropertyOp60
 70
     1
102
RTVSPropertyOp61
 70
     1
102
RTVSPropertyOp62
 70
     1
  0
XRECORD
  5
422
102
{ACAD_REACTORS
330
421
102
}
330
421
100
AcDbXrecord
280
     1
102
RTVSPost2010Prop28
280
     0
102
RTVSPost2010PropOp28
 70
     0
102
RTVSPost2010Prop29
280
     1
102
RTVSPost2010PropOp29
 70
     0
102
RTVSPost2010Prop30
280
     1
102
RTVSPost2010PropOp30
 70
     0
102
RTVSPost2010Prop31
280
     0
102
RTVSPost2010PropOp31
 70
     0
102
RTVSPost2010Prop32
280
     0
102
RTVSPost2010PropOp32
 70
     0
102
RTVSPost2010Prop33
280
     0
102
RTVSPost2010PropOp33
 70
     0
102
RTVSPost2010Prop34
280
     0
102
RTVSPost2010PropOp34
 70
     0
102
RTVSPost2010Prop35
280
     0
102
RTVSPost2010PropOp35
 70
     0
102
RTVSPost2010Prop36
280
     0
102
RTVSPost2010PropOp36
 70
     0
102
RTVSPost2010Prop37
 90
       50
102
RTVSPost2010PropOp37
 70
     0
102
RTVSPost2010Prop38
140
0.0
102
RTVSPost2010PropOp38
 70
     0
102
RTVSPost2010Prop39
140
1.0
102
RTVSPost2010PropOp39
 70
     0
102
RTVSPost2010Prop40
 90
        0
102
RTVSPost2010PropOp40
 70
     0
102
RTVSPost2010Prop41ColorIndex
 90
       18
102
RTVSPost2010Prop41ColorRGB
 90
        0
102
RTVSPost2010PropOp41
 70
     0
102
RTVSPost2010Prop42
 90
       50
102
RTVSPost2010PropOp42
 70
     0
102
RTVSPost2010Prop43
 90
        3
102
RTVSPost2010PropOp43
 70
     0
102
RTVSPost2010Prop44ColorIndex
 90
        5
102
RTVSPost2010Prop44ColorRGB
 90
      255
102
RTVSPost2010PropOp44
 70
     0
102
RTVSPost2010Prop45
280
     0
102
RTVSPost2010PropOp45
 70
     0
102
RTVSPost2010Prop46
 90
       50
102
RTVSPost2010PropOp46
 70
     0
102
RTVSPost2010Prop47
 90
       50
102
RTVSPost2010PropOp47
 70
     0
102
RTVSPost2010Prop48
 90
       50
102
RTVSPost2010PropOp48
 70
     0
102
RTVSPost2010Prop49
280
     0
102
RTVSPost2010PropOp49
 70
     0
102
RTVSPost2010Prop50
 90
       50
102
RTVSPost2010PropOp50
 70
     0
102
RTVSPost2010Prop51ColorIndex
 90
      256
102
RTVSPost2010Prop51ColorRGB
 90
-16777216
102
RTVSPost2010PropOp51
 70
     0
102
RTVSPost2010Prop52
140
1.0
102
RTVSPost2010PropOp52
 70
     0
102
RTVSPost2010Prop53
 90
        2
102
RTVSPost2010PropOp53
 70
     0
102
RTVSPost2010Prop54
  1
strokes_ogs.tif
102
RTVSPost2010PropOp54
 70
     0
102
RTVSPost2010Prop55
280
     0
102
RTVSPost2010PropOp55
 70
     0
102
RTVSPost2010Prop56
140
1.0
102
RTVSPost2010PropOp56
 70
     0
102
RTVSPost2010Prop57
140
1.0
102
RTVSPost2010PropOp57
 70
     0
102
RTVSPropertyOp0
 70
     0
102
RTVSPropertyOp1
 70
     0
102
RTVSPropertyOp2
 70
     0
102
RTVSPropertyOp3
 70
     0
102
RTVSPropertyOp4
 70
     0
102
RTVSPropertyOp5
 70
     0
102
RTVSPropertyOp6
 70
     0
102
RTVSPropertyOp7
 70
     0
102
RTVSPropertyOp8
 70
     0
102
RTVSPropertyOp9
 70
     0
102
RTVSPropertyOp10
 70
     0
102
RTVSPropertyOp11
 70
     0
102
RTVSPropertyOp12
 70
     0
102
RTVSPropertyOp13
 70
     0
102
RTVSPropertyOp14
 70
     2
102
RTVSPropertyOp15
 70
     0
102
RTVSPropertyOp16
 70
     0
102
RTVSPropertyOp17
 70
     0
102
RTVSPropertyOp18
 70
     0
102
RTVSPropertyOp19
 70
     0
102
RTVSPropertyOp20
 70
     0
102
RTVSPropertyOp21
 70
     0
102
RTVSPropertyOp22
 70
     0
102
RTVSPropertyOp23
 70
     0
102
RTVSPropertyOp24
 70
     0
102
RTVSPropertyOp25
 70
     0
102
RTVSPropertyOp26
 70
     0
102
RTVSPropertyOp27
 70
     0
102
RTVSPropertyOp28
 70
     0
102
RTVSPropertyOp29
 70
     0
102
RTVSPropertyOp30
 70
     0
102
RTVSPropertyOp31
 70
     0
102
RTVSPropertyOp32
 70
     0
102
RTVSPropertyOp33
 70
     0
102
RTVSPropertyOp34
 70
     0
102
RTVSPropertyOp35
 70
     0
102
RTVSPropertyOp36
 70
     0
102
RTVSPropertyOp37
 70
     0
102
RTVSPropertyOp38
 70
     0
102
RTVSPropertyOp39
 70
     0
102
RTVSPropertyOp40
 70
     0
102
RTVSPropertyOp41
 70
     0
102
RTVSPropertyOp42
 70
     0
102
RTVSPropertyOp43
 70
     0
102
RTVSPropertyOp44
 70
     0
102
RTVSPropertyOp45
 70
     0
102
RTVSPropertyOp46
 70
     0
102
RTVSPropertyOp47
 70
     0
102
RTVSPropertyOp48
 70
     0
102
RTVSPropertyOp49
 70
     0
102
RTVSPropertyOp50
 70
     0
102
RTVSPropertyOp51
 70
     0
102
RTVSPropertyOp52
 70
     0
102
RTVSPropertyOp53
 70
     0
102
RTVSPropertyOp54
 70
     0
102
RTVSPropertyOp55
 70
     0
102
RTVSPropertyOp56
 70
     0
102
RTVSPropertyOp57
 70
     0
102
RTVSPropertyOp58
 70
     1
102
RTVSPropertyOp59
 70
     1
102
RTVSPropertyOp60
 70
     1
102
RTVSPropertyOp61
 70
     1
102
RTVSPropertyOp62
 70
     1
  0
XRECORD
  5
41C
102
{ACAD_REACTORS
330
41B
102
}
330
41B
100
AcDbXrecord
280
     1
102
RTVSPost2010Prop28
280
     0
102
RTVSPost2010PropOp28
 70
     1
102
RTVSPost2010Prop29
280
     1
102
RTVSPost2010PropOp29
 70
     1
102
RTVSPost2010Prop30
280
     1
102
RTVSPost2010PropOp30
 70
     1
102
RTVSPost2010Prop31
280
     0
102
RTVSPost2010PropOp31
 70
     1
102
RTVSPost2010Prop32
280
     0
102
RTVSPost2010PropOp32
 70
     1
102
RTVSPost2010Prop33
280
     0
102
RTVSPost2010PropOp33
 70
     1
102
RTVSPost2010Prop34
280
     0
102
RTVSPost2010PropOp34
 70
     1
102
RTVSPost2010Prop35
280
     0
102
RTVSPost2010PropOp35
 70
     1
102
RTVSPost2010Prop36
280
     0
102
RTVSPost2010PropOp36
 70
     1
102
RTVSPost2010Prop37
 90
       50
102
RTVSPost2010PropOp37
 70
     1
102
RTVSPost2010Prop38
140
0.0
102
RTVSPost2010PropOp38
 70
     1
102
RTVSPost2010Prop39
140
1.0
102
RTVSPost2010PropOp39
 70
     1
102
RTVSPost2010Prop40
 90
        0
102
RTVSPost2010PropOp40
 70
     1
102
RTVSPost2010Prop41ColorIndex
 90
       18
102
RTVSPost2010Prop41ColorRGB
 90
        0
102
RTVSPost2010PropOp41
 70
     1
102
RTVSPost2010Prop42
 90
       50
102
RTVSPost2010PropOp42
 70
     1
102
RTVSPost2010Prop43
 90
        3
102
RTVSPost2010PropOp43
 70
     1
102
RTVSPost2010Prop44ColorIndex
 90
        5
102
RTVSPost2010Prop44ColorRGB
 90
      255
102
RTVSPost2010PropOp44
 70
     1
102
RTVSPost2010Prop45
280
     0
102
RTVSPost2010PropOp45
 70
     1
102
RTVSPost2010Prop46
 90
       50
102
RTVSPost2010PropOp46
 70
     1
102
RTVSPost2010Prop47
 90
       50
102
RTVSPost2010PropOp47
 70
     1
102
RTVSPost2010Prop48
 90
       50
102
RTVSPost2010PropOp48
 70
     1
102
RTVSPost2010Prop49
280
     0
102
RTVSPost2010PropOp49
 70
     1
102
RTVSPost2010Prop50
 90
       50
102
RTVSPost2010PropOp50
 70
     1
102
RTVSPost2010Prop51ColorIndex
 90
      256
102
RTVSPost2010Prop51ColorRGB
 90
-16777216
102
RTVSPost2010PropOp51
 70
     0
102
RTVSPost2010Prop52
140
1.0
102
RTVSPost2010PropOp52
 70
     0
102
RTVSPost2010Prop53
 90
        2
102
RTVSPost2010PropOp53
 70
     1
102
RTVSPost2010Prop54
  1
strokes_ogs.tif
102
RTVSPost2010PropOp54
 70
     1
102
RTVSPost2010Prop55
280
     0
102
RTVSPost2010PropOp55
 70
     1
102
RTVSPost2010Prop56
140
1.0
102
RTVSPost2010PropOp56
 70
     1
102
RTVSPost2010Prop57
140
1.0
102
RTVSPost2010PropOp57
 70
     1
102
RTVSPropertyOp0
 70
     1
102
RTVSPropertyOp1
 70
     1
102
RTVSPropertyOp2
 70
     1
102
RTVSPropertyOp3
 70
     1
102
RTVSPropertyOp4
 70
     1
102
RTVSPropertyOp5
 70
     1
102
RTVSPropertyOp6
 70
     1
102
RTVSPropertyOp7
 70
     1
102
RTVSPropertyOp8
 70
     1
102
RTVSPropertyOp9
 70
     1
102
RTVSPropertyOp10
 70
     1
102
RTVSPropertyOp11
 70
     1
102
RTVSPropertyOp12
 70
     1
102
RTVSPropertyOp13
 70
     1
102
RTVSPropertyOp14
 70
     1
102
RTVSPropertyOp15
 70
     1
102
RTVSPropertyOp16
 70
     1
102
RTVSPropertyOp17
 70
     1
102
RTVSPropertyOp18
 70
     1
102
RTVSPropertyOp19
 70
     1
102
RTVSPropertyOp20
 70
     1
102
RTVSPropertyOp21
 70
     1
102
RTVSPropertyOp22
 70
     1
102
RTVSPropertyOp23
 70
     1
102
RTVSPropertyOp24
 70
     1
102
RTVSPropertyOp25
 70
     1
102
RTVSPropertyOp26
 70
     1
102
RTVSPropertyOp27
 70
     1
102
RTVSPropertyOp28
 70
     1
102
RTVSPropertyOp29
 70
     1
102
RTVSPropertyOp30
 70
     1
102
RTVSPropertyOp31
 70
     1
102
RTVSPropertyOp32
 70
     1
102
RTVSPropertyOp33
 70
     1
102
RTVSPropertyOp34
 70
     1
102
RTVSPropertyOp35
 70
     1
102
RTVSPropertyOp36
 70
     1
102
RTVSPropertyOp37
 70
     1
102
RTVSPropertyOp38
 70
     1
102
RTVSPropertyOp39
 70
     1
102
RTVSPropertyOp40
 70
     1
102
RTVSPropertyOp41
 70
     1
102
RTVSPropertyOp42
 70
     1
102
RTVSPropertyOp43
 70
     1
102
RTVSPropertyOp44
 70
     1
102
RTVSPropertyOp45
 70
     1
102
RTVSPropertyOp46
 70
     1
102
RTVSPropertyOp47
 70
     1
102
RTVSPropertyOp48
 70
     1
102
RTVSPropertyOp49
 70
     1
102
RTVSPropertyOp50
 70
     1
102
RTVSPropertyOp51
 70
     0
102
RTVSPropertyOp52
 70
     0
102
RTVSPropertyOp53
 70
     1
102
RTVSPropertyOp54
 70
     1
102
RTVSPropertyOp55
 70
     1
102
RTVSPropertyOp56
 70
     1
102
RTVSPropertyOp57
 70
     1
102
RTVSPropertyOp58
 70
     1
102
RTVSPropertyOp59
 70
     1
102
RTVSPropertyOp60
 70
     1
102
RTVSPropertyOp61
 70
     1
102
RTVSPropertyOp62
 70
     1
  0
XRECORD
  5
424
102
{ACAD_REACTORS
330
423
102
}
330
423
100
AcDbXrecord
280
     1
102
RTVSPost2010Prop28
280
     0
102
RTVSPost2010PropOp28
 70
     0
102
RTVSPost2010Prop29
280
     1
102
RTVSPost2010PropOp29
 70
     0
102
RTVSPost2010Prop30
280
     1
102
RTVSPost2010PropOp30
 70
     0
102
RTVSPost2010Prop31
280
     0
102
RTVSPost2010PropOp31
 70
     0
102
RTVSPost2010Prop32
280
     0
102
RTVSPost2010PropOp32
 70
     0
102
RTVSPost2010Prop33
280
     0
102
RTVSPost2010PropOp33
 70
     0
102
RTVSPost2010Prop34
280
     0
102
RTVSPost2010PropOp34
 70
     0
102
RTVSPost2010Prop35
280
     0
102
RTVSPost2010PropOp35
 70
     0
102
RTVSPost2010Prop36
280
     0
102
RTVSPost2010PropOp36
 70
     0
102
RTVSPost2010Prop37
 90
       50
102
RTVSPost2010PropOp37
 70
     0
102
RTVSPost2010Prop38
140
0.0
102
RTVSPost2010PropOp38
 70
     0
102
RTVSPost2010Prop39
140
1.0
102
RTVSPost2010PropOp39
 70
     0
102
RTVSPost2010Prop40
 90
        0
102
RTVSPost2010PropOp40
 70
     0
102
RTVSPost2010Prop41ColorIndex
 90
       18
102
RTVSPost2010Prop41ColorRGB
 90
        0
102
RTVSPost2010PropOp41
 70
     0
102
RTVSPost2010Prop42
 90
       50
102
RTVSPost2010PropOp42
 70
     0
102
RTVSPost2010Prop43
 90
        3
102
RTVSPost2010PropOp43
 70
     0
102
RTVSPost2010Prop44ColorIndex
 90
        5
102
RTVSPost2010Prop44ColorRGB
 90
      255
102
RTVSPost2010PropOp44
 70
     0
102
RTVSPost2010Prop45
280
     0
102
RTVSPost2010PropOp45
 70
     0
102
RTVSPost2010Prop46
 90
       50
102
RTVSPost2010PropOp46
 70
     0
102
RTVSPost2010Prop47
 90
       50
102
RTVSPost2010PropOp47
 70
     0
102
RTVSPost2010Prop48
 90
       50
102
RTVSPost2010PropOp48
 70
     0
102
RTVSPost2010Prop49
280
     0
102
RTVSPost2010PropOp49
 70
     0
102
RTVSPost2010Prop50
 90
       50
102
RTVSPost2010PropOp50
 70
     0
102
RTVSPost2010Prop51ColorIndex
 90
      256
102
RTVSPost2010Prop51ColorRGB
 90
-16777216
102
RTVSPost2010PropOp51
 70
     0
102
RTVSPost2010Prop52
140
1.0
102
RTVSPost2010PropOp52
 70
     0
102
RTVSPost2010Prop53
 90
        2
102
RTVSPost2010PropOp53
 70
     0
102
RTVSPost2010Prop54
  1
strokes_ogs.tif
102
RTVSPost2010PropOp54
 70
     0
102
RTVSPost2010Prop55
280
     0
102
RTVSPost2010PropOp55
 70
     0
102
RTVSPost2010Prop56
140
1.0
102
RTVSPost2010PropOp56
 70
     0
102
RTVSPost2010Prop57
140
1.0
102
RTVSPost2010PropOp57
 70
     0
102
RTVSPropertyOp0
 70
     0
102
RTVSPropertyOp1
 70
     0
102
RTVSPropertyOp2
 70
     0
102
RTVSPropertyOp3
 70
     0
102
RTVSPropertyOp4
 70
     0
102
RTVSPropertyOp5
 70
     0
102
RTVSPropertyOp6
 70
     0
102
RTVSPropertyOp7
 70
     0
102
RTVSPropertyOp8
 70
     0
102
RTVSPropertyOp9
 70
     0
102
RTVSPropertyOp10
 70
     0
102
RTVSPropertyOp11
 70
     0
102
RTVSPropertyOp12
 70
     0
102
RTVSPropertyOp13
 70
     0
102
RTVSPropertyOp14
 70
     2
102
RTVSPropertyOp15
 70
     0
102
RTVSPropertyOp16
 70
     0
102
RTVSPropertyOp17
 70
     0
102
RTVSPropertyOp18
 70
     0
102
RTVSPropertyOp19
 70
     0
102
RTVSPropertyOp20
 70
     0
102
RTVSPropertyOp21
 70
     0
102
RTVSPropertyOp22
 70
     0
102
RTVSPropertyOp23
 70
     0
102
RTVSPropertyOp24
 70
     0
102
RTVSPropertyOp25
 70
     0
102
RTVSPropertyOp26
 70
     0
102
RTVSPropertyOp27
 70
     0
102
RTVSPropertyOp28
 70
     0
102
RTVSPropertyOp29
 70
     0
102
RTVSPropertyOp30
 70
     0
102
RTVSPropertyOp31
 70
     0
102
RTVSPropertyOp32
 70
     0
102
RTVSPropertyOp33
 70
     0
102
RTVSPropertyOp34
 70
     0
102
RTVSPropertyOp35
 70
     0
102
RTVSPropertyOp36
 70
     0
102
RTVSPropertyOp37
 70
     0
102
RTVSPropertyOp38
 70
     0
102
RTVSPropertyOp39
 70
     0
102
RTVSPropertyOp40
 70
     0
102
RTVSPropertyOp41
 70
     0
102
RTVSPropertyOp42
 70
     0
102
RTVSPropertyOp43
 70
     0
102
RTVSPropertyOp44
 70
     0
102
RTVSPropertyOp45
 70
     0
102
RTVSPropertyOp46
 70
     0
102
RTVSPropertyOp47
 70
     0
102
RTVSPropertyOp48
 70
     0
102
RTVSPropertyOp49
 70
     0
102
RTVSPropertyOp50
 70
     0
102
RTVSPropertyOp51
 70
     0
102
RTVSPropertyOp52
 70
     0
102
RTVSPropertyOp53
 70
     0
102
RTVSPropertyOp54
 70
     0
102
RTVSPropertyOp55
 70
     0
102
RTVSPropertyOp56
 70
     0
102
RTVSPropertyOp57
 70
     0
102
RTVSPropertyOp58
 70
     1
102
RTVSPropertyOp59
 70
     1
102
RTVSPropertyOp60
 70
     1
102
RTVSPropertyOp61
 70
     1
102
RTVSPropertyOp62
 70
     1
  0
XRECORD
  5
412
102
{ACAD_REACTORS
330
411
102
}
330
411
100
AcDbXrecord
280
     1
102
RTVSPost2010Prop28
280
     0
102
RTVSPost2010PropOp28
 70
     1
102
RTVSPost2010Prop29
280
     1
102
RTVSPost2010PropOp29
 70
     1
102
RTVSPost2010Prop30
280
     1
102
RTVSPost2010PropOp30
 70
     1
102
RTVSPost2010Prop31
280
     0
102
RTVSPost2010PropOp31
 70
     1
102
RTVSPost2010Prop32
280
     0
102
RTVSPost2010PropOp32
 70
     1
102
RTVSPost2010Prop33
280
     0
102
RTVSPost2010PropOp33
 70
     1
102
RTVSPost2010Prop34
280
     0
102
RTVSPost2010PropOp34
 70
     1
102
RTVSPost2010Prop35
280
     0
102
RTVSPost2010PropOp35
 70
     1
102
RTVSPost2010Prop36
280
     0
102
RTVSPost2010PropOp36
 70
     1
102
RTVSPost2010Prop37
 90
       50
102
RTVSPost2010PropOp37
 70
     1
102
RTVSPost2010Prop38
140
0.0
102
RTVSPost2010PropOp38
 70
     1
102
RTVSPost2010Prop39
140
1.0
102
RTVSPost2010PropOp39
 70
     1
102
RTVSPost2010Prop40
 90
        0
102
RTVSPost2010PropOp40
 70
     1
102
RTVSPost2010Prop41ColorIndex
 90
       18
102
RTVSPost2010Prop41ColorRGB
 90
        0
102
RTVSPost2010PropOp41
 70
     1
102
RTVSPost2010Prop42
 90
       50
102
RTVSPost2010PropOp42
 70
     1
102
RTVSPost2010Prop43
 90
        3
102
RTVSPost2010PropOp43
 70
     1
102
RTVSPost2010Prop44ColorIndex
 90
        5
102
RTVSPost2010Prop44ColorRGB
 90
      255
102
RTVSPost2010PropOp44
 70
     1
102
RTVSPost2010Prop45
280
     0
102
RTVSPost2010PropOp45
 70
     1
102
RTVSPost2010Prop46
 90
       50
102
RTVSPost2010PropOp46
 70
     1
102
RTVSPost2010Prop47
 90
       50
102
RTVSPost2010PropOp47
 70
     1
102
RTVSPost2010Prop48
 90
       50
102
RTVSPost2010PropOp48
 70
     1
102
RTVSPost2010Prop49
280
     0
102
RTVSPost2010PropOp49
 70
     1
102
RTVSPost2010Prop50
 90
       50
102
RTVSPost2010PropOp50
 70
     1
102
RTVSPost2010Prop51ColorIndex
 90
      256
102
RTVSPost2010Prop51ColorRGB
 90
-16777216
102
RTVSPost2010PropOp51
 70
     0
102
RTVSPost2010Prop52
140
1.0
102
RTVSPost2010PropOp52
 70
     0
102
RTVSPost2010Prop53
 90
        2
102
RTVSPost2010PropOp53
 70
     1
102
RTVSPost2010Prop54
  1
strokes_ogs.tif
102
RTVSPost2010PropOp54
 70
     1
102
RTVSPost2010Prop55
280
     0
102
RTVSPost2010PropOp55
 70
     1
102
RTVSPost2010Prop56
140
1.0
102
RTVSPost2010PropOp56
 70
     1
102
RTVSPost2010Prop57
140
1.0
102
RTVSPost2010PropOp57
 70
     1
102
RTVSPropertyOp0
 70
     1
102
RTVSPropertyOp1
 70
     1
102
RTVSPropertyOp2
 70
     1
102
RTVSPropertyOp3
 70
     1
102
RTVSPropertyOp4
 70
     1
102
RTVSPropertyOp5
 70
     1
102
RTVSPropertyOp6
 70
     1
102
RTVSPropertyOp7
 70
     1
102
RTVSPropertyOp8
 70
     1
102
RTVSPropertyOp9
 70
     1
102
RTVSPropertyOp10
 70
     1
102
RTVSPropertyOp11
 70
     1
102
RTVSPropertyOp12
 70
     1
102
RTVSPropertyOp13
 70
     1
102
RTVSPropertyOp14
 70
     1
102
RTVSPropertyOp15
 70
     1
102
RTVSPropertyOp16
 70
     1
102
RTVSPropertyOp17
 70
     1
102
RTVSPropertyOp18
 70
     1
102
RTVSPropertyOp19
 70
     1
102
RTVSPropertyOp20
 70
     1
102
RTVSPropertyOp21
 70
     1
102
RTVSPropertyOp22
 70
     1
102
RTVSPropertyOp23
 70
     1
102
RTVSPropertyOp24
 70
     1
102
RTVSPropertyOp25
 70
     1
102
RTVSPropertyOp26
 70
     1
102
RTVSPropertyOp27
 70
     1
102
RTVSPropertyOp28
 70
     1
102
RTVSPropertyOp29
 70
     1
102
RTVSPropertyOp30
 70
     1
102
RTVSPropertyOp31
 70
     1
102
RTVSPropertyOp32
 70
     1
102
RTVSPropertyOp33
 70
     1
102
RTVSPropertyOp34
 70
     1
102
RTVSPropertyOp35
 70
     1
102
RTVSPropertyOp36
 70
     1
102
RTVSPropertyOp37
 70
     1
102
RTVSPropertyOp38
 70
     1
102
RTVSPropertyOp39
 70
     1
102
RTVSPropertyOp40
 70
     1
102
RTVSPropertyOp41
 70
     1
102
RTVSPropertyOp42
 70
     1
102
RTVSPropertyOp43
 70
     1
102
RTVSPropertyOp44
 70
     1
102
RTVSPropertyOp45
 70
     1
102
RTVSPropertyOp46
 70
     1
102
RTVSPropertyOp47
 70
     1
102
RTVSPropertyOp48
 70
     1
102
RTVSPropertyOp49
 70
     1
102
RTVSPropertyOp50
 70
     1
102
RTVSPropertyOp51
 70
     0
102
RTVSPropertyOp52
 70
     0
102
RTVSPropertyOp53
 70
     1
102
RTVSPropertyOp54
 70
     1
102
RTVSPropertyOp55
 70
     1
102
RTVSPropertyOp56
 70
     1
102
RTVSPropertyOp57
 70
     1
102
RTVSPropertyOp58
 70
     1
102
RTVSPropertyOp59
 70
     1
102
RTVSPropertyOp60
 70
     1
102
RTVSPropertyOp61
 70
     1
102
RTVSPropertyOp62
 70
     1
  0
XRECORD
  5
430
102
{ACAD_REACTORS
330
42F
102
}
330
42F
100
AcDbXrecord
280
     1
102
RTVSPost2010Prop28
280
     0
102
RTVSPost2010PropOp28
 70
     1
102
RTVSPost2010Prop29
280
     1
102
RTVSPost2010PropOp29
 70
     1
102
RTVSPost2010Prop30
280
     1
102
RTVSPost2010PropOp30
 70
     1
102
RTVSPost2010Prop31
280
     0
102
RTVSPost2010PropOp31
 70
     1
102
RTVSPost2010Prop32
280
     0
102
RTVSPost2010PropOp32
 70
     1
102
RTVSPost2010Prop33
280
     0
102
RTVSPost2010PropOp33
 70
     1
102
RTVSPost2010Prop34
280
     0
102
RTVSPost2010PropOp34
 70
     1
102
RTVSPost2010Prop35
280
     0
102
RTVSPost2010PropOp35
 70
     1
102
RTVSPost2010Prop36
280
     0
102
RTVSPost2010PropOp36
 70
     1
102
RTVSPost2010Prop37
 90
       50
102
RTVSPost2010PropOp37
 70
     1
102
RTVSPost2010Prop38
140
0.0
102
RTVSPost2010PropOp38
 70
     1
102
RTVSPost2010Prop39
140
1.0
102
RTVSPost2010PropOp39
 70
     1
102
RTVSPost2010Prop40
 90
        0
102
RTVSPost2010PropOp40
 70
     1
102
RTVSPost2010Prop41ColorIndex
 90
       18
102
RTVSPost2010Prop41ColorRGB
 90
        0
102
RTVSPost2010PropOp41
 70
     1
102
RTVSPost2010Prop42
 90
       50
102
RTVSPost2010PropOp42
 70
     1
102
RTVSPost2010Prop43
 90
        3
102
RTVSPost2010PropOp43
 70
     1
102
RTVSPost2010Prop44ColorIndex
 90
        5
102
RTVSPost2010Prop44ColorRGB
 90
      255
102
RTVSPost2010PropOp44
 70
     1
102
RTVSPost2010Prop45
280
     0
102
RTVSPost2010PropOp45
 70
     1
102
RTVSPost2010Prop46
 90
       50
102
RTVSPost2010PropOp46
 70
     1
102
RTVSPost2010Prop47
 90
       50
102
RTVSPost2010PropOp47
 70
     1
102
RTVSPost2010Prop48
 90
       50
102
RTVSPost2010PropOp48
 70
     1
102
RTVSPost2010Prop49
280
     0
102
RTVSPost2010PropOp49
 70
     1
102
RTVSPost2010Prop50
 90
       50
102
RTVSPost2010PropOp50
 70
     1
102
RTVSPost2010Prop51ColorIndex
 90
      256
102
RTVSPost2010Prop51ColorRGB
 90
-16777216
102
RTVSPost2010PropOp51
 70
     0
102
RTVSPost2010Prop52
140
1.0
102
RTVSPost2010PropOp52
 70
     0
102
RTVSPost2010Prop53
 90
        2
102
RTVSPost2010PropOp53
 70
     1
102
RTVSPost2010Prop54
  1
strokes_ogs.tif
102
RTVSPost2010PropOp54
 70
     1
102
RTVSPost2010Prop55
280
     0
102
RTVSPost2010PropOp55
 70
     1
102
RTVSPost2010Prop56
140
1.0
102
RTVSPost2010PropOp56
 70
     1
102
RTVSPost2010Prop57
140
1.0
102
RTVSPost2010PropOp57
 70
     1
102
RTVSPropertyOp0
 70
     1
102
RTVSPropertyOp1
 70
     1
102
RTVSPropertyOp2
 70
     1
102
RTVSPropertyOp3
 70
     1
102
RTVSPropertyOp4
 70
     1
102
RTVSPropertyOp5
 70
     1
102
RTVSPropertyOp6
 70
     1
102
RTVSPropertyOp7
 70
     1
102
RTVSPropertyOp8
 70
     1
102
RTVSPropertyOp9
 70
     1
102
RTVSPropertyOp10
 70
     1
102
RTVSPropertyOp11
 70
     1
102
RTVSPropertyOp12
 70
     1
102
RTVSPropertyOp13
 70
     1
102
RTVSPropertyOp14
 70
     1
102
RTVSPropertyOp15
 70
     1
102
RTVSPropertyOp16
 70
     1
102
RTVSPropertyOp17
 70
     1
102
RTVSPropertyOp18
 70
     1
102
RTVSPropertyOp19
 70
     1
102
RTVSPropertyOp20
 70
     1
102
RTVSPropertyOp21
 70
     1
102
RTVSPropertyOp22
 70
     1
102
RTVSPropertyOp23
 70
     1
102
RTVSPropertyOp24
 70
     1
102
RTVSPropertyOp25
 70
     1
102
RTVSPropertyOp26
 70
     1
102
RTVSPropertyOp27
 70
     1
102
RTVSPropertyOp28
 70
     1
102
RTVSPropertyOp29
 70
     1
102
RTVSPropertyOp30
 70
     1
102
RTVSPropertyOp31
 70
     1
102
RTVSPropertyOp32
 70
     1
102
RTVSPropertyOp33
 70
     1
102
RTVSPropertyOp34
 70
     1
102
RTVSPropertyOp35
 70
     1
102
RTVSPropertyOp36
 70
     1
102
RTVSPropertyOp37
 70
     1
102
RTVSPropertyOp38
 70
     1
102
RTVSPropertyOp39
 70
     1
102
RTVSPropertyOp40
 70
     1
102
RTVSPropertyOp41
 70
     1
102
RTVSPropertyOp42
 70
     1
102
RTVSPropertyOp43
 70
     1
102
RTVSPropertyOp44
 70
     1
102
RTVSPropertyOp45
 70
     1
102
RTVSPropertyOp46
 70
     1
102
RTVSPropertyOp47
 70
     1
102
RTVSPropertyOp48
 70
     1
102
RTVSPropertyOp49
 70
     1
102
RTVSPropertyOp50
 70
     1
102
RTVSPropertyOp51
 70
     0
102
RTVSPropertyOp52
 70
     0
102
RTVSPropertyOp53
 70
     1
102
RTVSPropertyOp54
 70
     1
102
RTVSPropertyOp55
 70
     1
102
RTVSPropertyOp56
 70
     1
102
RTVSPropertyOp57
 70
     1
102
RTVSPropertyOp58
 70
     1
102
RTVSPropertyOp59
 70
     1
102
RTVSPropertyOp60
 70
     1
102
RTVSPropertyOp61
 70
     1
102
RTVSPropertyOp62
 70
     1
  0
XRECORD
  5
42E
102
{ACAD_REACTORS
330
42D
102
}
330
42D
100
AcDbXrecord
280
     1
102
RTVSPost2010Prop28
280
     0
102
RTVSPost2010PropOp28
 70
     1
102
RTVSPost2010Prop29
280
     1
102
RTVSPost2010PropOp29
 70
     1
102
RTVSPost2010Prop30
280
     1
102
RTVSPost2010PropOp30
 70
     1
102
RTVSPost2010Prop31
280
     0
102
RTVSPost2010PropOp31
 70
     1
102
RTVSPost2010Prop32
280
     0
102
RTVSPost2010PropOp32
 70
     1
102
RTVSPost2010Prop33
280
     0
102
RTVSPost2010PropOp33
 70
     1
102
RTVSPost2010Prop34
280
     0
102
RTVSPost2010PropOp34
 70
     1
102
RTVSPost2010Prop35
280
     0
102
RTVSPost2010PropOp35
 70
     1
102
RTVSPost2010Prop36
280
     0
102
RTVSPost2010PropOp36
 70
     1
102
RTVSPost2010Prop37
 90
       50
102
RTVSPost2010PropOp37
 70
     1
102
RTVSPost2010Prop38
140
0.0
102
RTVSPost2010PropOp38
 70
     1
102
RTVSPost2010Prop39
140
1.0
102
RTVSPost2010PropOp39
 70
     1
102
RTVSPost2010Prop40
 90
        0
102
RTVSPost2010PropOp40
 70
     1
102
RTVSPost2010Prop41ColorIndex
 90
       18
102
RTVSPost2010Prop41ColorRGB
 90
        0
102
RTVSPost2010PropOp41
 70
     1
102
RTVSPost2010Prop42
 90
       50
102
RTVSPost2010PropOp42
 70
     1
102
RTVSPost2010Prop43
 90
        3
102
RTVSPost2010PropOp43
 70
     1
102
RTVSPost2010Prop44ColorIndex
 90
        5
102
RTVSPost2010Prop44ColorRGB
 90
      255
102
RTVSPost2010PropOp44
 70
     1
102
RTVSPost2010Prop45
280
     0
102
RTVSPost2010PropOp45
 70
     1
102
RTVSPost2010Prop46
 90
       50
102
RTVSPost2010PropOp46
 70
     1
102
RTVSPost2010Prop47
 90
       50
102
RTVSPost2010PropOp47
 70
     1
102
RTVSPost2010Prop48
 90
       50
102
RTVSPost2010PropOp48
 70
     1
102
RTVSPost2010Prop49
280
     0
102
RTVSPost2010PropOp49
 70
     1
102
RTVSPost2010Prop50
 90
       50
102
RTVSPost2010PropOp50
 70
     1
102
RTVSPost2010Prop51ColorIndex
 90
      256
102
RTVSPost2010Prop51ColorRGB
 90
-16777216
102
RTVSPost2010PropOp51
 70
     0
102
RTVSPost2010Prop52
140
1.0
102
RTVSPost2010PropOp52
 70
     0
102
RTVSPost2010Prop53
 90
        2
102
RTVSPost2010PropOp53
 70
     1
102
RTVSPost2010Prop54
  1
strokes_ogs.tif
102
RTVSPost2010PropOp54
 70
     1
102
RTVSPost2010Prop55
280
     0
102
RTVSPost2010PropOp55
 70
     1
102
RTVSPost2010Prop56
140
1.0
102
RTVSPost2010PropOp56
 70
     1
102
RTVSPost2010Prop57
140
1.0
102
RTVSPost2010PropOp57
 70
     1
102
RTVSPropertyOp0
 70
     1
102
RTVSPropertyOp1
 70
     1
102
RTVSPropertyOp2
 70
     1
102
RTVSPropertyOp3
 70
     1
102
RTVSPropertyOp4
 70
     1
102
RTVSPropertyOp5
 70
     1
102
RTVSPropertyOp6
 70
     1
102
RTVSPropertyOp7
 70
     1
102
RTVSPropertyOp8
 70
     1
102
RTVSPropertyOp9
 70
     1
102
RTVSPropertyOp10
 70
     1
102
RTVSPropertyOp11
 70
     1
102
RTVSPropertyOp12
 70
     1
102
RTVSPropertyOp13
 70
     1
102
RTVSPropertyOp14
 70
     1
102
RTVSPropertyOp15
 70
     1
102
RTVSPropertyOp16
 70
     1
102
RTVSPropertyOp17
 70
     1
102
RTVSPropertyOp18
 70
     1
102
RTVSPropertyOp19
 70
     1
102
RTVSPropertyOp20
 70
     1
102
RTVSPropertyOp21
 70
     1
102
RTVSPropertyOp22
 70
     1
102
RTVSPropertyOp23
 70
     1
102
RTVSPropertyOp24
 70
     1
102
RTVSPropertyOp25
 70
     1
102
RTVSPropertyOp26
 70
     1
102
RTVSPropertyOp27
 70
     1
102
RTVSPropertyOp28
 70
     1
102
RTVSPropertyOp29
 70
     1
102
RTVSPropertyOp30
 70
     1
102
RTVSPropertyOp31
 70
     1
102
RTVSPropertyOp32
 70
     1
102
RTVSPropertyOp33
 70
     1
102
RTVSPropertyOp34
 70
     1
102
RTVSPropertyOp35
 70
     1
102
RTVSPropertyOp36
 70
     1
102
RTVSPropertyOp37
 70
     1
102
RTVSPropertyOp38
 70
     1
102
RTVSPropertyOp39
 70
     1
102
RTVSPropertyOp40
 70
     1
102
RTVSPropertyOp41
 70
     1
102
RTVSPropertyOp42
 70
     1
102
RTVSPropertyOp43
 70
     1
102
RTVSPropertyOp44
 70
     1
102
RTVSPropertyOp45
 70
     1
102
RTVSPropertyOp46
 70
     1
102
RTVSPropertyOp47
 70
     1
102
RTVSPropertyOp48
 70
     1
102
RTVSPropertyOp49
 70
     1
102
RTVSPropertyOp50
 70
     1
102
RTVSPropertyOp51
 70
     0
102
RTVSPropertyOp52
 70
     0
102
RTVSPropertyOp53
 70
     1
102
RTVSPropertyOp54
 70
     1
102
RTVSPropertyOp55
 70
     1
102
RTVSPropertyOp56
 70
     1
102
RTVSPropertyOp57
 70
     1
102
RTVSPropertyOp58
 70
     1
102
RTVSPropertyOp59
 70
     1
102
RTVSPropertyOp60
 70
     1
102
RTVSPropertyOp61
 70
     1
102
RTVSPropertyOp62
 70
     1
  0
XRECORD
  5
428
102
{ACAD_REACTORS
330
427
102
}
330
427
100
AcDbXrecord
280
     1
102
RTVSPost2010Prop28
280
     0
102
RTVSPost2010PropOp28
 70
     1
102
RTVSPost2010Prop29
280
     1
102
RTVSPost2010PropOp29
 70
     1
102
RTVSPost2010Prop30
280
     1
102
RTVSPost2010PropOp30
 70
     1
102
RTVSPost2010Prop31
280
     0
102
RTVSPost2010PropOp31
 70
     1
102
RTVSPost2010Prop32
280
     0
102
RTVSPost2010PropOp32
 70
     1
102
RTVSPost2010Prop33
280
     0
102
RTVSPost2010PropOp33
 70
     1
102
RTVSPost2010Prop34
280
     0
102
RTVSPost2010PropOp34
 70
     1
102
RTVSPost2010Prop35
280
     0
102
RTVSPost2010PropOp35
 70
     1
102
RTVSPost2010Prop36
280
     0
102
RTVSPost2010PropOp36
 70
     1
102
RTVSPost2010Prop37
 90
       50
102
RTVSPost2010PropOp37
 70
     1
102
RTVSPost2010Prop38
140
0.0
102
RTVSPost2010PropOp38
 70
     1
102
RTVSPost2010Prop39
140
1.0
102
RTVSPost2010PropOp39
 70
     1
102
RTVSPost2010Prop40
 90
        0
102
RTVSPost2010PropOp40
 70
     1
102
RTVSPost2010Prop41ColorIndex
 90
       18
102
RTVSPost2010Prop41ColorRGB
 90
        0
102
RTVSPost2010PropOp41
 70
     1
102
RTVSPost2010Prop42
 90
       50
102
RTVSPost2010PropOp42
 70
     1
102
RTVSPost2010Prop43
 90
        3
102
RTVSPost2010PropOp43
 70
     1
102
RTVSPost2010Prop44ColorIndex
 90
        5
102
RTVSPost2010Prop44ColorRGB
 90
      255
102
RTVSPost2010PropOp44
 70
     1
102
RTVSPost2010Prop45
280
     0
102
RTVSPost2010PropOp45
 70
     1
102
RTVSPost2010Prop46
 90
       50
102
RTVSPost2010PropOp46
 70
     1
102
RTVSPost2010Prop47
 90
       50
102
RTVSPost2010PropOp47
 70
     1
102
RTVSPost2010Prop48
 90
       50
102
RTVSPost2010PropOp48
 70
     1
102
RTVSPost2010Prop49
280
     0
102
RTVSPost2010PropOp49
 70
     1
102
RTVSPost2010Prop50
 90
       50
102
RTVSPost2010PropOp50
 70
     1
102
RTVSPost2010Prop51ColorIndex
 90
      256
102
RTVSPost2010Prop51ColorRGB
 90
-16777216
102
RTVSPost2010PropOp51
 70
     0
102
RTVSPost2010Prop52
140
1.0
102
RTVSPost2010PropOp52
 70
     0
102
RTVSPost2010Prop53
 90
        2
102
RTVSPost2010PropOp53
 70
     1
102
RTVSPost2010Prop54
  1
strokes_ogs.tif
102
RTVSPost2010PropOp54
 70
     1
102
RTVSPost2010Prop55
280
     0
102
RTVSPost2010PropOp55
 70
     1
102
RTVSPost2010Prop56
140
1.0
102
RTVSPost2010PropOp56
 70
     1
102
RTVSPost2010Prop57
140
1.0
102
RTVSPost2010PropOp57
 70
     1
102
RTVSPropertyOp0
 70
     1
102
RTVSPropertyOp1
 70
     1
102
RTVSPropertyOp2
 70
     1
102
RTVSPropertyOp3
 70
     1
102
RTVSPropertyOp4
 70
     1
102
RTVSPropertyOp5
 70
     1
102
RTVSPropertyOp6
 70
     1
102
RTVSPropertyOp7
 70
     1
102
RTVSPropertyOp8
 70
     1
102
RTVSPropertyOp9
 70
     1
102
RTVSPropertyOp10
 70
     1
102
RTVSPropertyOp11
 70
     1
102
RTVSPropertyOp12
 70
     1
102
RTVSPropertyOp13
 70
     1
102
RTVSPropertyOp14
 70
     1
102
RTVSPropertyOp15
 70
     1
102
RTVSPropertyOp16
 70
     1
102
RTVSPropertyOp17
 70
     1
102
RTVSPropertyOp18
 70
     1
102
RTVSPropertyOp19
 70
     1
102
RTVSPropertyOp20
 70
     1
102
RTVSPropertyOp21
 70
     1
102
RTVSPropertyOp22
 70
     1
102
RTVSPropertyOp23
 70
     1
102
RTVSPropertyOp24
 70
     1
102
RTVSPropertyOp25
 70
     1
102
RTVSPropertyOp26
 70
     1
102
RTVSPropertyOp27
 70
     1
102
RTVSPropertyOp28
 70
     1
102
RTVSPropertyOp29
 70
     1
102
RTVSPropertyOp30
 70
     1
102
RTVSPropertyOp31
 70
     1
102
RTVSPropertyOp32
 70
     1
102
RTVSPropertyOp33
 70
     1
102
RTVSPropertyOp34
 70
     1
102
RTVSPropertyOp35
 70
     1
102
RTVSPropertyOp36
 70
     1
102
RTVSPropertyOp37
 70
     1
102
RTVSPropertyOp38
 70
     1
102
RTVSPropertyOp39
 70
     1
102
RTVSPropertyOp40
 70
     1
102
RTVSPropertyOp41
 70
     1
102
RTVSPropertyOp42
 70
     1
102
RTVSPropertyOp43
 70
     1
102
RTVSPropertyOp44
 70
     1
102
RTVSPropertyOp45
 70
     1
102
RTVSPropertyOp46
 70
     1
102
RTVSPropertyOp47
 70
     1
102
RTVSPropertyOp48
 70
     1
102
RTVSPropertyOp49
 70
     1
102
RTVSPropertyOp50
 70
     1
102
RTVSPropertyOp51
 70
     0
102
RTVSPropertyOp52
 70
     0
102
RTVSPropertyOp53
 70
     1
102
RTVSPropertyOp54
 70
     1
102
RTVSPropertyOp55
 70
     1
102
RTVSPropertyOp56
 70
     1
102
RTVSPropertyOp57
 70
     1
102
RTVSPropertyOp58
 70
     1
102
RTVSPropertyOp59
 70
     1
102
RTVSPropertyOp60
 70
     1
102
RTVSPropertyOp61
 70
     1
102
RTVSPropertyOp62
 70
     1
  0
XRECORD
  5
42A
102
{ACAD_REACTORS
330
429
102
}
330
429
100
AcDbXrecord
280
     1
102
RTVSPost2010Prop28
280
     0
102
RTVSPost2010PropOp28
 70
     1
102
RTVSPost2010Prop29
280
     1
102
RTVSPost2010PropOp29
 70
     1
102
RTVSPost2010Prop30
280
     1
102
RTVSPost2010PropOp30
 70
     1
102
RTVSPost2010Prop31
280
     0
102
RTVSPost2010PropOp31
 70
     1
102
RTVSPost2010Prop32
280
     0
102
RTVSPost2010PropOp32
 70
     1
102
RTVSPost2010Prop33
280
     0
102
RTVSPost2010PropOp33
 70
     1
102
RTVSPost2010Prop34
280
     0
102
RTVSPost2010PropOp34
 70
     1
102
RTVSPost2010Prop35
280
     0
102
RTVSPost2010PropOp35
 70
     1
102
RTVSPost2010Prop36
280
     0
102
RTVSPost2010PropOp36
 70
     1
102
RTVSPost2010Prop37
 90
       50
102
RTVSPost2010PropOp37
 70
     1
102
RTVSPost2010Prop38
140
0.0
102
RTVSPost2010PropOp38
 70
     1
102
RTVSPost2010Prop39
140
1.0
102
RTVSPost2010PropOp39
 70
     1
102
RTVSPost2010Prop40
 90
        0
102
RTVSPost2010PropOp40
 70
     1
102
RTVSPost2010Prop41ColorIndex
 90
       18
102
RTVSPost2010Prop41ColorRGB
 90
        0
102
RTVSPost2010PropOp41
 70
     1
102
RTVSPost2010Prop42
 90
       50
102
RTVSPost2010PropOp42
 70
     1
102
RTVSPost2010Prop43
 90
        3
102
RTVSPost2010PropOp43
 70
     1
102
RTVSPost2010Prop44ColorIndex
 90
        5
102
RTVSPost2010Prop44ColorRGB
 90
      255
102
RTVSPost2010PropOp44
 70
     1
102
RTVSPost2010Prop45
280
     0
102
RTVSPost2010PropOp45
 70
     1
102
RTVSPost2010Prop46
 90
       50
102
RTVSPost2010PropOp46
 70
     1
102
RTVSPost2010Prop47
 90
       50
102
RTVSPost2010PropOp47
 70
     1
102
RTVSPost2010Prop48
 90
       50
102
RTVSPost2010PropOp48
 70
     1
102
RTVSPost2010Prop49
280
     0
102
RTVSPost2010PropOp49
 70
     1
102
RTVSPost2010Prop50
 90
       50
102
RTVSPost2010PropOp50
 70
     1
102
RTVSPost2010Prop51ColorIndex
 90
      256
102
RTVSPost2010Prop51ColorRGB
 90
-16777216
102
RTVSPost2010PropOp51
 70
     0
102
RTVSPost2010Prop52
140
1.0
102
RTVSPost2010PropOp52
 70
     0
102
RTVSPost2010Prop53
 90
        2
102
RTVSPost2010PropOp53
 70
     1
102
RTVSPost2010Prop54
  1
strokes_ogs.tif
102
RTVSPost2010PropOp54
 70
     1
102
RTVSPost2010Prop55
280
     0
102
RTVSPost2010PropOp55
 70
     1
102
RTVSPost2010Prop56
140
1.0
102
RTVSPost2010PropOp56
 70
     1
102
RTVSPost2010Prop57
140
1.0
102
RTVSPost2010PropOp57
 70
     1
102
RTVSPropertyOp0
 70
     1
102
RTVSPropertyOp1
 70
     1
102
RTVSPropertyOp2
 70
     1
102
RTVSPropertyOp3
 70
     1
102
RTVSPropertyOp4
 70
     1
102
RTVSPropertyOp5
 70
     1
102
RTVSPropertyOp6
 70
     1
102
RTVSPropertyOp7
 70
     1
102
RTVSPropertyOp8
 70
     1
102
RTVSPropertyOp9
 70
     1
102
RTVSPropertyOp10
 70
     1
102
RTVSPropertyOp11
 70
     1
102
RTVSPropertyOp12
 70
     1
102
RTVSPropertyOp13
 70
     1
102
RTVSPropertyOp14
 70
     1
102
RTVSPropertyOp15
 70
     1
102
RTVSPropertyOp16
 70
     1
102
RTVSPropertyOp17
 70
     1
102
RTVSPropertyOp18
 70
     1
102
RTVSPropertyOp19
 70
     1
102
RTVSPropertyOp20
 70
     1
102
RTVSPropertyOp21
 70
     1
102
RTVSPropertyOp22
 70
     1
102
RTVSPropertyOp23
 70
     1
102
RTVSPropertyOp24
 70
     1
102
RTVSPropertyOp25
 70
     1
102
RTVSPropertyOp26
 70
     1
102
RTVSPropertyOp27
 70
     1
102
RTVSPropertyOp28
 70
     1
102
RTVSPropertyOp29
 70
     1
102
RTVSPropertyOp30
 70
     1
102
RTVSPropertyOp31
 70
     1
102
RTVSPropertyOp32
 70
     1
102
RTVSPropertyOp33
 70
     1
102
RTVSPropertyOp34
 70
     1
102
RTVSPropertyOp35
 70
     1
102
RTVSPropertyOp36
 70
     1
102
RTVSPropertyOp37
 70
     1
102
RTVSPropertyOp38
 70
     1
102
RTVSPropertyOp39
 70
     1
102
RTVSPropertyOp40
 70
     1
102
RTVSPropertyOp41
 70
     1
102
RTVSPropertyOp42
 70
     1
102
RTVSPropertyOp43
 70
     1
102
RTVSPropertyOp44
 70
     1
102
RTVSPropertyOp45
 70
     1
102
RTVSPropertyOp46
 70
     1
102
RTVSPropertyOp47
 70
     1
102
RTVSPropertyOp48
 70
     1
102
RTVSPropertyOp49
 70
     1
102
RTVSPropertyOp50
 70
     1
102
RTVSPropertyOp51
 70
     0
102
RTVSPropertyOp52
 70
     0
102
RTVSPropertyOp53
 70
     1
102
RTVSPropertyOp54
 70
     1
102
RTVSPropertyOp55
 70
     1
102
RTVSPropertyOp56
 70
     1
102
RTVSPropertyOp57
 70
     1
102
RTVSPropertyOp58
 70
     1
102
RTVSPropertyOp59
 70
     1
102
RTVSPropertyOp60
 70
     1
102
RTVSPropertyOp61
 70
     1
102
RTVSPropertyOp62
 70
     1
  0
XRECORD
  5
41A
102
{ACAD_REACTORS
330
419
102
}
330
419
100
AcDbXrecord
280
     1
102
RTVSPost2010Prop28
280
     0
102
RTVSPost2010PropOp28
 70
     1
102
RTVSPost2010Prop29
280
     1
102
RTVSPost2010PropOp29
 70
     1
102
RTVSPost2010Prop30
280
     1
102
RTVSPost2010PropOp30
 70
     1
102
RTVSPost2010Prop31
280
     0
102
RTVSPost2010PropOp31
 70
     1
102
RTVSPost2010Prop32
280
     0
102
RTVSPost2010PropOp32
 70
     1
102
RTVSPost2010Prop33
280
     0
102
RTVSPost2010PropOp33
 70
     1
102
RTVSPost2010Prop34
280
     0
102
RTVSPost2010PropOp34
 70
     1
102
RTVSPost2010Prop35
280
     0
102
RTVSPost2010PropOp35
 70
     1
102
RTVSPost2010Prop36
280
     0
102
RTVSPost2010PropOp36
 70
     1
102
RTVSPost2010Prop37
 90
       50
102
RTVSPost2010PropOp37
 70
     1
102
RTVSPost2010Prop38
140
0.0
102
RTVSPost2010PropOp38
 70
     1
102
RTVSPost2010Prop39
140
1.0
102
RTVSPost2010PropOp39
 70
     1
102
RTVSPost2010Prop40
 90
        0
102
RTVSPost2010PropOp40
 70
     1
102
RTVSPost2010Prop41ColorIndex
 90
       18
102
RTVSPost2010Prop41ColorRGB
 90
        0
102
RTVSPost2010PropOp41
 70
     1
102
RTVSPost2010Prop42
 90
       50
102
RTVSPost2010PropOp42
 70
     1
102
RTVSPost2010Prop43
 90
        3
102
RTVSPost2010PropOp43
 70
     1
102
RTVSPost2010Prop44ColorIndex
 90
        5
102
RTVSPost2010Prop44ColorRGB
 90
      255
102
RTVSPost2010PropOp44
 70
     1
102
RTVSPost2010Prop45
280
     0
102
RTVSPost2010PropOp45
 70
     1
102
RTVSPost2010Prop46
 90
       50
102
RTVSPost2010PropOp46
 70
     1
102
RTVSPost2010Prop47
 90
       50
102
RTVSPost2010PropOp47
 70
     1
102
RTVSPost2010Prop48
 90
       50
102
RTVSPost2010PropOp48
 70
     1
102
RTVSPost2010Prop49
280
     0
102
RTVSPost2010PropOp49
 70
     1
102
RTVSPost2010Prop50
 90
       50
102
RTVSPost2010PropOp50
 70
     1
102
RTVSPost2010Prop51ColorIndex
 90
      256
102
RTVSPost2010Prop51ColorRGB
 90
-16777216
102
RTVSPost2010PropOp51
 70
     0
102
RTVSPost2010Prop52
140
1.0
102
RTVSPost2010PropOp52
 70
     0
102
RTVSPost2010Prop53
 90
        2
102
RTVSPost2010PropOp53
 70
     1
102
RTVSPost2010Prop54
  1
strokes_ogs.tif
102
RTVSPost2010PropOp54
 70
     1
102
RTVSPost2010Prop55
280
     0
102
RTVSPost2010PropOp55
 70
     1
102
RTVSPost2010Prop56
140
1.0
102
RTVSPost2010PropOp56
 70
     1
102
RTVSPost2010Prop57
140
1.0
102
RTVSPost2010PropOp57
 70
     1
102
RTVSPropertyOp0
 70
     1
102
RTVSPropertyOp1
 70
     1
102
RTVSPropertyOp2
 70
     1
102
RTVSPropertyOp3
 70
     1
102
RTVSPropertyOp4
 70
     1
102
RTVSPropertyOp5
 70
     1
102
RTVSPropertyOp6
 70
     1
102
RTVSPropertyOp7
 70
     1
102
RTVSPropertyOp8
 70
     1
102
RTVSPropertyOp9
 70
     1
102
RTVSPropertyOp10
 70
     1
102
RTVSPropertyOp11
 70
     1
102
RTVSPropertyOp12
 70
     1
102
RTVSPropertyOp13
 70
     1
102
RTVSPropertyOp14
 70
     1
102
RTVSPropertyOp15
 70
     1
102
RTVSPropertyOp16
 70
     1
102
RTVSPropertyOp17
 70
     1
102
RTVSPropertyOp18
 70
     1
102
RTVSPropertyOp19
 70
     1
102
RTVSPropertyOp20
 70
     1
102
RTVSPropertyOp21
 70
     1
102
RTVSPropertyOp22
 70
     1
102
RTVSPropertyOp23
 70
     1
102
RTVSPropertyOp24
 70
     1
102
RTVSPropertyOp25
 70
     1
102
RTVSPropertyOp26
 70
     1
102
RTVSPropertyOp27
 70
     1
102
RTVSPropertyOp28
 70
     1
102
RTVSPropertyOp29
 70
     1
102
RTVSPropertyOp30
 70
     1
102
RTVSPropertyOp31
 70
     1
102
RTVSPropertyOp32
 70
     1
102
RTVSPropertyOp33
 70
     1
102
RTVSPropertyOp34
 70
     1
102
RTVSPropertyOp35
 70
     1
102
RTVSPropertyOp36
 70
     1
102
RTVSPropertyOp37
 70
     1
102
RTVSPropertyOp38
 70
     1
102
RTVSPropertyOp39
 70
     1
102
RTVSPropertyOp40
 70
     1
102
RTVSPropertyOp41
 70
     1
102
RTVSPropertyOp42
 70
     1
102
RTVSPropertyOp43
 70
     1
102
RTVSPropertyOp44
 70
     1
102
RTVSPropertyOp45
 70
     1
102
RTVSPropertyOp46
 70
     1
102
RTVSPropertyOp47
 70
     1
102
RTVSPropertyOp48
 70
     1
102
RTVSPropertyOp49
 70
     1
102
RTVSPropertyOp50
 70
     1
102
RTVSPropertyOp51
 70
     0
102
RTVSPropertyOp52
 70
     0
102
RTVSPropertyOp53
 70
     1
102
RTVSPropertyOp54
 70
     1
102
RTVSPropertyOp55
 70
     1
102
RTVSPropertyOp56
 70
     1
102
RTVSPropertyOp57
 70
     1
102
RTVSPropertyOp58
 70
     1
102
RTVSPropertyOp59
 70
     1
102
RTVSPropertyOp60
 70
     1
102
RTVSPropertyOp61
 70
     1
102
RTVSPropertyOp62
 70
     1
  0
XRECORD
  5
40C
102
{ACAD_REACTORS
330
40B
102
}
330
40B
100
AcDbXrecord
280
     1
102
RTVSPost2010Prop28
280
     0
102
RTVSPost2010PropOp28
 70
     1
102
RTVSPost2010Prop29
280
     1
102
RTVSPost2010PropOp29
 70
     1
102
RTVSPost2010Prop30
280
     1
102
RTVSPost2010PropOp30
 70
     1
102
RTVSPost2010Prop31
280
     0
102
RTVSPost2010PropOp31
 70
     1
102
RTVSPost2010Prop32
280
     0
102
RTVSPost2010PropOp32
 70
     1
102
RTVSPost2010Prop33
280
     0
102
RTVSPost2010PropOp33
 70
     1
102
RTVSPost2010Prop34
280
     0
102
RTVSPost2010PropOp34
 70
     1
102
RTVSPost2010Prop35
280
     0
102
RTVSPost2010PropOp35
 70
     1
102
RTVSPost2010Prop36
280
     0
102
RTVSPost2010PropOp36
 70
     1
102
RTVSPost2010Prop37
 90
       50
102
RTVSPost2010PropOp37
 70
     1
102
RTVSPost2010Prop38
140
0.0
102
RTVSPost2010PropOp38
 70
     1
102
RTVSPost2010Prop39
140
1.0
102
RTVSPost2010PropOp39
 70
     1
102
RTVSPost2010Prop40
 90
        0
102
RTVSPost2010PropOp40
 70
     1
102
RTVSPost2010Prop41ColorIndex
 90
       18
102
RTVSPost2010Prop41ColorRGB
 90
        0
102
RTVSPost2010PropOp41
 70
     1
102
RTVSPost2010Prop42
 90
       50
102
RTVSPost2010PropOp42
 70
     1
102
RTVSPost2010Prop43
 90
        3
102
RTVSPost2010PropOp43
 70
     1
102
RTVSPost2010Prop44ColorIndex
 90
        5
102
RTVSPost2010Prop44ColorRGB
 90
      255
102
RTVSPost2010PropOp44
 70
     1
102
RTVSPost2010Prop45
280
     0
102
RTVSPost2010PropOp45
 70
     1
102
RTVSPost2010Prop46
 90
       50
102
RTVSPost2010PropOp46
 70
     1
102
RTVSPost2010Prop47
 90
       50
102
RTVSPost2010PropOp47
 70
     1
102
RTVSPost2010Prop48
 90
       50
102
RTVSPost2010PropOp48
 70
     1
102
RTVSPost2010Prop49
280
     0
102
RTVSPost2010PropOp49
 70
     1
102
RTVSPost2010Prop50
 90
       50
102
RTVSPost2010PropOp50
 70
     1
102
RTVSPost2010Prop51ColorIndex
 90
      256
102
RTVSPost2010Prop51ColorRGB
 90
-16777216
102
RTVSPost2010PropOp51
 70
     0
102
RTVSPost2010Prop52
140
1.0
102
RTVSPost2010PropOp52
 70
     0
102
RTVSPost2010Prop53
 90
        2
102
RTVSPost2010PropOp53
 70
     1
102
RTVSPost2010Prop54
  1
strokes_ogs.tif
102
RTVSPost2010PropOp54
 70
     1
102
RTVSPost2010Prop55
280
     0
102
RTVSPost2010PropOp55
 70
     1
102
RTVSPost2010Prop56
140
1.0
102
RTVSPost2010PropOp56
 70
     1
102
RTVSPost2010Prop57
140
1.0
102
RTVSPost2010PropOp57
 70
     1
102
RTVSPropertyOp0
 70
     1
102
RTVSPropertyOp1
 70
     1
102
RTVSPropertyOp2
 70
     1
102
RTVSPropertyOp3
 70
     1
102
RTVSPropertyOp4
 70
     1
102
RTVSPropertyOp5
 70
     1
102
RTVSPropertyOp6
 70
     1
102
RTVSPropertyOp7
 70
     1
102
RTVSPropertyOp8
 70
     1
102
RTVSPropertyOp9
 70
     1
102
RTVSPropertyOp10
 70
     1
102
RTVSPropertyOp11
 70
     1
102
RTVSPropertyOp12
 70
     1
102
RTVSPropertyOp13
 70
     1
102
RTVSPropertyOp14
 70
     1
102
RTVSPropertyOp15
 70
     1
102
RTVSPropertyOp16
 70
     1
102
RTVSPropertyOp17
 70
     1
102
RTVSPropertyOp18
 70
     1
102
RTVSPropertyOp19
 70
     1
102
RTVSPropertyOp20
 70
     1
102
RTVSPropertyOp21
 70
     1
102
RTVSPropertyOp22
 70
     1
102
RTVSPropertyOp23
 70
     1
102
RTVSPropertyOp24
 70
     1
102
RTVSPropertyOp25
 70
     1
102
RTVSPropertyOp26
 70
     1
102
RTVSPropertyOp27
 70
     1
102
RTVSPropertyOp28
 70
     1
102
RTVSPropertyOp29
 70
     1
102
RTVSPropertyOp30
 70
     1
102
RTVSPropertyOp31
 70
     1
102
RTVSPropertyOp32
 70
     1
102
RTVSPropertyOp33
 70
     1
102
RTVSPropertyOp34
 70
     1
102
RTVSPropertyOp35
 70
     1
102
RTVSPropertyOp36
 70
     1
102
RTVSPropertyOp37
 70
     1
102
RTVSPropertyOp38
 70
     1
102
RTVSPropertyOp39
 70
     1
102
RTVSPropertyOp40
 70
     1
102
RTVSPropertyOp41
 70
     1
102
RTVSPropertyOp42
 70
     1
102
RTVSPropertyOp43
 70
     1
102
RTVSPropertyOp44
 70
     1
102
RTVSPropertyOp45
 70
     1
102
RTVSPropertyOp46
 70
     1
102
RTVSPropertyOp47
 70
     1
102
RTVSPropertyOp48
 70
     1
102
RTVSPropertyOp49
 70
     1
102
RTVSPropertyOp50
 70
     1
102
RTVSPropertyOp51
 70
     0
102
RTVSPropertyOp52
 70
     0
102
RTVSPropertyOp53
 70
     1
102
RTVSPropertyOp54
 70
     1
102
RTVSPropertyOp55
 70
     1
102
RTVSPropertyOp56
 70
     1
102
RTVSPropertyOp57
 70
     1
102
RTVSPropertyOp58
 70
     1
102
RTVSPropertyOp59
 70
     1
102
RTVSPropertyOp60
 70
     1
102
RTVSPropertyOp61
 70
     1
102
RTVSPropertyOp62
 70
     1
  0
XRECORD
  5
42C
102
{ACAD_REACTORS
330
42B
102
}
330
42B
100
AcDbXrecord
280
     1
102
RTVSPost2010Prop28
280
     0
102
RTVSPost2010PropOp28
 70
     1
102
RTVSPost2010Prop29
280
     1
102
RTVSPost2010PropOp29
 70
     1
102
RTVSPost2010Prop30
280
     1
102
RTVSPost2010PropOp30
 70
     1
102
RTVSPost2010Prop31
280
     0
102
RTVSPost2010PropOp31
 70
     1
102
RTVSPost2010Prop32
280
     0
102
RTVSPost2010PropOp32
 70
     1
102
RTVSPost2010Prop33
280
     0
102
RTVSPost2010PropOp33
 70
     1
102
RTVSPost2010Prop34
280
     0
102
RTVSPost2010PropOp34
 70
     1
102
RTVSPost2010Prop35
280
     0
102
RTVSPost2010PropOp35
 70
     1
102
RTVSPost2010Prop36
280
     0
102
RTVSPost2010PropOp36
 70
     1
102
RTVSPost2010Prop37
 90
       50
102
RTVSPost2010PropOp37
 70
     1
102
RTVSPost2010Prop38
140
0.0
102
RTVSPost2010PropOp38
 70
     1
102
RTVSPost2010Prop39
140
1.0
102
RTVSPost2010PropOp39
 70
     1
102
RTVSPost2010Prop40
 90
        0
102
RTVSPost2010PropOp40
 70
     1
102
RTVSPost2010Prop41ColorIndex
 90
       18
102
RTVSPost2010Prop41ColorRGB
 90
        0
102
RTVSPost2010PropOp41
 70
     1
102
RTVSPost2010Prop42
 90
       50
102
RTVSPost2010PropOp42
 70
     1
102
RTVSPost2010Prop43
 90
        3
102
RTVSPost2010PropOp43
 70
     1
102
RTVSPost2010Prop44ColorIndex
 90
        5
102
RTVSPost2010Prop44ColorRGB
 90
      255
102
RTVSPost2010PropOp44
 70
     1
102
RTVSPost2010Prop45
280
     0
102
RTVSPost2010PropOp45
 70
     1
102
RTVSPost2010Prop46
 90
       50
102
RTVSPost2010PropOp46
 70
     1
102
RTVSPost2010Prop47
 90
       50
102
RTVSPost2010PropOp47
 70
     1
102
RTVSPost2010Prop48
 90
       50
102
RTVSPost2010PropOp48
 70
     1
102
RTVSPost2010Prop49
280
     0
102
RTVSPost2010PropOp49
 70
     1
102
RTVSPost2010Prop50
 90
       50
102
RTVSPost2010PropOp50
 70
     1
102
RTVSPost2010Prop51ColorIndex
 90
      256
102
RTVSPost2010Prop51ColorRGB
 90
-16777216
102
RTVSPost2010PropOp51
 70
     0
102
RTVSPost2010Prop52
140
1.0
102
RTVSPost2010PropOp52
 70
     0
102
RTVSPost2010Prop53
 90
        2
102
RTVSPost2010PropOp53
 70
     1
102
RTVSPost2010Prop54
  1
strokes_ogs.tif
102
RTVSPost2010PropOp54
 70
     1
102
RTVSPost2010Prop55
280
     0
102
RTVSPost2010PropOp55
 70
     1
102
RTVSPost2010Prop56
140
1.0
102
RTVSPost2010PropOp56
 70
     1
102
RTVSPost2010Prop57
140
1.0
102
RTVSPost2010PropOp57
 70
     1
102
RTVSPropertyOp0
 70
     1
102
RTVSPropertyOp1
 70
     1
102
RTVSPropertyOp2
 70
     1
102
RTVSPropertyOp3
 70
     1
102
RTVSPropertyOp4
 70
     1
102
RTVSPropertyOp5
 70
     1
102
RTVSPropertyOp6
 70
     1
102
RTVSPropertyOp7
 70
     1
102
RTVSPropertyOp8
 70
     1
102
RTVSPropertyOp9
 70
     1
102
RTVSPropertyOp10
 70
     1
102
RTVSPropertyOp11
 70
     1
102
RTVSPropertyOp12
 70
     1
102
RTVSPropertyOp13
 70
     1
102
RTVSPropertyOp14
 70
     1
102
RTVSPropertyOp15
 70
     1
102
RTVSPropertyOp16
 70
     1
102
RTVSPropertyOp17
 70
     1
102
RTVSPropertyOp18
 70
     1
102
RTVSPropertyOp19
 70
     1
102
RTVSPropertyOp20
 70
     1
102
RTVSPropertyOp21
 70
     1
102
RTVSPropertyOp22
 70
     1
102
RTVSPropertyOp23
 70
     1
102
RTVSPropertyOp24
 70
     1
102
RTVSPropertyOp25
 70
     1
102
RTVSPropertyOp26
 70
     1
102
RTVSPropertyOp27
 70
     1
102
RTVSPropertyOp28
 70
     1
102
RTVSPropertyOp29
 70
     1
102
RTVSPropertyOp30
 70
     1
102
RTVSPropertyOp31
 70
     1
102
RTVSPropertyOp32
 70
     1
102
RTVSPropertyOp33
 70
     1
102
RTVSPropertyOp34
 70
     1
102
RTVSPropertyOp35
 70
     1
102
RTVSPropertyOp36
 70
     1
102
RTVSPropertyOp37
 70
     1
102
RTVSPropertyOp38
 70
     1
102
RTVSPropertyOp39
 70
     1
102
RTVSPropertyOp40
 70
     1
102
RTVSPropertyOp41
 70
     1
102
RTVSPropertyOp42
 70
     1
102
RTVSPropertyOp43
 70
     1
102
RTVSPropertyOp44
 70
     1
102
RTVSPropertyOp45
 70
     1
102
RTVSPropertyOp46
 70
     1
102
RTVSPropertyOp47
 70
     1
102
RTVSPropertyOp48
 70
     1
102
RTVSPropertyOp49
 70
     1
102
RTVSPropertyOp50
 70
     1
102
RTVSPropertyOp51
 70
     0
102
RTVSPropertyOp52
 70
     0
102
RTVSPropertyOp53
 70
     1
102
RTVSPropertyOp54
 70
     1
102
RTVSPropertyOp55
 70
     1
102
RTVSPropertyOp56
 70
     1
102
RTVSPropertyOp57
 70
     1
102
RTVSPropertyOp58
 70
     1
102
RTVSPropertyOp59
 70
     1
102
RTVSPropertyOp60
 70
     1
102
RTVSPropertyOp61
 70
     1
102
RTVSPropertyOp62
 70
     1
  0
ENDSEC
  0
EOF
