  0
SECTION
  2
HEADER
  9
$ACADVER
  1
AC1018
  9
$ACADMAINTVER
 70
   104
  9
$DWGCODEPAGE
  3
ANSI_1250
  9
$LASTSAVEDBY
  1
hm1535
  9
$INSBASE
 10
0.0
 20
0.0
 30
0.0
  9
$EXTMIN
 10
108.4627353333333
 20
21.404126
 30
0.0
  9
$EXTMAX
 10
587.478648
 20
412.2483386666668
 30
0.0
  9
$LIMMIN
 10
-0.5
 20
-0.5
  9
$LIMMAX
 10
5.0
 20
5.0
  9
$ORTHOMODE
 70
     0
  9
$REGENMODE
 70
     1
  9
$FILLMODE
 70
     1
  9
$QTEXTMODE
 70
     0
  9
$MIRRTEXT
 70
     1
  9
$LTSCALE
 40
1.0
  9
$ATTMODE
 70
     1
  9
$TEXTSIZE
 40
0.2
  9
$TRACEWID
 40
0.05
  9
$TEXTSTYLE
  7
Standard
  9
$CLAYER
  8
0
  9
$CELTYPE
  6
ByLayer
  9
$CECOLOR
 62
   256
  9
$CELTSCALE
 40
1.0
  9
$DISPSILH
 70
     0
  9
$DIMSCALE
 40
1.0
  9
$DIMASZ
 40
0.18
  9
$DIMEXO
 40
0.0625
  9
$DIMDLI
 40
0.38
  9
$DIMRND
 40
0.0
  9
$DIMDLE
 40
0.0
  9
$DIMEXE
 40
0.18
  9
$DIMTP
 40
0.0
  9
$DIMTM
 40
0.0
  9
$DIMTXT
 40
0.18
  9
$DIMCEN
 40
0.09
  9
$DIMTSZ
 40
0.0
  9
$DIMTOL
 70
     0
  9
$DIMLIM
 70
     0
  9
$DIMTIH
 70
     1
  9
$DIMTOH
 70
     1
  9
$DIMSE1
 70
     0
  9
$DIMSE2
 70
     0
  9
$DIMTAD
 70
     0
  9
$DIMZIN
 70
     0
  9
$DIMBLK
  1

  9
$DIMASO
 70
     1
  9
$DIMSHO
 70
     1
  9
$DIMPOST
  1

  9
$DIMAPOST
  1

  9
$DIMALT
 70
     0
  9
$DIMALTD
 70
     2
  9
$DIMALTF
 40
25.4
  9
$DIMLFAC
 40
1.0
  9
$DIMTOFL
 70
     0
  9
$DIMTVP
 40
0.0
  9
$DIMTIX
 70
     0
  9
$DIMSOXD
 70
     0
  9
$DIMSAH
 70
     0
  9
$DIMBLK1
  1

  9
$DIMBLK2
  1

  9
$DIMSTYLE
  2
Standard
  9
$DIMCLRD
 70
     0
  9
$DIMCLRE
 70
     0
  9
$DIMCLRT
 70
     0
  9
$DIMTFAC
 40
1.0
  9
$DIMGAP
 40
0.09
  9
$DIMJUST
 70
     0
  9
$DIMSD1
 70
     0
  9
$DIMSD2
 70
     0
  9
$DIMTOLJ
 70
     1
  9
$DIMTZIN
 70
     0
  9
$DIMALTZ
 70
     0
  9
$DIMALTTZ
 70
     0
  9
$DIMUPT
 70
     0
  9
$DIMDEC
 70
     4
  9
$DIMTDEC
 70
     4
  9
$DIMALTU
 70
     2
  9
$DIMALTTD
 70
     2
  9
$DIMTXSTY
  7
Standard
  9
$DIMAUNIT
 70
     0
  9
$DIMADEC
 70
     0
  9
$DIMALTRND
 40
0.0
  9
$DIMAZIN
 70
     0
  9
$DIMDSEP
 70
    46
  9
$DIMATFIT
 70
     3
  9
$DIMFRAC
 70
     0
  9
$DIMLDRBLK
  1

  9
$DIMLUNIT
 70
     2
  9
$DIMLWD
 70
    -2
  9
$DIMLWE
 70
    -2
  9
$DIMTMOVE
 70
     0
  9
$LUNITS
 70
     2
  9
$LUPREC
 70
     2
  9
$SKETCHINC
 40
0.1
  9
$FILLETRAD
 40
0.5
  9
$AUNITS
 70
     0
  9
$AUPREC
 70
     0
  9
$MENU
  1
.
  9
$ELEVATION
 40
0.0
  9
$PELEVATION
 40
0.0
  9
$THICKNESS
 40
0.0
  9
$LIMCHECK
 70
     0
  9
$CHAMFERA
 40
0.0
  9
$CHAMFERB
 40
0.0
  9
$CHAMFERC
 40
0.0
  9
$CHAMFERD
 40
0.0
  9
$SKPOLY
 70
     0
  9
$TDCREATE
 40
2458872.357789352
  9
$TDUCREATE
 40
2458872.316129062
  9
$TDUPDATE
 40
2458872.358402778
  9
$TDUUPDATE
 40
2458872.316736111
  9
$TDINDWG
 40
0.0003125116
  9
$TDUSRTIMER
 40
0.0003125116
  9
$USRTIMER
 70
     1
  9
$ANGBASE
 50
0.0
  9
$ANGDIR
 70
     0
  9
$PDMODE
 70
     0
  9
$PDSIZE
 40
0.0
  9
$PLINEWID
 40
0.0
  9
$SPLFRAME
 70
     0
  9
$SPLINETYPE
 70
     6
  9
$SPLINESEGS
 70
     8
  9
$HANDSEED
  5
37F
  9
$SURFTAB1
 70
     6
  9
$SURFTAB2
 70
     6
  9
$SURFTYPE
 70
     6
  9
$SURFU
 70
     6
  9
$SURFV
 70
     6
  9
$UCSBASE
  2

  9
$UCSNAME
  2

  9
$UCSORG
 10
172.174849
 20
366.008075
 30
0.0
  9
$UCSXDIR
 10
1.0
 20
0.0
 30
0.0
  9
$UCSYDIR
 10
0.0
 20
1.0
 30
0.0
  9
$UCSORTHOREF
  2

  9
$UCSORTHOVIEW
 70
     0
  9
$UCSORGTOP
 10
0.0
 20
0.0
 30
0.0
  9
$UCSORGBOTTOM
 10
0.0
 20
0.0
 30
0.0
  9
$UCSORGLEFT
 10
0.0
 20
0.0
 30
0.0
  9
$UCSORGRIGHT
 10
0.0
 20
0.0
 30
0.0
  9
$UCSORGFRONT
 10
0.0
 20
0.0
 30
0.0
  9
$UCSORGBACK
 10
0.0
 20
0.0
 30
0.0
  9
$PUCSBASE
  2

  9
$PUCSNAME
  2

  9
$PUCSORG
 10
0.0
 20
0.0
 30
0.0
  9
$PUCSXDIR
 10
1.0
 20
0.0
 30
0.0
  9
$PUCSYDIR
 10
0.0
 20
1.0
 30
0.0
  9
$PUCSORTHOREF
  2

  9
$PUCSORTHOVIEW
 70
     0
  9
$PUCSORGTOP
 10
0.0
 20
0.0
 30
0.0
  9
$PUCSORGBOTTOM
 10
0.0
 20
0.0
 30
0.0
  9
$PUCSORGLEFT
 10
0.0
 20
0.0
 30
0.0
  9
$PUCSORGRIGHT
 10
0.0
 20
0.0
 30
0.0
  9
$PUCSORGFRONT
 10
0.0
 20
0.0
 30
0.0
  9
$PUCSORGBACK
 10
0.0
 20
0.0
 30
0.0
  9
$USERI1
 70
     0
  9
$USERI2
 70
     0
  9
$USERI3
 70
     0
  9
$USERI4
 70
     0
  9
$USERI5
 70
     0
  9
$USERR1
 40
0.0
  9
$USERR2
 40
0.0
  9
$USERR3
 40
0.0
  9
$USERR4
 40
0.0
  9
$USERR5
 40
0.0
  9
$WORLDVIEW
 70
     1
  9
$SHADEDGE
 70
     3
  9
$SHADEDIF
 70
    70
  9
$TILEMODE
 70
     1
  9
$MAXACTVP
 70
    64
  9
$PINSBASE
 10
0.0
 20
0.0
 30
0.0
  9
$PLIMCHECK
 70
     0
  9
$PEXTMIN
 10
-0.5
 20
-0.5
 30
-0.5
  9
$PEXTMAX
 10
5.0
 20
5.0
 30
5.0
  9
$PLIMMIN
 10
-0.5
 20
-0.5
  9
$PLIMMAX
 10
5.0
 20
5.0
  9
$UNITMODE
 70
     0
  9
$VISRETAIN
 70
     1
  9
$PLINEGEN
 70
     0
  9
$PSLTSCALE
 70
     1
  9
$TREEDEPTH
 70
  3020
  9
$CMLSTYLE
  2
Standard
  9
$CMLJUST
 70
     0
  9
$CMLSCALE
 40
1.0
  9
$PROXYGRAPHICS
 70
     1
  9
$MEASUREMENT
 70
     1
  9
$CELWEIGHT
370
    13
  9
$ENDCAPS
280
     0
  9
$JOINSTYLE
280
     0
  9
$LWDISPLAY
290
     0
  9
$INSUNITS
 70
     4
  9
$HYPERLINKBASE
  1

  9
$STYLESHEET
  1

  9
$XEDIT
290
     1
  9
$CEPSNTYPE
380
     0
  9
$PSTYLEMODE
290
     1
  9
$FINGERPRINTGUID
  2
{D4442E02-07EB-4D3F-89E4-694FAFABC207}
  9
$VERSIONGUID
  2
{0C576DB2-3E91-C14B-A2A9-C74E722E5EB7}
  9
$EXTNAMES
290
     1
  9
$PSVPSCALE
 40
0.0
  9
$OLESTARTUP
290
     0
  9
$SORTENTS
280
   127
  9
$INDEXCTL
280
     0
  9
$HIDETEXT
280
     1
  9
$XCLIPFRAME
290
     0
  9
$HALOGAP
280
     0
  9
$OBSCOLOR
 70
   257
  9
$OBSLTYPE
280
     0
  9
$INTERSECTIONDISPLAY
280
     0
  9
$INTERSECTIONCOLOR
 70
   257
  9
$DIMASSOC
280
     2
  9
$PROJECTNAME
  1

  0
ENDSEC
  0
SECTION
  2
CLASSES
  0
CLASS
  1
ACDBDICTIONARYWDFLT
  2
AcDbDictionaryWithDefault
  3
ObjectDBX Classes
 90
        0
 91
        1
280
     0
281
     0
  0
CLASS
  1
VISUALSTYLE
  2
AcDbVisualStyle
  3
ObjectDBX Classes
 90
     4095
 91
       24
280
     0
281
     0
  0
CLASS
  1
MATERIAL
  2
AcDbMaterial
  3
ObjectDBX Classes
 90
     1153
 91
        3
280
     0
281
     0
  0
CLASS
  1
SCALE
  2
AcDbScale
  3
ObjectDBX Classes
 90
     1153
 91
       33
280
     0
281
     0
  0
CLASS
  1
TABLESTYLE
  2
AcDbTableStyle
  3
ObjectDBX Classes
 90
     4095
 91
        1
280
     0
281
     0
  0
CLASS
  1
MLEADERSTYLE
  2
AcDbMLeaderStyle
  3
ACDB_MLEADERSTYLE_CLASS
 90
     4095
 91
        1
280
     0
281
     0
  0
CLASS
  1
SUN
  2
AcDbSun
  3
SCENEOE
 90
     1153
 91
        0
280
     0
281
     0
  0
CLASS
  1
IMAGEDEF
  2
AcDbRasterImageDef
  3
ISM
 90
        0
 91
        1
280
     0
281
     0
  0
CLASS
  1
IMAGE
  2
AcDbRasterImage
  3
ISM
 90
     2175
 91
        1
280
     0
281
     1
  0
CLASS
  1
IMAGEDEF_REACTOR
  2
AcDbRasterImageDefReactor
  3
ISM
 90
        1
 91
        1
280
     0
281
     0
  0
CLASS
  1
DIMASSOC
  2
AcDbDimAssoc
  3
"AcDbDimAssoc|Product Desc:     AcDim ARX App For Dimension|Company:          Autodesk, Inc.|WEB Address:      www.autodesk.com"
 90
        0
 91
        6
280
     0
281
     0
  0
CLASS
  1
DICTIONARYVAR
  2
AcDbDictionaryVar
  3
ObjectDBX Classes
 90
        0
 91
        8
280
     0
281
     0
  0
CLASS
  1
CELLSTYLEMAP
  2
AcDbCellStyleMap
  3
ObjectDBX Classes
 90
     1152
 91
        2
280
     0
281
     0
  0
CLASS
  1
ACDBSECTIONVIEWSTYLE
  2
AcDbSectionViewStyle
  3
ObjectDBX Classes
 90
     1025
 91
        2
280
     0
281
     0
  0
CLASS
  1
ACDBDETAILVIEWSTYLE
  2
AcDbDetailViewStyle
  3
ObjectDBX Classes
 90
     1025
 91
        2
280
     0
281
     0
  0
CLASS
  1
RASTERVARIABLES
  2
AcDbRasterVariables
  3
ISM
 90
        0
 91
        1
280
     0
281
     0
  0
CLASS
  1
AMGSETTINGSOBJ
  2
AmgSettingsObj
  3
"AcadM|Product Description: AutoCAD Mechanical|Company: Autodesk, Inc."
 90
     1024
 91
        2
280
     0
281
     0
  0
CLASS
  1
ACME_DOCUMENT
  2
AcMeDbDoc
  3
AcMeServices
 90
     1024
 91
        1
280
     0
281
     0
  0
CLASS
  1
ACMESCOPE
  2
AcMeScope
  3
AcMeServices
 90
     1024
 91
        1
280
     0
281
     0
  0
CLASS
  1
ACMECOMMANDHISTORY
  2
AcMeCommandHistory
  3
AcMeServices
 90
     1024
 91
        1
280
     0
281
     0
  0
CLASS
  1
ACIMSYSVARMAN
  2
AcImSysVarManager
  3
AcMeServices
 90
     1024
 91
        3
280
     0
281
     0
  0
CLASS
  1
ACIMINTSYSVAR
  2
AcImIntSysVar
  3
AcMeServices
 90
     1024
 91
        2
280
     0
281
     0
  0
CLASS
  1
ACMESTATEMGR
  2
AcMeStateMgr
  3
AcMeServices
 90
     1024
 91
        1
280
     0
281
     0
  0
CLASS
  1
ACDBENTITYCACHE
  2
AcMeEntityCache
  3
AcMeServices
 90
     1024
 91
        1
280
     0
281
     0
  0
CLASS
  1
ACGREFMASTER
  2
AcGrefMaster
  3
AcAttribServices
 90
     1024
 91
        1
280
     0
281
     0
  0
CLASS
  1
ACME_DATABASE
  2
AcMeDbDatabase
  3
AcMeServices
 90
     1024
 91
        1
280
     0
281
     0
  0
CLASS
  1
ACRFINSADJUSTERMGR
  2
AcRfInsAdjusterMgr
  3
AcMeServices
 90
     1024
 91
        1
280
     0
281
     0
  0
CLASS
  1
ACGREFACADMASTER
  2
AcGrefacadMaster
  3
AcGrefServices
 90
     1024
 91
        1
280
     0
281
     0
  0
CLASS
  1
AMIMASTER
  2
AmiMaster
  3
AmiServices
 90
     1024
 91
        1
280
     0
281
     0
  0
CLASS
  1
AMDTMENUSTATEMGR
  2
AmdtMenuStateMgr
  3
McadcomServices
 90
     1024
 91
        1
280
     0
281
     0
  0
CLASS
  1
AMDTMCOMMENUSTATE
  2
AmdtMcomMenuState
  3
McadcomServices
 90
     1024
 91
        1
280
     0
281
     0
  0
CLASS
  1
MAPIAMMOUDLE
  2
MApiAmModule
  3
MApiAmServices
 90
     1024
 91
        1
280
     0
281
     0
  0
CLASS
  1
ACIMSTRSYSVAR
  2
AcImStrSysVar
  3
AcMeServices
 90
     1024
 91
        5
280
     0
281
     0
  0
CLASS
  1
AMDTAMMENUSTATE
  2
AmdtAmMenuState
  3
DesignerAssemblies_arx
 90
     1024
 91
        1
280
     0
281
     0
  0
CLASS
  1
ACAMPROJECT
  2
AcAmProject
  3
DesignerAssemblies
 90
     1024
 91
        1
280
     0
281
     0
  0
CLASS
  1
ACAMGRCOMPDEF
  2
AcAmGrCompDef
  3
DesignerAssemblies
 90
     1024
 91
        1
280
     0
281
     0
  0
CLASS
  1
ACAMCOMPDEF
  2
AcAmCompDef
  3
DesignerAssemblies
 90
     1024
 91
        1
280
     0
281
     0
  0
CLASS
  1
ACAMCOMPDEFMGR
  2
AcAmCompDefMgr
  3
DesignerAssemblies
 90
     1024
 91
        1
280
     0
281
     0
  0
CLASS
  1
AMCONTEXTMGR
  2
AcAmContextMgr
  3
DesignerAssemblies
 90
     1024
 91
        1
280
     0
281
     0
  0
CLASS
  1
ACAMCONTEXTMODELER
  2
AcAmContextModeler
  3
DesignerAssemblies
 90
     1024
 91
        1
280
     0
281
     0
  0
CLASS
  1
ACMDATADICTIONARY
  2
AcmDataDictionary
  3
"AcmSymBB|Product Description: AutoCAD Mechanical|Company: Autodesk, Inc."
 90
     1024
 91
        1
280
     0
281
     0
  0
CLASS
  1
ACAMGRCOMPDEFSET
  2
AcAmGrCompDefSet
  3
DesignerAssemblies
 90
     1024
 91
        1
280
     0
281
     0
  0
CLASS
  1
AMDTBROWSERDBTAB
  2
AmdtBrowserDbTab
  3
McadcomServices
 90
     1024
 91
        1
280
     0
281
     0
  0
CLASS
  1
CBROWSERAPPOBJECT
  2
CBrowserAppObject
  3
McadcomServices
 90
     1024
 91
        2
280
     0
281
     0
  0
CLASS
  1
DM_PLACEHOLDER
  2
AcDmSelsetPlaceholder
  3
McadcomServices
 90
     1024
 91
        1
280
     0
281
     0
  0
CLASS
  1
ACMSTANDARDISO
  2
AcmStandardISO
  3
"Amdt_StdImp|Product Description: AutoCAD Mechanical|Company: Autodesk, Inc."
 90
     1024
 91
        1
280
     0
281
     0
  0
CLASS
  1
AMDTEDGESTANDARDISO13715
  2
AmdtEdgeStdISO13715
  3
"Amdt_StdImp|Product Description: AutoCAD Mechanical|Company: Autodesk, Inc."
 90
     1024
 91
        1
280
     0
281
     0
  0
CLASS
  1
ACMSURFSTANDARDISO2002
  2
AcmSurfTextStdISO2002
  3
"Amdt_StdImp|Product Description: AutoCAD Mechanical|Company: Autodesk, Inc."
 90
     1024
 91
        1
280
     0
281
     0
  0
CLASS
  1
ACMFCFSTANDARDISO2012
  2
AcmFCFStdISO2012
  3
"Amdt_StdImp|Product Description: AutoCAD Mechanical|Company: Autodesk, Inc."
 90
     1024
 91
        1
280
     0
281
     0
  0
CLASS
  1
ACMWELDSTANDARDISO
  2
AcmWeldingStdISO
  3
"Amdt_StdImp|Product Description: AutoCAD Mechanical|Company: Autodesk, Inc."
 90
     1024
 91
        1
280
     0
281
     0
  0
CLASS
  1
ACMIDSTANDARDISO2012
  2
AcmIdStdISO2012
  3
"Amdt_StdImp|Product Description: AutoCAD Mechanical|Company: Autodesk, Inc."
 90
     1024
 91
        1
280
     0
281
     0
  0
CLASS
  1
ACMDATUMSTANDARDISO2012
  2
AcmDatumStdISO2012
  3
"Amdt_StdImp|Product Description: AutoCAD Mechanical|Company: Autodesk, Inc."
 90
     1024
 91
        1
280
     0
281
     0
  0
CLASS
  1
ACMBOMSTANDARDISO
  2
AcmBOMStdISO
  3
"Amdt_StdImp|Product Description: AutoCAD Mechanical|Company: Autodesk, Inc."
 90
     1024
 91
        1
280
     0
281
     0
  0
CLASS
  1
ACMDETAILSTANDARDISO
  2
AmdtDetailSymStdISO
  3
"Amdt_StdImp|Product Description: AutoCAD Mechanical|Company: Autodesk, Inc."
 90
     1024
 91
        1
280
     0
281
     0
  0
CLASS
  1
ACMSECTIONSTANDARDISO2001
  2
AmdtSectionSymStdISO2001
  3
"Amdt_StdImp|Product Description: AutoCAD Mechanical|Company: Autodesk, Inc."
 90
     1024
 91
        1
280
     0
281
     0
  0
CLASS
  1
ACMCENTERLINESTANDARDISO
  2
AmdtCenterLineStdISO
  3
"Amdt_StdImp|Product Description: AutoCAD Mechanical|Company: Autodesk, Inc."
 90
     1024
 91
        1
280
     0
281
     0
  0
CLASS
  1
ACMTHREADLINESTANDARDISO
  2
AmdtThreadLineStdISO
  3
"Amdt_StdImp|Product Description: AutoCAD Mechanical|Company: Autodesk, Inc."
 90
     1024
 91
        1
280
     0
281
     0
  0
CLASS
  1
ACMNOTESTANDARDISO
  2
AmdtNoteStdISO
  3
"Amdt_StdImp|Product Description: AutoCAD Mechanical|Company: Autodesk, Inc."
 90
     1024
 91
        1
280
     0
281
     0
  0
CLASS
  1
ACMTAPERSTANDARDISO
  2
AcmTaperStdISO
  3
"Amdt_StdImp|Product Description: AutoCAD Mechanical|Company: Autodesk, Inc."
 90
     1024
 91
        1
280
     0
281
     0
  0
CLASS
  1
ACMANOOTATIONVIEWSTANDARDISO
  2
AmdtAnViewStdISO
  3
"Amdt_StdImp|Product Description: AutoCAD Mechanical|Company: Autodesk, Inc."
 90
     1024
 91
        1
280
     0
281
     0
  0
CLASS
  1
ACAMGLAYSTD
  2
AcAmgLayStd
  3
"AmgLay|Product Description: AutoCAD Mechanical|Company: Autodesk, Inc."
 90
     1024
 91
        1
280
     0
281
     0
  0
CLASS
  1
ACAMGTITLESTD
  2
AcAmgTitleStd
  3
"AmgTitle|Product Description: AutoCAD Mechanical|Company: Autodesk, Inc."
 90
     1024
 91
        1
280
     0
281
     0
  0
CLASS
  1
ACAMGDIMSTD
  2
AcAmgDimStd
  3
"AmgDim|Product Description: AutoCAD Mechanical|Company: Autodesk, Inc."
 90
     1024
 91
        1
280
     0
281
     0
  0
CLASS
  1
AMGOBJPROPCFG
  2
AmgObjPropCfg
  3
"AmgLay|Product Description: AutoCAD Mechanical|Company: Autodesk, Inc."
 90
     1024
 91
        1
280
     0
281
     0
  0
CLASS
  1
ACAMGHOLECHARTSTDISO
  2
AcAmgHoleChartStdISO
  3
"AmgDim" "Product Description: AutoCAD Mechanical|Company: Autodesk, Inc."
 90
     1024
 91
        1
280
     0
281
     0
  0
CLASS
  1
ACMSECTIONSTANDARDCUSTOM
  2
AmdtSectionSymStdCustom
  3
"Amdt_StdImp|Product Description: AutoCAD Mechanical|Company: Autodesk, Inc."
 90
     1024
 91
        1
280
     0
281
     0
  0
CLASS
  1
ACMDETAILTANDARDCUSTOM
  2
AmdtDetailSymStdCustom
  3
"Amdt_StdImp|Product Description: AutoCAD Mechanical|Company: Autodesk, Inc."
 90
     1024
 91
        1
280
     0
281
     0
  0
CLASS
  1
FIELD
  2
AcDbField
  3
ObjectDBX Classes
 90
     1152
 91
        3
280
     0
281
     0
  0
CLASS
  1
FIELDLIST
  2
AcDbFieldList
  3
ObjectDBX Classes
 90
     1152
 91
        1
280
     0
281
     0
  0
CLASS
  1
AMDTNOTETEMPLATEDB
  2
AmdtNoteTemplateDB
  3
"AcmSymBB" "Product Description: AutoCAD Mechanical|Company: Autodesk, Inc."
 90
     1024
 91
        7
280
     0
281
     0
  0
CLASS
  1
ACAMGFILTERDAT
  2
AcAmgFilterDat
  3
"AcadM|Product Description: AutoCAD Mechanical|Company: Autodesk, Inc."
 90
     1024
 91
        6
280
     0
281
     0
  0
CLASS
  1
SORTENTSTABLE
  2
AcDbSortentsTable
  3
ObjectDBX Classes
 90
        0
 91
        1
280
     0
281
     0
  0
ENDSEC
  0
SECTION
  2
TABLES
  0
TABLE
  2
VPORT
  5
8
330
0
100
AcDbSymbolTable
 70
    16
  0
VPORT
  5
29
330
8
100
AcDbSymbolTableRecord
100
AcDbViewportTableRecord
  2
*Active
 70
     0
 10
0.0
 20
0.0
 11
1.0
 21
1.0
 12
337.2727123564748
 22
387.1957716354581
 13
0.0
 23
0.0
 14
0.5
 24
0.5
 15
0.5
 25
0.5
 16
0.0
 26
0.0
 36
1.0
 17
0.0
 27
0.0
 37
0.0
 40
203.9615421701374
 41
2.292712066905615
 42
50.0
 43
925.8989730000001
 44
-925.8989730000001
 50
0.0
 51
0.0
 71
     0
 72
   100
 73
     1
 74
     3
 75
     0
 76
     0
 77
     0
 78
     0
281
     0
 65
     0
110
0.0
120
0.0
130
0.0
111
1.0
121
0.0
131
0.0
112
0.0
122
1.0
132
0.0
 79
     0
146
0.0
1001
ACAD_NAV_VCDISPLAY
1070
     3
  0
VPORT
  5
20A
330
8
100
AcDbSymbolTableRecord
100
AcDbViewportTableRecord
  2
L1
 70
     0
 10
0.0
 20
0.0
 11
1.0
 21
1.0
 12
347.466481
 22
216.830817
 13
0.0
 23
0.0
 14
0.5
 24
0.5
 15
0.5
 25
0.5
 16
0.0
 26
0.0
 36
1.0
 17
0.0
 27
0.0
 37
0.0
 40
207.433333
 41
0.085602
 42
50.0
 43
925.8989730000001
 44
-925.8989730000001
 50
0.0
 51
0.0
 71
     0
 72
   100
 73
     1
 74
     3
 75
     0
 76
     0
 77
     0
 78
     0
281
     0
 65
     1
110
0.0
120
0.0
130
0.0
111
1.0
121
0.0
131
0.0
112
0.0
122
1.0
132
0.0
 79
     0
146
0.0
  0
VPORT
  5
20B
330
8
100
AcDbSymbolTableRecord
100
AcDbViewportTableRecord
  2
L2
 70
     0
 10
0.0
 20
0.0
 11
0.5
 21
1.0
 12
0.0
 22
0.0
 13
0.0
 23
0.0
 14
0.5
 24
0.5
 15
0.5
 25
0.5
 16
0.0
 26
-1.0
 36
0.0
 17
0.0
 27
0.0
 37
0.0
 40
1478.660809
 41
0.012009
 42
50.0
 43
765.39502
 44
-765.39502
 50
0.0
 51
0.0
 71
     0
 72
   100
 73
     1
 74
     3
 75
     0
 76
     0
 77
     0
 78
     0
281
     0
 65
     1
110
0.0
120
0.0
130
0.0
111
1.0
121
0.0
131
0.0
112
0.0
122
1.0
132
0.0
 79
     0
146
0.0
  0
VPORT
  5
20C
330
8
100
AcDbSymbolTableRecord
100
AcDbViewportTableRecord
  2
L2
 70
     0
 10
0.5
 20
0.0
 11
1.0
 21
1.0
 12
0.0
 22
0.0
 13
0.0
 23
0.0
 14
0.5
 24
0.5
 15
0.5
 25
0.5
 16
1.0
 26
0.0
 36
0.0
 17
0.0
 27
0.0
 37
0.0
 40
1478.660809
 41
0.012009
 42
50.0
 43
746.5698859999999
 44
-746.5698859999999
 50
0.0
 51
0.0
 71
     0
 72
   100
 73
     1
 74
     3
 75
     0
 76
     0
 77
     0
 78
     0
281
     0
 65
     1
110
0.0
120
0.0
130
0.0
111
1.0
121
0.0
131
0.0
112
0.0
122
1.0
132
0.0
 79
     0
146
0.0
  0
VPORT
  5
20D
330
8
100
AcDbSymbolTableRecord
100
AcDbViewportTableRecord
  2
L3
 70
     0
 10
0.0
 20
0.5
 11
1.0
 21
1.0
 12
347.466481
 22
216.830817
 13
0.0
 23
0.0
 14
0.5
 24
0.5
 15
0.5
 25
0.5
 16
0.0
 26
0.0
 36
1.0
 17
0.0
 27
0.0
 37
0.0
 40
207.433333
 41
0.085602
 42
50.0
 43
925.8989730000001
 44
-925.8989730000001
 50
0.0
 51
0.0
 71
     0
 72
   100
 73
     1
 74
     3
 75
     0
 76
     0
 77
     0
 78
     0
281
     0
 65
     1
110
0.0
120
0.0
130
0.0
111
1.0
121
0.0
131
0.0
112
0.0
122
1.0
132
0.0
 79
     0
146
0.0
  0
VPORT
  5
20E
330
8
100
AcDbSymbolTableRecord
100
AcDbViewportTableRecord
  2
L3
 70
     0
 10
0.0
 20
0.0
 11
1.0
 21
0.5
 12
0.0
 22
0.0
 13
0.0
 23
0.0
 14
0.5
 24
0.5
 15
0.5
 25
0.5
 16
0.0
 26
-1.0
 36
0.0
 17
0.0
 27
0.0
 37
0.0
 40
1478.660809
 41
0.012009
 42
50.0
 43
765.39502
 44
-765.39502
 50
0.0
 51
0.0
 71
     0
 72
   100
 73
     1
 74
     3
 75
     0
 76
     0
 77
     0
 78
     0
281
     0
 65
     1
110
0.0
120
0.0
130
0.0
111
1.0
121
0.0
131
0.0
112
0.0
122
1.0
132
0.0
 79
     0
146
0.0
  0
VPORT
  5
20F
330
8
100
AcDbSymbolTableRecord
100
AcDbViewportTableRecord
  2
L4
 70
     0
 10
0.0
 20
0.5
 11
0.5
 21
1.0
 12
347.466481
 22
216.830817
 13
0.0
 23
0.0
 14
0.5
 24
0.5
 15
0.5
 25
0.5
 16
0.0
 26
0.0
 36
1.0
 17
0.0
 27
0.0
 37
0.0
 40
207.433333
 41
0.085602
 42
50.0
 43
925.8989730000001
 44
-925.8989730000001
 50
0.0
 51
0.0
 71
     0
 72
   100
 73
     1
 74
     3
 75
     0
 76
     0
 77
     0
 78
     0
281
     0
 65
     1
110
0.0
120
0.0
130
0.0
111
1.0
121
0.0
131
0.0
112
0.0
122
1.0
132
0.0
 79
     0
146
0.0
  0
VPORT
  5
210
330
8
100
AcDbSymbolTableRecord
100
AcDbViewportTableRecord
  2
L4
 70
     0
 10
0.0
 20
0.0
 11
0.5
 21
0.5
 12
0.0
 22
0.0
 13
0.0
 23
0.0
 14
0.5
 24
0.5
 15
0.5
 25
0.5
 16
0.0
 26
-1.0
 36
0.0
 17
0.0
 27
0.0
 37
0.0
 40
1478.660809
 41
0.012009
 42
50.0
 43
765.39502
 44
-765.39502
 50
0.0
 51
0.0
 71
     0
 72
   100
 73
     1
 74
     3
 75
     0
 76
     0
 77
     0
 78
     0
281
     0
 65
     1
110
0.0
120
0.0
130
0.0
111
1.0
121
0.0
131
0.0
112
0.0
122
1.0
132
0.0
 79
     0
146
0.0
  0
VPORT
  5
211
330
8
100
AcDbSymbolTableRecord
100
AcDbViewportTableRecord
  2
L4
 70
     0
 10
0.5
 20
0.0
 11
1.0
 21
0.5
 12
0.0
 22
0.0
 13
0.0
 23
0.0
 14
0.5
 24
0.5
 15
0.5
 25
0.5
 16
1.0
 26
0.0
 36
0.0
 17
0.0
 27
0.0
 37
0.0
 40
1478.660809
 41
0.012009
 42
50.0
 43
746.5698859999999
 44
-746.5698859999999
 50
0.0
 51
0.0
 71
     0
 72
   100
 73
     1
 74
     3
 75
     0
 76
     0
 77
     0
 78
     0
281
     0
 65
     1
110
0.0
120
0.0
130
0.0
111
1.0
121
0.0
131
0.0
112
0.0
122
1.0
132
0.0
 79
     0
146
0.0
  0
VPORT
  5
212
330
8
100
AcDbSymbolTableRecord
100
AcDbViewportTableRecord
  2
L4
 70
     0
 10
0.5
 20
0.5
 11
1.0
 21
1.0
 12
0.0
 22
0.0
 13
0.0
 23
0.0
 14
0.5
 24
0.5
 15
0.5
 25
0.5
 16
0.5773502691896259
 26
-0.5773502691896259
 36
0.5773502691896259
 17
0.0
 27
0.0
 37
0.0
 40
1453.705292
 41
0.012215
 42
50.0
 43
757.5245879999999
 44
-757.5245879999999
 50
0.0
 51
0.0
 71
     0
 72
   100
 73
     1
 74
     3
 75
     0
 76
     0
 77
     0
 78
     0
281
     0
 65
     1
110
0.0
120
0.0
130
0.0
111
1.0
121
0.0
131
0.0
112
0.0
122
1.0
132
0.0
 79
     0
146
0.0
  0
VPORT
  5
213
330
8
100
AcDbSymbolTableRecord
100
AcDbViewportTableRecord
  2
L6
 70
     0
 10
0.0
 20
0.5
 11
0.333333
 21
1.0
 12
0.0
 22
0.0
 13
0.0
 23
0.0
 14
0.5
 24
0.5
 15
0.5
 25
0.5
 16
0.7188730927569434
 26
-0.5850486126764433
 36
0.3754192287502549
 17
0.0
 27
0.0
 37
0.0
 40
1534.989881
 41
0.011568
 42
50.0
 43
794.5176169999999
 44
-794.5176169999999
 50
0.0
 51
0.0
 71
     0
 72
   100
 73
     1
 74
     3
 75
     0
 76
     0
 77
     0
 78
     0
281
     0
 65
     1
110
0.0
120
0.0
130
0.0
111
1.0
121
0.0
131
0.0
112
0.0
122
1.0
132
0.0
 79
     0
146
0.0
  0
VPORT
  5
214
330
8
100
AcDbSymbolTableRecord
100
AcDbViewportTableRecord
  2
L6
 70
     0
 10
0.0
 20
0.0
 11
0.333333
 21
0.5
 12
0.0
 22
0.0
 13
0.0
 23
0.0
 14
0.5
 24
0.5
 15
0.5
 25
0.5
 16
-1.0
 26
0.0
 36
0.0
 17
0.0
 27
0.0
 37
0.0
 40
1478.660809
 41
0.012009
 42
50.0
 43
746.5698859999999
 44
-746.5698859999999
 50
0.0
 51
0.0
 71
     0
 72
   100
 73
     1
 74
     3
 75
     0
 76
     0
 77
     0
 78
     0
281
     0
 65
     1
110
0.0
120
0.0
130
0.0
111
1.0
121
0.0
131
0.0
112
0.0
122
1.0
132
0.0
 79
     0
146
0.0
  0
VPORT
  5
215
330
8
100
AcDbSymbolTableRecord
100
AcDbViewportTableRecord
  2
L6
 70
     0
 10
0.333333
 20
0.5
 11
0.666667
 21
1.0
 12
347.466481
 22
216.830817
 13
0.0
 23
0.0
 14
0.5
 24
0.5
 15
0.5
 25
0.5
 16
0.0
 26
0.0
 36
1.0
 17
0.0
 27
0.0
 37
0.0
 40
207.433333
 41
0.085602
 42
50.0
 43
925.8989730000001
 44
-925.8989730000001
 50
0.0
 51
0.0
 71
     0
 72
   100
 73
     1
 74
     3
 75
     0
 76
     0
 77
     0
 78
     0
281
     0
 65
     1
110
0.0
120
0.0
130
0.0
111
1.0
121
0.0
131
0.0
112
0.0
122
1.0
132
0.0
 79
     0
146
0.0
  0
VPORT
  5
216
330
8
100
AcDbSymbolTableRecord
100
AcDbViewportTableRecord
  2
L6
 70
     0
 10
0.333333
 20
0.0
 11
0.666667
 21
0.5
 12
0.0
 22
0.0
 13
0.0
 23
0.0
 14
0.5
 24
0.5
 15
0.5
 25
0.5
 16
0.0
 26
-1.0
 36
0.0
 17
0.0
 27
0.0
 37
0.0
 40
1478.660809
 41
0.012009
 42
50.0
 43
765.39502
 44
-765.39502
 50
0.0
 51
0.0
 71
     0
 72
   100
 73
     1
 74
     3
 75
     0
 76
     0
 77
     0
 78
     0
281
     0
 65
     1
110
0.0
120
0.0
130
0.0
111
1.0
121
0.0
131
0.0
112
0.0
122
1.0
132
0.0
 79
     0
146
0.0
  0
VPORT
  5
217
330
8
100
AcDbSymbolTableRecord
100
AcDbViewportTableRecord
  2
L6
 70
     0
 10
0.666667
 20
0.5
 11
1.0
 21
1.0
 12
0.0
 22
0.0
 13
0.0
 23
0.0
 14
0.5
 24
0.5
 15
0.5
 25
0.5
 16
0.5773502691896259
 26
-0.5773502691896259
 36
0.5773502691896259
 17
0.0
 27
0.0
 37
0.0
 40
1453.705292
 41
0.012215
 42
50.0
 43
757.5245879999999
 44
-757.5245879999999
 50
0.0
 51
0.0
 71
     0
 72
   100
 73
     1
 74
     3
 75
     0
 76
     0
 77
     0
 78
     0
281
     0
 65
     1
110
0.0
120
0.0
130
0.0
111
1.0
121
0.0
131
0.0
112
0.0
122
1.0
132
0.0
 79
     0
146
0.0
  0
VPORT
  5
218
330
8
100
AcDbSymbolTableRecord
100
AcDbViewportTableRecord
  2
L6
 70
     0
 10
0.666667
 20
0.0
 11
1.0
 21
0.5
 12
0.0
 22
0.0
 13
0.0
 23
0.0
 14
0.5
 24
0.5
 15
0.5
 25
0.5
 16
1.0
 26
0.0
 36
0.0
 17
0.0
 27
0.0
 37
0.0
 40
1478.660809
 41
0.012009
 42
50.0
 43
746.5698859999999
 44
-746.5698859999999
 50
0.0
 51
0.0
 71
     0
 72
   100
 73
     1
 74
     3
 75
     0
 76
     0
 77
     0
 78
     0
281
     0
 65
     1
110
0.0
120
0.0
130
0.0
111
1.0
121
0.0
131
0.0
112
0.0
122
1.0
132
0.0
 79
     0
146
0.0
  0
ENDTAB
  0
TABLE
  2
LTYPE
  5
5
330
0
100
AcDbSymbolTable
 70
    19
  0
LTYPE
  5
14
330
5
100
AcDbSymbolTableRecord
100
AcDbLinetypeTableRecord
  2
ByBlock
 70
     0
  3

 72
    65
 73
     0
 40
0.0
  0
LTYPE
  5
15
330
5
100
AcDbSymbolTableRecord
100
AcDbLinetypeTableRecord
  2
ByLayer
 70
     0
  3

 72
    65
 73
     0
 40
0.0
  0
LTYPE
  5
16
330
5
100
AcDbSymbolTableRecord
100
AcDbLinetypeTableRecord
  2
Continuous
 70
     0
  3
Solid line
 72
    65
 73
     0
 40
0.0
  0
LTYPE
  5
6E
330
5
100
AcDbSymbolTableRecord
100
AcDbLinetypeTableRecord
  2
CENTER
 70
     0
  3
____ _ ____ _ ____ _ ____
 72
    65
 73
     4
 40
47.4
 49
22.0
 74
     4
 75
     0
340
0
 46
0.0
 50
0.0
 44
0.0
 45
0.0
 49
-8.5
 74
     4
 75
     0
340
0
 46
0.0
 50
0.0
 44
0.0
 45
0.0
 49
8.5
 74
     4
 75
     0
340
0
 46
0.0
 50
0.0
 44
0.0
 45
0.0
 49
-8.5
 74
     4
 75
     0
340
0
 46
0.0
 50
0.0
 44
0.0
 45
0.0
  0
LTYPE
  5
6F
330
5
100
AcDbSymbolTableRecord
100
AcDbLinetypeTableRecord
  2
DASHDOT
 70
     0
  3
_._._._._._._._._._._._._._._._.
 72
    65
 73
     4
 40
70.0
 49
31.0
 74
     4
 75
     0
340
0
 46
0.0
 50
0.0
 44
0.0
 45
0.0
 49
-13.0
 74
     4
 75
     0
340
0
 46
0.0
 50
0.0
 44
0.0
 45
0.0
 49
13.0
 74
     4
 75
     0
340
0
 46
0.0
 50
0.0
 44
0.0
 45
0.0
 49
-13.0
 74
     4
 75
     0
340
0
 46
0.0
 50
0.0
 44
0.0
 45
0.0
  0
LTYPE
  5
70
330
5
100
AcDbSymbolTableRecord
100
AcDbLinetypeTableRecord
  2
DASHED
 70
     0
  3
__ __ __ __ __ __ __ __ __
 72
    65
 73
     2
 40
25.72
 49
12.86
 74
     4
 75
     0
340
0
 46
0.0
 50
0.0
 44
0.0
 45
0.0
 49
-12.86
 74
     4
 75
     0
340
0
 46
0.0
 50
0.0
 44
0.0
 45
0.0
  0
LTYPE
  5
71
330
5
100
AcDbSymbolTableRecord
100
AcDbLinetypeTableRecord
  2
DOT
 70
     0
  3
.........................
 72
    65
 73
     2
 40
10.0
 49
0.0
 74
     4
 75
     0
340
0
 46
0.0
 50
0.0
 44
0.0
 45
0.0
 49
-10.0
 74
     4
 75
     0
340
0
 46
0.0
 50
0.0
 44
0.0
 45
0.0
  0
LTYPE
  5
72
330
5
100
AcDbSymbolTableRecord
100
AcDbLinetypeTableRecord
  2
PHANTOM
 70
     0
  3
____ _ _ ____ _ _ _____ _ _ ____
 72
    65
 73
     6
 40
50.5
 49
18.0
 74
     4
 75
     0
340
0
 46
0.0
 50
0.0
 44
0.0
 45
0.0
 49
-6.5
 74
     4
 75
     0
340
0
 46
0.0
 50
0.0
 44
0.0
 45
0.0
 49
6.5
 74
     4
 75
     0
340
0
 46
0.0
 50
0.0
 44
0.0
 45
0.0
 49
-6.5
 74
     4
 75
     0
340
0
 46
0.0
 50
0.0
 44
0.0
 45
0.0
 49
6.5
 74
     4
 75
     0
340
0
 46
0.0
 50
0.0
 44
0.0
 45
0.0
 49
-6.5
 74
     4
 75
     0
340
0
 46
0.0
 50
0.0
 44
0.0
 45
0.0
  0
LTYPE
  5
278
330
5
100
AcDbSymbolTableRecord
100
AcDbLinetypeTableRecord
  2
HIDDEN
 70
     0
  3
Hidden __ __ __ __ __ __ __ __ __ __ __ __ __ _
 72
    65
 73
     2
 40
9.524999999999998
 49
6.349999999999999
 74
     0
 49
-3.174999999999999
 74
     0
  0
LTYPE
  5
279
330
5
100
AcDbSymbolTableRecord
100
AcDbLinetypeTableRecord
  2
PHANTOM2
 70
     0
  3
Phantom (.5x) ___ _ _ ___ _ _ ___ _ _ ___ _ _
 72
    65
 73
     6
 40
31.75
 49
15.875
 74
     0
 49
-3.174999999999999
 74
     0
 49
3.174999999999999
 74
     0
 49
-3.174999999999999
 74
     0
 49
3.174999999999999
 74
     0
 49
-3.174999999999999
 74
     0
  0
LTYPE
  5
2B4
330
5
100
AcDbSymbolTableRecord
100
AcDbLinetypeTableRecord
  2
AM_ISO02W050
 70
     0
  3
__ __ __ __ __ __ __ __ __ __ __ __ __ __ __
 72
    65
 73
     2
 40
7.5
 49
6.0
 74
     0
 49
-1.5
 74
     0
  0
LTYPE
  5
2B5
330
5
100
AcDbSymbolTableRecord
100
AcDbLinetypeTableRecord
  2
AM_ISO08W050
 70
     0
  3
____ . ____ . ____ . ____ . ____ . ____ . ____
 72
    65
 73
     4
 40
18.0
 49
12.0
 74
     0
 49
-1.5
 74
     0
 49
3.0
 74
     0
 49
-1.5
 74
     0
  0
LTYPE
  5
2B6
330
5
100
AcDbSymbolTableRecord
100
AcDbLinetypeTableRecord
  2
AM_ISO09W050
 70
     0
  3
_____ . . _____ . . _____ . . ____ .. ____
 72
    65
 73
     6
 40
22.5
 49
12.0
 74
     0
 49
-1.5
 74
     0
 49
3.0
 74
     0
 49
-1.5
 74
     0
 49
3.0
 74
     0
 49
-1.5
 74
     0
  0
LTYPE
  5
2B7
330
5
100
AcDbSymbolTableRecord
100
AcDbLinetypeTableRecord
  2
Amconstr
 70
     0
  3
_______________________
 72
    65
 73
     2
 40
9999.0
 49
9999.0
 74
     0
 49
0.0
 74
     0
  0
LTYPE
  5
2B8
330
5
100
AcDbSymbolTableRecord
100
AcDbLinetypeTableRecord
  2
AM_ISO08W050x2
 70
     0
  3
__ . __ . __ . __ . __ . __
 72
    65
 73
     4
 40
9.0
 49
6.0
 74
     0
 49
-0.75
 74
     0
 49
1.5
 74
     0
 49
-0.75
 74
     0
  0
LTYPE
  5
2B9
330
5
100
AcDbSymbolTableRecord
100
AcDbLinetypeTableRecord
  2
AM_ISO02W050x2
 70
     0
  3
 _ _ _ _ _ _ _ _ _ _ _ _
 72
    65
 73
     2
 40
3.75
 49
3.0
 74
     0
 49
-0.75
 74
     0
  0
LTYPE
  5
2BC
330
5
100
AcDbSymbolTableRecord
100
AcDbLinetypeTableRecord
  2
Amzigzag
 70
     0
  3
/\/-/\/-/\/-/\/-/\/-/\/
 72
    65
 73
     2
 40
11.0001
 49
0.0001
 74
     4
 75
   136
340
2BB
 46
0.04
 50
0.0
 44
0.0
 45
0.0
 49
-11.0
 74
     0
  0
LTYPE
  5
2CC
330
5
100
AcDbSymbolTableRecord
100
AcDbLinetypeTableRecord
  2
ACISOWELD
 70
     0
  3
_ _ _ _ _
 72
    65
 73
     2
 40
2.0
 49
2.0
 74
     0
 49
-1.0
 74
     0
  0
LTYPE
  5
2CD
330
5
100
AcDbSymbolTableRecord
100
AcDbLinetypeTableRecord
  2
ACISOTGL
 70
     0
  3
_ _ _ _ _
 72
    65
 73
     2
 40
3.0
 49
2.0
 74
     0
 49
-1.0
 74
     0
  0
LTYPE
  5
2CE
330
5
100
AcDbSymbolTableRecord
100
AcDbLinetypeTableRecord
  2
ACISOTGB
 70
     0
  3
__ . . __ . .
 72
    65
 73
     6
 40
9.0
 49
4.0
 74
     0
 49
-1.0
 74
     0
 49
1.0
 74
     0
 49
-1.0
 74
     0
 49
1.0
 74
     0
 49
-1.0
 74
     0
  0
LTYPE
  5
31F
330
5
100
AcDbSymbolTableRecord
100
AcDbLinetypeTableRecord
  2
CENTER2
 70
     0
  3
Center (.5x) ___ _ ___ _ ___ _ ___ _ ___ _ ___
 72
    65
 73
     4
 40
1.125
 49
0.75
 74
     0
 49
-0.125
 74
     0
 49
0.125
 74
     0
 49
-0.125
 74
     0
  0
ENDTAB
  0
TABLE
  2
LAYER
  5
2
330
0
100
AcDbSymbolTable
 70
    23
  0
LAYER
  5
10
102
{ACAD_XDICTIONARY
360
32A
102
}
330
2
100
AcDbSymbolTableRecord
100
AcDbLayerTableRecord
  2
0
 70
     0
 62
     7
  6
Continuous
370
    -3
390
F
  0
LAYER
  5
76
102
{ACAD_XDICTIONARY
360
32C
102
}
330
2
100
AcDbSymbolTableRecord
100
AcDbLayerTableRecord
  2
96
 70
     0
 62
     7
420
 16777215
  6
Continuous
370
    -3
390
F
  0
LAYER
  5
17D
330
2
100
AcDbSymbolTableRecord
100
AcDbLayerTableRecord
  2
Defpoints
 70
     0
 62
     7
  6
Continuous
290
     0
370
    -3
390
F
  0
LAYER
  5
31C
102
{ACAD_XDICTIONARY
360
32E
102
}
330
2
100
AcDbSymbolTableRecord
100
AcDbLayerTableRecord
  2
1
 70
     0
 62
     4
  6
Continuous
370
    -3
390
F
  0
LAYER
  5
31D
102
{ACAD_XDICTIONARY
360
330
102
}
330
2
100
AcDbSymbolTableRecord
100
AcDbLayerTableRecord
  2
2
 70
     0
 62
     7
  6
Continuous
370
    -3
390
F
  0
LAYER
  5
31E
102
{ACAD_XDICTIONARY
360
332
102
}
330
2
100
AcDbSymbolTableRecord
100
AcDbLayerTableRecord
  2
4
 70
     0
 62
     2
  6
CENTER2
370
    -3
390
F
  0
LAYER
  5
320
102
{ACAD_XDICTIONARY
360
334
102
}
330
2
100
AcDbSymbolTableRecord
100
AcDbLayerTableRecord
  2
SK1
 70
     0
 62
     4
  6
Continuous
370
    -3
390
F
  0
LAYER
  5
321
102
{ACAD_XDICTIONARY
360
336
102
}
330
2
100
AcDbSymbolTableRecord
100
AcDbLayerTableRecord
  2
SK2
 70
     0
 62
     7
  6
Continuous
370
    -3
390
F
  0
LAYER
  5
323
102
{ACAD_XDICTIONARY
360
338
102
}
330
2
100
AcDbSymbolTableRecord
100
AcDbLayerTableRecord
  2
SK4
 70
     0
 62
     2
  6
CENTER2
370
    -3
390
F
  0
LAYER
  5
324
102
{ACAD_XDICTIONARY
360
33A
102
}
330
2
100
AcDbSymbolTableRecord
100
AcDbLayerTableRecord
  2
SK6
 70
     0
 62
     5
  6
Continuous
370
    -3
390
F
  0
LAYER
  5
325
102
{ACAD_XDICTIONARY
360
33C
102
}
330
2
100
AcDbSymbolTableRecord
100
AcDbLayerTableRecord
  2
CUT
 70
     0
 62
     1
  6
Continuous
370
    -3
390
F
  0
LAYER
  5
326
102
{ACAD_XDICTIONARY
360
33E
102
}
330
2
100
AcDbSymbolTableRecord
100
AcDbLayerTableRecord
  2
NOCUT
 70
     0
 62
     7
  6
Continuous
370
    -3
390
F
  0
LAYER
  5
327
102
{ACAD_XDICTIONARY
360
340
102
}
330
2
100
AcDbSymbolTableRecord
100
AcDbLayerTableRecord
  2
80
 70
     0
 62
     6
  6
Continuous
370
    -3
390
F
  0
LAYER
  5
328
102
{ACAD_XDICTIONARY
360
342
102
}
330
2
100
AcDbSymbolTableRecord
100
AcDbLayerTableRecord
  2
81
 70
     0
 62
     3
  6
Continuous
370
    -3
390
F
  0
ENDTAB
  0
TABLE
  2
STYLE
  5
3
330
0
100
AcDbSymbolTable
 70
     6
  0
STYLE
  5
11
330
3
100
AcDbSymbolTableRecord
100
AcDbTextStyleTableRecord
  2
Standard
 70
     0
 40
0.0
 41
1.0
 50
0.0
 71
     0
 42
0.2
  3
txt
  4

  0
STYLE
  5
171
330
3
100
AcDbSymbolTableRecord
100
AcDbTextStyleTableRecord
  2
cesky
 70
     0
 40
0.0
 41
1.0
 50
0.0
 71
     0
 42
0.2
  3
simplex.shx
  4

  0
STYLE
  5
172
330
3
100
AcDbSymbolTableRecord
100
AcDbTextStyleTableRecord
  2
DWGDirectTextStyle
 70
     0
 40
0.0
 41
1.0
 50
0.0
 71
     0
 42
0.2
  3
simplex
  4

  0
STYLE
  5
2BB
330
3
100
AcDbSymbolTableRecord
100
AcDbTextStyleTableRecord
  2

 70
     1
 40
0.0
 41
1.0
 50
0.0
 71
     0
 42
0.2
  3
genltshp.shx
  4

  0
STYLE
  5
2CA
330
3
100
AcDbSymbolTableRecord
100
AcDbTextStyleTableRecord
  2
ACISOTS
 70
     0
 40
0.0
 41
1.0
 50
0.0
 71
     0
 42
0.2
  3
isocp.shx
  4

  0
STYLE
  5
2CB
330
3
100
AcDbSymbolTableRecord
100
AcDbTextStyleTableRecord
  2
ACISOGDT
 70
     0
 40
0.0
 41
1.0
 50
0.0
 71
     0
 42
0.2
  3
amgdt.shx
  4

  0
ENDTAB
  0
TABLE
  2
VIEW
  5
6
330
0
100
AcDbSymbolTable
 70
     0
  0
ENDTAB
  0
TABLE
  2
UCS
  5
7
330
0
100
AcDbSymbolTable
 70
     0
  0
ENDTAB
  0
TABLE
  2
APPID
  5
9
330
0
100
AcDbSymbolTable
 70
    13
  0
APPID
  5
12
330
9
100
AcDbSymbolTableRecord
100
AcDbRegAppTableRecord
  2
ACAD
 70
     0
  0
APPID
  5
179
330
9
100
AcDbSymbolTableRecord
100
AcDbRegAppTableRecord
  2
ACAD_DSTYLE_DIMBREAK
 70
     0
  0
APPID
  5
219
330
9
100
AcDbSymbolTableRecord
100
AcDbRegAppTableRecord
  2
ACAD_DSTYLE_DIM_LINETYPE
 70
     0
  0
APPID
  5
21A
330
9
100
AcDbSymbolTableRecord
100
AcDbRegAppTableRecord
  2
ACAD_DSTYLE_DIM_EXT1_LINETYPE
 70
     0
  0
APPID
  5
21B
330
9
100
AcDbSymbolTableRecord
100
AcDbRegAppTableRecord
  2
ACAD_DSTYLE_DIM_EXT2_LINETYPE
 70
     0
  0
APPID
  5
25B
330
9
100
AcDbSymbolTableRecord
100
AcDbRegAppTableRecord
  2
ACAD_MLEADERVER
 70
     0
  0
APPID
  5
271
330
9
100
AcDbSymbolTableRecord
100
AcDbRegAppTableRecord
  2
MCAD_NO_VIS
 70
     0
  0
APPID
  5
272
330
9
100
AcDbSymbolTableRecord
100
AcDbRegAppTableRecord
  2
ACAD_TEMP_GRAPHIC
 70
     0
  0
APPID
  5
27E
330
9
100
AcDbSymbolTableRecord
100
AcDbRegAppTableRecord
  2
ACATTRIBSERVICES
 70
     0
  0
APPID
  5
296
330
9
100
AcDbSymbolTableRecord
100
AcDbRegAppTableRecord
  2
DESIGNERASSEMBLIES
 70
     0
  0
APPID
  5
2B2
330
9
100
AcDbSymbolTableRecord
100
AcDbRegAppTableRecord
  2
ACAD_DSTYLE_DIMJAG
 70
     0
  0
APPID
  5
2DE
330
9
100
AcDbSymbolTableRecord
100
AcDbRegAppTableRecord
  2
ACAD_NAV_VCDISPLAY
 70
     0
  0
APPID
  5
37E
330
9
100
AcDbSymbolTableRecord
100
AcDbRegAppTableRecord
  2
ACAD_DSTYLE_DIMARC_LENGTH_SYMBOL
 70
     0
  0
ENDTAB
  0
TABLE
  2
DIMSTYLE
  5
A
330
0
100
AcDbSymbolTable
 70
     8
100
AcDbDimStyleTable
 71
     0
  0
DIMSTYLE
105
27
330
A
100
AcDbSymbolTableRecord
100
AcDbDimStyleTableRecord
  2
Standard
 70
     0
340
11
1001
ACAD_DSTYLE_DIMBREAK
1070
   391
1040
6.349999999999999
  0
DIMSTYLE
105
2B1
102
{ACAD_REACTORS
330
29F
102
}
330
A
100
AcDbSymbolTableRecord
100
AcDbDimStyleTableRecord
  2
AM_ISO
 70
     0
  4
"
 41
3.5
 42
1.0
 43
10.0
 44
1.0
 47
0.1
 48
0.1
 73
     0
 74
     0
 77
     1
 78
     8
 79
     2
140
3.5
141
0.0
143
0.0393701
146
0.71
147
1.5
172
     1
176
   256
177
   256
178
     2
271
     2
272
     3
274
     4
283
     0
284
     8
340
11
371
    -1
372
    -1
1001
ACAD_DSTYLE_DIMJAG
1070
   388
1040
1.5
1001
ACAD_DSTYLE_DIMBREAK
1070
   391
1040
3.75
1001
ACAD_DSTYLE_DIMARC_LENGTH_SYMBOL
1070
   379
1070
     1
1001
ACAD_DSTYLE_DIM_LINETYPE
1070
   380
1005
14
1001
ACAD_DSTYLE_DIM_EXT1_LINETYPE
1070
   381
1005
14
1001
ACAD_DSTYLE_DIM_EXT2_LINETYPE
1070
   382
1005
14
  0
DIMSTYLE
105
2BD
330
A
100
AcDbSymbolTableRecord
100
AcDbDimStyleTableRecord
  2
AM_ISO$3
 70
     0
  4
"
 41
3.5
 42
1.0
 43
10.0
 44
1.0
 47
0.1
 48
0.1
 73
     0
 77
     1
 78
     8
 79
     2
140
3.5
141
0.0
143
0.0393701
146
0.71
147
1.5
176
   256
177
   256
178
     2
271
     2
272
     3
274
     4
283
     0
284
     8
288
     1
289
     0
340
11
371
    -1
372
    -1
1001
ACAD_DSTYLE_DIMBREAK
1070
   391
1040
3.75
1001
ACAD_DSTYLE_DIMJAG
1070
   388
1040
1.5
1001
ACAD_DSTYLE_DIMARC_LENGTH_SYMBOL
1070
   379
1070
     1
1001
ACAD_DSTYLE_DIM_LINETYPE
1070
   380
1005
14
1001
ACAD_DSTYLE_DIM_EXT1_LINETYPE
1070
   381
1005
14
1001
ACAD_DSTYLE_DIM_EXT2_LINETYPE
1070
   382
1005
14
  0
DIMSTYLE
105
2BE
330
A
100
AcDbSymbolTableRecord
100
AcDbDimStyleTableRecord
  2
AM_ISO$4
 70
     0
  4
"
 41
3.5
 42
1.0
 43
10.0
 44
1.0
 47
0.1
 48
0.1
 73
     0
 77
     1
 78
     8
 79
     2
140
3.5
141
0.0
143
0.0393701
146
0.71
147
1.5
176
   256
177
   256
178
     2
271
     2
272
     3
274
     4
283
     0
284
     8
288
     1
289
     0
340
11
371
    -1
372
    -1
1001
ACAD_DSTYLE_DIMBREAK
1070
   391
1040
3.75
1001
ACAD_DSTYLE_DIMJAG
1070
   388
1040
1.5
1001
ACAD_DSTYLE_DIMARC_LENGTH_SYMBOL
1070
   379
1070
     1
1001
ACAD_DSTYLE_DIM_LINETYPE
1070
   380
1005
14
1001
ACAD_DSTYLE_DIM_EXT1_LINETYPE
1070
   381
1005
14
1001
ACAD_DSTYLE_DIM_EXT2_LINETYPE
1070
   382
1005
14
  0
DIMSTYLE
105
2BF
330
A
100
AcDbSymbolTableRecord
100
AcDbDimStyleTableRecord
  2
AM_ISO$6
 70
     0
  4
"
 41
3.5
 42
1.0
 43
10.0
 44
1.0
 47
0.1
 48
0.1
 73
     0
 74
     0
 78
     8
 79
     2
140
3.5
141
0.0
143
0.0393701
146
0.71
147
1.5
172
     1
176
   256
177
   256
178
     2
271
     2
272
     3
274
     4
283
     0
284
     8
340
11
371
    -1
372
    -1
1001
ACAD_DSTYLE_DIMBREAK
1070
   391
1040
3.75
1001
ACAD_DSTYLE_DIMJAG
1070
   388
1040
1.5
1001
ACAD_DSTYLE_DIMARC_LENGTH_SYMBOL
1070
   379
1070
     1
1001
ACAD_DSTYLE_DIM_LINETYPE
1070
   380
1005
14
1001
ACAD_DSTYLE_DIM_EXT1_LINETYPE
1070
   381
1005
14
1001
ACAD_DSTYLE_DIM_EXT2_LINETYPE
1070
   382
1005
14
  0
DIMSTYLE
105
2C0
330
A
100
AcDbSymbolTableRecord
100
AcDbDimStyleTableRecord
  2
AM_ISO$7
 70
     0
  4
"
 41
3.5
 42
1.0
 43
10.0
 44
1.0
 47
0.1
 48
0.1
 73
     0
 74
     0
 77
     1
 78
     8
 79
     2
140
3.5
141
0.0
143
0.0393701
146
0.71
147
1.5
172
     1
176
   256
177
   256
178
     2
271
     2
272
     3
274
     4
283
     0
284
     8
340
11
371
    -1
372
    -1
1001
ACAD_DSTYLE_DIMBREAK
1070
   391
1040
3.75
1001
ACAD_DSTYLE_DIMJAG
1070
   388
1040
1.5
1001
ACAD_DSTYLE_DIMARC_LENGTH_SYMBOL
1070
   379
1070
     1
1001
ACAD_DSTYLE_DIM_LINETYPE
1070
   380
1005
14
1001
ACAD_DSTYLE_DIM_EXT1_LINETYPE
1070
   381
1005
14
1001
ACAD_DSTYLE_DIM_EXT2_LINETYPE
1070
   382
1005
14
  0
DIMSTYLE
105
2C1
330
A
100
AcDbSymbolTableRecord
100
AcDbDimStyleTableRecord
  2
AM_ISO$SF
 70
     0
  4
"
 41
3.5
 42
1.0
 43
10.0
 44
1.0
 47
0.1
 48
0.1
 73
     0
 74
     0
 75
     1
 76
     1
 77
     1
 78
     8
 79
     2
140
3.5
141
0.0
143
0.0393701
146
0.71
147
1.5
172
     1
176
   256
177
   256
178
     2
271
     2
272
     3
274
     4
283
     0
284
     8
340
11
371
    -1
372
    -1
1001
ACAD_DSTYLE_DIMBREAK
1070
   391
1040
3.75
1001
ACAD_DSTYLE_DIMJAG
1070
   388
1040
1.5
1001
ACAD_DSTYLE_DIMARC_LENGTH_SYMBOL
1070
   379
1070
     1
1001
ACAD_DSTYLE_DIM_LINETYPE
1070
   380
1005
14
1001
ACAD_DSTYLE_DIM_EXT1_LINETYPE
1070
   381
1005
14
1001
ACAD_DSTYLE_DIM_EXT2_LINETYPE
1070
   382
1005
14
  0
DIMSTYLE
105
2C6
330
A
100
AcDbSymbolTableRecord
100
AcDbDimStyleTableRecord
  2
AM_ISO$SH
 70
     0
  4
"
 41
3.5
 42
1.0
 43
10.0
 44
1.0
 47
0.1
 48
0.1
 73
     0
 74
     0
 75
     1
 76
     1
 77
     1
 78
     8
 79
     2
140
3.5
141
0.0
143
0.0393701
144
2.0
146
0.71
147
1.5
172
     1
173
     1
176
   256
177
   256
178
     2
271
     2
272
     3
274
     4
283
     0
284
     8
340
11
343
2C2
371
    -1
372
    -1
1001
ACAD_DSTYLE_DIMBREAK
1070
   391
1040
3.75
1001
ACAD_DSTYLE_DIMJAG
1070
   388
1040
1.5
1001
ACAD_DSTYLE_DIMARC_LENGTH_SYMBOL
1070
   379
1070
     1
1001
ACAD_DSTYLE_DIM_LINETYPE
1070
   380
1005
14
1001
ACAD_DSTYLE_DIM_EXT1_LINETYPE
1070
   381
1005
14
1001
ACAD_DSTYLE_DIM_EXT2_LINETYPE
1070
   382
1005
14
  0
ENDTAB
  0
TABLE
  2
BLOCK_RECORD
  5
1
330
0
100
AcDbSymbolTable
 70
    16
  0
BLOCK_RECORD
  5
1F
102
{ACAD_XDICTIONARY
360
2E6
102
}
330
1
100
AcDbSymbolTableRecord
100
AcDbBlockTableRecord
  2
*Model_Space
340
22
  0
BLOCK_RECORD
  5
1B
330
1
100
AcDbSymbolTableRecord
100
AcDbBlockTableRecord
  2
*Paper_Space
340
1E
  0
BLOCK_RECORD
  5
23
330
1
100
AcDbSymbolTableRecord
100
AcDbBlockTableRecord
  2
*Paper_Space0
340
26
  0
BLOCK_RECORD
  5
174
330
1
100
AcDbSymbolTableRecord
100
AcDbBlockTableRecord
  2
ASSORTED_DRAFT1
340
0
  0
BLOCK_RECORD
  5
17E
330
1
100
AcDbSymbolTableRecord
100
AcDbBlockTableRecord
  2
*D2
340
0
  0
BLOCK_RECORD
  5
18A
330
1
100
AcDbSymbolTableRecord
100
AcDbBlockTableRecord
  2
_U0
340
0
  0
BLOCK_RECORD
  5
196
330
1
100
AcDbSymbolTableRecord
100
AcDbBlockTableRecord
  2
*D4
340
0
  0
BLOCK_RECORD
  5
1A2
330
1
100
AcDbSymbolTableRecord
100
AcDbBlockTableRecord
  2
_U1
340
0
  0
BLOCK_RECORD
  5
1AE
330
1
100
AcDbSymbolTableRecord
100
AcDbBlockTableRecord
  2
*D6
340
0
  0
BLOCK_RECORD
  5
1BA
330
1
100
AcDbSymbolTableRecord
100
AcDbBlockTableRecord
  2
_U2
340
0
  0
BLOCK_RECORD
  5
1C6
330
1
100
AcDbSymbolTableRecord
100
AcDbBlockTableRecord
  2
*D8
340
0
  0
BLOCK_RECORD
  5
1D2
330
1
100
AcDbSymbolTableRecord
100
AcDbBlockTableRecord
  2
_U3
340
0
  0
BLOCK_RECORD
  5
1DE
330
1
100
AcDbSymbolTableRecord
100
AcDbBlockTableRecord
  2
*D10
340
0
  0
BLOCK_RECORD
  5
1E9
330
1
100
AcDbSymbolTableRecord
100
AcDbBlockTableRecord
  2
_U4
340
0
  0
BLOCK_RECORD
  5
1F4
330
1
100
AcDbSymbolTableRecord
100
AcDbBlockTableRecord
  2
*D12
340
0
  0
BLOCK_RECORD
  5
200
330
1
100
AcDbSymbolTableRecord
100
AcDbBlockTableRecord
  2
_U5
340
0
  0
BLOCK_RECORD
  5
2C2
330
1
100
AcDbSymbolTableRecord
100
AcDbBlockTableRecord
  2
GENAXEH
340
0
  0
ENDTAB
  0
ENDSEC
  0
SECTION
  2
BLOCKS
  0
BLOCK
  5
20
330
1F
100
AcDbEntity
  8
0
100
AcDbBlockBegin
  2
*Model_Space
 70
     0
 10
0.0
 20
0.0
 30
0.0
  3
*Model_Space
  1

  0
ENDBLK
  5
21
330
1F
100
AcDbEntity
  8
0
100
AcDbBlockEnd
  0
BLOCK
  5
1C
330
1B
100
AcDbEntity
 67
     1
  8
0
100
AcDbBlockBegin
  2
*Paper_Space
 70
     0
 10
0.0
 20
0.0
 30
0.0
  3
*Paper_Space
  1

  0
ENDBLK
  5
1D
330
1B
100
AcDbEntity
 67
     1
  8
0
100
AcDbBlockEnd
  0
BLOCK
  5
24
330
23
100
AcDbEntity
 67
     1
  8
0
100
AcDbBlockBegin
  2
*Paper_Space0
 70
     0
 10
0.0
 20
0.0
 30
0.0
  3
*Paper_Space0
  1

  0
ENDBLK
  5
25
330
23
100
AcDbEntity
 67
     1
  8
0
100
AcDbBlockEnd
  0
BLOCK
  5
177
330
174
100
AcDbEntity
  8
0
100
AcDbBlockBegin
  2
ASSORTED_DRAFT1
 70
     0
 10
0.0
 20
0.0
 30
0.0
  3
ASSORTED_DRAFT1
  1

  0
SOLID
  5
175
330
174
100
AcDbEntity
  8
0
 62
   254
370
    13
100
AcDbTrace
 10
476.517572
 20
269.186216
 30
0.0
 11
481.517568
 21
270.29469
 31
0.0
 12
481.5175759999999
 22
268.077743
 32
0.0
 13
476.517572
 23
269.186216
 33
0.0
  0
ENDBLK
  5
178
330
174
100
AcDbEntity
  8
0
100
AcDbBlockEnd
  0
BLOCK
  5
17F
330
17E
100
AcDbEntity
  8
0
100
AcDbBlockBegin
  2
*D2
 70
     1
 10
0.0
 20
0.0
 30
0.0
  3
*D2
  1

  0
LINE
  5
181
330
17E
100
AcDbEntity
  8
0
 62
    95
370
    -2
100
AcDbLine
 10
372.174849
 20
377.508075
 30
0.0
 11
372.174849
 21
408.707505
 31
0.0
  0
LINE
  5
182
330
17E
100
AcDbEntity
  8
0
 62
    95
370
    -2
100
AcDbLine
 10
122.174849
 20
374.508075
 30
0.0
 11
122.174849
 21
408.707505
 31
0.0
  0
LINE
  5
183
330
17E
100
AcDbEntity
  8
0
 62
    95
370
    -2
100
AcDbLine
 10
368.674849
 20
407.7075049999999
 30
0.0
 11
125.674849
 21
407.7075049999999
 31
0.0
  0
SOLID
  5
184
330
17E
100
AcDbEntity
  8
0
 62
    95
100
AcDbTrace
 10
368.674849
 20
407.124172
 30
0.0
 11
368.674849
 21
408.290839
 31
0.0
 12
372.174849
 22
407.7075049999999
 32
0.0
 13
372.174849
 23
407.7075049999999
 33
0.0
  0
SOLID
  5
185
330
17E
100
AcDbEntity
  8
0
 62
    95
100
AcDbTrace
 10
125.674849
 20
408.290839
 30
0.0
 11
125.674849
 21
407.124172
 31
0.0
 12
122.174849
 22
407.7075049999999
 32
0.0
 13
122.174849
 23
407.7075049999999
 33
0.0
  0
MTEXT
  5
186
330
17E
100
AcDbEntity
  8
0
 62
    95
370
    13
100
AcDbMText
 10
247.174849
 20
412.9575049999999
 30
0.0
 40
3.5
 41
0.0
 71
     5
 72
     1
  1
\A1;250
  7
cesky
 73
     1
 44
1.0
  0
POINT
  5
187
330
17E
100
AcDbEntity
  8
Defpoints
 62
     0
100
AcDbPoint
 10
372.174849
 20
377.508075
 30
0.0
  0
POINT
  5
188
330
17E
100
AcDbEntity
  8
Defpoints
 62
     0
100
AcDbPoint
 10
122.174849
 20
374.508075
 30
0.0
  0
POINT
  5
189
330
17E
100
AcDbEntity
  8
Defpoints
 62
     0
100
AcDbPoint
 10
122.174849
 20
407.7075049999999
 30
0.0
  0
ENDBLK
  5
180
330
17E
100
AcDbEntity
  8
0
100
AcDbBlockEnd
  0
BLOCK
  5
191
330
18A
100
AcDbEntity
  8
0
100
AcDbBlockBegin
  2
_U0
 70
     0
 10
0.0
 20
0.0
 30
0.0
  3
_U0
  1

  0
MTEXT
  5
18B
330
18A
100
AcDbEntity
  8
96
  6
Continuous
 62
    95
440
 16777216
370
    13
100
AcDbMText
 10
244.097849
 20
407.581672
 30
0.0
 40
3.5
 41
0.0
 71
     7
 72
     5
  1
\W0.7231;250
  7
cesky
 73
     2
 44
0.8433729999999998
  0
LINE
  5
18C
330
18A
100
AcDbEntity
  8
96
 62
    95
440
 16777216
370
    13
100
AcDbLine
 10
372.174849
 20
377.508075
 30
0.0
 11
372.174849
 21
408.707505
 31
0.0
  0
LINE
  5
18D
330
18A
100
AcDbEntity
  8
96
 62
    95
440
 16777216
370
    13
100
AcDbLine
 10
122.174849
 20
374.508075
 30
0.0
 11
122.174849
 21
408.707505
 31
0.0
  0
LINE
  5
18E
330
18A
100
AcDbEntity
  8
96
 62
    95
440
 16777216
370
    13
100
AcDbLine
 10
372.174849
 20
407.7075049999999
 30
0.0
 11
122.174849
 21
407.7075049999999
 31
0.0
  0
SOLID
  5
18F
330
18A
100
AcDbEntity
  8
96
 62
    95
440
 16777216
370
    13
100
AcDbTrace
 10
372.174849
 20
407.7075049999999
 30
0.0
 11
368.674851
 21
407.090361
 31
0.0
 12
368.674846
 22
408.32465
 32
0.0
 13
368.674846
 23
408.32465
 33
0.0
  0
SOLID
  5
190
330
18A
100
AcDbEntity
  8
96
 62
    95
440
 16777216
370
    13
100
AcDbTrace
 10
122.174849
 20
407.7075049999999
 30
0.0
 11
125.674846
 21
408.32465
 31
0.0
 12
125.674851
 22
407.090361
 32
0.0
 13
125.674851
 23
407.090361
 33
0.0
  0
ENDBLK
  5
192
330
18A
100
AcDbEntity
  8
0
100
AcDbBlockEnd
  0
BLOCK
  5
197
330
196
100
AcDbEntity
  8
0
100
AcDbBlockBegin
  2
*D4
 70
     1
 10
0.0
 20
0.0
 30
0.0
  3
*D4
  1

  0
LINE
  5
199
330
196
100
AcDbEntity
  8
0
 62
   254
370
    -2
100
AcDbLine
 10
372.174849
 20
377.508075
 30
0.0
 11
372.174849
 21
383.013414
 31
0.0
  0
LINE
  5
19A
330
196
100
AcDbEntity
  8
0
 62
   254
370
    -2
100
AcDbLine
 10
353.554329
 20
375.158806
 30
0.0
 11
353.554329
 21
383.013414
 31
0.0
  0
LINE
  5
19B
330
196
100
AcDbEntity
  8
0
 62
   254
370
    -2
100
AcDbLine
 10
368.674849
 20
382.013414
 30
0.0
 11
357.054329
 21
382.013414
 31
0.0
  0
SOLID
  5
19C
330
196
100
AcDbEntity
  8
0
 62
   254
100
AcDbTrace
 10
368.674849
 20
381.430081
 30
0.0
 11
368.674849
 21
382.596747
 31
0.0
 12
372.174849
 22
382.013414
 32
0.0
 13
372.174849
 23
382.013414
 33
0.0
  0
SOLID
  5
19D
330
196
100
AcDbEntity
  8
0
 62
   254
100
AcDbTrace
 10
357.054329
 20
382.596747
 30
0.0
 11
357.054329
 21
381.430081
 31
0.0
 12
353.554329
 22
382.013414
 32
0.0
 13
353.554329
 23
382.013414
 33
0.0
  0
MTEXT
  5
19E
330
196
100
AcDbEntity
  8
0
 62
   254
370
    13
100
AcDbMText
 10
362.864589
 20
387.263414
 30
0.0
 40
3.5
 41
0.0
 71
     5
 72
     1
  1
\A1;18.62
  7
cesky
 73
     1
 44
1.0
  0
POINT
  5
19F
330
196
100
AcDbEntity
  8
Defpoints
 62
     0
100
AcDbPoint
 10
372.174849
 20
377.508075
 30
0.0
  0
POINT
  5
1A0
330
196
100
AcDbEntity
  8
Defpoints
 62
     0
100
AcDbPoint
 10
353.554329
 20
375.158806
 30
0.0
  0
POINT
  5
1A1
330
196
100
AcDbEntity
  8
Defpoints
 62
     0
100
AcDbPoint
 10
353.554329
 20
382.013414
 30
0.0
  0
ENDBLK
  5
198
330
196
100
AcDbEntity
  8
0
100
AcDbBlockEnd
  0
BLOCK
  5
1A9
330
1A2
100
AcDbEntity
  8
0
100
AcDbBlockBegin
  2
_U1
 70
     0
 10
0.0
 20
0.0
 30
0.0
  3
_U1
  1

  0
ENDBLK
  5
1AA
330
1A2
100
AcDbEntity
  8
0
100
AcDbBlockEnd
  0
BLOCK
  5
1AF
330
1AE
100
AcDbEntity
  8
0
100
AcDbBlockBegin
  2
*D6
 70
     1
 10
0.0
 20
0.0
 30
0.0
  3
*D6
  1

  0
LINE
  5
1B1
330
1AE
100
AcDbEntity
  8
0
 62
   254
370
    -2
100
AcDbLine
 10
372.174849
 20
377.508075
 30
0.0
 11
372.174849
 21
389.970264
 31
0.0
  0
LINE
  5
1B2
330
1AE
100
AcDbEntity
  8
0
 62
   254
370
    -2
100
AcDbLine
 10
322.149849
 20
376.008075
 30
0.0
 11
322.149849
 21
389.970264
 31
0.0
  0
LINE
  5
1B3
330
1AE
100
AcDbEntity
  8
0
 62
   254
370
    -2
100
AcDbLine
 10
368.674849
 20
388.970264
 30
0.0
 11
325.649849
 21
388.970264
 31
0.0
  0
SOLID
  5
1B4
330
1AE
100
AcDbEntity
  8
0
 62
   254
100
AcDbTrace
 10
368.674849
 20
388.38693
 30
0.0
 11
368.674849
 21
389.553597
 31
0.0
 12
372.174849
 22
388.970264
 32
0.0
 13
372.174849
 23
388.970264
 33
0.0
  0
SOLID
  5
1B5
330
1AE
100
AcDbEntity
  8
0
 62
   254
100
AcDbTrace
 10
325.649849
 20
389.553597
 30
0.0
 11
325.649849
 21
388.38693
 31
0.0
 12
322.149849
 22
388.970264
 32
0.0
 13
322.149849
 23
388.970264
 33
0.0
  0
MTEXT
  5
1B6
330
1AE
100
AcDbEntity
  8
0
 62
   254
370
    13
100
AcDbMText
 10
347.162349
 20
394.220264
 30
0.0
 40
3.5
 41
0.0
 71
     5
 72
     1
  1
\A1;50
  7
cesky
 73
     1
 44
1.0
  0
POINT
  5
1B7
330
1AE
100
AcDbEntity
  8
Defpoints
 62
     0
100
AcDbPoint
 10
372.174849
 20
377.508075
 30
0.0
  0
POINT
  5
1B8
330
1AE
100
AcDbEntity
  8
Defpoints
 62
     0
100
AcDbPoint
 10
322.149849
 20
376.008075
 30
0.0
  0
POINT
  5
1B9
330
1AE
100
AcDbEntity
  8
Defpoints
 62
     0
100
AcDbPoint
 10
322.149849
 20
388.970264
 30
0.0
  0
ENDBLK
  5
1B0
330
1AE
100
AcDbEntity
  8
0
100
AcDbBlockEnd
  0
BLOCK
  5
1C1
330
1BA
100
AcDbEntity
  8
0
100
AcDbBlockBegin
  2
_U2
 70
     0
 10
0.0
 20
0.0
 30
0.0
  3
_U2
  1

  0
MTEXT
  5
1BB
330
1BA
100
AcDbEntity
  8
96
  6
Continuous
 62
   254
440
 16777216
370
    13
100
AcDbMText
 10
345.347849
 20
388.84443
 30
0.0
 40
3.5
 41
0.0
 71
     7
 72
     5
  1
\W0.7045;50
  7
cesky
 73
     2
 44
0.8433729999999998
  0
LINE
  5
1BC
330
1BA
100
AcDbEntity
  8
96
 62
   254
440
 16777216
370
    13
100
AcDbLine
 10
372.174849
 20
377.508075
 30
0.0
 11
372.174849
 21
389.970264
 31
0.0
  0
LINE
  5
1BD
330
1BA
100
AcDbEntity
  8
96
 62
   254
440
 16777216
370
    13
100
AcDbLine
 10
322.149849
 20
376.008075
 30
0.0
 11
322.149849
 21
389.970264
 31
0.0
  0
LINE
  5
1BE
330
1BA
100
AcDbEntity
  8
96
 62
   254
440
 16777216
370
    13
100
AcDbLine
 10
372.174849
 20
388.970264
 30
0.0
 11
322.149849
 21
388.970264
 31
0.0
  0
SOLID
  5
1BF
330
1BA
100
AcDbEntity
  8
96
 62
   254
440
 16777216
370
    13
100
AcDbTrace
 10
372.174849
 20
388.970264
 30
0.0
 11
368.674851
 21
388.353119
 31
0.0
 12
368.674846
 22
389.587408
 32
0.0
 13
368.674846
 23
389.587408
 33
0.0
  0
SOLID
  5
1C0
330
1BA
100
AcDbEntity
  8
96
 62
   254
440
 16777216
370
    13
100
AcDbTrace
 10
322.149849
 20
388.970264
 30
0.0
 11
325.6498459999999
 21
389.587408
 31
0.0
 12
325.649851
 22
388.353119
 32
0.0
 13
325.649851
 23
388.353119
 33
0.0
  0
ENDBLK
  5
1C2
330
1BA
100
AcDbEntity
  8
0
100
AcDbBlockEnd
  0
BLOCK
  5
1C7
330
1C6
100
AcDbEntity
  8
0
100
AcDbBlockBegin
  2
*D8
 70
     1
 10
0.0
 20
0.0
 30
0.0
  3
*D8
  1

  0
LINE
  5
1C9
330
1C6
100
AcDbEntity
  8
0
 62
    95
370
    -2
100
AcDbLine
 10
372.174849
 20
377.508075
 30
0.0
 11
372.174849
 21
398.427041
 31
0.0
  0
LINE
  5
1CA
330
1C6
100
AcDbEntity
  8
0
 62
    95
370
    -2
100
AcDbLine
 10
172.174849
 20
366.008075
 30
0.0
 11
172.174849
 21
398.427041
 31
0.0
  0
LINE
  5
1CB
330
1C6
100
AcDbEntity
  8
0
 62
    95
370
    -2
100
AcDbLine
 10
368.674849
 20
397.427041
 30
0.0
 11
175.674849
 21
397.427041
 31
0.0
  0
SOLID
  5
1CC
330
1C6
100
AcDbEntity
  8
0
 62
    95
100
AcDbTrace
 10
368.674849
 20
396.843707
 30
0.0
 11
368.674849
 21
398.010374
 31
0.0
 12
372.174849
 22
397.427041
 32
0.0
 13
372.174849
 23
397.427041
 33
0.0
  0
SOLID
  5
1CD
330
1C6
100
AcDbEntity
  8
0
 62
    95
100
AcDbTrace
 10
175.674849
 20
398.010374
 30
0.0
 11
175.674849
 21
396.843707
 31
0.0
 12
172.174849
 22
397.427041
 32
0.0
 13
172.174849
 23
397.427041
 33
0.0
  0
MTEXT
  5
1CE
330
1C6
100
AcDbEntity
  8
0
 62
    95
370
    13
100
AcDbMText
 10
272.174849
 20
402.677041
 30
0.0
 40
3.5
 41
0.0
 71
     5
 72
     1
  1
\A1;200
  7
cesky
 73
     1
 44
1.0
  0
POINT
  5
1CF
330
1C6
100
AcDbEntity
  8
Defpoints
 62
     0
100
AcDbPoint
 10
372.174849
 20
377.508075
 30
0.0
  0
POINT
  5
1D0
330
1C6
100
AcDbEntity
  8
Defpoints
 62
     0
100
AcDbPoint
 10
172.174849
 20
366.008075
 30
0.0
  0
POINT
  5
1D1
330
1C6
100
AcDbEntity
  8
Defpoints
 62
     0
100
AcDbPoint
 10
172.174849
 20
397.427041
 30
0.0
  0
ENDBLK
  5
1C8
330
1C6
100
AcDbEntity
  8
0
100
AcDbBlockEnd
  0
BLOCK
  5
1D9
330
1D2
100
AcDbEntity
  8
0
100
AcDbBlockBegin
  2
_U3
 70
     0
 10
0.0
 20
0.0
 30
0.0
  3
_U3
  1

  0
MTEXT
  5
1D3
330
1D2
100
AcDbEntity
  8
96
  6
Continuous
 62
    95
440
 16777216
370
    13
100
AcDbMText
 10
269.097849
 20
397.301207
 30
0.0
 40
3.5
 41
0.0
 71
     7
 72
     5
  1
\W0.7231;200
  7
cesky
 73
     2
 44
0.8433729999999998
  0
LINE
  5
1D4
330
1D2
100
AcDbEntity
  8
96
 62
    95
440
 16777216
370
    13
100
AcDbLine
 10
372.174849
 20
377.508075
 30
0.0
 11
372.174849
 21
398.427041
 31
0.0
  0
LINE
  5
1D5
330
1D2
100
AcDbEntity
  8
96
 62
    95
440
 16777216
370
    13
100
AcDbLine
 10
172.174849
 20
366.008075
 30
0.0
 11
172.174849
 21
398.427041
 31
0.0
  0
LINE
  5
1D6
330
1D2
100
AcDbEntity
  8
96
 62
    95
440
 16777216
370
    13
100
AcDbLine
 10
372.174849
 20
397.427041
 30
0.0
 11
172.174849
 21
397.427041
 31
0.0
  0
SOLID
  5
1D7
330
1D2
100
AcDbEntity
  8
96
 62
    95
440
 16777216
370
    13
100
AcDbTrace
 10
372.174849
 20
397.427041
 30
0.0
 11
368.674851
 21
396.809896
 31
0.0
 12
368.674846
 22
398.044185
 32
0.0
 13
368.674846
 23
398.044185
 33
0.0
  0
SOLID
  5
1D8
330
1D2
100
AcDbEntity
  8
96
 62
    95
440
 16777216
370
    13
100
AcDbTrace
 10
172.174849
 20
397.427041
 30
0.0
 11
175.674846
 21
398.044185
 31
0.0
 12
175.674851
 22
396.809896
 32
0.0
 13
175.674851
 23
396.809896
 33
0.0
  0
ENDBLK
  5
1DA
330
1D2
100
AcDbEntity
  8
0
100
AcDbBlockEnd
  0
BLOCK
  5
1DF
330
1DE
100
AcDbEntity
  8
0
100
AcDbBlockBegin
  2
*D10
 70
     1
 10
0.0
 20
0.0
 30
0.0
  3
*D10
  1

  0
LINE
  5
1E1
330
1DE
100
AcDbEntity
  8
0
 62
   254
370
    -2
100
AcDbLine
 10
354.495926
 20
366.008075
 30
0.0
 11
383.459417
 21
366.008075
 31
0.0
  0
LINE
  5
1E2
330
1DE
100
AcDbEntity
  8
0
 62
   254
370
    -2
100
AcDbLine
 10
373.674849
 20
376.008075
 30
0.0
 11
383.459417
 21
376.008075
 31
0.0
  0
LINE
  5
1E3
330
1DE
100
AcDbEntity
  8
0
 62
   254
370
    -2
100
AcDbLine
 10
382.459417
 20
379.508075
 30
0.0
 11
382.459417
 21
383.008075
 31
0.0
  0
SOLID
  5
1E4
330
1DE
100
AcDbEntity
  8
0
 62
   254
100
AcDbTrace
 10
381.876084
 20
379.508075
 30
0.0
 11
383.04275
 21
379.508075
 31
0.0
 12
382.459417
 22
376.008075
 32
0.0
 13
382.459417
 23
376.008075
 33
0.0
  0
MTEXT
  5
1E5
330
1DE
100
AcDbEntity
  8
0
 62
   254
370
    13
100
AcDbMText
 10
377.209417
 20
352.674742
 30
0.0
 40
3.5
 41
0.0
 71
     5
 72
     1
  1
\A1;20
  7
cesky
 11
0.0
 21
1.0
 31
0.0
 73
     1
 44
1.0
  0
POINT
  5
1E6
330
1DE
100
AcDbEntity
  8
Defpoints
 62
     0
100
AcDbPoint
 10
354.495926
 20
366.008075
 30
0.0
  0
POINT
  5
1E7
330
1DE
100
AcDbEntity
  8
Defpoints
 62
     0
100
AcDbPoint
 10
373.674849
 20
376.008075
 30
0.0
  0
POINT
  5
1E8
330
1DE
100
AcDbEntity
  8
Defpoints
 62
     0
100
AcDbPoint
 10
382.459417
 20
376.008075
 30
0.0
  0
ENDBLK
  5
1E0
330
1DE
100
AcDbEntity
  8
0
100
AcDbBlockEnd
  0
BLOCK
  5
1EF
330
1E9
100
AcDbEntity
  8
0
100
AcDbBlockBegin
  2
_U4
 70
     0
 10
0.0
 20
0.0
 30
0.0
  3
_U4
  1

  0
ENDBLK
  5
1F0
330
1E9
100
AcDbEntity
  8
0
100
AcDbBlockEnd
  0
BLOCK
  5
1F5
330
1F4
100
AcDbEntity
  8
0
100
AcDbBlockBegin
  2
*D12
 70
     1
 10
0.0
 20
0.0
 30
0.0
  3
*D12
  1

  0
LINE
  5
1F7
330
1F4
100
AcDbEntity
  8
0
 62
    95
370
    -2
100
AcDbLine
 10
144.421373
 20
376.008075
 30
0.0
 11
112.316819
 21
376.008075
 31
0.0
  0
LINE
  5
1F8
330
1F4
100
AcDbEntity
  8
0
 62
    95
370
    -2
100
AcDbLine
 10
143.597712
 20
356.008075
 30
0.0
 11
112.316819
 21
356.008075
 31
0.0
  0
LINE
  5
1F9
330
1F4
100
AcDbEntity
  8
0
 62
    95
370
    -2
100
AcDbLine
 10
113.316819
 20
372.508075
 30
0.0
 11
113.316819
 21
359.508075
 31
0.0
  0
SOLID
  5
1FA
330
1F4
100
AcDbEntity
  8
0
 62
    95
100
AcDbTrace
 10
113.900152
 20
372.508075
 30
0.0
 11
112.733486
 21
372.508075
 31
0.0
 12
113.316819
 22
376.008075
 32
0.0
 13
113.316819
 23
376.008075
 33
0.0
  0
SOLID
  5
1FB
330
1F4
100
AcDbEntity
  8
0
 62
    95
100
AcDbTrace
 10
112.733486
 20
359.508075
 30
0.0
 11
113.900152
 21
359.508075
 31
0.0
 12
113.316819
 22
356.008075
 32
0.0
 13
113.316819
 23
356.008075
 33
0.0
  0
MTEXT
  5
1FC
330
1F4
100
AcDbEntity
  8
0
 62
    95
370
    13
100
AcDbMText
 10
108.066819
 20
366.008075
 30
0.0
 40
3.5
 41
0.0
 71
     5
 72
     1
  1
\A1;20
  7
cesky
 11
0.0
 21
1.0
 31
0.0
 73
     1
 44
1.0
  0
POINT
  5
1FD
330
1F4
100
AcDbEntity
  8
Defpoints
 62
     0
100
AcDbPoint
 10
144.421373
 20
376.008075
 30
0.0
  0
POINT
  5
1FE
330
1F4
100
AcDbEntity
  8
Defpoints
 62
     0
100
AcDbPoint
 10
143.597712
 20
356.008075
 30
0.0
  0
POINT
  5
1FF
330
1F4
100
AcDbEntity
  8
Defpoints
 62
     0
100
AcDbPoint
 10
113.316819
 20
356.008075
 30
0.0
  0
ENDBLK
  5
1F6
330
1F4
100
AcDbEntity
  8
0
100
AcDbBlockEnd
  0
BLOCK
  5
208
330
200
100
AcDbEntity
  8
0
100
AcDbBlockBegin
  2
_U5
 70
     0
 10
0.0
 20
0.0
 30
0.0
  3
_U5
  1

  0
MTEXT
  5
201
330
200
100
AcDbEntity
  8
96
  6
Continuous
 62
    95
440
 16777216
370
    13
100
AcDbMText
 10
113.129402
 20
367.534325
 30
0.0
 40
3.5
 41
0.0
 71
     7
 72
     5
  1
\W0.7045;20
  7
cesky
 11
0.0000000000000001
 21
1.0
 31
0.0
 73
     2
 44
0.8433729999999998
  0
MTEXT
  5
202
330
200
100
AcDbEntity
  8
96
  6
Continuous
 62
    95
440
 16777216
370
    13
100
AcDbMText
 10
113.129402
 20
360.796825
 30
0.0
 40
3.5
 41
0.0
 71
     7
 72
     5
  1
\W3.0115;\H2.63;%%c\H3.50;
  7
cesky
 11
0.0000000000000001
 21
1.0
 31
0.0
 73
     2
 44
0.8433729999999998
  0
LINE
  5
203
330
200
100
AcDbEntity
  8
96
 62
    95
440
 16777216
370
    13
100
AcDbLine
 10
123.674849
 20
376.008075
 30
0.0
 11
112.316819
 21
376.008075
 31
0.0
  0
LINE
  5
204
330
200
100
AcDbEntity
  8
96
 62
    95
440
 16777216
370
    13
100
AcDbLine
 10
123.674849
 20
356.008075
 30
0.0
 11
112.316819
 21
356.008075
 31
0.0
  0
LINE
  5
205
330
200
100
AcDbEntity
  8
96
 62
    95
440
 16777216
370
    13
100
AcDbLine
 10
113.316819
 20
376.008075
 30
0.0
 11
113.316819
 21
356.008075
 31
0.0
  0
SOLID
  5
206
330
200
100
AcDbEntity
  8
96
 62
    95
440
 16777216
370
    13
100
AcDbTrace
 10
113.316819
 20
376.008075
 30
0.0
 11
113.933963
 21
372.508077
 31
0.0
 12
112.699675
 22
372.508073
 32
0.0
 13
112.699675
 23
372.508073
 33
0.0
  0
SOLID
  5
207
330
200
100
AcDbEntity
  8
96
 62
    95
440
 16777216
370
    13
100
AcDbTrace
 10
113.316819
 20
356.008075
 30
0.0
 11
112.699675
 21
359.508073
 31
0.0
 12
113.933963
 22
359.508077
 32
0.0
 13
113.933963
 23
359.508077
 33
0.0
  0
ENDBLK
  5
209
330
200
100
AcDbEntity
  8
0
100
AcDbBlockEnd
  0
BLOCK
  5
2C4
330
2C2
100
AcDbEntity
  8
0
370
    13
100
AcDbBlockBegin
  2
GENAXEH
 70
     0
 10
0.0
 20
0.0
 30
0.0
  3
GENAXEH
  1

  0
LINE
  5
2C3
330
2C2
100
AcDbEntity
  8
0
100
AcDbLine
 10
-1.0
 20
0.0
 30
0.0
 11
1.0
 21
0.0
 31
0.0
  0
ENDBLK
  5
2C5
330
2C2
100
AcDbEntity
  8
0
370
    13
100
AcDbBlockEnd
  0
ENDSEC
  0
SECTION
  2
ENTITIES
  0
POINT
  5
73
102
{ACAD_REACTORS
330
329
102
}
330
1F
100
AcDbEntity
  8
80
100
AcDbPoint
 10
172.174849
 20
366.008075
 30
0.0
  0
POINT
  5
75
330
1F
100
AcDbEntity
  8
SK6
 60
     1
100
AcDbPoint
 10
322.149849
 20
366.008075
 30
0.0
  0
POINT
  5
77
330
1F
100
AcDbEntity
  8
SK6
 60
     1
100
AcDbPoint
 10
354.495926
 20
366.008075
 30
0.0
  0
POINT
  5
78
330
1F
100
AcDbEntity
  8
SK6
 60
     1
100
AcDbPoint
 10
122.174849
 20
366.008075
 30
0.0
  0
POINT
  5
79
330
1F
100
AcDbEntity
  8
SK6
 60
     1
100
AcDbPoint
 10
322.149849
 20
366.008075
 30
0.0
  0
POINT
  5
7A
330
1F
100
AcDbEntity
  8
SK6
 60
     1
100
AcDbPoint
 10
353.554329
 20
375.158806
 30
0.0
  0
LINE
  5
7B
330
1F
100
AcDbEntity
  8
80
100
AcDbLine
 10
172.174849
 20
366.008075
 30
0.0
 11
172.174849
 21
365.008075
 31
0.0
  0
LINE
  5
7C
330
1F
100
AcDbEntity
  8
1
100
AcDbLine
 10
370.8148490000001
 20
363.937505
 30
0.0
 11
370.8148490000001
 21
363.746769
 31
0.0
  0
LINE
  5
7E
330
1F
100
AcDbEntity
  8
1
100
AcDbLine
 10
365.452535
 20
366.24262
 30
0.0
 11
365.551368
 21
366.231245
 31
0.0
  0
LINE
  5
7F
330
1F
100
AcDbEntity
  8
1
100
AcDbLine
 10
353.747094
 20
371.798618
 30
0.0
 11
353.356658
 21
374.440881
 31
0.0
  0
LINE
  5
80
330
1F
100
AcDbEntity
  8
1
100
AcDbLine
 10
370.8148490000001
 20
365.692079
 30
0.0
 11
370.8148490000001
 21
365.4165450000001
 31
0.0
  0
LINE
  5
81
330
1F
100
AcDbEntity
  8
1
100
AcDbLine
 10
368.013319
 20
365.826056
 30
0.0
 11
370.8148490000001
 21
365.416539
 31
0.0
  0
LINE
  5
82
330
1F
100
AcDbEntity
  8
1
100
AcDbLine
 10
369.14684
 20
363.464748
 30
0.0
 11
368.153302
 21
360.2715100000001
 31
0.0
  0
LINE
  5
83
330
1F
100
AcDbEntity
  8
1
100
AcDbLine
 10
367.74738
 20
359.715425
 30
0.0
 11
367.74738
 21
360.095546
 31
0.0
  0
LINE
  5
84
330
1F
100
AcDbEntity
  8
1
100
AcDbLine
 10
367.74738
 20
365.613342
 30
0.0
 11
367.74738
 21
365.86227
 31
0.0
  0
LINE
  5
85
330
1F
100
AcDbEntity
  8
1
100
AcDbLine
 10
371.168475
 20
365.656425
 30
0.0
 11
371.337276
 21
365.64891
 31
0.0
  0
LINE
  5
87
330
1F
100
AcDbEntity
  8
1
100
AcDbLine
 10
369.181003
 20
360.517352
 30
0.0
 11
369.897607
 21
362.820522
 31
0.0
  0
LINE
  5
88
330
1F
100
AcDbEntity
  8
1
100
AcDbLine
 10
369.68301
 20
363.19583
 30
0.0
 11
369.100668
 21
363.316495
 31
0.0
  0
LINE
  5
89
330
1F
100
AcDbEntity
  8
1
100
AcDbLine
 10
371.146898
 20
363.560188
 30
0.0
 11
370.784932
 21
363.635189
 31
0.0
  0
LINE
  5
8A
330
1F
100
AcDbEntity
  8
81
100
AcDbLine
 10
370.674849
 20
376.008075
 30
0.0
 11
373.674849
 21
376.008075
 31
0.0
  0
LINE
  5
8B
330
1F
100
AcDbEntity
  8
81
100
AcDbLine
 10
372.174849
 20
374.508075
 30
0.0
 11
372.174849
 21
377.508075
 31
0.0
  0
LINE
  5
8C
330
1F
100
AcDbEntity
  8
80
100
AcDbLine
 10
172.174849
 20
366.008075
 30
0.0
 11
173.174849
 21
366.008075
 31
0.0
  0
LINE
  5
8D
330
1F
100
AcDbEntity
  8
1
100
AcDbLine
 10
368.186042
 20
360.376734
 30
0.0
 11
368.332059
 21
360.544126
 31
0.0
  0
LINE
  5
8E
330
1F
100
AcDbEntity
  8
1
100
AcDbLine
 10
368.432988
 20
360.725024
 30
0.0
 11
368.918332
 21
362.2849240000001
 31
0.0
  0
LINE
  5
8F
330
1F
100
AcDbEntity
  8
1
100
AcDbLine
 10
354.495926
 20
357.676081
 30
0.0
 11
354.495926
 21
368.983124
 31
0.0
  0
LINE
  5
90
330
1F
100
AcDbEntity
  8
1
100
AcDbLine
 10
353.6779
 20
356.840332
 30
0.0
 11
353.6779
 21
369.350125
 31
0.0
  0
LINE
  5
91
330
1F
100
AcDbEntity
  8
1
100
AcDbLine
 10
352.617585
 20
356.829334
 30
0.0
 11
351.7773200000001
 21
356.829334
 31
0.0
  0
LINE
  5
92
330
1F
100
AcDbEntity
  8
1
100
AcDbLine
 10
352.94442
 20
375.208075
 30
0.0
 11
350.915023
 21
375.208075
 31
0.0
  0
LINE
  5
93
330
1F
100
AcDbEntity
  8
1
100
AcDbLine
 10
349.430785
 20
375.208075
 30
0.0
 11
339.174849
 21
375.208075
 31
0.0
  0
LINE
  5
94
330
1F
100
AcDbEntity
  8
1
100
AcDbLine
 10
339.174849
 20
356.808075
 30
0.0
 11
350.817611
 21
356.808075
 31
0.0
  0
LINE
  5
95
330
1F
100
AcDbEntity
  8
1
100
AcDbLine
 10
329.149849
 20
375.508075
 30
0.0
 11
323.472724
 21
375.508075
 31
0.0
  0
LINE
  5
96
330
1F
100
AcDbEntity
  8
1
100
AcDbLine
 10
323.472724
 20
356.508075
 30
0.0
 11
329.149849
 21
356.508075
 31
0.0
  0
LINE
  5
97
330
1F
100
AcDbEntity
  8
1
100
AcDbLine
 10
329.149849
 20
356.508075
 30
0.0
 11
329.149849
 21
375.508075
 31
0.0
  0
LINE
  5
98
330
1F
100
AcDbEntity
  8
1
100
AcDbLine
 10
339.174849
 20
356.808075
 30
0.0
 11
339.174849
 21
375.208075
 31
0.0
  0
LINE
  5
99
330
1F
100
AcDbEntity
  8
1
100
AcDbLine
 10
339.174849
 20
375.208075
 30
0.0
 11
329.149849
 21
375.508075
 31
0.0
  0
LINE
  5
9A
330
1F
100
AcDbEntity
  8
1
100
AcDbLine
 10
329.149849
 20
356.508075
 30
0.0
 11
339.174849
 21
356.808075
 31
0.0
  0
LINE
  5
9B
330
1F
100
AcDbEntity
  8
SK1
100
AcDbLine
 10
122.174849
 20
357.508075
 30
0.0
 11
122.174849
 21
374.508075
 31
0.0
  0
LINE
  5
9C
330
1F
100
AcDbEntity
  8
SK1
100
AcDbLine
 10
122.174849
 20
357.508075
 30
0.0
 11
123.674849
 21
356.008075
 31
0.0
  0
LINE
  5
9D
330
1F
100
AcDbEntity
  8
SK1
100
AcDbLine
 10
123.674849
 20
376.008075
 30
0.0
 11
122.174849
 21
374.508075
 31
0.0
  0
LINE
  5
9E
330
1F
100
AcDbEntity
  8
1
100
AcDbLine
 10
362.723225
 20
370.232809
 30
0.0
 11
362.469451
 21
370.232809
 31
0.0
  0
LINE
  5
A0
330
1F
100
AcDbEntity
  8
1
100
AcDbLine
 10
361.696581
 20
372.281539
 30
0.0
 11
361.950356
 21
372.281539
 31
0.0
  0
LINE
  5
A1
330
1F
100
AcDbEntity
  8
1
100
AcDbLine
 10
362.180507
 20
368.857174
 30
0.0
 11
362.282893
 21
368.857174
 31
0.0
  0
LINE
  5
A2
330
1F
100
AcDbEntity
  8
1
100
AcDbLine
 10
362.282893
 20
373.657174
 30
0.0
 11
362.180507
 21
373.657174
 31
0.0
  0
LINE
  5
A3
330
1F
100
AcDbEntity
  8
1
100
AcDbLine
 10
361.295932
 20
370.645663
 30
0.0
 11
361.156484
 21
370.645663
 31
0.0
  0
LINE
  5
A8
330
1F
100
AcDbEntity
  8
1
100
AcDbLine
 10
352.591385
 20
356.639438
 30
0.0
 11
352.394008
 21
356.661187
 31
0.0
  0
LINE
  5
A9
330
1F
100
AcDbEntity
  8
1
100
AcDbLine
 10
352.762664
 20
356.626291
 30
0.0
 11
362.098663
 21
356.206863
 31
0.0
  0
LINE
  5
AA
330
1F
100
AcDbEntity
  8
1
100
AcDbLine
 10
353.916229
 20
357.08373
 30
0.0
 11
361.535291
 21
356.741436
 31
0.0
  0
LINE
  5
AB
330
1F
100
AcDbEntity
  8
1
100
AcDbLine
 10
353.373397
 20
375.074781
 30
0.0
 11
353.357171
 21
375.041106
 31
0.0
  0
LINE
  5
AC
330
1F
100
AcDbEntity
  8
1
100
AcDbLine
 10
353.920091
 20
375.438471
 30
0.0
 11
362.098795
 21
375.805907
 31
0.0
  0
LINE
  5
AD
330
1F
100
AcDbEntity
  8
1
100
AcDbLine
 10
371.009764
 20
365.6696490000001
 30
0.0
 11
361.72409
 21
366.738387
 31
0.0
  0
LINE
  5
AE
330
1F
100
AcDbEntity
  8
1
100
AcDbLine
 10
354.048844
 20
372.353149
 30
0.0
 11
354.135287
 21
372.173751
 31
0.0
  0
LINE
  5
AF
330
1F
100
AcDbEntity
  8
SK1
100
AcDbLine
 10
322.149849
 20
356.008075
 30
0.0
 11
322.149849
 21
376.008075
 31
0.0
  0
LINE
  5
B0
330
1F
100
AcDbEntity
  8
SK1
100
AcDbLine
 10
123.674849
 20
356.008075
 30
0.0
 11
123.674849
 21
376.008075
 31
0.0
  0
LINE
  5
B1
330
1F
100
AcDbEntity
  8
SK1
100
AcDbLine
 10
322.149849
 20
376.008075
 30
0.0
 11
123.674849
 21
376.008075
 31
0.0
  0
LINE
  5
B2
330
1F
100
AcDbEntity
  8
SK1
100
AcDbLine
 10
123.674849
 20
356.008075
 30
0.0
 11
322.149849
 21
356.008075
 31
0.0
  0
LINE
  5
B3
330
1F
100
AcDbEntity
  8
1
100
AcDbLine
 10
361.485783
 20
362.505596
 30
0.0
 11
360.773825
 21
362.505596
 31
0.0
  0
LINE
  5
B4
330
1F
100
AcDbEntity
  8
1
100
AcDbLine
 10
363.580591
 20
371.246887
 30
0.0
 11
363.336896
 21
371.246887
 31
0.0
  0
LINE
  5
B5
330
1F
100
AcDbEntity
  8
1
100
AcDbLine
 10
363.131341
 20
371.868686
 30
0.0
 11
363.377649
 21
371.868686
 31
0.0
  0
LINE
  5
B6
330
1F
100
AcDbEntity
  8
NOCUT
100
AcDbLine
 10
346.98425
 20
366.008075
 30
0.0
 11
370.8148490000001
 21
366.008075
 31
0.0
  0
LINE
  5
B8
330
1F
100
AcDbEntity
  8
NOCUT
100
AcDbLine
 10
346.98425
 20
366.008075
 30
0.0
 11
344.674849
 21
370.008075
 31
0.0
  0
LINE
  5
B9
330
1F
100
AcDbEntity
  8
NOCUT
100
AcDbLine
 10
344.674849
 20
370.008075
 30
0.0
 11
123.904849
 21
370.008075
 31
0.0
  0
LINE
  5
BA
330
1F
100
AcDbEntity
  8
NOCUT
100
AcDbLine
 10
123.904849
 20
370.008075
 30
0.0
 11
122.174849
 21
371.006891
 31
0.0
  0
LINE
  5
BB
330
1F
100
AcDbEntity
  8
NOCUT
100
AcDbLine
 10
122.174849
 20
371.006891
 30
0.0
 11
122.174849
 21
374.508075
 31
0.0
  0
LINE
  5
BC
330
1F
100
AcDbEntity
  8
NOCUT
100
AcDbLine
 10
122.174849
 20
374.508075
 30
0.0
 11
123.674849
 21
376.008075
 31
0.0
  0
LINE
  5
BD
330
1F
100
AcDbEntity
  8
NOCUT
100
AcDbLine
 10
123.674849
 20
376.008075
 30
0.0
 11
322.149849
 21
376.008075
 31
0.0
  0
LINE
  5
BE
330
1F
100
AcDbEntity
  8
NOCUT
100
AcDbLine
 10
323.472724
 20
375.508075
 30
0.0
 11
329.149849
 21
375.508075
 31
0.0
  0
LINE
  5
BF
330
1F
100
AcDbEntity
  8
NOCUT
100
AcDbLine
 10
329.149849
 20
375.508075
 30
0.0
 11
339.174849
 21
375.208075
 31
0.0
  0
LINE
  5
C0
330
1F
100
AcDbEntity
  8
NOCUT
100
AcDbLine
 10
339.174849
 20
375.208075
 30
0.0
 11
353.6779
 21
375.208075
 31
0.0
  0
LINE
  5
C1
330
1F
100
AcDbEntity
  8
NOCUT
100
AcDbLine
 10
353.6779
 20
375.208075
 30
0.0
 11
354.495926
 21
374.390048
 31
0.0
  0
LINE
  5
C2
330
1F
100
AcDbEntity
  8
NOCUT
100
AcDbLine
 10
354.495926
 20
374.390048
 30
0.0
 11
361.594016
 21
374.886395
 31
0.0
  0
LINE
  5
C3
330
1F
100
AcDbEntity
  8
NOCUT
100
AcDbLine
 10
365.538208
 20
374.264302
 30
0.0
 11
365.639187
 21
374.439202
 31
0.0
  0
LINE
  5
C4
330
1F
100
AcDbEntity
  8
NOCUT
100
AcDbLine
 10
367.80425
 20
373.189202
 30
0.0
 11
367.703271
 21
373.014302
 31
0.0
  0
LINE
  5
C5
330
1F
100
AcDbEntity
  8
NOCUT
100
AcDbLine
 10
370.8148490000001
 20
368.299363
 30
0.0
 11
370.8148490000001
 21
366.008075
 31
0.0
  0
ARC
  5
D3
330
1F
100
AcDbEntity
  8
1
100
AcDbCircle
 10
323.472724
 20
377.508075
 30
0.0
 40
2.0
100
AcDbArc
 50
228.590378
 51
270.0
  0
ARC
  5
D4
330
1F
100
AcDbEntity
  8
1
100
AcDbCircle
 10
323.472724
 20
354.508075
 30
0.0
 40
2.0
100
AcDbArc
 50
90.0
 51
131.409622
  0
ARC
  5
D9
330
1F
100
AcDbEntity
  8
NOCUT
100
AcDbCircle
 10
323.472724
 20
377.508075
 30
0.0
 40
2.0
100
AcDbArc
 50
228.590378
 51
270.0
  0
ARC
  5
DA
330
1F
100
AcDbEntity
  8
NOCUT
100
AcDbCircle
 10
362.214849
 20
366.008075
 30
0.0
 40
8.9
100
AcDbArc
 50
68.073854
 51
94.0
  0
ARC
  5
DB
330
1F
100
AcDbEntity
  8
NOCUT
100
AcDbCircle
 10
362.214849
 20
366.008075
 30
0.0
 40
9.099999999999999
100
AcDbArc
 50
52.10473799999999
 51
67.895262
  0
ARC
  5
DC
330
1F
100
AcDbEntity
  8
NOCUT
100
AcDbCircle
 10
362.214849
 20
366.008075
 30
0.0
 40
8.9
100
AcDbArc
 50
14.918694
 51
51.926146
  0
ELLIPSE
  5
DD
330
1F
100
AcDbEntity
  8
1
100
AcDbEllipse
 10
363.451442
 20
370.690226
 30
0.0
 11
0.0
 21
-0.085221654502479
 31
0.0
210
0.0
220
0.0
230
1.0
 40
0.9848079999999999
 41
5.092578069048148
 42
5.751441205033114
  0
ELLIPSE
  5
DE
330
1F
100
AcDbEntity
  8
1
100
AcDbEllipse
 10
363.366333
 20
370.543317
 30
0.0
 11
0.0
 21
-0.0852216545024792
 31
0.0
210
0.0
220
0.0
230
1.0
 40
0.9848079999999999
 41
1.427386639860003
 42
2.609848551443216
  0
ELLIPSE
  5
DF
330
1F
100
AcDbEntity
  8
1
100
AcDbEllipse
 10
362.972491
 20
370.601065
 30
0.0
 11
0.0
 21
-0.4892877486700781
 31
0.0
210
0.0
220
0.0
230
0.9999999999999998
 40
0.9848079999999999
 41
0.1271190338382343
 42
1.427386639860006
  0
ELLIPSE
  5
E0
330
1F
100
AcDbEntity
  8
1
100
AcDbEllipse
 10
363.022939
 20
370.200259
 30
0.0
 11
0.0
 21
-0.0852216545024788
 31
0.0
210
0.0
220
0.0
230
0.9999999999999998
 40
0.9848080000000001
 41
5.227842429434672
 42
6.410304341017833
  0
ELLIPSE
  5
E1
330
1F
100
AcDbEntity
  8
1
100
AcDbEllipse
 10
362.876894
 20
370.116243
 30
0.0
 11
0.0
 21
-0.0852216545024788
 31
0.0
210
0.0
220
0.0
230
1.0
 40
0.9848080000000001
 41
2.086249775844843
 42
2.745112911829829
  0
ELLIPSE
  5
E2
330
1F
100
AcDbEntity
  8
1
100
AcDbEllipse
 10
362.723225
 20
369.743522
 30
0.0
 11
0.0
 21
-0.4892877486700779
 31
0.0
210
0.0
220
0.0
230
1.0
 40
0.9848079999999999
 41
2.745112911829735
 42
4.045380517851511
  0
ELLIPSE
  5
E3
330
1F
100
AcDbEntity
  8
1
100
AcDbEllipse
 10
362.410583
 20
369.993493
 30
0.0
 11
0.0
 21
-0.085221654502479
 31
0.0
210
0.0
220
0.0
230
1.0
 40
0.9848079999999999
 41
4.045380517851507
 42
4.704243653836391
  0
ELLIPSE
  5
E4
330
1F
100
AcDbEntity
  8
1
100
AcDbEllipse
 10
362.242735
 20
369.994881
 30
0.0
 11
0.0
 21
-0.0852216545024792
 31
0.0
210
0.0
220
0.0
230
1.0
 40
0.9848079999999999
 41
0.3801890886635044
 42
1.562651000246558
  0
ELLIPSE
  5
E5
330
1F
100
AcDbEntity
  8
1
100
AcDbEllipse
 10
362.095066
 20
370.370094
 30
0.0
 11
0.0
 21
-0.4892877486700781
 31
0.0
210
0.0
220
0.0
230
0.9999999999999998
 40
0.9848079999999999
 41
5.363106789821223
 42
6.663374395842988
  0
ELLIPSE
  5
E6
330
1F
100
AcDbEntity
  8
1
100
AcDbEllipse
 10
361.778455
 20
370.1253279999999
 30
0.0
 11
0.0
 21
-0.0852216545024788
 31
0.0
210
0.0
220
0.0
230
0.9999999999999998
 40
0.9848080000000001
 41
4.180644878238076
 42
5.363106789821241
  0
ELLIPSE
  5
E7
330
1F
100
AcDbEntity
  8
1
100
AcDbEllipse
 10
361.633778
 20
370.211749
 30
0.0
 11
0.0
 21
-0.0852216545024788
 31
0.0
210
0.0
220
0.0
230
1.0
 40
0.9848080000000001
 41
1.039052224648266
 42
1.697915360633181
  0
ELLIPSE
  5
E8
330
1F
100
AcDbEntity
  8
1
100
AcDbEllipse
 10
361.239061
 20
370.160523
 30
0.0
 11
0.0
 21
-0.4892877486700779
 31
0.0
210
0.0
220
0.0
230
1.0
 40
0.9848079999999999
 41
1.697915360633133
 42
2.998182966654915
  0
ELLIPSE
  5
E9
330
1F
100
AcDbEntity
  8
1
100
AcDbEllipse
 10
361.295932
 20
370.560441
 30
0.0
 11
0.0
 21
-0.085221654502479
 31
0.0
210
0.0
220
0.0
230
1.0
 40
0.9848079999999999
 41
2.998182966654828
 42
3.657046102639723
  0
ELLIPSE
  5
EA
330
1F
100
AcDbEntity
  8
1
100
AcDbEllipse
 10
361.213192
 20
370.708739
 30
0.0
 11
0.0
 21
-0.0852216545024792
 31
0.0
210
0.0
220
0.0
230
1.0
 40
0.9848079999999999
 41
5.616176844646409
 42
6.798638756229536
  0
ELLIPSE
  5
EB
330
1F
100
AcDbEntity
  8
1
100
AcDbEllipse
 10
361.459365
 20
371.026204
 30
0.0
 11
0.0
 21
-0.4892877486700781
 31
0.0
210
0.0
220
0.0
230
0.9999999999999998
 40
0.9848079999999999
 41
4.315909238624614
 42
5.616176844646403
  0
ELLIPSE
  5
EC
330
1F
100
AcDbEntity
  8
1
100
AcDbEllipse
 10
361.092307
 20
371.182243
 30
0.0
 11
0.0
 21
-0.0852216545024788
 31
0.0
210
0.0
220
0.0
230
0.9999999999999998
 40
0.9848080000000001
 41
3.133447327041494
 42
4.315909238624653
  0
ELLIPSE
  5
ED
330
1F
100
AcDbEntity
  8
1
100
AcDbEllipse
 10
361.093674
 20
371.352681
 30
0.0
 11
0.0
 21
-0.0852216545024788
 31
0.0
210
0.0
220
0.0
230
1.0
 40
0.9848080000000001
 41
6.275039980631286
 42
6.933903116616102
  0
ELLIPSE
  5
EE
330
1F
100
AcDbEntity
  8
1
100
AcDbEllipse
 10
360.852626
 20
371.674176
 30
0.0
 11
0.0
 21
-0.4892877486700779
 31
0.0
210
0.0
220
0.0
230
1.0
 40
0.9848079999999999
 41
0.6507178094365446
 42
1.950985415458304
  0
ELLIPSE
  5
EF
330
1F
100
AcDbEntity
  8
1
100
AcDbEllipse
 10
361.22214
 20
371.824123
 30
0.0
 11
0.0
 21
-0.085221654502479
 31
0.0
210
0.0
220
0.0
230
1.0
 40
0.9848079999999999
 41
1.950985415458344
 42
2.609848551443248
  0
ELLIPSE
  5
F0
330
1F
100
AcDbEntity
  8
1
100
AcDbEllipse
 10
361.307248
 20
371.971032
 30
0.0
 11
0.0
 21
-0.0852216545024792
 31
0.0
210
0.0
220
0.0
230
1.0
 40
0.9848079999999999
 41
4.5689792934498
 42
5.751441205032854
  0
ELLIPSE
  5
F1
330
1F
100
AcDbEntity
  8
1
100
AcDbEllipse
 10
361.70109
 20
371.913284
 30
0.0
 11
0.0
 21
-0.4892877486700781
 31
0.0
210
0.0
220
0.0
230
0.9999999999999998
 40
0.9848079999999999
 41
3.268711687428026
 42
4.568979293449801
  0
ELLIPSE
  5
F2
330
1F
100
AcDbEntity
  8
1
100
AcDbEllipse
 10
361.650642
 20
372.31409
 30
0.0
 11
0.0
 21
-0.0852216545024788
 31
0.0
210
0.0
220
0.0
230
0.9999999999999998
 40
0.9848080000000001
 41
2.086249775844825
 42
3.268711687428046
  0
ELLIPSE
  5
F3
330
1F
100
AcDbEntity
  8
1
100
AcDbEllipse
 10
361.796687
 20
372.398106
 30
0.0
 11
0.0
 21
-0.0852216545024788
 31
0.0
210
0.0
220
0.0
230
1.0
 40
0.9848080000000001
 41
5.227842429434637
 42
5.886705565419561
  0
ELLIPSE
  5
F4
330
1F
100
AcDbEntity
  8
1
100
AcDbEllipse
 10
361.950356
 20
372.770827
 30
0.0
 11
0.0
 21
-0.4892877486700779
 31
0.0
210
0.0
220
0.0
230
1.0
 40
0.9848079999999999
 41
5.88670556541954
 42
7.186973171441292
  0
ELLIPSE
  5
F5
330
1F
100
AcDbEntity
  8
1
100
AcDbEllipse
 10
362.336791
 20
371.257174
 30
0.0
 11
0.0000000000000001
 21
1.5
 31
0.0
210
0.0
220
0.0
230
1.0
 40
0.9848079999999999
 41
0.0
 42
6.283185307179585
  0
ELLIPSE
  5
F6
330
1F
100
AcDbEntity
  8
1
100
AcDbEllipse
 10
362.282893
 20
371.257174
 30
0.0
 11
0.0000000000000001
 21
2.399999999999999
 31
0.0
210
0.0
220
0.0
230
1.0
 40
0.9848079999999999
 41
0.0
 42
6.283185307179585
  0
ELLIPSE
  5
F7
330
1F
100
AcDbEntity
  8
1
100
AcDbEllipse
 10
362.41099
 20
366.008075
 30
0.0
 11
-0.0000000000000005
 21
-8.828031987059901
 31
0.0
210
0.0
220
0.0
230
1.0
 40
0.9848080000000001
 41
1.285453193870998
 42
1.311758438027265
  0
ELLIPSE
  5
F8
330
1F
100
AcDbEntity
  8
1
100
AcDbEllipse
 10
355.433843
 20
371.799347
 30
0.0
 11
-0.2899898376517556
 21
2.996544730678226
 31
0.0
210
0.0
220
0.0
230
1.0
 40
0.496374
 41
1.249295891778079
 42
1.504283020752021
  0
ELLIPSE
  5
F9
330
1F
100
AcDbEntity
  8
1
100
AcDbEllipse
 10
365.884111
 20
369.212157
 30
0.0
 11
0.0000000000000002
 21
3.0
 31
0.0
210
0.0
220
0.0
230
1.0
 40
0.9848079999999999
 41
3.028727571921816
 42
3.239217666028746
  0
ELLIPSE
  5
FA
330
1F
100
AcDbEntity
  8
1
100
AcDbEllipse
 10
365.785279
 20
369.223532
 30
0.0
 11
0.0000000000000002
 21
3.0
 31
0.0
210
0.0
220
0.0
230
1.0
 40
0.9848079999999999
 41
2.818237317127362
 42
3.028727571921814
  0
ELLIPSE
  5
FB
330
1F
100
AcDbEntity
  8
1
100
AcDbEllipse
 10
362.501544
 20
376.508456
 30
0.0
 11
-0.0000000000000006
 21
-9.713654555806872
 31
0.0
210
0.0
220
0.0
230
1.0
 40
0.9848080000000001
 41
5.623780386182856
 42
5.918040868216674
  0
ELLIPSE
  5
FC
330
1F
100
AcDbEntity
  8
1
100
AcDbEllipse
 10
357.070316
 20
371.799347
 30
0.0
 11
-0.0000000000000002
 21
-3.0
 31
0.0
210
0.0
220
0.0
230
1.0
 40
0.9848079999999999
 41
5.189064456373541
 42
6.137327233595442
  0
ELLIPSE
  5
FD
330
1F
100
AcDbEntity
  8
1
100
AcDbEllipse
 10
356.09429
 20
372.156236
 30
0.0
 11
0.0000000000000001
 21
2.4100847314039
 31
0.0
210
0.0
220
0.0
230
1.0
 40
0.9848080000000001
 41
1.719730632926063
 42
2.373470523747333
  0
ELLIPSE
  5
FE
330
1F
100
AcDbEntity
  8
1
100
AcDbEllipse
 10
361.825796
 20
366.008075
 30
0.0
 11
0.0000000000000005
 21
8.613380311504011
 31
0.0
210
0.0
220
0.0
230
1.0
 40
0.9848080000000001
 41
3.914322832184261
 42
3.983547036434708
  0
ELLIPSE
  5
FF
330
1F
100
AcDbEntity
  8
1
100
AcDbEllipse
 10
361.394958
 20
361.1533490000001
 30
0.0
 11
0.0000000000000001
 21
1.75
 31
0.0
210
0.0
220
0.0
230
1.0
 40
0.9848079999999999
 41
0.1705297889392149
 42
0.7773479676422392
  0
ELLIPSE
  5
100
330
1F
100
AcDbEntity
  8
1
100
AcDbEllipse
 10
360.810287
 20
361.1533490000001
 30
0.0
 11
0.0000000000000001
 21
1.75
 31
0.0
210
0.0
220
0.0
230
1.0
 40
0.9848079999999999
 41
5.264439954761339
 42
7.875470365689352
  0
ELLIPSE
  5
101
330
1F
100
AcDbEntity
  8
1
100
AcDbEllipse
 10
362.251481
 20
366.336248
 30
0.0
 11
-8.838973010505842
 21
0.9866484966465963
 31
0.0
210
0.0
220
0.0
230
1.0
 40
0.019557
 41
4.004529763325185
 42
4.043559610787784
  0
ELLIPSE
  5
102
330
1F
100
AcDbEntity
  8
1
100
AcDbEllipse
 10
368.9204220000001
 20
363.701612
 30
0.0
 11
-1.165040559051042
 21
-3.387118928763051
 31
0.0
210
0.0
220
0.0
230
1.0
 40
0.492419
 41
4.213458561834553
 42
4.392646680887236
  0
ELLIPSE
  5
103
330
1F
100
AcDbEntity
  8
1
100
AcDbEllipse
 10
368.9204220000001
 20
363.701612
 30
0.0
 11
-1.165040559051042
 21
-3.387118928763051
 31
0.0
210
0.0
220
0.0
230
1.0
 40
0.492419
 41
6.251588334289365
 42
6.506296824881348
  0
ELLIPSE
  5
104
330
1F
100
AcDbEntity
  8
1
100
AcDbEllipse
 10
370.623084
 20
364.931271
 30
0.0
 11
-2.795068248384709
 21
-4.885395176148358
 31
0.0
210
0.0
220
0.0
230
1.0
 40
0.5093
 41
4.861478509980523
 42
6.250158720212922
  0
ELLIPSE
  5
105
330
1F
100
AcDbEntity
  8
1
100
AcDbEllipse
 10
360.810287
 20
361.1533490000001
 30
0.0
 11
0.0000000000000001
 21
2.0
 31
0.0
210
0.0
220
0.0
230
1.0
 40
0.9848079999999999
 41
0.0839151220067151
 42
2.234707133522248
  0
ELLIPSE
  5
106
330
1F
100
AcDbEntity
  8
1
100
AcDbEllipse
 10
365.069124
 20
364.361076
 30
0.0
 11
-23.60714448707581
 21
9.105099766106613
 31
0.0
210
0.0
220
0.0
230
1.0
 40
0.022537
 41
4.968162027683065
 42
5.185456237999034
  0
ELLIPSE
  5
107
330
1F
100
AcDbEntity
  8
1
100
AcDbEllipse
 10
370.715132
 20
366.008075
 30
0.0
 11
-53.96865854769385
 21
0.0000000000000665
 31
0.0
210
0.0
220
0.0
230
0.9999999999999998
 40
0.161869
 41
1.265547940077748
 42
1.4009735799786
  0
ELLIPSE
  5
108
330
1F
100
AcDbEntity
  8
1
100
AcDbEllipse
 10
371.630168
 20
368.801723
 30
0.0
 11
0.0277473180831029
 21
-0.1474112829439969
 31
0.0
210
0.0
220
0.0
230
1.0
 40
0.170739
 41
1.520261735112313
 42
1.538668992156514
  0
ELLIPSE
  5
109
330
1F
100
AcDbEntity
  8
1
100
AcDbEllipse
 10
362.570068
 20
365.942356
 30
0.0
 11
-0.5785186690776996
 21
10.21148149059131
 31
0.0
210
0.0
220
0.0
230
0.9999999999999998
 40
0.9392489999999998
 41
4.715036659649762
 42
4.9883284928189
  0
ELLIPSE
  5
10A
330
1F
100
AcDbEntity
  8
1
100
AcDbEllipse
 10
371.437625
 20
366.444213
 30
0.0
 11
-0.322704484369927
 21
-0.7443212381080244
 31
0.0
210
0.0
220
0.0
230
1.0
 40
0.8738269999999999
 41
0.3219146368841636
 42
1.883726913340479
  0
ELLIPSE
  5
10B
330
1F
100
AcDbEntity
  8
1
100
AcDbEllipse
 10
371.009544
 20
365.697557
 30
0.0
 11
-0.2767550262718617
 21
0.0321977258688591
 31
0.0
210
0.0
220
0.0
230
1.0
 40
0.099409
 41
1.583152510380594
 42
2.194017748596901
  0
ELLIPSE
  5
10C
330
1F
100
AcDbEntity
  8
1
100
AcDbEllipse
 10
361.98274
 20
365.116513
 30
0.0
 11
-9.733932138596404
 21
1.501057345647937
 31
0.0
210
0.0
220
0.0
230
1.0
 40
0.615147
 41
2.48222007715241
 42
2.990337891514321
  0
ELLIPSE
  5
10D
330
1F
100
AcDbEntity
  8
1
100
AcDbEllipse
 10
370.907763
 20
362.870918
 30
0.0
 11
-0.5733849227279454
 21
0.0884209619011811
 31
0.0
210
0.0
220
0.0
230
1.0
 40
0.615147
 41
2.990337889616833
 42
3.109135943845943
  0
ELLIPSE
  5
10E
330
1F
100
AcDbEntity
  8
1
100
AcDbEllipse
 10
367.96346
 20
360.875654
 30
0.0
 11
0.0
 21
-0.5000000000000036
 31
0.0
210
0.0
220
0.0
230
1.0
 40
0.9848079999999999
 41
0.8459033675056012
 42
1.264782387984245
  0
ELLIPSE
  5
10F
330
1F
100
AcDbEntity
  8
1
100
AcDbEllipse
 10
361.573321
 20
360.755596
 30
0.0
 11
-0.0000000000000001
 21
-2.0
 31
0.0
210
0.0
220
0.0
230
1.0
 40
0.9848079999999999
 41
3.17581982993745
 42
3.655599914886461
  0
ELLIPSE
  5
110
330
1F
100
AcDbEntity
  8
1
100
AcDbEllipse
 10
368.293926
 20
362.155808
 30
0.0
 11
-0.6083217558955705
 21
-0.3684428772962247
 31
0.0
210
0.0
220
0.0
230
1.0
 40
0.5601720000000001
 41
2.577385803990193
 42
3.280539412322741
  0
ELLIPSE
  5
111
330
1F
100
AcDbEntity
  8
1
100
AcDbEllipse
 10
349.312529
 20
366.008077
 30
0.0
 11
-52.17579821359265
 21
0.0000001495324318
 31
0.0
210
0.0
220
0.0
230
1.0
 40
0.176327
 41
1.637374973562833
 42
1.65456082868956
  0
ELLIPSE
  5
112
330
1F
100
AcDbEntity
  8
1
100
AcDbEllipse
 10
360.796393
 20
366.008075
 30
0.0
 11
-23.81073933117365
 21
9.18380631857595
 31
0.0
210
0.0
220
0.0
230
1.0
 40
0.022915
 41
5.024818929209454
 42
5.241053659243837
  0
ELLIPSE
  5
113
330
1F
100
AcDbEntity
  8
1
100
AcDbEllipse
 10
368.719586
 20
366.008075
 30
0.0
 11
-52.17579267506962
 21
0.0000000000000643
 31
0.0
210
0.0
220
0.0
230
1.0
 40
0.176327
 41
5.01232080926644
 42
5.03834658775711
  0
ELLIPSE
  5
114
330
1F
100
AcDbEntity
  8
1
100
AcDbEllipse
 10
362.180507
 20
371.257174
 30
0.0
 11
-0.0000000000000001
 21
-2.399999999999999
 31
0.0
210
0.0
220
0.0
230
1.0
 40
0.9848079999999999
 41
3.141628423552417
 42
6.283123112299606
  0
ELLIPSE
  5
115
330
1F
100
AcDbEntity
  8
1
100
AcDbEllipse
 10
362.262998
 20
372.520856
 30
0.0
 11
0.0
 21
-0.085221654502479
 31
0.0
210
0.0
220
0.0
230
1.0
 40
0.9848079999999999
 41
0.9037878642617139
 42
1.562651000246578
  0
ELLIPSE
  5
116
330
1F
100
AcDbEntity
  8
1
100
AcDbEllipse
 10
362.430846
 20
372.519468
 30
0.0
 11
0.0
 21
-0.0852216545024792
 31
0.0
210
0.0
220
0.0
230
1.0
 40
0.9848079999999999
 41
3.521781742253218
 42
4.704243653836349
  0
ELLIPSE
  5
117
330
1F
100
AcDbEntity
  8
1
100
AcDbEllipse
 10
362.578515
 20
372.144255
 30
0.0
 11
0.0
 21
-0.4892877486700781
 31
0.0
210
0.0
220
0.0
230
0.9999999999999998
 40
0.9848079999999999
 41
2.221514136231439
 42
3.521781742253223
  0
ELLIPSE
  5
118
330
1F
100
AcDbEntity
  8
1
100
AcDbEllipse
 10
362.895126
 20
372.389021
 30
0.0
 11
0.0
 21
-0.0852216545024788
 31
0.0
210
0.0
220
0.0
230
0.9999999999999998
 40
0.9848080000000001
 41
1.039052224648266
 42
2.221514136231448
  0
ELLIPSE
  5
119
330
1F
100
AcDbEntity
  8
1
100
AcDbEllipse
 10
363.039803
 20
372.3026
 30
0.0
 11
0.0
 21
-0.0852216545024788
 31
0.0
210
0.0
220
0.0
230
1.0
 40
0.9848080000000001
 41
4.180644878238066
 42
4.839508014222881
  0
ELLIPSE
  5
11A
330
1F
100
AcDbEntity
  8
1
100
AcDbEllipse
 10
363.43452
 20
372.353826
 30
0.0
 11
0.0
 21
-0.4892877486700779
 31
0.0
210
0.0
220
0.0
230
1.0
 40
0.9848079999999999
 41
4.839508014222924
 42
6.139775620244692
  0
ELLIPSE
  5
11B
330
1F
100
AcDbEntity
  8
1
100
AcDbEllipse
 10
363.377649
 20
371.953908
 30
0.0
 11
0.0
 21
-0.085221654502479
 31
0.0
210
0.0
220
0.0
230
1.0
 40
0.9848079999999999
 41
6.139775620244628
 42
6.798638756229527
  0
ELLIPSE
  5
11C
330
1F
100
AcDbEntity
  8
1
100
AcDbEllipse
 10
363.460389
 20
371.80561
 30
0.0
 11
0.0
 21
-0.0852216545024792
 31
0.0
210
0.0
220
0.0
230
1.0
 40
0.9848079999999999
 41
2.474584191056603
 42
3.657046102639816
  0
ELLIPSE
  5
11D
330
1F
100
AcDbEntity
  8
1
100
AcDbEllipse
 10
363.214216
 20
371.488145
 30
0.0
 11
0.0
 21
-0.4892877486700781
 31
0.0
210
0.0
220
0.0
230
0.9999999999999998
 40
0.9848079999999999
 41
1.174316585034824
 42
2.474584191056607
  0
ELLIPSE
  5
11E
330
1F
100
AcDbEntity
  8
1
100
AcDbEllipse
 10
363.581274
 20
371.332106
 30
0.0
 11
0.0
 21
-0.0852216545024788
 31
0.0
210
0.0
220
0.0
230
0.9999999999999998
 40
0.9848080000000001
 41
6.275039980631202
 42
7.457501892214394
  0
ELLIPSE
  5
11F
330
1F
100
AcDbEntity
  8
1
100
AcDbEllipse
 10
363.579907
 20
371.161668
 30
0.0
 11
0.0
 21
-0.0852216545024788
 31
0.0
210
0.0
220
0.0
230
1.0
 40
0.9848080000000001
 41
3.13344732704141
 42
3.792310463026321
  0
ELLIPSE
  5
120
330
1F
100
AcDbEntity
  8
1
100
AcDbEllipse
 10
363.820955
 20
370.840173
 30
0.0
 11
0.0
 21
-0.4892877486700779
 31
0.0
210
0.0
220
0.0
230
1.0
 40
0.9848079999999999
 41
3.792310463026324
 42
5.092578069048094
  0
ELLIPSE
  5
121
330
1F
100
AcDbEntity
  8
1
100
AcDbEllipse
 10
362.245471
 20
371.257174
 30
0.0
 11
0.0000000000000002
 21
2.713985362388701
 31
0.0
210
0.0
220
0.0
230
1.0
 40
0.9848079999999999
 41
0.0
 42
6.283185307179585
  0
ELLIPSE
  5
128
330
1F
100
AcDbEntity
  8
1
100
AcDbEllipse
 10
352.563681
 20
357.45095
 30
0.0
 11
-0.7986999435150679
 21
-0.349909048842938
 31
0.0
210
0.0
220
0.0
230
0.9999999999999996
 40
0.89402
 41
0.4417831286910205
 42
0.9983739002943954
  0
ELLIPSE
  5
129
330
1F
100
AcDbEntity
  8
1
100
AcDbEllipse
 10
371.018913
 20
362.923312
 30
0.0
 11
0.0
 21
0.65
 31
0.0
210
0.0
220
0.0
230
1.0
 40
0.9848079999999999
 41
4.369104081836393
 42
6.081891123488597
  0
ELLIPSE
  5
12A
330
1F
100
AcDbEntity
  8
1
100
AcDbEllipse
 10
352.698148
 20
356.659337
 30
0.0
 11
-0.2856471711004882
 21
0.0198505486121247
 31
0.0
210
0.0
220
0.0
230
1.0
 40
0.102323
 41
1.194860428996734
 42
1.805725667239502
  0
ELLIPSE
  5
12B
330
1F
100
AcDbEntity
  8
1
100
AcDbEllipse
 10
361.938958
 20
366.005962
 30
0.0
 11
-0.0000000000000006
 21
-9.273588877985668
 31
0.0
210
0.0
220
0.0
230
1.0
 40
0.9848079999999999
 41
6.238970756168079
 42
7.129088674685185
  0
ELLIPSE
  5
12C
330
1F
100
AcDbEntity
  8
1
100
AcDbEllipse
 10
362.525622
 20
366.005962
 30
0.0
 11
-0.0000000000000006
 21
-9.808685220001587
 31
0.0
210
0.0
220
0.0
230
1.0
 40
0.9848079999999999
 41
6.238970756168076
 42
7.510696735426192
  0
ELLIPSE
  5
12D
330
1F
100
AcDbEntity
  8
1
100
AcDbEllipse
 10
361.709876
 20
365.583063
 30
0.0
 11
-8.300030381603681
 21
3.819784331208423
 31
0.0
210
0.0
220
0.0
230
1.0
 40
0.9313620000000002
 41
2.874282008647647
 42
2.907376355550725
  0
ELLIPSE
  5
12E
330
1F
100
AcDbEntity
  8
1
100
AcDbEllipse
 10
353.504542
 20
374.7633
 30
0.0
 11
-0.0282483437420842
 21
0.3604071682261891
 31
0.0
210
0.0
220
0.0
230
1.0
 40
0.5644960000000001
 41
1.632315381603752
 42
1.751113435324268
  0
ELLIPSE
  5
12F
330
1F
100
AcDbEntity
  8
1
100
AcDbEllipse
 10
362.525754
 20
366.006808
 30
0.0
 11
-0.0000000000000006
 21
-9.808685220001587
 31
0.0
210
0.0
220
0.0
230
1.0
 40
0.9848079999999999
 41
1.934469946491478
 42
3.185807204601303
  0
ELLIPSE
  5
130
330
1F
100
AcDbEntity
  8
1
100
AcDbEllipse
 10
353.948385
 20
374.789107
 30
0.0
 11
0.0
 21
0.65
 31
0.0
210
0.0
220
0.0
230
1.0
 40
0.9848079999999999
 41
0.0442145510115065
 42
1.757001592663699
  0
ELLIPSE
  5
131
330
1F
100
AcDbEntity
  8
1
100
AcDbEllipse
 10
362.812016
 20
376.484664
 30
0.0
 11
-0.0000000000000006
 21
-9.808685220001587
 31
0.0
210
0.0
220
0.0
230
1.0
 40
0.9848079999999999
 41
4.898594246253487
 42
6.170320225511602
  0
ELLIPSE
  5
132
330
1F
100
AcDbEntity
  8
1
100
AcDbEllipse
 10
365.298917
 20
369.212157
 30
0.0
 11
0.0000000000000002
 21
3.0
 31
0.0
210
0.0
220
0.0
230
1.0
 40
0.9848079999999999
 41
3.24079343331946
 42
3.32776567859122
  0
ELLIPSE
  5
133
330
1F
100
AcDbEntity
  8
1
100
AcDbEllipse
 10
362.210742
 20
371.257174
 30
0.0
 11
0.0000000000000002
 21
2.7
 31
0.0
210
0.0
220
0.0
230
1.0
 40
0.9848079999999999
 41
3.028727466658821
 42
6.283185307179585
  0
ELLIPSE
  5
134
330
1F
100
AcDbEntity
  8
1
100
AcDbEllipse
 10
362.210742
 20
371.257174
 30
0.0
 11
0.0000000000000002
 21
2.7
 31
0.0
210
0.0
220
0.0
230
1.0
 40
0.9848079999999999
 41
0.0
 42
0.4017668783159389
  0
ELLIPSE
  5
135
330
1F
100
AcDbEntity
  8
1
100
AcDbEllipse
 10
362.210742
 20
371.257174
 30
0.0
 11
0.0000000000000002
 21
2.7
 31
0.0
210
0.0
220
0.0
230
1.0
 40
0.9848079999999999
 41
2.739701159346654
 42
3.028727842668617
  0
ELLIPSE
  5
136
330
1F
100
AcDbEntity
  8
1
100
AcDbEllipse
 10
356.621253
 20
376.0465700000001
 30
0.0
 11
-0.479551248192111
 21
6.118366108606964
 31
0.0
210
0.0
220
0.0
230
1.0
 40
0.5644960000000001
 41
1.751113436054416
 42
2.173923094485278
  0
ELLIPSE
  5
137
330
1F
100
AcDbEntity
  8
1
100
AcDbEllipse
 10
361.485783
 20
360.755596
 30
0.0
 11
-0.0000000000000001
 21
-1.75
 31
0.0
210
0.0
220
0.0
230
1.0
 40
0.9848079999999999
 41
2.844675978580231
 42
3.141556207378857
  0
ELLIPSE
  5
138
330
1F
100
AcDbEntity
  8
1
100
AcDbEllipse
 10
360.773825
 20
360.755596
 30
0.0
 11
0.0000000000000001
 21
1.75
 31
0.0
210
0.0
220
0.0
230
1.0
 40
0.9848079999999999
 41
0.0
 42
6.283185307179585
  0
ELLIPSE
  5
139
330
1F
100
AcDbEntity
  8
1
100
AcDbEllipse
 10
360.704366
 20
360.755596
 30
0.0
 11
0.0000000000000001
 21
1.35
 31
0.0
210
0.0
220
0.0
230
1.0
 40
0.9848079999999999
 41
0.0
 42
6.283185307179585
  0
SPLINE
  5
13A
330
1F
100
AcDbEntity
  8
1
100
AcDbSpline
210
0.0
220
0.0
230
1.0
 70
     8
 71
     3
 72
    10
 73
     6
 74
     0
 42
0.000000001
 43
0.0000000001
 40
0.0
 40
0.0
 40
0.0
 40
0.0
 40
0.5605099253944869
 40
0.5605099253944869
 40
1.0
 40
1.0
 40
1.0
 40
1.0
 10
356.6409155961817
 20
368.8312020064583
 30
0.0
 10
356.6769097122187
 20
368.8182381742752
 30
0.0
 10
356.7086216073621
 20
368.8098610275183
 30
0.0
 10
356.759225732957
 20
368.8010547022344
 30
0.0
 10
356.7793983435139
 20
368.7993112196707
 30
0.0
 10
356.7977881186414
 20
368.7993449797314
 30
0.0
  0
SPLINE
  5
13B
330
1F
100
AcDbEntity
  8
1
100
AcDbSpline
210
0.0
220
0.0
230
1.0
 70
     8
 71
     3
 72
    20
 73
    16
 74
     0
 42
0.000000001
 43
0.0000000001
 40
0.0
 40
0.0
 40
0.0
 40
0.0
 40
0.2499999999999969
 40
0.2499999999999969
 40
0.4999999999999938
 40
0.4999999999999938
 40
0.6249999999999937
 40
0.6249999999999937
 40
0.7499999999999936
 40
0.7499999999999936
 40
0.8124999999999952
 40
0.8124999999999952
 40
0.8749999999999968
 40
0.8749999999999968
 40
1.0
 40
1.0
 40
1.0
 40
1.0
 10
354.4452361836535
 20
370.4228632963867
 30
0.0
 10
354.3757702775018
 20
370.5242300735663
 30
0.0
 10
354.3120558815523
 20
370.6292207831617
 30
0.0
 10
354.1968268688663
 20
370.8473985560106
 30
0.0
 10
354.1452968095886
 20
370.9605701862732
 30
0.0
 10
354.0783419254476
 20
371.1378216222175
 30
0.0
 10
354.0577552542513
 20
371.1981623750979
 30
0.0
 10
354.0203883616422
 20
371.3217218366139
 30
0.0
 10
354.0036061184672
 20
371.3849386267249
 30
0.0
 10
353.9816545262593
 20
371.4823005973924
 30
0.0
 10
353.9748674762162
 20
371.5152232027668
 30
0.0
 10
353.9624879485131
 20
371.5818023131012
 30
0.0
 10
353.956918693855
 20
371.6153257292436
 30
0.0
 10
353.9421482212805
 20
371.7166453752565
 30
0.0
 10
353.9348780895663
 20
371.7851881458527
 30
0.0
 10
353.9304518414376
 20
371.8548848222961
 30
0.0
  0
SPLINE
  5
13C
330
1F
100
AcDbEntity
  8
1
100
AcDbSpline
210
0.0
220
0.0
230
1.0
 70
     8
 71
     3
 72
     8
 73
     4
 74
     0
 42
0.000000001
 43
0.0000000001
 40
0.0
 40
0.0
 40
0.0
 40
0.0
 40
1.0
 40
1.0
 40
1.0
 40
1.0
 10
367.7473803559162
 20
365.6133420662978
 30
0.0
 10
367.7319532736747
 20
365.5121112305391
 30
0.0
 10
367.717247034564
 20
365.411285263161
 30
0.0
 10
367.7032712987335
 20
365.310869589878
 30
0.0
  0
SPLINE
  5
13D
330
1F
100
AcDbEntity
  8
1
100
AcDbSpline
210
0.0
220
0.0
230
1.0
 70
     8
 71
     3
 72
     8
 73
     4
 74
     0
 42
0.000000001
 43
0.0000000001
 40
0.0
 40
0.0
 40
0.0
 40
0.0
 40
1.0
 40
1.0
 40
1.0
 40
1.0
 10
367.7032712987335
 20
360.3343076039093
 30
0.0
 10
367.7172970503749
 20
360.2537913058418
 30
0.0
 10
367.7320078493035
 20
360.1742148011495
 30
0.0
 10
367.7473803559162
 20
360.0955460710141
 30
0.0
  0
SPLINE
  5
13E
330
1F
100
AcDbEntity
  8
1
100
AcDbSpline
210
0.0
220
0.0
230
1.0
 70
     8
 71
     3
 72
    31
 73
    27
 74
     0
 42
0.000000001
 43
0.0000000001
 40
0.0
 40
0.0
 40
0.0
 40
0.0
 40
0.0291136597108559
 40
0.0291136597108559
 40
0.1151203559877333
 40
0.1151203559877333
 40
0.1581237041261719
 40
0.1581237041261719
 40
0.2011270522646106
 40
0.2011270522646106
 40
0.3731404448183726
 40
0.3731404448183726
 40
0.5451538373721344
 40
0.5451538373721344
 40
0.5881571855105711
 40
0.5881571855105711
 40
0.6311605336490077
 40
0.7171672299258738
 40
0.7171672299258738
 40
0.889180622479605
 40
0.889180622479605
 40
0.9321839706180341
 40
0.9321839706180341
 40
0.975187318756463
 40
0.975187318756463
 40
1.0
 40
1.0
 40
1.0
 40
1.0
 10
352.3351884600814
 20
369.8564372357374
 30
0.0
 10
352.3435679238147
 20
369.8567656858886
 30
0.0
 10
352.352052630774
 20
369.8569721104072
 30
0.0
 10
352.3859882195163
 20
369.8573116300473
 30
0.0
 10
352.412194906452
 20
369.8565125656759
 30
0.0
 10
352.4525913217581
 20
369.8537413208312
 30
0.0
 10
352.4662387372309
 20
369.8525549969759
 30
0.0
 10
352.493874155557
 20
369.8496529537765
 30
0.0
 10
352.5078926859692
 20
369.8479326992825
 30
0.0
 10
352.5783746480442
 20
369.8380497699072
 30
0.0
 10
352.6358064086284
 20
369.8261190466603
 30
0.0
 10
352.7519239934938
 20
369.7944499369468
 30
0.0
 10
352.8106188178613
 20
369.7747056310329
 30
0.0
 10
352.8845595671406
 20
369.7448782779596
 30
0.0
 10
352.899406778944
 20
369.7386407276136
 30
0.0
 10
352.92897299586
 20
369.725718259369
 30
0.0
 10
352.9731411549737
 20
369.7056625508216
 30
0.0
 10
353.0167631666171
 20
369.6836092914045
 30
0.0
 10
353.1032842149236
 20
369.6368632237979
 30
0.0
 10
353.1599924412175
 20
369.6021807238038
 30
0.0
 10
353.2297749867708
 20
369.5544374849766
 30
0.0
 10
353.2436770335378
 20
369.5446692485327
 30
0.0
 10
353.2713782882717
 20
369.5246942250853
 30
0.0
 10
353.2852065550498
 20
369.5144649948079
 30
0.0
 10
353.306797871096
 20
369.4980971202946
 30
0.0
 10
353.3146529536673
 20
369.4920582907213
 30
0.0
 10
353.3224648232078
 20
369.4859711279465
 30
0.0
  0
SPLINE
  5
13F
330
1F
100
AcDbEntity
  8
1
100
AcDbSpline
210
0.0
220
0.0
230
1.0
 70
     8
 71
     2
 72
    14
 73
    11
 74
     0
 42
0.000000001
 43
0.0000000001
 40
0.0
 40
0.0
 40
0.0
 40
0.0483330322282124
 40
0.0483330322282124
 40
0.3123227362700993
 40
0.3123227362700993
 40
0.5763124403119862
 40
0.5763124403119862
 40
0.840302144353873
 40
0.840302144353873
 40
1.0
 40
1.0
 40
1.0
 10
352.0120575461492
 20
374.7236392724108
 30
0.0
 10
352.042260162364
 20
374.5524709329442
 30
0.0
 10
352.078383309181
 20
374.3820446990477
 30
0.0
 10
352.2803620956041
 20
373.4291242884461
 30
0.0
 10
352.65925878009
 20
372.5346870043844
 30
0.0
 10
353.0487280040456
 20
371.6152917994008
 30
0.0
 10
353.6092384258638
 20
370.793310592853
 30
0.0
 10
354.1741089689086
 20
369.9649353255223
 30
0.0
 10
354.8895808805933
 20
369.2682604851094
 30
0.0
 10
355.3170744080944
 20
368.8519981830041
 30
0.0
 10
355.7879965082328
 20
368.4925416998161
 30
0.0
  0
SPLINE
  5
140
330
1F
100
AcDbEntity
  8
1
100
AcDbSpline
210
0.0
220
0.0
230
1.0
 70
     8
 71
     3
 72
     8
 73
     4
 74
     0
 42
0.000000001
 43
0.0000000001
 40
0.0
 40
0.0
 40
0.0
 40
0.0
 40
1.0
 40
1.0
 40
1.0
 40
1.0
 10
371.5536459978881
 20
369.4958552122833
 30
0.0
 10
371.5845242629667
 20
369.4134737523353
 30
0.0
 10
371.6134498299963
 20
369.3306126655226
 30
0.0
 10
371.6407384210555
 20
369.2473014194953
 30
0.0
  0
SPLINE
  5
141
330
1F
100
AcDbEntity
  8
1
100
AcDbSpline
210
0.0
220
0.0
230
1.0
 70
     8
 71
     3
 72
    12
 73
     8
 74
     0
 42
0.000000001
 43
0.0000000001
 40
0.0
 40
0.0
 40
0.0
 40
0.0
 40
0.2805286317998044
 40
0.2805286317998044
 40
0.5610572635991141
 40
0.5610572635991141
 40
1.0
 40
1.0
 40
1.0
 40
1.0
 10
372.1564161761697
 20
366.4097225286734
 30
0.0
 10
372.156357745417
 20
366.4092863041525
 30
0.0
 10
372.1562992904383
 20
366.4088500828762
 30
0.0
 10
372.1561823320311
 20
366.4079776468197
 30
0.0
 10
372.1561238286023
 20
366.4075414320383
 30
0.0
 10
372.1559737228184
 20
366.4064226809713
 30
0.0
 10
372.1558820853795
 20
366.4057401493893
 30
0.0
 10
372.1557903886377
 20
366.4050576257774
 30
0.0
  0
SPLINE
  5
142
330
1F
100
AcDbEntity
  8
1
100
AcDbSpline
210
0.0
220
0.0
230
1.0
 70
     8
 71
     3
 72
     8
 73
     4
 74
     0
 42
0.000000001
 43
0.0000000001
 40
0.0
 40
0.0
 40
0.0
 40
0.0
 40
1.0
 40
1.0
 40
1.0
 40
1.0
 10
368.9576351616459
 20
360.0735098948908
 30
0.0
 10
369.0084927521279
 20
360.1361315277643
 30
0.0
 10
369.059472859922
 20
360.1989097694927
 30
0.0
 10
369.1105379787209
 20
360.2618619134945
 30
0.0
  0
SPLINE
  5
143
330
1F
100
AcDbEntity
  8
1
100
AcDbSpline
210
0.0
220
0.0
230
1.0
 70
     8
 71
     3
 72
     8
 73
     4
 74
     0
 42
0.000000001
 43
0.0000000001
 40
0.0
 40
0.0
 40
0.0
 40
0.0
 40
1.0
 40
1.0
 40
1.0
 40
1.0
 10
369.1105379787209
 20
360.2618619134945
 30
0.0
 10
369.1311474298125
 20
360.3469823469802
 30
0.0
 10
369.1544912385783
 20
360.4321434018589
 30
0.0
 10
369.1810027384562
 20
360.5173515156967
 30
0.0
  0
SPLINE
  5
144
330
1F
100
AcDbEntity
  8
1
100
AcDbSpline
210
0.0
220
0.0
230
1.0
 70
     8
 71
     3
 72
    14
 73
    10
 74
     0
 42
0.000000001
 43
0.0000000001
 40
0.0
 40
0.0
 40
0.0
 40
0.0
 40
0.25
 40
0.25
 40
0.5
 40
0.5
 40
0.75
 40
0.75
 40
1.0
 40
1.0
 40
1.0
 40
1.0
 10
369.7953218791778
 20
363.1386234758616
 30
0.0
 10
369.7877823182424
 20
363.1458023241028
 30
0.0
 10
369.7796724431054
 20
363.1524403467264
 30
0.0
 10
369.7625923229978
 20
363.1644124672541
 30
0.0
 10
369.7535887649745
 20
363.1697941865934
 30
0.0
 10
369.7346799109476
 20
363.1793818765057
 30
0.0
 10
369.7247075361226
 20
363.1836083347283
 30
0.0
 10
369.7042491146037
 20
363.190711049879
 30
0.0
 10
369.6937602192492
 20
363.1936026167419
 30
0.0
 10
369.6830099618963
 20
363.1958301310523
 30
0.0
  0
SPLINE
  5
145
330
1F
100
AcDbEntity
  8
1
100
AcDbSpline
210
0.0
220
0.0
230
1.0
 70
     8
 71
     3
 72
    18
 73
    14
 74
     0
 42
0.000000001
 43
0.0000000001
 40
0.0
 40
0.0
 40
0.0
 40
0.0
 40
0.2499999999999505
 40
0.2499999999999505
 40
0.3749999999999472
 40
0.3749999999999472
 40
0.4999999999999439
 40
0.4999999999999439
 40
0.749999999999972
 40
0.749999999999972
 40
0.8749999999999859
 40
0.8749999999999859
 40
1.0
 40
1.0
 40
1.0
 40
1.0
 10
369.7953218791778
 20
363.1386234758616
 30
0.0
 10
369.8101256996894
 20
363.1245279095875
 30
0.0
 10
369.8235339911519
 20
363.1089038134663
 30
0.0
 10
369.841869720173
 20
363.0833752021879
 30
0.0
 10
369.8476754950546
 20
363.0745093477031
 30
0.0
 10
369.8586195807047
 20
363.0560138223451
 30
0.0
 10
369.8636711277074
 20
363.0464946351539
 30
0.0
 10
369.8775515965274
 20
363.0174384602161
 30
0.0
 10
369.8852360147049
 20
362.9973224424298
 30
0.0
 10
369.8945558807947
 20
362.9660960923124
 30
0.0
 10
369.8972671020454
 20
362.9555600495407
 30
0.0
 10
369.9017826548066
 20
362.9344472928127
 30
0.0
 10
369.9035845365627
 20
362.9238332286316
 30
0.0
 10
369.9049208526078
 20
362.9131566868697
 30
0.0
  0
SPLINE
  5
146
330
1F
100
AcDbEntity
  8
1
100
AcDbSpline
210
0.0
220
0.0
230
1.0
 70
     8
 71
     3
 72
    12
 73
     8
 74
     0
 42
0.000000001
 43
0.0000000001
 40
0.0
 40
0.0
 40
0.0
 40
0.0
 40
0.4999999999999913
 40
0.4999999999999913
 40
0.7499999999999957
 40
0.7499999999999957
 40
1.0
 40
1.0
 40
1.0
 40
1.0
 10
369.8976069882091
 20
362.8205217161973
 30
0.0
 10
369.9020456016835
 20
362.8357163430916
 30
0.0
 10
369.9047973646591
 20
362.8510539313613
 30
0.0
 10
369.9066132635966
 20
362.874256235284
 30
0.0
 10
369.9068283403807
 20
362.8820234081608
 30
0.0
 10
369.9064668346199
 20
362.8976248474189
 30
0.0
 10
369.905883562373
 20
362.9054650849835
 30
0.0
 10
369.9049208526078
 20
362.9131566868697
 30
0.0
  0
SPLINE
  5
147
330
1F
100
AcDbEntity
  8
1
100
AcDbSpline
210
0.0
220
0.0
230
1.0
 70
    24
 71
     1
 72
     4
 73
     2
 74
     0
 42
0.000000001
 43
0.0000000001
 40
0.0
 40
0.0
 40
1.0
 40
1.0
 10
371.4790810870282
 20
362.7710980392609
 30
0.0
 10
369.8976069882093
 20
362.8205217161973
 30
0.0
  0
SPLINE
  5
148
330
1F
100
AcDbEntity
  8
1
100
AcDbSpline
210
0.0
220
0.0
230
1.0
 70
     8
 71
     3
 72
    66
 73
    62
 74
     0
 42
0.000000001
 43
0.0000000001
 40
0.0
 40
0.0
 40
0.0
 40
0.0
 40
0.0197211196678079
 40
0.0420685153851228
 40
0.0670453411521269
 40
0.0946530377750532
 40
0.1248917458287638
 40
0.1557995677588934
 40
0.1837684709543824
 40
0.2088005134422817
 40
0.2308976751857116
 40
0.2500620249126103
 40
0.3221856068323882
 40
0.3744821691373543
 40
0.3991266374086008
 40
0.437266597623762
 40
0.4616990917873824
 40
0.4802530122985402
 40
0.4929295761861633
 40
0.4997301940966905
 40
0.5184917993104201
 40
0.5372529412277939
 40
0.5560137281298533
 40
0.5747742681601434
 40
0.5935346693665245
 40
0.6122950397430609
 40
0.6310554872718538
 40
0.6498161199649177
 40
0.6872238222802232
 40
0.7246255643089153
 40
0.7620234485487801
 40
0.7994195778293346
 40
0.8004648116559016
 40
0.8019294301767876
 40
0.8038134333499819
 40
0.8061168210653891
 40
0.8088395931523884
 40
0.8119817493823479
 40
0.8155432894696581
 40
0.8195242130722206
 40
0.8239245197917062
 40
0.8287442091736965
 40
0.8339832807077735
 40
0.8396417338275735
 40
0.8457195679108211
 40
0.8522167822793582
 40
0.8591333761991544
 40
0.8664693488803257
 40
0.8742246994771376
 40
0.8823994270880168
 40
0.8909935307555532
 40
0.9000070094665035
 40
0.9094398621517983
 40
0.9192920876865375
 40
0.929563684890002
 40
0.940254652525642
 40
0.9513649893010953
 40
0.9628946938681719
 40
0.9748437648228698
 40
0.9872122007053572
 40
1.0
 40
1.0
 40
1.0
 40
1.0
 10
371.0476631237829
 20
363.4850054319453
 30
0.0
 10
371.0536524370957
 20
363.4837497981609
 30
0.0
 10
371.0664286649919
 20
363.4810713169152
 30
0.0
 10
371.0865168864361
 20
363.4758518511044
 30
0.0
 10
371.1086909837048
 20
363.4691610081299
 30
0.0
 10
371.1328061103576
 20
363.4606462219925
 30
0.0
 10
371.1581354319402
 20
363.4502567443801
 30
0.0
 10
371.1830106099708
 20
363.4385349899372
 30
0.0
 10
371.2059168774379
 20
363.4263823700319
 30
0.0
 10
371.2259636949835
 20
363.4146283013958
 30
0.0
 10
371.2432839067163
 20
363.4035825327551
 30
0.0
 10
371.2723621284624
 20
363.3837456550639
 30
0.0
 10
371.3073734764985
 20
363.3558580223167
 30
0.0
 10
371.3404010383711
 20
363.3232795703434
 30
0.0
 10
371.3640773457825
 20
363.2965149960801
 30
0.0
 10
371.380963877869
 20
363.275302521625
 30
0.0
 10
371.3956441021543
 20
363.2547861609615
 30
0.0
 10
371.4052413867804
 20
363.2403624296937
 30
0.0
 10
371.4115537346008
 20
363.2303419928756
 30
0.0
 10
371.4178025166631
 20
363.2201813889203
 30
0.0
 10
371.4249379193016
 20
363.2082958730471
 30
0.0
 10
371.4334317730662
 20
363.1928967338093
 30
0.0
 10
371.4414453071374
 20
363.1772395426213
 30
0.0
 10
371.4489445971036
 20
363.1613317105979
 30
0.0
 10
371.4559289839944
 20
363.1451918840251
 30
0.0
 10
371.4623887063486
 20
363.1288360008974
 30
0.0
 10
371.4683203764652
 20
363.1122811084179
 30
0.0
 10
371.4754922942313
 20
363.0899987325898
 30
0.0
 10
371.4831749484273
 20
363.0617651026473
 30
0.0
 10
371.4903906148653
 20
363.0273992795824
 30
0.0
 10
371.495561726191
 20
362.9926520390027
 30
0.0
 10
371.4976676653285
 20
362.9689877448303
 30
0.0
 10
371.4983960296051
 20
362.9565157078854
 30
0.0
 10
371.4984733280338
 20
362.9551422983082
 30
0.0
 10
371.498567960437
 20
362.9533753515409
 30
0.0
 10
371.4986763128743
 20
362.9512146837023
 30
0.0
 10
371.4987940062383
 20
362.9486601006535
 30
0.0
 10
371.4989158486204
 20
362.9457114072445
 30
0.0
 10
371.4990358516842
 20
362.9423684276191
 30
0.0
 10
371.499147224408
 20
362.9386310253552
 30
0.0
 10
371.4992423749447
 20
362.9344991274176
 30
0.0
 10
371.4993129102727
 20
362.9299727505698
 30
0.0
 10
371.4993496371832
 20
362.9250520306861
 30
0.0
 10
371.499342563638
 20
362.9197372548104
 30
0.0
 10
371.4992809009972
 20
362.9140288959996
 30
0.0
 10
371.4991530671691
 20
362.9079276509167
 30
0.0
 10
371.4989466908974
 20
362.9014344801568
 30
0.0
 10
371.4986486173629
 20
362.8945506512737
 30
0.0
 10
371.4982449152992
 20
362.8872777844703
 30
0.0
 10
371.4977208858792
 20
362.879617900893
 30
0.0
 10
371.4970610734053
 20
362.8715734735238
 30
0.0
 10
371.4962492788459
 20
362.8631474803722
 30
0.0
 10
371.4952685732179
 20
362.8543434607911
 30
0.0
 10
371.4941013240771
 20
362.8451655711782
 30
0.0
 10
371.4927291835429
 20
362.8356186544369
 30
0.0
 10
371.491133244229
 20
362.825708265441
 30
0.0
 10
371.4892935461362
 20
362.8154408808291
 30
0.0
 10
371.487191167713
 20
362.8048233890663
 30
0.0
 10
371.4848001399257
 20
362.7938654285148
 30
0.0
 10
371.48211945591
 20
362.782570517774
 30
0.0
 10
371.4801050701651
 20
362.7749644639751
 30
0.0
 10
371.4790810870282
 20
362.7710980392609
 30
0.0
  0
SPLINE
  5
149
330
1F
100
AcDbEntity
  8
1
100
AcDbSpline
210
0.0
220
0.0
230
1.0
 70
     8
 71
     3
 72
    12
 73
     8
 74
     0
 42
0.000000001
 43
0.0000000001
 40
0.0
 40
0.0
 40
0.0
 40
0.0
 40
0.4999999999999978
 40
0.4999999999999978
 40
0.749999999999999
 40
0.749999999999999
 40
1.0
 40
1.0
 40
1.0
 40
1.0
 10
372.1596266458474
 20
366.5127635812741
 30
0.0
 10
372.1606869168432
 20
366.4948381297967
 30
0.0
 10
372.1609449611811
 20
366.4772150851307
 30
0.0
 10
372.1601484697486
 20
366.4512294371184
 30
0.0
 10
372.159678561845
 20
366.4425968430114
 30
0.0
 10
372.1583427670845
 20
366.4258198237023
 30
0.0
 10
372.1574788510768
 20
366.4176561052749
 30
0.0
 10
372.1564161761697
 20
366.4097225286737
 30
0.0
  0
SPLINE
  5
14A
330
1F
100
AcDbEntity
  8
1
100
AcDbSpline
210
0.0
220
0.0
230
1.0
 70
     8
 71
     3
 72
    78
 73
    74
 74
     0
 42
0.000000001
 43
0.0000000001
 40
0.0
 40
0.0
 40
0.0
 40
0.0
 40
0.0165606785528239
 40
0.0165606785528239
 40
0.033121357105648
 40
0.033121357105648
 40
0.0662427142112961
 40
0.0662427142112961
 40
0.0993640713169441
 40
0.0993640713169441
 40
0.1159247498697667
 40
0.1159247498697667
 40
0.1324854284225892
 40
0.1324854284225892
 40
0.1656067855282312
 40
0.1656067855282312
 40
0.1987281426338732
 40
0.1987281426338732
 40
0.2152888211866941
 40
0.2152888211866941
 40
0.2318494997395152
 40
0.2318494997395152
 40
0.2649708568451572
 40
0.2649708568451572
 40
0.2980922139507993
 40
0.2980922139507993
 40
0.3063725532272085
 40
0.3063725532272085
 40
0.3146528925036177
 40
0.3312135710564332
 40
0.3312135710564332
 40
0.3643349281620668
 40
0.3974562852677005
 40
0.3974562852677005
 40
0.4305776423733342
 40
0.4305776423733342
 40
0.4636989994789677
 40
0.4968203565846013
 40
0.5051006958610098
 40
0.5051006958610098
 40
0.5133810351374183
 40
0.5133810351374183
 40
0.5299417136902365
 40
0.5299417136902365
 40
0.5961844279015098
 40
0.5961844279015098
 40
0.6127451064543283
 40
0.6127451064543283
 40
0.6210254457307373
 40
0.6210254457307373
 40
0.6293057850071465
 40
0.6293057850071465
 40
0.6624271421127822
 40
0.6624271421127822
 40
0.7286698563240537
 40
0.7286698563240537
 40
0.7452305348768713
 40
0.7452305348768713
 40
0.7617912134296889
 40
0.7617912134296889
 40
0.7949125705353254
 40
0.7949125705353254
 40
0.8611552847465981
 40
0.8611552847465981
 40
0.8942766418522346
 40
0.8942766418522346
 40
0.9108373204050527
 40
0.9108373204050527
 40
0.9273979989578716
 40
0.9273979989578716
 40
0.9936407131691456
 40
0.9936407131691456
 40
1.0
 40
1.0
 40
1.0
 40
1.0
 10
361.5940159848629
 20
362.7887777698946
 30
0.0
 10
361.5640399082885
 20
362.8088776211376
 30
0.0
 10
361.5334381081387
 20
362.8283330933097
 30
0.0
 10
361.4715043708654
 20
362.8655994861215
 30
0.0
 10
361.4401513058302
 20
362.8834291036165
 30
0.0
 10
361.3449399276029
 20
362.9345111392979
 30
0.0
 10
361.2799324017118
 20
362.9653627458018
 30
0.0
 10
361.1468149572557
 20
363.0205401651867
 30
0.0
 10
361.0787056143083
 20
363.0448672452288
 30
0.0
 10
360.9741119312904
 20
363.0762194149045
 30
0.0
 10
360.938738305209
 20
363.0858341342571
 30
0.0
 10
360.8678939796921
 20
363.1031133358074
 30
0.0
 10
360.8323808349807
 20
363.110796768675
 30
0.0
 10
360.7255701887024
 20
363.131005696787
 30
0.0
 10
360.6540021621551
 20
363.1406977987753
 30
0.0
 10
360.510137040935
 20
363.1524736431454
 30
0.0
 10
360.4378400593093
 20
363.1545586072216
 30
0.0
 10
360.3288249364264
 20
363.1517424608991
 30
0.0
 10
360.2923547074581
 20
363.1498007847435
 30
0.0
 10
360.2201399850129
 20
363.1439651869321
 30
0.0
 10
360.1842823324109
 20
363.1400712223868
 30
0.0
 10
360.0774506277246
 20
363.125501099452
 30
0.0
 10
360.0072153383865
 20
363.1119451258508
 30
0.0
 10
359.868735362134
 20
363.0771552788559
 30
0.0
 10
359.8004903755707
 20
363.0559222245371
 30
0.0
 10
359.7164921242365
 20
363.0244121012273
 30
0.0
 10
359.6997838362755
 20
363.0178696294348
 30
0.0
 10
359.6667170789558
 20
363.0043742941601
 30
0.0
 10
359.6175676724782
 20
362.9834880037224
 30
0.0
 10
359.5697557382956
 20
362.9607007526894
 30
0.0
 10
359.4758922445584
 20
362.9126467085082
 30
0.0
 10
359.355425218681
 20
362.8419758576217
 30
0.0
 10
359.2443402961265
 20
362.7583522542265
 30
0.0
 10
359.1381199336192
 20
362.668162569626
 30
0.0
 10
359.088529953703
 20
362.6207027670338
 30
0.0
 10
358.9961991755857
 20
362.5216683812872
 30
0.0
 10
358.9106439048263
 20
362.4184516006865
 30
0.0
 10
358.8291988334838
 20
362.2935154531674
 30
0.0
 10
358.7890823596141
 20
362.2211596851532
 30
0.0
 10
358.7734491992356
 20
362.1919819956968
 30
0.0
 10
358.765841617738
 20
362.1772784551388
 30
0.0
 10
358.7437802757216
 20
362.1331099150942
 30
0.0
 10
358.7300349668233
 20
362.1034912569356
 30
0.0
 10
358.6659174662429
 20
361.954611089761
 30
0.0
 10
358.6292519708503
 20
361.8330236331095
 30
0.0
 10
358.5998448841045
 20
361.6787798719143
 30
0.0
 10
358.5947917617517
 20
361.6478161400157
 30
0.0
 10
358.5884391911685
 20
361.6012084636944
 30
0.0
 10
358.5865253234188
 20
361.5856328300702
 30
0.0
 10
358.5831202023742
 20
361.5545837234475
 30
0.0
 10
358.5816262564827
 20
361.5390930675475
 30
0.0
 10
358.5751730894605
 20
361.4618082352828
 30
0.0
 10
358.5732554046844
 20
361.4005191888529
 30
0.0
 10
358.5764292114711
 20
361.2182340117727
 30
0.0
 10
358.5903824089733
 20
361.0988181985172
 30
0.0
 10
358.6211778463801
 20
360.9521003100389
 30
0.0
 10
358.6280100270997
 20
360.9228844613056
 30
0.0
 10
358.6430050119813
 20
360.8647066471383
 30
0.0
 10
358.6511449296604
 20
360.8358402927227
 30
0.0
 10
358.6773236322449
 20
360.7502309002374
 30
0.0
 10
358.6971547469411
 20
360.6943280750416
 30
0.0
 10
358.7633390907661
 20
360.5298880485293
 30
0.0
 10
358.8163288261409
 20
360.4246030422576
 30
0.0
 10
358.9084421926675
 20
360.2725795108972
 30
0.0
 10
358.9412653958346
 20
360.222893347576
 30
0.0
 10
358.99372340175
 20
360.1498070801647
 30
0.0
 10
359.0117753651359
 20
360.1256503574955
 30
0.0
 10
359.0488380075029
 20
360.0779891707577
 30
0.0
 10
359.0678193566944
 20
360.0545191805791
 30
0.0
 10
359.1649656487422
 20
359.9389269121441
 30
0.0
 10
359.2497740475047
 20
359.8520359454117
 30
0.0
 10
359.3509829705737
 20
359.7626545317526
 30
0.0
 10
359.3599179365552
 20
359.7548750112396
 30
0.0
 10
359.3689240237744
 20
359.7471451573813
 30
0.0
  0
SPLINE
  5
14B
330
1F
100
AcDbEntity
  8
1
100
AcDbSpline
210
0.0
220
0.0
230
1.0
 70
     8
 71
     3
 72
    10
 73
     6
 74
     0
 42
0.000000001
 43
0.0000000001
 40
0.0
 40
0.0
 40
0.0
 40
0.0
 40
0.5
 40
0.5
 40
1.0
 40
1.0
 40
1.0
 40
1.0
 10
361.594015984863
 20
366.5889832351255
 30
0.0
 10
361.1996506559498
 20
366.6444724003964
 30
0.0
 10
360.8108682611887
 20
366.7217608184978
 30
0.0
 10
360.0445033948018
 20
366.9187480379818
 30
0.0
 10
359.6669229608411
 20
367.0384587825311
 30
0.0
 10
359.2951946001069
 20
367.179320751548
 30
0.0
  0
SPLINE
  5
14C
330
1F
100
AcDbEntity
  8
1
100
AcDbSpline
210
0.0
220
0.0
230
1.0
 70
     8
 71
     3
 72
     8
 73
     4
 74
     0
 42
0.000000001
 43
0.0000000001
 40
0.0
 40
0.0
 40
0.0
 40
0.0
 40
1.0
 40
1.0
 40
1.0
 40
1.0
 10
353.6778995679842
 20
369.3501251806971
 30
0.0
 10
353.9506290089737
 20
369.2277752147719
 30
0.0
 10
354.2233096570417
 20
369.1054399371636
 30
0.0
 10
354.4959263030127
 20
368.9831239263477
 30
0.0
  0
SPLINE
  5
14D
330
1F
100
AcDbEntity
  8
1
100
AcDbSpline
210
0.0
220
0.0
230
1.0
 70
     8
 71
     3
 72
     8
 73
     4
 74
     0
 42
0.000000001
 43
0.0000000001
 40
0.0
 40
0.0
 40
0.0
 40
0.0
 40
1.0
 40
1.0
 40
1.0
 40
1.0
 10
354.4959263030127
 20
357.6760807404476
 30
0.0
 10
354.2237399763052
 20
357.3969970743409
 30
0.0
 10
353.9510213250076
 20
357.1184582739306
 30
0.0
 10
353.6778995679842
 20
356.8403320760682
 30
0.0
  0
SPLINE
  5
14E
330
1F
100
AcDbEntity
  8
1
100
AcDbSpline
210
0.0
220
0.0
230
1.0
 70
     8
 71
     3
 72
    48
 73
    44
 74
     0
 42
0.000000001
 43
0.0000000001
 40
0.0
 40
0.0
 40
0.0
 40
0.0
 40
0.0782268781366547
 40
0.0782268781366547
 40
0.1173403172049798
 40
0.1173403172049798
 40
0.1564537562733049
 40
0.1564537562733049
 40
0.2346806344099553
 40
0.2346806344099553
 40
0.2737940734782831
 40
0.2737940734782831
 40
0.3129075125466109
 40
0.3129075125466109
 40
0.3911343906832609
 40
0.3911343906832609
 40
0.4302478297515861
 40
0.4302478297515861
 40
0.469361268819911
 40
0.469361268819911
 40
0.5475881469565555
 40
0.5475881469565555
 40
0.5671448664907139
 40
0.5671448664907139
 40
0.5867015860248726
 40
0.6258150250931897
 40
0.6258150250931897
 40
0.7040419032298191
 40
0.7040419032298191
 40
0.743155342298134
 40
0.743155342298134
 40
0.7822687813664489
 40
0.8213822204347636
 40
0.8213822204347636
 40
0.8409389399689223
 40
0.8409389399689223
 40
0.860495659503081
 40
0.860495659503081
 40
0.938722537639718
 40
0.938722537639718
 40
0.9778359767080361
 40
0.9778359767080361
 40
1.0
 40
1.0
 40
1.0
 40
1.0
 10
350.7719612460923
 20
375.1982483469262
 30
0.0
 10
350.7417443586015
 20
375.1965233613228
 30
0.0
 10
350.7083146541561
 20
375.1947435018445
 30
0.0
 10
350.6537186477042
 20
375.19214377573
 30
0.0
 10
350.6347718660536
 20
375.1912886451536
 30
0.0
 10
350.5953750710923
 20
375.1896255738825
 30
0.0
 10
350.5748524565607
 20
375.1888155250459
 30
0.0
 10
350.5122521379385
 20
375.1865375533163
 30
0.0
 10
350.4688119184044
 20
375.1852060303475
 30
0.0
 10
350.4011735495454
 20
375.1835879554041
 30
0.0
 10
350.3781688934662
 20
375.1831109986232
 30
0.0
 10
350.331486715137
 20
375.1823029420503
 30
0.0
 10
350.3080678487564
 20
375.1819760781382
 30
0.0
 10
350.2375861806377
 20
375.1812320059114
 30
0.0
 10
350.1903002360066
 20
375.1810513358341
 30
0.0
 10
350.1189201165705
 20
375.1812720740422
 30
0.0
 10
350.0949358783621
 20
375.1814291613105
 30
0.0
 10
350.0476314529164
 20
375.1819005259383
 30
0.0
 10
350.0242618887989
 20
375.1822140769558
 30
0.0
 10
349.9549852450772
 20
375.1833713083262
 30
0.0
 10
349.9099024272946
 20
375.1844318366328
 30
0.0
 10
349.8549871953614
 20
375.1860612938092
 30
0.0
 10
349.8440476354771
 20
375.1864033340161
 30
0.0
 10
349.8224839384924
 20
375.1871106365852
 30
0.0
 10
349.790624763551
 20
375.1882056789416
 30
0.0
 10
349.7601999218575
 20
375.1893902157324
 30
0.0
 10
349.701254387296
 20
375.1918452340365
 30
0.0
 10
349.6644755487876
 20
375.1935973348669
 30
0.0
 10
349.6133923493636
 20
375.1962591410528
 30
0.0
 10
349.5972800500624
 20
375.1971398934414
 30
0.0
 10
349.5670754404036
 20
375.1988515169356
 30
0.0
 10
349.5388167616815
 20
375.2005171623878
 30
0.0
 10
349.5144807592716
 20
375.2020420506383
 30
0.0
 10
349.4977572113188
 20
375.2031138579935
 30
0.0
 10
349.4924379285468
 20
375.2034591393744
 30
0.0
 10
349.482325968451
 20
375.2041223430761
 30
0.0
 10
349.4775430996337
 20
375.2044396390586
 30
0.0
 10
349.4552550252905
 20
375.2059312861569
 30
0.0
 10
349.4423271441533
 20
375.2068377673599
 30
0.0
 10
349.4303106699367
 20
375.2076855467625
 30
0.0
 10
349.4275412804893
 20
375.2078829733077
 30
0.0
 10
349.4252438520718
 20
375.2080468275092
 30
0.0
 10
349.4248378409798
 20
375.2080758040817
 30
0.0
 10
349.4248481436704
 20
375.2080750770882
 30
0.0
  0
SPLINE
  5
14F
330
1F
100
AcDbEntity
  8
1
100
AcDbSpline
210
0.0
220
0.0
230
1.0
 70
     8
 71
     3
 72
    22
 73
    18
 74
     0
 42
0.000000001
 43
0.0000000001
 40
0.0
 40
0.0
 40
0.0
 40
0.0
 40
0.069293091875269
 40
0.069293091875269
 40
0.2244109098960612
 40
0.2244109098960612
 40
0.3019698189064572
 40
0.3019698189064572
 40
0.3795287279168533
 40
0.3795287279168533
 40
0.6897643639584377
 40
0.6897643639584377
 40
0.7673232729688317
 40
0.7673232729688317
 40
0.8448821819792254
 40
0.8448821819792254
 40
1.0
 40
1.0
 40
1.0
 40
1.0
 10
350.9248530495559
 20
375.2080750647401
 30
0.0
 10
350.9248615369291
 20
375.2080758332133
 30
0.0
 10
350.9246143942638
 20
375.2080583474876
 30
0.0
 10
350.9229923563157
 20
375.2079425882663
 30
0.0
 10
350.9205900075683
 20
375.207771073752
 30
0.0
 10
350.9150075624646
 20
375.2073764490457
 30
0.0
 10
350.9128158184722
 20
375.2072219903286
 30
0.0
 10
350.907828392019
 20
375.2068724766906
 30
0.0
 10
350.9050274833004
 20
375.2066770518559
 30
0.0
 10
350.8895194369985
 20
375.2056024313833
 30
0.0
 10
350.8723469621354
 20
375.2044309094285
 30
0.0
 10
350.8449739617799
 20
375.2026660915777
 30
0.0
 10
350.8391909296473
 20
375.2022974811415
 30
0.0
 10
350.8271253649659
 20
375.2015391686821
 30
0.0
 10
350.8208337258853
 20
375.2011488657128
 30
0.0
 10
350.8011939424297
 20
375.1999493668142
 30
0.0
 10
350.7870696898377
 20
375.199110839728
 30
0.0
 10
350.7719612460923
 20
375.1982483469262
 30
0.0
  0
SPLINE
  5
150
330
1F
100
AcDbEntity
  8
1
100
AcDbSpline
210
0.0
220
0.0
230
1.0
 70
     9
 71
     3
 72
   118
 73
   114
 74
     0
 42
0.000000001
 43
0.0000000001
 40
0.0
 40
0.0
 40
0.0
 40
0.0
 40
0.0312499999999986
 40
0.0312499999999986
 40
0.0390624999999979
 40
0.0390624999999979
 40
0.0468749999999972
 40
0.0468749999999972
 40
0.0624999999999959
 40
0.0624999999999959
 40
0.0937499999999923
 40
0.0937499999999923
 40
0.1015624999999916
 40
0.1015624999999916
 40
0.1093749999999909
 40
0.1249999999999898
 40
0.1406249999999888
 40
0.1406249999999888
 40
0.1484374999999882
 40
0.1484374999999882
 40
0.1562499999999876
 40
0.1562499999999876
 40
0.1874999999999859
 40
0.1874999999999859
 40
0.2031249999999854
 40
0.2031249999999854
 40
0.218749999999985
 40
0.2343749999999845
 40
0.2343749999999845
 40
0.249999999999984
 40
0.249999999999984
 40
0.2812499999999849
 40
0.2812499999999849
 40
0.2968749999999863
 40
0.2968749999999863
 40
0.3124999999999876
 40
0.3124999999999876
 40
0.3437499999999905
 40
0.3437499999999905
 40
0.3593749999999907
 40
0.3593749999999907
 40
0.3749999999999911
 40
0.3749999999999911
 40
0.4062499999999917
 40
0.4062499999999917
 40
0.4140624999999912
 40
0.4140624999999912
 40
0.4218749999999907
 40
0.4374999999999899
 40
0.4531249999999891
 40
0.4531249999999891
 40
0.4687499999999881
 40
0.4687499999999881
 40
0.4999999999999847
 40
0.4999999999999847
 40
0.5156249999999828
 40
0.5156249999999828
 40
0.5234374999999826
 40
0.5234374999999826
 40
0.5312499999999825
 40
0.5312499999999825
 40
0.5624999999999807
 40
0.5624999999999807
 40
0.57812499999998
 40
0.57812499999998
 40
0.5859374999999796
 40
0.5859374999999796
 40
0.5937499999999793
 40
0.5937499999999793
 40
0.6249999999999778
 40
0.6249999999999778
 40
0.6328124999999774
 40
0.6328124999999774
 40
0.6406249999999769
 40
0.6562499999999762
 40
0.6718749999999755
 40
0.6718749999999755
 40
0.6874999999999748
 40
0.6874999999999748
 40
0.7187499999999735
 40
0.7187499999999735
 40
0.7343749999999729
 40
0.7343749999999729
 40
0.7499999999999721
 40
0.7656249999999714
 40
0.7656249999999714
 40
0.773437499999972
 40
0.773437499999972
 40
0.7812499999999725
 40
0.7812499999999725
 40
0.8124999999999726
 40
0.8124999999999726
 40
0.8281249999999726
 40
0.8281249999999726
 40
0.8359374999999738
 40
0.8359374999999738
 40
0.8437499999999749
 40
0.8437499999999749
 40
0.8749999999999822
 40
0.8749999999999822
 40
0.8906249999999856
 40
0.8906249999999856
 40
0.9062499999999891
 40
0.9062499999999891
 40
0.9374999999999964
 40
0.9374999999999964
 40
0.9453124999999968
 40
0.9453124999999968
 40
0.9531249999999968
 40
0.9531249999999968
 40
0.9687499999999971
 40
0.9687499999999971
 40
1.0
 40
1.0
 40
1.0
 40
1.0
 10
348.7043941722772
 20
356.9802025264822
 30
0.0
 10
348.7394246813726
 20
356.9738809958877
 30
0.0
 10
348.7707887310803
 20
356.9671588191296
 30
0.0
 10
348.8053386814053
 20
356.9583732180749
 30
0.0
 10
348.8120137440548
 20
356.9565967265122
 30
0.0
 10
348.8248831097102
 20
356.9530070803745
 30
0.0
 10
348.831089162607
 20
356.9511899437196
 30
0.0
 10
348.8487869242775
 20
356.945742735303
 30
0.0
 10
348.859416257066
 20
356.9421029024127
 30
0.0
 10
348.8878460220626
 20
356.9311887687456
 30
0.0
 10
348.9022256280812
 20
356.9239212186876
 30
0.0
 10
348.9141105282304
 20
356.9149228907976
 30
0.0
 10
348.9161743112271
 20
356.9131299569611
 30
0.0
 10
348.9196334657541
 20
356.9095993096973
 30
0.0
 10
348.9238398394625
 20
356.9043691742584
 30
0.0
 10
348.9260313554315
 20
356.8959822671253
 30
0.0
 10
348.9226785555842
 20
356.8896261676991
 30
0.0
 10
348.9182027508837
 20
356.8849921058622
 30
0.0
 10
348.9163759199382
 20
356.8834649796936
 30
0.0
 10
348.912095135427
 20
356.8804833140986
 30
0.0
 10
348.9096435997893
 20
356.8790283165701
 30
0.0
 10
348.8958674632863
 20
356.8719250054124
 30
0.0
 10
348.8800331383858
 20
356.866789306515
 30
0.0
 10
348.8492008983564
 20
356.8597954825079
 30
0.0
 10
348.8376864673988
 20
356.8575784504073
 30
0.0
 10
348.8128015038346
 20
356.8534555246192
 30
0.0
 10
348.7859653224609
 20
356.8496171237488
 30
0.0
 10
348.7553574004654
 20
356.8462826672753
 30
0.0
 10
348.7228718994313
 20
356.8431742625061
 30
0.0
 10
348.7055960131884
 20
356.841727034208
 30
0.0
 10
348.6518632156514
 20
356.8377612279245
 30
0.0
 10
348.6134213294968
 20
356.8355959994662
 30
0.0
 10
348.5520091130867
 20
356.8328936640225
 30
0.0
 10
348.5308715180208
 20
356.832083653892
 30
0.0
 10
348.487469205889
 20
356.8306353495125
 30
0.0
 10
348.4654537216068
 20
356.8300048781279
 30
0.0
 10
348.3985026046898
 20
356.8283569772075
 30
0.0
 10
348.3526700923047
 20
356.8275793546192
 30
0.0
 10
348.2821234092489
 20
356.8268219141095
 30
0.0
 10
348.2582204491349
 20
356.8266387019547
 30
0.0
 10
348.2106971789601
 20
356.8264122775583
 30
0.0
 10
348.186983954531
 20
356.8263675889989
 30
0.0
 10
348.1159864784459
 20
356.8264325834591
 30
0.0
 10
348.0688431354779
 20
356.8267372421922
 30
0.0
 10
348.0101584324563
 20
356.8274833505183
 30
0.0
 10
347.9984254803232
 20
356.8276514144881
 30
0.0
 10
347.9752243440482
 20
356.8280227382257
 30
0.0
 10
347.9407309828068
 20
356.8286338810994
 30
0.0
 10
347.8847577469143
 20
356.8299292848966
 30
0.0
 10
347.8415873296653
 20
356.8312893322194
 30
0.0
 10
347.7992390656432
 20
356.8328334608735
 30
0.0
 10
347.7784439230704
 20
356.8336990232802
 30
0.0
 10
347.7175555437165
 20
356.8366098535971
 30
0.0
 10
347.6800266387386
 20
356.8389130135427
 30
0.0
 10
347.6282814558343
 20
356.8430505423603
 30
0.0
 10
347.6117964058016
 20
356.8445442751142
 30
0.0
 10
347.5882591931569
 20
356.8469826433441
 30
0.0
 10
347.5806122247255
 20
356.8478284634075
 30
0.0
 10
347.5657284048363
 20
356.8495914611815
 30
0.0
 10
347.5585044936721
 20
356.8505075499575
 30
0.0
 10
347.5238536054728
 20
356.8552201433198
 30
0.0
 10
347.5004387930302
 20
356.859450786095
 30
0.0
 10
347.4718519192199
 20
356.8666263804964
 30
0.0
 10
347.4634199326758
 20
356.8691570689507
 30
0.0
 10
347.4525053426286
 20
356.8731855189946
 30
0.0
 10
347.4491673046423
 20
356.874564234846
 30
0.0
 10
347.4431559315178
 20
356.8773664368932
 30
0.0
 10
347.4404715668263
 20
356.878793847882
 30
0.0
 10
347.4286365540837
 20
356.8860643260921
 30
0.0
 10
347.4241979154292
 20
356.8923067576715
 30
0.0
 10
347.4251063467165
 20
356.9006804877686
 30
0.0
 10
347.425616948605
 20
356.9023891333152
 30
0.0
 10
347.4272913342062
 20
356.9058367500294
 30
0.0
 10
347.4307752459958
 20
356.9110454884492
 30
0.0
 10
347.4413104935828
 20
356.9199049665761
 30
0.0
 10
347.4546701309297
 20
356.9271610483052
 30
0.0
 10
347.4705149446177
 20
356.9344883207903
 30
0.0
 10
347.4797327475392
 20
356.9382024710743
 30
0.0
 10
347.5104987453227
 20
356.9491802401063
 30
0.0
 10
347.5352434412148
 20
356.9563521903675
 30
0.0
 10
347.5784654649244
 20
356.9667675206579
 30
0.0
 10
347.5939879435339
 20
356.9701984788468
 30
0.0
 10
347.6265358518144
 20
356.976800123371
 30
0.0
 10
347.6606161519194
 20
356.9831558939524
 30
0.0
 10
347.6976428327442
 20
356.9889903060808
 30
0.0
 10
347.7265067364535
 20
356.9931546282571
 30
0.0
 10
347.7363106848958
 20
356.9945074365766
 30
0.0
 10
347.7562860004235
 20
356.997139130433
 30
0.0
 10
347.7664809490474
 20
356.9984207942338
 30
0.0
 10
347.8180902118831
 20
357.0045997828316
 30
0.0
 10
347.8610687627378
 20
357.0087802548871
 30
0.0
 10
347.9279341430918
 20
357.0138595261937
 30
0.0
 10
347.950625181504
 20
357.0153531160311
 30
0.0
 10
347.9852738096344
 20
357.0172797101198
 30
0.0
 10
347.9969532156759
 20
357.0178707526842
 30
0.0
 10
348.0203748653892
 20
357.0189385033025
 30
0.0
 10
348.0321016275793
 20
357.0194148348684
 30
0.0
 10
348.090813507381
 20
357.0215118116644
 30
0.0
 10
348.1380307715874
 20
357.0222833003135
 30
0.0
 10
348.2092230892931
 20
357.0220787187394
 30
0.0
 10
348.233015330584
 20
357.0217826121147
 30
0.0
 10
348.2807269022319
 20
357.0207220804576
 30
0.0
 10
348.3043346682531
 20
357.0199640890474
 30
0.0
 10
348.3742019592577
 20
357.0170434076117
 30
0.0
 10
348.4196175900938
 20
357.0142353972954
 30
0.0
 10
348.4749047416557
 20
357.0096931830444
 30
0.0
 10
348.4858874239113
 20
357.0087328327626
 30
0.0
 10
348.5076999121068
 20
357.0067081941577
 30
0.0
 10
348.5185548597684
 20
357.0056411365658
 30
0.0
 10
348.550603789838
 20
357.0023130639588
 30
0.0
 10
348.5713348254217
 20
356.9999217958655
 30
0.0
 10
348.6316419841643
 20
356.9922671073562
 30
0.0
 10
348.6693636631816
 20
356.9865240570767
 30
0.0
 10
348.7043941722772
 20
356.9802025264822
 30
0.0
  0
SPLINE
  5
151
330
1F
100
AcDbEntity
  8
1
100
AcDbSpline
210
0.0
220
0.0
230
1.0
 70
    12
 71
     2
 72
     6
 73
     3
 74
     0
 42
0.000000001
 43
0.0000000001
 40
0.0
 40
0.0
 40
0.0
 40
1.0
 40
1.0
 40
1.0
 10
352.7391532778122
 20
356.8288274644638
 30
0.0
 41
0.5000000126584215
 10
352.7614541782611
 20
356.8286419262752
 30
0.0
 41
0.4999999873415785
 10
352.7837571500898
 20
356.8284580450651
 30
0.0
 41
0.5000000126584215
  0
SPLINE
  5
152
330
1F
100
AcDbEntity
  8
1
100
AcDbSpline
210
0.0
220
0.0
230
1.0
 70
     8
 71
     3
 72
    80
 73
    76
 74
     0
 42
0.000000001
 43
0.0000000001
 40
0.0
 40
0.0
 40
0.0
 40
0.0
 40
0.0624999999999987
 40
0.0624999999999987
 40
0.1249999999999973
 40
0.1249999999999973
 40
0.187499999999996
 40
0.187499999999996
 40
0.2499999999999947
 40
0.2499999999999947
 40
0.3124999999999933
 40
0.3124999999999933
 40
0.3437499999999927
 40
0.3437499999999927
 40
0.374999999999992
 40
0.374999999999992
 40
0.4374999999999898
 40
0.4374999999999898
 40
0.4531249999999897
 40
0.4531249999999897
 40
0.4687499999999896
 40
0.4687499999999896
 40
0.4999999999999892
 40
0.4999999999999892
 40
0.5312499999999889
 40
0.5312499999999889
 40
0.5624999999999886
 40
0.5624999999999886
 40
0.5703124999999886
 40
0.5703124999999886
 40
0.5781249999999887
 40
0.5781249999999887
 40
0.5937499999999885
 40
0.5937499999999885
 40
0.6249999999999877
 40
0.6249999999999877
 40
0.6406249999999875
 40
0.6406249999999875
 40
0.6484374999999874
 40
0.6484374999999874
 40
0.6562499999999874
 40
0.6562499999999874
 40
0.6874999999999876
 40
0.6874999999999876
 40
0.7031249999999877
 40
0.7031249999999877
 40
0.7109374999999878
 40
0.7109374999999878
 40
0.718749999999988
 40
0.718749999999988
 40
0.7499999999999894
 40
0.7499999999999894
 40
0.7656249999999899
 40
0.7656249999999899
 40
0.7734374999999902
 40
0.7734374999999902
 40
0.7812499999999904
 40
0.7812499999999904
 40
0.8124999999999921
 40
0.8124999999999921
 40
0.8437499999999937
 40
0.8437499999999937
 40
0.8593749999999946
 40
0.8593749999999946
 40
0.8749999999999955
 40
0.8749999999999955
 40
0.9062499999999971
 40
0.9062499999999971
 40
0.9374999999999987
 40
0.9374999999999987
 40
0.9531249999999989
 40
0.9531249999999989
 40
0.9687499999999992
 40
0.9687499999999992
 40
1.0
 40
1.0
 40
1.0
 40
1.0
 10
352.0121020719239
 20
374.7236473782364
 30
0.0
 10
351.8304146605312
 20
374.7009366178627
 30
0.0
 10
351.649697797046
 20
374.6768364703791
 30
0.0
 10
351.2905034883055
 20
374.6253817788742
 30
0.0
 10
351.1120250610779
 20
374.5980289123602
 30
0.0
 10
350.7576876029597
 20
374.5394556350519
 30
0.0
 10
350.5818269706385
 20
374.5082379616391
 30
0.0
 10
350.2332254947698
 20
374.4411181636012
 30
0.0
 10
350.0604818679903
 20
374.4052207949987
 30
0.0
 10
349.718798311696
 20
374.3276130860232
 30
0.0
 10
349.5498531292026
 20
374.2859117105403
 30
0.0
 10
349.3000244001272
 20
374.2177734519972
 30
0.0
 10
349.2173167076192
 20
374.19411514784
 30
0.0
 10
349.0534091268428
 20
374.1446845999434
 30
0.0
 10
348.9724157786519
 20
374.1189755492864
 30
0.0
 10
348.7326971101619
 20
374.0384420888362
 30
0.0
 10
348.5771864497048
 20
373.9802641552013
 30
0.0
 10
348.3899784392603
 20
373.8999071143541
 30
0.0
 10
348.3528995307298
 20
373.8834498203579
 30
0.0
 10
348.2795296172394
 20
373.8496932011748
 30
0.0
 10
348.2432667877542
 20
373.8324054132091
 30
0.0
 10
348.1362060534087
 20
373.7793885533509
 30
0.0
 10
348.0669958162036
 20
373.7424499946986
 30
0.0
 10
347.9336110921481
 20
373.6648297110261
 30
0.0
 10
347.8694331346129
 20
373.6241506268251
 30
0.0
 10
347.7470565037797
 20
373.5383120887047
 30
0.0
 10
347.6888514621028
 20
373.4931574476133
 30
0.0
 10
347.6206591399448
 20
373.4332708689866
 30
0.0
 10
347.6072501136227
 20
373.4211204415236
 30
0.0
 10
347.5809174070619
 20
373.3964528628133
 30
0.0
 10
347.5679960710497
 20
373.3839363633139
 30
0.0
 10
347.5302077696142
 20
373.3460174422641
 30
0.0
 10
347.5062439694908
 20
373.3201802399881
 30
0.0
 10
347.4383146283823
 20
373.2408639463343
 30
0.0
 10
347.3982898122226
 20
373.1855894436736
 30
0.0
 10
347.3475654879738
 20
373.0984212564728
 30
0.0
 10
347.3322142730943
 20
373.0686537161056
 30
0.0
 10
347.3117569627058
 20
373.0228281289094
 30
0.0
 10
347.3053743753447
 20
373.0073677668605
 30
0.0
 10
347.2936068348353
 20
372.9763236891749
 30
0.0
 10
347.2882064278731
 20
372.9607065945195
 30
0.0
 10
347.2636499915774
 20
372.8821409297743
 30
0.0
 10
347.2518140233147
 20
372.8177533200725
 30
0.0
 10
347.2465119587539
 20
372.718757893274
 30
0.0
 10
347.246823161971
 20
372.685356784123
 30
0.0
 10
347.2505360372744
 20
372.6346339764373
 30
0.0
 10
347.2523149609115
 20
372.6176228239823
 30
0.0
 10
347.2569806105282
 20
372.5833902094633
 30
0.0
 10
347.2598730357705
 20
372.5661583031379
 30
0.0
 10
347.2769451150593
 20
372.4804360772723
 30
0.0
 10
347.2990125041276
 20
372.4124898487343
 30
0.0
 10
347.3437454277252
 20
372.3115423289458
 30
0.0
 10
347.3606002608396
 20
372.2780557646523
 30
0.0
 10
347.3887180476199
 20
372.2280785052232
 30
0.0
 10
347.3985635057096
 20
372.2114615549093
 30
0.0
 10
347.4191899315879
 20
372.1783138344668
 30
0.0
 10
347.4299629874833
 20
372.1617997529652
 30
0.0
 10
347.485630933128
 20
372.0801555898535
 30
0.0
 10
347.5362487223273
 20
372.0172188086198
 30
0.0
 10
347.6478388827845
 20
371.8955626887149
 30
0.0
 10
347.7088220025959
 20
371.8368471879379
 30
0.0
 10
347.8072148466055
 20
371.7517232786905
 30
0.0
 10
347.841265326184
 20
371.723771693809
 30
0.0
 10
347.9108256258941
 20
371.6694036476738
 30
0.0
 10
347.9463880121443
 20
371.6429335762291
 30
0.0
 10
348.0552266375637
 20
371.5655168272399
 30
0.0
 10
348.1306453667933
 20
371.516556248048
 30
0.0
 10
348.2864436013868
 20
371.4233769104437
 30
0.0
 10
348.3668269577179
 20
371.379161306719
 30
0.0
 10
348.4907456104677
 20
371.316132313835
 30
0.0
 10
348.532610669462
 20
371.2956730093912
 30
0.0
 10
348.617410608772
 20
371.2558237685186
 30
0.0
 10
348.6603878183565
 20
371.2364157625161
 30
0.0
 10
348.7905459388918
 20
371.1798960558324
 30
0.0
 10
348.8788096998837
 20
371.1445387958637
 30
0.0
 10
348.9684297544544
 20
371.1113432797829
 30
0.0
  0
SPLINE
  5
153
330
1F
100
AcDbEntity
  8
1
100
AcDbSpline
210
0.0
220
0.0
230
1.0
 70
     8
 71
     3
 72
    35
 73
    31
 74
     0
 42
0.000000001
 43
0.0000000001
 40
0.0
 40
0.0
 40
0.0
 40
0.0
 40
0.0257022032142916
 40
0.0257022032142916
 40
0.0622625968922623
 40
0.0622625968922623
 40
0.0988229905702331
 40
0.1719437779261824
 40
0.2450645652821317
 40
0.2450645652821317
 40
0.2816249589601028
 40
0.2816249589601028
 40
0.3181853526380738
 40
0.3181853526380738
 40
0.4644269273499456
 40
0.4644269273499456
 40
0.5375477147058812
 40
0.5375477147058812
 40
0.5741081083838468
 40
0.5741081083838468
 40
0.6106685020618126
 40
0.6106685020618126
 40
0.7569100767736758
 40
0.7569100767736758
 40
0.9031516514855388
 40
0.9031516514855388
 40
0.9397120451635046
 40
0.9397120451635046
 40
0.9762724388414703
 40
1.0
 40
1.0
 40
1.0
 40
1.0
 10
353.4371851924868
 20
375.1642853646699
 30
0.0
 10
353.4291143979282
 20
375.1647251229468
 30
0.0
 10
353.4210979858368
 20
375.1651747729075
 30
0.0
 10
353.401810201331
 20
375.1662866947421
 30
0.0
 10
353.3906145705277
 20
375.1669575504478
 30
0.0
 10
353.3686543244036
 20
375.1683203523246
 30
0.0
 10
353.3362837839006
 20
375.1704006125328
 30
0.0
 10
353.2851062039588
 20
375.1740164015997
 30
0.0
 10
353.247027192532
 20
375.1770044153099
 30
0.0
 10
353.2195301426992
 20
375.1792584988722
 30
0.0
 10
353.2105417173995
 20
375.180012040191
 30
0.0
 10
353.1929202628651
 20
375.1815197164035
 30
0.0
 10
353.1842697200222
 20
375.1822754257003
 30
0.0
 10
353.142151368598
 20
375.1860245677453
 30
0.0
 10
353.1121449687238
 20
375.1889199185824
 30
0.0
 10
353.0722963596279
 20
375.1929561646195
 30
0.0
 10
353.0598786498097
 20
375.1942506574621
 30
0.0
 10
353.0425443049133
 20
375.1960981321225
 30
0.0
 10
353.0369818242249
 20
375.1966982483014
 30
0.0
 10
353.0262903894046
 20
375.197864074018
 30
0.0
 10
353.0211517892845
 20
375.198430865598
 30
0.0
 10
352.9966946003761
 20
375.2011554702008
 30
0.0
 10
352.9810563928089
 20
375.2029845651303
 30
0.0
 10
352.9572097041417
 20
375.2058502058541
 30
0.0
 10
352.9490031046559
 20
375.2068871373617
 30
0.0
 10
352.9434812051672
 20
375.2076326619
 30
0.0
 10
352.942617044262
 20
375.2077539706651
 30
0.0
 10
352.9413768231601
 20
375.2079392767679
 30
0.0
 10
352.9407530793916
 20
375.208045330094
 30
0.0
 10
352.9407760814743
 20
375.2080751078276
 30
0.0
 10
352.9408847929475
 20
375.208075088078
 30
0.0
  0
SPLINE
  5
154
330
1F
100
AcDbEntity
  8
1
100
AcDbSpline
210
0.0
220
0.0
230
1.0
 70
     8
 71
     3
 72
    29
 73
    25
 74
     0
 42
0.000000001
 43
0.0000000001
 40
0.0
 40
0.0
 40
0.0
 40
0.0
 40
0.131954213193017
 40
0.131954213193017
 40
0.2128796551591144
 40
0.2128796551591144
 40
0.2938050971252119
 40
0.2938050971252119
 40
0.3747305390913097
 40
0.3747305390913097
 40
0.4556559810574071
 40
0.5365814230235049
 40
0.5365814230235049
 40
0.6175068649896023
 40
0.6175068649896023
 40
0.6984323069556999
 40
0.6984323069556999
 40
0.7793577489217976
 40
0.7793577489217976
 40
0.860283190887895
 40
0.860283190887895
 40
0.9412086328539924
 40
0.9412086328539924
 40
1.0
 40
1.0
 40
1.0
 40
1.0
 10
352.9450173634137
 20
375.2077122211773
 30
0.0
 10
352.9487622111302
 20
375.2073361295017
 30
0.0
 10
352.9549950279451
 20
375.2066697010928
 30
0.0
 10
352.9691382950472
 20
375.2051413133355
 30
0.0
 10
352.9754967377523
 20
375.2044519781484
 30
0.0
 10
352.9900607366484
 20
375.2028820519217
 30
0.0
 10
352.9982586328596
 20
375.2020022916
 30
0.0
 10
353.0164914919865
 20
375.2000690542991
 30
0.0
 10
353.0265356099286
 20
375.1990146076666
 30
0.0
 10
353.0484625770334
 20
375.1967521903178
 30
0.0
 10
353.0721260139564
 20
375.1943468145158
 30
0.0
 10
353.0992762926043
 20
375.1917001540293
 30
0.0
 10
353.1282120117473
 20
375.1889556426509
 30
0.0
 10
353.1435184720979
 20
375.1875397511444
 30
0.0
 10
353.1757116493952
 20
375.1846580715397
 30
0.0
 10
353.1926149287518
 20
375.1831906649435
 30
0.0
 10
353.2280783158157
 20
375.1802307657239
 30
0.0
 10
353.2466093439566
 20
375.1787410162984
 30
0.0
 10
353.285043343151
 20
375.1757921284939
 30
0.0
 10
353.3049803783633
 20
375.174330065478
 30
0.0
 10
353.3463374643756
 20
375.1714618783408
 30
0.0
 10
353.3677284619147
 20
375.1700582378872
 30
0.0
 10
353.4056330015308
 20
375.1677323556442
 30
0.0
 10
353.4219032906973
 20
375.1667818030595
 30
0.0
 10
353.4385015523196
 20
375.1658654240323
 30
0.0
  0
SPLINE
  5
155
330
1F
100
AcDbEntity
  8
1
100
AcDbSpline
210
0.0
220
0.0
230
1.0
 70
     8
 71
     3
 72
    30
 73
    26
 74
     0
 42
0.000000001
 43
0.0000000001
 40
0.0
 40
0.0
 40
0.0
 40
0.0
 40
0.03410406462329
 40
0.03410406462329
 40
0.1084037519599588
 40
0.1084037519599588
 40
0.1827034392966276
 40
0.1827034392966276
 40
0.2570031266332962
 40
0.2570031266332962
 40
0.331302813969965
 40
0.331302813969965
 40
0.4056025013066338
 40
0.4056025013066338
 40
0.4799021886433027
 40
0.4799021886433027
 40
0.5542018759799712
 40
0.5542018759799712
 40
0.6285015633166401
 40
0.6285015633166401
 40
0.7028012506533089
 40
0.7028012506533089
 40
0.8514006253266542
 40
0.8514006253266542
 40
1.0
 40
1.0
 40
1.0
 40
1.0
 10
350.8155484269329
 20
356.8080751790321
 30
0.0
 10
350.8211974053176
 20
356.8080764130477
 30
0.0
 10
350.8271128725633
 20
356.8081031184325
 30
0.0
 10
350.8467548099315
 20
356.8082656212632
 30
0.0
 10
350.8613539346068
 20
356.8084915910859
 30
0.0
 10
350.8927683974218
 20
356.8091385882933
 30
0.0
 10
350.9096210046397
 20
356.8095607431536
 30
0.0
 10
350.945351476203
 20
356.8105626196905
 30
0.0
 10
350.9641974529935
 20
356.8111411448084
 30
0.0
 10
351.0038181183436
 20
356.8124171052311
 30
0.0
 10
351.0246381593587
 20
356.8131161530565
 30
0.0
 10
351.0678978735145
 20
356.8145875628575
 30
0.0
 10
351.090352074328
 20
356.8153603201902
 30
0.0
 10
351.1369000538313
 20
356.816944284071
 30
0.0
 10
351.1610170678855
 20
356.8177561881773
 30
0.0
 10
351.2105002778148
 20
356.8193706764652
 30
0.0
 10
351.2359113582673
 20
356.8201748537869
 30
0.0
 10
351.2880821407228
 20
356.821744063907
 30
0.0
 10
351.314803262952
 20
356.8225077101669
 30
0.0
 10
351.3691706016385
 20
356.8239527627017
 30
0.0
 10
351.3968653400836
 20
356.8246356925805
 30
0.0
 10
351.4815134351157
 20
356.8265231380491
 30
0.0
 10
351.5393356090324
 20
356.8275495584205
 30
0.0
 10
351.6576111140633
 20
356.82896032628
 30
0.0
 10
351.717220157355
 20
356.8293343779769
 30
0.0
 10
351.7773204529588
 20
356.8293343779769
 30
0.0
  0
SPLINE
  5
156
330
1F
100
AcDbEntity
  8
1
100
AcDbSpline
210
0.0
220
0.0
230
1.0
 70
     8
 71
     3
 72
    13
 73
     9
 74
     0
 42
0.000000001
 43
0.0000000001
 40
0.0
 40
0.0
 40
0.0
 40
0.0
 40
0.2382413485034953
 40
0.2382413485034953
 40
0.4921608990023302
 40
0.4921608990023302
 40
0.7460804495011651
 40
1.0
 40
1.0
 40
1.0
 40
1.0
 10
362.4774289248926
 20
372.6144358610923
 30
0.0
 10
362.5011858980369
 20
372.6074874530619
 30
0.0
 10
362.5240577602301
 20
372.5987713946239
 30
0.0
 10
362.5695443235433
 20
372.577249527285
 30
0.0
 10
362.592080400103
 20
372.5641859867346
 30
0.0
 10
362.6349770600758
 20
372.5341436676936
 30
0.0
 10
362.6746355400949
 20
372.5009497333655
 30
0.0
 10
362.7081151418416
 20
372.4617704653565
 30
0.0
 10
362.7232586621029
 20
372.440644422727
 30
0.0
  0
SPLINE
  5
157
330
1F
100
AcDbEntity
  8
1
100
AcDbSpline
210
0.0
220
0.0
230
1.0
 70
     8
 71
     3
 72
    24
 73
    20
 74
     0
 42
0.000000001
 43
0.0000000001
 40
0.0
 40
0.0
 40
0.0
 40
0.0
 40
0.0900881324852912
 40
0.0900881324852912
 40
0.1801762649705826
 40
0.1801762649705826
 40
0.3603525299411655
 40
0.3603525299411655
 40
0.450440662426457
 40
0.450440662426457
 40
0.5405287949117485
 40
0.5405287949117485
 40
0.7207050598823313
 40
0.7207050598823313
 40
0.8107931923676446
 40
0.8107931923676446
 40
0.900881324852958
 40
0.900881324852958
 40
1.0
 40
1.0
 40
1.0
 40
1.0
 10
362.0976597348914
 20
370.0462139241095
 30
0.0
 10
362.1049684024563
 20
370.0564708330184
 30
0.0
 10
362.1127383144388
 20
370.0664449635916
 30
0.0
 10
362.1290927431843
 20
370.0856653880621
 30
0.0
 10
362.1376608965602
 20
370.0948968984831
 30
0.0
 10
362.1645457909082
 20
370.1214644566396
 30
0.0
 10
362.1840338083474
 20
370.1376821148597
 30
0.0
 10
362.2157984154033
 20
370.1596583565935
 30
0.0
 10
362.2268418772997
 20
370.166601160783
 30
0.0
 10
362.2493818179831
 20
370.1794180057906
 30
0.0
 10
362.2609244969309
 20
370.1853276558741
 30
0.0
 10
362.2963714122422
 20
370.2015711034909
 30
0.0
 10
362.3210894213386
 20
370.2104302716438
 30
0.0
 10
362.3598885856831
 20
370.2206192101447
 30
0.0
 10
362.3729923330792
 20
370.2234609125459
 30
0.0
 10
362.3992486639943
 20
370.2280088016706
 30
0.0
 10
362.4124455029957
 20
370.2297267973881
 30
0.0
 10
362.4403019639028
 20
370.2321943028069
 30
0.0
 10
362.4549752687889
 20
370.2328328110765
 30
0.0
 10
362.469728412598
 20
370.2328117639158
 30
0.0
  0
SPLINE
  5
158
330
1F
100
AcDbEntity
  8
1
100
AcDbSpline
210
0.0
220
0.0
230
1.0
 70
     8
 71
     3
 72
    10
 73
     6
 74
     0
 42
0.000000001
 43
0.0000000001
 40
0.0
 40
0.0
 40
0.0
 40
0.0
 40
0.5
 40
0.5
 40
1.0
 40
1.0
 40
1.0
 40
1.0
 10
362.0829642022213
 20
369.9941866883595
 30
0.0
 10
362.0824478210951
 20
370.0035442827272
 30
0.0
 10
362.0834330448062
 20
370.0127304957265
 30
0.0
 10
362.0884124003632
 20
370.0304670707392
 30
0.0
 10
362.0922942587487
 20
370.0386840700615
 30
0.0
 10
362.0976597348914
 20
370.0462139241095
 30
0.0
  0
SPLINE
  5
159
330
1F
100
AcDbEntity
  8
1
100
AcDbSpline
210
0.0
220
0.0
230
1.0
 70
     8
 71
     3
 72
    18
 73
    14
 74
     0
 42
0.000000001
 43
0.0000000001
 40
0.0
 40
0.0
 40
0.0
 40
0.0
 40
0.2499999999999994
 40
0.2499999999999994
 40
0.3749999999999998
 40
0.3749999999999998
 40
0.5
 40
0.5
 40
0.6250000000000002
 40
0.6250000000000002
 40
0.7500000000000006
 40
0.7500000000000006
 40
1.0
 40
1.0
 40
1.0
 40
1.0
 10
362.0829642022213
 20
369.9941866883595
 30
0.0
 10
362.0834216029842
 20
369.9858979059347
 30
0.0
 10
362.0826752675029
 20
369.9776250167545
 30
0.0
 10
362.0798359547688
 20
369.9658174962715
 30
0.0
 10
362.0786063249446
 20
369.9619757875601
 30
0.0
 10
362.0755689542335
 20
369.9544852919989
 30
0.0
 10
362.0737440103264
 20
369.9508123956952
 30
0.0
 10
362.0695888027903
 20
369.9438637355533
 30
0.0
 10
362.0672568745431
 20
369.9405715544866
 30
0.0
 10
362.0620785355659
 20
369.9343569756879
 30
0.0
 10
362.05920927484
 20
369.9314151969931
 30
0.0
 10
362.04993692793
 20
369.923333164754
 30
0.0
 10
362.0429915363081
 20
369.9189844684327
 30
0.0
 10
362.0352361968372
 20
369.9157444807605
 30
0.0
  0
SPLINE
  5
15A
330
1F
100
AcDbEntity
  8
1
100
AcDbSpline
210
0.0
220
0.0
230
1.0
 70
     8
 71
     3
 72
    12
 73
     8
 74
     0
 42
0.000000001
 43
0.0000000001
 40
0.0
 40
0.0
 40
0.0
 40
0.0
 40
0.1836301793141501
 40
0.1836301793141501
 40
0.5918150896570751
 40
0.5918150896570751
 40
1.0
 40
1.0
 40
1.0
 40
1.0
 10
361.6954996192538
 20
372.2815372296859
 30
0.0
 10
361.6839792956811
 20
372.2815544596134
 30
0.0
 10
361.6724799123844
 20
372.2820127618247
 30
0.0
 10
361.6354808349678
 20
372.2849208866779
 30
0.0
 10
361.6107255463181
 20
372.2890753503013
 30
0.0
 10
361.5628684561984
 20
372.3013199055387
 30
0.0
 10
361.5397118863274
 20
372.3094165556482
 30
0.0
 10
361.5172921641227
 20
372.319495440555
 30
0.0
  0
SPLINE
  5
15B
330
1F
100
AcDbEntity
  8
1
100
AcDbSpline
210
0.0
220
0.0
230
1.0
 70
     8
 71
     3
 72
    12
 73
     8
 74
     0
 42
0.000000001
 43
0.0000000001
 40
0.0
 40
0.0
 40
0.0
 40
0.0
 40
0.3664017387436017
 40
0.3664017387436017
 40
0.7328034774872034
 40
0.7328034774872034
 40
1.0
 40
1.0
 40
1.0
 40
1.0
 10
361.5172921641227
 20
372.319495440555
 30
0.0
 10
361.5131757705792
 20
372.3213459834108
 30
0.0
 10
361.5093009018293
 20
372.323533962719
 30
0.0
 10
361.5020032456718
 20
372.3285448313153
 30
0.0
 10
361.4985622922965
 20
372.3313865808288
 30
0.0
 10
361.493083290197
 20
372.3367890115071
 30
0.0
 10
361.4909322601302
 20
372.3391935791516
 30
0.0
 10
361.488940105201
 20
372.3417240707803
 30
0.0
  0
SPLINE
  5
15C
330
1F
100
AcDbEntity
  8
1
100
AcDbSpline
210
0.0
220
0.0
230
1.0
 70
     8
 71
     3
 72
     8
 73
     4
 74
     0
 42
0.000000001
 43
0.0000000001
 40
0.0
 40
0.0
 40
0.0
 40
0.0
 40
1.0
 40
1.0
 40
1.0
 40
1.0
 10
362.0352361968372
 20
369.9157444807606
 30
0.0
 10
362.0193069722815
 20
369.9090896474834
 30
0.0
 10
362.0030935307116
 20
369.9033908516363
 30
0.0
 10
361.9866028482928
 20
369.8986337487741
 30
0.0
  0
SPLINE
  5
160
330
1F
100
AcDbEntity
  8
1
100
AcDbSpline
210
0.0
220
0.0
230
1.0
 70
     8
 71
     3
 72
    11
 73
     7
 74
     0
 42
0.000000001
 43
0.0000000001
 40
0.0
 40
0.0
 40
0.0
 40
0.0
 40
0.2179564431000179
 40
0.5523272003977475
 40
0.8875582362580185
 40
1.0
 40
1.0
 40
1.0
 40
1.0
 10
361.0511381617727
 20
362.5074413499481
 30
0.0
 10
361.0871843159641
 20
362.5278392406496
 30
0.0
 10
361.1800701208579
 20
362.5765234940194
 30
0.0
 10
361.3348460387748
 20
362.6421245268016
 30
0.0
 10
361.4758432556208
 20
362.6861407478208
 30
0.0
 10
361.5578216446185
 20
362.70567928585
 30
0.0
 10
361.5784819211399
 20
362.7102475505889
 30
0.0
  0
SPLINE
  5
161
330
1F
100
AcDbEntity
  8
1
100
AcDbSpline
210
0.0
220
0.0
230
1.0
 70
     8
 71
     3
 72
    40
 73
    36
 74
     0
 42
0.000000001
 43
0.0000000001
 40
0.0
 40
0.0
 40
0.0
 40
0.0
 40
0.0960234834780821
 40
0.2041208990723052
 40
0.3122071649986368
 40
0.4202883587931556
 40
0.4233092628798387
 40
0.427542260284554
 40
0.4329873508858786
 40
0.4396445343656203
 40
0.4475138102306619
 40
0.4565951778202046
 40
0.4668886363087982
 40
0.4783941847077239
 40
0.4911118218657271
 40
0.5050415464694737
 40
0.5201833570437718
 40
0.5365372519517198
 40
0.5541032293948428
 40
0.5728812874131517
 40
0.5928714238851689
 40
0.6140736365279947
 40
0.6364879228973114
 40
0.6601142803874219
 40
0.6849527062312485
 40
0.7110031975003455
 40
0.7382657511049118
 40
0.7667403637938051
 40
0.796427032154531
 40
0.8273257526132697
 40
0.8594365214348512
 40
0.8927593347228022
 40
0.9272941884192904
 40
0.9630410783051768
 40
1.0
 40
1.0
 40
1.0
 40
1.0
 10
353.3572293624073
 20
375.041228208239
 30
0.0
 10
353.3527204301234
 20
375.0318753598774
 30
0.0
 10
353.3436674056411
 20
375.0117282301282
 30
0.0
 10
353.3316023309337
 20
374.980163040796
 30
0.0
 10
353.3210748587336
 20
374.9466703651955
 30
0.0
 10
353.3153391163551
 20
374.9236327453337
 30
0.0
 10
353.3127008047677
 20
374.9114297590091
 30
0.0
 10
353.3124130249337
 20
374.9100855249561
 30
0.0
 10
353.3120475125069
 20
374.9083553510344
 30
0.0
 10
353.3116077810221
 20
374.906238483765
 30
0.0
 10
353.3110981350586
 20
374.9037340350451
 30
0.0
 10
353.3105236687428
 20
374.9008409877081
 30
0.0
 10
353.3098902705958
 20
374.8975582167488
 30
0.0
 10
353.3092046265188
 20
374.8938845087261
 30
0.0
 10
353.3084742236932
 20
374.8898185855521
 30
0.0
 10
353.3077073543048
 20
374.8853591305785
 30
0.0
 10
353.3069131192909
 20
374.8805048176879
 30
0.0
 10
353.3061014318648
 20
374.8752543431803
 30
0.0
 10
353.3052830207029
 20
374.8696064605387
 30
0.0
 10
353.3044694326147
 20
374.8635600180612
 30
0.0
 10
353.3036730345234
 20
374.8571139993714
 30
0.0
 10
353.3029070145587
 20
374.8502675668051
 30
0.0
 10
353.3021853820699
 20
374.8430201076684
 30
0.0
 10
353.3015229662849
 20
374.8353712833493
 30
0.0
 10
353.3009354135946
 20
374.8273210812811
 30
0.0
 10
353.3004391823762
 20
374.8188698696302
 30
0.0
 10
353.3000515384515
 20
374.8100184550443
 30
0.0
 10
353.2997905375034
 20
374.8007681418751
 30
0.0
 10
353.2996750476048
 20
374.7911207988836
 30
0.0
 10
353.2997245991333
 20
374.7810789091583
 30
0.0
 10
353.2999599041145
 20
374.7706456990002
 30
0.0
 10
353.3004007123989
 20
374.7598249664179
 30
0.0
 10
353.3010741580317
 20
374.7486221059986
 30
0.0
 10
353.3019817780634
 20
374.7370404330423
 30
0.0
 10
353.3027995920435
 20
374.7292080417151
 30
0.0
 10
353.303215315659
 20
374.7252265616733
 30
0.0
  0
SPLINE
  5
162
330
1F
100
AcDbEntity
  8
1
100
AcDbSpline
210
0.0
220
0.0
230
1.0
 70
     8
 71
     3
 72
    10
 73
     6
 74
     0
 42
0.000000001
 43
0.0000000001
 40
0.0
 40
0.0
 40
0.0
 40
0.0
 40
0.4220018695556211
 40
0.4220018695556211
 40
1.0
 40
1.0
 40
1.0
 40
1.0
 10
354.0404610477195
 20
372.3700787913274
 30
0.0
 10
354.0239316947757
 20
372.3968927570971
 30
0.0
 10
354.0075525808402
 20
372.4238049493027
 30
0.0
 10
353.9690466650589
 20
372.4877606327176
 30
0.0
 10
353.9470398250707
 20
372.5248689520443
 30
0.0
 10
353.9252489667384
 20
372.5621002378215
 30
0.0
  0
SPLINE
  5
163
330
1F
100
AcDbEntity
  8
1
100
AcDbSpline
210
0.0
220
0.0
230
1.0
 70
     8
 71
     3
 72
    16
 73
    12
 74
     0
 42
0.000000001
 43
0.0000000001
 40
0.0
 40
0.0
 40
0.0
 40
0.0
 40
0.25
 40
0.25
 40
0.5000000000000001
 40
0.5000000000000001
 40
0.625
 40
0.625
 40
0.7499999999999999
 40
0.7499999999999999
 40
1.0
 40
1.0
 40
1.0
 40
1.0
 10
363.4200469809877
 20
371.2991952980587
 30
0.0
 10
363.4164919727202
 20
371.2911288253373
 30
0.0
 10
363.4116804327202
 20
371.2837047230247
 30
0.0
 10
363.4002446197883
 20
371.2707535432405
 30
0.0
 10
363.393447267333
 20
371.2650636169757
 30
0.0
 10
363.3824481627549
 20
371.2582783989525
 30
0.0
 10
363.3786359164733
 20
371.2562881789862
 30
0.0
 10
363.3707232949076
 20
371.2528448072204
 30
0.0
 10
363.3665912786465
 20
371.2513856815641
 30
0.0
 10
363.3541012018662
 20
371.2479396708034
 30
0.0
 10
363.3455908703898
 20
371.2468192393814
 30
0.0
 10
363.3368957701376
 20
371.2468868206263
 30
0.0
  0
SPLINE
  5
164
330
1F
100
AcDbEntity
  8
1
100
AcDbSpline
210
0.0
220
0.0
230
1.0
 70
     8
 71
     3
 72
    12
 73
     8
 74
     0
 42
0.000000001
 43
0.0000000001
 40
0.0
 40
0.0
 40
0.0
 40
0.0
 40
0.2499999999999998
 40
0.2499999999999998
 40
0.4999999999999997
 40
0.4999999999999997
 40
1.0
 40
1.0
 40
1.0
 40
1.0
 10
363.282083518767
 20
371.2294745331287
 30
0.0
 10
363.2860746836891
 20
371.2323770486755
 30
0.0
 10
363.2902515758373
 20
371.2349095366321
 30
0.0
 10
363.2989549779062
 20
371.2392794493136
 30
0.0
 10
363.3035098283451
 20
371.2411250673729
 30
0.0
 10
363.3175166876581
 20
371.2455372565102
 30
0.0
 10
363.327089395993
 20
371.2469630390657
 30
0.0
 10
363.3368957701376
 20
371.2468868206263
 30
0.0
  0
SPLINE
  5
165
330
1F
100
AcDbEntity
  8
1
100
AcDbSpline
210
0.0
220
0.0
230
1.0
 70
     8
 71
     3
 72
    25
 73
    21
 74
     0
 42
0.000000001
 43
0.0000000001
 40
0.0
 40
0.0
 40
0.0
 40
0.0
 40
0.125
 40
0.125
 40
0.1875
 40
0.1875
 40
0.25
 40
0.25
 40
0.375
 40
0.375
 40
0.4375
 40
0.4375
 40
0.5
 40
0.5
 40
0.625
 40
0.625
 40
0.75
 40
0.75
 40
0.875
 40
1.0
 40
1.0
 40
1.0
 40
1.0
 10
363.2736655230591
 20
371.8725668636316
 30
0.0
 10
363.2949067463014
 20
371.8561402301881
 30
0.0
 10
363.3145374796334
 20
371.8381964185754
 30
0.0
 10
363.3416267016264
 20
371.8090601658587
 30
0.0
 10
363.3502616941869
 20
371.7989761700685
 30
0.0
 10
363.3667286098323
 20
371.7780515381498
 30
0.0
 10
363.3745863344523
 20
371.7671711761558
 30
0.0
 10
363.3967278726609
 20
371.7336318204702
 30
0.0
 10
363.4094398174535
 20
371.7103389478147
 30
0.0
 10
363.4255247524857
 20
371.6740402895323
 30
0.0
 10
363.4303866952071
 20
371.6617130271893
 30
0.0
 10
363.4390959880374
 20
371.6365961042007
 30
0.0
 10
363.4429536458367
 20
371.6237651405813
 30
0.0
 10
363.4528801469159
 20
371.5848338997779
 30
0.0
 10
363.4572322535976
 20
371.5586800609677
 30
0.0
 10
363.4615820540656
 20
371.5059890791078
 30
0.0
 10
363.4615755797831
 20
371.4794045276359
 30
0.0
 10
363.4570437569093
 20
371.4260320622503
 30
0.0
 10
363.4481221884163
 20
371.3737851151663
 30
0.0
 10
363.4308411985883
 20
371.3236878604578
 30
0.0
 10
363.4200469809877
 20
371.2991952980587
 30
0.0
  0
SPLINE
  5
166
330
1F
100
AcDbEntity
  8
1
100
AcDbSpline
210
0.0
220
0.0
230
1.0
 70
     8
 71
     3
 72
    18
 73
    14
 74
     0
 42
0.000000001
 43
0.0000000001
 40
0.0
 40
0.0
 40
0.0
 40
0.0
 40
0.2500000000000003
 40
0.2500000000000003
 40
0.3750000000000002
 40
0.3750000000000002
 40
0.5
 40
0.5
 40
0.6249999999999999
 40
0.6249999999999999
 40
0.7499999999999997
 40
0.7499999999999997
 40
1.0
 40
1.0
 40
1.0
 40
1.0
 10
363.1651924511893
 20
370.616771203863
 30
0.0
 10
363.1727523199993
 20
370.6125683523293
 30
0.0
 10
363.179696576363
 20
370.6073152471137
 30
0.0
 10
363.1887212310581
 20
370.5982565867391
 30
0.0
 10
363.1915048837355
 20
370.5950399316295
 30
0.0
 10
363.1966131488514
 20
370.5882042677202
 30
0.0
 10
363.198950337286
 20
370.5845568984162
 30
0.0
 10
363.2030211295073
 20
370.5770379767461
 30
0.0
 10
363.2047687148646
 20
370.5731553333074
 30
0.0
 10
363.2076806168607
 20
370.5651410589875
 30
0.0
 10
363.2088507116159
 20
370.5609782001848
 30
0.0
 10
363.211372415791
 20
370.5483179576231
 30
0.0
 10
363.2117549635563
 20
370.5397789368805
 30
0.0
 10
363.2107549376052
 20
370.5311368481263
 30
0.0
  0
SPLINE
  5
167
330
1F
100
AcDbEntity
  8
1
100
AcDbSpline
210
0.0
220
0.0
230
1.0
 70
     8
 71
     3
 72
    10
 73
     6
 74
     0
 42
0.000000001
 43
0.0000000001
 40
0.0
 40
0.0
 40
0.0
 40
0.0
 40
0.5
 40
0.5
 40
1.0
 40
1.0
 40
1.0
 40
1.0
 10
363.1651924511893
 20
370.616771203863
 30
0.0
 10
363.1566576312362
 20
370.6215160720652
 30
0.0
 10
363.1490256523191
 20
370.6274862092693
 30
0.0
 10
363.1358259741193
 20
370.6417215915872
 30
0.0
 10
363.1304989391725
 20
370.6497012765387
 30
0.0
 10
363.1265231984098
 20
370.6586003776013
 30
0.0
  0
SPLINE
  5
168
330
1F
100
AcDbEntity
  8
1
100
AcDbSpline
210
0.0
220
0.0
230
1.0
 70
     8
 71
     3
 72
     8
 73
     4
 74
     0
 42
0.000000001
 43
0.0000000001
 40
0.0
 40
0.0
 40
0.0
 40
0.0
 40
1.0
 40
1.0
 40
1.0
 40
1.0
 10
363.1313318541464
 20
371.8686780841427
 30
0.0
 10
363.1271268250064
 20
371.8686779452256
 30
0.0
 10
363.1229063306724
 20
371.8689697164972
 30
0.0
 10
363.1186697945918
 20
371.8695609497577
 30
0.0
  0
SPLINE
  5
169
330
1F
100
AcDbEntity
  8
1
100
AcDbSpline
210
0.0
220
0.0
230
1.0
 70
     8
 71
     3
 72
    28
 73
    24
 74
     0
 42
0.000000001
 43
0.0000000001
 40
0.0
 40
0.0
 40
0.0
 40
0.0
 40
0.0624999999999968
 40
0.0624999999999968
 40
0.1249999999999936
 40
0.1249999999999936
 40
0.2499999999999908
 40
0.2499999999999908
 40
0.3124999999999928
 40
0.3124999999999928
 40
0.3749999999999947
 40
0.3749999999999947
 40
0.4999999999999958
 40
0.4999999999999958
 40
0.5624999999999964
 40
0.5624999999999964
 40
0.6249999999999969
 40
0.6249999999999969
 40
0.7499999999999979
 40
0.7499999999999979
 40
0.8749999999999989
 40
0.8749999999999989
 40
1.0
 40
1.0
 40
1.0
 40
1.0
 10
363.1265231984098
 20
370.6586003776013
 30
0.0
 10
363.1211073004889
 20
370.6707230550638
 30
0.0
 10
363.1161748351554
 20
370.6830894591931
 30
0.0
 10
363.1073682499718
 20
370.7081216014817
 30
0.0
 10
363.1034990930988
 20
370.7207645325728
 30
0.0
 10
363.0934929630695
 20
370.7590799798079
 30
0.0
 10
363.0889450196584
 20
370.7851361159518
 30
0.0
 10
363.0855117178234
 20
370.8250646265665
 30
0.0
 10
363.0849408182385
 20
370.8385488972122
 30
0.0
 10
363.0849859493608
 20
370.8652955710316
 30
0.0
 10
363.0855937268567
 20
370.8786180229753
 30
0.0
 10
363.089165592129
 20
370.9184356524871
 30
0.0
 10
363.0938661662249
 20
370.9447824421904
 30
0.0
 10
363.1045768305704
 20
370.9839938655027
 30
0.0
 10
363.1087317112964
 20
370.996891883259
 30
0.0
 10
363.1180838391622
 20
371.0220750531021
 30
0.0
 10
363.1232932047371
 20
371.0344053284688
 30
0.0
 10
363.1404821223842
 20
371.0706316152958
 30
0.0
 10
363.154012252569
 20
371.09376806683
 30
0.0
 10
363.1852558395684
 20
371.1379940640052
 30
0.0
 10
363.2025672343226
 20
371.1585019222549
 30
0.0
 10
363.2400932527659
 20
371.1963137272421
 30
0.0
 10
363.2603441470056
 20
371.2136648971577
 30
0.0
 10
363.282083518767
 20
371.2294745331287
 30
0.0
  0
SPLINE
  5
16A
330
1F
100
AcDbEntity
  8
1
100
AcDbSpline
210
0.0
220
0.0
230
1.0
 70
     8
 71
     3
 72
    22
 73
    18
 74
     0
 42
0.000000001
 43
0.0000000001
 40
0.0
 40
0.0
 40
0.0
 40
0.0
 40
0.1669343216182329
 40
0.1669343216182329
 40
0.2504014824273579
 40
0.2504014824273579
 40
0.333868643236483
 40
0.333868643236483
 40
0.5008029648547515
 40
0.5008029648547515
 40
0.5842701256639005
 40
0.5842701256639005
 40
0.6677372864730495
 40
0.6677372864730495
 40
0.8346716080913473
 40
0.8346716080913473
 40
1.0
 40
1.0
 40
1.0
 40
1.0
 10
363.2107549376052
 20
370.5311368481263
 30
0.0
 10
363.2077138766821
 20
370.5048564117273
 30
0.0
 10
363.2025287908358
 20
370.4791548857882
 30
0.0
 10
363.1916171366833
 20
370.4414563530138
 30
0.0
 10
363.1874549939423
 20
370.4290331439177
 30
0.0
 10
363.1780633084715
 20
370.4044784682799
 30
0.0
 10
363.1728131239398
 20
370.3923050495055
 30
0.0
 10
363.1555468866396
 20
370.3565351545352
 30
0.0
 10
363.1421694811777
 20
370.3339428880612
 30
0.0
 10
363.1193872282638
 20
370.3018831163153
 30
0.0
 10
363.1113381325649
 20
370.2915028320165
 30
0.0
 10
363.0943161913812
 20
370.2713644071997
 30
0.0
 10
363.085313329713
 20
370.2615766008954
 30
0.0
 10
363.0570729606637
 20
370.233381190126
 30
0.0
 10
363.0368979191944
 20
370.2163974822596
 30
0.0
 10
362.9941629689469
 20
370.1860605768126
 30
0.0
 10
362.9715860944202
 20
370.1726539473815
 30
0.0
 10
362.9477697944201
 20
370.1610654191534
 30
0.0
  0
SPLINE
  5
16B
330
1F
100
AcDbEntity
  8
1
100
AcDbSpline
210
0.0
220
0.0
230
1.0
 70
     8
 71
     3
 72
    16
 73
    12
 74
     0
 42
0.000000001
 43
0.0000000001
 40
0.0
 40
0.0
 40
0.0
 40
0.0
 40
0.2500000000000019
 40
0.2500000000000019
 40
0.5000000000000037
 40
0.5000000000000037
 40
0.6250000000000167
 40
0.6250000000000167
 40
0.7500000000000295
 40
0.7500000000000295
 40
1.0
 40
1.0
 40
1.0
 40
1.0
 10
362.7232586621029
 20
372.440644422727
 30
0.0
 10
362.7282459911389
 20
372.4336868247574
 30
0.0
 10
362.7320223286496
 20
372.4260069136257
 30
0.0
 10
362.7369995085724
 20
372.410091442844
 30
0.0
 10
362.7382475008721
 20
372.4016314642485
 30
0.0
 10
362.7382026787882
 20
372.3891506124743
 30
0.0
 10
362.7378790197712
 20
372.3850052063232
 30
0.0
 10
362.7366210673121
 20
372.3767445370534
 30
0.0
 10
362.7356750960144
 20
372.3726001361058
 30
0.0
 10
362.7319929852305
 20
372.3605549309422
 30
0.0
 10
362.7284371042125
 20
372.3529616013228
 30
0.0
 10
362.7237697123645
 20
372.345810184763
 30
0.0
  0
SPLINE
  5
16C
330
1F
100
AcDbEntity
  8
1
100
AcDbSpline
210
0.0
220
0.0
230
1.0
 70
     8
 71
     3
 72
    28
 73
    24
 74
     0
 42
0.000000001
 43
0.0000000001
 40
0.0
 40
0.0
 40
0.0
 40
0.0
 40
0.0624999999999865
 40
0.0624999999999865
 40
0.124999999999973
 40
0.124999999999973
 40
0.2499999999999472
 40
0.2499999999999472
 40
0.3124999999999486
 40
0.3124999999999486
 40
0.37499999999995
 40
0.37499999999995
 40
0.4999999999999555
 40
0.4999999999999555
 40
0.5624999999999676
 40
0.5624999999999676
 40
0.6249999999999798
 40
0.6249999999999798
 40
0.7499999999999866
 40
0.7499999999999866
 40
0.8749999999999932
 40
0.8749999999999932
 40
1.0
 40
1.0
 40
1.0
 40
1.0
 10
363.1186697945918
 20
371.8695609497577
 30
0.0
 10
363.1053003162145
 20
371.8714267382558
 30
0.0
 10
363.0919762994091
 20
371.8738190740888
 30
0.0
 10
363.0656328814516
 20
371.8796305224597
 30
0.0
 10
363.0526356681821
 20
371.883041849201
 30
0.0
 10
363.014164754495
 20
371.8947895775577
 30
0.0
 10
362.9892078000512
 20
371.9046281087977
 30
0.0
 10
362.9528643300998
 20
371.9225807101104
 30
0.0
 10
362.9409073049068
 20
371.929122096723
 30
0.0
 10
362.9178248594986
 20
371.9430516957063
 30
0.0
 10
362.9066430615564
 20
371.9504644335738
 30
0.0
 10
362.8741716976177
 20
371.9740385621427
 30
0.0
 10
362.8539487743678
 20
371.9915263327666
 30
0.0
 10
362.8258626884625
 20
372.0205492735687
 30
0.0
 10
362.8169665056105
 20
372.03060523174
 30
0.0
 10
362.8002673343898
 20
372.0512403408633
 30
0.0
 10
362.7924320537299
 20
372.0618525855182
 30
0.0
 10
362.7704299204231
 20
372.0945542845125
 30
0.0
 10
362.7577571527992
 20
372.1175026343632
 30
0.0
 10
362.7364276814989
 20
372.165740708544
 30
0.0
 10
362.7280564270898
 20
372.1904024931765
 30
0.0
 10
362.7156223692148
 20
372.2404588951477
 30
0.0
 10
362.7115386067329
 20
372.2659068305362
 30
0.0
 10
362.7095693518162
 20
372.2917954774177
 30
0.0
  0
SPLINE
  5
16D
330
1F
100
AcDbEntity
  8
1
100
AcDbSpline
210
0.0
220
0.0
230
1.0
 70
     8
 71
     3
 72
    12
 73
     8
 74
     0
 42
0.000000001
 43
0.0000000001
 40
0.0
 40
0.0
 40
0.0
 40
0.0
 40
0.2500000000000004
 40
0.2500000000000004
 40
0.5000000000000008
 40
0.5000000000000008
 40
1.0
 40
1.0
 40
1.0
 40
1.0
 10
362.7095693518162
 20
372.2917954774177
 30
0.0
 10
362.709207801171
 20
372.2965485730708
 30
0.0
 10
362.7092609132891
 20
372.3012690445817
 30
0.0
 10
362.7101459849317
 20
372.3106499965289
 30
0.0
 10
362.7109859774839
 20
372.3153379785626
 30
0.0
 10
362.7146471850766
 20
372.3291212328435
 30
0.0
 10
362.7185058839517
 20
372.3377449031443
 30
0.0
 10
362.7237697123645
 20
372.345810184763
 30
0.0
  0
LINE
  5
16E
330
1F
100
AcDbEntity
  8
4
100
AcDbLine
 10
320.149849
 20
366.008075
 30
0.0
 11
373.995926
 21
366.008075
 31
0.0
  0
LINE
  5
16F
330
1F
100
AcDbEntity
  8
SK4
100
AcDbLine
 10
120.174849
 20
366.008075
 30
0.0
 11
325.149849
 21
366.008075
 31
0.0
  0
MTEXT
  5
173
330
1F
100
AcDbEntity
  8
SK6
100
AcDbMText
 10
218.356747
 20
338.512256
 30
0.0
 40
3.5
 41
0.0
 71
     7
 72
     5
  1
\W0.7256;20L2R050A20-SZP20-C
  7
cesky
 73
     2
 44
0.8433729999999998
  0
MTEXT
  5
2E8
330
1F
100
AcDbEntity
  8
2
100
AcDbMText
 10
358.5250890000001
 20
381.887581
 30
0.0
 40
3.5
 41
0.0
 71
     7
 72
     5
  1
\W0.9176;17,9
  7
cesky
 73
     2
 44
0.8433729999999998
  0
LINE
  5
2E9
330
1F
100
AcDbEntity
  8
2
100
AcDbLine
 10
372.174849
 20
377.508075
 30
0.0
 11
372.174849
 21
383.013414
 31
0.0
  0
LINE
  5
2EA
330
1F
100
AcDbEntity
  8
2
100
AcDbLine
 10
353.554329
 20
375.158806
 30
0.0
 11
353.554329
 21
383.013414
 31
0.0
  0
LINE
  5
2EB
330
1F
100
AcDbEntity
  8
2
100
AcDbLine
 10
372.174849
 20
382.013414
 30
0.0
 11
353.554329
 21
382.013414
 31
0.0
  0
SOLID
  5
2EC
330
1F
100
AcDbEntity
  8
2
100
AcDbTrace
 10
372.174849
 20
382.013414
 30
0.0
 11
368.674851
 21
381.39627
 31
0.0
 12
368.674846
 22
382.630558
 32
0.0
 13
368.674846
 23
382.630558
 33
0.0
  0
SOLID
  5
2ED
330
1F
100
AcDbEntity
  8
2
100
AcDbTrace
 10
353.554329
 20
382.013414
 30
0.0
 11
357.054327
 21
382.630558
 31
0.0
 12
357.054331
 22
381.39627
 32
0.0
 13
357.054331
 23
381.39627
 33
0.0
  0
MTEXT
  5
2EE
330
1F
100
AcDbEntity
  8
2
100
AcDbMText
 10
345.347849
 20
388.84443
 30
0.0
 40
3.5
 41
0.0
 71
     7
 72
     5
  1
\W0.7045;50
  7
cesky
 73
     2
 44
0.8433729999999998
  0
LINE
  5
2EF
330
1F
100
AcDbEntity
  8
2
100
AcDbLine
 10
372.174849
 20
377.508075
 30
0.0
 11
372.174849
 21
389.970264
 31
0.0
  0
LINE
  5
2F0
330
1F
100
AcDbEntity
  8
2
100
AcDbLine
 10
322.149849
 20
376.008075
 30
0.0
 11
322.149849
 21
389.970264
 31
0.0
  0
LINE
  5
2F1
330
1F
100
AcDbEntity
  8
2
100
AcDbLine
 10
372.174849
 20
388.970264
 30
0.0
 11
322.149849
 21
388.970264
 31
0.0
  0
SOLID
  5
2F2
330
1F
100
AcDbEntity
  8
2
100
AcDbTrace
 10
372.174849
 20
388.970264
 30
0.0
 11
368.674851
 21
388.353119
 31
0.0
 12
368.674846
 22
389.587408
 32
0.0
 13
368.674846
 23
389.587408
 33
0.0
  0
SOLID
  5
2F3
330
1F
100
AcDbEntity
  8
2
100
AcDbTrace
 10
322.149849
 20
388.970264
 30
0.0
 11
325.6498459999999
 21
389.587408
 31
0.0
 12
325.649851
 22
388.353119
 32
0.0
 13
325.649851
 23
388.353119
 33
0.0
  0
MTEXT
  5
2F4
330
1F
100
AcDbEntity
  8
2
100
AcDbMText
 10
382.272
 20
364.104439
 30
0.0
 40
3.5
 41
0.0
 71
     7
 72
     5
  1
\W0.7045;20
  7
cesky
 11
0.0000000000000001
 21
1.0
 31
0.0
 73
     2
 44
0.8433729999999998
  0
MTEXT
  5
2F5
330
1F
100
AcDbEntity
  8
2
100
AcDbMText
 10
382.272
 20
357.366939
 30
0.0
 40
3.5
 41
0.0
 71
     7
 72
     5
  1
\W3.0115;\H2.63;%%c\H3.50;
  7
cesky
 11
0.0000000000000001
 21
1.0
 31
0.0
 73
     2
 44
0.8433729999999998
  0
LINE
  5
2F6
330
1F
100
AcDbEntity
  8
2
100
AcDbLine
 10
373.674849
 20
376.008075
 30
0.0
 11
383.459417
 21
376.008075
 31
0.0
  0
LINE
  5
2F7
330
1F
100
AcDbEntity
  8
2
100
AcDbLine
 10
382.459417
 20
376.008075
 30
0.0
 11
382.459417
 21
357.209439
 31
0.0
  0
SOLID
  5
2F8
330
1F
100
AcDbEntity
  8
2
100
AcDbTrace
 10
382.459417
 20
376.008075
 30
0.0
 11
383.076561
 21
372.508077
 31
0.0
 12
381.842272
 22
372.508073
 32
0.0
 13
381.842272
 23
372.508073
 33
0.0
  0
MTEXT
  5
2F9
330
1F
100
AcDbEntity
  8
SK2
100
AcDbMText
 10
244.097849
 20
407.581672
 30
0.0
 40
3.5
 41
0.0
 71
     7
 72
     5
  1
\W0.7231;250
  7
cesky
 73
     2
 44
0.8433729999999998
  0
LINE
  5
2FA
330
1F
100
AcDbEntity
  8
SK2
100
AcDbLine
 10
372.174849
 20
377.508075
 30
0.0
 11
372.174849
 21
408.707505
 31
0.0
  0
LINE
  5
2FB
330
1F
100
AcDbEntity
  8
SK2
100
AcDbLine
 10
122.174849
 20
374.508075
 30
0.0
 11
122.174849
 21
408.707505
 31
0.0
  0
LINE
  5
2FC
330
1F
100
AcDbEntity
  8
SK2
100
AcDbLine
 10
372.174849
 20
407.7075049999999
 30
0.0
 11
122.174849
 21
407.7075049999999
 31
0.0
  0
SOLID
  5
2FD
330
1F
100
AcDbEntity
  8
SK2
100
AcDbTrace
 10
372.174849
 20
407.7075049999999
 30
0.0
 11
368.674851
 21
407.090361
 31
0.0
 12
368.674846
 22
408.32465
 32
0.0
 13
368.674846
 23
408.32465
 33
0.0
  0
SOLID
  5
2FE
330
1F
100
AcDbEntity
  8
SK2
100
AcDbTrace
 10
122.174849
 20
407.7075049999999
 30
0.0
 11
125.674846
 21
408.32465
 31
0.0
 12
125.674851
 22
407.090361
 32
0.0
 13
125.674851
 23
407.090361
 33
0.0
  0
MTEXT
  5
2FF
330
1F
100
AcDbEntity
  8
SK2
100
AcDbMText
 10
269.097849
 20
397.301207
 30
0.0
 40
3.5
 41
0.0
 71
     7
 72
     5
  1
\W0.7231;200
  7
cesky
 73
     2
 44
0.8433729999999998
  0
LINE
  5
300
330
1F
100
AcDbEntity
  8
SK2
100
AcDbLine
 10
372.174849
 20
377.508075
 30
0.0
 11
372.174849
 21
398.427041
 31
0.0
  0
LINE
  5
301
330
1F
100
AcDbEntity
  8
SK2
100
AcDbLine
 10
172.174849
 20
366.008075
 30
0.0
 11
172.174849
 21
398.427041
 31
0.0
  0
LINE
  5
302
330
1F
100
AcDbEntity
  8
SK2
100
AcDbLine
 10
372.174849
 20
397.427041
 30
0.0
 11
172.174849
 21
397.427041
 31
0.0
  0
SOLID
  5
303
330
1F
100
AcDbEntity
  8
SK2
100
AcDbTrace
 10
372.174849
 20
397.427041
 30
0.0
 11
368.674851
 21
396.809896
 31
0.0
 12
368.674846
 22
398.044185
 32
0.0
 13
368.674846
 23
398.044185
 33
0.0
  0
SOLID
  5
304
330
1F
100
AcDbEntity
  8
SK2
100
AcDbTrace
 10
172.174849
 20
397.427041
 30
0.0
 11
175.674846
 21
398.044185
 31
0.0
 12
175.674851
 22
396.809896
 32
0.0
 13
175.674851
 23
396.809896
 33
0.0
  0
MTEXT
  5
305
330
1F
100
AcDbEntity
  8
SK2
100
AcDbMText
 10
113.129402
 20
367.534325
 30
0.0
 40
3.5
 41
0.0
 71
     7
 72
     5
  1
\W0.7045;20
  7
cesky
 11
0.0000000000000001
 21
1.0
 31
0.0
 73
     2
 44
0.8433729999999998
  0
MTEXT
  5
306
330
1F
100
AcDbEntity
  8
SK2
100
AcDbMText
 10
113.129402
 20
360.796825
 30
0.0
 40
3.5
 41
0.0
 71
     7
 72
     5
  1
\W3.0115;\H2.63;%%c\H3.50;
  7
cesky
 11
0.0000000000000001
 21
1.0
 31
0.0
 73
     2
 44
0.8433729999999998
  0
LINE
  5
307
330
1F
100
AcDbEntity
  8
SK2
100
AcDbLine
 10
123.674849
 20
376.008075
 30
0.0
 11
112.316819
 21
376.008075
 31
0.0
  0
LINE
  5
308
330
1F
100
AcDbEntity
  8
SK2
100
AcDbLine
 10
123.674849
 20
356.008075
 30
0.0
 11
112.316819
 21
356.008075
 31
0.0
  0
LINE
  5
309
330
1F
100
AcDbEntity
  8
SK2
100
AcDbLine
 10
113.316819
 20
376.008075
 30
0.0
 11
113.316819
 21
356.008075
 31
0.0
  0
SOLID
  5
30A
330
1F
100
AcDbEntity
  8
SK2
100
AcDbTrace
 10
113.316819
 20
376.008075
 30
0.0
 11
113.933963
 21
372.508077
 31
0.0
 12
112.699675
 22
372.508073
 32
0.0
 13
112.699675
 23
372.508073
 33
0.0
  0
SOLID
  5
30B
330
1F
100
AcDbEntity
  8
SK2
100
AcDbTrace
 10
113.316819
 20
356.008075
 30
0.0
 11
112.699675
 21
359.508073
 31
0.0
 12
113.933963
 22
359.508077
 32
0.0
 13
113.933963
 23
359.508077
 33
0.0
  0
LINE
  5
30C
330
1F
100
AcDbEntity
  8
CUT
100
AcDbLine
 10
372.1557903886378
 20
366.4050576257774
 30
0.0
 11
372.1564161761696
 21
366.4097225286733
 31
0.0
  0
ELLIPSE
  5
30F
330
1F
100
AcDbEntity
  8
CUT
100
AcDbEllipse
 10
362.525754
 20
366.006808
 30
0.0
 11
-0.0000000000000006
 21
-9.808685220001587
 31
0.0
210
0.0
220
0.0
230
1.0
 40
0.9848079999999999
 41
1.934469946491478
 42
3.185807204601303
  0
ELLIPSE
  5
310
330
1F
100
AcDbEntity
  8
CUT
100
AcDbEllipse
 10
362.570068
 20
365.942356
 30
0.0
 11
-0.5785186693571907
 21
10.21148149047173
 31
0.0
210
0.0
220
0.0
230
0.9999999999999998
 40
0.939249
 41
4.715036659620018
 42
4.988328492791858
  0
ELLIPSE
  5
311
330
1F
100
AcDbEntity
  8
CUT
100
AcDbEllipse
 10
371.437625
 20
366.444213
 30
0.0
 11
-0.3227044843695752
 21
-0.744321238108297
 31
0.0
210
0.0
220
0.0
230
0.9999999999999998
 40
0.8738269999999999
 41
0.3219146368837414
 42
1.88372691333985
  0
ELLIPSE
  5
312
330
1F
100
AcDbEntity
  8
CUT
100
AcDbEllipse
 10
371.009544
 20
365.697557
 30
0.0
 11
-0.2767550262746906
 21
0.0321977258692797
 31
0.0
210
0.0
220
0.0
230
1.0
 40
0.099409
 41
1.583152510383198
 42
2.194017748592786
  0
ELLIPSE
  5
313
330
1F
100
AcDbEntity
  8
CUT
100
AcDbEllipse
 10
362.812016
 20
376.484664
 30
0.0
 11
-0.0000000000000006
 21
-9.808685220001587
 31
0.0
210
0.0
220
0.0
230
1.0
 40
0.9848079999999999
 41
4.898594246253487
 42
6.170320225511602
  0
ELLIPSE
  5
314
330
1F
100
AcDbEntity
  8
CUT
100
AcDbEllipse
 10
353.948385
 20
374.789107
 30
0.0
 11
0.0
 21
-0.65
 31
0.0
210
0.0
220
0.0
230
1.0
 40
0.9848079999999999
 41
3.185807204601305
 42
4.898594246253492
  0
LINE
  5
315
330
1F
100
AcDbEntity
  8
CUT
100
AcDbLine
 10
371.337276
 20
365.64891
 30
0.0
 11
371.168475
 21
365.656425
 31
0.0
  0
LINE
  5
316
330
1F
100
AcDbEntity
  8
CUT
100
AcDbLine
 10
371.009764
 20
365.6696490000001
 30
0.0
 11
361.72409
 21
366.738387
 31
0.0
  0
LINE
  5
317
330
1F
100
AcDbEntity
  8
CUT
100
AcDbLine
 10
353.920091
 20
375.438471
 30
0.0
 11
362.098795
 21
375.805907
 31
0.0
  0
ARC
  5
318
330
1F
100
AcDbEntity
  8
CUT
100
AcDbCircle
 10
371.577962428762
 20
366.4777401621617
 30
0.0
 40
0.5827176857827169
100
AcDbArc
 50
356.9581686611566
 51
3.445758200947044
  0
ARC
  5
319
330
1F
100
AcDbEntity
  8
CUT
100
AcDbCircle
 10
371.6717446598365
 20
366.4734134466423
 30
0.0
 40
0.4888384311573829
100
AcDbArc
 50
352.5136306081253
 51
356.8812874434478
  0
LINE
  5
31A
330
1F
100
AcDbEntity
  8
CUT
100
AcDbLine
 10
371.5536459978881
 20
369.4958552122833
 30
0.0
 11
371.5536459978881
 21
369.4958552122833
 31
0.0
  0
ARC
  5
31B
330
1F
100
AcDbEntity
  8
CUT
100
AcDbCircle
 10
365.7685575310812
 20
367.3292440903499
 30
0.0
 40
6.177495635163865
100
AcDbArc
 50
18.08882810315425
 51
20.53175455096107
  0
ENDSEC
  0
SECTION
  2
OBJECTS
  0
DICTIONARY
  5
C
330
0
100
AcDbDictionary
281
     1
  3
ACAD_CIP_PREVIOUS_PRODUCT_INFO
350
26B
  3
ACAD_COLOR
350
265
  3
ACAD_DETAILVIEWSTYLE
350
261
  3
ACAD_FIELDLIST
350
2D5
  3
ACAD_GROUP
350
D
  3
ACAD_IMAGE_DICT
350
CE
  3
ACAD_IMAGE_VARS
350
26A
  3
ACAD_LAYOUT
350
1A
  3
ACAD_MATERIAL
350
43
  3
ACAD_MLEADERSTYLE
350
6B
  3
ACAD_MLINESTYLE
350
17
  3
ACAD_PLOTSETTINGS
350
19
  3
ACAD_PLOTSTYLENAME
350
E
  3
ACAD_SCALELIST
350
47
  3
ACAD_SECTIONVIEWSTYLE
350
262
  3
ACAD_TABLESTYLE
350
69
  3
ACAD_VISUALSTYLE
350
2A
  3
ACDB_RECOMPOSE_DATA
350
348
  3
AcDbVariableDictionary
350
21E
  3
AcmDictionary
350
297
  3
AMG
350
26C
  3
AMGSNAPSETTINGS
350
2DF
  0
DICTIONARY
  5
32A
330
10
100
AcDbDictionary
280
     1
281
     1
  3
ADSK_XREC_LAYER_RECONCILED
360
32B
  0
DICTIONARY
  5
32C
330
76
100
AcDbDictionary
280
     1
281
     1
  3
ADSK_XREC_LAYER_RECONCILED
360
32D
  0
DICTIONARY
  5
32E
330
31C
100
AcDbDictionary
280
     1
281
     1
  3
ADSK_XREC_LAYER_RECONCILED
360
32F
  0
DICTIONARY
  5
330
330
31D
100
AcDbDictionary
280
     1
281
     1
  3
ADSK_XREC_LAYER_RECONCILED
360
331
  0
DICTIONARY
  5
332
330
31E
100
AcDbDictionary
280
     1
281
     1
  3
ADSK_XREC_LAYER_RECONCILED
360
333
  0
DICTIONARY
  5
334
330
320
100
AcDbDictionary
280
     1
281
     1
  3
ADSK_XREC_LAYER_RECONCILED
360
335
  0
DICTIONARY
  5
336
330
321
100
AcDbDictionary
280
     1
281
     1
  3
ADSK_XREC_LAYER_RECONCILED
360
337
  0
DICTIONARY
  5
338
330
323
100
AcDbDictionary
280
     1
281
     1
  3
ADSK_XREC_LAYER_RECONCILED
360
339
  0
DICTIONARY
  5
33A
330
324
100
AcDbDictionary
280
     1
281
     1
  3
ADSK_XREC_LAYER_RECONCILED
360
33B
  0
DICTIONARY
  5
33C
330
325
100
AcDbDictionary
280
     1
281
     1
  3
ADSK_XREC_LAYER_RECONCILED
360
33D
  0
DICTIONARY
  5
33E
330
326
100
AcDbDictionary
280
     1
281
     1
  3
ADSK_XREC_LAYER_RECONCILED
360
33F
  0
DICTIONARY
  5
340
330
327
100
AcDbDictionary
280
     1
281
     1
  3
ADSK_XREC_LAYER_RECONCILED
360
341
  0
DICTIONARY
  5
342
330
328
100
AcDbDictionary
280
     1
281
     1
  3
ADSK_XREC_LAYER_RECONCILED
360
343
  0
DICTIONARY
  5
2E6
330
1F
100
AcDbDictionary
280
     1
281
     1
  3
ACAD_SORTENTS
360
2E7
  0
XRECORD
  5
26B
102
{ACAD_REACTORS
330
C
102
}
330
C
100
AcDbXrecord
280
     1
300
AMECH_PP
300
2019
300
87089AMECH_PP_2019_0F
  0
DICTIONARY
  5
265
102
{ACAD_REACTORS
330
C
102
}
330
C
100
AcDbDictionary
281
     1
  0
DICTIONARY
  5
261
102
{ACAD_REACTORS
330
C
102
}
330
C
100
AcDbDictionary
281
     1
  3
Metric50
350
267
  0
FIELDLIST
  5
2D5
102
{ACAD_REACTORS
330
C
102
}
330
C
100
AcDbIdSet
 90
        3
330
2D3
330
2D4
330
2D6
100
AcDbFieldList
  0
DICTIONARY
  5
D
102
{ACAD_REACTORS
330
C
102
}
330
C
100
AcDbDictionary
281
     1
  3
NULOVY_BOD
350
329
  0
DICTIONARY
  5
CE
102
{ACAD_REACTORS
330
C
102
}
330
C
100
AcDbDictionary
281
     1
  3
20L2R050A20-SZP20-C-115009383ndi000_00-2D_DormerPramet_jpg
350
CF
  0
RASTERVARIABLES
  5
26A
102
{ACAD_REACTORS
330
C
102
}
330
C
100
AcDbRasterVariables
 90
        0
 70
     1
 71
     1
 72
     1
  0
DICTIONARY
  5
1A
102
{ACAD_REACTORS
330
C
102
}
330
C
100
AcDbDictionary
281
     1
  3
Layout1
350
1E
  3
Layout2
350
26
  3
Model
350
22
  0
DICTIONARY
  5
43
102
{ACAD_REACTORS
330
C
102
}
330
C
100
AcDbDictionary
281
     1
  3
ByBlock
350
45
  3
ByLayer
350
44
  3
Global
350
46
  0
DICTIONARY
  5
6B
102
{ACAD_REACTORS
330
C
102
}
330
C
100
AcDbDictionary
281
     1
  3
Standard
350
6C
  0
DICTIONARY
  5
17
102
{ACAD_REACTORS
330
C
102
}
330
C
100
AcDbDictionary
281
     1
  3
Standard
350
18
  0
DICTIONARY
  5
19
102
{ACAD_REACTORS
330
C
102
}
330
C
100
AcDbDictionary
281
     1
  0
ACDBDICTIONARYWDFLT
  5
E
102
{ACAD_REACTORS
330
C
102
}
330
C
100
AcDbDictionary
281
     1
  3
Normal
350
F
100
AcDbDictionaryWithDefault
340
F
  0
DICTIONARY
  5
47
102
{ACAD_REACTORS
330
C
102
}
330
C
100
AcDbDictionary
281
     1
  3
A0
350
48
  3
A1
350
49
  3
A2
350
4A
  3
A3
350
4B
  3
A4
350
4C
  3
A5
350
4D
  3
A6
350
4E
  3
A7
350
4F
  3
A8
350
50
  3
A9
350
51
  3
B0
350
52
  3
B1
350
53
  3
B2
350
54
  3
B3
350
55
  3
B4
350
56
  3
B5
350
57
  3
B6
350
58
  3
B7
350
59
  3
B8
350
5A
  3
B9
350
5B
  3
C0
350
5C
  3
C1
350
5D
  3
C2
350
5E
  3
C3
350
5F
  3
C4
350
60
  3
C5
350
61
  3
C6
350
62
  3
C7
350
63
  3
C8
350
64
  3
C9
350
65
  3
D0
350
66
  3
D1
350
67
  3
D2
350
68
  0
DICTIONARY
  5
262
102
{ACAD_REACTORS
330
C
102
}
330
C
100
AcDbDictionary
281
     1
  3
Metric50
350
266
  0
DICTIONARY
  5
69
102
{ACAD_REACTORS
330
C
102
}
330
C
100
AcDbDictionary
281
     1
  3
Standard
350
6A
  0
DICTIONARY
  5
2A
102
{ACAD_REACTORS
330
C
102
}
330
C
100
AcDbDictionary
281
     1
  3
2dWireframe
350
2F
  3
Basic
350
32
  3
Brighten
350
36
  3
ColorChange
350
3A
  3
Conceptual
350
34
  3
Dim
350
35
  3
EdgeColorOff
350
3D
  3
Facepattern
350
39
  3
Flat
350
2B
  3
FlatWithEdges
350
2C
  3
Gouraud
350
2D
  3
GouraudWithEdges
350
2E
  3
Hidden
350
31
  3
JitterOff
350
3B
  3
Linepattern
350
38
  3
OverhangOff
350
3C
  3
Realistic
350
33
  3
Shaded
350
42
  3
Shaded with edges
350
41
  3
Shades of Gray
350
3E
  3
Sketchy
350
3F
  3
Thicken
350
37
  3
Wireframe
350
30
  3
X-Ray
350
40
  0
XRECORD
  5
348
102
{ACAD_REACTORS
330
C
102
}
330
C
100
AcDbXrecord
280
     1
 90
        1
330
6A
  0
DICTIONARY
  5
21E
102
{ACAD_REACTORS
330
C
102
}
330
C
100
AcDbDictionary
281
     1
  3
CANNOSCALE
350
21F
  3
CMLEADERSTYLE
350
260
  3
CTABLESTYLE
350
25F
  3
CVIEWDETAILSTYLE
350
344
  3
CVIEWSECTIONSTYLE
350
345
  3
MSLTSCALE
350
220
  3
XCLIPFRAME
350
346
  0
DICTIONARY
  5
297
102
{ACAD_REACTORS
330
C
102
}
330
C
100
AcDbDictionary
281
     1
  3
AcmStdDictionary
350
29E
  0
DICTIONARY
  5
26C
102
{ACAD_REACTORS
330
C
102
}
330
C
100
AcDbDictionary
281
     1
  0
DICTIONARY
  5
2DF
102
{ACAD_REACTORS
330
C
102
}
330
C
100
AcDbDictionary
281
     1
  0
XRECORD
  5
32B
102
{ACAD_REACTORS
330
32A
102
}
330
32A
100
AcDbXrecord
280
     1
290
     1
  0
XRECORD
  5
32D
102
{ACAD_REACTORS
330
32C
102
}
330
32C
100
AcDbXrecord
280
     1
290
     1
  0
XRECORD
  5
32F
102
{ACAD_REACTORS
330
32E
102
}
330
32E
100
AcDbXrecord
280
     1
290
     1
  0
XRECORD
  5
331
102
{ACAD_REACTORS
330
330
102
}
330
330
100
AcDbXrecord
280
     1
290
     1
  0
XRECORD
  5
333
102
{ACAD_REACTORS
330
332
102
}
330
332
100
AcDbXrecord
280
     1
290
     1
  0
XRECORD
  5
335
102
{ACAD_REACTORS
330
334
102
}
330
334
100
AcDbXrecord
280
     1
290
     1
  0
XRECORD
  5
337
102
{ACAD_REACTORS
330
336
102
}
330
336
100
AcDbXrecord
280
     1
290
     1
  0
XRECORD
  5
339
102
{ACAD_REACTORS
330
338
102
}
330
338
100
AcDbXrecord
280
     1
290
     1
  0
XRECORD
  5
33B
102
{ACAD_REACTORS
330
33A
102
}
330
33A
100
AcDbXrecord
280
     1
290
     1
  0
XRECORD
  5
33D
102
{ACAD_REACTORS
330
33C
102
}
330
33C
100
AcDbXrecord
280
     1
290
     1
  0
XRECORD
  5
33F
102
{ACAD_REACTORS
330
33E
102
}
330
33E
100
AcDbXrecord
280
     1
290
     1
  0
XRECORD
  5
341
102
{ACAD_REACTORS
330
340
102
}
330
340
100
AcDbXrecord
280
     1
290
     1
  0
XRECORD
  5
343
102
{ACAD_REACTORS
330
342
102
}
330
342
100
AcDbXrecord
280
     1
290
     1
  0
SORTENTSTABLE
  5
2E7
102
{ACAD_REACTORS
330
2E6
102
}
330
2E6
100
AcDbSortentsTable
330
1F
331
2E8
  5
2EC
331
2E9
  5
2ED
331
2EA
  5
2EE
331
2EB
  5
2EF
331
2EC
  5
2F0
331
2ED
  5
2F1
331
2EE
  5
2F3
331
2EF
  5
2F4
331
2F0
  5
2F5
331
2F1
  5
2F6
331
2F2
  5
2F7
331
2F3
  5
2F9
331
2F4
  5
300
331
2F5
  5
301
331
2F6
  5
302
331
2F7
  5
303
331
2F8
  5
304
331
2F9
  5
1C3
331
2FA
  5
1F1
331
2FB
  5
2E8
331
2FC
  5
2E9
331
2FD
  5
2EA
331
2FE
  5
2EB
331
2FF
  5
2FA
331
300
  5
2FB
331
301
  5
2FC
331
302
  5
2FD
331
303
  5
2FE
331
304
  5
2FF
331
315
  5
319
331
316
  5
31A
331
317
  5
31B
331
318
  5
315
331
319
  5
316
331
31A
  5
317
331
31B
  5
318
  0
ACDBDETAILVIEWSTYLE
  5
267
102
{ACAD_XDICTIONARY
360
37C
102
}
102
{ACAD_REACTORS
330
261
330
2C9
102
}
330
261
100
AcDbModelDocViewStyle
 70
     0
  3
Metric50
290
     0
100
AcDbDetailViewStyle
 70
     0
 71
     0
 90
        3
 71
     1
340
11
 62
   256
 40
5.0
340
0
 62
   256
 40
5.0
300

 40
0.0
280
     1
 71
     2
340
16
 90
       25
 62
   256
 71
     3
340
11
 62
   256
 40
5.0
 90
        0
 40
15.0
 90
        1
300
%<\AcVar ViewDetailId>% (%<\AcVar ViewScale \f "%sn">%)
 71
     4
340
16
 90
       25
 62
   256
340
16
 90
       25
 62
   256
280
     0
  0
GROUP
  5
329
102
{ACAD_REACTORS
330
D
102
}
330
D
100
AcDbGroup
300

 70
     0
 71
     1
340
73
  0
IMAGEDEF
  5
CF
102
{ACAD_REACTORS
330
CE
330
D2
102
}
330
CE
100
AcDbRasterImageDef
 90
        0
  1
R:\Katalog\Data\ZP\20L2R050A20-SZP20-C\20L2R050A20-SZP20-C-115009383ndi000_00-2D_DormerPramet.jpg
 10
2089.0
 20
531.0
 11
0.0004786979415989
 21
0.0004786979415989
280
     1
281
     0
  0
LAYOUT
  5
1E
102
{ACAD_REACTORS
330
1A
102
}
330
1A
100
AcDbPlotSettings
  1

  2
none_device
  4

  6

 40
0.0
 41
0.0
 42
0.0
 43
0.0
 44
0.0
 45
0.0
 46
0.0
 47
0.0
 48
0.0
 49
0.0
140
0.0
141
0.0
142
1.0
143
1.0
 70
   688
 72
     0
 73
     0
 74
     5
  7

 75
    16
147
1.0
 76
     0
 77
     2
 78
   300
148
0.0
149
0.0
100
AcDbLayout
  1
Layout1
 70
     1
 71
     1
 10
-0.5
 20
-0.5
 11
5.0
 21
5.0
 12
0.0
 22
0.0
 32
0.0
 14
-0.5
 24
-0.5
 34
-0.5
 15
5.0
 25
5.0
 35
5.0
146
0.0
 13
0.0
 23
0.0
 33
0.0
 16
1.0
 26
0.0
 36
0.0
 17
0.0
 27
1.0
 37
0.0
 76
     0
330
1B
  0
LAYOUT
  5
26
102
{ACAD_REACTORS
330
1A
102
}
330
1A
100
AcDbPlotSettings
  1

  2
none_device
  4

  6

 40
0.0
 41
0.0
 42
0.0
 43
0.0
 44
0.0
 45
0.0
 46
0.0
 47
0.0
 48
0.0
 49
0.0
140
0.0
141
0.0
142
1.0
143
1.0
 70
   688
 72
     0
 73
     0
 74
     5
  7

 75
    16
147
1.0
 76
     0
 77
     2
 78
   300
148
0.0
149
0.0
100
AcDbLayout
  1
Layout2
 70
     1
 71
     2
 10
0.0
 20
0.0
 11
0.0
 21
0.0
 12
0.0
 22
0.0
 32
0.0
 14
0.0
 24
0.0
 34
0.0
 15
0.0
 25
0.0
 35
0.0
146
0.0
 13
0.0
 23
0.0
 33
0.0
 16
1.0
 26
0.0
 36
0.0
 17
0.0
 27
1.0
 37
0.0
 76
     0
330
23
  0
LAYOUT
  5
22
102
{ACAD_REACTORS
330
1A
102
}
330
1A
100
AcDbPlotSettings
  1

  2
none_device
  4
Letter_(8.50_x_11.00_Inches)
  6

 40
6.349999999999999
 41
6.349999999999999
 42
6.350005
 43
6.350005
 44
215.9
 45
279.4
 46
0.0
 47
0.0
 48
0.0
 49
0.0
140
0.0
141
0.0
142
1.0
143
1.0
 70
  1712
 72
     0
 73
     0
 74
     0
  7

 75
     0
147
1.0
 76
     0
 77
     2
 78
   300
148
0.0
149
0.0
100
AcDbLayout
  1
Model
 70
     1
 71
     0
 10
-0.5
 20
-0.5
 11
5.0
 21
5.0
 12
0.0
 22
0.0
 32
0.0
 14
-0.5
 24
-0.5
 34
-0.5
 15
5.0
 25
5.0
 35
5.0
146
0.0
 13
0.0
 23
0.0
 33
0.0
 16
1.0
 26
0.0
 36
0.0
 17
0.0
 27
1.0
 37
0.0
 76
     0
330
1F
331
29
  0
MATERIAL
  5
45
102
{ACAD_XDICTIONARY
360
254
102
}
102
{ACAD_REACTORS
330
43
102
}
330
43
100
AcDbMaterial
  1
ByBlock
  0
MATERIAL
  5
44
102
{ACAD_XDICTIONARY
360
252
102
}
102
{ACAD_REACTORS
330
43
102
}
330
43
100
AcDbMaterial
  1
ByLayer
  0
MATERIAL
  5
46
102
{ACAD_XDICTIONARY
360
256
102
}
102
{ACAD_REACTORS
330
43
102
}
330
43
100
AcDbMaterial
  1
Global
  0
MLEADERSTYLE
  5
6C
102
{ACAD_REACTORS
330
6B
102
}
330
6B
100
AcDbMLeaderStyle
170
     2
171
     1
172
     0
 90
        2
 40
0.0
 41
0.0
173
     1
 91
-1056964608
340
14
 92
       -2
290
     1
 42
0.09
291
     1
 43
0.36
  3
Standard
 44
0.18
300

342
11
174
     1
178
     6
175
     1
176
     0
 93
-1056964608
 45
0.18
292
     0
297
     0
 46
0.18
 94
-1056964608
 47
1.0
 49
1.0
140
1.0
293
     1
141
0.0
294
     1
177
     0
142
1.0
295
     0
296
     0
143
0.125
1001
ACAD_MLEADERVER
1070
     2
  0
MLINESTYLE
  5
18
102
{ACAD_REACTORS
330
17
102
}
330
17
100
AcDbMlineStyle
  2
STANDARD
 70
     0
  3

 62
   256
 51
90.0
 52
90.0
 71
     2
 49
0.5
 62
   256
  6
BYLAYER
 49
-0.5
 62
   256
  6
BYLAYER
  0
ACDBPLACEHOLDER
  5
F
102
{ACAD_REACTORS
330
E
102
}
330
E
  0
SCALE
  5
48
102
{ACAD_REACTORS
330
47
102
}
330
47
100
AcDbScale
 70
     0
300
1:1
140
1.0
141
1.0
290
     1
  0
SCALE
  5
49
102
{ACAD_REACTORS
330
47
102
}
330
47
100
AcDbScale
 70
     0
300
1:2
140
1.0
141
2.0
290
     0
  0
SCALE
  5
4A
102
{ACAD_REACTORS
330
47
102
}
330
47
100
AcDbScale
 70
     0
300
1:4
140
1.0
141
4.0
290
     0
  0
SCALE
  5
4B
102
{ACAD_REACTORS
330
47
102
}
330
47
100
AcDbScale
 70
     0
300
1:5
140
1.0
141
5.0
290
     0
  0
SCALE
  5
4C
102
{ACAD_REACTORS
330
47
102
}
330
47
100
AcDbScale
 70
     0
300
1:8
140
1.0
141
8.0
290
     0
  0
SCALE
  5
4D
102
{ACAD_REACTORS
330
47
102
}
330
47
100
AcDbScale
 70
     0
300
1:10
140
1.0
141
10.0
290
     0
  0
SCALE
  5
4E
102
{ACAD_REACTORS
330
47
102
}
330
47
100
AcDbScale
 70
     0
300
1:16
140
1.0
141
16.0
290
     0
  0
SCALE
  5
4F
102
{ACAD_REACTORS
330
47
102
}
330
47
100
AcDbScale
 70
     0
300
1:20
140
1.0
141
20.0
290
     0
  0
SCALE
  5
50
102
{ACAD_REACTORS
330
47
102
}
330
47
100
AcDbScale
 70
     0
300
1:30
140
1.0
141
30.0
290
     0
  0
SCALE
  5
51
102
{ACAD_REACTORS
330
47
102
}
330
47
100
AcDbScale
 70
     0
300
1:40
140
1.0
141
40.0
290
     0
  0
SCALE
  5
52
102
{ACAD_REACTORS
330
47
102
}
330
47
100
AcDbScale
 70
     0
300
1:50
140
1.0
141
50.0
290
     0
  0
SCALE
  5
53
102
{ACAD_REACTORS
330
47
102
}
330
47
100
AcDbScale
 70
     0
300
1:100
140
1.0
141
100.0
290
     0
  0
SCALE
  5
54
102
{ACAD_REACTORS
330
47
102
}
330
47
100
AcDbScale
 70
     0
300
2:1
140
2.0
141
1.0
290
     0
  0
SCALE
  5
55
102
{ACAD_REACTORS
330
47
102
}
330
47
100
AcDbScale
 70
     0
300
4:1
140
4.0
141
1.0
290
     0
  0
SCALE
  5
56
102
{ACAD_REACTORS
330
47
102
}
330
47
100
AcDbScale
 70
     0
300
8:1
140
8.0
141
1.0
290
     0
  0
SCALE
  5
57
102
{ACAD_REACTORS
330
47
102
}
330
47
100
AcDbScale
 70
     0
300
10:1
140
10.0
141
1.0
290
     0
  0
SCALE
  5
58
102
{ACAD_REACTORS
330
47
102
}
330
47
100
AcDbScale
 70
     0
300
100:1
140
100.0
141
1.0
290
     0
  0
SCALE
  5
59
102
{ACAD_REACTORS
330
47
102
}
330
47
100
AcDbScale
 70
     0
300
1/128" = 1'-0"
140
0.007812
141
12.0
290
     0
  0
SCALE
  5
5A
102
{ACAD_REACTORS
330
47
102
}
330
47
100
AcDbScale
 70
     0
300
1/64" = 1'-0"
140
0.015625
141
12.0
290
     0
  0
SCALE
  5
5B
102
{ACAD_REACTORS
330
47
102
}
330
47
100
AcDbScale
 70
     0
300
1/32" = 1'-0"
140
0.03125
141
12.0
290
     0
  0
SCALE
  5
5C
102
{ACAD_REACTORS
330
47
102
}
330
47
100
AcDbScale
 70
     0
300
1/16" = 1'-0"
140
0.0625
141
12.0
290
     0
  0
SCALE
  5
5D
102
{ACAD_REACTORS
330
47
102
}
330
47
100
AcDbScale
 70
     0
300
3/32" = 1'-0"
140
0.09375
141
12.0
290
     0
  0
SCALE
  5
5E
102
{ACAD_REACTORS
330
47
102
}
330
47
100
AcDbScale
 70
     0
300
1/8" = 1'-0"
140
0.125
141
12.0
290
     0
  0
SCALE
  5
5F
102
{ACAD_REACTORS
330
47
102
}
330
47
100
AcDbScale
 70
     0
300
3/16" = 1'-0"
140
0.1875
141
12.0
290
     0
  0
SCALE
  5
60
102
{ACAD_REACTORS
330
47
102
}
330
47
100
AcDbScale
 70
     0
300
1/4" = 1'-0"
140
0.25
141
12.0
290
     0
  0
SCALE
  5
61
102
{ACAD_REACTORS
330
47
102
}
330
47
100
AcDbScale
 70
     0
300
3/8" = 1'-0"
140
0.375
141
12.0
290
     0
  0
SCALE
  5
62
102
{ACAD_REACTORS
330
47
102
}
330
47
100
AcDbScale
 70
     0
300
1/2" = 1'-0"
140
0.5
141
12.0
290
     0
  0
SCALE
  5
63
102
{ACAD_REACTORS
330
47
102
}
330
47
100
AcDbScale
 70
     0
300
3/4" = 1'-0"
140
0.75
141
12.0
290
     0
  0
SCALE
  5
64
102
{ACAD_REACTORS
330
47
102
}
330
47
100
AcDbScale
 70
     0
300
1" = 1'-0"
140
1.0
141
12.0
290
     0
  0
SCALE
  5
65
102
{ACAD_REACTORS
330
47
102
}
330
47
100
AcDbScale
 70
     0
300
1-1/2" = 1'-0"
140
1.5
141
12.0
290
     0
  0
SCALE
  5
66
102
{ACAD_REACTORS
330
47
102
}
330
47
100
AcDbScale
 70
     0
300
3" = 1'-0"
140
3.0
141
12.0
290
     0
  0
SCALE
  5
67
102
{ACAD_REACTORS
330
47
102
}
330
47
100
AcDbScale
 70
     0
300
6" = 1'-0"
140
6.0
141
12.0
290
     0
  0
SCALE
  5
68
102
{ACAD_REACTORS
330
47
102
}
330
47
100
AcDbScale
 70
     0
300
1'-0" = 1'-0"
140
12.0
141
12.0
290
     0
  0
ACDBSECTIONVIEWSTYLE
  5
266
102
{ACAD_XDICTIONARY
360
37A
102
}
102
{ACAD_REACTORS
330
262
330
2C8
102
}
330
262
100
AcDbModelDocViewStyle
 70
     0
  3
Metric50
290
     0
100
AcDbSectionViewStyle
 70
     0
 71
     0
 90
      102
 71
     1
340
11
 62
   256
 40
5.0
340
0
340
0
 62
   256
 40
5.0
300
I, O, Q, S, X, Z
 40
10.0
 90
        0
 40
2.5
 90
        0
 71
     2
340
16
 90
       25
 62
   256
340
16
 90
       50
 62
   256
 40
5.0
 40
2.5
 40
5.0
 71
     3
340
11
 62
   256
 40
5.0
 90
        0
 40
15.0
 90
        1
300
%<\AcVar ViewSectionStartId>%-%<\AcVar ViewSectionEndId>% (%<\AcVar ViewScale \f "%sn">%)
 71
     4
 62
   256
 62
   257
300
ANSI31
 40
1.0
 90
        0
290
     0
290
     0
 90
        6
 40
0.0
 40
1.570796326794896
 40
0.2617993877991494
 40
1.308996938995747
 40
-0.2617993877991494
 40
1.832595714594046
  0
TABLESTYLE
  5
6A
102
{ACAD_XDICTIONARY
360
258
102
}
102
{ACAD_REACTORS
330
69
102
}
330
69
100
AcDbTableStyle
  3
Standard
 70
     0
 71
     0
 40
0.06
 41
0.06
280
     0
281
     0
  7
Standard
140
0.18
170
     2
 62
     0
 63
     7
283
     0
274
    -2
284
     1
 64
     0
275
    -2
285
     1
 65
     0
276
    -2
286
     1
 66
     0
277
    -2
287
     1
 67
     0
278
    -2
288
     1
 68
     0
279
    -2
289
     1
 69
     0
  7
Standard
140
0.25
170
     5
 62
     0
 63
     7
283
     0
274
    -2
284
     1
 64
     0
275
    -2
285
     1
 65
     0
276
    -2
286
     1
 66
     0
277
    -2
287
     1
 67
     0
278
    -2
288
     1
 68
     0
279
    -2
289
     1
 69
     0
  7
Standard
140
0.18
170
     5
 62
     0
 63
     7
283
     0
274
    -2
284
     1
 64
     0
275
    -2
285
     1
 65
     0
276
    -2
286
     1
 66
     0
277
    -2
287
     1
 67
     0
278
    -2
288
     1
 68
     0
279
    -2
289
     1
 69
     0
  0
VISUALSTYLE
  5
2F
102
{ACAD_XDICTIONARY
360
351
102
}
102
{ACAD_REACTORS
330
2A
102
}
330
2A
100
AcDbVisualStyle
  2

 70
     4
 71
     0
 72
     2
 73
     0
 90
        0
 40
-0.6
 41
-30.0
 62
     5
 63
     7
421
 16777215
 74
     1
 91
        4
 64
     7
 65
   257
 75
     1
175
     1
 42
1.0
 92
        0
 66
   257
 43
1.0
 76
     1
 77
     6
 78
     2
 67
     7
 79
     5
170
     0
171
     0
290
     0
174
     0
 93
        1
 44
0.0
173
     0
291
     0
 45
0.0
1001
ACAD
1000
AcDbSavedByObjectVersion
1070
     0
  0
VISUALSTYLE
  5
32
102
{ACAD_XDICTIONARY
360
357
102
}
102
{ACAD_REACTORS
330
2A
102
}
330
2A
100
AcDbVisualStyle
  2

 70
     7
 71
     1
 72
     0
 73
     1
 90
        0
 40
-0.6
 41
-30.0
 62
     5
 63
     7
421
 16777215
 74
     0
 91
        4
 64
     7
 65
   257
 75
     1
175
     1
 42
1.0
 92
        8
 66
     7
 43
1.0
 76
     1
 77
     6
 78
     2
 67
     7
 79
     5
170
     0
171
     0
290
     0
174
     0
 93
        1
 44
0.0
173
     0
291
     1
 45
0.0
1001
ACAD
1000
AcDbSavedByObjectVersion
1070
     0
  0
VISUALSTYLE
  5
36
102
{ACAD_XDICTIONARY
360
35F
102
}
102
{ACAD_REACTORS
330
2A
102
}
330
2A
100
AcDbVisualStyle
  2

 70
    12
 71
     2
 72
     2
 73
     0
 90
        0
 40
-0.6
 41
-30.0
 62
     5
 63
     7
421
 16777215
 74
     1
 91
        4
 64
     7
 65
   257
 75
     1
175
     1
 42
1.0
 92
        8
 66
     7
 43
1.0
 76
     1
 77
     6
 78
     2
 67
     7
 79
     5
170
     0
171
     0
290
     0
174
     0
 93
        1
 44
50.0
173
     0
291
     1
 45
0.0
1001
ACAD
1000
AcDbSavedByObjectVersion
1070
     0
  0
VISUALSTYLE
  5
3A
102
{ACAD_XDICTIONARY
360
367
102
}
102
{ACAD_REACTORS
330
2A
102
}
330
2A
100
AcDbVisualStyle
  2

 70
    16
 71
     2
 72
     2
 73
     3
 90
        0
 40
-0.6
 41
-30.0
 62
     5
 63
     8
421
  8421504
 74
     1
 91
        4
 64
     7
 65
   257
 75
     1
175
     1
 42
1.0
 92
        8
 66
     8
424
  8421504
 43
1.0
 76
     1
 77
     6
 78
     2
 67
     7
 79
     5
170
     0
171
     0
290
     0
174
     0
 93
        1
 44
0.0
173
     0
291
     1
 45
0.0
1001
ACAD
1000
AcDbSavedByObjectVersion
1070
     0
  0
VISUALSTYLE
  5
34
102
{ACAD_XDICTIONARY
360
35B
102
}
102
{ACAD_REACTORS
330
2A
102
}
330
2A
100
AcDbVisualStyle
  2

 70
     9
 71
     3
 72
     2
 73
     0
 90
        0
 40
-0.6
 41
-30.0
 62
     5
 63
     7
421
 16777215
 74
     2
 91
        2
 64
     7
 65
   257
 75
     1
175
     1
 42
179.0
 92
        8
 66
     7
 43
1.0
 76
     1
 77
     6
 78
     2
 67
     7
 79
     3
170
     0
171
     0
290
     0
174
     0
 93
        1
 44
0.0
173
     0
291
     0
 45
0.0
1001
ACAD
1000
AcDbSavedByObjectVersion
1070
     0
  0
VISUALSTYLE
  5
35
102
{ACAD_XDICTIONARY
360
35D
102
}
102
{ACAD_REACTORS
330
2A
102
}
330
2A
100
AcDbVisualStyle
  2

 70
    11
 71
     2
 72
     2
 73
     0
 90
        0
 40
-0.6
 41
-30.0
 62
     5
 63
     7
421
 16777215
 74
     1
 91
        4
 64
     7
 65
   257
 75
     1
175
     1
 42
1.0
 92
        8
 66
     7
 43
1.0
 76
     1
 77
     6
 78
     2
 67
     7
 79
     5
170
     0
171
     0
290
     0
174
     0
 93
        1
 44
-50.0
173
     0
291
     1
 45
0.0
1001
ACAD
1000
AcDbSavedByObjectVersion
1070
     0
  0
VISUALSTYLE
  5
3D
102
{ACAD_XDICTIONARY
360
36D
102
}
102
{ACAD_REACTORS
330
2A
102
}
330
2A
100
AcDbVisualStyle
  2

 70
    22
 71
     2
 72
     2
 73
     0
 90
        0
 40
-0.6
 41
-30.0
 62
     5
 63
     7
421
 16777215
 74
     1
 91
        4
 64
     7
 65
   257
 75
     1
175
     1
 42
1.0
 92
        8
 66
     7
 43
1.0
 76
     1
 77
     6
 78
     2
 67
     7
 79
     5
170
     0
171
     0
290
     0
174
     0
 93
        1
 44
0.0
173
     0
291
     1
 45
0.0
1001
ACAD
1000
AcDbSavedByObjectVersion
1070
     0
  0
VISUALSTYLE
  5
39
102
{ACAD_XDICTIONARY
360
365
102
}
102
{ACAD_REACTORS
330
2A
102
}
330
2A
100
AcDbVisualStyle
  2

 70
    15
 71
     2
 72
     2
 73
     0
 90
        0
 40
-0.6
 41
-30.0
 62
     5
 63
     7
421
 16777215
 74
     1
 91
        4
 64
     7
 65
   257
 75
     1
175
     1
 42
1.0
 92
        8
 66
     7
 43
1.0
 76
     1
 77
     6
 78
     2
 67
     7
 79
     5
170
     0
171
     0
290
     0
174
     0
 93
        1
 44
0.0
173
     0
291
     1
 45
0.0
1001
ACAD
1000
AcDbSavedByObjectVersion
1070
     0
  0
VISUALSTYLE
  5
2B
102
{ACAD_XDICTIONARY
360
349
102
}
102
{ACAD_REACTORS
330
2A
102
}
330
2A
100
AcDbVisualStyle
  2

 70
     0
 71
     2
 72
     1
 73
     1
 90
        2
 40
-0.6
 41
30.0
 62
     5
 63
     7
421
 16777215
 74
     0
 91
        0
 64
     7
 65
   257
 75
     1
175
     1
 42
1.0
 92
        8
 66
     7
 43
1.0
 76
     1
 77
     6
 78
     2
 67
     7
 79
     5
170
     0
171
     0
290
     0
174
     0
 93
       13
 44
0.0
173
     0
291
     1
 45
0.0
1001
ACAD
1000
AcDbSavedByObjectVersion
1070
     0
  0
VISUALSTYLE
  5
2C
102
{ACAD_XDICTIONARY
360
34B
102
}
102
{ACAD_REACTORS
330
2A
102
}
330
2A
100
AcDbVisualStyle
  2

 70
     1
 71
     2
 72
     1
 73
     1
 90
        2
 40
-0.6
 41
30.0
 62
     5
 63
     7
421
 16777215
 74
     1
 91
        0
 64
     7
 65
   257
 75
     1
175
     1
 42
1.0
 92
        0
 66
   257
 43
1.0
 76
     1
 77
     6
 78
     2
 67
     7
 79
     5
170
     0
171
     0
290
     0
174
     0
 93
       13
 44
0.0
173
     0
291
     1
 45
0.0
1001
ACAD
1000
AcDbSavedByObjectVersion
1070
     0
  0
VISUALSTYLE
  5
2D
102
{ACAD_XDICTIONARY
360
34D
102
}
102
{ACAD_REACTORS
330
2A
102
}
330
2A
100
AcDbVisualStyle
  2

 70
     2
 71
     2
 72
     2
 73
     1
 90
        2
 40
-0.6
 41
30.0
 62
     5
 63
     7
421
 16777215
 74
     0
 91
        0
 64
     7
 65
   257
 75
     1
175
     1
 42
1.0
 92
        0
 66
     7
 43
1.0
 76
     1
 77
     6
 78
     2
 67
     7
 79
     5
170
     0
171
     0
290
     0
174
     0
 93
       13
 44
0.0
173
     0
291
     1
 45
0.0
1001
ACAD
1000
AcDbSavedByObjectVersion
1070
     0
  0
VISUALSTYLE
  5
2E
102
{ACAD_XDICTIONARY
360
34F
102
}
102
{ACAD_REACTORS
330
2A
102
}
330
2A
100
AcDbVisualStyle
  2

 70
     3
 71
     2
 72
     2
 73
     1
 90
        2
 40
-0.6
 41
30.0
 62
     5
 63
     7
421
 16777215
 74
     1
 91
        0
 64
     7
 65
   257
 75
     1
175
     1
 42
1.0
 92
        0
 66
   257
 43
1.0
 76
     1
 77
     6
 78
     2
 67
     7
 79
     5
170
     0
171
     0
290
     0
174
     0
 93
       13
 44
0.0
173
     0
291
     1
 45
0.0
1001
ACAD
1000
AcDbSavedByObjectVersion
1070
     0
  0
VISUALSTYLE
  5
31
102
{ACAD_XDICTIONARY
360
355
102
}
102
{ACAD_REACTORS
330
2A
102
}
330
2A
100
AcDbVisualStyle
  2

 70
     6
 71
     1
 72
     2
 73
     2
 90
        0
 40
-0.6
 41
-30.0
 62
     5
 63
     7
421
 16777215
 74
     2
 91
        2
 64
     7
 65
   257
 75
     2
175
     1
 42
40.0
 92
        0
 66
   257
 43
1.0
 76
     1
 77
     6
 78
     2
 67
     7
 79
     3
170
     0
171
     0
290
     0
174
     0
 93
        1
 44
0.0
173
     0
291
     0
 45
0.0
1001
ACAD
1000
AcDbSavedByObjectVersion
1070
     0
  0
VISUALSTYLE
  5
3B
102
{ACAD_XDICTIONARY
360
369
102
}
102
{ACAD_REACTORS
330
2A
102
}
330
2A
100
AcDbVisualStyle
  2

 70
    20
 71
     2
 72
     2
 73
     0
 90
        0
 40
-0.6
 41
-30.0
 62
     5
 63
     7
421
 16777215
 74
     1
 91
        4
 64
     7
 65
   257
 75
     1
175
     1
 42
1.0
 92
       10
 66
     7
 43
1.0
 76
     1
 77
     6
 78
     2
 67
     7
 79
     5
170
     0
171
     0
290
     0
174
     0
 93
        1
 44
0.0
173
     0
291
     1
 45
0.0
1001
ACAD
1000
AcDbSavedByObjectVersion
1070
     0
  0
VISUALSTYLE
  5
38
102
{ACAD_XDICTIONARY
360
363
102
}
102
{ACAD_REACTORS
330
2A
102
}
330
2A
100
AcDbVisualStyle
  2

 70
    14
 71
     2
 72
     2
 73
     0
 90
        0
 40
-0.6
 41
-30.0
 62
     5
 63
     7
421
 16777215
 74
     1
 91
        4
 64
     7
 65
   257
 75
     7
175
     7
 42
1.0
 92
        8
 66
     7
 43
1.0
 76
     1
 77
     6
 78
     2
 67
     7
 79
     5
170
     0
171
     0
290
     0
174
     0
 93
        1
 44
0.0
173
     0
291
     1
 45
0.0
1001
ACAD
1000
AcDbSavedByObjectVersion
1070
     0
  0
VISUALSTYLE
  5
3C
102
{ACAD_XDICTIONARY
360
36B
102
}
102
{ACAD_REACTORS
330
2A
102
}
330
2A
100
AcDbVisualStyle
  2

 70
    21
 71
     2
 72
     2
 73
     0
 90
        0
 40
-0.6
 41
-30.0
 62
     5
 63
     7
421
 16777215
 74
     1
 91
        4
 64
     7
 65
   257
 75
     1
175
     1
 42
1.0
 92
        9
 66
     7
 43
1.0
 76
     1
 77
     6
 78
     2
 67
     7
 79
     5
170
     0
171
     0
290
     0
174
     0
 93
        1
 44
0.0
173
     0
291
     1
 45
0.0
1001
ACAD
1000
AcDbSavedByObjectVersion
1070
     0
  0
VISUALSTYLE
  5
33
102
{ACAD_XDICTIONARY
360
359
102
}
102
{ACAD_REACTORS
330
2A
102
}
330
2A
100
AcDbVisualStyle
  2

 70
     8
 71
     2
 72
     3
 73
     0
 90
        2
 40
-0.6
 41
30.0
 62
     5
 63
     7
421
 16777215
 74
     0
 91
        0
 64
     7
 65
   257
 75
     1
175
     1
 42
1.0
 92
        8
 66
   257
 43
1.0
 76
     1
 77
     6
 78
     2
 67
     7
 79
     3
170
     0
171
     0
290
     0
174
     0
 93
       13
 44
0.0
173
     0
291
     0
 45
0.0
1001
ACAD
1000
AcDbSavedByObjectVersion
1070
     0
  0
VISUALSTYLE
  5
42
102
{ACAD_XDICTIONARY
360
377
102
}
102
{ACAD_REACTORS
330
2A
102
}
330
2A
100
AcDbVisualStyle
  2

 70
    27
 71
     2
 72
     2
 73
     1
 90
        2
 40
-0.6
 41
30.0
 62
     5
 63
     7
421
 16777215
 74
     0
 91
        4
 64
     7
 65
   257
 75
     1
175
     1
 42
1.0
 92
        8
 66
   257
 43
1.0
 76
     1
 77
     6
 78
     2
 67
     8
425
  7895160
 79
     3
170
     0
171
     0
290
     0
174
     0
 93
        5
 44
0.0
173
     0
291
     0
 45
0.0
1001
ACAD
1000
AcDbSavedByObjectVersion
1070
     0
  0
VISUALSTYLE
  5
41
102
{ACAD_XDICTIONARY
360
375
102
}
102
{ACAD_REACTORS
330
2A
102
}
330
2A
100
AcDbVisualStyle
  2

 70
    26
 71
     2
 72
     2
 73
     1
 90
        2
 40
-0.6
 41
30.0
 62
     5
 63
     7
421
 16777215
 74
     1
 91
       10
 64
     7
 65
   257
 75
     2
175
     1
 42
1.0
 92
        8
 66
   257
 43
1.0
 76
     1
 77
     6
 78
     2
 67
     7
 79
     3
170
     0
171
     0
290
     0
174
     0
 93
        5
 44
0.0
173
     0
291
     0
 45
0.0
1001
ACAD
1000
AcDbSavedByObjectVersion
1070
     0
  0
VISUALSTYLE
  5
3E
102
{ACAD_XDICTIONARY
360
36F
102
}
102
{ACAD_REACTORS
330
2A
102
}
330
2A
100
AcDbVisualStyle
  2

 70
    23
 71
     2
 72
     2
 73
     3
 90
        0
 40
-0.6
 41
-30.0
 62
     5
 63
     7
421
 16777215
 74
     2
 91
        2
 64
     7
 65
     7
 75
     1
175
     1
 42
40.0
 92
        8
 66
     7
 43
1.0
 76
     1
 77
     6
 78
     2
 67
     7
 79
     3
170
     0
171
     0
290
     0
174
     0
 93
        1
 44
0.0
173
     0
291
     0
 45
0.0
1001
ACAD
1000
AcDbSavedByObjectVersion
1070
     0
  0
VISUALSTYLE
  5
3F
102
{ACAD_XDICTIONARY
360
371
102
}
102
{ACAD_REACTORS
330
2A
102
}
330
2A
100
AcDbVisualStyle
  2

 70
    24
 71
     1
 72
     2
 73
     2
 90
        0
 40
-0.6
 41
-30.0
 62
     5
 63
     7
421
 16777215
 74
     2
 91
        2
 64
     7
 65
     7
 75
     1
175
     1
 42
40.0
 92
       11
 66
     7
 43
1.0
 76
     1
 77
     6
 78
     2
 67
     7
 79
     6
170
     0
171
     0
290
     0
174
     0
 93
        1
 44
0.0
173
     0
291
     0
 45
0.0
1001
ACAD
1000
AcDbSavedByObjectVersion
1070
     0
  0
VISUALSTYLE
  5
37
102
{ACAD_XDICTIONARY
360
361
102
}
102
{ACAD_REACTORS
330
2A
102
}
330
2A
100
AcDbVisualStyle
  2

 70
    13
 71
     2
 72
     2
 73
     0
 90
        0
 40
-0.6
 41
-30.0
 62
     5
 63
     7
421
 16777215
 74
     1
 91
        4
 64
     7
 65
   257
 75
     1
175
     1
 42
1.0
 92
       12
 66
     7
 43
1.0
 76
     1
 77
     6
 78
     2
 67
     7
 79
     5
170
     0
171
     0
290
     0
174
     0
 93
        1
 44
0.0
173
     0
291
     1
 45
0.0
1001
ACAD
1000
AcDbSavedByObjectVersion
1070
     0
  0
VISUALSTYLE
  5
30
102
{ACAD_XDICTIONARY
360
353
102
}
102
{ACAD_REACTORS
330
2A
102
}
330
2A
100
AcDbVisualStyle
  2

 70
     5
 71
     0
 72
     2
 73
     0
 90
        0
 40
-0.6
 41
-30.0
 62
     5
 63
     7
421
 16777215
 74
     1
 91
        4
 64
     7
 65
   257
 75
     1
175
     1
 42
1.0
 92
        0
 66
   257
 43
1.0
 76
     1
 77
     6
 78
     2
 67
     7
 79
     3
170
     0
171
     0
290
     0
174
     0
 93
        1
 44
0.0
173
     0
291
     0
 45
0.0
1001
ACAD
1000
AcDbSavedByObjectVersion
1070
     0
  0
VISUALSTYLE
  5
40
102
{ACAD_XDICTIONARY
360
373
102
}
102
{ACAD_REACTORS
330
2A
102
}
330
2A
100
AcDbVisualStyle
  2

 70
    25
 71
     2
 72
     2
 73
     1
 90
        1
 40
0.5
 41
-30.0
 62
     5
 63
     7
421
 16777215
 74
     1
 91
        0
 64
     7
 65
   257
 75
     1
175
     1
 42
1.0
 92
        8
 66
     7
 43
1.0
 76
     1
 77
     6
 78
     2
 67
     7
 79
     3
170
     0
171
     0
290
     0
174
     0
 93
       13
 44
0.0
173
     0
291
     0
 45
0.0
1001
ACAD
1000
AcDbSavedByObjectVersion
1070
     0
  0
DICTIONARYVAR
  5
21F
102
{ACAD_REACTORS
330
21E
102
}
330
21E
100
DictionaryVariables
280
     0
  1
1:1
  0
DICTIONARYVAR
  5
260
102
{ACAD_REACTORS
330
21E
102
}
330
21E
100
DictionaryVariables
280
     0
  1
STANDARD
  0
DICTIONARYVAR
  5
25F
102
{ACAD_REACTORS
330
21E
102
}
330
21E
100
DictionaryVariables
280
     0
  1
STANDARD
  0
DICTIONARYVAR
  5
344
102
{ACAD_REACTORS
330
21E
102
}
330
21E
100
DictionaryVariables
280
     0
  1
Metric50
  0
DICTIONARYVAR
  5
345
102
{ACAD_REACTORS
330
21E
102
}
330
21E
100
DictionaryVariables
280
     0
  1
Metric50
  0
DICTIONARYVAR
  5
220
102
{ACAD_REACTORS
330
21E
102
}
330
21E
100
DictionaryVariables
280
     0
  1
1
  0
DICTIONARYVAR
  5
346
102
{ACAD_REACTORS
330
21E
102
}
330
21E
100
DictionaryVariables
280
     0
  1
2
  0
DICTIONARY
  5
29E
102
{ACAD_REACTORS
330
297
102
}
330
297
100
AcDbDictionary
281
     1
  0
DICTIONARY
  5
37C
330
267
100
AcDbDictionary
280
     1
281
     1
  3
ACAD_XREC_ROUNDTRIP
360
37D
  0
DICTIONARY
  5
254
330
45
100
AcDbDictionary
280
     1
281
     1
  3
ACAD_XREC_ROUNDTRIP
360
255
  0
DICTIONARY
  5
252
330
44
100
AcDbDictionary
280
     1
281
     1
  3
ACAD_XREC_ROUNDTRIP
360
253
  0
DICTIONARY
  5
256
330
46
100
AcDbDictionary
280
     1
281
     1
  3
ACAD_XREC_ROUNDTRIP
360
257
  0
DICTIONARY
  5
37A
330
266
100
AcDbDictionary
280
     1
281
     1
  3
ACAD_XREC_ROUNDTRIP
360
37B
  0
DICTIONARY
  5
258
330
6A
100
AcDbDictionary
280
     1
281
     1
  3
ACAD_ROUNDTRIP_2008_TABLESTYLE_CELLSTYLEMAP
360
347
  3
ACAD_XREC_ROUNDTRIP
360
379
  0
DICTIONARY
  5
351
330
2F
100
AcDbDictionary
280
     1
281
     1
  3
ACAD_XREC_ROUNDTRIP
360
352
  0
DICTIONARY
  5
357
330
32
100
AcDbDictionary
280
     1
281
     1
  3
ACAD_XREC_ROUNDTRIP
360
358
  0
DICTIONARY
  5
35F
330
36
100
AcDbDictionary
280
     1
281
     1
  3
ACAD_XREC_ROUNDTRIP
360
360
  0
DICTIONARY
  5
367
330
3A
100
AcDbDictionary
280
     1
281
     1
  3
ACAD_XREC_ROUNDTRIP
360
368
  0
DICTIONARY
  5
35B
330
34
100
AcDbDictionary
280
     1
281
     1
  3
ACAD_XREC_ROUNDTRIP
360
35C
  0
DICTIONARY
  5
35D
330
35
100
AcDbDictionary
280
     1
281
     1
  3
ACAD_XREC_ROUNDTRIP
360
35E
  0
DICTIONARY
  5
36D
330
3D
100
AcDbDictionary
280
     1
281
     1
  3
ACAD_XREC_ROUNDTRIP
360
36E
  0
DICTIONARY
  5
365
330
39
100
AcDbDictionary
280
     1
281
     1
  3
ACAD_XREC_ROUNDTRIP
360
366
  0
DICTIONARY
  5
349
330
2B
100
AcDbDictionary
280
     1
281
     1
  3
ACAD_XREC_ROUNDTRIP
360
34A
  0
DICTIONARY
  5
34B
330
2C
100
AcDbDictionary
280
     1
281
     1
  3
ACAD_XREC_ROUNDTRIP
360
34C
  0
DICTIONARY
  5
34D
330
2D
100
AcDbDictionary
280
     1
281
     1
  3
ACAD_XREC_ROUNDTRIP
360
34E
  0
DICTIONARY
  5
34F
330
2E
100
AcDbDictionary
280
     1
281
     1
  3
ACAD_XREC_ROUNDTRIP
360
350
  0
DICTIONARY
  5
355
330
31
100
AcDbDictionary
280
     1
281
     1
  3
ACAD_XREC_ROUNDTRIP
360
356
  0
DICTIONARY
  5
369
330
3B
100
AcDbDictionary
280
     1
281
     1
  3
ACAD_XREC_ROUNDTRIP
360
36A
  0
DICTIONARY
  5
363
330
38
100
AcDbDictionary
280
     1
281
     1
  3
ACAD_XREC_ROUNDTRIP
360
364
  0
DICTIONARY
  5
36B
330
3C
100
AcDbDictionary
280
     1
281
     1
  3
ACAD_XREC_ROUNDTRIP
360
36C
  0
DICTIONARY
  5
359
330
33
100
AcDbDictionary
280
     1
281
     1
  3
ACAD_XREC_ROUNDTRIP
360
35A
  0
DICTIONARY
  5
377
330
42
100
AcDbDictionary
280
     1
281
     1
  3
ACAD_XREC_ROUNDTRIP
360
378
  0
DICTIONARY
  5
375
330
41
100
AcDbDictionary
280
     1
281
     1
  3
ACAD_XREC_ROUNDTRIP
360
376
  0
DICTIONARY
  5
36F
330
3E
100
AcDbDictionary
280
     1
281
     1
  3
ACAD_XREC_ROUNDTRIP
360
370
  0
DICTIONARY
  5
371
330
3F
100
AcDbDictionary
280
     1
281
     1
  3
ACAD_XREC_ROUNDTRIP
360
372
  0
DICTIONARY
  5
361
330
37
100
AcDbDictionary
280
     1
281
     1
  3
ACAD_XREC_ROUNDTRIP
360
362
  0
DICTIONARY
  5
353
330
30
100
AcDbDictionary
280
     1
281
     1
  3
ACAD_XREC_ROUNDTRIP
360
354
  0
DICTIONARY
  5
373
330
40
100
AcDbDictionary
280
     1
281
     1
  3
ACAD_XREC_ROUNDTRIP
360
374
  0
XRECORD
  5
37D
102
{ACAD_REACTORS
330
37C
102
}
330
37C
100
AcDbXrecord
280
     1
102
DISPLAYNAME
  1
Metric50
102
FLAGS
 90
        0
  0
XRECORD
  5
255
102
{ACAD_REACTORS
330
254
102
}
330
254
100
AcDbXrecord
280
     1
102
MATERIAL
148
0.0
149
0.0
149
0.0
 93
        0
 94
      127
282
     0
 72
     1
 77
     1
171
     1
175
     1
179
     1
273
     0
  0
XRECORD
  5
253
102
{ACAD_REACTORS
330
252
102
}
330
252
100
AcDbXrecord
280
     1
102
MATERIAL
148
0.0
149
0.0
149
0.0
 93
        0
 94
      127
282
     0
 72
     1
 77
     1
171
     1
175
     1
179
     1
273
     0
  0
XRECORD
  5
257
102
{ACAD_REACTORS
330
256
102
}
330
256
100
AcDbXrecord
280
     1
102
MATERIAL
148
0.0
149
0.0
149
0.0
 93
        0
 94
      127
282
     0
 72
     1
 77
     1
171
     1
175
     1
179
     1
273
     0
  0
XRECORD
  5
37B
102
{ACAD_REACTORS
330
37A
102
}
330
37A
100
AcDbXrecord
280
     1
102
DISPLAYNAME
  1
Metric50
102
FLAGS
 90
        0
  0
CELLSTYLEMAP
  5
347
102
{ACAD_REACTORS
330
258
102
}
330
258
100
AcDbCellStyleMap
 90
        3
300
CELLSTYLE
  1
TABLEFORMAT_BEGIN
 90
        5
170
     1
 91
        0
 92
    32768
 62
   257
 93
        1
300
CONTENTFORMAT
  1
CONTENTFORMAT_BEGIN
 90
        0
 91
        0
 92
        4
 93
        0
300

 40
0.0
140
1.0
 94
        5
 62
     0
340
11
144
0.25
309
CONTENTFORMAT_END
171
     1
301
MARGIN
  1
CELLMARGIN_BEGIN
 40
0.06
 40
0.06
 40
0.06
 40
0.06
 40
0.18
 40
0.18
309
CELLMARGIN_END
 94
        6
 95
        1
302
GRIDFORMAT
  1
GRIDFORMAT_BEGIN
 90
        0
 91
        1
 62
     0
 92
       -2
340
14
 93
        0
 40
0.045
309
GRIDFORMAT_END
 95
        2
302
GRIDFORMAT
  1
GRIDFORMAT_BEGIN
 90
        0
 91
        1
 62
     0
 92
       -2
340
14
 93
        0
 40
0.045
309
GRIDFORMAT_END
 95
        4
302
GRIDFORMAT
  1
GRIDFORMAT_BEGIN
 90
        0
 91
        1
 62
     0
 92
       -2
340
14
 93
        0
 40
0.045
309
GRIDFORMAT_END
 95
        8
302
GRIDFORMAT
  1
GRIDFORMAT_BEGIN
 90
        0
 91
        1
 62
     0
 92
       -2
340
14
 93
        0
 40
0.045
309
GRIDFORMAT_END
 95
       16
302
GRIDFORMAT
  1
GRIDFORMAT_BEGIN
 90
        0
 91
        1
 62
     0
 92
       -2
340
14
 93
        0
 40
0.045
309
GRIDFORMAT_END
 95
       32
302
GRIDFORMAT
  1
GRIDFORMAT_BEGIN
 90
        0
 91
        1
 62
     0
 92
       -2
340
14
 93
        0
 40
0.045
309
GRIDFORMAT_END
309
TABLEFORMAT_END
  1
CELLSTYLE_BEGIN
 90
        1
 91
        1
300
_TITLE
309
CELLSTYLE_END
300
CELLSTYLE
  1
TABLEFORMAT_BEGIN
 90
        5
170
     1
 91
        0
 92
        0
 62
   257
 93
        1
300
CONTENTFORMAT
  1
CONTENTFORMAT_BEGIN
 90
        0
 91
        0
 92
        4
 93
        0
300

 40
0.0
140
1.0
 94
        5
 62
     0
340
11
144
0.18
309
CONTENTFORMAT_END
171
     1
301
MARGIN
  1
CELLMARGIN_BEGIN
 40
0.06
 40
0.06
 40
0.06
 40
0.06
 40
0.18
 40
0.18
309
CELLMARGIN_END
 94
        6
 95
        1
302
GRIDFORMAT
  1
GRIDFORMAT_BEGIN
 90
        0
 91
        1
 62
     0
 92
       -2
340
14
 93
        0
 40
0.045
309
GRIDFORMAT_END
 95
        2
302
GRIDFORMAT
  1
GRIDFORMAT_BEGIN
 90
        0
 91
        1
 62
     0
 92
       -2
340
14
 93
        0
 40
0.045
309
GRIDFORMAT_END
 95
        4
302
GRIDFORMAT
  1
GRIDFORMAT_BEGIN
 90
        0
 91
        1
 62
     0
 92
       -2
340
14
 93
        0
 40
0.045
309
GRIDFORMAT_END
 95
        8
302
GRIDFORMAT
  1
GRIDFORMAT_BEGIN
 90
        0
 91
        1
 62
     0
 92
       -2
340
14
 93
        0
 40
0.045
309
GRIDFORMAT_END
 95
       16
302
GRIDFORMAT
  1
GRIDFORMAT_BEGIN
 90
        0
 91
        1
 62
     0
 92
       -2
340
14
 93
        0
 40
0.045
309
GRIDFORMAT_END
 95
       32
302
GRIDFORMAT
  1
GRIDFORMAT_BEGIN
 90
        0
 91
        1
 62
     0
 92
       -2
340
14
 93
        0
 40
0.045
309
GRIDFORMAT_END
309
TABLEFORMAT_END
  1
CELLSTYLE_BEGIN
 90
        2
 91
        1
300
_HEADER
309
CELLSTYLE_END
300
CELLSTYLE
  1
TABLEFORMAT_BEGIN
 90
        5
170
     1
 91
        0
 92
        0
 62
   257
 93
        1
300
CONTENTFORMAT
  1
CONTENTFORMAT_BEGIN
 90
        0
 91
        0
 92
        4
 93
        0
300

 40
0.0
140
1.0
 94
        2
 62
     0
340
11
144
0.18
309
CONTENTFORMAT_END
171
     1
301
MARGIN
  1
CELLMARGIN_BEGIN
 40
0.06
 40
0.06
 40
0.06
 40
0.06
 40
0.18
 40
0.18
309
CELLMARGIN_END
 94
        6
 95
        1
302
GRIDFORMAT
  1
GRIDFORMAT_BEGIN
 90
        0
 91
        1
 62
     0
 92
       -2
340
14
 93
        0
 40
0.045
309
GRIDFORMAT_END
 95
        2
302
GRIDFORMAT
  1
GRIDFORMAT_BEGIN
 90
        0
 91
        1
 62
     0
 92
       -2
340
14
 93
        0
 40
0.045
309
GRIDFORMAT_END
 95
        4
302
GRIDFORMAT
  1
GRIDFORMAT_BEGIN
 90
        0
 91
        1
 62
     0
 92
       -2
340
14
 93
        0
 40
0.045
309
GRIDFORMAT_END
 95
        8
302
GRIDFORMAT
  1
GRIDFORMAT_BEGIN
 90
        0
 91
        1
 62
     0
 92
       -2
340
14
 93
        0
 40
0.045
309
GRIDFORMAT_END
 95
       16
302
GRIDFORMAT
  1
GRIDFORMAT_BEGIN
 90
        0
 91
        1
 62
     0
 92
       -2
340
14
 93
        0
 40
0.045
309
GRIDFORMAT_END
 95
       32
302
GRIDFORMAT
  1
GRIDFORMAT_BEGIN
 90
        0
 91
        1
 62
     0
 92
       -2
340
14
 93
        0
 40
0.045
309
GRIDFORMAT_END
309
TABLEFORMAT_END
  1
CELLSTYLE_BEGIN
 90
        3
 91
        2
300
_DATA
309
CELLSTYLE_END
  0
XRECORD
  5
379
102
{ACAD_REACTORS
330
258
102
}
330
258
100
AcDbXrecord
280
     1
102
ACAD_ROUNDTRIP_PRE2007_TABLESTYLE
 90
        4
 91
        0
  1

 92
        4
 93
        0
  2

 94
        4
 95
        0
  3

  0
XRECORD
  5
352
102
{ACAD_REACTORS
330
351
102
}
330
351
100
AcDbXrecord
280
     1
102
RTVSPost2010Prop28
280
     1
102
RTVSPost2010PropOp28
 70
     1
102
RTVSPost2010Prop29
280
     1
102
RTVSPost2010PropOp29
 70
     1
102
RTVSPost2010Prop30
280
     0
102
RTVSPost2010PropOp30
 70
     1
102
RTVSPost2010Prop31
280
     0
102
RTVSPost2010PropOp31
 70
     1
102
RTVSPost2010Prop32
280
     0
102
RTVSPost2010PropOp32
 70
     1
102
RTVSPost2010Prop33
280
     0
102
RTVSPost2010PropOp33
 70
     1
102
RTVSPost2010Prop34
280
     0
102
RTVSPost2010PropOp34
 70
     1
102
RTVSPost2010Prop35
280
     0
102
RTVSPost2010PropOp35
 70
     1
102
RTVSPost2010Prop36
280
     0
102
RTVSPost2010PropOp36
 70
     1
102
RTVSPost2010Prop37
 90
       50
102
RTVSPost2010PropOp37
 70
     1
102
RTVSPost2010Prop38
140
0.0
102
RTVSPost2010PropOp38
 70
     1
102
RTVSPost2010Prop39
140
1.0
102
RTVSPost2010PropOp39
 70
     1
102
RTVSPost2010Prop40
 90
        0
102
RTVSPost2010PropOp40
 70
     1
102
RTVSPost2010Prop41ColorIndex
 90
       18
102
RTVSPost2010Prop41ColorRGB
 90
        0
102
RTVSPost2010PropOp41
 70
     1
102
RTVSPost2010Prop42
 90
       50
102
RTVSPost2010PropOp42
 70
     1
102
RTVSPost2010Prop43
 90
        3
102
RTVSPost2010PropOp43
 70
     1
102
RTVSPost2010Prop44ColorIndex
 90
        5
102
RTVSPost2010Prop44ColorRGB
 90
      255
102
RTVSPost2010PropOp44
 70
     1
102
RTVSPost2010Prop45
280
     0
102
RTVSPost2010PropOp45
 70
     1
102
RTVSPost2010Prop46
 90
       50
102
RTVSPost2010PropOp46
 70
     1
102
RTVSPost2010Prop47
 90
       50
102
RTVSPost2010PropOp47
 70
     1
102
RTVSPost2010Prop48
 90
       50
102
RTVSPost2010PropOp48
 70
     1
102
RTVSPost2010Prop49
280
     0
102
RTVSPost2010PropOp49
 70
     1
102
RTVSPost2010Prop50
 90
       50
102
RTVSPost2010PropOp50
 70
     1
102
RTVSPost2010Prop51ColorIndex
 90
      256
102
RTVSPost2010Prop51ColorRGB
 90
-16777216
102
RTVSPost2010PropOp51
 70
     0
102
RTVSPost2010Prop52
140
1.0
102
RTVSPost2010PropOp52
 70
     0
102
RTVSPost2010Prop53
 90
        2
102
RTVSPost2010PropOp53
 70
     1
102
RTVSPost2010Prop54
  1
strokes_ogs.tif
102
RTVSPost2010PropOp54
 70
     1
102
RTVSPost2010Prop55
280
     0
102
RTVSPost2010PropOp55
 70
     1
102
RTVSPost2010Prop56
140
1.0
102
RTVSPost2010PropOp56
 70
     1
102
RTVSPost2010Prop57
140
1.0
102
RTVSPost2010PropOp57
 70
     1
102
RTVSPropertyOp0
 70
     1
102
RTVSPropertyOp1
 70
     1
102
RTVSPropertyOp2
 70
     1
102
RTVSPropertyOp3
 70
     1
102
RTVSPropertyOp4
 70
     1
102
RTVSPropertyOp5
 70
     1
102
RTVSPropertyOp6
 70
     1
102
RTVSPropertyOp7
 70
     1
102
RTVSPropertyOp8
 70
     1
102
RTVSPropertyOp9
 70
     1
102
RTVSPropertyOp10
 70
     1
102
RTVSPropertyOp11
 70
     1
102
RTVSPropertyOp12
 70
     1
102
RTVSPropertyOp13
 70
     1
102
RTVSPropertyOp14
 70
     1
102
RTVSPropertyOp15
 70
     1
102
RTVSPropertyOp16
 70
     1
102
RTVSPropertyOp17
 70
     1
102
RTVSPropertyOp18
 70
     1
102
RTVSPropertyOp19
 70
     1
102
RTVSPropertyOp20
 70
     1
102
RTVSPropertyOp21
 70
     1
102
RTVSPropertyOp22
 70
     1
102
RTVSPropertyOp23
 70
     1
102
RTVSPropertyOp24
 70
     1
102
RTVSPropertyOp25
 70
     1
102
RTVSPropertyOp26
 70
     1
102
RTVSPropertyOp27
 70
     1
102
RTVSPropertyOp28
 70
     1
102
RTVSPropertyOp29
 70
     1
102
RTVSPropertyOp30
 70
     1
102
RTVSPropertyOp31
 70
     1
102
RTVSPropertyOp32
 70
     1
102
RTVSPropertyOp33
 70
     1
102
RTVSPropertyOp34
 70
     1
102
RTVSPropertyOp35
 70
     1
102
RTVSPropertyOp36
 70
     1
102
RTVSPropertyOp37
 70
     1
102
RTVSPropertyOp38
 70
     1
102
RTVSPropertyOp39
 70
     1
102
RTVSPropertyOp40
 70
     1
102
RTVSPropertyOp41
 70
     1
102
RTVSPropertyOp42
 70
     1
102
RTVSPropertyOp43
 70
     1
102
RTVSPropertyOp44
 70
     1
102
RTVSPropertyOp45
 70
     1
102
RTVSPropertyOp46
 70
     1
102
RTVSPropertyOp47
 70
     1
102
RTVSPropertyOp48
 70
     1
102
RTVSPropertyOp49
 70
     1
102
RTVSPropertyOp50
 70
     1
102
RTVSPropertyOp51
 70
     0
102
RTVSPropertyOp52
 70
     0
102
RTVSPropertyOp53
 70
     1
102
RTVSPropertyOp54
 70
     1
102
RTVSPropertyOp55
 70
     1
102
RTVSPropertyOp56
 70
     1
102
RTVSPropertyOp57
 70
     1
102
RTVSPropertyOp58
 70
     1
102
RTVSPropertyOp59
 70
     1
102
RTVSPropertyOp60
 70
     1
102
RTVSPropertyOp61
 70
     1
102
RTVSPropertyOp62
 70
     1
  0
XRECORD
  5
358
102
{ACAD_REACTORS
330
357
102
}
330
357
100
AcDbXrecord
280
     1
102
RTVSPost2010Prop28
280
     0
102
RTVSPost2010PropOp28
 70
     1
102
RTVSPost2010Prop29
280
     1
102
RTVSPost2010PropOp29
 70
     1
102
RTVSPost2010Prop30
280
     1
102
RTVSPost2010PropOp30
 70
     1
102
RTVSPost2010Prop31
280
     0
102
RTVSPost2010PropOp31
 70
     1
102
RTVSPost2010Prop32
280
     0
102
RTVSPost2010PropOp32
 70
     1
102
RTVSPost2010Prop33
280
     0
102
RTVSPost2010PropOp33
 70
     1
102
RTVSPost2010Prop34
280
     0
102
RTVSPost2010PropOp34
 70
     1
102
RTVSPost2010Prop35
280
     0
102
RTVSPost2010PropOp35
 70
     1
102
RTVSPost2010Prop36
280
     0
102
RTVSPost2010PropOp36
 70
     1
102
RTVSPost2010Prop37
 90
       50
102
RTVSPost2010PropOp37
 70
     1
102
RTVSPost2010Prop38
140
0.0
102
RTVSPost2010PropOp38
 70
     1
102
RTVSPost2010Prop39
140
1.0
102
RTVSPost2010PropOp39
 70
     1
102
RTVSPost2010Prop40
 90
        0
102
RTVSPost2010PropOp40
 70
     1
102
RTVSPost2010Prop41ColorIndex
 90
       18
102
RTVSPost2010Prop41ColorRGB
 90
        0
102
RTVSPost2010PropOp41
 70
     1
102
RTVSPost2010Prop42
 90
       50
102
RTVSPost2010PropOp42
 70
     1
102
RTVSPost2010Prop43
 90
        3
102
RTVSPost2010PropOp43
 70
     1
102
RTVSPost2010Prop44ColorIndex
 90
        5
102
RTVSPost2010Prop44ColorRGB
 90
      255
102
RTVSPost2010PropOp44
 70
     1
102
RTVSPost2010Prop45
280
     0
102
RTVSPost2010PropOp45
 70
     1
102
RTVSPost2010Prop46
 90
       50
102
RTVSPost2010PropOp46
 70
     1
102
RTVSPost2010Prop47
 90
       50
102
RTVSPost2010PropOp47
 70
     1
102
RTVSPost2010Prop48
 90
       50
102
RTVSPost2010PropOp48
 70
     1
102
RTVSPost2010Prop49
280
     0
102
RTVSPost2010PropOp49
 70
     1
102
RTVSPost2010Prop50
 90
       50
102
RTVSPost2010PropOp50
 70
     1
102
RTVSPost2010Prop51ColorIndex
 90
      256
102
RTVSPost2010Prop51ColorRGB
 90
-16777216
102
RTVSPost2010PropOp51
 70
     0
102
RTVSPost2010Prop52
140
1.0
102
RTVSPost2010PropOp52
 70
     0
102
RTVSPost2010Prop53
 90
        2
102
RTVSPost2010PropOp53
 70
     1
102
RTVSPost2010Prop54
  1
strokes_ogs.tif
102
RTVSPost2010PropOp54
 70
     1
102
RTVSPost2010Prop55
280
     0
102
RTVSPost2010PropOp55
 70
     1
102
RTVSPost2010Prop56
140
1.0
102
RTVSPost2010PropOp56
 70
     1
102
RTVSPost2010Prop57
140
1.0
102
RTVSPost2010PropOp57
 70
     1
102
RTVSPropertyOp0
 70
     1
102
RTVSPropertyOp1
 70
     1
102
RTVSPropertyOp2
 70
     1
102
RTVSPropertyOp3
 70
     1
102
RTVSPropertyOp4
 70
     1
102
RTVSPropertyOp5
 70
     1
102
RTVSPropertyOp6
 70
     1
102
RTVSPropertyOp7
 70
     1
102
RTVSPropertyOp8
 70
     1
102
RTVSPropertyOp9
 70
     1
102
RTVSPropertyOp10
 70
     1
102
RTVSPropertyOp11
 70
     1
102
RTVSPropertyOp12
 70
     1
102
RTVSPropertyOp13
 70
     1
102
RTVSPropertyOp14
 70
     1
102
RTVSPropertyOp15
 70
     1
102
RTVSPropertyOp16
 70
     1
102
RTVSPropertyOp17
 70
     1
102
RTVSPropertyOp18
 70
     1
102
RTVSPropertyOp19
 70
     1
102
RTVSPropertyOp20
 70
     1
102
RTVSPropertyOp21
 70
     1
102
RTVSPropertyOp22
 70
     1
102
RTVSPropertyOp23
 70
     1
102
RTVSPropertyOp24
 70
     1
102
RTVSPropertyOp25
 70
     1
102
RTVSPropertyOp26
 70
     1
102
RTVSPropertyOp27
 70
     1
102
RTVSPropertyOp28
 70
     1
102
RTVSPropertyOp29
 70
     1
102
RTVSPropertyOp30
 70
     1
102
RTVSPropertyOp31
 70
     1
102
RTVSPropertyOp32
 70
     1
102
RTVSPropertyOp33
 70
     1
102
RTVSPropertyOp34
 70
     1
102
RTVSPropertyOp35
 70
     1
102
RTVSPropertyOp36
 70
     1
102
RTVSPropertyOp37
 70
     1
102
RTVSPropertyOp38
 70
     1
102
RTVSPropertyOp39
 70
     1
102
RTVSPropertyOp40
 70
     1
102
RTVSPropertyOp41
 70
     1
102
RTVSPropertyOp42
 70
     1
102
RTVSPropertyOp43
 70
     1
102
RTVSPropertyOp44
 70
     1
102
RTVSPropertyOp45
 70
     1
102
RTVSPropertyOp46
 70
     1
102
RTVSPropertyOp47
 70
     1
102
RTVSPropertyOp48
 70
     1
102
RTVSPropertyOp49
 70
     1
102
RTVSPropertyOp50
 70
     1
102
RTVSPropertyOp51
 70
     0
102
RTVSPropertyOp52
 70
     0
102
RTVSPropertyOp53
 70
     1
102
RTVSPropertyOp54
 70
     1
102
RTVSPropertyOp55
 70
     1
102
RTVSPropertyOp56
 70
     1
102
RTVSPropertyOp57
 70
     1
102
RTVSPropertyOp58
 70
     1
102
RTVSPropertyOp59
 70
     1
102
RTVSPropertyOp60
 70
     1
102
RTVSPropertyOp61
 70
     1
102
RTVSPropertyOp62
 70
     1
  0
XRECORD
  5
360
102
{ACAD_REACTORS
330
35F
102
}
330
35F
100
AcDbXrecord
280
     1
102
RTVSPost2010Prop28
280
     0
102
RTVSPost2010PropOp28
 70
     1
102
RTVSPost2010Prop29
280
     1
102
RTVSPost2010PropOp29
 70
     1
102
RTVSPost2010Prop30
280
     1
102
RTVSPost2010PropOp30
 70
     1
102
RTVSPost2010Prop31
280
     0
102
RTVSPost2010PropOp31
 70
     1
102
RTVSPost2010Prop32
280
     0
102
RTVSPost2010PropOp32
 70
     1
102
RTVSPost2010Prop33
280
     0
102
RTVSPost2010PropOp33
 70
     1
102
RTVSPost2010Prop34
280
     0
102
RTVSPost2010PropOp34
 70
     1
102
RTVSPost2010Prop35
280
     0
102
RTVSPost2010PropOp35
 70
     1
102
RTVSPost2010Prop36
280
     0
102
RTVSPost2010PropOp36
 70
     1
102
RTVSPost2010Prop37
 90
       50
102
RTVSPost2010PropOp37
 70
     1
102
RTVSPost2010Prop38
140
0.0
102
RTVSPost2010PropOp38
 70
     1
102
RTVSPost2010Prop39
140
1.0
102
RTVSPost2010PropOp39
 70
     1
102
RTVSPost2010Prop40
 90
        0
102
RTVSPost2010PropOp40
 70
     1
102
RTVSPost2010Prop41ColorIndex
 90
       18
102
RTVSPost2010Prop41ColorRGB
 90
        0
102
RTVSPost2010PropOp41
 70
     1
102
RTVSPost2010Prop42
 90
       50
102
RTVSPost2010PropOp42
 70
     1
102
RTVSPost2010Prop43
 90
        3
102
RTVSPost2010PropOp43
 70
     1
102
RTVSPost2010Prop44ColorIndex
 90
        5
102
RTVSPost2010Prop44ColorRGB
 90
      255
102
RTVSPost2010PropOp44
 70
     1
102
RTVSPost2010Prop45
280
     0
102
RTVSPost2010PropOp45
 70
     1
102
RTVSPost2010Prop46
 90
       50
102
RTVSPost2010PropOp46
 70
     1
102
RTVSPost2010Prop47
 90
       50
102
RTVSPost2010PropOp47
 70
     1
102
RTVSPost2010Prop48
 90
       50
102
RTVSPost2010PropOp48
 70
     1
102
RTVSPost2010Prop49
280
     0
102
RTVSPost2010PropOp49
 70
     1
102
RTVSPost2010Prop50
 90
       50
102
RTVSPost2010PropOp50
 70
     1
102
RTVSPost2010Prop51ColorIndex
 90
      256
102
RTVSPost2010Prop51ColorRGB
 90
-16777216
102
RTVSPost2010PropOp51
 70
     0
102
RTVSPost2010Prop52
140
1.0
102
RTVSPost2010PropOp52
 70
     0
102
RTVSPost2010Prop53
 90
        2
102
RTVSPost2010PropOp53
 70
     1
102
RTVSPost2010Prop54
  1
strokes_ogs.tif
102
RTVSPost2010PropOp54
 70
     1
102
RTVSPost2010Prop55
280
     0
102
RTVSPost2010PropOp55
 70
     1
102
RTVSPost2010Prop56
140
1.0
102
RTVSPost2010PropOp56
 70
     1
102
RTVSPost2010Prop57
140
1.0
102
RTVSPost2010PropOp57
 70
     1
102
RTVSPropertyOp0
 70
     1
102
RTVSPropertyOp1
 70
     1
102
RTVSPropertyOp2
 70
     1
102
RTVSPropertyOp3
 70
     1
102
RTVSPropertyOp4
 70
     1
102
RTVSPropertyOp5
 70
     1
102
RTVSPropertyOp6
 70
     1
102
RTVSPropertyOp7
 70
     1
102
RTVSPropertyOp8
 70
     1
102
RTVSPropertyOp9
 70
     1
102
RTVSPropertyOp10
 70
     1
102
RTVSPropertyOp11
 70
     1
102
RTVSPropertyOp12
 70
     1
102
RTVSPropertyOp13
 70
     1
102
RTVSPropertyOp14
 70
     1
102
RTVSPropertyOp15
 70
     1
102
RTVSPropertyOp16
 70
     1
102
RTVSPropertyOp17
 70
     1
102
RTVSPropertyOp18
 70
     1
102
RTVSPropertyOp19
 70
     1
102
RTVSPropertyOp20
 70
     1
102
RTVSPropertyOp21
 70
     1
102
RTVSPropertyOp22
 70
     1
102
RTVSPropertyOp23
 70
     1
102
RTVSPropertyOp24
 70
     1
102
RTVSPropertyOp25
 70
     1
102
RTVSPropertyOp26
 70
     1
102
RTVSPropertyOp27
 70
     1
102
RTVSPropertyOp28
 70
     1
102
RTVSPropertyOp29
 70
     1
102
RTVSPropertyOp30
 70
     1
102
RTVSPropertyOp31
 70
     1
102
RTVSPropertyOp32
 70
     1
102
RTVSPropertyOp33
 70
     1
102
RTVSPropertyOp34
 70
     1
102
RTVSPropertyOp35
 70
     1
102
RTVSPropertyOp36
 70
     1
102
RTVSPropertyOp37
 70
     1
102
RTVSPropertyOp38
 70
     1
102
RTVSPropertyOp39
 70
     1
102
RTVSPropertyOp40
 70
     1
102
RTVSPropertyOp41
 70
     1
102
RTVSPropertyOp42
 70
     1
102
RTVSPropertyOp43
 70
     1
102
RTVSPropertyOp44
 70
     1
102
RTVSPropertyOp45
 70
     1
102
RTVSPropertyOp46
 70
     1
102
RTVSPropertyOp47
 70
     1
102
RTVSPropertyOp48
 70
     1
102
RTVSPropertyOp49
 70
     1
102
RTVSPropertyOp50
 70
     1
102
RTVSPropertyOp51
 70
     0
102
RTVSPropertyOp52
 70
     0
102
RTVSPropertyOp53
 70
     1
102
RTVSPropertyOp54
 70
     1
102
RTVSPropertyOp55
 70
     1
102
RTVSPropertyOp56
 70
     1
102
RTVSPropertyOp57
 70
     1
102
RTVSPropertyOp58
 70
     1
102
RTVSPropertyOp59
 70
     1
102
RTVSPropertyOp60
 70
     1
102
RTVSPropertyOp61
 70
     1
102
RTVSPropertyOp62
 70
     1
  0
XRECORD
  5
368
102
{ACAD_REACTORS
330
367
102
}
330
367
100
AcDbXrecord
280
     1
102
RTVSPost2010Prop28
280
     0
102
RTVSPost2010PropOp28
 70
     1
102
RTVSPost2010Prop29
280
     1
102
RTVSPost2010PropOp29
 70
     1
102
RTVSPost2010Prop30
280
     1
102
RTVSPost2010PropOp30
 70
     1
102
RTVSPost2010Prop31
280
     0
102
RTVSPost2010PropOp31
 70
     1
102
RTVSPost2010Prop32
280
     0
102
RTVSPost2010PropOp32
 70
     1
102
RTVSPost2010Prop33
280
     0
102
RTVSPost2010PropOp33
 70
     1
102
RTVSPost2010Prop34
280
     0
102
RTVSPost2010PropOp34
 70
     1
102
RTVSPost2010Prop35
280
     0
102
RTVSPost2010PropOp35
 70
     1
102
RTVSPost2010Prop36
280
     0
102
RTVSPost2010PropOp36
 70
     1
102
RTVSPost2010Prop37
 90
       50
102
RTVSPost2010PropOp37
 70
     1
102
RTVSPost2010Prop38
140
0.0
102
RTVSPost2010PropOp38
 70
     1
102
RTVSPost2010Prop39
140
1.0
102
RTVSPost2010PropOp39
 70
     1
102
RTVSPost2010Prop40
 90
        0
102
RTVSPost2010PropOp40
 70
     1
102
RTVSPost2010Prop41ColorIndex
 90
       18
102
RTVSPost2010Prop41ColorRGB
 90
        0
102
RTVSPost2010PropOp41
 70
     1
102
RTVSPost2010Prop42
 90
       50
102
RTVSPost2010PropOp42
 70
     1
102
RTVSPost2010Prop43
 90
        3
102
RTVSPost2010PropOp43
 70
     1
102
RTVSPost2010Prop44ColorIndex
 90
        5
102
RTVSPost2010Prop44ColorRGB
 90
      255
102
RTVSPost2010PropOp44
 70
     1
102
RTVSPost2010Prop45
280
     0
102
RTVSPost2010PropOp45
 70
     1
102
RTVSPost2010Prop46
 90
       50
102
RTVSPost2010PropOp46
 70
     1
102
RTVSPost2010Prop47
 90
       50
102
RTVSPost2010PropOp47
 70
     1
102
RTVSPost2010Prop48
 90
       50
102
RTVSPost2010PropOp48
 70
     1
102
RTVSPost2010Prop49
280
     0
102
RTVSPost2010PropOp49
 70
     1
102
RTVSPost2010Prop50
 90
       50
102
RTVSPost2010PropOp50
 70
     1
102
RTVSPost2010Prop51ColorIndex
 90
      256
102
RTVSPost2010Prop51ColorRGB
 90
-16777216
102
RTVSPost2010PropOp51
 70
     0
102
RTVSPost2010Prop52
140
1.0
102
RTVSPost2010PropOp52
 70
     0
102
RTVSPost2010Prop53
 90
        2
102
RTVSPost2010PropOp53
 70
     1
102
RTVSPost2010Prop54
  1
strokes_ogs.tif
102
RTVSPost2010PropOp54
 70
     1
102
RTVSPost2010Prop55
280
     0
102
RTVSPost2010PropOp55
 70
     1
102
RTVSPost2010Prop56
140
1.0
102
RTVSPost2010PropOp56
 70
     1
102
RTVSPost2010Prop57
140
1.0
102
RTVSPost2010PropOp57
 70
     1
102
RTVSPropertyOp0
 70
     1
102
RTVSPropertyOp1
 70
     1
102
RTVSPropertyOp2
 70
     1
102
RTVSPropertyOp3
 70
     1
102
RTVSPropertyOp4
 70
     1
102
RTVSPropertyOp5
 70
     1
102
RTVSPropertyOp6
 70
     1
102
RTVSPropertyOp7
 70
     1
102
RTVSPropertyOp8
 70
     1
102
RTVSPropertyOp9
 70
     1
102
RTVSPropertyOp10
 70
     1
102
RTVSPropertyOp11
 70
     1
102
RTVSPropertyOp12
 70
     1
102
RTVSPropertyOp13
 70
     1
102
RTVSPropertyOp14
 70
     1
102
RTVSPropertyOp15
 70
     1
102
RTVSPropertyOp16
 70
     1
102
RTVSPropertyOp17
 70
     1
102
RTVSPropertyOp18
 70
     1
102
RTVSPropertyOp19
 70
     1
102
RTVSPropertyOp20
 70
     1
102
RTVSPropertyOp21
 70
     1
102
RTVSPropertyOp22
 70
     1
102
RTVSPropertyOp23
 70
     1
102
RTVSPropertyOp24
 70
     1
102
RTVSPropertyOp25
 70
     1
102
RTVSPropertyOp26
 70
     1
102
RTVSPropertyOp27
 70
     1
102
RTVSPropertyOp28
 70
     1
102
RTVSPropertyOp29
 70
     1
102
RTVSPropertyOp30
 70
     1
102
RTVSPropertyOp31
 70
     1
102
RTVSPropertyOp32
 70
     1
102
RTVSPropertyOp33
 70
     1
102
RTVSPropertyOp34
 70
     1
102
RTVSPropertyOp35
 70
     1
102
RTVSPropertyOp36
 70
     1
102
RTVSPropertyOp37
 70
     1
102
RTVSPropertyOp38
 70
     1
102
RTVSPropertyOp39
 70
     1
102
RTVSPropertyOp40
 70
     1
102
RTVSPropertyOp41
 70
     1
102
RTVSPropertyOp42
 70
     1
102
RTVSPropertyOp43
 70
     1
102
RTVSPropertyOp44
 70
     1
102
RTVSPropertyOp45
 70
     1
102
RTVSPropertyOp46
 70
     1
102
RTVSPropertyOp47
 70
     1
102
RTVSPropertyOp48
 70
     1
102
RTVSPropertyOp49
 70
     1
102
RTVSPropertyOp50
 70
     1
102
RTVSPropertyOp51
 70
     0
102
RTVSPropertyOp52
 70
     0
102
RTVSPropertyOp53
 70
     1
102
RTVSPropertyOp54
 70
     1
102
RTVSPropertyOp55
 70
     1
102
RTVSPropertyOp56
 70
     1
102
RTVSPropertyOp57
 70
     1
102
RTVSPropertyOp58
 70
     1
102
RTVSPropertyOp59
 70
     1
102
RTVSPropertyOp60
 70
     1
102
RTVSPropertyOp61
 70
     1
102
RTVSPropertyOp62
 70
     1
  0
XRECORD
  5
35C
102
{ACAD_REACTORS
330
35B
102
}
330
35B
100
AcDbXrecord
280
     1
102
RTVSPost2010Prop28
280
     0
102
RTVSPost2010PropOp28
 70
     1
102
RTVSPost2010Prop29
280
     1
102
RTVSPost2010PropOp29
 70
     1
102
RTVSPost2010Prop30
280
     1
102
RTVSPost2010PropOp30
 70
     1
102
RTVSPost2010Prop31
280
     0
102
RTVSPost2010PropOp31
 70
     1
102
RTVSPost2010Prop32
280
     0
102
RTVSPost2010PropOp32
 70
     1
102
RTVSPost2010Prop33
280
     0
102
RTVSPost2010PropOp33
 70
     1
102
RTVSPost2010Prop34
280
     0
102
RTVSPost2010PropOp34
 70
     1
102
RTVSPost2010Prop35
280
     0
102
RTVSPost2010PropOp35
 70
     1
102
RTVSPost2010Prop36
280
     0
102
RTVSPost2010PropOp36
 70
     1
102
RTVSPost2010Prop37
 90
       50
102
RTVSPost2010PropOp37
 70
     1
102
RTVSPost2010Prop38
140
0.0
102
RTVSPost2010PropOp38
 70
     1
102
RTVSPost2010Prop39
140
1.0
102
RTVSPost2010PropOp39
 70
     1
102
RTVSPost2010Prop40
 90
        0
102
RTVSPost2010PropOp40
 70
     1
102
RTVSPost2010Prop41ColorIndex
 90
       18
102
RTVSPost2010Prop41ColorRGB
 90
        0
102
RTVSPost2010PropOp41
 70
     1
102
RTVSPost2010Prop42
 90
       50
102
RTVSPost2010PropOp42
 70
     1
102
RTVSPost2010Prop43
 90
        3
102
RTVSPost2010PropOp43
 70
     1
102
RTVSPost2010Prop44ColorIndex
 90
        5
102
RTVSPost2010Prop44ColorRGB
 90
      255
102
RTVSPost2010PropOp44
 70
     1
102
RTVSPost2010Prop45
280
     0
102
RTVSPost2010PropOp45
 70
     1
102
RTVSPost2010Prop46
 90
       50
102
RTVSPost2010PropOp46
 70
     1
102
RTVSPost2010Prop47
 90
       50
102
RTVSPost2010PropOp47
 70
     1
102
RTVSPost2010Prop48
 90
       50
102
RTVSPost2010PropOp48
 70
     1
102
RTVSPost2010Prop49
280
     0
102
RTVSPost2010PropOp49
 70
     1
102
RTVSPost2010Prop50
 90
       50
102
RTVSPost2010PropOp50
 70
     1
102
RTVSPost2010Prop51ColorIndex
 90
      256
102
RTVSPost2010Prop51ColorRGB
 90
-16777216
102
RTVSPost2010PropOp51
 70
     0
102
RTVSPost2010Prop52
140
1.0
102
RTVSPost2010PropOp52
 70
     0
102
RTVSPost2010Prop53
 90
        2
102
RTVSPost2010PropOp53
 70
     1
102
RTVSPost2010Prop54
  1
strokes_ogs.tif
102
RTVSPost2010PropOp54
 70
     1
102
RTVSPost2010Prop55
280
     0
102
RTVSPost2010PropOp55
 70
     1
102
RTVSPost2010Prop56
140
1.0
102
RTVSPost2010PropOp56
 70
     1
102
RTVSPost2010Prop57
140
1.0
102
RTVSPost2010PropOp57
 70
     1
102
RTVSPropertyOp0
 70
     1
102
RTVSPropertyOp1
 70
     1
102
RTVSPropertyOp2
 70
     1
102
RTVSPropertyOp3
 70
     1
102
RTVSPropertyOp4
 70
     1
102
RTVSPropertyOp5
 70
     1
102
RTVSPropertyOp6
 70
     1
102
RTVSPropertyOp7
 70
     1
102
RTVSPropertyOp8
 70
     1
102
RTVSPropertyOp9
 70
     1
102
RTVSPropertyOp10
 70
     1
102
RTVSPropertyOp11
 70
     1
102
RTVSPropertyOp12
 70
     1
102
RTVSPropertyOp13
 70
     1
102
RTVSPropertyOp14
 70
     1
102
RTVSPropertyOp15
 70
     1
102
RTVSPropertyOp16
 70
     1
102
RTVSPropertyOp17
 70
     1
102
RTVSPropertyOp18
 70
     1
102
RTVSPropertyOp19
 70
     1
102
RTVSPropertyOp20
 70
     1
102
RTVSPropertyOp21
 70
     1
102
RTVSPropertyOp22
 70
     1
102
RTVSPropertyOp23
 70
     1
102
RTVSPropertyOp24
 70
     1
102
RTVSPropertyOp25
 70
     1
102
RTVSPropertyOp26
 70
     1
102
RTVSPropertyOp27
 70
     1
102
RTVSPropertyOp28
 70
     1
102
RTVSPropertyOp29
 70
     1
102
RTVSPropertyOp30
 70
     1
102
RTVSPropertyOp31
 70
     1
102
RTVSPropertyOp32
 70
     1
102
RTVSPropertyOp33
 70
     1
102
RTVSPropertyOp34
 70
     1
102
RTVSPropertyOp35
 70
     1
102
RTVSPropertyOp36
 70
     1
102
RTVSPropertyOp37
 70
     1
102
RTVSPropertyOp38
 70
     1
102
RTVSPropertyOp39
 70
     1
102
RTVSPropertyOp40
 70
     1
102
RTVSPropertyOp41
 70
     1
102
RTVSPropertyOp42
 70
     1
102
RTVSPropertyOp43
 70
     1
102
RTVSPropertyOp44
 70
     1
102
RTVSPropertyOp45
 70
     1
102
RTVSPropertyOp46
 70
     1
102
RTVSPropertyOp47
 70
     1
102
RTVSPropertyOp48
 70
     1
102
RTVSPropertyOp49
 70
     1
102
RTVSPropertyOp50
 70
     1
102
RTVSPropertyOp51
 70
     0
102
RTVSPropertyOp52
 70
     0
102
RTVSPropertyOp53
 70
     1
102
RTVSPropertyOp54
 70
     1
102
RTVSPropertyOp55
 70
     1
102
RTVSPropertyOp56
 70
     1
102
RTVSPropertyOp57
 70
     1
102
RTVSPropertyOp58
 70
     1
102
RTVSPropertyOp59
 70
     1
102
RTVSPropertyOp60
 70
     1
102
RTVSPropertyOp61
 70
     1
102
RTVSPropertyOp62
 70
     1
  0
XRECORD
  5
35E
102
{ACAD_REACTORS
330
35D
102
}
330
35D
100
AcDbXrecord
280
     1
102
RTVSPost2010Prop28
280
     0
102
RTVSPost2010PropOp28
 70
     1
102
RTVSPost2010Prop29
280
     1
102
RTVSPost2010PropOp29
 70
     1
102
RTVSPost2010Prop30
280
     1
102
RTVSPost2010PropOp30
 70
     1
102
RTVSPost2010Prop31
280
     0
102
RTVSPost2010PropOp31
 70
     1
102
RTVSPost2010Prop32
280
     0
102
RTVSPost2010PropOp32
 70
     1
102
RTVSPost2010Prop33
280
     0
102
RTVSPost2010PropOp33
 70
     1
102
RTVSPost2010Prop34
280
     0
102
RTVSPost2010PropOp34
 70
     1
102
RTVSPost2010Prop35
280
     0
102
RTVSPost2010PropOp35
 70
     1
102
RTVSPost2010Prop36
280
     0
102
RTVSPost2010PropOp36
 70
     1
102
RTVSPost2010Prop37
 90
       50
102
RTVSPost2010PropOp37
 70
     1
102
RTVSPost2010Prop38
140
0.0
102
RTVSPost2010PropOp38
 70
     1
102
RTVSPost2010Prop39
140
1.0
102
RTVSPost2010PropOp39
 70
     1
102
RTVSPost2010Prop40
 90
        0
102
RTVSPost2010PropOp40
 70
     1
102
RTVSPost2010Prop41ColorIndex
 90
       18
102
RTVSPost2010Prop41ColorRGB
 90
        0
102
RTVSPost2010PropOp41
 70
     1
102
RTVSPost2010Prop42
 90
       50
102
RTVSPost2010PropOp42
 70
     1
102
RTVSPost2010Prop43
 90
        3
102
RTVSPost2010PropOp43
 70
     1
102
RTVSPost2010Prop44ColorIndex
 90
        5
102
RTVSPost2010Prop44ColorRGB
 90
      255
102
RTVSPost2010PropOp44
 70
     1
102
RTVSPost2010Prop45
280
     0
102
RTVSPost2010PropOp45
 70
     1
102
RTVSPost2010Prop46
 90
       50
102
RTVSPost2010PropOp46
 70
     1
102
RTVSPost2010Prop47
 90
       50
102
RTVSPost2010PropOp47
 70
     1
102
RTVSPost2010Prop48
 90
       50
102
RTVSPost2010PropOp48
 70
     1
102
RTVSPost2010Prop49
280
     0
102
RTVSPost2010PropOp49
 70
     1
102
RTVSPost2010Prop50
 90
       50
102
RTVSPost2010PropOp50
 70
     1
102
RTVSPost2010Prop51ColorIndex
 90
      256
102
RTVSPost2010Prop51ColorRGB
 90
-16777216
102
RTVSPost2010PropOp51
 70
     0
102
RTVSPost2010Prop52
140
1.0
102
RTVSPost2010PropOp52
 70
     0
102
RTVSPost2010Prop53
 90
        2
102
RTVSPost2010PropOp53
 70
     1
102
RTVSPost2010Prop54
  1
strokes_ogs.tif
102
RTVSPost2010PropOp54
 70
     1
102
RTVSPost2010Prop55
280
     0
102
RTVSPost2010PropOp55
 70
     1
102
RTVSPost2010Prop56
140
1.0
102
RTVSPost2010PropOp56
 70
     1
102
RTVSPost2010Prop57
140
1.0
102
RTVSPost2010PropOp57
 70
     1
102
RTVSPropertyOp0
 70
     1
102
RTVSPropertyOp1
 70
     1
102
RTVSPropertyOp2
 70
     1
102
RTVSPropertyOp3
 70
     1
102
RTVSPropertyOp4
 70
     1
102
RTVSPropertyOp5
 70
     1
102
RTVSPropertyOp6
 70
     1
102
RTVSPropertyOp7
 70
     1
102
RTVSPropertyOp8
 70
     1
102
RTVSPropertyOp9
 70
     1
102
RTVSPropertyOp10
 70
     1
102
RTVSPropertyOp11
 70
     1
102
RTVSPropertyOp12
 70
     1
102
RTVSPropertyOp13
 70
     1
102
RTVSPropertyOp14
 70
     1
102
RTVSPropertyOp15
 70
     1
102
RTVSPropertyOp16
 70
     1
102
RTVSPropertyOp17
 70
     1
102
RTVSPropertyOp18
 70
     1
102
RTVSPropertyOp19
 70
     1
102
RTVSPropertyOp20
 70
     1
102
RTVSPropertyOp21
 70
     1
102
RTVSPropertyOp22
 70
     1
102
RTVSPropertyOp23
 70
     1
102
RTVSPropertyOp24
 70
     1
102
RTVSPropertyOp25
 70
     1
102
RTVSPropertyOp26
 70
     1
102
RTVSPropertyOp27
 70
     1
102
RTVSPropertyOp28
 70
     1
102
RTVSPropertyOp29
 70
     1
102
RTVSPropertyOp30
 70
     1
102
RTVSPropertyOp31
 70
     1
102
RTVSPropertyOp32
 70
     1
102
RTVSPropertyOp33
 70
     1
102
RTVSPropertyOp34
 70
     1
102
RTVSPropertyOp35
 70
     1
102
RTVSPropertyOp36
 70
     1
102
RTVSPropertyOp37
 70
     1
102
RTVSPropertyOp38
 70
     1
102
RTVSPropertyOp39
 70
     1
102
RTVSPropertyOp40
 70
     1
102
RTVSPropertyOp41
 70
     1
102
RTVSPropertyOp42
 70
     1
102
RTVSPropertyOp43
 70
     1
102
RTVSPropertyOp44
 70
     1
102
RTVSPropertyOp45
 70
     1
102
RTVSPropertyOp46
 70
     1
102
RTVSPropertyOp47
 70
     1
102
RTVSPropertyOp48
 70
     1
102
RTVSPropertyOp49
 70
     1
102
RTVSPropertyOp50
 70
     1
102
RTVSPropertyOp51
 70
     0
102
RTVSPropertyOp52
 70
     0
102
RTVSPropertyOp53
 70
     1
102
RTVSPropertyOp54
 70
     1
102
RTVSPropertyOp55
 70
     1
102
RTVSPropertyOp56
 70
     1
102
RTVSPropertyOp57
 70
     1
102
RTVSPropertyOp58
 70
     1
102
RTVSPropertyOp59
 70
     1
102
RTVSPropertyOp60
 70
     1
102
RTVSPropertyOp61
 70
     1
102
RTVSPropertyOp62
 70
     1
  0
XRECORD
  5
36E
102
{ACAD_REACTORS
330
36D
102
}
330
36D
100
AcDbXrecord
280
     1
102
RTVSPost2010Prop28
280
     0
102
RTVSPost2010PropOp28
 70
     0
102
RTVSPost2010Prop29
280
     1
102
RTVSPost2010PropOp29
 70
     0
102
RTVSPost2010Prop30
280
     1
102
RTVSPost2010PropOp30
 70
     0
102
RTVSPost2010Prop31
280
     0
102
RTVSPost2010PropOp31
 70
     0
102
RTVSPost2010Prop32
280
     0
102
RTVSPost2010PropOp32
 70
     0
102
RTVSPost2010Prop33
280
     0
102
RTVSPost2010PropOp33
 70
     0
102
RTVSPost2010Prop34
280
     0
102
RTVSPost2010PropOp34
 70
     0
102
RTVSPost2010Prop35
280
     0
102
RTVSPost2010PropOp35
 70
     0
102
RTVSPost2010Prop36
280
     0
102
RTVSPost2010PropOp36
 70
     0
102
RTVSPost2010Prop37
 90
       50
102
RTVSPost2010PropOp37
 70
     0
102
RTVSPost2010Prop38
140
0.0
102
RTVSPost2010PropOp38
 70
     0
102
RTVSPost2010Prop39
140
1.0
102
RTVSPost2010PropOp39
 70
     0
102
RTVSPost2010Prop40
 90
        0
102
RTVSPost2010PropOp40
 70
     0
102
RTVSPost2010Prop41ColorIndex
 90
       18
102
RTVSPost2010Prop41ColorRGB
 90
        0
102
RTVSPost2010PropOp41
 70
     0
102
RTVSPost2010Prop42
 90
       50
102
RTVSPost2010PropOp42
 70
     0
102
RTVSPost2010Prop43
 90
        3
102
RTVSPost2010PropOp43
 70
     0
102
RTVSPost2010Prop44ColorIndex
 90
        5
102
RTVSPost2010Prop44ColorRGB
 90
      255
102
RTVSPost2010PropOp44
 70
     0
102
RTVSPost2010Prop45
280
     0
102
RTVSPost2010PropOp45
 70
     0
102
RTVSPost2010Prop46
 90
       50
102
RTVSPost2010PropOp46
 70
     0
102
RTVSPost2010Prop47
 90
       50
102
RTVSPost2010PropOp47
 70
     0
102
RTVSPost2010Prop48
 90
       50
102
RTVSPost2010PropOp48
 70
     0
102
RTVSPost2010Prop49
280
     0
102
RTVSPost2010PropOp49
 70
     0
102
RTVSPost2010Prop50
 90
       50
102
RTVSPost2010PropOp50
 70
     0
102
RTVSPost2010Prop51ColorIndex
 90
      256
102
RTVSPost2010Prop51ColorRGB
 90
-16777216
102
RTVSPost2010PropOp51
 70
     0
102
RTVSPost2010Prop52
140
1.0
102
RTVSPost2010PropOp52
 70
     0
102
RTVSPost2010Prop53
 90
        2
102
RTVSPost2010PropOp53
 70
     0
102
RTVSPost2010Prop54
  1
strokes_ogs.tif
102
RTVSPost2010PropOp54
 70
     0
102
RTVSPost2010Prop55
280
     0
102
RTVSPost2010PropOp55
 70
     0
102
RTVSPost2010Prop56
140
1.0
102
RTVSPost2010PropOp56
 70
     0
102
RTVSPost2010Prop57
140
1.0
102
RTVSPost2010PropOp57
 70
     0
102
RTVSPropertyOp0
 70
     0
102
RTVSPropertyOp1
 70
     0
102
RTVSPropertyOp2
 70
     0
102
RTVSPropertyOp3
 70
     0
102
RTVSPropertyOp4
 70
     0
102
RTVSPropertyOp5
 70
     0
102
RTVSPropertyOp6
 70
     0
102
RTVSPropertyOp7
 70
     0
102
RTVSPropertyOp8
 70
     0
102
RTVSPropertyOp9
 70
     0
102
RTVSPropertyOp10
 70
     0
102
RTVSPropertyOp11
 70
     0
102
RTVSPropertyOp12
 70
     0
102
RTVSPropertyOp13
 70
     0
102
RTVSPropertyOp14
 70
     2
102
RTVSPropertyOp15
 70
     0
102
RTVSPropertyOp16
 70
     0
102
RTVSPropertyOp17
 70
     0
102
RTVSPropertyOp18
 70
     0
102
RTVSPropertyOp19
 70
     0
102
RTVSPropertyOp20
 70
     0
102
RTVSPropertyOp21
 70
     0
102
RTVSPropertyOp22
 70
     0
102
RTVSPropertyOp23
 70
     0
102
RTVSPropertyOp24
 70
     0
102
RTVSPropertyOp25
 70
     0
102
RTVSPropertyOp26
 70
     0
102
RTVSPropertyOp27
 70
     0
102
RTVSPropertyOp28
 70
     0
102
RTVSPropertyOp29
 70
     0
102
RTVSPropertyOp30
 70
     0
102
RTVSPropertyOp31
 70
     0
102
RTVSPropertyOp32
 70
     0
102
RTVSPropertyOp33
 70
     0
102
RTVSPropertyOp34
 70
     0
102
RTVSPropertyOp35
 70
     0
102
RTVSPropertyOp36
 70
     0
102
RTVSPropertyOp37
 70
     0
102
RTVSPropertyOp38
 70
     0
102
RTVSPropertyOp39
 70
     0
102
RTVSPropertyOp40
 70
     0
102
RTVSPropertyOp41
 70
     0
102
RTVSPropertyOp42
 70
     0
102
RTVSPropertyOp43
 70
     0
102
RTVSPropertyOp44
 70
     0
102
RTVSPropertyOp45
 70
     0
102
RTVSPropertyOp46
 70
     0
102
RTVSPropertyOp47
 70
     0
102
RTVSPropertyOp48
 70
     0
102
RTVSPropertyOp49
 70
     0
102
RTVSPropertyOp50
 70
     0
102
RTVSPropertyOp51
 70
     0
102
RTVSPropertyOp52
 70
     0
102
RTVSPropertyOp53
 70
     0
102
RTVSPropertyOp54
 70
     0
102
RTVSPropertyOp55
 70
     0
102
RTVSPropertyOp56
 70
     0
102
RTVSPropertyOp57
 70
     0
102
RTVSPropertyOp58
 70
     1
102
RTVSPropertyOp59
 70
     1
102
RTVSPropertyOp60
 70
     1
102
RTVSPropertyOp61
 70
     1
102
RTVSPropertyOp62
 70
     1
  0
XRECORD
  5
366
102
{ACAD_REACTORS
330
365
102
}
330
365
100
AcDbXrecord
280
     1
102
RTVSPost2010Prop28
280
     0
102
RTVSPost2010PropOp28
 70
     1
102
RTVSPost2010Prop29
280
     1
102
RTVSPost2010PropOp29
 70
     1
102
RTVSPost2010Prop30
280
     1
102
RTVSPost2010PropOp30
 70
     1
102
RTVSPost2010Prop31
280
     0
102
RTVSPost2010PropOp31
 70
     1
102
RTVSPost2010Prop32
280
     0
102
RTVSPost2010PropOp32
 70
     1
102
RTVSPost2010Prop33
280
     0
102
RTVSPost2010PropOp33
 70
     1
102
RTVSPost2010Prop34
280
     0
102
RTVSPost2010PropOp34
 70
     1
102
RTVSPost2010Prop35
280
     0
102
RTVSPost2010PropOp35
 70
     1
102
RTVSPost2010Prop36
280
     0
102
RTVSPost2010PropOp36
 70
     1
102
RTVSPost2010Prop37
 90
       50
102
RTVSPost2010PropOp37
 70
     1
102
RTVSPost2010Prop38
140
0.0
102
RTVSPost2010PropOp38
 70
     1
102
RTVSPost2010Prop39
140
1.0
102
RTVSPost2010PropOp39
 70
     1
102
RTVSPost2010Prop40
 90
        0
102
RTVSPost2010PropOp40
 70
     1
102
RTVSPost2010Prop41ColorIndex
 90
       18
102
RTVSPost2010Prop41ColorRGB
 90
        0
102
RTVSPost2010PropOp41
 70
     1
102
RTVSPost2010Prop42
 90
       50
102
RTVSPost2010PropOp42
 70
     1
102
RTVSPost2010Prop43
 90
        3
102
RTVSPost2010PropOp43
 70
     1
102
RTVSPost2010Prop44ColorIndex
 90
        5
102
RTVSPost2010Prop44ColorRGB
 90
      255
102
RTVSPost2010PropOp44
 70
     1
102
RTVSPost2010Prop45
280
     0
102
RTVSPost2010PropOp45
 70
     1
102
RTVSPost2010Prop46
 90
       50
102
RTVSPost2010PropOp46
 70
     1
102
RTVSPost2010Prop47
 90
       50
102
RTVSPost2010PropOp47
 70
     1
102
RTVSPost2010Prop48
 90
       50
102
RTVSPost2010PropOp48
 70
     1
102
RTVSPost2010Prop49
280
     0
102
RTVSPost2010PropOp49
 70
     1
102
RTVSPost2010Prop50
 90
       50
102
RTVSPost2010PropOp50
 70
     1
102
RTVSPost2010Prop51ColorIndex
 90
      256
102
RTVSPost2010Prop51ColorRGB
 90
-16777216
102
RTVSPost2010PropOp51
 70
     0
102
RTVSPost2010Prop52
140
1.0
102
RTVSPost2010PropOp52
 70
     0
102
RTVSPost2010Prop53
 90
        2
102
RTVSPost2010PropOp53
 70
     1
102
RTVSPost2010Prop54
  1
strokes_ogs.tif
102
RTVSPost2010PropOp54
 70
     1
102
RTVSPost2010Prop55
280
     0
102
RTVSPost2010PropOp55
 70
     1
102
RTVSPost2010Prop56
140
1.0
102
RTVSPost2010PropOp56
 70
     1
102
RTVSPost2010Prop57
140
1.0
102
RTVSPost2010PropOp57
 70
     1
102
RTVSPropertyOp0
 70
     1
102
RTVSPropertyOp1
 70
     1
102
RTVSPropertyOp2
 70
     1
102
RTVSPropertyOp3
 70
     1
102
RTVSPropertyOp4
 70
     1
102
RTVSPropertyOp5
 70
     1
102
RTVSPropertyOp6
 70
     1
102
RTVSPropertyOp7
 70
     1
102
RTVSPropertyOp8
 70
     1
102
RTVSPropertyOp9
 70
     1
102
RTVSPropertyOp10
 70
     1
102
RTVSPropertyOp11
 70
     1
102
RTVSPropertyOp12
 70
     1
102
RTVSPropertyOp13
 70
     1
102
RTVSPropertyOp14
 70
     1
102
RTVSPropertyOp15
 70
     1
102
RTVSPropertyOp16
 70
     1
102
RTVSPropertyOp17
 70
     1
102
RTVSPropertyOp18
 70
     1
102
RTVSPropertyOp19
 70
     1
102
RTVSPropertyOp20
 70
     1
102
RTVSPropertyOp21
 70
     1
102
RTVSPropertyOp22
 70
     1
102
RTVSPropertyOp23
 70
     1
102
RTVSPropertyOp24
 70
     1
102
RTVSPropertyOp25
 70
     1
102
RTVSPropertyOp26
 70
     1
102
RTVSPropertyOp27
 70
     1
102
RTVSPropertyOp28
 70
     1
102
RTVSPropertyOp29
 70
     1
102
RTVSPropertyOp30
 70
     1
102
RTVSPropertyOp31
 70
     1
102
RTVSPropertyOp32
 70
     1
102
RTVSPropertyOp33
 70
     1
102
RTVSPropertyOp34
 70
     1
102
RTVSPropertyOp35
 70
     1
102
RTVSPropertyOp36
 70
     1
102
RTVSPropertyOp37
 70
     1
102
RTVSPropertyOp38
 70
     1
102
RTVSPropertyOp39
 70
     1
102
RTVSPropertyOp40
 70
     1
102
RTVSPropertyOp41
 70
     1
102
RTVSPropertyOp42
 70
     1
102
RTVSPropertyOp43
 70
     1
102
RTVSPropertyOp44
 70
     1
102
RTVSPropertyOp45
 70
     1
102
RTVSPropertyOp46
 70
     1
102
RTVSPropertyOp47
 70
     1
102
RTVSPropertyOp48
 70
     1
102
RTVSPropertyOp49
 70
     1
102
RTVSPropertyOp50
 70
     1
102
RTVSPropertyOp51
 70
     0
102
RTVSPropertyOp52
 70
     0
102
RTVSPropertyOp53
 70
     1
102
RTVSPropertyOp54
 70
     1
102
RTVSPropertyOp55
 70
     1
102
RTVSPropertyOp56
 70
     1
102
RTVSPropertyOp57
 70
     1
102
RTVSPropertyOp58
 70
     1
102
RTVSPropertyOp59
 70
     1
102
RTVSPropertyOp60
 70
     1
102
RTVSPropertyOp61
 70
     1
102
RTVSPropertyOp62
 70
     1
  0
XRECORD
  5
34A
102
{ACAD_REACTORS
330
349
102
}
330
349
100
AcDbXrecord
280
     1
102
RTVSPost2010Prop28
280
     0
102
RTVSPost2010PropOp28
 70
     1
102
RTVSPost2010Prop29
280
     1
102
RTVSPost2010PropOp29
 70
     1
102
RTVSPost2010Prop30
280
     1
102
RTVSPost2010PropOp30
 70
     1
102
RTVSPost2010Prop31
280
     0
102
RTVSPost2010PropOp31
 70
     1
102
RTVSPost2010Prop32
280
     0
102
RTVSPost2010PropOp32
 70
     1
102
RTVSPost2010Prop33
280
     0
102
RTVSPost2010PropOp33
 70
     1
102
RTVSPost2010Prop34
280
     0
102
RTVSPost2010PropOp34
 70
     1
102
RTVSPost2010Prop35
280
     0
102
RTVSPost2010PropOp35
 70
     1
102
RTVSPost2010Prop36
280
     0
102
RTVSPost2010PropOp36
 70
     1
102
RTVSPost2010Prop37
 90
       50
102
RTVSPost2010PropOp37
 70
     1
102
RTVSPost2010Prop38
140
0.0
102
RTVSPost2010PropOp38
 70
     1
102
RTVSPost2010Prop39
140
1.0
102
RTVSPost2010PropOp39
 70
     1
102
RTVSPost2010Prop40
 90
        0
102
RTVSPost2010PropOp40
 70
     1
102
RTVSPost2010Prop41ColorIndex
 90
       18
102
RTVSPost2010Prop41ColorRGB
 90
        0
102
RTVSPost2010PropOp41
 70
     1
102
RTVSPost2010Prop42
 90
       50
102
RTVSPost2010PropOp42
 70
     1
102
RTVSPost2010Prop43
 90
        3
102
RTVSPost2010PropOp43
 70
     1
102
RTVSPost2010Prop44ColorIndex
 90
        5
102
RTVSPost2010Prop44ColorRGB
 90
      255
102
RTVSPost2010PropOp44
 70
     1
102
RTVSPost2010Prop45
280
     0
102
RTVSPost2010PropOp45
 70
     1
102
RTVSPost2010Prop46
 90
       50
102
RTVSPost2010PropOp46
 70
     1
102
RTVSPost2010Prop47
 90
       50
102
RTVSPost2010PropOp47
 70
     1
102
RTVSPost2010Prop48
 90
       50
102
RTVSPost2010PropOp48
 70
     1
102
RTVSPost2010Prop49
280
     0
102
RTVSPost2010PropOp49
 70
     1
102
RTVSPost2010Prop50
 90
       50
102
RTVSPost2010PropOp50
 70
     1
102
RTVSPost2010Prop51ColorIndex
 90
      256
102
RTVSPost2010Prop51ColorRGB
 90
-16777216
102
RTVSPost2010PropOp51
 70
     0
102
RTVSPost2010Prop52
140
1.0
102
RTVSPost2010PropOp52
 70
     0
102
RTVSPost2010Prop53
 90
        2
102
RTVSPost2010PropOp53
 70
     1
102
RTVSPost2010Prop54
  1
strokes_ogs.tif
102
RTVSPost2010PropOp54
 70
     1
102
RTVSPost2010Prop55
280
     0
102
RTVSPost2010PropOp55
 70
     1
102
RTVSPost2010Prop56
140
1.0
102
RTVSPost2010PropOp56
 70
     1
102
RTVSPost2010Prop57
140
1.0
102
RTVSPost2010PropOp57
 70
     1
102
RTVSPropertyOp0
 70
     1
102
RTVSPropertyOp1
 70
     1
102
RTVSPropertyOp2
 70
     1
102
RTVSPropertyOp3
 70
     1
102
RTVSPropertyOp4
 70
     1
102
RTVSPropertyOp5
 70
     1
102
RTVSPropertyOp6
 70
     1
102
RTVSPropertyOp7
 70
     1
102
RTVSPropertyOp8
 70
     1
102
RTVSPropertyOp9
 70
     1
102
RTVSPropertyOp10
 70
     1
102
RTVSPropertyOp11
 70
     1
102
RTVSPropertyOp12
 70
     1
102
RTVSPropertyOp13
 70
     1
102
RTVSPropertyOp14
 70
     1
102
RTVSPropertyOp15
 70
     1
102
RTVSPropertyOp16
 70
     1
102
RTVSPropertyOp17
 70
     1
102
RTVSPropertyOp18
 70
     1
102
RTVSPropertyOp19
 70
     1
102
RTVSPropertyOp20
 70
     1
102
RTVSPropertyOp21
 70
     1
102
RTVSPropertyOp22
 70
     1
102
RTVSPropertyOp23
 70
     1
102
RTVSPropertyOp24
 70
     1
102
RTVSPropertyOp25
 70
     1
102
RTVSPropertyOp26
 70
     1
102
RTVSPropertyOp27
 70
     1
102
RTVSPropertyOp28
 70
     1
102
RTVSPropertyOp29
 70
     1
102
RTVSPropertyOp30
 70
     1
102
RTVSPropertyOp31
 70
     1
102
RTVSPropertyOp32
 70
     1
102
RTVSPropertyOp33
 70
     1
102
RTVSPropertyOp34
 70
     1
102
RTVSPropertyOp35
 70
     1
102
RTVSPropertyOp36
 70
     1
102
RTVSPropertyOp37
 70
     1
102
RTVSPropertyOp38
 70
     1
102
RTVSPropertyOp39
 70
     1
102
RTVSPropertyOp40
 70
     1
102
RTVSPropertyOp41
 70
     1
102
RTVSPropertyOp42
 70
     1
102
RTVSPropertyOp43
 70
     1
102
RTVSPropertyOp44
 70
     1
102
RTVSPropertyOp45
 70
     1
102
RTVSPropertyOp46
 70
     1
102
RTVSPropertyOp47
 70
     1
102
RTVSPropertyOp48
 70
     1
102
RTVSPropertyOp49
 70
     1
102
RTVSPropertyOp50
 70
     1
102
RTVSPropertyOp51
 70
     0
102
RTVSPropertyOp52
 70
     0
102
RTVSPropertyOp53
 70
     1
102
RTVSPropertyOp54
 70
     1
102
RTVSPropertyOp55
 70
     1
102
RTVSPropertyOp56
 70
     1
102
RTVSPropertyOp57
 70
     1
102
RTVSPropertyOp58
 70
     1
102
RTVSPropertyOp59
 70
     1
102
RTVSPropertyOp60
 70
     1
102
RTVSPropertyOp61
 70
     1
102
RTVSPropertyOp62
 70
     1
  0
XRECORD
  5
34C
102
{ACAD_REACTORS
330
34B
102
}
330
34B
100
AcDbXrecord
280
     1
102
RTVSPost2010Prop28
280
     0
102
RTVSPost2010PropOp28
 70
     1
102
RTVSPost2010Prop29
280
     1
102
RTVSPost2010PropOp29
 70
     1
102
RTVSPost2010Prop30
280
     1
102
RTVSPost2010PropOp30
 70
     1
102
RTVSPost2010Prop31
280
     0
102
RTVSPost2010PropOp31
 70
     1
102
RTVSPost2010Prop32
280
     0
102
RTVSPost2010PropOp32
 70
     1
102
RTVSPost2010Prop33
280
     0
102
RTVSPost2010PropOp33
 70
     1
102
RTVSPost2010Prop34
280
     0
102
RTVSPost2010PropOp34
 70
     1
102
RTVSPost2010Prop35
280
     0
102
RTVSPost2010PropOp35
 70
     1
102
RTVSPost2010Prop36
280
     0
102
RTVSPost2010PropOp36
 70
     1
102
RTVSPost2010Prop37
 90
       50
102
RTVSPost2010PropOp37
 70
     1
102
RTVSPost2010Prop38
140
0.0
102
RTVSPost2010PropOp38
 70
     1
102
RTVSPost2010Prop39
140
1.0
102
RTVSPost2010PropOp39
 70
     1
102
RTVSPost2010Prop40
 90
        0
102
RTVSPost2010PropOp40
 70
     1
102
RTVSPost2010Prop41ColorIndex
 90
       18
102
RTVSPost2010Prop41ColorRGB
 90
        0
102
RTVSPost2010PropOp41
 70
     1
102
RTVSPost2010Prop42
 90
       50
102
RTVSPost2010PropOp42
 70
     1
102
RTVSPost2010Prop43
 90
        3
102
RTVSPost2010PropOp43
 70
     1
102
RTVSPost2010Prop44ColorIndex
 90
        5
102
RTVSPost2010Prop44ColorRGB
 90
      255
102
RTVSPost2010PropOp44
 70
     1
102
RTVSPost2010Prop45
280
     0
102
RTVSPost2010PropOp45
 70
     1
102
RTVSPost2010Prop46
 90
       50
102
RTVSPost2010PropOp46
 70
     1
102
RTVSPost2010Prop47
 90
       50
102
RTVSPost2010PropOp47
 70
     1
102
RTVSPost2010Prop48
 90
       50
102
RTVSPost2010PropOp48
 70
     1
102
RTVSPost2010Prop49
280
     0
102
RTVSPost2010PropOp49
 70
     1
102
RTVSPost2010Prop50
 90
       50
102
RTVSPost2010PropOp50
 70
     1
102
RTVSPost2010Prop51ColorIndex
 90
      256
102
RTVSPost2010Prop51ColorRGB
 90
-16777216
102
RTVSPost2010PropOp51
 70
     0
102
RTVSPost2010Prop52
140
1.0
102
RTVSPost2010PropOp52
 70
     0
102
RTVSPost2010Prop53
 90
        2
102
RTVSPost2010PropOp53
 70
     1
102
RTVSPost2010Prop54
  1
strokes_ogs.tif
102
RTVSPost2010PropOp54
 70
     1
102
RTVSPost2010Prop55
280
     0
102
RTVSPost2010PropOp55
 70
     1
102
RTVSPost2010Prop56
140
1.0
102
RTVSPost2010PropOp56
 70
     1
102
RTVSPost2010Prop57
140
1.0
102
RTVSPost2010PropOp57
 70
     1
102
RTVSPropertyOp0
 70
     1
102
RTVSPropertyOp1
 70
     1
102
RTVSPropertyOp2
 70
     1
102
RTVSPropertyOp3
 70
     1
102
RTVSPropertyOp4
 70
     1
102
RTVSPropertyOp5
 70
     1
102
RTVSPropertyOp6
 70
     1
102
RTVSPropertyOp7
 70
     1
102
RTVSPropertyOp8
 70
     1
102
RTVSPropertyOp9
 70
     1
102
RTVSPropertyOp10
 70
     1
102
RTVSPropertyOp11
 70
     1
102
RTVSPropertyOp12
 70
     1
102
RTVSPropertyOp13
 70
     1
102
RTVSPropertyOp14
 70
     1
102
RTVSPropertyOp15
 70
     1
102
RTVSPropertyOp16
 70
     1
102
RTVSPropertyOp17
 70
     1
102
RTVSPropertyOp18
 70
     1
102
RTVSPropertyOp19
 70
     1
102
RTVSPropertyOp20
 70
     1
102
RTVSPropertyOp21
 70
     1
102
RTVSPropertyOp22
 70
     1
102
RTVSPropertyOp23
 70
     1
102
RTVSPropertyOp24
 70
     1
102
RTVSPropertyOp25
 70
     1
102
RTVSPropertyOp26
 70
     1
102
RTVSPropertyOp27
 70
     1
102
RTVSPropertyOp28
 70
     1
102
RTVSPropertyOp29
 70
     1
102
RTVSPropertyOp30
 70
     1
102
RTVSPropertyOp31
 70
     1
102
RTVSPropertyOp32
 70
     1
102
RTVSPropertyOp33
 70
     1
102
RTVSPropertyOp34
 70
     1
102
RTVSPropertyOp35
 70
     1
102
RTVSPropertyOp36
 70
     1
102
RTVSPropertyOp37
 70
     1
102
RTVSPropertyOp38
 70
     1
102
RTVSPropertyOp39
 70
     1
102
RTVSPropertyOp40
 70
     1
102
RTVSPropertyOp41
 70
     1
102
RTVSPropertyOp42
 70
     1
102
RTVSPropertyOp43
 70
     1
102
RTVSPropertyOp44
 70
     1
102
RTVSPropertyOp45
 70
     1
102
RTVSPropertyOp46
 70
     1
102
RTVSPropertyOp47
 70
     1
102
RTVSPropertyOp48
 70
     1
102
RTVSPropertyOp49
 70
     1
102
RTVSPropertyOp50
 70
     1
102
RTVSPropertyOp51
 70
     0
102
RTVSPropertyOp52
 70
     0
102
RTVSPropertyOp53
 70
     1
102
RTVSPropertyOp54
 70
     1
102
RTVSPropertyOp55
 70
     1
102
RTVSPropertyOp56
 70
     1
102
RTVSPropertyOp57
 70
     1
102
RTVSPropertyOp58
 70
     1
102
RTVSPropertyOp59
 70
     1
102
RTVSPropertyOp60
 70
     1
102
RTVSPropertyOp61
 70
     1
102
RTVSPropertyOp62
 70
     1
  0
XRECORD
  5
34E
102
{ACAD_REACTORS
330
34D
102
}
330
34D
100
AcDbXrecord
280
     1
102
RTVSPost2010Prop28
280
     0
102
RTVSPost2010PropOp28
 70
     1
102
RTVSPost2010Prop29
280
     1
102
RTVSPost2010PropOp29
 70
     1
102
RTVSPost2010Prop30
280
     1
102
RTVSPost2010PropOp30
 70
     1
102
RTVSPost2010Prop31
280
     0
102
RTVSPost2010PropOp31
 70
     1
102
RTVSPost2010Prop32
280
     0
102
RTVSPost2010PropOp32
 70
     1
102
RTVSPost2010Prop33
280
     0
102
RTVSPost2010PropOp33
 70
     1
102
RTVSPost2010Prop34
280
     0
102
RTVSPost2010PropOp34
 70
     1
102
RTVSPost2010Prop35
280
     0
102
RTVSPost2010PropOp35
 70
     1
102
RTVSPost2010Prop36
280
     0
102
RTVSPost2010PropOp36
 70
     1
102
RTVSPost2010Prop37
 90
       50
102
RTVSPost2010PropOp37
 70
     1
102
RTVSPost2010Prop38
140
0.0
102
RTVSPost2010PropOp38
 70
     1
102
RTVSPost2010Prop39
140
1.0
102
RTVSPost2010PropOp39
 70
     1
102
RTVSPost2010Prop40
 90
        0
102
RTVSPost2010PropOp40
 70
     1
102
RTVSPost2010Prop41ColorIndex
 90
       18
102
RTVSPost2010Prop41ColorRGB
 90
        0
102
RTVSPost2010PropOp41
 70
     1
102
RTVSPost2010Prop42
 90
       50
102
RTVSPost2010PropOp42
 70
     1
102
RTVSPost2010Prop43
 90
        3
102
RTVSPost2010PropOp43
 70
     1
102
RTVSPost2010Prop44ColorIndex
 90
        5
102
RTVSPost2010Prop44ColorRGB
 90
      255
102
RTVSPost2010PropOp44
 70
     1
102
RTVSPost2010Prop45
280
     0
102
RTVSPost2010PropOp45
 70
     1
102
RTVSPost2010Prop46
 90
       50
102
RTVSPost2010PropOp46
 70
     1
102
RTVSPost2010Prop47
 90
       50
102
RTVSPost2010PropOp47
 70
     1
102
RTVSPost2010Prop48
 90
       50
102
RTVSPost2010PropOp48
 70
     1
102
RTVSPost2010Prop49
280
     0
102
RTVSPost2010PropOp49
 70
     1
102
RTVSPost2010Prop50
 90
       50
102
RTVSPost2010PropOp50
 70
     1
102
RTVSPost2010Prop51ColorIndex
 90
      256
102
RTVSPost2010Prop51ColorRGB
 90
-16777216
102
RTVSPost2010PropOp51
 70
     0
102
RTVSPost2010Prop52
140
1.0
102
RTVSPost2010PropOp52
 70
     0
102
RTVSPost2010Prop53
 90
        2
102
RTVSPost2010PropOp53
 70
     1
102
RTVSPost2010Prop54
  1
strokes_ogs.tif
102
RTVSPost2010PropOp54
 70
     1
102
RTVSPost2010Prop55
280
     0
102
RTVSPost2010PropOp55
 70
     1
102
RTVSPost2010Prop56
140
1.0
102
RTVSPost2010PropOp56
 70
     1
102
RTVSPost2010Prop57
140
1.0
102
RTVSPost2010PropOp57
 70
     1
102
RTVSPropertyOp0
 70
     1
102
RTVSPropertyOp1
 70
     1
102
RTVSPropertyOp2
 70
     1
102
RTVSPropertyOp3
 70
     1
102
RTVSPropertyOp4
 70
     1
102
RTVSPropertyOp5
 70
     1
102
RTVSPropertyOp6
 70
     1
102
RTVSPropertyOp7
 70
     1
102
RTVSPropertyOp8
 70
     1
102
RTVSPropertyOp9
 70
     1
102
RTVSPropertyOp10
 70
     1
102
RTVSPropertyOp11
 70
     1
102
RTVSPropertyOp12
 70
     1
102
RTVSPropertyOp13
 70
     1
102
RTVSPropertyOp14
 70
     1
102
RTVSPropertyOp15
 70
     1
102
RTVSPropertyOp16
 70
     1
102
RTVSPropertyOp17
 70
     1
102
RTVSPropertyOp18
 70
     1
102
RTVSPropertyOp19
 70
     1
102
RTVSPropertyOp20
 70
     1
102
RTVSPropertyOp21
 70
     1
102
RTVSPropertyOp22
 70
     1
102
RTVSPropertyOp23
 70
     1
102
RTVSPropertyOp24
 70
     1
102
RTVSPropertyOp25
 70
     1
102
RTVSPropertyOp26
 70
     1
102
RTVSPropertyOp27
 70
     1
102
RTVSPropertyOp28
 70
     1
102
RTVSPropertyOp29
 70
     1
102
RTVSPropertyOp30
 70
     1
102
RTVSPropertyOp31
 70
     1
102
RTVSPropertyOp32
 70
     1
102
RTVSPropertyOp33
 70
     1
102
RTVSPropertyOp34
 70
     1
102
RTVSPropertyOp35
 70
     1
102
RTVSPropertyOp36
 70
     1
102
RTVSPropertyOp37
 70
     1
102
RTVSPropertyOp38
 70
     1
102
RTVSPropertyOp39
 70
     1
102
RTVSPropertyOp40
 70
     1
102
RTVSPropertyOp41
 70
     1
102
RTVSPropertyOp42
 70
     1
102
RTVSPropertyOp43
 70
     1
102
RTVSPropertyOp44
 70
     1
102
RTVSPropertyOp45
 70
     1
102
RTVSPropertyOp46
 70
     1
102
RTVSPropertyOp47
 70
     1
102
RTVSPropertyOp48
 70
     1
102
RTVSPropertyOp49
 70
     1
102
RTVSPropertyOp50
 70
     1
102
RTVSPropertyOp51
 70
     0
102
RTVSPropertyOp52
 70
     0
102
RTVSPropertyOp53
 70
     1
102
RTVSPropertyOp54
 70
     1
102
RTVSPropertyOp55
 70
     1
102
RTVSPropertyOp56
 70
     1
102
RTVSPropertyOp57
 70
     1
102
RTVSPropertyOp58
 70
     1
102
RTVSPropertyOp59
 70
     1
102
RTVSPropertyOp60
 70
     1
102
RTVSPropertyOp61
 70
     1
102
RTVSPropertyOp62
 70
     1
  0
XRECORD
  5
350
102
{ACAD_REACTORS
330
34F
102
}
330
34F
100
AcDbXrecord
280
     1
102
RTVSPost2010Prop28
280
     0
102
RTVSPost2010PropOp28
 70
     1
102
RTVSPost2010Prop29
280
     1
102
RTVSPost2010PropOp29
 70
     1
102
RTVSPost2010Prop30
280
     1
102
RTVSPost2010PropOp30
 70
     1
102
RTVSPost2010Prop31
280
     0
102
RTVSPost2010PropOp31
 70
     1
102
RTVSPost2010Prop32
280
     0
102
RTVSPost2010PropOp32
 70
     1
102
RTVSPost2010Prop33
280
     0
102
RTVSPost2010PropOp33
 70
     1
102
RTVSPost2010Prop34
280
     0
102
RTVSPost2010PropOp34
 70
     1
102
RTVSPost2010Prop35
280
     0
102
RTVSPost2010PropOp35
 70
     1
102
RTVSPost2010Prop36
280
     0
102
RTVSPost2010PropOp36
 70
     1
102
RTVSPost2010Prop37
 90
       50
102
RTVSPost2010PropOp37
 70
     1
102
RTVSPost2010Prop38
140
0.0
102
RTVSPost2010PropOp38
 70
     1
102
RTVSPost2010Prop39
140
1.0
102
RTVSPost2010PropOp39
 70
     1
102
RTVSPost2010Prop40
 90
        0
102
RTVSPost2010PropOp40
 70
     1
102
RTVSPost2010Prop41ColorIndex
 90
       18
102
RTVSPost2010Prop41ColorRGB
 90
        0
102
RTVSPost2010PropOp41
 70
     1
102
RTVSPost2010Prop42
 90
       50
102
RTVSPost2010PropOp42
 70
     1
102
RTVSPost2010Prop43
 90
        3
102
RTVSPost2010PropOp43
 70
     1
102
RTVSPost2010Prop44ColorIndex
 90
        5
102
RTVSPost2010Prop44ColorRGB
 90
      255
102
RTVSPost2010PropOp44
 70
     1
102
RTVSPost2010Prop45
280
     0
102
RTVSPost2010PropOp45
 70
     1
102
RTVSPost2010Prop46
 90
       50
102
RTVSPost2010PropOp46
 70
     1
102
RTVSPost2010Prop47
 90
       50
102
RTVSPost2010PropOp47
 70
     1
102
RTVSPost2010Prop48
 90
       50
102
RTVSPost2010PropOp48
 70
     1
102
RTVSPost2010Prop49
280
     0
102
RTVSPost2010PropOp49
 70
     1
102
RTVSPost2010Prop50
 90
       50
102
RTVSPost2010PropOp50
 70
     1
102
RTVSPost2010Prop51ColorIndex
 90
      256
102
RTVSPost2010Prop51ColorRGB
 90
-16777216
102
RTVSPost2010PropOp51
 70
     0
102
RTVSPost2010Prop52
140
1.0
102
RTVSPost2010PropOp52
 70
     0
102
RTVSPost2010Prop53
 90
        2
102
RTVSPost2010PropOp53
 70
     1
102
RTVSPost2010Prop54
  1
strokes_ogs.tif
102
RTVSPost2010PropOp54
 70
     1
102
RTVSPost2010Prop55
280
     0
102
RTVSPost2010PropOp55
 70
     1
102
RTVSPost2010Prop56
140
1.0
102
RTVSPost2010PropOp56
 70
     1
102
RTVSPost2010Prop57
140
1.0
102
RTVSPost2010PropOp57
 70
     1
102
RTVSPropertyOp0
 70
     1
102
RTVSPropertyOp1
 70
     1
102
RTVSPropertyOp2
 70
     1
102
RTVSPropertyOp3
 70
     1
102
RTVSPropertyOp4
 70
     1
102
RTVSPropertyOp5
 70
     1
102
RTVSPropertyOp6
 70
     1
102
RTVSPropertyOp7
 70
     1
102
RTVSPropertyOp8
 70
     1
102
RTVSPropertyOp9
 70
     1
102
RTVSPropertyOp10
 70
     1
102
RTVSPropertyOp11
 70
     1
102
RTVSPropertyOp12
 70
     1
102
RTVSPropertyOp13
 70
     1
102
RTVSPropertyOp14
 70
     1
102
RTVSPropertyOp15
 70
     1
102
RTVSPropertyOp16
 70
     1
102
RTVSPropertyOp17
 70
     1
102
RTVSPropertyOp18
 70
     1
102
RTVSPropertyOp19
 70
     1
102
RTVSPropertyOp20
 70
     1
102
RTVSPropertyOp21
 70
     1
102
RTVSPropertyOp22
 70
     1
102
RTVSPropertyOp23
 70
     1
102
RTVSPropertyOp24
 70
     1
102
RTVSPropertyOp25
 70
     1
102
RTVSPropertyOp26
 70
     1
102
RTVSPropertyOp27
 70
     1
102
RTVSPropertyOp28
 70
     1
102
RTVSPropertyOp29
 70
     1
102
RTVSPropertyOp30
 70
     1
102
RTVSPropertyOp31
 70
     1
102
RTVSPropertyOp32
 70
     1
102
RTVSPropertyOp33
 70
     1
102
RTVSPropertyOp34
 70
     1
102
RTVSPropertyOp35
 70
     1
102
RTVSPropertyOp36
 70
     1
102
RTVSPropertyOp37
 70
     1
102
RTVSPropertyOp38
 70
     1
102
RTVSPropertyOp39
 70
     1
102
RTVSPropertyOp40
 70
     1
102
RTVSPropertyOp41
 70
     1
102
RTVSPropertyOp42
 70
     1
102
RTVSPropertyOp43
 70
     1
102
RTVSPropertyOp44
 70
     1
102
RTVSPropertyOp45
 70
     1
102
RTVSPropertyOp46
 70
     1
102
RTVSPropertyOp47
 70
     1
102
RTVSPropertyOp48
 70
     1
102
RTVSPropertyOp49
 70
     1
102
RTVSPropertyOp50
 70
     1
102
RTVSPropertyOp51
 70
     0
102
RTVSPropertyOp52
 70
     0
102
RTVSPropertyOp53
 70
     1
102
RTVSPropertyOp54
 70
     1
102
RTVSPropertyOp55
 70
     1
102
RTVSPropertyOp56
 70
     1
102
RTVSPropertyOp57
 70
     1
102
RTVSPropertyOp58
 70
     1
102
RTVSPropertyOp59
 70
     1
102
RTVSPropertyOp60
 70
     1
102
RTVSPropertyOp61
 70
     1
102
RTVSPropertyOp62
 70
     1
  0
XRECORD
  5
356
102
{ACAD_REACTORS
330
355
102
}
330
355
100
AcDbXrecord
280
     1
102
RTVSPost2010Prop28
280
     0
102
RTVSPost2010PropOp28
 70
     1
102
RTVSPost2010Prop29
280
     1
102
RTVSPost2010PropOp29
 70
     1
102
RTVSPost2010Prop30
280
     1
102
RTVSPost2010PropOp30
 70
     1
102
RTVSPost2010Prop31
280
     0
102
RTVSPost2010PropOp31
 70
     1
102
RTVSPost2010Prop32
280
     0
102
RTVSPost2010PropOp32
 70
     1
102
RTVSPost2010Prop33
280
     0
102
RTVSPost2010PropOp33
 70
     1
102
RTVSPost2010Prop34
280
     0
102
RTVSPost2010PropOp34
 70
     1
102
RTVSPost2010Prop35
280
     0
102
RTVSPost2010PropOp35
 70
     1
102
RTVSPost2010Prop36
280
     0
102
RTVSPost2010PropOp36
 70
     1
102
RTVSPost2010Prop37
 90
       50
102
RTVSPost2010PropOp37
 70
     1
102
RTVSPost2010Prop38
140
0.0
102
RTVSPost2010PropOp38
 70
     1
102
RTVSPost2010Prop39
140
1.0
102
RTVSPost2010PropOp39
 70
     1
102
RTVSPost2010Prop40
 90
        0
102
RTVSPost2010PropOp40
 70
     1
102
RTVSPost2010Prop41ColorIndex
 90
       18
102
RTVSPost2010Prop41ColorRGB
 90
        0
102
RTVSPost2010PropOp41
 70
     1
102
RTVSPost2010Prop42
 90
       50
102
RTVSPost2010PropOp42
 70
     1
102
RTVSPost2010Prop43
 90
        3
102
RTVSPost2010PropOp43
 70
     1
102
RTVSPost2010Prop44ColorIndex
 90
        5
102
RTVSPost2010Prop44ColorRGB
 90
      255
102
RTVSPost2010PropOp44
 70
     1
102
RTVSPost2010Prop45
280
     0
102
RTVSPost2010PropOp45
 70
     1
102
RTVSPost2010Prop46
 90
       50
102
RTVSPost2010PropOp46
 70
     1
102
RTVSPost2010Prop47
 90
       50
102
RTVSPost2010PropOp47
 70
     1
102
RTVSPost2010Prop48
 90
       50
102
RTVSPost2010PropOp48
 70
     1
102
RTVSPost2010Prop49
280
     0
102
RTVSPost2010PropOp49
 70
     1
102
RTVSPost2010Prop50
 90
       50
102
RTVSPost2010PropOp50
 70
     1
102
RTVSPost2010Prop51ColorIndex
 90
      256
102
RTVSPost2010Prop51ColorRGB
 90
-16777216
102
RTVSPost2010PropOp51
 70
     0
102
RTVSPost2010Prop52
140
1.0
102
RTVSPost2010PropOp52
 70
     0
102
RTVSPost2010Prop53
 90
        2
102
RTVSPost2010PropOp53
 70
     1
102
RTVSPost2010Prop54
  1
strokes_ogs.tif
102
RTVSPost2010PropOp54
 70
     1
102
RTVSPost2010Prop55
280
     0
102
RTVSPost2010PropOp55
 70
     1
102
RTVSPost2010Prop56
140
1.0
102
RTVSPost2010PropOp56
 70
     1
102
RTVSPost2010Prop57
140
1.0
102
RTVSPost2010PropOp57
 70
     1
102
RTVSPropertyOp0
 70
     1
102
RTVSPropertyOp1
 70
     1
102
RTVSPropertyOp2
 70
     1
102
RTVSPropertyOp3
 70
     1
102
RTVSPropertyOp4
 70
     1
102
RTVSPropertyOp5
 70
     1
102
RTVSPropertyOp6
 70
     1
102
RTVSPropertyOp7
 70
     1
102
RTVSPropertyOp8
 70
     1
102
RTVSPropertyOp9
 70
     1
102
RTVSPropertyOp10
 70
     1
102
RTVSPropertyOp11
 70
     1
102
RTVSPropertyOp12
 70
     1
102
RTVSPropertyOp13
 70
     1
102
RTVSPropertyOp14
 70
     1
102
RTVSPropertyOp15
 70
     1
102
RTVSPropertyOp16
 70
     1
102
RTVSPropertyOp17
 70
     1
102
RTVSPropertyOp18
 70
     1
102
RTVSPropertyOp19
 70
     1
102
RTVSPropertyOp20
 70
     1
102
RTVSPropertyOp21
 70
     1
102
RTVSPropertyOp22
 70
     1
102
RTVSPropertyOp23
 70
     1
102
RTVSPropertyOp24
 70
     1
102
RTVSPropertyOp25
 70
     1
102
RTVSPropertyOp26
 70
     1
102
RTVSPropertyOp27
 70
     1
102
RTVSPropertyOp28
 70
     1
102
RTVSPropertyOp29
 70
     1
102
RTVSPropertyOp30
 70
     1
102
RTVSPropertyOp31
 70
     1
102
RTVSPropertyOp32
 70
     1
102
RTVSPropertyOp33
 70
     1
102
RTVSPropertyOp34
 70
     1
102
RTVSPropertyOp35
 70
     1
102
RTVSPropertyOp36
 70
     1
102
RTVSPropertyOp37
 70
     1
102
RTVSPropertyOp38
 70
     1
102
RTVSPropertyOp39
 70
     1
102
RTVSPropertyOp40
 70
     1
102
RTVSPropertyOp41
 70
     1
102
RTVSPropertyOp42
 70
     1
102
RTVSPropertyOp43
 70
     1
102
RTVSPropertyOp44
 70
     1
102
RTVSPropertyOp45
 70
     1
102
RTVSPropertyOp46
 70
     1
102
RTVSPropertyOp47
 70
     1
102
RTVSPropertyOp48
 70
     1
102
RTVSPropertyOp49
 70
     1
102
RTVSPropertyOp50
 70
     1
102
RTVSPropertyOp51
 70
     0
102
RTVSPropertyOp52
 70
     0
102
RTVSPropertyOp53
 70
     1
102
RTVSPropertyOp54
 70
     1
102
RTVSPropertyOp55
 70
     1
102
RTVSPropertyOp56
 70
     1
102
RTVSPropertyOp57
 70
     1
102
RTVSPropertyOp58
 70
     1
102
RTVSPropertyOp59
 70
     1
102
RTVSPropertyOp60
 70
     1
102
RTVSPropertyOp61
 70
     1
102
RTVSPropertyOp62
 70
     1
  0
XRECORD
  5
36A
102
{ACAD_REACTORS
330
369
102
}
330
369
100
AcDbXrecord
280
     1
102
RTVSPost2010Prop28
280
     0
102
RTVSPost2010PropOp28
 70
     0
102
RTVSPost2010Prop29
280
     1
102
RTVSPost2010PropOp29
 70
     0
102
RTVSPost2010Prop30
280
     1
102
RTVSPost2010PropOp30
 70
     0
102
RTVSPost2010Prop31
280
     0
102
RTVSPost2010PropOp31
 70
     0
102
RTVSPost2010Prop32
280
     0
102
RTVSPost2010PropOp32
 70
     0
102
RTVSPost2010Prop33
280
     0
102
RTVSPost2010PropOp33
 70
     0
102
RTVSPost2010Prop34
280
     0
102
RTVSPost2010PropOp34
 70
     0
102
RTVSPost2010Prop35
280
     0
102
RTVSPost2010PropOp35
 70
     0
102
RTVSPost2010Prop36
280
     0
102
RTVSPost2010PropOp36
 70
     0
102
RTVSPost2010Prop37
 90
       50
102
RTVSPost2010PropOp37
 70
     0
102
RTVSPost2010Prop38
140
0.0
102
RTVSPost2010PropOp38
 70
     0
102
RTVSPost2010Prop39
140
1.0
102
RTVSPost2010PropOp39
 70
     0
102
RTVSPost2010Prop40
 90
        0
102
RTVSPost2010PropOp40
 70
     0
102
RTVSPost2010Prop41ColorIndex
 90
       18
102
RTVSPost2010Prop41ColorRGB
 90
        0
102
RTVSPost2010PropOp41
 70
     0
102
RTVSPost2010Prop42
 90
       50
102
RTVSPost2010PropOp42
 70
     0
102
RTVSPost2010Prop43
 90
        3
102
RTVSPost2010PropOp43
 70
     0
102
RTVSPost2010Prop44ColorIndex
 90
        5
102
RTVSPost2010Prop44ColorRGB
 90
      255
102
RTVSPost2010PropOp44
 70
     0
102
RTVSPost2010Prop45
280
     0
102
RTVSPost2010PropOp45
 70
     0
102
RTVSPost2010Prop46
 90
       50
102
RTVSPost2010PropOp46
 70
     0
102
RTVSPost2010Prop47
 90
       50
102
RTVSPost2010PropOp47
 70
     0
102
RTVSPost2010Prop48
 90
       50
102
RTVSPost2010PropOp48
 70
     0
102
RTVSPost2010Prop49
280
     0
102
RTVSPost2010PropOp49
 70
     0
102
RTVSPost2010Prop50
 90
       50
102
RTVSPost2010PropOp50
 70
     0
102
RTVSPost2010Prop51ColorIndex
 90
      256
102
RTVSPost2010Prop51ColorRGB
 90
-16777216
102
RTVSPost2010PropOp51
 70
     0
102
RTVSPost2010Prop52
140
1.0
102
RTVSPost2010PropOp52
 70
     0
102
RTVSPost2010Prop53
 90
        2
102
RTVSPost2010PropOp53
 70
     0
102
RTVSPost2010Prop54
  1
strokes_ogs.tif
102
RTVSPost2010PropOp54
 70
     0
102
RTVSPost2010Prop55
280
     0
102
RTVSPost2010PropOp55
 70
     0
102
RTVSPost2010Prop56
140
1.0
102
RTVSPost2010PropOp56
 70
     0
102
RTVSPost2010Prop57
140
1.0
102
RTVSPost2010PropOp57
 70
     0
102
RTVSPropertyOp0
 70
     0
102
RTVSPropertyOp1
 70
     0
102
RTVSPropertyOp2
 70
     0
102
RTVSPropertyOp3
 70
     0
102
RTVSPropertyOp4
 70
     0
102
RTVSPropertyOp5
 70
     0
102
RTVSPropertyOp6
 70
     0
102
RTVSPropertyOp7
 70
     0
102
RTVSPropertyOp8
 70
     0
102
RTVSPropertyOp9
 70
     0
102
RTVSPropertyOp10
 70
     0
102
RTVSPropertyOp11
 70
     0
102
RTVSPropertyOp12
 70
     0
102
RTVSPropertyOp13
 70
     0
102
RTVSPropertyOp14
 70
     2
102
RTVSPropertyOp15
 70
     0
102
RTVSPropertyOp16
 70
     0
102
RTVSPropertyOp17
 70
     0
102
RTVSPropertyOp18
 70
     0
102
RTVSPropertyOp19
 70
     0
102
RTVSPropertyOp20
 70
     0
102
RTVSPropertyOp21
 70
     0
102
RTVSPropertyOp22
 70
     0
102
RTVSPropertyOp23
 70
     0
102
RTVSPropertyOp24
 70
     0
102
RTVSPropertyOp25
 70
     0
102
RTVSPropertyOp26
 70
     0
102
RTVSPropertyOp27
 70
     0
102
RTVSPropertyOp28
 70
     0
102
RTVSPropertyOp29
 70
     0
102
RTVSPropertyOp30
 70
     0
102
RTVSPropertyOp31
 70
     0
102
RTVSPropertyOp32
 70
     0
102
RTVSPropertyOp33
 70
     0
102
RTVSPropertyOp34
 70
     0
102
RTVSPropertyOp35
 70
     0
102
RTVSPropertyOp36
 70
     0
102
RTVSPropertyOp37
 70
     0
102
RTVSPropertyOp38
 70
     0
102
RTVSPropertyOp39
 70
     0
102
RTVSPropertyOp40
 70
     0
102
RTVSPropertyOp41
 70
     0
102
RTVSPropertyOp42
 70
     0
102
RTVSPropertyOp43
 70
     0
102
RTVSPropertyOp44
 70
     0
102
RTVSPropertyOp45
 70
     0
102
RTVSPropertyOp46
 70
     0
102
RTVSPropertyOp47
 70
     0
102
RTVSPropertyOp48
 70
     0
102
RTVSPropertyOp49
 70
     0
102
RTVSPropertyOp50
 70
     0
102
RTVSPropertyOp51
 70
     0
102
RTVSPropertyOp52
 70
     0
102
RTVSPropertyOp53
 70
     0
102
RTVSPropertyOp54
 70
     0
102
RTVSPropertyOp55
 70
     0
102
RTVSPropertyOp56
 70
     0
102
RTVSPropertyOp57
 70
     0
102
RTVSPropertyOp58
 70
     1
102
RTVSPropertyOp59
 70
     1
102
RTVSPropertyOp60
 70
     1
102
RTVSPropertyOp61
 70
     1
102
RTVSPropertyOp62
 70
     1
  0
XRECORD
  5
364
102
{ACAD_REACTORS
330
363
102
}
330
363
100
AcDbXrecord
280
     1
102
RTVSPost2010Prop28
280
     0
102
RTVSPost2010PropOp28
 70
     1
102
RTVSPost2010Prop29
280
     1
102
RTVSPost2010PropOp29
 70
     1
102
RTVSPost2010Prop30
280
     1
102
RTVSPost2010PropOp30
 70
     1
102
RTVSPost2010Prop31
280
     0
102
RTVSPost2010PropOp31
 70
     1
102
RTVSPost2010Prop32
280
     0
102
RTVSPost2010PropOp32
 70
     1
102
RTVSPost2010Prop33
280
     0
102
RTVSPost2010PropOp33
 70
     1
102
RTVSPost2010Prop34
280
     0
102
RTVSPost2010PropOp34
 70
     1
102
RTVSPost2010Prop35
280
     0
102
RTVSPost2010PropOp35
 70
     1
102
RTVSPost2010Prop36
280
     0
102
RTVSPost2010PropOp36
 70
     1
102
RTVSPost2010Prop37
 90
       50
102
RTVSPost2010PropOp37
 70
     1
102
RTVSPost2010Prop38
140
0.0
102
RTVSPost2010PropOp38
 70
     1
102
RTVSPost2010Prop39
140
1.0
102
RTVSPost2010PropOp39
 70
     1
102
RTVSPost2010Prop40
 90
        0
102
RTVSPost2010PropOp40
 70
     1
102
RTVSPost2010Prop41ColorIndex
 90
       18
102
RTVSPost2010Prop41ColorRGB
 90
        0
102
RTVSPost2010PropOp41
 70
     1
102
RTVSPost2010Prop42
 90
       50
102
RTVSPost2010PropOp42
 70
     1
102
RTVSPost2010Prop43
 90
        3
102
RTVSPost2010PropOp43
 70
     1
102
RTVSPost2010Prop44ColorIndex
 90
        5
102
RTVSPost2010Prop44ColorRGB
 90
      255
102
RTVSPost2010PropOp44
 70
     1
102
RTVSPost2010Prop45
280
     0
102
RTVSPost2010PropOp45
 70
     1
102
RTVSPost2010Prop46
 90
       50
102
RTVSPost2010PropOp46
 70
     1
102
RTVSPost2010Prop47
 90
       50
102
RTVSPost2010PropOp47
 70
     1
102
RTVSPost2010Prop48
 90
       50
102
RTVSPost2010PropOp48
 70
     1
102
RTVSPost2010Prop49
280
     0
102
RTVSPost2010PropOp49
 70
     1
102
RTVSPost2010Prop50
 90
       50
102
RTVSPost2010PropOp50
 70
     1
102
RTVSPost2010Prop51ColorIndex
 90
      256
102
RTVSPost2010Prop51ColorRGB
 90
-16777216
102
RTVSPost2010PropOp51
 70
     0
102
RTVSPost2010Prop52
140
1.0
102
RTVSPost2010PropOp52
 70
     0
102
RTVSPost2010Prop53
 90
        2
102
RTVSPost2010PropOp53
 70
     1
102
RTVSPost2010Prop54
  1
strokes_ogs.tif
102
RTVSPost2010PropOp54
 70
     1
102
RTVSPost2010Prop55
280
     0
102
RTVSPost2010PropOp55
 70
     1
102
RTVSPost2010Prop56
140
1.0
102
RTVSPost2010PropOp56
 70
     1
102
RTVSPost2010Prop57
140
1.0
102
RTVSPost2010PropOp57
 70
     1
102
RTVSPropertyOp0
 70
     1
102
RTVSPropertyOp1
 70
     1
102
RTVSPropertyOp2
 70
     1
102
RTVSPropertyOp3
 70
     1
102
RTVSPropertyOp4
 70
     1
102
RTVSPropertyOp5
 70
     1
102
RTVSPropertyOp6
 70
     1
102
RTVSPropertyOp7
 70
     1
102
RTVSPropertyOp8
 70
     1
102
RTVSPropertyOp9
 70
     1
102
RTVSPropertyOp10
 70
     1
102
RTVSPropertyOp11
 70
     1
102
RTVSPropertyOp12
 70
     1
102
RTVSPropertyOp13
 70
     1
102
RTVSPropertyOp14
 70
     1
102
RTVSPropertyOp15
 70
     1
102
RTVSPropertyOp16
 70
     1
102
RTVSPropertyOp17
 70
     1
102
RTVSPropertyOp18
 70
     1
102
RTVSPropertyOp19
 70
     1
102
RTVSPropertyOp20
 70
     1
102
RTVSPropertyOp21
 70
     1
102
RTVSPropertyOp22
 70
     1
102
RTVSPropertyOp23
 70
     1
102
RTVSPropertyOp24
 70
     1
102
RTVSPropertyOp25
 70
     1
102
RTVSPropertyOp26
 70
     1
102
RTVSPropertyOp27
 70
     1
102
RTVSPropertyOp28
 70
     1
102
RTVSPropertyOp29
 70
     1
102
RTVSPropertyOp30
 70
     1
102
RTVSPropertyOp31
 70
     1
102
RTVSPropertyOp32
 70
     1
102
RTVSPropertyOp33
 70
     1
102
RTVSPropertyOp34
 70
     1
102
RTVSPropertyOp35
 70
     1
102
RTVSPropertyOp36
 70
     1
102
RTVSPropertyOp37
 70
     1
102
RTVSPropertyOp38
 70
     1
102
RTVSPropertyOp39
 70
     1
102
RTVSPropertyOp40
 70
     1
102
RTVSPropertyOp41
 70
     1
102
RTVSPropertyOp42
 70
     1
102
RTVSPropertyOp43
 70
     1
102
RTVSPropertyOp44
 70
     1
102
RTVSPropertyOp45
 70
     1
102
RTVSPropertyOp46
 70
     1
102
RTVSPropertyOp47
 70
     1
102
RTVSPropertyOp48
 70
     1
102
RTVSPropertyOp49
 70
     1
102
RTVSPropertyOp50
 70
     1
102
RTVSPropertyOp51
 70
     0
102
RTVSPropertyOp52
 70
     0
102
RTVSPropertyOp53
 70
     1
102
RTVSPropertyOp54
 70
     1
102
RTVSPropertyOp55
 70
     1
102
RTVSPropertyOp56
 70
     1
102
RTVSPropertyOp57
 70
     1
102
RTVSPropertyOp58
 70
     1
102
RTVSPropertyOp59
 70
     1
102
RTVSPropertyOp60
 70
     1
102
RTVSPropertyOp61
 70
     1
102
RTVSPropertyOp62
 70
     1
  0
XRECORD
  5
36C
102
{ACAD_REACTORS
330
36B
102
}
330
36B
100
AcDbXrecord
280
     1
102
RTVSPost2010Prop28
280
     0
102
RTVSPost2010PropOp28
 70
     0
102
RTVSPost2010Prop29
280
     1
102
RTVSPost2010PropOp29
 70
     0
102
RTVSPost2010Prop30
280
     1
102
RTVSPost2010PropOp30
 70
     0
102
RTVSPost2010Prop31
280
     0
102
RTVSPost2010PropOp31
 70
     0
102
RTVSPost2010Prop32
280
     0
102
RTVSPost2010PropOp32
 70
     0
102
RTVSPost2010Prop33
280
     0
102
RTVSPost2010PropOp33
 70
     0
102
RTVSPost2010Prop34
280
     0
102
RTVSPost2010PropOp34
 70
     0
102
RTVSPost2010Prop35
280
     0
102
RTVSPost2010PropOp35
 70
     0
102
RTVSPost2010Prop36
280
     0
102
RTVSPost2010PropOp36
 70
     0
102
RTVSPost2010Prop37
 90
       50
102
RTVSPost2010PropOp37
 70
     0
102
RTVSPost2010Prop38
140
0.0
102
RTVSPost2010PropOp38
 70
     0
102
RTVSPost2010Prop39
140
1.0
102
RTVSPost2010PropOp39
 70
     0
102
RTVSPost2010Prop40
 90
        0
102
RTVSPost2010PropOp40
 70
     0
102
RTVSPost2010Prop41ColorIndex
 90
       18
102
RTVSPost2010Prop41ColorRGB
 90
        0
102
RTVSPost2010PropOp41
 70
     0
102
RTVSPost2010Prop42
 90
       50
102
RTVSPost2010PropOp42
 70
     0
102
RTVSPost2010Prop43
 90
        3
102
RTVSPost2010PropOp43
 70
     0
102
RTVSPost2010Prop44ColorIndex
 90
        5
102
RTVSPost2010Prop44ColorRGB
 90
      255
102
RTVSPost2010PropOp44
 70
     0
102
RTVSPost2010Prop45
280
     0
102
RTVSPost2010PropOp45
 70
     0
102
RTVSPost2010Prop46
 90
       50
102
RTVSPost2010PropOp46
 70
     0
102
RTVSPost2010Prop47
 90
       50
102
RTVSPost2010PropOp47
 70
     0
102
RTVSPost2010Prop48
 90
       50
102
RTVSPost2010PropOp48
 70
     0
102
RTVSPost2010Prop49
280
     0
102
RTVSPost2010PropOp49
 70
     0
102
RTVSPost2010Prop50
 90
       50
102
RTVSPost2010PropOp50
 70
     0
102
RTVSPost2010Prop51ColorIndex
 90
      256
102
RTVSPost2010Prop51ColorRGB
 90
-16777216
102
RTVSPost2010PropOp51
 70
     0
102
RTVSPost2010Prop52
140
1.0
102
RTVSPost2010PropOp52
 70
     0
102
RTVSPost2010Prop53
 90
        2
102
RTVSPost2010PropOp53
 70
     0
102
RTVSPost2010Prop54
  1
strokes_ogs.tif
102
RTVSPost2010PropOp54
 70
     0
102
RTVSPost2010Prop55
280
     0
102
RTVSPost2010PropOp55
 70
     0
102
RTVSPost2010Prop56
140
1.0
102
RTVSPost2010PropOp56
 70
     0
102
RTVSPost2010Prop57
140
1.0
102
RTVSPost2010PropOp57
 70
     0
102
RTVSPropertyOp0
 70
     0
102
RTVSPropertyOp1
 70
     0
102
RTVSPropertyOp2
 70
     0
102
RTVSPropertyOp3
 70
     0
102
RTVSPropertyOp4
 70
     0
102
RTVSPropertyOp5
 70
     0
102
RTVSPropertyOp6
 70
     0
102
RTVSPropertyOp7
 70
     0
102
RTVSPropertyOp8
 70
     0
102
RTVSPropertyOp9
 70
     0
102
RTVSPropertyOp10
 70
     0
102
RTVSPropertyOp11
 70
     0
102
RTVSPropertyOp12
 70
     0
102
RTVSPropertyOp13
 70
     0
102
RTVSPropertyOp14
 70
     2
102
RTVSPropertyOp15
 70
     0
102
RTVSPropertyOp16
 70
     0
102
RTVSPropertyOp17
 70
     0
102
RTVSPropertyOp18
 70
     0
102
RTVSPropertyOp19
 70
     0
102
RTVSPropertyOp20
 70
     0
102
RTVSPropertyOp21
 70
     0
102
RTVSPropertyOp22
 70
     0
102
RTVSPropertyOp23
 70
     0
102
RTVSPropertyOp24
 70
     0
102
RTVSPropertyOp25
 70
     0
102
RTVSPropertyOp26
 70
     0
102
RTVSPropertyOp27
 70
     0
102
RTVSPropertyOp28
 70
     0
102
RTVSPropertyOp29
 70
     0
102
RTVSPropertyOp30
 70
     0
102
RTVSPropertyOp31
 70
     0
102
RTVSPropertyOp32
 70
     0
102
RTVSPropertyOp33
 70
     0
102
RTVSPropertyOp34
 70
     0
102
RTVSPropertyOp35
 70
     0
102
RTVSPropertyOp36
 70
     0
102
RTVSPropertyOp37
 70
     0
102
RTVSPropertyOp38
 70
     0
102
RTVSPropertyOp39
 70
     0
102
RTVSPropertyOp40
 70
     0
102
RTVSPropertyOp41
 70
     0
102
RTVSPropertyOp42
 70
     0
102
RTVSPropertyOp43
 70
     0
102
RTVSPropertyOp44
 70
     0
102
RTVSPropertyOp45
 70
     0
102
RTVSPropertyOp46
 70
     0
102
RTVSPropertyOp47
 70
     0
102
RTVSPropertyOp48
 70
     0
102
RTVSPropertyOp49
 70
     0
102
RTVSPropertyOp50
 70
     0
102
RTVSPropertyOp51
 70
     0
102
RTVSPropertyOp52
 70
     0
102
RTVSPropertyOp53
 70
     0
102
RTVSPropertyOp54
 70
     0
102
RTVSPropertyOp55
 70
     0
102
RTVSPropertyOp56
 70
     0
102
RTVSPropertyOp57
 70
     0
102
RTVSPropertyOp58
 70
     1
102
RTVSPropertyOp59
 70
     1
102
RTVSPropertyOp60
 70
     1
102
RTVSPropertyOp61
 70
     1
102
RTVSPropertyOp62
 70
     1
  0
XRECORD
  5
35A
102
{ACAD_REACTORS
330
359
102
}
330
359
100
AcDbXrecord
280
     1
102
RTVSPost2010Prop28
280
     0
102
RTVSPost2010PropOp28
 70
     1
102
RTVSPost2010Prop29
280
     1
102
RTVSPost2010PropOp29
 70
     1
102
RTVSPost2010Prop30
280
     1
102
RTVSPost2010PropOp30
 70
     1
102
RTVSPost2010Prop31
280
     0
102
RTVSPost2010PropOp31
 70
     1
102
RTVSPost2010Prop32
280
     0
102
RTVSPost2010PropOp32
 70
     1
102
RTVSPost2010Prop33
280
     0
102
RTVSPost2010PropOp33
 70
     1
102
RTVSPost2010Prop34
280
     0
102
RTVSPost2010PropOp34
 70
     1
102
RTVSPost2010Prop35
280
     0
102
RTVSPost2010PropOp35
 70
     1
102
RTVSPost2010Prop36
280
     0
102
RTVSPost2010PropOp36
 70
     1
102
RTVSPost2010Prop37
 90
       50
102
RTVSPost2010PropOp37
 70
     1
102
RTVSPost2010Prop38
140
0.0
102
RTVSPost2010PropOp38
 70
     1
102
RTVSPost2010Prop39
140
1.0
102
RTVSPost2010PropOp39
 70
     1
102
RTVSPost2010Prop40
 90
        0
102
RTVSPost2010PropOp40
 70
     1
102
RTVSPost2010Prop41ColorIndex
 90
       18
102
RTVSPost2010Prop41ColorRGB
 90
        0
102
RTVSPost2010PropOp41
 70
     1
102
RTVSPost2010Prop42
 90
       50
102
RTVSPost2010PropOp42
 70
     1
102
RTVSPost2010Prop43
 90
        3
102
RTVSPost2010PropOp43
 70
     1
102
RTVSPost2010Prop44ColorIndex
 90
        5
102
RTVSPost2010Prop44ColorRGB
 90
      255
102
RTVSPost2010PropOp44
 70
     1
102
RTVSPost2010Prop45
280
     0
102
RTVSPost2010PropOp45
 70
     1
102
RTVSPost2010Prop46
 90
       50
102
RTVSPost2010PropOp46
 70
     1
102
RTVSPost2010Prop47
 90
       50
102
RTVSPost2010PropOp47
 70
     1
102
RTVSPost2010Prop48
 90
       50
102
RTVSPost2010PropOp48
 70
     1
102
RTVSPost2010Prop49
280
     0
102
RTVSPost2010PropOp49
 70
     1
102
RTVSPost2010Prop50
 90
       50
102
RTVSPost2010PropOp50
 70
     1
102
RTVSPost2010Prop51ColorIndex
 90
      256
102
RTVSPost2010Prop51ColorRGB
 90
-16777216
102
RTVSPost2010PropOp51
 70
     0
102
RTVSPost2010Prop52
140
1.0
102
RTVSPost2010PropOp52
 70
     0
102
RTVSPost2010Prop53
 90
        2
102
RTVSPost2010PropOp53
 70
     1
102
RTVSPost2010Prop54
  1
strokes_ogs.tif
102
RTVSPost2010PropOp54
 70
     1
102
RTVSPost2010Prop55
280
     0
102
RTVSPost2010PropOp55
 70
     1
102
RTVSPost2010Prop56
140
1.0
102
RTVSPost2010PropOp56
 70
     1
102
RTVSPost2010Prop57
140
1.0
102
RTVSPost2010PropOp57
 70
     1
102
RTVSPropertyOp0
 70
     1
102
RTVSPropertyOp1
 70
     1
102
RTVSPropertyOp2
 70
     1
102
RTVSPropertyOp3
 70
     1
102
RTVSPropertyOp4
 70
     1
102
RTVSPropertyOp5
 70
     1
102
RTVSPropertyOp6
 70
     1
102
RTVSPropertyOp7
 70
     1
102
RTVSPropertyOp8
 70
     1
102
RTVSPropertyOp9
 70
     1
102
RTVSPropertyOp10
 70
     1
102
RTVSPropertyOp11
 70
     1
102
RTVSPropertyOp12
 70
     1
102
RTVSPropertyOp13
 70
     1
102
RTVSPropertyOp14
 70
     1
102
RTVSPropertyOp15
 70
     1
102
RTVSPropertyOp16
 70
     1
102
RTVSPropertyOp17
 70
     1
102
RTVSPropertyOp18
 70
     1
102
RTVSPropertyOp19
 70
     1
102
RTVSPropertyOp20
 70
     1
102
RTVSPropertyOp21
 70
     1
102
RTVSPropertyOp22
 70
     1
102
RTVSPropertyOp23
 70
     1
102
RTVSPropertyOp24
 70
     1
102
RTVSPropertyOp25
 70
     1
102
RTVSPropertyOp26
 70
     1
102
RTVSPropertyOp27
 70
     1
102
RTVSPropertyOp28
 70
     1
102
RTVSPropertyOp29
 70
     1
102
RTVSPropertyOp30
 70
     1
102
RTVSPropertyOp31
 70
     1
102
RTVSPropertyOp32
 70
     1
102
RTVSPropertyOp33
 70
     1
102
RTVSPropertyOp34
 70
     1
102
RTVSPropertyOp35
 70
     1
102
RTVSPropertyOp36
 70
     1
102
RTVSPropertyOp37
 70
     1
102
RTVSPropertyOp38
 70
     1
102
RTVSPropertyOp39
 70
     1
102
RTVSPropertyOp40
 70
     1
102
RTVSPropertyOp41
 70
     1
102
RTVSPropertyOp42
 70
     1
102
RTVSPropertyOp43
 70
     1
102
RTVSPropertyOp44
 70
     1
102
RTVSPropertyOp45
 70
     1
102
RTVSPropertyOp46
 70
     1
102
RTVSPropertyOp47
 70
     1
102
RTVSPropertyOp48
 70
     1
102
RTVSPropertyOp49
 70
     1
102
RTVSPropertyOp50
 70
     1
102
RTVSPropertyOp51
 70
     0
102
RTVSPropertyOp52
 70
     0
102
RTVSPropertyOp53
 70
     1
102
RTVSPropertyOp54
 70
     1
102
RTVSPropertyOp55
 70
     1
102
RTVSPropertyOp56
 70
     1
102
RTVSPropertyOp57
 70
     1
102
RTVSPropertyOp58
 70
     1
102
RTVSPropertyOp59
 70
     1
102
RTVSPropertyOp60
 70
     1
102
RTVSPropertyOp61
 70
     1
102
RTVSPropertyOp62
 70
     1
  0
XRECORD
  5
378
102
{ACAD_REACTORS
330
377
102
}
330
377
100
AcDbXrecord
280
     1
102
RTVSPost2010Prop28
280
     0
102
RTVSPost2010PropOp28
 70
     1
102
RTVSPost2010Prop29
280
     1
102
RTVSPost2010PropOp29
 70
     1
102
RTVSPost2010Prop30
280
     1
102
RTVSPost2010PropOp30
 70
     1
102
RTVSPost2010Prop31
280
     0
102
RTVSPost2010PropOp31
 70
     1
102
RTVSPost2010Prop32
280
     0
102
RTVSPost2010PropOp32
 70
     1
102
RTVSPost2010Prop33
280
     0
102
RTVSPost2010PropOp33
 70
     1
102
RTVSPost2010Prop34
280
     0
102
RTVSPost2010PropOp34
 70
     1
102
RTVSPost2010Prop35
280
     0
102
RTVSPost2010PropOp35
 70
     1
102
RTVSPost2010Prop36
280
     0
102
RTVSPost2010PropOp36
 70
     1
102
RTVSPost2010Prop37
 90
       50
102
RTVSPost2010PropOp37
 70
     1
102
RTVSPost2010Prop38
140
0.0
102
RTVSPost2010PropOp38
 70
     1
102
RTVSPost2010Prop39
140
1.0
102
RTVSPost2010PropOp39
 70
     1
102
RTVSPost2010Prop40
 90
        0
102
RTVSPost2010PropOp40
 70
     1
102
RTVSPost2010Prop41ColorIndex
 90
       18
102
RTVSPost2010Prop41ColorRGB
 90
        0
102
RTVSPost2010PropOp41
 70
     1
102
RTVSPost2010Prop42
 90
       50
102
RTVSPost2010PropOp42
 70
     1
102
RTVSPost2010Prop43
 90
        3
102
RTVSPost2010PropOp43
 70
     1
102
RTVSPost2010Prop44ColorIndex
 90
        5
102
RTVSPost2010Prop44ColorRGB
 90
      255
102
RTVSPost2010PropOp44
 70
     1
102
RTVSPost2010Prop45
280
     0
102
RTVSPost2010PropOp45
 70
     1
102
RTVSPost2010Prop46
 90
       50
102
RTVSPost2010PropOp46
 70
     1
102
RTVSPost2010Prop47
 90
       50
102
RTVSPost2010PropOp47
 70
     1
102
RTVSPost2010Prop48
 90
       50
102
RTVSPost2010PropOp48
 70
     1
102
RTVSPost2010Prop49
280
     0
102
RTVSPost2010PropOp49
 70
     1
102
RTVSPost2010Prop50
 90
       50
102
RTVSPost2010PropOp50
 70
     1
102
RTVSPost2010Prop51ColorIndex
 90
      256
102
RTVSPost2010Prop51ColorRGB
 90
-16777216
102
RTVSPost2010PropOp51
 70
     0
102
RTVSPost2010Prop52
140
1.0
102
RTVSPost2010PropOp52
 70
     0
102
RTVSPost2010Prop53
 90
        2
102
RTVSPost2010PropOp53
 70
     1
102
RTVSPost2010Prop54
  1
strokes_ogs.tif
102
RTVSPost2010PropOp54
 70
     1
102
RTVSPost2010Prop55
280
     0
102
RTVSPost2010PropOp55
 70
     1
102
RTVSPost2010Prop56
140
1.0
102
RTVSPost2010PropOp56
 70
     1
102
RTVSPost2010Prop57
140
1.0
102
RTVSPost2010PropOp57
 70
     1
102
RTVSPropertyOp0
 70
     1
102
RTVSPropertyOp1
 70
     1
102
RTVSPropertyOp2
 70
     1
102
RTVSPropertyOp3
 70
     1
102
RTVSPropertyOp4
 70
     1
102
RTVSPropertyOp5
 70
     1
102
RTVSPropertyOp6
 70
     1
102
RTVSPropertyOp7
 70
     1
102
RTVSPropertyOp8
 70
     1
102
RTVSPropertyOp9
 70
     1
102
RTVSPropertyOp10
 70
     1
102
RTVSPropertyOp11
 70
     1
102
RTVSPropertyOp12
 70
     1
102
RTVSPropertyOp13
 70
     1
102
RTVSPropertyOp14
 70
     1
102
RTVSPropertyOp15
 70
     1
102
RTVSPropertyOp16
 70
     1
102
RTVSPropertyOp17
 70
     1
102
RTVSPropertyOp18
 70
     1
102
RTVSPropertyOp19
 70
     1
102
RTVSPropertyOp20
 70
     1
102
RTVSPropertyOp21
 70
     1
102
RTVSPropertyOp22
 70
     1
102
RTVSPropertyOp23
 70
     1
102
RTVSPropertyOp24
 70
     1
102
RTVSPropertyOp25
 70
     1
102
RTVSPropertyOp26
 70
     1
102
RTVSPropertyOp27
 70
     1
102
RTVSPropertyOp28
 70
     1
102
RTVSPropertyOp29
 70
     1
102
RTVSPropertyOp30
 70
     1
102
RTVSPropertyOp31
 70
     1
102
RTVSPropertyOp32
 70
     1
102
RTVSPropertyOp33
 70
     1
102
RTVSPropertyOp34
 70
     1
102
RTVSPropertyOp35
 70
     1
102
RTVSPropertyOp36
 70
     1
102
RTVSPropertyOp37
 70
     1
102
RTVSPropertyOp38
 70
     1
102
RTVSPropertyOp39
 70
     1
102
RTVSPropertyOp40
 70
     1
102
RTVSPropertyOp41
 70
     1
102
RTVSPropertyOp42
 70
     1
102
RTVSPropertyOp43
 70
     1
102
RTVSPropertyOp44
 70
     1
102
RTVSPropertyOp45
 70
     1
102
RTVSPropertyOp46
 70
     1
102
RTVSPropertyOp47
 70
     1
102
RTVSPropertyOp48
 70
     1
102
RTVSPropertyOp49
 70
     1
102
RTVSPropertyOp50
 70
     1
102
RTVSPropertyOp51
 70
     0
102
RTVSPropertyOp52
 70
     0
102
RTVSPropertyOp53
 70
     1
102
RTVSPropertyOp54
 70
     1
102
RTVSPropertyOp55
 70
     1
102
RTVSPropertyOp56
 70
     1
102
RTVSPropertyOp57
 70
     1
102
RTVSPropertyOp58
 70
     1
102
RTVSPropertyOp59
 70
     1
102
RTVSPropertyOp60
 70
     1
102
RTVSPropertyOp61
 70
     1
102
RTVSPropertyOp62
 70
     1
  0
XRECORD
  5
376
102
{ACAD_REACTORS
330
375
102
}
330
375
100
AcDbXrecord
280
     1
102
RTVSPost2010Prop28
280
     0
102
RTVSPost2010PropOp28
 70
     1
102
RTVSPost2010Prop29
280
     1
102
RTVSPost2010PropOp29
 70
     1
102
RTVSPost2010Prop30
280
     1
102
RTVSPost2010PropOp30
 70
     1
102
RTVSPost2010Prop31
280
     0
102
RTVSPost2010PropOp31
 70
     1
102
RTVSPost2010Prop32
280
     0
102
RTVSPost2010PropOp32
 70
     1
102
RTVSPost2010Prop33
280
     0
102
RTVSPost2010PropOp33
 70
     1
102
RTVSPost2010Prop34
280
     0
102
RTVSPost2010PropOp34
 70
     1
102
RTVSPost2010Prop35
280
     0
102
RTVSPost2010PropOp35
 70
     1
102
RTVSPost2010Prop36
280
     0
102
RTVSPost2010PropOp36
 70
     1
102
RTVSPost2010Prop37
 90
       50
102
RTVSPost2010PropOp37
 70
     1
102
RTVSPost2010Prop38
140
0.0
102
RTVSPost2010PropOp38
 70
     1
102
RTVSPost2010Prop39
140
1.0
102
RTVSPost2010PropOp39
 70
     1
102
RTVSPost2010Prop40
 90
        0
102
RTVSPost2010PropOp40
 70
     1
102
RTVSPost2010Prop41ColorIndex
 90
       18
102
RTVSPost2010Prop41ColorRGB
 90
        0
102
RTVSPost2010PropOp41
 70
     1
102
RTVSPost2010Prop42
 90
       50
102
RTVSPost2010PropOp42
 70
     1
102
RTVSPost2010Prop43
 90
        3
102
RTVSPost2010PropOp43
 70
     1
102
RTVSPost2010Prop44ColorIndex
 90
        5
102
RTVSPost2010Prop44ColorRGB
 90
      255
102
RTVSPost2010PropOp44
 70
     1
102
RTVSPost2010Prop45
280
     0
102
RTVSPost2010PropOp45
 70
     1
102
RTVSPost2010Prop46
 90
       50
102
RTVSPost2010PropOp46
 70
     1
102
RTVSPost2010Prop47
 90
       50
102
RTVSPost2010PropOp47
 70
     1
102
RTVSPost2010Prop48
 90
       50
102
RTVSPost2010PropOp48
 70
     1
102
RTVSPost2010Prop49
280
     0
102
RTVSPost2010PropOp49
 70
     1
102
RTVSPost2010Prop50
 90
       50
102
RTVSPost2010PropOp50
 70
     1
102
RTVSPost2010Prop51ColorIndex
 90
      256
102
RTVSPost2010Prop51ColorRGB
 90
-16777216
102
RTVSPost2010PropOp51
 70
     0
102
RTVSPost2010Prop52
140
1.0
102
RTVSPost2010PropOp52
 70
     0
102
RTVSPost2010Prop53
 90
        2
102
RTVSPost2010PropOp53
 70
     1
102
RTVSPost2010Prop54
  1
strokes_ogs.tif
102
RTVSPost2010PropOp54
 70
     1
102
RTVSPost2010Prop55
280
     0
102
RTVSPost2010PropOp55
 70
     1
102
RTVSPost2010Prop56
140
1.0
102
RTVSPost2010PropOp56
 70
     1
102
RTVSPost2010Prop57
140
1.0
102
RTVSPost2010PropOp57
 70
     1
102
RTVSPropertyOp0
 70
     1
102
RTVSPropertyOp1
 70
     1
102
RTVSPropertyOp2
 70
     1
102
RTVSPropertyOp3
 70
     1
102
RTVSPropertyOp4
 70
     1
102
RTVSPropertyOp5
 70
     1
102
RTVSPropertyOp6
 70
     1
102
RTVSPropertyOp7
 70
     1
102
RTVSPropertyOp8
 70
     1
102
RTVSPropertyOp9
 70
     1
102
RTVSPropertyOp10
 70
     1
102
RTVSPropertyOp11
 70
     1
102
RTVSPropertyOp12
 70
     1
102
RTVSPropertyOp13
 70
     1
102
RTVSPropertyOp14
 70
     1
102
RTVSPropertyOp15
 70
     1
102
RTVSPropertyOp16
 70
     1
102
RTVSPropertyOp17
 70
     1
102
RTVSPropertyOp18
 70
     1
102
RTVSPropertyOp19
 70
     1
102
RTVSPropertyOp20
 70
     1
102
RTVSPropertyOp21
 70
     1
102
RTVSPropertyOp22
 70
     1
102
RTVSPropertyOp23
 70
     1
102
RTVSPropertyOp24
 70
     1
102
RTVSPropertyOp25
 70
     1
102
RTVSPropertyOp26
 70
     1
102
RTVSPropertyOp27
 70
     1
102
RTVSPropertyOp28
 70
     1
102
RTVSPropertyOp29
 70
     1
102
RTVSPropertyOp30
 70
     1
102
RTVSPropertyOp31
 70
     1
102
RTVSPropertyOp32
 70
     1
102
RTVSPropertyOp33
 70
     1
102
RTVSPropertyOp34
 70
     1
102
RTVSPropertyOp35
 70
     1
102
RTVSPropertyOp36
 70
     1
102
RTVSPropertyOp37
 70
     1
102
RTVSPropertyOp38
 70
     1
102
RTVSPropertyOp39
 70
     1
102
RTVSPropertyOp40
 70
     1
102
RTVSPropertyOp41
 70
     1
102
RTVSPropertyOp42
 70
     1
102
RTVSPropertyOp43
 70
     1
102
RTVSPropertyOp44
 70
     1
102
RTVSPropertyOp45
 70
     1
102
RTVSPropertyOp46
 70
     1
102
RTVSPropertyOp47
 70
     1
102
RTVSPropertyOp48
 70
     1
102
RTVSPropertyOp49
 70
     1
102
RTVSPropertyOp50
 70
     1
102
RTVSPropertyOp51
 70
     0
102
RTVSPropertyOp52
 70
     0
102
RTVSPropertyOp53
 70
     1
102
RTVSPropertyOp54
 70
     1
102
RTVSPropertyOp55
 70
     1
102
RTVSPropertyOp56
 70
     1
102
RTVSPropertyOp57
 70
     1
102
RTVSPropertyOp58
 70
     1
102
RTVSPropertyOp59
 70
     1
102
RTVSPropertyOp60
 70
     1
102
RTVSPropertyOp61
 70
     1
102
RTVSPropertyOp62
 70
     1
  0
XRECORD
  5
370
102
{ACAD_REACTORS
330
36F
102
}
330
36F
100
AcDbXrecord
280
     1
102
RTVSPost2010Prop28
280
     0
102
RTVSPost2010PropOp28
 70
     1
102
RTVSPost2010Prop29
280
     1
102
RTVSPost2010PropOp29
 70
     1
102
RTVSPost2010Prop30
280
     1
102
RTVSPost2010PropOp30
 70
     1
102
RTVSPost2010Prop31
280
     0
102
RTVSPost2010PropOp31
 70
     1
102
RTVSPost2010Prop32
280
     0
102
RTVSPost2010PropOp32
 70
     1
102
RTVSPost2010Prop33
280
     0
102
RTVSPost2010PropOp33
 70
     1
102
RTVSPost2010Prop34
280
     0
102
RTVSPost2010PropOp34
 70
     1
102
RTVSPost2010Prop35
280
     0
102
RTVSPost2010PropOp35
 70
     1
102
RTVSPost2010Prop36
280
     0
102
RTVSPost2010PropOp36
 70
     1
102
RTVSPost2010Prop37
 90
       50
102
RTVSPost2010PropOp37
 70
     1
102
RTVSPost2010Prop38
140
0.0
102
RTVSPost2010PropOp38
 70
     1
102
RTVSPost2010Prop39
140
1.0
102
RTVSPost2010PropOp39
 70
     1
102
RTVSPost2010Prop40
 90
        0
102
RTVSPost2010PropOp40
 70
     1
102
RTVSPost2010Prop41ColorIndex
 90
       18
102
RTVSPost2010Prop41ColorRGB
 90
        0
102
RTVSPost2010PropOp41
 70
     1
102
RTVSPost2010Prop42
 90
       50
102
RTVSPost2010PropOp42
 70
     1
102
RTVSPost2010Prop43
 90
        3
102
RTVSPost2010PropOp43
 70
     1
102
RTVSPost2010Prop44ColorIndex
 90
        5
102
RTVSPost2010Prop44ColorRGB
 90
      255
102
RTVSPost2010PropOp44
 70
     1
102
RTVSPost2010Prop45
280
     0
102
RTVSPost2010PropOp45
 70
     1
102
RTVSPost2010Prop46
 90
       50
102
RTVSPost2010PropOp46
 70
     1
102
RTVSPost2010Prop47
 90
       50
102
RTVSPost2010PropOp47
 70
     1
102
RTVSPost2010Prop48
 90
       50
102
RTVSPost2010PropOp48
 70
     1
102
RTVSPost2010Prop49
280
     0
102
RTVSPost2010PropOp49
 70
     1
102
RTVSPost2010Prop50
 90
       50
102
RTVSPost2010PropOp50
 70
     1
102
RTVSPost2010Prop51ColorIndex
 90
      256
102
RTVSPost2010Prop51ColorRGB
 90
-16777216
102
RTVSPost2010PropOp51
 70
     0
102
RTVSPost2010Prop52
140
1.0
102
RTVSPost2010PropOp52
 70
     0
102
RTVSPost2010Prop53
 90
        2
102
RTVSPost2010PropOp53
 70
     1
102
RTVSPost2010Prop54
  1
strokes_ogs.tif
102
RTVSPost2010PropOp54
 70
     1
102
RTVSPost2010Prop55
280
     0
102
RTVSPost2010PropOp55
 70
     1
102
RTVSPost2010Prop56
140
1.0
102
RTVSPost2010PropOp56
 70
     1
102
RTVSPost2010Prop57
140
1.0
102
RTVSPost2010PropOp57
 70
     1
102
RTVSPropertyOp0
 70
     1
102
RTVSPropertyOp1
 70
     1
102
RTVSPropertyOp2
 70
     1
102
RTVSPropertyOp3
 70
     1
102
RTVSPropertyOp4
 70
     1
102
RTVSPropertyOp5
 70
     1
102
RTVSPropertyOp6
 70
     1
102
RTVSPropertyOp7
 70
     1
102
RTVSPropertyOp8
 70
     1
102
RTVSPropertyOp9
 70
     1
102
RTVSPropertyOp10
 70
     1
102
RTVSPropertyOp11
 70
     1
102
RTVSPropertyOp12
 70
     1
102
RTVSPropertyOp13
 70
     1
102
RTVSPropertyOp14
 70
     1
102
RTVSPropertyOp15
 70
     1
102
RTVSPropertyOp16
 70
     1
102
RTVSPropertyOp17
 70
     1
102
RTVSPropertyOp18
 70
     1
102
RTVSPropertyOp19
 70
     1
102
RTVSPropertyOp20
 70
     1
102
RTVSPropertyOp21
 70
     1
102
RTVSPropertyOp22
 70
     1
102
RTVSPropertyOp23
 70
     1
102
RTVSPropertyOp24
 70
     1
102
RTVSPropertyOp25
 70
     1
102
RTVSPropertyOp26
 70
     1
102
RTVSPropertyOp27
 70
     1
102
RTVSPropertyOp28
 70
     1
102
RTVSPropertyOp29
 70
     1
102
RTVSPropertyOp30
 70
     1
102
RTVSPropertyOp31
 70
     1
102
RTVSPropertyOp32
 70
     1
102
RTVSPropertyOp33
 70
     1
102
RTVSPropertyOp34
 70
     1
102
RTVSPropertyOp35
 70
     1
102
RTVSPropertyOp36
 70
     1
102
RTVSPropertyOp37
 70
     1
102
RTVSPropertyOp38
 70
     1
102
RTVSPropertyOp39
 70
     1
102
RTVSPropertyOp40
 70
     1
102
RTVSPropertyOp41
 70
     1
102
RTVSPropertyOp42
 70
     1
102
RTVSPropertyOp43
 70
     1
102
RTVSPropertyOp44
 70
     1
102
RTVSPropertyOp45
 70
     1
102
RTVSPropertyOp46
 70
     1
102
RTVSPropertyOp47
 70
     1
102
RTVSPropertyOp48
 70
     1
102
RTVSPropertyOp49
 70
     1
102
RTVSPropertyOp50
 70
     1
102
RTVSPropertyOp51
 70
     0
102
RTVSPropertyOp52
 70
     0
102
RTVSPropertyOp53
 70
     1
102
RTVSPropertyOp54
 70
     1
102
RTVSPropertyOp55
 70
     1
102
RTVSPropertyOp56
 70
     1
102
RTVSPropertyOp57
 70
     1
102
RTVSPropertyOp58
 70
     1
102
RTVSPropertyOp59
 70
     1
102
RTVSPropertyOp60
 70
     1
102
RTVSPropertyOp61
 70
     1
102
RTVSPropertyOp62
 70
     1
  0
XRECORD
  5
372
102
{ACAD_REACTORS
330
371
102
}
330
371
100
AcDbXrecord
280
     1
102
RTVSPost2010Prop28
280
     0
102
RTVSPost2010PropOp28
 70
     1
102
RTVSPost2010Prop29
280
     1
102
RTVSPost2010PropOp29
 70
     1
102
RTVSPost2010Prop30
280
     1
102
RTVSPost2010PropOp30
 70
     1
102
RTVSPost2010Prop31
280
     0
102
RTVSPost2010PropOp31
 70
     1
102
RTVSPost2010Prop32
280
     0
102
RTVSPost2010PropOp32
 70
     1
102
RTVSPost2010Prop33
280
     0
102
RTVSPost2010PropOp33
 70
     1
102
RTVSPost2010Prop34
280
     0
102
RTVSPost2010PropOp34
 70
     1
102
RTVSPost2010Prop35
280
     0
102
RTVSPost2010PropOp35
 70
     1
102
RTVSPost2010Prop36
280
     0
102
RTVSPost2010PropOp36
 70
     1
102
RTVSPost2010Prop37
 90
       50
102
RTVSPost2010PropOp37
 70
     1
102
RTVSPost2010Prop38
140
0.0
102
RTVSPost2010PropOp38
 70
     1
102
RTVSPost2010Prop39
140
1.0
102
RTVSPost2010PropOp39
 70
     1
102
RTVSPost2010Prop40
 90
        0
102
RTVSPost2010PropOp40
 70
     1
102
RTVSPost2010Prop41ColorIndex
 90
       18
102
RTVSPost2010Prop41ColorRGB
 90
        0
102
RTVSPost2010PropOp41
 70
     1
102
RTVSPost2010Prop42
 90
       50
102
RTVSPost2010PropOp42
 70
     1
102
RTVSPost2010Prop43
 90
        3
102
RTVSPost2010PropOp43
 70
     1
102
RTVSPost2010Prop44ColorIndex
 90
        5
102
RTVSPost2010Prop44ColorRGB
 90
      255
102
RTVSPost2010PropOp44
 70
     1
102
RTVSPost2010Prop45
280
     0
102
RTVSPost2010PropOp45
 70
     1
102
RTVSPost2010Prop46
 90
       50
102
RTVSPost2010PropOp46
 70
     1
102
RTVSPost2010Prop47
 90
       50
102
RTVSPost2010PropOp47
 70
     1
102
RTVSPost2010Prop48
 90
       50
102
RTVSPost2010PropOp48
 70
     1
102
RTVSPost2010Prop49
280
     0
102
RTVSPost2010PropOp49
 70
     1
102
RTVSPost2010Prop50
 90
       50
102
RTVSPost2010PropOp50
 70
     1
102
RTVSPost2010Prop51ColorIndex
 90
      256
102
RTVSPost2010Prop51ColorRGB
 90
-16777216
102
RTVSPost2010PropOp51
 70
     0
102
RTVSPost2010Prop52
140
1.0
102
RTVSPost2010PropOp52
 70
     0
102
RTVSPost2010Prop53
 90
        2
102
RTVSPost2010PropOp53
 70
     1
102
RTVSPost2010Prop54
  1
strokes_ogs.tif
102
RTVSPost2010PropOp54
 70
     1
102
RTVSPost2010Prop55
280
     0
102
RTVSPost2010PropOp55
 70
     1
102
RTVSPost2010Prop56
140
1.0
102
RTVSPost2010PropOp56
 70
     1
102
RTVSPost2010Prop57
140
1.0
102
RTVSPost2010PropOp57
 70
     1
102
RTVSPropertyOp0
 70
     1
102
RTVSPropertyOp1
 70
     1
102
RTVSPropertyOp2
 70
     1
102
RTVSPropertyOp3
 70
     1
102
RTVSPropertyOp4
 70
     1
102
RTVSPropertyOp5
 70
     1
102
RTVSPropertyOp6
 70
     1
102
RTVSPropertyOp7
 70
     1
102
RTVSPropertyOp8
 70
     1
102
RTVSPropertyOp9
 70
     1
102
RTVSPropertyOp10
 70
     1
102
RTVSPropertyOp11
 70
     1
102
RTVSPropertyOp12
 70
     1
102
RTVSPropertyOp13
 70
     1
102
RTVSPropertyOp14
 70
     1
102
RTVSPropertyOp15
 70
     1
102
RTVSPropertyOp16
 70
     1
102
RTVSPropertyOp17
 70
     1
102
RTVSPropertyOp18
 70
     1
102
RTVSPropertyOp19
 70
     1
102
RTVSPropertyOp20
 70
     1
102
RTVSPropertyOp21
 70
     1
102
RTVSPropertyOp22
 70
     1
102
RTVSPropertyOp23
 70
     1
102
RTVSPropertyOp24
 70
     1
102
RTVSPropertyOp25
 70
     1
102
RTVSPropertyOp26
 70
     1
102
RTVSPropertyOp27
 70
     1
102
RTVSPropertyOp28
 70
     1
102
RTVSPropertyOp29
 70
     1
102
RTVSPropertyOp30
 70
     1
102
RTVSPropertyOp31
 70
     1
102
RTVSPropertyOp32
 70
     1
102
RTVSPropertyOp33
 70
     1
102
RTVSPropertyOp34
 70
     1
102
RTVSPropertyOp35
 70
     1
102
RTVSPropertyOp36
 70
     1
102
RTVSPropertyOp37
 70
     1
102
RTVSPropertyOp38
 70
     1
102
RTVSPropertyOp39
 70
     1
102
RTVSPropertyOp40
 70
     1
102
RTVSPropertyOp41
 70
     1
102
RTVSPropertyOp42
 70
     1
102
RTVSPropertyOp43
 70
     1
102
RTVSPropertyOp44
 70
     1
102
RTVSPropertyOp45
 70
     1
102
RTVSPropertyOp46
 70
     1
102
RTVSPropertyOp47
 70
     1
102
RTVSPropertyOp48
 70
     1
102
RTVSPropertyOp49
 70
     1
102
RTVSPropertyOp50
 70
     1
102
RTVSPropertyOp51
 70
     0
102
RTVSPropertyOp52
 70
     0
102
RTVSPropertyOp53
 70
     1
102
RTVSPropertyOp54
 70
     1
102
RTVSPropertyOp55
 70
     1
102
RTVSPropertyOp56
 70
     1
102
RTVSPropertyOp57
 70
     1
102
RTVSPropertyOp58
 70
     1
102
RTVSPropertyOp59
 70
     1
102
RTVSPropertyOp60
 70
     1
102
RTVSPropertyOp61
 70
     1
102
RTVSPropertyOp62
 70
     1
  0
XRECORD
  5
362
102
{ACAD_REACTORS
330
361
102
}
330
361
100
AcDbXrecord
280
     1
102
RTVSPost2010Prop28
280
     0
102
RTVSPost2010PropOp28
 70
     1
102
RTVSPost2010Prop29
280
     1
102
RTVSPost2010PropOp29
 70
     1
102
RTVSPost2010Prop30
280
     1
102
RTVSPost2010PropOp30
 70
     1
102
RTVSPost2010Prop31
280
     0
102
RTVSPost2010PropOp31
 70
     1
102
RTVSPost2010Prop32
280
     0
102
RTVSPost2010PropOp32
 70
     1
102
RTVSPost2010Prop33
280
     0
102
RTVSPost2010PropOp33
 70
     1
102
RTVSPost2010Prop34
280
     0
102
RTVSPost2010PropOp34
 70
     1
102
RTVSPost2010Prop35
280
     0
102
RTVSPost2010PropOp35
 70
     1
102
RTVSPost2010Prop36
280
     0
102
RTVSPost2010PropOp36
 70
     1
102
RTVSPost2010Prop37
 90
       50
102
RTVSPost2010PropOp37
 70
     1
102
RTVSPost2010Prop38
140
0.0
102
RTVSPost2010PropOp38
 70
     1
102
RTVSPost2010Prop39
140
1.0
102
RTVSPost2010PropOp39
 70
     1
102
RTVSPost2010Prop40
 90
        0
102
RTVSPost2010PropOp40
 70
     1
102
RTVSPost2010Prop41ColorIndex
 90
       18
102
RTVSPost2010Prop41ColorRGB
 90
        0
102
RTVSPost2010PropOp41
 70
     1
102
RTVSPost2010Prop42
 90
       50
102
RTVSPost2010PropOp42
 70
     1
102
RTVSPost2010Prop43
 90
        3
102
RTVSPost2010PropOp43
 70
     1
102
RTVSPost2010Prop44ColorIndex
 90
        5
102
RTVSPost2010Prop44ColorRGB
 90
      255
102
RTVSPost2010PropOp44
 70
     1
102
RTVSPost2010Prop45
280
     0
102
RTVSPost2010PropOp45
 70
     1
102
RTVSPost2010Prop46
 90
       50
102
RTVSPost2010PropOp46
 70
     1
102
RTVSPost2010Prop47
 90
       50
102
RTVSPost2010PropOp47
 70
     1
102
RTVSPost2010Prop48
 90
       50
102
RTVSPost2010PropOp48
 70
     1
102
RTVSPost2010Prop49
280
     0
102
RTVSPost2010PropOp49
 70
     1
102
RTVSPost2010Prop50
 90
       50
102
RTVSPost2010PropOp50
 70
     1
102
RTVSPost2010Prop51ColorIndex
 90
      256
102
RTVSPost2010Prop51ColorRGB
 90
-16777216
102
RTVSPost2010PropOp51
 70
     0
102
RTVSPost2010Prop52
140
1.0
102
RTVSPost2010PropOp52
 70
     0
102
RTVSPost2010Prop53
 90
        2
102
RTVSPost2010PropOp53
 70
     1
102
RTVSPost2010Prop54
  1
strokes_ogs.tif
102
RTVSPost2010PropOp54
 70
     1
102
RTVSPost2010Prop55
280
     0
102
RTVSPost2010PropOp55
 70
     1
102
RTVSPost2010Prop56
140
1.0
102
RTVSPost2010PropOp56
 70
     1
102
RTVSPost2010Prop57
140
1.0
102
RTVSPost2010PropOp57
 70
     1
102
RTVSPropertyOp0
 70
     1
102
RTVSPropertyOp1
 70
     1
102
RTVSPropertyOp2
 70
     1
102
RTVSPropertyOp3
 70
     1
102
RTVSPropertyOp4
 70
     1
102
RTVSPropertyOp5
 70
     1
102
RTVSPropertyOp6
 70
     1
102
RTVSPropertyOp7
 70
     1
102
RTVSPropertyOp8
 70
     1
102
RTVSPropertyOp9
 70
     1
102
RTVSPropertyOp10
 70
     1
102
RTVSPropertyOp11
 70
     1
102
RTVSPropertyOp12
 70
     1
102
RTVSPropertyOp13
 70
     1
102
RTVSPropertyOp14
 70
     1
102
RTVSPropertyOp15
 70
     1
102
RTVSPropertyOp16
 70
     1
102
RTVSPropertyOp17
 70
     1
102
RTVSPropertyOp18
 70
     1
102
RTVSPropertyOp19
 70
     1
102
RTVSPropertyOp20
 70
     1
102
RTVSPropertyOp21
 70
     1
102
RTVSPropertyOp22
 70
     1
102
RTVSPropertyOp23
 70
     1
102
RTVSPropertyOp24
 70
     1
102
RTVSPropertyOp25
 70
     1
102
RTVSPropertyOp26
 70
     1
102
RTVSPropertyOp27
 70
     1
102
RTVSPropertyOp28
 70
     1
102
RTVSPropertyOp29
 70
     1
102
RTVSPropertyOp30
 70
     1
102
RTVSPropertyOp31
 70
     1
102
RTVSPropertyOp32
 70
     1
102
RTVSPropertyOp33
 70
     1
102
RTVSPropertyOp34
 70
     1
102
RTVSPropertyOp35
 70
     1
102
RTVSPropertyOp36
 70
     1
102
RTVSPropertyOp37
 70
     1
102
RTVSPropertyOp38
 70
     1
102
RTVSPropertyOp39
 70
     1
102
RTVSPropertyOp40
 70
     1
102
RTVSPropertyOp41
 70
     1
102
RTVSPropertyOp42
 70
     1
102
RTVSPropertyOp43
 70
     1
102
RTVSPropertyOp44
 70
     1
102
RTVSPropertyOp45
 70
     1
102
RTVSPropertyOp46
 70
     1
102
RTVSPropertyOp47
 70
     1
102
RTVSPropertyOp48
 70
     1
102
RTVSPropertyOp49
 70
     1
102
RTVSPropertyOp50
 70
     1
102
RTVSPropertyOp51
 70
     0
102
RTVSPropertyOp52
 70
     0
102
RTVSPropertyOp53
 70
     1
102
RTVSPropertyOp54
 70
     1
102
RTVSPropertyOp55
 70
     1
102
RTVSPropertyOp56
 70
     1
102
RTVSPropertyOp57
 70
     1
102
RTVSPropertyOp58
 70
     1
102
RTVSPropertyOp59
 70
     1
102
RTVSPropertyOp60
 70
     1
102
RTVSPropertyOp61
 70
     1
102
RTVSPropertyOp62
 70
     1
  0
XRECORD
  5
354
102
{ACAD_REACTORS
330
353
102
}
330
353
100
AcDbXrecord
280
     1
102
RTVSPost2010Prop28
280
     0
102
RTVSPost2010PropOp28
 70
     1
102
RTVSPost2010Prop29
280
     1
102
RTVSPost2010PropOp29
 70
     1
102
RTVSPost2010Prop30
280
     1
102
RTVSPost2010PropOp30
 70
     1
102
RTVSPost2010Prop31
280
     0
102
RTVSPost2010PropOp31
 70
     1
102
RTVSPost2010Prop32
280
     0
102
RTVSPost2010PropOp32
 70
     1
102
RTVSPost2010Prop33
280
     0
102
RTVSPost2010PropOp33
 70
     1
102
RTVSPost2010Prop34
280
     0
102
RTVSPost2010PropOp34
 70
     1
102
RTVSPost2010Prop35
280
     0
102
RTVSPost2010PropOp35
 70
     1
102
RTVSPost2010Prop36
280
     0
102
RTVSPost2010PropOp36
 70
     1
102
RTVSPost2010Prop37
 90
       50
102
RTVSPost2010PropOp37
 70
     1
102
RTVSPost2010Prop38
140
0.0
102
RTVSPost2010PropOp38
 70
     1
102
RTVSPost2010Prop39
140
1.0
102
RTVSPost2010PropOp39
 70
     1
102
RTVSPost2010Prop40
 90
        0
102
RTVSPost2010PropOp40
 70
     1
102
RTVSPost2010Prop41ColorIndex
 90
       18
102
RTVSPost2010Prop41ColorRGB
 90
        0
102
RTVSPost2010PropOp41
 70
     1
102
RTVSPost2010Prop42
 90
       50
102
RTVSPost2010PropOp42
 70
     1
102
RTVSPost2010Prop43
 90
        3
102
RTVSPost2010PropOp43
 70
     1
102
RTVSPost2010Prop44ColorIndex
 90
        5
102
RTVSPost2010Prop44ColorRGB
 90
      255
102
RTVSPost2010PropOp44
 70
     1
102
RTVSPost2010Prop45
280
     0
102
RTVSPost2010PropOp45
 70
     1
102
RTVSPost2010Prop46
 90
       50
102
RTVSPost2010PropOp46
 70
     1
102
RTVSPost2010Prop47
 90
       50
102
RTVSPost2010PropOp47
 70
     1
102
RTVSPost2010Prop48
 90
       50
102
RTVSPost2010PropOp48
 70
     1
102
RTVSPost2010Prop49
280
     0
102
RTVSPost2010PropOp49
 70
     1
102
RTVSPost2010Prop50
 90
       50
102
RTVSPost2010PropOp50
 70
     1
102
RTVSPost2010Prop51ColorIndex
 90
      256
102
RTVSPost2010Prop51ColorRGB
 90
-16777216
102
RTVSPost2010PropOp51
 70
     0
102
RTVSPost2010Prop52
140
1.0
102
RTVSPost2010PropOp52
 70
     0
102
RTVSPost2010Prop53
 90
        2
102
RTVSPost2010PropOp53
 70
     1
102
RTVSPost2010Prop54
  1
strokes_ogs.tif
102
RTVSPost2010PropOp54
 70
     1
102
RTVSPost2010Prop55
280
     0
102
RTVSPost2010PropOp55
 70
     1
102
RTVSPost2010Prop56
140
1.0
102
RTVSPost2010PropOp56
 70
     1
102
RTVSPost2010Prop57
140
1.0
102
RTVSPost2010PropOp57
 70
     1
102
RTVSPropertyOp0
 70
     1
102
RTVSPropertyOp1
 70
     1
102
RTVSPropertyOp2
 70
     1
102
RTVSPropertyOp3
 70
     1
102
RTVSPropertyOp4
 70
     1
102
RTVSPropertyOp5
 70
     1
102
RTVSPropertyOp6
 70
     1
102
RTVSPropertyOp7
 70
     1
102
RTVSPropertyOp8
 70
     1
102
RTVSPropertyOp9
 70
     1
102
RTVSPropertyOp10
 70
     1
102
RTVSPropertyOp11
 70
     1
102
RTVSPropertyOp12
 70
     1
102
RTVSPropertyOp13
 70
     1
102
RTVSPropertyOp14
 70
     1
102
RTVSPropertyOp15
 70
     1
102
RTVSPropertyOp16
 70
     1
102
RTVSPropertyOp17
 70
     1
102
RTVSPropertyOp18
 70
     1
102
RTVSPropertyOp19
 70
     1
102
RTVSPropertyOp20
 70
     1
102
RTVSPropertyOp21
 70
     1
102
RTVSPropertyOp22
 70
     1
102
RTVSPropertyOp23
 70
     1
102
RTVSPropertyOp24
 70
     1
102
RTVSPropertyOp25
 70
     1
102
RTVSPropertyOp26
 70
     1
102
RTVSPropertyOp27
 70
     1
102
RTVSPropertyOp28
 70
     1
102
RTVSPropertyOp29
 70
     1
102
RTVSPropertyOp30
 70
     1
102
RTVSPropertyOp31
 70
     1
102
RTVSPropertyOp32
 70
     1
102
RTVSPropertyOp33
 70
     1
102
RTVSPropertyOp34
 70
     1
102
RTVSPropertyOp35
 70
     1
102
RTVSPropertyOp36
 70
     1
102
RTVSPropertyOp37
 70
     1
102
RTVSPropertyOp38
 70
     1
102
RTVSPropertyOp39
 70
     1
102
RTVSPropertyOp40
 70
     1
102
RTVSPropertyOp41
 70
     1
102
RTVSPropertyOp42
 70
     1
102
RTVSPropertyOp43
 70
     1
102
RTVSPropertyOp44
 70
     1
102
RTVSPropertyOp45
 70
     1
102
RTVSPropertyOp46
 70
     1
102
RTVSPropertyOp47
 70
     1
102
RTVSPropertyOp48
 70
     1
102
RTVSPropertyOp49
 70
     1
102
RTVSPropertyOp50
 70
     1
102
RTVSPropertyOp51
 70
     0
102
RTVSPropertyOp52
 70
     0
102
RTVSPropertyOp53
 70
     1
102
RTVSPropertyOp54
 70
     1
102
RTVSPropertyOp55
 70
     1
102
RTVSPropertyOp56
 70
     1
102
RTVSPropertyOp57
 70
     1
102
RTVSPropertyOp58
 70
     1
102
RTVSPropertyOp59
 70
     1
102
RTVSPropertyOp60
 70
     1
102
RTVSPropertyOp61
 70
     1
102
RTVSPropertyOp62
 70
     1
  0
XRECORD
  5
374
102
{ACAD_REACTORS
330
373
102
}
330
373
100
AcDbXrecord
280
     1
102
RTVSPost2010Prop28
280
     0
102
RTVSPost2010PropOp28
 70
     1
102
RTVSPost2010Prop29
280
     1
102
RTVSPost2010PropOp29
 70
     1
102
RTVSPost2010Prop30
280
     1
102
RTVSPost2010PropOp30
 70
     1
102
RTVSPost2010Prop31
280
     0
102
RTVSPost2010PropOp31
 70
     1
102
RTVSPost2010Prop32
280
     0
102
RTVSPost2010PropOp32
 70
     1
102
RTVSPost2010Prop33
280
     0
102
RTVSPost2010PropOp33
 70
     1
102
RTVSPost2010Prop34
280
     0
102
RTVSPost2010PropOp34
 70
     1
102
RTVSPost2010Prop35
280
     0
102
RTVSPost2010PropOp35
 70
     1
102
RTVSPost2010Prop36
280
     0
102
RTVSPost2010PropOp36
 70
     1
102
RTVSPost2010Prop37
 90
       50
102
RTVSPost2010PropOp37
 70
     1
102
RTVSPost2010Prop38
140
0.0
102
RTVSPost2010PropOp38
 70
     1
102
RTVSPost2010Prop39
140
1.0
102
RTVSPost2010PropOp39
 70
     1
102
RTVSPost2010Prop40
 90
        0
102
RTVSPost2010PropOp40
 70
     1
102
RTVSPost2010Prop41ColorIndex
 90
       18
102
RTVSPost2010Prop41ColorRGB
 90
        0
102
RTVSPost2010PropOp41
 70
     1
102
RTVSPost2010Prop42
 90
       50
102
RTVSPost2010PropOp42
 70
     1
102
RTVSPost2010Prop43
 90
        3
102
RTVSPost2010PropOp43
 70
     1
102
RTVSPost2010Prop44ColorIndex
 90
        5
102
RTVSPost2010Prop44ColorRGB
 90
      255
102
RTVSPost2010PropOp44
 70
     1
102
RTVSPost2010Prop45
280
     0
102
RTVSPost2010PropOp45
 70
     1
102
RTVSPost2010Prop46
 90
       50
102
RTVSPost2010PropOp46
 70
     1
102
RTVSPost2010Prop47
 90
       50
102
RTVSPost2010PropOp47
 70
     1
102
RTVSPost2010Prop48
 90
       50
102
RTVSPost2010PropOp48
 70
     1
102
RTVSPost2010Prop49
280
     0
102
RTVSPost2010PropOp49
 70
     1
102
RTVSPost2010Prop50
 90
       50
102
RTVSPost2010PropOp50
 70
     1
102
RTVSPost2010Prop51ColorIndex
 90
      256
102
RTVSPost2010Prop51ColorRGB
 90
-16777216
102
RTVSPost2010PropOp51
 70
     0
102
RTVSPost2010Prop52
140
1.0
102
RTVSPost2010PropOp52
 70
     0
102
RTVSPost2010Prop53
 90
        2
102
RTVSPost2010PropOp53
 70
     1
102
RTVSPost2010Prop54
  1
strokes_ogs.tif
102
RTVSPost2010PropOp54
 70
     1
102
RTVSPost2010Prop55
280
     0
102
RTVSPost2010PropOp55
 70
     1
102
RTVSPost2010Prop56
140
1.0
102
RTVSPost2010PropOp56
 70
     1
102
RTVSPost2010Prop57
140
1.0
102
RTVSPost2010PropOp57
 70
     1
102
RTVSPropertyOp0
 70
     1
102
RTVSPropertyOp1
 70
     1
102
RTVSPropertyOp2
 70
     1
102
RTVSPropertyOp3
 70
     1
102
RTVSPropertyOp4
 70
     1
102
RTVSPropertyOp5
 70
     1
102
RTVSPropertyOp6
 70
     1
102
RTVSPropertyOp7
 70
     1
102
RTVSPropertyOp8
 70
     1
102
RTVSPropertyOp9
 70
     1
102
RTVSPropertyOp10
 70
     1
102
RTVSPropertyOp11
 70
     1
102
RTVSPropertyOp12
 70
     1
102
RTVSPropertyOp13
 70
     1
102
RTVSPropertyOp14
 70
     1
102
RTVSPropertyOp15
 70
     1
102
RTVSPropertyOp16
 70
     1
102
RTVSPropertyOp17
 70
     1
102
RTVSPropertyOp18
 70
     1
102
RTVSPropertyOp19
 70
     1
102
RTVSPropertyOp20
 70
     1
102
RTVSPropertyOp21
 70
     1
102
RTVSPropertyOp22
 70
     1
102
RTVSPropertyOp23
 70
     1
102
RTVSPropertyOp24
 70
     1
102
RTVSPropertyOp25
 70
     1
102
RTVSPropertyOp26
 70
     1
102
RTVSPropertyOp27
 70
     1
102
RTVSPropertyOp28
 70
     1
102
RTVSPropertyOp29
 70
     1
102
RTVSPropertyOp30
 70
     1
102
RTVSPropertyOp31
 70
     1
102
RTVSPropertyOp32
 70
     1
102
RTVSPropertyOp33
 70
     1
102
RTVSPropertyOp34
 70
     1
102
RTVSPropertyOp35
 70
     1
102
RTVSPropertyOp36
 70
     1
102
RTVSPropertyOp37
 70
     1
102
RTVSPropertyOp38
 70
     1
102
RTVSPropertyOp39
 70
     1
102
RTVSPropertyOp40
 70
     1
102
RTVSPropertyOp41
 70
     1
102
RTVSPropertyOp42
 70
     1
102
RTVSPropertyOp43
 70
     1
102
RTVSPropertyOp44
 70
     1
102
RTVSPropertyOp45
 70
     1
102
RTVSPropertyOp46
 70
     1
102
RTVSPropertyOp47
 70
     1
102
RTVSPropertyOp48
 70
     1
102
RTVSPropertyOp49
 70
     1
102
RTVSPropertyOp50
 70
     1
102
RTVSPropertyOp51
 70
     0
102
RTVSPropertyOp52
 70
     0
102
RTVSPropertyOp53
 70
     1
102
RTVSPropertyOp54
 70
     1
102
RTVSPropertyOp55
 70
     1
102
RTVSPropertyOp56
 70
     1
102
RTVSPropertyOp57
 70
     1
102
RTVSPropertyOp58
 70
     1
102
RTVSPropertyOp59
 70
     1
102
RTVSPropertyOp60
 70
     1
102
RTVSPropertyOp61
 70
     1
102
RTVSPropertyOp62
 70
     1
  0
ENDSEC
  0
EOF
