  0
SECTION
  2
HEADER
  9
$ACADVER
  1
AC1018
  9
$ACADMAINTVER
 70
   104
  9
$DWGCODEPAGE
  3
ANSI_1250
  9
$LASTSAVEDBY
  1
hm1535
  9
$INSBASE
 10
0.0
 20
0.0
 30
0.0
  9
$EXTMIN
 10
293.3493513333333
 20
21.404126
 30
0.0
  9
$EXTMAX
 10
587.478648
 20
405.7652486666667
 30
0.0
  9
$LIMMIN
 10
-0.5
 20
-0.5
  9
$LIMMAX
 10
5.0
 20
5.0
  9
$ORTHOMODE
 70
     0
  9
$REGENMODE
 70
     1
  9
$FILLMODE
 70
     1
  9
$QTEXTMODE
 70
     0
  9
$MIRRTEXT
 70
     1
  9
$LTSCALE
 40
1.0
  9
$ATTMODE
 70
     1
  9
$TEXTSIZE
 40
0.2
  9
$TRACEWID
 40
0.05
  9
$TEXTSTYLE
  7
Standard
  9
$CLAYER
  8
0
  9
$CELTYPE
  6
ByLayer
  9
$CECOLOR
 62
   256
  9
$CELTSCALE
 40
1.0
  9
$DISPSILH
 70
     0
  9
$DIMSCALE
 40
1.0
  9
$DIMASZ
 40
0.18
  9
$DIMEXO
 40
0.0625
  9
$DIMDLI
 40
0.38
  9
$DIMRND
 40
0.0
  9
$DIMDLE
 40
0.0
  9
$DIMEXE
 40
0.18
  9
$DIMTP
 40
0.0
  9
$DIMTM
 40
0.0
  9
$DIMTXT
 40
0.18
  9
$DIMCEN
 40
0.09
  9
$DIMTSZ
 40
0.0
  9
$DIMTOL
 70
     0
  9
$DIMLIM
 70
     0
  9
$DIMTIH
 70
     1
  9
$DIMTOH
 70
     1
  9
$DIMSE1
 70
     0
  9
$DIMSE2
 70
     0
  9
$DIMTAD
 70
     0
  9
$DIMZIN
 70
     0
  9
$DIMBLK
  1

  9
$DIMASO
 70
     1
  9
$DIMSHO
 70
     1
  9
$DIMPOST
  1

  9
$DIMAPOST
  1

  9
$DIMALT
 70
     0
  9
$DIMALTD
 70
     2
  9
$DIMALTF
 40
25.4
  9
$DIMLFAC
 40
1.0
  9
$DIMTOFL
 70
     0
  9
$DIMTVP
 40
0.0
  9
$DIMTIX
 70
     0
  9
$DIMSOXD
 70
     0
  9
$DIMSAH
 70
     0
  9
$DIMBLK1
  1

  9
$DIMBLK2
  1

  9
$DIMSTYLE
  2
Standard
  9
$DIMCLRD
 70
     0
  9
$DIMCLRE
 70
     0
  9
$DIMCLRT
 70
     0
  9
$DIMTFAC
 40
1.0
  9
$DIMGAP
 40
0.09
  9
$DIMJUST
 70
     0
  9
$DIMSD1
 70
     0
  9
$DIMSD2
 70
     0
  9
$DIMTOLJ
 70
     1
  9
$DIMTZIN
 70
     0
  9
$DIMALTZ
 70
     0
  9
$DIMALTTZ
 70
     0
  9
$DIMUPT
 70
     0
  9
$DIMDEC
 70
     4
  9
$DIMTDEC
 70
     4
  9
$DIMALTU
 70
     2
  9
$DIMALTTD
 70
     2
  9
$DIMTXSTY
  7
Standard
  9
$DIMAUNIT
 70
     0
  9
$DIMADEC
 70
     0
  9
$DIMALTRND
 40
0.0
  9
$DIMAZIN
 70
     0
  9
$DIMDSEP
 70
    46
  9
$DIMATFIT
 70
     3
  9
$DIMFRAC
 70
     0
  9
$DIMLDRBLK
  1

  9
$DIMLUNIT
 70
     2
  9
$DIMLWD
 70
    -2
  9
$DIMLWE
 70
    -2
  9
$DIMTMOVE
 70
     0
  9
$LUNITS
 70
     2
  9
$LUPREC
 70
     2
  9
$SKETCHINC
 40
0.1
  9
$FILLETRAD
 40
0.5
  9
$AUNITS
 70
     0
  9
$AUPREC
 70
     0
  9
$MENU
  1
.
  9
$ELEVATION
 40
0.0
  9
$PELEVATION
 40
0.0
  9
$THICKNESS
 40
0.0
  9
$LIMCHECK
 70
     0
  9
$CHAMFERA
 40
0.0
  9
$CHAMFERB
 40
0.0
  9
$CHAMFERC
 40
0.0
  9
$CHAMFERD
 40
0.0
  9
$SKPOLY
 70
     0
  9
$TDCREATE
 40
2458872.328634259
  9
$TDUCREATE
 40
2458872.286972315
  9
$TDUPDATE
 40
2458872.331469907
  9
$TDUUPDATE
 40
2458872.289803241
  9
$TDINDWG
 40
0.0006481597
  9
$TDUSRTIMER
 40
0.0006481597
  9
$USRTIMER
 70
     1
  9
$ANGBASE
 50
0.0
  9
$ANGDIR
 70
     0
  9
$PDMODE
 70
     0
  9
$PDSIZE
 40
0.0
  9
$PLINEWID
 40
0.0
  9
$SPLFRAME
 70
     0
  9
$SPLINETYPE
 70
     6
  9
$SPLINESEGS
 70
     8
  9
$HANDSEED
  5
3D1
  9
$SURFTAB1
 70
     6
  9
$SURFTAB2
 70
     6
  9
$SURFTYPE
 70
     6
  9
$SURFU
 70
     6
  9
$SURFV
 70
     6
  9
$UCSBASE
  2

  9
$UCSNAME
  2

  9
$UCSORG
 10
322.174849
 20
366.008075
 30
0.0
  9
$UCSXDIR
 10
1.0
 20
0.0
 30
0.0
  9
$UCSYDIR
 10
0.0
 20
1.0
 30
0.0
  9
$UCSORTHOREF
  2

  9
$UCSORTHOVIEW
 70
     0
  9
$UCSORGTOP
 10
0.0
 20
0.0
 30
0.0
  9
$UCSORGBOTTOM
 10
0.0
 20
0.0
 30
0.0
  9
$UCSORGLEFT
 10
0.0
 20
0.0
 30
0.0
  9
$UCSORGRIGHT
 10
0.0
 20
0.0
 30
0.0
  9
$UCSORGFRONT
 10
0.0
 20
0.0
 30
0.0
  9
$UCSORGBACK
 10
0.0
 20
0.0
 30
0.0
  9
$PUCSBASE
  2

  9
$PUCSNAME
  2

  9
$PUCSORG
 10
0.0
 20
0.0
 30
0.0
  9
$PUCSXDIR
 10
1.0
 20
0.0
 30
0.0
  9
$PUCSYDIR
 10
0.0
 20
1.0
 30
0.0
  9
$PUCSORTHOREF
  2

  9
$PUCSORTHOVIEW
 70
     0
  9
$PUCSORGTOP
 10
0.0
 20
0.0
 30
0.0
  9
$PUCSORGBOTTOM
 10
0.0
 20
0.0
 30
0.0
  9
$PUCSORGLEFT
 10
0.0
 20
0.0
 30
0.0
  9
$PUCSORGRIGHT
 10
0.0
 20
0.0
 30
0.0
  9
$PUCSORGFRONT
 10
0.0
 20
0.0
 30
0.0
  9
$PUCSORGBACK
 10
0.0
 20
0.0
 30
0.0
  9
$USERI1
 70
     0
  9
$USERI2
 70
     0
  9
$USERI3
 70
     0
  9
$USERI4
 70
     0
  9
$USERI5
 70
     0
  9
$USERR1
 40
0.0
  9
$USERR2
 40
0.0
  9
$USERR3
 40
0.0
  9
$USERR4
 40
0.0
  9
$USERR5
 40
0.0
  9
$WORLDVIEW
 70
     1
  9
$SHADEDGE
 70
     3
  9
$SHADEDIF
 70
    70
  9
$TILEMODE
 70
     1
  9
$MAXACTVP
 70
    64
  9
$PINSBASE
 10
0.0
 20
0.0
 30
0.0
  9
$PLIMCHECK
 70
     0
  9
$PEXTMIN
 10
-0.5
 20
-0.5
 30
-0.5
  9
$PEXTMAX
 10
5.0
 20
5.0
 30
5.0
  9
$PLIMMIN
 10
-0.5
 20
-0.5
  9
$PLIMMAX
 10
5.0
 20
5.0
  9
$UNITMODE
 70
     0
  9
$VISRETAIN
 70
     1
  9
$PLINEGEN
 70
     0
  9
$PSLTSCALE
 70
     1
  9
$TREEDEPTH
 70
  3020
  9
$CMLSTYLE
  2
Standard
  9
$CMLJUST
 70
     0
  9
$CMLSCALE
 40
1.0
  9
$PROXYGRAPHICS
 70
     1
  9
$MEASUREMENT
 70
     1
  9
$CELWEIGHT
370
    13
  9
$ENDCAPS
280
     0
  9
$JOINSTYLE
280
     0
  9
$LWDISPLAY
290
     0
  9
$INSUNITS
 70
     4
  9
$HYPERLINKBASE
  1

  9
$STYLESHEET
  1

  9
$XEDIT
290
     1
  9
$CEPSNTYPE
380
     0
  9
$PSTYLEMODE
290
     1
  9
$FINGERPRINTGUID
  2
{4DB78874-CCAD-4E18-89D1-98A7F2C501F7}
  9
$VERSIONGUID
  2
{8F101EB3-99A6-ED4E-BA7A-EB2742856322}
  9
$EXTNAMES
290
     1
  9
$PSVPSCALE
 40
0.0
  9
$OLESTARTUP
290
     0
  9
$SORTENTS
280
   127
  9
$INDEXCTL
280
     0
  9
$HIDETEXT
280
     1
  9
$XCLIPFRAME
290
     0
  9
$HALOGAP
280
     0
  9
$OBSCOLOR
 70
   257
  9
$OBSLTYPE
280
     0
  9
$INTERSECTIONDISPLAY
280
     0
  9
$INTERSECTIONCOLOR
 70
   257
  9
$DIMASSOC
280
     2
  9
$PROJECTNAME
  1

  0
ENDSEC
  0
SECTION
  2
CLASSES
  0
CLASS
  1
ACDBDICTIONARYWDFLT
  2
AcDbDictionaryWithDefault
  3
ObjectDBX Classes
 90
        0
 91
        1
280
     0
281
     0
  0
CLASS
  1
VISUALSTYLE
  2
AcDbVisualStyle
  3
ObjectDBX Classes
 90
     4095
 91
       24
280
     0
281
     0
  0
CLASS
  1
MATERIAL
  2
AcDbMaterial
  3
ObjectDBX Classes
 90
     1153
 91
        3
280
     0
281
     0
  0
CLASS
  1
SCALE
  2
AcDbScale
  3
ObjectDBX Classes
 90
     1153
 91
       33
280
     0
281
     0
  0
CLASS
  1
TABLESTYLE
  2
AcDbTableStyle
  3
ObjectDBX Classes
 90
     4095
 91
        1
280
     0
281
     0
  0
CLASS
  1
MLEADERSTYLE
  2
AcDbMLeaderStyle
  3
ACDB_MLEADERSTYLE_CLASS
 90
     4095
 91
        1
280
     0
281
     0
  0
CLASS
  1
SUN
  2
AcDbSun
  3
SCENEOE
 90
     1153
 91
        0
280
     0
281
     0
  0
CLASS
  1
IMAGEDEF
  2
AcDbRasterImageDef
  3
ISM
 90
        0
 91
        1
280
     0
281
     0
  0
CLASS
  1
IMAGE
  2
AcDbRasterImage
  3
ISM
 90
     2175
 91
        1
280
     0
281
     1
  0
CLASS
  1
IMAGEDEF_REACTOR
  2
AcDbRasterImageDefReactor
  3
ISM
 90
        1
 91
        1
280
     0
281
     0
  0
CLASS
  1
DIMASSOC
  2
AcDbDimAssoc
  3
"AcDbDimAssoc|Product Desc:     AcDim ARX App For Dimension|Company:          Autodesk, Inc.|WEB Address:      www.autodesk.com"
 90
        0
 91
        6
280
     0
281
     0
  0
CLASS
  1
DICTIONARYVAR
  2
AcDbDictionaryVar
  3
ObjectDBX Classes
 90
        0
 91
        8
280
     0
281
     0
  0
CLASS
  1
CELLSTYLEMAP
  2
AcDbCellStyleMap
  3
ObjectDBX Classes
 90
     1152
 91
        2
280
     0
281
     0
  0
CLASS
  1
ACDBSECTIONVIEWSTYLE
  2
AcDbSectionViewStyle
  3
ObjectDBX Classes
 90
     1025
 91
        2
280
     0
281
     0
  0
CLASS
  1
ACDBDETAILVIEWSTYLE
  2
AcDbDetailViewStyle
  3
ObjectDBX Classes
 90
     1025
 91
        2
280
     0
281
     0
  0
CLASS
  1
RASTERVARIABLES
  2
AcDbRasterVariables
  3
ISM
 90
        0
 91
        1
280
     0
281
     0
  0
CLASS
  1
ACME_DOCUMENT
  2
AcMeDbDoc
  3
AcMeServices
 90
     1024
 91
        1
280
     0
281
     0
  0
CLASS
  1
ACMESCOPE
  2
AcMeScope
  3
AcMeServices
 90
     1024
 91
        1
280
     0
281
     0
  0
CLASS
  1
ACMECOMMANDHISTORY
  2
AcMeCommandHistory
  3
AcMeServices
 90
     1024
 91
        1
280
     0
281
     0
  0
CLASS
  1
ACIMSYSVARMAN
  2
AcImSysVarManager
  3
AcMeServices
 90
     1024
 91
        3
280
     0
281
     0
  0
CLASS
  1
ACIMINTSYSVAR
  2
AcImIntSysVar
  3
AcMeServices
 90
     1024
 91
        2
280
     0
281
     0
  0
CLASS
  1
ACMESTATEMGR
  2
AcMeStateMgr
  3
AcMeServices
 90
     1024
 91
        1
280
     0
281
     0
  0
CLASS
  1
ACDBENTITYCACHE
  2
AcMeEntityCache
  3
AcMeServices
 90
     1024
 91
        1
280
     0
281
     0
  0
CLASS
  1
ACGREFMASTER
  2
AcGrefMaster
  3
AcAttribServices
 90
     1024
 91
        1
280
     0
281
     0
  0
CLASS
  1
ACME_DATABASE
  2
AcMeDbDatabase
  3
AcMeServices
 90
     1024
 91
        1
280
     0
281
     0
  0
CLASS
  1
ACRFINSADJUSTERMGR
  2
AcRfInsAdjusterMgr
  3
AcMeServices
 90
     1024
 91
        1
280
     0
281
     0
  0
CLASS
  1
ACGREFACADMASTER
  2
AcGrefacadMaster
  3
AcGrefServices
 90
     1024
 91
        1
280
     0
281
     0
  0
CLASS
  1
AMIMASTER
  2
AmiMaster
  3
AmiServices
 90
     1024
 91
        1
280
     0
281
     0
  0
CLASS
  1
AMGSETTINGSOBJ
  2
AmgSettingsObj
  3
"AcadM|Product Description: AutoCAD Mechanical|Company: Autodesk, Inc."
 90
     1024
 91
        2
280
     0
281
     0
  0
CLASS
  1
AMDTMENUSTATEMGR
  2
AmdtMenuStateMgr
  3
McadcomServices
 90
     1024
 91
        1
280
     0
281
     0
  0
CLASS
  1
AMDTMCOMMENUSTATE
  2
AmdtMcomMenuState
  3
McadcomServices
 90
     1024
 91
        1
280
     0
281
     0
  0
CLASS
  1
MAPIAMMOUDLE
  2
MApiAmModule
  3
MApiAmServices
 90
     1024
 91
        1
280
     0
281
     0
  0
CLASS
  1
ACIMSTRSYSVAR
  2
AcImStrSysVar
  3
AcMeServices
 90
     1024
 91
        5
280
     0
281
     0
  0
CLASS
  1
AMDTAMMENUSTATE
  2
AmdtAmMenuState
  3
DesignerAssemblies_arx
 90
     1024
 91
        1
280
     0
281
     0
  0
CLASS
  1
ACAMPROJECT
  2
AcAmProject
  3
DesignerAssemblies
 90
     1024
 91
        1
280
     0
281
     0
  0
CLASS
  1
ACAMGRCOMPDEF
  2
AcAmGrCompDef
  3
DesignerAssemblies
 90
     1024
 91
        1
280
     0
281
     0
  0
CLASS
  1
ACAMCOMPDEF
  2
AcAmCompDef
  3
DesignerAssemblies
 90
     1024
 91
        1
280
     0
281
     0
  0
CLASS
  1
ACAMCOMPDEFMGR
  2
AcAmCompDefMgr
  3
DesignerAssemblies
 90
     1024
 91
        1
280
     0
281
     0
  0
CLASS
  1
AMCONTEXTMGR
  2
AcAmContextMgr
  3
DesignerAssemblies
 90
     1024
 91
        1
280
     0
281
     0
  0
CLASS
  1
ACAMCONTEXTMODELER
  2
AcAmContextModeler
  3
DesignerAssemblies
 90
     1024
 91
        1
280
     0
281
     0
  0
CLASS
  1
ACMDATADICTIONARY
  2
AcmDataDictionary
  3
"AcmSymBB|Product Description: AutoCAD Mechanical|Company: Autodesk, Inc."
 90
     1024
 91
        1
280
     0
281
     0
  0
CLASS
  1
ACAMGRCOMPDEFSET
  2
AcAmGrCompDefSet
  3
DesignerAssemblies
 90
     1024
 91
        1
280
     0
281
     0
  0
CLASS
  1
AMDTBROWSERDBTAB
  2
AmdtBrowserDbTab
  3
McadcomServices
 90
     1024
 91
        1
280
     0
281
     0
  0
CLASS
  1
CBROWSERAPPOBJECT
  2
CBrowserAppObject
  3
McadcomServices
 90
     1024
 91
        2
280
     0
281
     0
  0
CLASS
  1
DM_PLACEHOLDER
  2
AcDmSelsetPlaceholder
  3
McadcomServices
 90
     1024
 91
        1
280
     0
281
     0
  0
CLASS
  1
ACMSTANDARDISO
  2
AcmStandardISO
  3
"Amdt_StdImp|Product Description: AutoCAD Mechanical|Company: Autodesk, Inc."
 90
     1024
 91
        1
280
     0
281
     0
  0
CLASS
  1
AMDTEDGESTANDARDISO13715
  2
AmdtEdgeStdISO13715
  3
"Amdt_StdImp|Product Description: AutoCAD Mechanical|Company: Autodesk, Inc."
 90
     1024
 91
        1
280
     0
281
     0
  0
CLASS
  1
ACMSURFSTANDARDISO2002
  2
AcmSurfTextStdISO2002
  3
"Amdt_StdImp|Product Description: AutoCAD Mechanical|Company: Autodesk, Inc."
 90
     1024
 91
        1
280
     0
281
     0
  0
CLASS
  1
ACMFCFSTANDARDISO2012
  2
AcmFCFStdISO2012
  3
"Amdt_StdImp|Product Description: AutoCAD Mechanical|Company: Autodesk, Inc."
 90
     1024
 91
        1
280
     0
281
     0
  0
CLASS
  1
ACMWELDSTANDARDISO
  2
AcmWeldingStdISO
  3
"Amdt_StdImp|Product Description: AutoCAD Mechanical|Company: Autodesk, Inc."
 90
     1024
 91
        1
280
     0
281
     0
  0
CLASS
  1
ACMIDSTANDARDISO2012
  2
AcmIdStdISO2012
  3
"Amdt_StdImp|Product Description: AutoCAD Mechanical|Company: Autodesk, Inc."
 90
     1024
 91
        1
280
     0
281
     0
  0
CLASS
  1
ACMDATUMSTANDARDISO2012
  2
AcmDatumStdISO2012
  3
"Amdt_StdImp|Product Description: AutoCAD Mechanical|Company: Autodesk, Inc."
 90
     1024
 91
        1
280
     0
281
     0
  0
CLASS
  1
ACMBOMSTANDARDISO
  2
AcmBOMStdISO
  3
"Amdt_StdImp|Product Description: AutoCAD Mechanical|Company: Autodesk, Inc."
 90
     1024
 91
        1
280
     0
281
     0
  0
CLASS
  1
ACMDETAILSTANDARDISO
  2
AmdtDetailSymStdISO
  3
"Amdt_StdImp|Product Description: AutoCAD Mechanical|Company: Autodesk, Inc."
 90
     1024
 91
        1
280
     0
281
     0
  0
CLASS
  1
ACMSECTIONSTANDARDISO2001
  2
AmdtSectionSymStdISO2001
  3
"Amdt_StdImp|Product Description: AutoCAD Mechanical|Company: Autodesk, Inc."
 90
     1024
 91
        1
280
     0
281
     0
  0
CLASS
  1
ACMCENTERLINESTANDARDISO
  2
AmdtCenterLineStdISO
  3
"Amdt_StdImp|Product Description: AutoCAD Mechanical|Company: Autodesk, Inc."
 90
     1024
 91
        1
280
     0
281
     0
  0
CLASS
  1
ACMTHREADLINESTANDARDISO
  2
AmdtThreadLineStdISO
  3
"Amdt_StdImp|Product Description: AutoCAD Mechanical|Company: Autodesk, Inc."
 90
     1024
 91
        1
280
     0
281
     0
  0
CLASS
  1
ACMNOTESTANDARDISO
  2
AmdtNoteStdISO
  3
"Amdt_StdImp|Product Description: AutoCAD Mechanical|Company: Autodesk, Inc."
 90
     1024
 91
        1
280
     0
281
     0
  0
CLASS
  1
ACMTAPERSTANDARDISO
  2
AcmTaperStdISO
  3
"Amdt_StdImp|Product Description: AutoCAD Mechanical|Company: Autodesk, Inc."
 90
     1024
 91
        1
280
     0
281
     0
  0
CLASS
  1
ACMANOOTATIONVIEWSTANDARDISO
  2
AmdtAnViewStdISO
  3
"Amdt_StdImp|Product Description: AutoCAD Mechanical|Company: Autodesk, Inc."
 90
     1024
 91
        1
280
     0
281
     0
  0
CLASS
  1
ACAMGLAYSTD
  2
AcAmgLayStd
  3
"AmgLay|Product Description: AutoCAD Mechanical|Company: Autodesk, Inc."
 90
     1024
 91
        1
280
     0
281
     0
  0
CLASS
  1
ACAMGTITLESTD
  2
AcAmgTitleStd
  3
"AmgTitle|Product Description: AutoCAD Mechanical|Company: Autodesk, Inc."
 90
     1024
 91
        1
280
     0
281
     0
  0
CLASS
  1
ACAMGDIMSTD
  2
AcAmgDimStd
  3
"AmgDim|Product Description: AutoCAD Mechanical|Company: Autodesk, Inc."
 90
     1024
 91
        1
280
     0
281
     0
  0
CLASS
  1
AMGOBJPROPCFG
  2
AmgObjPropCfg
  3
"AmgLay|Product Description: AutoCAD Mechanical|Company: Autodesk, Inc."
 90
     1024
 91
        1
280
     0
281
     0
  0
CLASS
  1
ACAMGHOLECHARTSTDISO
  2
AcAmgHoleChartStdISO
  3
"AmgDim" "Product Description: AutoCAD Mechanical|Company: Autodesk, Inc."
 90
     1024
 91
        1
280
     0
281
     0
  0
CLASS
  1
ACMSECTIONSTANDARDCUSTOM
  2
AmdtSectionSymStdCustom
  3
"Amdt_StdImp|Product Description: AutoCAD Mechanical|Company: Autodesk, Inc."
 90
     1024
 91
        1
280
     0
281
     0
  0
CLASS
  1
ACMDETAILTANDARDCUSTOM
  2
AmdtDetailSymStdCustom
  3
"Amdt_StdImp|Product Description: AutoCAD Mechanical|Company: Autodesk, Inc."
 90
     1024
 91
        1
280
     0
281
     0
  0
CLASS
  1
FIELD
  2
AcDbField
  3
ObjectDBX Classes
 90
     1152
 91
        3
280
     0
281
     0
  0
CLASS
  1
FIELDLIST
  2
AcDbFieldList
  3
ObjectDBX Classes
 90
     1152
 91
        1
280
     0
281
     0
  0
CLASS
  1
AMDTNOTETEMPLATEDB
  2
AmdtNoteTemplateDB
  3
"AcmSymBB" "Product Description: AutoCAD Mechanical|Company: Autodesk, Inc."
 90
     1024
 91
        7
280
     0
281
     0
  0
CLASS
  1
ACAMGFILTERDAT
  2
AcAmgFilterDat
  3
"AcadM|Product Description: AutoCAD Mechanical|Company: Autodesk, Inc."
 90
     1024
 91
        6
280
     0
281
     0
  0
CLASS
  1
SORTENTSTABLE
  2
AcDbSortentsTable
  3
ObjectDBX Classes
 90
        0
 91
        1
280
     0
281
     0
  0
ENDSEC
  0
SECTION
  2
TABLES
  0
TABLE
  2
VPORT
  5
8
330
0
100
AcDbSymbolTable
 70
    16
  0
VPORT
  5
29
330
8
100
AcDbSymbolTableRecord
100
AcDbViewportTableRecord
  2
*Active
 70
     0
 10
0.0
 20
0.0
 11
1.0
 21
1.0
 12
355.6963119184023
 22
375.8912863848667
 13
0.0
 23
0.0
 14
0.5
 24
0.5
 15
0.5
 25
0.5
 16
0.0
 26
0.0
 36
1.0
 17
0.0
 27
0.0
 37
0.0
 40
108.593843082963
 41
2.188141391106043
 42
50.0
 43
721.5678259999999
 44
-721.5678259999999
 50
0.0
 51
0.0
 71
     0
 72
   100
 73
     1
 74
     3
 75
     0
 76
     0
 77
     0
 78
     0
281
     0
 65
     0
110
0.0
120
0.0
130
0.0
111
1.0
121
0.0
131
0.0
112
0.0
122
1.0
132
0.0
 79
     0
146
0.0
1001
ACAD_NAV_VCDISPLAY
1070
     3
  0
VPORT
  5
25D
330
8
100
AcDbSymbolTableRecord
100
AcDbViewportTableRecord
  2
L1
 70
     0
 10
0.0
 20
0.0
 11
1.0
 21
1.0
 12
440.23792
 22
213.58927
 13
0.0
 23
0.0
 14
0.5
 24
0.5
 15
0.5
 25
0.5
 16
0.0
 26
0.0
 36
1.0
 17
0.0
 27
0.0
 37
0.0
 40
207.433333
 41
0.085602
 42
50.0
 43
721.5678259999999
 44
-721.5678259999999
 50
0.0
 51
0.0
 71
     0
 72
   100
 73
     1
 74
     3
 75
     0
 76
     0
 77
     0
 78
     0
281
     0
 65
     1
110
0.0
120
0.0
130
0.0
111
1.0
121
0.0
131
0.0
112
0.0
122
1.0
132
0.0
 79
     0
146
0.0
  0
VPORT
  5
25E
330
8
100
AcDbSymbolTableRecord
100
AcDbViewportTableRecord
  2
L2
 70
     0
 10
0.0
 20
0.0
 11
0.5
 21
1.0
 12
0.0
 22
0.0
 13
0.0
 23
0.0
 14
0.5
 24
0.5
 15
0.5
 25
0.5
 16
0.0
 26
-1.0
 36
0.0
 17
0.0
 27
0.0
 37
0.0
 40
1478.660809
 41
0.012009
 42
50.0
 43
765.39502
 44
-765.39502
 50
0.0
 51
0.0
 71
     0
 72
   100
 73
     1
 74
     3
 75
     0
 76
     0
 77
     0
 78
     0
281
     0
 65
     1
110
0.0
120
0.0
130
0.0
111
1.0
121
0.0
131
0.0
112
0.0
122
1.0
132
0.0
 79
     0
146
0.0
  0
VPORT
  5
25F
330
8
100
AcDbSymbolTableRecord
100
AcDbViewportTableRecord
  2
L2
 70
     0
 10
0.5
 20
0.0
 11
1.0
 21
1.0
 12
0.0
 22
0.0
 13
0.0
 23
0.0
 14
0.5
 24
0.5
 15
0.5
 25
0.5
 16
1.0
 26
0.0
 36
0.0
 17
0.0
 27
0.0
 37
0.0
 40
1478.660809
 41
0.012009
 42
50.0
 43
746.5698859999999
 44
-746.5698859999999
 50
0.0
 51
0.0
 71
     0
 72
   100
 73
     1
 74
     3
 75
     0
 76
     0
 77
     0
 78
     0
281
     0
 65
     1
110
0.0
120
0.0
130
0.0
111
1.0
121
0.0
131
0.0
112
0.0
122
1.0
132
0.0
 79
     0
146
0.0
  0
VPORT
  5
260
330
8
100
AcDbSymbolTableRecord
100
AcDbViewportTableRecord
  2
L3
 70
     0
 10
0.0
 20
0.5
 11
1.0
 21
1.0
 12
440.23792
 22
213.58927
 13
0.0
 23
0.0
 14
0.5
 24
0.5
 15
0.5
 25
0.5
 16
0.0
 26
0.0
 36
1.0
 17
0.0
 27
0.0
 37
0.0
 40
207.433333
 41
0.085602
 42
50.0
 43
721.5678259999999
 44
-721.5678259999999
 50
0.0
 51
0.0
 71
     0
 72
   100
 73
     1
 74
     3
 75
     0
 76
     0
 77
     0
 78
     0
281
     0
 65
     1
110
0.0
120
0.0
130
0.0
111
1.0
121
0.0
131
0.0
112
0.0
122
1.0
132
0.0
 79
     0
146
0.0
  0
VPORT
  5
261
330
8
100
AcDbSymbolTableRecord
100
AcDbViewportTableRecord
  2
L3
 70
     0
 10
0.0
 20
0.0
 11
1.0
 21
0.5
 12
0.0
 22
0.0
 13
0.0
 23
0.0
 14
0.5
 24
0.5
 15
0.5
 25
0.5
 16
0.0
 26
-1.0
 36
0.0
 17
0.0
 27
0.0
 37
0.0
 40
1478.660809
 41
0.012009
 42
50.0
 43
765.39502
 44
-765.39502
 50
0.0
 51
0.0
 71
     0
 72
   100
 73
     1
 74
     3
 75
     0
 76
     0
 77
     0
 78
     0
281
     0
 65
     1
110
0.0
120
0.0
130
0.0
111
1.0
121
0.0
131
0.0
112
0.0
122
1.0
132
0.0
 79
     0
146
0.0
  0
VPORT
  5
262
330
8
100
AcDbSymbolTableRecord
100
AcDbViewportTableRecord
  2
L4
 70
     0
 10
0.0
 20
0.5
 11
0.5
 21
1.0
 12
440.23792
 22
213.58927
 13
0.0
 23
0.0
 14
0.5
 24
0.5
 15
0.5
 25
0.5
 16
0.0
 26
0.0
 36
1.0
 17
0.0
 27
0.0
 37
0.0
 40
207.433333
 41
0.085602
 42
50.0
 43
721.5678259999999
 44
-721.5678259999999
 50
0.0
 51
0.0
 71
     0
 72
   100
 73
     1
 74
     3
 75
     0
 76
     0
 77
     0
 78
     0
281
     0
 65
     1
110
0.0
120
0.0
130
0.0
111
1.0
121
0.0
131
0.0
112
0.0
122
1.0
132
0.0
 79
     0
146
0.0
  0
VPORT
  5
263
330
8
100
AcDbSymbolTableRecord
100
AcDbViewportTableRecord
  2
L4
 70
     0
 10
0.0
 20
0.0
 11
0.5
 21
0.5
 12
0.0
 22
0.0
 13
0.0
 23
0.0
 14
0.5
 24
0.5
 15
0.5
 25
0.5
 16
0.0
 26
-1.0
 36
0.0
 17
0.0
 27
0.0
 37
0.0
 40
1478.660809
 41
0.012009
 42
50.0
 43
765.39502
 44
-765.39502
 50
0.0
 51
0.0
 71
     0
 72
   100
 73
     1
 74
     3
 75
     0
 76
     0
 77
     0
 78
     0
281
     0
 65
     1
110
0.0
120
0.0
130
0.0
111
1.0
121
0.0
131
0.0
112
0.0
122
1.0
132
0.0
 79
     0
146
0.0
  0
VPORT
  5
264
330
8
100
AcDbSymbolTableRecord
100
AcDbViewportTableRecord
  2
L4
 70
     0
 10
0.5
 20
0.0
 11
1.0
 21
0.5
 12
0.0
 22
0.0
 13
0.0
 23
0.0
 14
0.5
 24
0.5
 15
0.5
 25
0.5
 16
1.0
 26
0.0
 36
0.0
 17
0.0
 27
0.0
 37
0.0
 40
1478.660809
 41
0.012009
 42
50.0
 43
746.5698859999999
 44
-746.5698859999999
 50
0.0
 51
0.0
 71
     0
 72
   100
 73
     1
 74
     3
 75
     0
 76
     0
 77
     0
 78
     0
281
     0
 65
     1
110
0.0
120
0.0
130
0.0
111
1.0
121
0.0
131
0.0
112
0.0
122
1.0
132
0.0
 79
     0
146
0.0
  0
VPORT
  5
265
330
8
100
AcDbSymbolTableRecord
100
AcDbViewportTableRecord
  2
L4
 70
     0
 10
0.5
 20
0.5
 11
1.0
 21
1.0
 12
0.0
 22
0.0
 13
0.0
 23
0.0
 14
0.5
 24
0.5
 15
0.5
 25
0.5
 16
0.5773502691896259
 26
-0.5773502691896259
 36
0.5773502691896259
 17
0.0
 27
0.0
 37
0.0
 40
1453.705292
 41
0.012215
 42
50.0
 43
757.5245879999999
 44
-757.5245879999999
 50
0.0
 51
0.0
 71
     0
 72
   100
 73
     1
 74
     3
 75
     0
 76
     0
 77
     0
 78
     0
281
     0
 65
     1
110
0.0
120
0.0
130
0.0
111
1.0
121
0.0
131
0.0
112
0.0
122
1.0
132
0.0
 79
     0
146
0.0
  0
VPORT
  5
266
330
8
100
AcDbSymbolTableRecord
100
AcDbViewportTableRecord
  2
L6
 70
     0
 10
0.0
 20
0.5
 11
0.333333
 21
1.0
 12
0.0
 22
0.0
 13
0.0
 23
0.0
 14
0.5
 24
0.5
 15
0.5
 25
0.5
 16
0.7188730927569434
 26
-0.5850486126764433
 36
0.3754192287502549
 17
0.0
 27
0.0
 37
0.0
 40
1534.989881
 41
0.011568
 42
50.0
 43
794.5176169999999
 44
-794.5176169999999
 50
0.0
 51
0.0
 71
     0
 72
   100
 73
     1
 74
     3
 75
     0
 76
     0
 77
     0
 78
     0
281
     0
 65
     1
110
0.0
120
0.0
130
0.0
111
1.0
121
0.0
131
0.0
112
0.0
122
1.0
132
0.0
 79
     0
146
0.0
  0
VPORT
  5
267
330
8
100
AcDbSymbolTableRecord
100
AcDbViewportTableRecord
  2
L6
 70
     0
 10
0.0
 20
0.0
 11
0.333333
 21
0.5
 12
0.0
 22
0.0
 13
0.0
 23
0.0
 14
0.5
 24
0.5
 15
0.5
 25
0.5
 16
-1.0
 26
0.0
 36
0.0
 17
0.0
 27
0.0
 37
0.0
 40
1478.660809
 41
0.012009
 42
50.0
 43
746.5698859999999
 44
-746.5698859999999
 50
0.0
 51
0.0
 71
     0
 72
   100
 73
     1
 74
     3
 75
     0
 76
     0
 77
     0
 78
     0
281
     0
 65
     1
110
0.0
120
0.0
130
0.0
111
1.0
121
0.0
131
0.0
112
0.0
122
1.0
132
0.0
 79
     0
146
0.0
  0
VPORT
  5
268
330
8
100
AcDbSymbolTableRecord
100
AcDbViewportTableRecord
  2
L6
 70
     0
 10
0.333333
 20
0.5
 11
0.666667
 21
1.0
 12
440.23792
 22
213.58927
 13
0.0
 23
0.0
 14
0.5
 24
0.5
 15
0.5
 25
0.5
 16
0.0
 26
0.0
 36
1.0
 17
0.0
 27
0.0
 37
0.0
 40
207.433333
 41
0.085602
 42
50.0
 43
721.5678259999999
 44
-721.5678259999999
 50
0.0
 51
0.0
 71
     0
 72
   100
 73
     1
 74
     3
 75
     0
 76
     0
 77
     0
 78
     0
281
     0
 65
     1
110
0.0
120
0.0
130
0.0
111
1.0
121
0.0
131
0.0
112
0.0
122
1.0
132
0.0
 79
     0
146
0.0
  0
VPORT
  5
269
330
8
100
AcDbSymbolTableRecord
100
AcDbViewportTableRecord
  2
L6
 70
     0
 10
0.333333
 20
0.0
 11
0.666667
 21
0.5
 12
0.0
 22
0.0
 13
0.0
 23
0.0
 14
0.5
 24
0.5
 15
0.5
 25
0.5
 16
0.0
 26
-1.0
 36
0.0
 17
0.0
 27
0.0
 37
0.0
 40
1478.660809
 41
0.012009
 42
50.0
 43
765.39502
 44
-765.39502
 50
0.0
 51
0.0
 71
     0
 72
   100
 73
     1
 74
     3
 75
     0
 76
     0
 77
     0
 78
     0
281
     0
 65
     1
110
0.0
120
0.0
130
0.0
111
1.0
121
0.0
131
0.0
112
0.0
122
1.0
132
0.0
 79
     0
146
0.0
  0
VPORT
  5
26A
330
8
100
AcDbSymbolTableRecord
100
AcDbViewportTableRecord
  2
L6
 70
     0
 10
0.666667
 20
0.5
 11
1.0
 21
1.0
 12
0.0
 22
0.0
 13
0.0
 23
0.0
 14
0.5
 24
0.5
 15
0.5
 25
0.5
 16
0.5773502691896259
 26
-0.5773502691896259
 36
0.5773502691896259
 17
0.0
 27
0.0
 37
0.0
 40
1453.705292
 41
0.012215
 42
50.0
 43
757.5245879999999
 44
-757.5245879999999
 50
0.0
 51
0.0
 71
     0
 72
   100
 73
     1
 74
     3
 75
     0
 76
     0
 77
     0
 78
     0
281
     0
 65
     1
110
0.0
120
0.0
130
0.0
111
1.0
121
0.0
131
0.0
112
0.0
122
1.0
132
0.0
 79
     0
146
0.0
  0
VPORT
  5
26B
330
8
100
AcDbSymbolTableRecord
100
AcDbViewportTableRecord
  2
L6
 70
     0
 10
0.666667
 20
0.0
 11
1.0
 21
0.5
 12
0.0
 22
0.0
 13
0.0
 23
0.0
 14
0.5
 24
0.5
 15
0.5
 25
0.5
 16
1.0
 26
0.0
 36
0.0
 17
0.0
 27
0.0
 37
0.0
 40
1478.660809
 41
0.012009
 42
50.0
 43
746.5698859999999
 44
-746.5698859999999
 50
0.0
 51
0.0
 71
     0
 72
   100
 73
     1
 74
     3
 75
     0
 76
     0
 77
     0
 78
     0
281
     0
 65
     1
110
0.0
120
0.0
130
0.0
111
1.0
121
0.0
131
0.0
112
0.0
122
1.0
132
0.0
 79
     0
146
0.0
  0
ENDTAB
  0
TABLE
  2
LTYPE
  5
5
330
0
100
AcDbSymbolTable
 70
    19
  0
LTYPE
  5
14
330
5
100
AcDbSymbolTableRecord
100
AcDbLinetypeTableRecord
  2
ByBlock
 70
     0
  3

 72
    65
 73
     0
 40
0.0
  0
LTYPE
  5
15
330
5
100
AcDbSymbolTableRecord
100
AcDbLinetypeTableRecord
  2
ByLayer
 70
     0
  3

 72
    65
 73
     0
 40
0.0
  0
LTYPE
  5
16
330
5
100
AcDbSymbolTableRecord
100
AcDbLinetypeTableRecord
  2
Continuous
 70
     0
  3
Solid line
 72
    65
 73
     0
 40
0.0
  0
LTYPE
  5
6E
330
5
100
AcDbSymbolTableRecord
100
AcDbLinetypeTableRecord
  2
CENTER
 70
     0
  3
____ _ ____ _ ____ _ ____
 72
    65
 73
     4
 40
47.4
 49
22.0
 74
     4
 75
     0
340
0
 46
0.0
 50
0.0
 44
0.0
 45
0.0
 49
-8.5
 74
     4
 75
     0
340
0
 46
0.0
 50
0.0
 44
0.0
 45
0.0
 49
8.5
 74
     4
 75
     0
340
0
 46
0.0
 50
0.0
 44
0.0
 45
0.0
 49
-8.5
 74
     4
 75
     0
340
0
 46
0.0
 50
0.0
 44
0.0
 45
0.0
  0
LTYPE
  5
6F
330
5
100
AcDbSymbolTableRecord
100
AcDbLinetypeTableRecord
  2
DASHDOT
 70
     0
  3
_._._._._._._._._._._._._._._._.
 72
    65
 73
     4
 40
70.0
 49
31.0
 74
     4
 75
     0
340
0
 46
0.0
 50
0.0
 44
0.0
 45
0.0
 49
-13.0
 74
     4
 75
     0
340
0
 46
0.0
 50
0.0
 44
0.0
 45
0.0
 49
13.0
 74
     4
 75
     0
340
0
 46
0.0
 50
0.0
 44
0.0
 45
0.0
 49
-13.0
 74
     4
 75
     0
340
0
 46
0.0
 50
0.0
 44
0.0
 45
0.0
  0
LTYPE
  5
70
330
5
100
AcDbSymbolTableRecord
100
AcDbLinetypeTableRecord
  2
DASHED
 70
     0
  3
__ __ __ __ __ __ __ __ __
 72
    65
 73
     2
 40
25.72
 49
12.86
 74
     4
 75
     0
340
0
 46
0.0
 50
0.0
 44
0.0
 45
0.0
 49
-12.86
 74
     4
 75
     0
340
0
 46
0.0
 50
0.0
 44
0.0
 45
0.0
  0
LTYPE
  5
71
330
5
100
AcDbSymbolTableRecord
100
AcDbLinetypeTableRecord
  2
DOT
 70
     0
  3
.........................
 72
    65
 73
     2
 40
10.0
 49
0.0
 74
     4
 75
     0
340
0
 46
0.0
 50
0.0
 44
0.0
 45
0.0
 49
-10.0
 74
     4
 75
     0
340
0
 46
0.0
 50
0.0
 44
0.0
 45
0.0
  0
LTYPE
  5
72
330
5
100
AcDbSymbolTableRecord
100
AcDbLinetypeTableRecord
  2
PHANTOM
 70
     0
  3
____ _ _ ____ _ _ _____ _ _ ____
 72
    65
 73
     6
 40
50.5
 49
18.0
 74
     4
 75
     0
340
0
 46
0.0
 50
0.0
 44
0.0
 45
0.0
 49
-6.5
 74
     4
 75
     0
340
0
 46
0.0
 50
0.0
 44
0.0
 45
0.0
 49
6.5
 74
     4
 75
     0
340
0
 46
0.0
 50
0.0
 44
0.0
 45
0.0
 49
-6.5
 74
     4
 75
     0
340
0
 46
0.0
 50
0.0
 44
0.0
 45
0.0
 49
6.5
 74
     4
 75
     0
340
0
 46
0.0
 50
0.0
 44
0.0
 45
0.0
 49
-6.5
 74
     4
 75
     0
340
0
 46
0.0
 50
0.0
 44
0.0
 45
0.0
  0
LTYPE
  5
2C7
330
5
100
AcDbSymbolTableRecord
100
AcDbLinetypeTableRecord
  2
HIDDEN
 70
     0
  3
Hidden __ __ __ __ __ __ __ __ __ __ __ __ __ _
 72
    65
 73
     2
 40
9.524999999999998
 49
6.349999999999999
 74
     0
 49
-3.174999999999999
 74
     0
  0
LTYPE
  5
2C8
330
5
100
AcDbSymbolTableRecord
100
AcDbLinetypeTableRecord
  2
PHANTOM2
 70
     0
  3
Phantom (.5x) ___ _ _ ___ _ _ ___ _ _ ___ _ _
 72
    65
 73
     6
 40
31.75
 49
15.875
 74
     0
 49
-3.174999999999999
 74
     0
 49
3.174999999999999
 74
     0
 49
-3.174999999999999
 74
     0
 49
3.174999999999999
 74
     0
 49
-3.174999999999999
 74
     0
  0
LTYPE
  5
307
330
5
100
AcDbSymbolTableRecord
100
AcDbLinetypeTableRecord
  2
AM_ISO02W050
 70
     0
  3
__ __ __ __ __ __ __ __ __ __ __ __ __ __ __
 72
    65
 73
     2
 40
7.5
 49
6.0
 74
     0
 49
-1.5
 74
     0
  0
LTYPE
  5
308
330
5
100
AcDbSymbolTableRecord
100
AcDbLinetypeTableRecord
  2
AM_ISO08W050
 70
     0
  3
____ . ____ . ____ . ____ . ____ . ____ . ____
 72
    65
 73
     4
 40
18.0
 49
12.0
 74
     0
 49
-1.5
 74
     0
 49
3.0
 74
     0
 49
-1.5
 74
     0
  0
LTYPE
  5
309
330
5
100
AcDbSymbolTableRecord
100
AcDbLinetypeTableRecord
  2
AM_ISO09W050
 70
     0
  3
_____ . . _____ . . _____ . . ____ .. ____
 72
    65
 73
     6
 40
22.5
 49
12.0
 74
     0
 49
-1.5
 74
     0
 49
3.0
 74
     0
 49
-1.5
 74
     0
 49
3.0
 74
     0
 49
-1.5
 74
     0
  0
LTYPE
  5
30A
330
5
100
AcDbSymbolTableRecord
100
AcDbLinetypeTableRecord
  2
Amconstr
 70
     0
  3
_______________________
 72
    65
 73
     2
 40
9999.0
 49
9999.0
 74
     0
 49
0.0
 74
     0
  0
LTYPE
  5
30B
330
5
100
AcDbSymbolTableRecord
100
AcDbLinetypeTableRecord
  2
AM_ISO08W050x2
 70
     0
  3
__ . __ . __ . __ . __ . __
 72
    65
 73
     4
 40
9.0
 49
6.0
 74
     0
 49
-0.75
 74
     0
 49
1.5
 74
     0
 49
-0.75
 74
     0
  0
LTYPE
  5
30C
330
5
100
AcDbSymbolTableRecord
100
AcDbLinetypeTableRecord
  2
AM_ISO02W050x2
 70
     0
  3
 _ _ _ _ _ _ _ _ _ _ _ _
 72
    65
 73
     2
 40
3.75
 49
3.0
 74
     0
 49
-0.75
 74
     0
  0
LTYPE
  5
30F
330
5
100
AcDbSymbolTableRecord
100
AcDbLinetypeTableRecord
  2
Amzigzag
 70
     0
  3
/\/-/\/-/\/-/\/-/\/-/\/
 72
    65
 73
     2
 40
11.0001
 49
0.0001
 74
     4
 75
   136
340
30E
 46
0.04
 50
0.0
 44
0.0
 45
0.0
 49
-11.0
 74
     0
  0
LTYPE
  5
31F
330
5
100
AcDbSymbolTableRecord
100
AcDbLinetypeTableRecord
  2
ACISOWELD
 70
     0
  3
_ _ _ _ _
 72
    65
 73
     2
 40
2.0
 49
2.0
 74
     0
 49
-1.0
 74
     0
  0
LTYPE
  5
320
330
5
100
AcDbSymbolTableRecord
100
AcDbLinetypeTableRecord
  2
ACISOTGL
 70
     0
  3
_ _ _ _ _
 72
    65
 73
     2
 40
3.0
 49
2.0
 74
     0
 49
-1.0
 74
     0
  0
LTYPE
  5
321
330
5
100
AcDbSymbolTableRecord
100
AcDbLinetypeTableRecord
  2
ACISOTGB
 70
     0
  3
__ . . __ . .
 72
    65
 73
     6
 40
9.0
 49
4.0
 74
     0
 49
-1.0
 74
     0
 49
1.0
 74
     0
 49
-1.0
 74
     0
 49
1.0
 74
     0
 49
-1.0
 74
     0
  0
LTYPE
  5
371
330
5
100
AcDbSymbolTableRecord
100
AcDbLinetypeTableRecord
  2
CENTER2
 70
     0
  3
Center (.5x) ___ _ ___ _ ___ _ ___ _ ___ _ ___
 72
    65
 73
     4
 40
1.125
 49
0.75
 74
     0
 49
-0.125
 74
     0
 49
0.125
 74
     0
 49
-0.125
 74
     0
  0
ENDTAB
  0
TABLE
  2
LAYER
  5
2
330
0
100
AcDbSymbolTable
 70
    23
  0
LAYER
  5
10
102
{ACAD_XDICTIONARY
360
37C
102
}
330
2
100
AcDbSymbolTableRecord
100
AcDbLayerTableRecord
  2
0
 70
     0
 62
     7
  6
Continuous
370
    -3
390
F
  0
LAYER
  5
76
102
{ACAD_XDICTIONARY
360
37E
102
}
330
2
100
AcDbSymbolTableRecord
100
AcDbLayerTableRecord
  2
96
 70
     0
 62
     7
420
 16777215
  6
Continuous
370
    -3
390
F
  0
LAYER
  5
1CE
330
2
100
AcDbSymbolTableRecord
100
AcDbLayerTableRecord
  2
Defpoints
 70
     0
 62
     7
  6
Continuous
290
     0
370
    -3
390
F
  0
LAYER
  5
36E
102
{ACAD_XDICTIONARY
360
380
102
}
330
2
100
AcDbSymbolTableRecord
100
AcDbLayerTableRecord
  2
1
 70
     0
 62
     4
  6
Continuous
370
    -3
390
F
  0
LAYER
  5
36F
102
{ACAD_XDICTIONARY
360
382
102
}
330
2
100
AcDbSymbolTableRecord
100
AcDbLayerTableRecord
  2
2
 70
     0
 62
     7
  6
Continuous
370
    -3
390
F
  0
LAYER
  5
370
102
{ACAD_XDICTIONARY
360
384
102
}
330
2
100
AcDbSymbolTableRecord
100
AcDbLayerTableRecord
  2
4
 70
     0
 62
     2
  6
CENTER2
370
    -3
390
F
  0
LAYER
  5
372
102
{ACAD_XDICTIONARY
360
386
102
}
330
2
100
AcDbSymbolTableRecord
100
AcDbLayerTableRecord
  2
SK1
 70
     0
 62
     4
  6
Continuous
370
    -3
390
F
  0
LAYER
  5
373
102
{ACAD_XDICTIONARY
360
388
102
}
330
2
100
AcDbSymbolTableRecord
100
AcDbLayerTableRecord
  2
SK2
 70
     0
 62
     7
  6
Continuous
370
    -3
390
F
  0
LAYER
  5
375
102
{ACAD_XDICTIONARY
360
38A
102
}
330
2
100
AcDbSymbolTableRecord
100
AcDbLayerTableRecord
  2
SK4
 70
     0
 62
     2
  6
CENTER2
370
    -3
390
F
  0
LAYER
  5
376
102
{ACAD_XDICTIONARY
360
38C
102
}
330
2
100
AcDbSymbolTableRecord
100
AcDbLayerTableRecord
  2
SK6
 70
     0
 62
     5
  6
Continuous
370
    -3
390
F
  0
LAYER
  5
377
102
{ACAD_XDICTIONARY
360
38E
102
}
330
2
100
AcDbSymbolTableRecord
100
AcDbLayerTableRecord
  2
CUT
 70
     0
 62
     1
  6
Continuous
370
    -3
390
F
  0
LAYER
  5
378
102
{ACAD_XDICTIONARY
360
390
102
}
330
2
100
AcDbSymbolTableRecord
100
AcDbLayerTableRecord
  2
NOCUT
 70
     0
 62
     7
  6
Continuous
370
    -3
390
F
  0
LAYER
  5
379
102
{ACAD_XDICTIONARY
360
392
102
}
330
2
100
AcDbSymbolTableRecord
100
AcDbLayerTableRecord
  2
80
 70
     0
 62
     6
  6
Continuous
370
    -3
390
F
  0
LAYER
  5
37A
102
{ACAD_XDICTIONARY
360
394
102
}
330
2
100
AcDbSymbolTableRecord
100
AcDbLayerTableRecord
  2
81
 70
     0
 62
     3
  6
Continuous
370
    -3
390
F
  0
ENDTAB
  0
TABLE
  2
STYLE
  5
3
330
0
100
AcDbSymbolTable
 70
     6
  0
STYLE
  5
11
330
3
100
AcDbSymbolTableRecord
100
AcDbTextStyleTableRecord
  2
Standard
 70
     0
 40
0.0
 41
1.0
 50
0.0
 71
     0
 42
0.2
  3
txt
  4

  0
STYLE
  5
1C2
330
3
100
AcDbSymbolTableRecord
100
AcDbTextStyleTableRecord
  2
cesky
 70
     0
 40
0.0
 41
1.0
 50
0.0
 71
     0
 42
0.2
  3
simplex.shx
  4

  0
STYLE
  5
1C3
330
3
100
AcDbSymbolTableRecord
100
AcDbTextStyleTableRecord
  2
DWGDirectTextStyle
 70
     0
 40
0.0
 41
1.0
 50
0.0
 71
     0
 42
0.2
  3
simplex
  4

  0
STYLE
  5
30E
330
3
100
AcDbSymbolTableRecord
100
AcDbTextStyleTableRecord
  2

 70
     1
 40
0.0
 41
1.0
 50
0.0
 71
     0
 42
0.2
  3
genltshp.shx
  4

  0
STYLE
  5
31D
330
3
100
AcDbSymbolTableRecord
100
AcDbTextStyleTableRecord
  2
ACISOTS
 70
     0
 40
0.0
 41
1.0
 50
0.0
 71
     0
 42
0.2
  3
isocp.shx
  4

  0
STYLE
  5
31E
330
3
100
AcDbSymbolTableRecord
100
AcDbTextStyleTableRecord
  2
ACISOGDT
 70
     0
 40
0.0
 41
1.0
 50
0.0
 71
     0
 42
0.2
  3
amgdt.shx
  4

  0
ENDTAB
  0
TABLE
  2
VIEW
  5
6
330
0
100
AcDbSymbolTable
 70
     0
  0
ENDTAB
  0
TABLE
  2
UCS
  5
7
330
0
100
AcDbSymbolTable
 70
     0
  0
ENDTAB
  0
TABLE
  2
APPID
  5
9
330
0
100
AcDbSymbolTable
 70
    13
  0
APPID
  5
12
330
9
100
AcDbSymbolTableRecord
100
AcDbRegAppTableRecord
  2
ACAD
 70
     0
  0
APPID
  5
1CA
330
9
100
AcDbSymbolTableRecord
100
AcDbRegAppTableRecord
  2
ACAD_DSTYLE_DIMBREAK
 70
     0
  0
APPID
  5
26C
330
9
100
AcDbSymbolTableRecord
100
AcDbRegAppTableRecord
  2
ACAD_DSTYLE_DIM_LINETYPE
 70
     0
  0
APPID
  5
26D
330
9
100
AcDbSymbolTableRecord
100
AcDbRegAppTableRecord
  2
ACAD_DSTYLE_DIM_EXT1_LINETYPE
 70
     0
  0
APPID
  5
26E
330
9
100
AcDbSymbolTableRecord
100
AcDbRegAppTableRecord
  2
ACAD_DSTYLE_DIM_EXT2_LINETYPE
 70
     0
  0
APPID
  5
2AE
330
9
100
AcDbSymbolTableRecord
100
AcDbRegAppTableRecord
  2
ACAD_MLEADERVER
 70
     0
  0
APPID
  5
2C0
330
9
100
AcDbSymbolTableRecord
100
AcDbRegAppTableRecord
  2
MCAD_NO_VIS
 70
     0
  0
APPID
  5
2C1
330
9
100
AcDbSymbolTableRecord
100
AcDbRegAppTableRecord
  2
ACAD_TEMP_GRAPHIC
 70
     0
  0
APPID
  5
2CD
330
9
100
AcDbSymbolTableRecord
100
AcDbRegAppTableRecord
  2
ACATTRIBSERVICES
 70
     0
  0
APPID
  5
2E9
330
9
100
AcDbSymbolTableRecord
100
AcDbRegAppTableRecord
  2
DESIGNERASSEMBLIES
 70
     0
  0
APPID
  5
305
330
9
100
AcDbSymbolTableRecord
100
AcDbRegAppTableRecord
  2
ACAD_DSTYLE_DIMJAG
 70
     0
  0
APPID
  5
331
330
9
100
AcDbSymbolTableRecord
100
AcDbRegAppTableRecord
  2
ACAD_NAV_VCDISPLAY
 70
     0
  0
APPID
  5
3D0
330
9
100
AcDbSymbolTableRecord
100
AcDbRegAppTableRecord
  2
ACAD_DSTYLE_DIMARC_LENGTH_SYMBOL
 70
     0
  0
ENDTAB
  0
TABLE
  2
DIMSTYLE
  5
A
330
0
100
AcDbSymbolTable
 70
     8
100
AcDbDimStyleTable
 71
     0
  0
DIMSTYLE
105
27
330
A
100
AcDbSymbolTableRecord
100
AcDbDimStyleTableRecord
  2
Standard
 70
     0
340
11
1001
ACAD_DSTYLE_DIMBREAK
1070
   391
1040
6.349999999999999
  0
DIMSTYLE
105
304
102
{ACAD_REACTORS
330
2F2
102
}
330
A
100
AcDbSymbolTableRecord
100
AcDbDimStyleTableRecord
  2
AM_ISO
 70
     0
  4
"
 41
3.5
 42
1.0
 43
10.0
 44
1.0
 47
0.1
 48
0.1
 73
     0
 74
     0
 77
     1
 78
     8
 79
     2
140
3.5
141
0.0
143
0.0393701
146
0.71
147
1.5
172
     1
176
   256
177
   256
178
     2
271
     2
272
     3
274
     4
283
     0
284
     8
340
11
371
    -1
372
    -1
1001
ACAD_DSTYLE_DIMJAG
1070
   388
1040
1.5
1001
ACAD_DSTYLE_DIMBREAK
1070
   391
1040
3.75
1001
ACAD_DSTYLE_DIMARC_LENGTH_SYMBOL
1070
   379
1070
     1
1001
ACAD_DSTYLE_DIM_LINETYPE
1070
   380
1005
14
1001
ACAD_DSTYLE_DIM_EXT1_LINETYPE
1070
   381
1005
14
1001
ACAD_DSTYLE_DIM_EXT2_LINETYPE
1070
   382
1005
14
  0
DIMSTYLE
105
310
330
A
100
AcDbSymbolTableRecord
100
AcDbDimStyleTableRecord
  2
AM_ISO$3
 70
     0
  4
"
 41
3.5
 42
1.0
 43
10.0
 44
1.0
 47
0.1
 48
0.1
 73
     0
 77
     1
 78
     8
 79
     2
140
3.5
141
0.0
143
0.0393701
146
0.71
147
1.5
176
   256
177
   256
178
     2
271
     2
272
     3
274
     4
283
     0
284
     8
288
     1
289
     0
340
11
371
    -1
372
    -1
1001
ACAD_DSTYLE_DIMBREAK
1070
   391
1040
3.75
1001
ACAD_DSTYLE_DIMJAG
1070
   388
1040
1.5
1001
ACAD_DSTYLE_DIMARC_LENGTH_SYMBOL
1070
   379
1070
     1
1001
ACAD_DSTYLE_DIM_LINETYPE
1070
   380
1005
14
1001
ACAD_DSTYLE_DIM_EXT1_LINETYPE
1070
   381
1005
14
1001
ACAD_DSTYLE_DIM_EXT2_LINETYPE
1070
   382
1005
14
  0
DIMSTYLE
105
311
330
A
100
AcDbSymbolTableRecord
100
AcDbDimStyleTableRecord
  2
AM_ISO$4
 70
     0
  4
"
 41
3.5
 42
1.0
 43
10.0
 44
1.0
 47
0.1
 48
0.1
 73
     0
 77
     1
 78
     8
 79
     2
140
3.5
141
0.0
143
0.0393701
146
0.71
147
1.5
176
   256
177
   256
178
     2
271
     2
272
     3
274
     4
283
     0
284
     8
288
     1
289
     0
340
11
371
    -1
372
    -1
1001
ACAD_DSTYLE_DIMBREAK
1070
   391
1040
3.75
1001
ACAD_DSTYLE_DIMJAG
1070
   388
1040
1.5
1001
ACAD_DSTYLE_DIMARC_LENGTH_SYMBOL
1070
   379
1070
     1
1001
ACAD_DSTYLE_DIM_LINETYPE
1070
   380
1005
14
1001
ACAD_DSTYLE_DIM_EXT1_LINETYPE
1070
   381
1005
14
1001
ACAD_DSTYLE_DIM_EXT2_LINETYPE
1070
   382
1005
14
  0
DIMSTYLE
105
312
330
A
100
AcDbSymbolTableRecord
100
AcDbDimStyleTableRecord
  2
AM_ISO$6
 70
     0
  4
"
 41
3.5
 42
1.0
 43
10.0
 44
1.0
 47
0.1
 48
0.1
 73
     0
 74
     0
 78
     8
 79
     2
140
3.5
141
0.0
143
0.0393701
146
0.71
147
1.5
172
     1
176
   256
177
   256
178
     2
271
     2
272
     3
274
     4
283
     0
284
     8
340
11
371
    -1
372
    -1
1001
ACAD_DSTYLE_DIMBREAK
1070
   391
1040
3.75
1001
ACAD_DSTYLE_DIMJAG
1070
   388
1040
1.5
1001
ACAD_DSTYLE_DIMARC_LENGTH_SYMBOL
1070
   379
1070
     1
1001
ACAD_DSTYLE_DIM_LINETYPE
1070
   380
1005
14
1001
ACAD_DSTYLE_DIM_EXT1_LINETYPE
1070
   381
1005
14
1001
ACAD_DSTYLE_DIM_EXT2_LINETYPE
1070
   382
1005
14
  0
DIMSTYLE
105
313
330
A
100
AcDbSymbolTableRecord
100
AcDbDimStyleTableRecord
  2
AM_ISO$7
 70
     0
  4
"
 41
3.5
 42
1.0
 43
10.0
 44
1.0
 47
0.1
 48
0.1
 73
     0
 74
     0
 77
     1
 78
     8
 79
     2
140
3.5
141
0.0
143
0.0393701
146
0.71
147
1.5
172
     1
176
   256
177
   256
178
     2
271
     2
272
     3
274
     4
283
     0
284
     8
340
11
371
    -1
372
    -1
1001
ACAD_DSTYLE_DIMBREAK
1070
   391
1040
3.75
1001
ACAD_DSTYLE_DIMJAG
1070
   388
1040
1.5
1001
ACAD_DSTYLE_DIMARC_LENGTH_SYMBOL
1070
   379
1070
     1
1001
ACAD_DSTYLE_DIM_LINETYPE
1070
   380
1005
14
1001
ACAD_DSTYLE_DIM_EXT1_LINETYPE
1070
   381
1005
14
1001
ACAD_DSTYLE_DIM_EXT2_LINETYPE
1070
   382
1005
14
  0
DIMSTYLE
105
314
330
A
100
AcDbSymbolTableRecord
100
AcDbDimStyleTableRecord
  2
AM_ISO$SF
 70
     0
  4
"
 41
3.5
 42
1.0
 43
10.0
 44
1.0
 47
0.1
 48
0.1
 73
     0
 74
     0
 75
     1
 76
     1
 77
     1
 78
     8
 79
     2
140
3.5
141
0.0
143
0.0393701
146
0.71
147
1.5
172
     1
176
   256
177
   256
178
     2
271
     2
272
     3
274
     4
283
     0
284
     8
340
11
371
    -1
372
    -1
1001
ACAD_DSTYLE_DIMBREAK
1070
   391
1040
3.75
1001
ACAD_DSTYLE_DIMJAG
1070
   388
1040
1.5
1001
ACAD_DSTYLE_DIMARC_LENGTH_SYMBOL
1070
   379
1070
     1
1001
ACAD_DSTYLE_DIM_LINETYPE
1070
   380
1005
14
1001
ACAD_DSTYLE_DIM_EXT1_LINETYPE
1070
   381
1005
14
1001
ACAD_DSTYLE_DIM_EXT2_LINETYPE
1070
   382
1005
14
  0
DIMSTYLE
105
319
330
A
100
AcDbSymbolTableRecord
100
AcDbDimStyleTableRecord
  2
AM_ISO$SH
 70
     0
  4
"
 41
3.5
 42
1.0
 43
10.0
 44
1.0
 47
0.1
 48
0.1
 73
     0
 74
     0
 75
     1
 76
     1
 77
     1
 78
     8
 79
     2
140
3.5
141
0.0
143
0.0393701
144
2.0
146
0.71
147
1.5
172
     1
173
     1
176
   256
177
   256
178
     2
271
     2
272
     3
274
     4
283
     0
284
     8
340
11
343
315
371
    -1
372
    -1
1001
ACAD_DSTYLE_DIMBREAK
1070
   391
1040
3.75
1001
ACAD_DSTYLE_DIMJAG
1070
   388
1040
1.5
1001
ACAD_DSTYLE_DIMARC_LENGTH_SYMBOL
1070
   379
1070
     1
1001
ACAD_DSTYLE_DIM_LINETYPE
1070
   380
1005
14
1001
ACAD_DSTYLE_DIM_EXT1_LINETYPE
1070
   381
1005
14
1001
ACAD_DSTYLE_DIM_EXT2_LINETYPE
1070
   382
1005
14
  0
ENDTAB
  0
TABLE
  2
BLOCK_RECORD
  5
1
330
0
100
AcDbSymbolTable
 70
    16
  0
BLOCK_RECORD
  5
1F
102
{ACAD_XDICTIONARY
360
339
102
}
330
1
100
AcDbSymbolTableRecord
100
AcDbBlockTableRecord
  2
*Model_Space
340
22
  0
BLOCK_RECORD
  5
1B
330
1
100
AcDbSymbolTableRecord
100
AcDbBlockTableRecord
  2
*Paper_Space
340
1E
  0
BLOCK_RECORD
  5
23
330
1
100
AcDbSymbolTableRecord
100
AcDbBlockTableRecord
  2
*Paper_Space0
340
26
  0
BLOCK_RECORD
  5
1C5
330
1
100
AcDbSymbolTableRecord
100
AcDbBlockTableRecord
  2
ASSORTED_DRAFT1
340
0
  0
BLOCK_RECORD
  5
1CF
330
1
100
AcDbSymbolTableRecord
100
AcDbBlockTableRecord
  2
*D2
340
0
  0
BLOCK_RECORD
  5
1DA
330
1
100
AcDbSymbolTableRecord
100
AcDbBlockTableRecord
  2
_U0
340
0
  0
BLOCK_RECORD
  5
1E5
330
1
100
AcDbSymbolTableRecord
100
AcDbBlockTableRecord
  2
*D4
340
0
  0
BLOCK_RECORD
  5
1F3
330
1
100
AcDbSymbolTableRecord
100
AcDbBlockTableRecord
  2
_U1
340
0
  0
BLOCK_RECORD
  5
1FE
330
1
100
AcDbSymbolTableRecord
100
AcDbBlockTableRecord
  2
*D6
340
0
  0
BLOCK_RECORD
  5
20A
330
1
100
AcDbSymbolTableRecord
100
AcDbBlockTableRecord
  2
_U2
340
0
  0
BLOCK_RECORD
  5
216
330
1
100
AcDbSymbolTableRecord
100
AcDbBlockTableRecord
  2
*D8
340
0
  0
BLOCK_RECORD
  5
222
330
1
100
AcDbSymbolTableRecord
100
AcDbBlockTableRecord
  2
_U3
340
0
  0
BLOCK_RECORD
  5
22E
330
1
100
AcDbSymbolTableRecord
100
AcDbBlockTableRecord
  2
*D10
340
0
  0
BLOCK_RECORD
  5
23A
330
1
100
AcDbSymbolTableRecord
100
AcDbBlockTableRecord
  2
_U4
340
0
  0
BLOCK_RECORD
  5
246
330
1
100
AcDbSymbolTableRecord
100
AcDbBlockTableRecord
  2
*D12
340
0
  0
BLOCK_RECORD
  5
253
330
1
100
AcDbSymbolTableRecord
100
AcDbBlockTableRecord
  2
_U5
340
0
  0
BLOCK_RECORD
  5
315
330
1
100
AcDbSymbolTableRecord
100
AcDbBlockTableRecord
  2
GENAXEH
340
0
  0
ENDTAB
  0
ENDSEC
  0
SECTION
  2
BLOCKS
  0
BLOCK
  5
20
330
1F
100
AcDbEntity
  8
0
100
AcDbBlockBegin
  2
*Model_Space
 70
     0
 10
0.0
 20
0.0
 30
0.0
  3
*Model_Space
  1

  0
ENDBLK
  5
21
330
1F
100
AcDbEntity
  8
0
100
AcDbBlockEnd
  0
BLOCK
  5
1C
330
1B
100
AcDbEntity
 67
     1
  8
0
100
AcDbBlockBegin
  2
*Paper_Space
 70
     0
 10
0.0
 20
0.0
 30
0.0
  3
*Paper_Space
  1

  0
ENDBLK
  5
1D
330
1B
100
AcDbEntity
 67
     1
  8
0
100
AcDbBlockEnd
  0
BLOCK
  5
24
330
23
100
AcDbEntity
 67
     1
  8
0
100
AcDbBlockBegin
  2
*Paper_Space0
 70
     0
 10
0.0
 20
0.0
 30
0.0
  3
*Paper_Space0
  1

  0
ENDBLK
  5
25
330
23
100
AcDbEntity
 67
     1
  8
0
100
AcDbBlockEnd
  0
BLOCK
  5
1C8
330
1C5
100
AcDbEntity
  8
0
100
AcDbBlockBegin
  2
ASSORTED_DRAFT1
 70
     0
 10
0.0
 20
0.0
 30
0.0
  3
ASSORTED_DRAFT1
  1

  0
SOLID
  5
1C6
330
1C5
100
AcDbEntity
  8
0
 62
   254
370
    13
100
AcDbTrace
 10
476.517572
 20
269.186216
 30
0.0
 11
481.517568
 21
270.29469
 31
0.0
 12
481.5175759999999
 22
268.077743
 32
0.0
 13
476.517572
 23
269.186216
 33
0.0
  0
ENDBLK
  5
1C9
330
1C5
100
AcDbEntity
  8
0
100
AcDbBlockEnd
  0
BLOCK
  5
1D0
330
1CF
100
AcDbEntity
  8
0
100
AcDbBlockBegin
  2
*D2
 70
     1
 10
0.0
 20
0.0
 30
0.0
  3
*D2
  1

  0
LINE
  5
1D2
330
1CF
100
AcDbEntity
  8
0
 62
   254
370
    -2
100
AcDbLine
 10
345.418208
 20
366.0080779999999
 30
0.0
 11
363.717849
 21
366.0080779999999
 31
0.0
  0
LINE
  5
1D3
330
1CF
100
AcDbEntity
  8
0
 62
   254
370
    -2
100
AcDbLine
 10
353.674849
 20
376.008075
 30
0.0
 11
363.717849
 21
376.008075
 31
0.0
  0
LINE
  5
1D4
330
1CF
100
AcDbEntity
  8
0
 62
   254
370
    -2
100
AcDbLine
 10
362.717849
 20
379.508075
 30
0.0
 11
362.717849
 21
383.008075
 31
0.0
  0
SOLID
  5
1D5
330
1CF
100
AcDbEntity
  8
0
 62
   254
100
AcDbTrace
 10
362.134516
 20
379.508075
 30
0.0
 11
363.301183
 21
379.508075
 31
0.0
 12
362.717849
 22
376.008075
 32
0.0
 13
362.717849
 23
376.008075
 33
0.0
  0
MTEXT
  5
1D6
330
1CF
100
AcDbEntity
  8
0
 62
   254
370
    13
100
AcDbMText
 10
357.467849
 20
352.674745
 30
0.0
 40
3.5
 41
0.0
 71
     5
 72
     1
  1
\A1;20
  7
cesky
 11
0.0
 21
1.0
 31
0.0
 73
     1
 44
1.0
  0
POINT
  5
1D7
330
1CF
100
AcDbEntity
  8
Defpoints
 62
     0
100
AcDbPoint
 10
345.418208
 20
366.0080779999999
 30
0.0
  0
POINT
  5
1D8
330
1CF
100
AcDbEntity
  8
Defpoints
 62
     0
100
AcDbPoint
 10
353.674849
 20
376.008075
 30
0.0
  0
POINT
  5
1D9
330
1CF
100
AcDbEntity
  8
Defpoints
 62
     0
100
AcDbPoint
 10
362.717849
 20
376.008075
 30
0.0
  0
ENDBLK
  5
1D1
330
1CF
100
AcDbEntity
  8
0
100
AcDbBlockEnd
  0
BLOCK
  5
1E0
330
1DA
100
AcDbEntity
  8
0
100
AcDbBlockBegin
  2
_U0
 70
     0
 10
0.0
 20
0.0
 30
0.0
  3
_U0
  1

  0
ENDBLK
  5
1E1
330
1DA
100
AcDbEntity
  8
0
100
AcDbBlockEnd
  0
BLOCK
  5
1E6
330
1E5
100
AcDbEntity
  8
0
100
AcDbBlockBegin
  2
*D4
 70
     1
 10
0.0
 20
0.0
 30
0.0
  3
*D4
  1

  0
LINE
  5
1E8
330
1E5
100
AcDbEntity
  8
0
 62
    95
370
    -2
100
AcDbLine
 10
319.833302
 20
371.258078
 30
0.0
 11
317.128193
 21
371.258078
 31
0.0
  0
LINE
  5
1E9
330
1E5
100
AcDbEntity
  8
0
 62
    95
370
    -2
100
AcDbLine
 10
319.567032
 20
360.758078
 30
0.0
 11
317.128193
 21
360.758078
 31
0.0
  0
LINE
  5
1EA
330
1E5
100
AcDbEntity
  8
0
 62
    95
370
    -2
100
AcDbLine
 10
318.128193
 20
371.258078
 30
0.0
 11
318.128193
 21
395.2580779999999
 31
0.0
  0
LINE
  5
1EB
330
1E5
100
AcDbEntity
  8
0
 62
    95
370
    -2
100
AcDbLine
 10
318.128193
 20
374.758078
 30
0.0
 11
318.128193
 21
378.2580779999999
 31
0.0
  0
LINE
  5
1EC
330
1E5
100
AcDbEntity
  8
0
 62
    95
370
    -2
100
AcDbLine
 10
318.128193
 20
357.258078
 30
0.0
 11
318.128193
 21
353.7580779999999
 31
0.0
  0
SOLID
  5
1ED
330
1E5
100
AcDbEntity
  8
0
 62
    95
100
AcDbTrace
 10
317.544859
 20
374.758078
 30
0.0
 11
318.711526
 21
374.758078
 31
0.0
 12
318.128193
 22
371.258078
 32
0.0
 13
318.128193
 23
371.258078
 33
0.0
  0
SOLID
  5
1EE
330
1E5
100
AcDbEntity
  8
0
 62
    95
100
AcDbTrace
 10
318.711526
 20
357.258078
 30
0.0
 11
317.544859
 21
357.258078
 31
0.0
 12
318.128193
 22
360.758078
 32
0.0
 13
318.128193
 23
360.758078
 33
0.0
  0
MTEXT
  5
1EF
330
1E5
100
AcDbEntity
  8
0
 62
    95
370
    13
100
AcDbMText
 10
312.878193
 20
386.7580779999999
 30
0.0
 40
3.5
 41
0.0
 71
     5
 72
     1
  1
\A1;10.5
  7
cesky
 11
0.0
 21
1.0
 31
0.0
 73
     1
 44
1.0
  0
POINT
  5
1F0
330
1E5
100
AcDbEntity
  8
Defpoints
 62
     0
100
AcDbPoint
 10
319.833302
 20
371.258078
 30
0.0
  0
POINT
  5
1F1
330
1E5
100
AcDbEntity
  8
Defpoints
 62
     0
100
AcDbPoint
 10
319.567032
 20
360.758078
 30
0.0
  0
POINT
  5
1F2
330
1E5
100
AcDbEntity
  8
Defpoints
 62
     0
100
AcDbPoint
 10
318.128193
 20
360.758078
 30
0.0
  0
ENDBLK
  5
1E7
330
1E5
100
AcDbEntity
  8
0
100
AcDbBlockEnd
  0
BLOCK
  5
1F9
330
1F3
100
AcDbEntity
  8
0
100
AcDbBlockBegin
  2
_U1
 70
     0
 10
0.0
 20
0.0
 30
0.0
  3
_U1
  1

  0
MTEXT
  5
1F4
330
1F3
100
AcDbEntity
  8
96
  6
Continuous
 62
    95
440
 16777216
370
    13
100
AcDbMText
 10
317.940776
 20
384.653078
 30
0.0
 40
3.5
 41
0.0
 71
     7
 72
     5
  1
\W0.9023;10,5
  7
cesky
 11
0.0000000000000001
 21
1.0
 31
0.0
 73
     2
 44
0.8433729999999998
  0
MTEXT
  5
1F5
330
1F3
100
AcDbEntity
  8
96
  6
Continuous
 62
    95
440
 16777216
370
    13
100
AcDbMText
 10
317.940776
 20
377.915578
 30
0.0
 40
3.5
 41
0.0
 71
     7
 72
     5
  1
\W3.0115;\H2.63;%%c\H3.50;
  7
cesky
 11
0.0000000000000001
 21
1.0
 31
0.0
 73
     2
 44
0.8433729999999998
  0
LINE
  5
1F6
330
1F3
100
AcDbEntity
  8
96
 62
    95
440
 16777216
370
    13
100
AcDbLine
 10
318.128193
 20
360.758078
 30
0.0
 11
318.128193
 21
393.545578
 31
0.0
  0
SOLID
  5
1F7
330
1F3
100
AcDbEntity
  8
96
 62
    95
440
 16777216
370
    13
100
AcDbTrace
 10
318.128193
 20
371.258078
 30
0.0
 11
318.745337
 21
367.75808
 31
0.0
 12
317.511048
 22
367.758076
 32
0.0
 13
317.511048
 23
367.758076
 33
0.0
  0
SOLID
  5
1F8
330
1F3
100
AcDbEntity
  8
96
 62
    95
440
 16777216
370
    13
100
AcDbTrace
 10
318.128193
 20
360.758078
 30
0.0
 11
317.511048
 21
364.2580759999999
 31
0.0
 12
318.745337
 22
364.25808
 32
0.0
 13
318.745337
 23
364.25808
 33
0.0
  0
ENDBLK
  5
1FA
330
1F3
100
AcDbEntity
  8
0
100
AcDbBlockEnd
  0
BLOCK
  5
1FF
330
1FE
100
AcDbEntity
  8
0
100
AcDbBlockBegin
  2
*D6
 70
     1
 10
0.0
 20
0.0
 30
0.0
  3
*D6
  1

  0
LINE
  5
201
330
1FE
100
AcDbEntity
  8
0
 62
   254
370
    -2
100
AcDbLine
 10
352.174849
 20
377.508075
 30
0.0
 11
352.174849
 21
383.013414
 31
0.0
  0
LINE
  5
202
330
1FE
100
AcDbEntity
  8
0
 62
   254
370
    -2
100
AcDbLine
 10
333.800091
 20
375.438474
 30
0.0
 11
333.800091
 21
383.013414
 31
0.0
  0
LINE
  5
203
330
1FE
100
AcDbEntity
  8
0
 62
   254
370
    -2
100
AcDbLine
 10
348.674849
 20
382.013414
 30
0.0
 11
337.300091
 21
382.013414
 31
0.0
  0
SOLID
  5
204
330
1FE
100
AcDbEntity
  8
0
 62
   254
100
AcDbTrace
 10
348.674849
 20
381.430081
 30
0.0
 11
348.674849
 21
382.596747
 31
0.0
 12
352.174849
 22
382.013414
 32
0.0
 13
352.174849
 23
382.013414
 33
0.0
  0
SOLID
  5
205
330
1FE
100
AcDbEntity
  8
0
 62
   254
100
AcDbTrace
 10
337.300091
 20
382.596747
 30
0.0
 11
337.300091
 21
381.430081
 31
0.0
 12
333.800091
 22
382.013414
 32
0.0
 13
333.800091
 23
382.013414
 33
0.0
  0
MTEXT
  5
206
330
1FE
100
AcDbEntity
  8
0
 62
   254
370
    13
100
AcDbMText
 10
342.98747
 20
387.263414
 30
0.0
 40
3.5
 41
0.0
 71
     5
 72
     1
  1
\A1;18.37
  7
cesky
 73
     1
 44
1.0
  0
POINT
  5
207
330
1FE
100
AcDbEntity
  8
Defpoints
 62
     0
100
AcDbPoint
 10
352.174849
 20
377.508075
 30
0.0
  0
POINT
  5
208
330
1FE
100
AcDbEntity
  8
Defpoints
 62
     0
100
AcDbPoint
 10
333.800091
 20
375.438474
 30
0.0
  0
POINT
  5
209
330
1FE
100
AcDbEntity
  8
Defpoints
 62
     0
100
AcDbPoint
 10
333.800091
 20
382.013414
 30
0.0
  0
ENDBLK
  5
200
330
1FE
100
AcDbEntity
  8
0
100
AcDbBlockEnd
  0
BLOCK
  5
211
330
20A
100
AcDbEntity
  8
0
100
AcDbBlockBegin
  2
_U2
 70
     0
 10
0.0
 20
0.0
 30
0.0
  3
_U2
  1

  0
ENDBLK
  5
212
330
20A
100
AcDbEntity
  8
0
100
AcDbBlockEnd
  0
BLOCK
  5
217
330
216
100
AcDbEntity
  8
0
100
AcDbBlockBegin
  2
*D8
 70
     1
 10
0.0
 20
0.0
 30
0.0
  3
*D8
  1

  0
LINE
  5
219
330
216
100
AcDbEntity
  8
0
 62
    95
370
    -2
100
AcDbLine
 10
352.174849
 20
377.508075
 30
0.0
 11
352.174849
 21
402.2244149999999
 31
0.0
  0
LINE
  5
21A
330
216
100
AcDbEntity
  8
0
 62
    95
370
    -2
100
AcDbLine
 10
302.674849
 20
369.508078
 30
0.0
 11
302.674849
 21
402.2244149999999
 31
0.0
  0
LINE
  5
21B
330
216
100
AcDbEntity
  8
0
 62
    95
370
    -2
100
AcDbLine
 10
348.674849
 20
401.2244149999999
 30
0.0
 11
306.174849
 21
401.2244149999999
 31
0.0
  0
SOLID
  5
21C
330
216
100
AcDbEntity
  8
0
 62
    95
100
AcDbTrace
 10
348.674849
 20
400.641082
 30
0.0
 11
348.674849
 21
401.807749
 31
0.0
 12
352.174849
 22
401.2244149999999
 32
0.0
 13
352.174849
 23
401.2244149999999
 33
0.0
  0
SOLID
  5
21D
330
216
100
AcDbEntity
  8
0
 62
    95
100
AcDbTrace
 10
306.174849
 20
401.807749
 30
0.0
 11
306.174849
 21
400.641082
 31
0.0
 12
302.674849
 22
401.2244149999999
 32
0.0
 13
302.674849
 23
401.2244149999999
 33
0.0
  0
MTEXT
  5
21E
330
216
100
AcDbEntity
  8
0
 62
    95
370
    13
100
AcDbMText
 10
327.424849
 20
406.474415
 30
0.0
 40
3.5
 41
0.0
 71
     5
 72
     1
  1
\A1;49.5
  7
cesky
 73
     1
 44
1.0
  0
POINT
  5
21F
330
216
100
AcDbEntity
  8
Defpoints
 62
     0
100
AcDbPoint
 10
352.174849
 20
377.508075
 30
0.0
  0
POINT
  5
220
330
216
100
AcDbEntity
  8
Defpoints
 62
     0
100
AcDbPoint
 10
302.674849
 20
369.508078
 30
0.0
  0
POINT
  5
221
330
216
100
AcDbEntity
  8
Defpoints
 62
     0
100
AcDbPoint
 10
302.674849
 20
401.2244149999999
 30
0.0
  0
ENDBLK
  5
218
330
216
100
AcDbEntity
  8
0
100
AcDbBlockEnd
  0
BLOCK
  5
229
330
222
100
AcDbEntity
  8
0
100
AcDbBlockBegin
  2
_U3
 70
     0
 10
0.0
 20
0.0
 30
0.0
  3
_U3
  1

  0
MTEXT
  5
223
330
222
100
AcDbEntity
  8
96
  6
Continuous
 62
    95
440
 16777216
370
    13
100
AcDbMText
 10
323.085349
 20
401.098582
 30
0.0
 40
3.5
 41
0.0
 71
     7
 72
     5
  1
\W0.8459;49,5
  7
cesky
 73
     2
 44
0.8433729999999998
  0
LINE
  5
224
330
222
100
AcDbEntity
  8
96
 62
    95
440
 16777216
370
    13
100
AcDbLine
 10
352.174849
 20
377.508075
 30
0.0
 11
352.174849
 21
402.2244149999999
 31
0.0
  0
LINE
  5
225
330
222
100
AcDbEntity
  8
96
 62
    95
440
 16777216
370
    13
100
AcDbLine
 10
302.674849
 20
369.508078
 30
0.0
 11
302.674849
 21
402.2244149999999
 31
0.0
  0
LINE
  5
226
330
222
100
AcDbEntity
  8
96
 62
    95
440
 16777216
370
    13
100
AcDbLine
 10
352.174849
 20
401.2244149999999
 30
0.0
 11
302.674849
 21
401.2244149999999
 31
0.0
  0
SOLID
  5
227
330
222
100
AcDbEntity
  8
96
 62
    95
440
 16777216
370
    13
100
AcDbTrace
 10
352.174849
 20
401.2244149999999
 30
0.0
 11
348.674851
 21
400.6072709999999
 31
0.0
 12
348.674846
 22
401.8415599999999
 32
0.0
 13
348.674846
 23
401.8415599999999
 33
0.0
  0
SOLID
  5
228
330
222
100
AcDbEntity
  8
96
 62
    95
440
 16777216
370
    13
100
AcDbTrace
 10
302.674849
 20
401.2244149999999
 30
0.0
 11
306.174846
 21
401.8415599999999
 31
0.0
 12
306.174851
 22
400.6072709999999
 32
0.0
 13
306.174851
 23
400.6072709999999
 33
0.0
  0
ENDBLK
  5
22A
330
222
100
AcDbEntity
  8
0
100
AcDbBlockEnd
  0
BLOCK
  5
22F
330
22E
100
AcDbEntity
  8
0
100
AcDbBlockBegin
  2
*D10
 70
     1
 10
0.0
 20
0.0
 30
0.0
  3
*D10
  1

  0
LINE
  5
231
330
22E
100
AcDbEntity
  8
0
 62
   254
370
    -2
100
AcDbLine
 10
352.174849
 20
377.508075
 30
0.0
 11
352.174849
 21
392.801684
 31
0.0
  0
LINE
  5
232
330
22E
100
AcDbEntity
  8
0
 62
   254
370
    -2
100
AcDbLine
 10
322.174849
 20
366.008075
 30
0.0
 11
322.174849
 21
392.801684
 31
0.0
  0
LINE
  5
233
330
22E
100
AcDbEntity
  8
0
 62
   254
370
    -2
100
AcDbLine
 10
348.674849
 20
391.801684
 30
0.0
 11
325.674849
 21
391.801684
 31
0.0
  0
SOLID
  5
234
330
22E
100
AcDbEntity
  8
0
 62
   254
100
AcDbTrace
 10
348.674849
 20
391.21835
 30
0.0
 11
348.674849
 21
392.385017
 31
0.0
 12
352.174849
 22
391.801684
 32
0.0
 13
352.174849
 23
391.801684
 33
0.0
  0
SOLID
  5
235
330
22E
100
AcDbEntity
  8
0
 62
   254
100
AcDbTrace
 10
325.674849
 20
392.385017
 30
0.0
 11
325.674849
 21
391.21835
 31
0.0
 12
322.174849
 22
391.801684
 32
0.0
 13
322.174849
 23
391.801684
 33
0.0
  0
MTEXT
  5
236
330
22E
100
AcDbEntity
  8
0
 62
   254
370
    13
100
AcDbMText
 10
337.174849
 20
397.051684
 30
0.0
 40
3.5
 41
0.0
 71
     5
 72
     1
  1
\A1;30
  7
cesky
 73
     1
 44
1.0
  0
POINT
  5
237
330
22E
100
AcDbEntity
  8
Defpoints
 62
     0
100
AcDbPoint
 10
352.174849
 20
377.508075
 30
0.0
  0
POINT
  5
238
330
22E
100
AcDbEntity
  8
Defpoints
 62
     0
100
AcDbPoint
 10
322.174849
 20
366.008075
 30
0.0
  0
POINT
  5
239
330
22E
100
AcDbEntity
  8
Defpoints
 62
     0
100
AcDbPoint
 10
322.174849
 20
391.801684
 30
0.0
  0
ENDBLK
  5
230
330
22E
100
AcDbEntity
  8
0
100
AcDbBlockEnd
  0
BLOCK
  5
241
330
23A
100
AcDbEntity
  8
0
100
AcDbBlockBegin
  2
_U4
 70
     0
 10
0.0
 20
0.0
 30
0.0
  3
_U4
  1

  0
MTEXT
  5
23B
330
23A
100
AcDbEntity
  8
96
  6
Continuous
 62
   254
440
 16777216
370
    13
100
AcDbMText
 10
335.3603490000001
 20
391.67585
 30
0.0
 40
3.5
 41
0.0
 71
     7
 72
     5
  1
\W0.7045;30
  7
cesky
 73
     2
 44
0.8433729999999998
  0
LINE
  5
23C
330
23A
100
AcDbEntity
  8
96
 62
   254
440
 16777216
370
    13
100
AcDbLine
 10
352.174849
 20
377.508075
 30
0.0
 11
352.174849
 21
392.801684
 31
0.0
  0
LINE
  5
23D
330
23A
100
AcDbEntity
  8
96
 62
   254
440
 16777216
370
    13
100
AcDbLine
 10
322.174849
 20
366.008075
 30
0.0
 11
322.174849
 21
392.801684
 31
0.0
  0
LINE
  5
23E
330
23A
100
AcDbEntity
  8
96
 62
   254
440
 16777216
370
    13
100
AcDbLine
 10
352.174849
 20
391.801684
 30
0.0
 11
322.174849
 21
391.801684
 31
0.0
  0
SOLID
  5
23F
330
23A
100
AcDbEntity
  8
96
 62
   254
440
 16777216
370
    13
100
AcDbTrace
 10
352.174849
 20
391.801684
 30
0.0
 11
348.674851
 21
391.184539
 31
0.0
 12
348.674846
 22
392.418828
 32
0.0
 13
348.674846
 23
392.418828
 33
0.0
  0
SOLID
  5
240
330
23A
100
AcDbEntity
  8
96
 62
   254
440
 16777216
370
    13
100
AcDbTrace
 10
322.174849
 20
391.801684
 30
0.0
 11
325.674846
 21
392.418828
 31
0.0
 12
325.674851
 22
391.184539
 32
0.0
 13
325.674851
 23
391.184539
 33
0.0
  0
ENDBLK
  5
242
330
23A
100
AcDbEntity
  8
0
100
AcDbBlockEnd
  0
BLOCK
  5
247
330
246
100
AcDbEntity
  8
0
100
AcDbBlockBegin
  2
*D12
 70
     1
 10
0.0
 20
0.0
 30
0.0
  3
*D12
  1

  0
LINE
  5
249
330
246
100
AcDbEntity
  8
0
 62
    95
370
    -2
100
AcDbLine
 10
304.174849
 20
371.008078
 30
0.0
 11
296.547184
 21
371.008078
 31
0.0
  0
LINE
  5
24A
330
246
100
AcDbEntity
  8
0
 62
    95
370
    -2
100
AcDbLine
 10
304.174849
 20
361.008078
 30
0.0
 11
296.547184
 21
361.008078
 31
0.0
  0
LINE
  5
24B
330
246
100
AcDbEntity
  8
0
 62
    95
370
    -2
100
AcDbLine
 10
297.5471839999999
 20
374.5080779999999
 30
0.0
 11
297.5471839999999
 21
378.008078
 31
0.0
  0
LINE
  5
24C
330
246
100
AcDbEntity
  8
0
 62
    95
370
    -2
100
AcDbLine
 10
297.5471839999999
 20
357.5080779999999
 30
0.0
 11
297.5471839999999
 21
354.008078
 31
0.0
  0
SOLID
  5
24D
330
246
100
AcDbEntity
  8
0
 62
    95
100
AcDbTrace
 10
296.963851
 20
374.5080779999999
 30
0.0
 11
298.130518
 21
374.5080779999999
 31
0.0
 12
297.5471839999999
 22
371.008078
 32
0.0
 13
297.5471839999999
 23
371.008078
 33
0.0
  0
SOLID
  5
24E
330
246
100
AcDbEntity
  8
0
 62
    95
100
AcDbTrace
 10
298.130518
 20
357.5080779999999
 30
0.0
 11
296.963851
 21
357.5080779999999
 31
0.0
 12
297.5471839999999
 22
361.008078
 32
0.0
 13
297.5471839999999
 23
361.008078
 33
0.0
  0
MTEXT
  5
24F
330
246
100
AcDbEntity
  8
0
 62
    95
370
    13
100
AcDbMText
 10
292.297184
 20
366.0080779999999
 30
0.0
 40
3.5
 41
0.0
 71
     5
 72
     1
  1
\A1;10
  7
cesky
 11
0.0
 21
1.0
 31
0.0
 73
     1
 44
1.0
  0
POINT
  5
250
330
246
100
AcDbEntity
  8
Defpoints
 62
     0
100
AcDbPoint
 10
304.174849
 20
371.008078
 30
0.0
  0
POINT
  5
251
330
246
100
AcDbEntity
  8
Defpoints
 62
     0
100
AcDbPoint
 10
304.174849
 20
361.008078
 30
0.0
  0
POINT
  5
252
330
246
100
AcDbEntity
  8
Defpoints
 62
     0
100
AcDbPoint
 10
297.5471839999999
 20
361.008078
 30
0.0
  0
ENDBLK
  5
248
330
246
100
AcDbEntity
  8
0
100
AcDbBlockEnd
  0
BLOCK
  5
25B
330
253
100
AcDbEntity
  8
0
100
AcDbBlockBegin
  2
_U5
 70
     0
 10
0.0
 20
0.0
 30
0.0
  3
_U5
  1

  0
MTEXT
  5
254
330
253
100
AcDbEntity
  8
96
  6
Continuous
 62
    95
440
 16777216
370
    13
100
AcDbMText
 10
298.016018
 20
362.553078
 30
0.0
 40
3.5
 41
0.0
 71
     7
 72
     5
  1
\W0.5332;M
  7
cesky
 11
0.0000000000000001
 21
1.0
 31
0.0
 73
     2
 44
0.8433729999999998
  0
MTEXT
  5
255
330
253
100
AcDbEntity
  8
96
  6
Continuous
 62
    95
440
 16777216
370
    13
100
AcDbMText
 10
298.016018
 20
365.778078
 30
0.0
 40
3.5
 41
0.0
 71
     7
 72
     5
  1
\W0.7984;10
  7
cesky
 11
0.0000000000000001
 21
1.0
 31
0.0
 73
     2
 44
0.8433729999999998
  0
LINE
  5
256
330
253
100
AcDbEntity
  8
96
 62
    95
440
 16777216
370
    13
100
AcDbLine
 10
304.174849
 20
371.008078
 30
0.0
 11
296.547184
 21
371.008078
 31
0.0
  0
LINE
  5
257
330
253
100
AcDbEntity
  8
96
 62
    95
440
 16777216
370
    13
100
AcDbLine
 10
304.174849
 20
361.008078
 30
0.0
 11
296.547184
 21
361.008078
 31
0.0
  0
LINE
  5
258
330
253
100
AcDbEntity
  8
96
 62
    95
440
 16777216
370
    13
100
AcDbLine
 10
297.5471839999999
 20
379.758078
 30
0.0
 11
297.5471839999999
 21
352.258078
 31
0.0
  0
SOLID
  5
259
330
253
100
AcDbEntity
  8
96
 62
    95
440
 16777216
370
    13
100
AcDbTrace
 10
297.5471839999999
 20
371.008078
 30
0.0
 11
296.93004
 21
374.508076
 31
0.0
 12
298.164329
 22
374.50808
 32
0.0
 13
298.164329
 23
374.50808
 33
0.0
  0
SOLID
  5
25A
330
253
100
AcDbEntity
  8
96
 62
    95
440
 16777216
370
    13
100
AcDbTrace
 10
297.5471839999999
 20
361.008078
 30
0.0
 11
298.164329
 21
357.50808
 31
0.0
 12
296.93004
 22
357.508076
 32
0.0
 13
296.93004
 23
357.508076
 33
0.0
  0
ENDBLK
  5
25C
330
253
100
AcDbEntity
  8
0
100
AcDbBlockEnd
  0
BLOCK
  5
317
330
315
100
AcDbEntity
  8
0
370
    13
100
AcDbBlockBegin
  2
GENAXEH
 70
     0
 10
0.0
 20
0.0
 30
0.0
  3
GENAXEH
  1

  0
LINE
  5
316
330
315
100
AcDbEntity
  8
0
100
AcDbLine
 10
-1.0
 20
0.0
 30
0.0
 11
1.0
 21
0.0
 31
0.0
  0
ENDBLK
  5
318
330
315
100
AcDbEntity
  8
0
370
    13
100
AcDbBlockEnd
  0
ENDSEC
  0
SECTION
  2
ENTITIES
  0
POINT
  5
73
102
{ACAD_REACTORS
330
37B
102
}
330
1F
100
AcDbEntity
  8
80
100
AcDbPoint
 10
322.174849
 20
366.008075
 30
0.0
  0
POINT
  5
75
330
1F
100
AcDbEntity
  8
SK6
 60
     1
100
AcDbPoint
 10
322.174849
 20
366.0080779999999
 30
0.0
  0
POINT
  5
77
330
1F
100
AcDbEntity
  8
SK6
 60
     1
100
AcDbPoint
 10
345.418208
 20
366.0080779999999
 30
0.0
  0
POINT
  5
78
330
1F
100
AcDbEntity
  8
SK6
 60
     1
100
AcDbPoint
 10
322.674849
 20
366.0080779999999
 30
0.0
  0
POINT
  5
79
330
1F
100
AcDbEntity
  8
SK6
 60
     1
100
AcDbPoint
 10
302.674849
 20
366.0080779999999
 30
0.0
  0
LINE
  5
7A
330
1F
100
AcDbEntity
  8
1
100
AcDbLine
 10
333.928844
 20
372.353152
 30
0.0
 11
334.015287
 21
372.173754
 31
0.0
  0
LINE
  5
7C
330
1F
100
AcDbEntity
  8
1
100
AcDbLine
 10
333.253397
 20
375.074784
 30
0.0
 11
333.237171
 21
375.041109
 31
0.0
  0
LINE
  5
7D
330
1F
100
AcDbEntity
  8
1
100
AcDbLine
 10
350.889764
 20
365.669652
 30
0.0
 11
341.60409
 21
366.73839
 31
0.0
  0
LINE
  5
7E
330
1F
100
AcDbEntity
  8
1
100
AcDbLine
 10
324.174849
 20
358.830638
 30
0.0
 11
324.174849
 21
357.108078
 31
0.0
  0
LINE
  5
80
330
1F
100
AcDbEntity
  8
1
100
AcDbLine
 10
330.774849
 20
358.004044
 30
0.0
 11
327.174849
 21
358.004044
 31
0.0
  0
LINE
  5
81
330
1F
100
AcDbEntity
  8
1
100
AcDbLine
 10
327.174849
 20
358.004044
 30
0.0
 11
327.174849
 21
356.808078
 31
0.0
  0
LINE
  5
82
330
1F
100
AcDbEntity
  8
1
100
AcDbLine
 10
332.497585
 20
356.829337
 30
0.0
 11
331.65732
 21
356.829337
 31
0.0
  0
LINE
  5
83
330
1F
100
AcDbEntity
  8
1
100
AcDbLine
 10
332.82442
 20
375.208078
 30
0.0
 11
330.795023
 21
375.208078
 31
0.0
  0
LINE
  5
84
330
1F
100
AcDbEntity
  8
1
100
AcDbLine
 10
329.310785
 20
375.208078
 30
0.0
 11
327.174849
 21
375.208078
 31
0.0
  0
LINE
  5
85
330
1F
100
AcDbEntity
  8
1
100
AcDbLine
 10
327.174849
 20
356.808078
 30
0.0
 11
330.697611
 21
356.808078
 31
0.0
  0
LINE
  5
86
330
1F
100
AcDbEntity
  8
1
100
AcDbLine
 10
350.694849
 20
365.692082
 30
0.0
 11
350.694849
 21
365.416548
 31
0.0
  0
LINE
  5
87
330
1F
100
AcDbEntity
  8
1
100
AcDbLine
 10
345.332535
 20
366.242623
 30
0.0
 11
345.431368
 21
366.231248
 31
0.0
  0
LINE
  5
88
330
1F
100
AcDbEntity
  8
1
100
AcDbLine
 10
324.174849
 20
357.108078
 30
0.0
 11
327.174849
 21
356.808078
 31
0.0
  0
LINE
  5
89
330
1F
100
AcDbEntity
  8
1
100
AcDbLine
 10
350.694849
 20
365.416542
 30
0.0
 11
350.694849
 21
363.937508
 31
0.0
  0
LINE
  5
8A
330
1F
100
AcDbEntity
  8
1
100
AcDbLine
 10
349.02684
 20
363.464751
 30
0.0
 11
348.033302
 21
360.271513
 31
0.0
  0
LINE
  5
8B
330
1F
100
AcDbEntity
  8
1
100
AcDbLine
 10
349.869698
 20
363.347675
 30
0.0
 11
349.02684
 21
363.464751
 31
0.0
  0
LINE
  5
8C
330
1F
100
AcDbEntity
  8
1
100
AcDbLine
 10
350.565801
 20
363.433104
 30
0.0
 11
349.869698
 21
363.347675
 31
0.0
  0
LINE
  5
8D
330
1F
100
AcDbEntity
  8
1
100
AcDbLine
 10
347.6273799999999
 20
359.715428
 30
0.0
 11
347.6273799999999
 21
360.095549
 31
0.0
  0
LINE
  5
8E
330
1F
100
AcDbEntity
  8
1
100
AcDbLine
 10
327.174849
 20
375.208078
 30
0.0
 11
324.174849
 21
374.908078
 31
0.0
  0
LINE
  5
8F
330
1F
100
AcDbEntity
  8
1
100
AcDbLine
 10
349.56301
 20
363.195833
 30
0.0
 11
348.980668
 21
363.316498
 31
0.0
  0
LINE
  5
90
330
1F
100
AcDbEntity
  8
1
100
AcDbLine
 10
351.026898
 20
363.560191
 30
0.0
 11
350.664932
 21
363.635192
 31
0.0
  0
LINE
  5
91
330
1F
100
AcDbEntity
  8
1
100
AcDbLine
 10
348.066042
 20
360.376737
 30
0.0
 11
348.212059
 21
360.544129
 31
0.0
  0
LINE
  5
92
330
1F
100
AcDbEntity
  8
1
100
AcDbLine
 10
348.312988
 20
360.725027
 30
0.0
 11
348.798332
 21
362.284927
 31
0.0
  0
LINE
  5
93
330
1F
100
AcDbEntity
  8
1
100
AcDbLine
 10
324.174849
 20
358.830638
 30
0.0
 11
324.174849
 21
368.12362
 31
0.0
  0
LINE
  5
94
330
1F
100
AcDbEntity
  8
1
100
AcDbLine
 10
333.627094
 20
371.798621
 30
0.0
 11
333.236658
 21
374.440884
 31
0.0
  0
LINE
  5
95
330
1F
100
AcDbEntity
  8
1
100
AcDbLine
 10
327.174849
 20
369.22383
 30
0.0
 11
330.774849
 21
369.22383
 31
0.0
  0
LINE
  5
96
330
1F
100
AcDbEntity
  8
1
100
AcDbLine
 10
331.174849
 20
368.613732
 30
0.0
 11
331.174849
 21
358.340526
 31
0.0
  0
LINE
  5
97
330
1F
100
AcDbEntity
  8
1
100
AcDbLine
 10
333.5579
 20
356.840335
 30
0.0
 11
333.5579
 21
370.1841359999999
 31
0.0
  0
LINE
  5
98
330
1F
100
AcDbEntity
  8
1
100
AcDbLine
 10
343.460591
 20
371.24689
 30
0.0
 11
343.216896
 21
371.24689
 31
0.0
  0
LINE
  5
9A
330
1F
100
AcDbEntity
  8
1
100
AcDbLine
 10
343.011341
 20
371.868689
 30
0.0
 11
343.257649
 21
371.868689
 31
0.0
  0
LINE
  5
9B
330
1F
100
AcDbEntity
  8
1
100
AcDbLine
 10
342.603225
 20
370.232812
 30
0.0
 11
342.349451
 21
370.232812
 31
0.0
  0
LINE
  5
9C
330
1F
100
AcDbEntity
  8
1
100
AcDbLine
 10
341.576581
 20
372.281542
 30
0.0
 11
341.830356
 21
372.281542
 31
0.0
  0
LINE
  5
9D
330
1F
100
AcDbEntity
  8
1
100
AcDbLine
 10
341.175932
 20
370.645666
 30
0.0
 11
341.036484
 21
370.645666
 31
0.0
  0
LINE
  5
9E
330
1F
100
AcDbEntity
  8
1
100
AcDbLine
 10
350.694849
 20
363.937508
 30
0.0
 11
350.694849
 21
363.746772
 31
0.0
  0
LINE
  5
9F
330
1F
100
AcDbEntity
  8
1
100
AcDbLine
 10
332.471385
 20
356.639441
 30
0.0
 11
332.274008
 21
356.66119
 31
0.0
  0
LINE
  5
A0
330
1F
100
AcDbEntity
  8
1
100
AcDbLine
 10
332.642664
 20
356.626294
 30
0.0
 11
341.978663
 21
356.206866
 31
0.0
  0
LINE
  5
A1
330
1F
100
AcDbEntity
  8
1
100
AcDbLine
 10
333.796229
 20
357.083733
 30
0.0
 11
341.415291
 21
356.741439
 31
0.0
  0
LINE
  5
A2
330
1F
100
AcDbEntity
  8
1
100
AcDbLine
 10
349.061003
 20
360.517355
 30
0.0
 11
349.777607
 21
362.820525
 31
0.0
  0
LINE
  5
A3
330
1F
100
AcDbEntity
  8
SK1
100
AcDbLine
 10
316.174849
 20
361.219958
 30
0.0
 11
316.974849
 21
360.758078
 31
0.0
  0
LINE
  5
A4
330
1F
100
AcDbEntity
  8
SK1
100
AcDbLine
 10
316.974849
 20
371.258078
 30
0.0
 11
316.174849
 21
370.796198
 31
0.0
  0
LINE
  5
A5
330
1F
100
AcDbEntity
  8
SK1
100
AcDbLine
 10
316.974849
 20
360.758078
 30
0.0
 11
316.974849
 21
366.0080779999999
 31
0.0
  0
LINE
  5
A6
330
1F
100
AcDbEntity
  8
SK1
100
AcDbLine
 10
316.974849
 20
366.0080779999999
 30
0.0
 11
316.974849
 21
371.258078
 31
0.0
  0
LINE
  5
A7
330
1F
100
AcDbEntity
  8
SK1
100
AcDbLine
 10
320.174849
 20
360.758078
 30
0.0
 11
320.174849
 21
366.0080779999999
 31
0.0
  0
LINE
  5
A8
330
1F
100
AcDbEntity
  8
SK1
100
AcDbLine
 10
320.174849
 20
366.0080779999999
 30
0.0
 11
320.174849
 21
371.258078
 31
0.0
  0
LINE
  5
A9
330
1F
100
AcDbEntity
  8
SK1
100
AcDbLine
 10
316.974849
 20
360.758078
 30
0.0
 11
320.174849
 21
360.758078
 31
0.0
  0
LINE
  5
AA
330
1F
100
AcDbEntity
  8
SK1
100
AcDbLine
 10
320.174849
 20
371.258078
 30
0.0
 11
316.974849
 21
371.258078
 31
0.0
  0
LINE
  5
AB
330
1F
100
AcDbEntity
  8
SK1
100
AcDbLine
 10
313.782028
 20
361.820078
 30
0.0
 11
315.774849
 21
361.820078
 31
0.0
  0
LINE
  5
AC
330
1F
100
AcDbEntity
  8
SK1
100
AcDbLine
 10
315.774849
 20
370.196078
 30
0.0
 11
313.782028
 21
370.196078
 31
0.0
  0
LINE
  5
AD
330
1F
100
AcDbEntity
  8
SK1
100
AcDbLine
 10
313.582028
 20
370.249668
 30
0.0
 11
312.268423
 21
371.008078
 31
0.0
  0
LINE
  5
AE
330
1F
100
AcDbEntity
  8
SK1
100
AcDbLine
 10
312.268423
 20
361.008078
 30
0.0
 11
313.582028
 21
361.766488
 31
0.0
  0
LINE
  5
AF
330
1F
100
AcDbEntity
  8
SK1
100
AcDbLine
 10
302.674849
 20
362.508078
 30
0.0
 11
302.674849
 21
366.0080779999999
 31
0.0
  0
LINE
  5
B0
330
1F
100
AcDbEntity
  8
SK1
100
AcDbLine
 10
302.674849
 20
366.0080779999999
 30
0.0
 11
302.674849
 21
369.508078
 31
0.0
  0
LINE
  5
B1
330
1F
100
AcDbEntity
  8
SK1
100
AcDbLine
 10
302.674849
 20
362.508078
 30
0.0
 11
304.174849
 21
361.008078
 31
0.0
  0
LINE
  5
B2
330
1F
100
AcDbEntity
  8
SK1
100
AcDbLine
 10
304.174849
 20
371.008078
 30
0.0
 11
302.674849
 21
369.508078
 31
0.0
  0
LINE
  5
B3
330
1F
100
AcDbEntity
  8
SK1
100
AcDbLine
 10
304.174849
 20
361.008078
 30
0.0
 11
304.174849
 21
366.0080779999999
 31
0.0
  0
LINE
  5
B4
330
1F
100
AcDbEntity
  8
SK1
100
AcDbLine
 10
304.174849
 20
366.0080779999999
 30
0.0
 11
304.174849
 21
371.008078
 31
0.0
  0
LINE
  5
B5
330
1F
100
AcDbEntity
  8
SK1
100
AcDbLine
 10
312.268423
 20
361.008078
 30
0.0
 11
312.268423
 21
366.0080779999999
 31
0.0
  0
LINE
  5
B6
330
1F
100
AcDbEntity
  8
SK1
100
AcDbLine
 10
312.268423
 20
366.0080779999999
 30
0.0
 11
312.268423
 21
371.008078
 31
0.0
  0
LINE
  5
B7
330
1F
100
AcDbEntity
  8
SK1
100
AcDbLine
 10
304.174849
 20
361.008078
 30
0.0
 11
312.268423
 21
361.008078
 31
0.0
  0
LINE
  5
B8
330
1F
100
AcDbEntity
  8
SK1
100
AcDbLine
 10
312.268423
 20
371.008078
 30
0.0
 11
304.174849
 21
371.008078
 31
0.0
  0
LINE
  5
B9
330
1F
100
AcDbEntity
  8
SK1
100
AcDbLine
 10
320.97392
 20
360.958078
 30
0.0
 11
321.814701
 21
360.958078
 31
0.0
  0
LINE
  5
BA
330
1F
100
AcDbEntity
  8
SK1
100
AcDbLine
 10
321.814701
 20
371.058078
 30
0.0
 11
320.97392
 21
371.058078
 31
0.0
  0
LINE
  5
BB
330
1F
100
AcDbEntity
  8
SK1
100
AcDbLine
 10
320.870392
 20
371.071708
 30
0.0
 11
320.174849
 21
371.258078
 31
0.0
  0
LINE
  5
BC
330
1F
100
AcDbEntity
  8
SK1
100
AcDbLine
 10
320.174849
 20
360.758078
 30
0.0
 11
320.870392
 21
360.944448
 31
0.0
  0
LINE
  5
BD
330
1F
100
AcDbEntity
  8
SK1
100
AcDbLine
 10
316.174849
 20
361.219958
 30
0.0
 11
316.174849
 21
366.0080779999999
 31
0.0
  0
LINE
  5
BE
330
1F
100
AcDbEntity
  8
SK1
100
AcDbLine
 10
316.174849
 20
366.0080779999999
 30
0.0
 11
316.174849
 21
370.796198
 31
0.0
  0
LINE
  5
BF
330
1F
100
AcDbEntity
  8
1
100
AcDbLine
 10
322.174849
 20
374.408078
 30
0.0
 11
322.174849
 21
366.0080779999999
 31
0.0
  0
LINE
  5
C0
330
1F
100
AcDbEntity
  8
1
100
AcDbLine
 10
322.174849
 20
366.0080779999999
 30
0.0
 11
322.174849
 21
357.608078
 31
0.0
  0
LINE
  5
C1
330
1F
100
AcDbEntity
  8
1
100
AcDbLine
 10
322.174849
 20
357.608078
 30
0.0
 11
322.674849
 21
357.108078
 31
0.0
  0
LINE
  5
C2
330
1F
100
AcDbEntity
  8
1
100
AcDbLine
 10
322.674849
 20
374.908078
 30
0.0
 11
322.174849
 21
374.408078
 31
0.0
  0
LINE
  5
C3
330
1F
100
AcDbEntity
  8
1
100
AcDbLine
 10
322.674849
 20
357.108078
 30
0.0
 11
322.674849
 21
366.0080779999999
 31
0.0
  0
LINE
  5
C4
330
1F
100
AcDbEntity
  8
1
100
AcDbLine
 10
322.674849
 20
366.0080779999999
 30
0.0
 11
322.674849
 21
374.908078
 31
0.0
  0
LINE
  5
C5
330
1F
100
AcDbEntity
  8
1
100
AcDbLine
 10
324.174849
 20
368.12362
 30
0.0
 11
324.174849
 21
374.908078
 31
0.0
  0
LINE
  5
C6
330
1F
100
AcDbEntity
  8
1
100
AcDbLine
 10
322.674849
 20
357.108078
 30
0.0
 11
324.174849
 21
357.108078
 31
0.0
  0
LINE
  5
C7
330
1F
100
AcDbEntity
  8
1
100
AcDbLine
 10
324.174849
 20
374.908078
 30
0.0
 11
322.674849
 21
374.908078
 31
0.0
  0
LINE
  5
C8
330
1F
100
AcDbEntity
  8
1
100
AcDbLine
 10
327.174849
 20
369.22383
 30
0.0
 11
327.174849
 21
375.208078
 31
0.0
  0
LINE
  5
CD
330
1F
100
AcDbEntity
  8
1
100
AcDbLine
 10
333.800091
 20
375.438474
 30
0.0
 11
341.978795
 21
375.80591
 31
0.0
  0
LINE
  5
CE
330
1F
100
AcDbEntity
  8
1
100
AcDbLine
 10
341.365783
 20
362.505598
 30
0.0
 11
340.653825
 21
362.505598
 31
0.0
  0
LINE
  5
CF
330
1F
100
AcDbEntity
  8
1
100
AcDbLine
 10
351.048475
 20
365.656428
 30
0.0
 11
351.217276
 21
365.648913
 31
0.0
  0
LINE
  5
D0
330
1F
100
AcDbEntity
  8
80
100
AcDbLine
 10
322.174849
 20
366.008075
 30
0.0
 11
322.174849
 21
365.008075
 31
0.0
  0
LINE
  5
D1
330
1F
100
AcDbEntity
  8
81
100
AcDbLine
 10
352.174849
 20
374.508075
 30
0.0
 11
352.174849
 21
377.508075
 31
0.0
  0
LINE
  5
D2
330
1F
100
AcDbEntity
  8
80
100
AcDbLine
 10
322.174849
 20
366.008075
 30
0.0
 11
323.174849
 21
366.008075
 31
0.0
  0
LINE
  5
D3
330
1F
100
AcDbEntity
  8
81
100
AcDbLine
 10
350.674849
 20
376.008075
 30
0.0
 11
353.674849
 21
376.008075
 31
0.0
  0
LINE
  5
D4
330
1F
100
AcDbEntity
  8
1
100
AcDbLine
 10
345.462317
 20
358.184867
 30
0.0
 11
345.462317
 21
366.128563
 31
0.0
  0
LINE
  5
D5
330
1F
100
AcDbEntity
  8
1
100
AcDbLine
 10
345.418208
 20
358.263414
 30
0.0
 11
345.418208
 21
366.131982
 31
0.0
  0
LINE
  5
D6
330
1F
100
AcDbEntity
  8
1
100
AcDbLine
 10
347.893319
 20
365.826059
 30
0.0
 11
350.694849
 21
365.416542
 31
0.0
  0
LINE
  5
D7
330
1F
100
AcDbEntity
  8
1
100
AcDbLine
 10
334.375926
 20
357.676084
 30
0.0
 11
334.375926
 21
369.26419
 31
0.0
  0
LINE
  5
D8
330
1F
100
AcDbEntity
  8
1
100
AcDbLine
 10
342.060507
 20
368.857177
 30
0.0
 11
342.162893
 21
368.857177
 31
0.0
  0
LINE
  5
D9
330
1F
100
AcDbEntity
  8
1
100
AcDbLine
 10
342.162893
 20
373.657177
 30
0.0
 11
342.060507
 21
373.657177
 31
0.0
  0
LINE
  5
DA
330
1F
100
AcDbEntity
  8
1
100
AcDbLine
 10
347.6273799999999
 20
365.613345
 30
0.0
 11
347.6273799999999
 21
365.862273
 31
0.0
  0
LINE
  5
DB
330
1F
100
AcDbEntity
  8
NOCUT
100
AcDbLine
 10
325.0408740000001
 20
366.0080779999999
 30
0.0
 11
350.694849
 21
366.0080779999999
 31
0.0
  0
LINE
  5
DD
330
1F
100
AcDbEntity
  8
NOCUT
100
AcDbLine
 10
312.268423
 20
371.008078
 30
0.0
 11
313.582028
 21
370.249668
 31
0.0
  0
LINE
  5
DE
330
1F
100
AcDbEntity
  8
NOCUT
100
AcDbLine
 10
316.174849
 20
370.796198
 30
0.0
 11
316.974849
 21
371.258078
 31
0.0
  0
LINE
  5
DF
330
1F
100
AcDbEntity
  8
NOCUT
100
AcDbLine
 10
322.210808
 20
371.513747
 30
0.0
 11
322.174849
 21
371.769615
 31
0.0
  0
LINE
  5
E0
330
1F
100
AcDbEntity
  8
NOCUT
100
AcDbLine
 10
322.174849
 20
374.408078
 30
0.0
 11
322.674849
 21
374.908078
 31
0.0
  0
LINE
  5
E1
330
1F
100
AcDbEntity
  8
NOCUT
100
AcDbLine
 10
324.174849
 20
374.908078
 30
0.0
 11
327.174849
 21
375.208078
 31
0.0
  0
LINE
  5
E2
330
1F
100
AcDbEntity
  8
NOCUT
100
AcDbLine
 10
327.174849
 20
375.208078
 30
0.0
 11
333.5579
 21
375.208078
 31
0.0
  0
LINE
  5
E3
330
1F
100
AcDbEntity
  8
NOCUT
100
AcDbLine
 10
334.375926
 20
374.390051
 30
0.0
 11
341.474016
 21
374.886398
 31
0.0
  0
LINE
  5
E4
330
1F
100
AcDbEntity
  8
NOCUT
100
AcDbLine
 10
345.418208
 20
374.264305
 30
0.0
 11
345.462317
 21
374.340704
 31
0.0
  0
LINE
  5
E5
330
1F
100
AcDbEntity
  8
NOCUT
100
AcDbLine
 10
345.462317
 20
374.340704
 30
0.0
 11
347.6273799999999
 21
373.090704
 31
0.0
  0
LINE
  5
E6
330
1F
100
AcDbEntity
  8
NOCUT
100
AcDbLine
 10
347.6273799999999
 20
373.090704
 30
0.0
 11
347.583271
 21
373.014305
 31
0.0
  0
LINE
  5
E7
330
1F
100
AcDbEntity
  8
NOCUT
100
AcDbLine
 10
325.0408740000001
 20
366.0080779999999
 30
0.0
 11
324.174849
 21
367.508078
 31
0.0
  0
LINE
  5
E8
330
1F
100
AcDbEntity
  8
NOCUT
100
AcDbLine
 10
324.174849
 20
367.508078
 30
0.0
 11
304.406899
 21
367.508078
 31
0.0
  0
LINE
  5
E9
330
1F
100
AcDbEntity
  8
NOCUT
100
AcDbLine
 10
304.406899
 20
367.508078
 30
0.0
 11
302.674849
 21
368.508078
 31
0.0
  0
LINE
  5
EA
330
1F
100
AcDbEntity
  8
NOCUT
100
AcDbLine
 10
302.674849
 20
368.508078
 30
0.0
 11
302.674849
 21
369.508078
 31
0.0
  0
LINE
  5
EB
330
1F
100
AcDbEntity
  8
NOCUT
100
AcDbLine
 10
302.674849
 20
369.508078
 30
0.0
 11
304.174849
 21
371.008078
 31
0.0
  0
LINE
  5
EC
330
1F
100
AcDbEntity
  8
NOCUT
100
AcDbLine
 10
304.174849
 20
371.008078
 30
0.0
 11
312.268423
 21
371.008078
 31
0.0
  0
LINE
  5
ED
330
1F
100
AcDbEntity
  8
NOCUT
100
AcDbLine
 10
313.782028
 20
370.196078
 30
0.0
 11
315.774849
 21
370.196078
 31
0.0
  0
LINE
  5
EE
330
1F
100
AcDbEntity
  8
NOCUT
100
AcDbLine
 10
316.174849
 20
370.596078
 30
0.0
 11
316.174849
 21
370.796198
 31
0.0
  0
LINE
  5
EF
330
1F
100
AcDbEntity
  8
NOCUT
100
AcDbLine
 10
316.974849
 20
371.258078
 30
0.0
 11
320.174849
 21
371.258078
 31
0.0
  0
LINE
  5
F0
330
1F
100
AcDbEntity
  8
NOCUT
100
AcDbLine
 10
320.174849
 20
371.258078
 30
0.0
 11
320.870392
 21
371.071708
 31
0.0
  0
LINE
  5
F1
330
1F
100
AcDbEntity
  8
NOCUT
100
AcDbLine
 10
320.97392
 20
371.058078
 30
0.0
 11
321.814701
 21
371.058078
 31
0.0
  0
LINE
  5
F2
330
1F
100
AcDbEntity
  8
NOCUT
100
AcDbLine
 10
322.174849
 20
371.769615
 30
0.0
 11
322.174849
 21
374.408078
 31
0.0
  0
LINE
  5
F3
330
1F
100
AcDbEntity
  8
NOCUT
100
AcDbLine
 10
322.674849
 20
374.908078
 30
0.0
 11
324.174849
 21
374.908078
 31
0.0
  0
LINE
  5
F4
330
1F
100
AcDbEntity
  8
NOCUT
100
AcDbLine
 10
333.5579
 20
375.208078
 30
0.0
 11
334.375926
 21
374.390051
 31
0.0
  0
LINE
  5
F5
330
1F
100
AcDbEntity
  8
NOCUT
100
AcDbLine
 10
350.694849
 20
368.299366
 30
0.0
 11
350.694849
 21
366.0080779999999
 31
0.0
  0
ARC
  5
103
330
1F
100
AcDbEntity
  8
SK1
100
AcDbCircle
 10
321.814701
 20
360.558078
 30
0.0
 40
0.4
100
AcDbArc
 50
25.794779
 51
90.0
  0
ARC
  5
104
330
1F
100
AcDbEntity
  8
SK1
100
AcDbCircle
 10
321.814701
 20
371.458078
 30
0.0
 40
0.4
100
AcDbArc
 50
270.0
 51
334.205221
  0
ARC
  5
105
330
1F
100
AcDbEntity
  8
SK1
100
AcDbCircle
 10
313.782028
 20
361.420078
 30
0.0
 40
0.4
100
AcDbArc
 50
90.0
 51
120.0
  0
ARC
  5
106
330
1F
100
AcDbEntity
  8
SK1
100
AcDbCircle
 10
313.782028
 20
370.596078
 30
0.0
 40
0.4
100
AcDbArc
 50
240.0
 51
270.0
  0
ARC
  5
107
330
1F
100
AcDbEntity
  8
SK1
100
AcDbCircle
 10
315.774849
 20
370.596078
 30
0.0
 40
0.4
100
AcDbArc
 50
270.0
 51
0.0
  0
ARC
  5
108
330
1F
100
AcDbEntity
  8
SK1
100
AcDbCircle
 10
315.774849
 20
361.420078
 30
0.0
 40
0.4
100
AcDbArc
 50
0.0
 51
90.0
  0
ARC
  5
109
330
1F
100
AcDbEntity
  8
SK1
100
AcDbCircle
 10
320.97392
 20
360.558078
 30
0.0
 40
0.4
100
AcDbArc
 50
90.0
 51
105.0
  0
ARC
  5
10A
330
1F
100
AcDbEntity
  8
SK1
100
AcDbCircle
 10
320.97392
 20
371.458078
 30
0.0
 40
0.4
100
AcDbArc
 50
255.0
 51
270.0
  0
ARC
  5
115
330
1F
100
AcDbEntity
  8
NOCUT
100
AcDbCircle
 10
315.774849
 20
370.596078
 30
0.0
 40
0.4
100
AcDbArc
 50
270.0
 51
360.0
  0
ARC
  5
116
330
1F
100
AcDbEntity
  8
NOCUT
100
AcDbCircle
 10
321.814701
 20
371.458078
 30
0.0
 40
0.4
100
AcDbArc
 50
270.0
 51
8.0
  0
ARC
  5
117
330
1F
100
AcDbEntity
  8
NOCUT
100
AcDbCircle
 10
342.094849
 20
366.0080779999999
 30
0.0
 40
8.9
100
AcDbArc
 50
68.073854
 51
94.0
  0
ARC
  5
118
330
1F
100
AcDbEntity
  8
NOCUT
100
AcDbCircle
 10
342.094849
 20
366.0080779999999
 30
0.0
 40
8.9
100
AcDbArc
 50
14.918694
 51
51.926146
  0
ARC
  5
119
330
1F
100
AcDbEntity
  8
NOCUT
100
AcDbCircle
 10
313.782028
 20
370.596078
 30
0.0
 40
0.4
100
AcDbArc
 50
240.0
 51
270.0
  0
ARC
  5
11A
330
1F
100
AcDbEntity
  8
NOCUT
100
AcDbCircle
 10
320.97392
 20
371.458078
 30
0.0
 40
0.4
100
AcDbArc
 50
255.0
 51
270.0
  0
ELLIPSE
  5
11B
330
1F
100
AcDbEntity
  8
1
100
AcDbEllipse
 10
342.125471
 20
371.257177
 30
0.0
 11
0.0000000000000002
 21
2.713985362388701
 31
0.0
210
0.0
220
0.0
230
1.0
 40
0.9848079999999999
 41
0.0
 42
6.283185307179585
  0
ELLIPSE
  5
11C
330
1F
100
AcDbEntity
  8
1
100
AcDbEllipse
 10
336.501253
 20
376.046573
 30
0.0
 11
-0.4795512482001233
 21
6.118366108589673
 31
0.0
210
0.0
220
0.0
230
1.0
 40
0.5644960000000001
 41
1.751113436051991
 42
2.173923094483825
  0
ELLIPSE
  5
11D
330
1F
100
AcDbEntity
  8
1
100
AcDbEllipse
 10
333.384542
 20
374.763303
 30
0.0
 11
-0.0282483435983236
 21
0.3604071691605761
 31
0.0
210
0.0
220
0.0
230
1.0
 40
0.5644960000000001
 41
1.632315382514233
 42
1.751113435938104
  0
ELLIPSE
  5
11E
330
1F
100
AcDbEntity
  8
1
100
AcDbEllipse
 10
342.692016
 20
376.484667
 30
0.0
 11
-0.0000000000000006
 21
-9.808685220001587
 31
0.0
210
0.0
220
0.0
230
1.0
 40
0.9848079999999999
 41
4.898594246253487
 42
6.170320225511602
  0
ELLIPSE
  5
11F
330
1F
100
AcDbEntity
  8
1
100
AcDbEllipse
 10
332.443681
 20
357.450953
 30
0.0
 11
-0.7986999435150818
 21
-0.3499090488429093
 31
0.0
210
0.0
220
0.0
230
0.9999999999999998
 40
0.89402
 41
0.4417831286910481
 42
0.9983739002944291
  0
ELLIPSE
  5
120
330
1F
100
AcDbEntity
  8
1
100
AcDbEllipse
 10
341.011203
 20
366.0080779999999
 30
0.0
 11
0.0000000000000004
 21
6.345597464944173
 31
0.0
210
0.0
220
0.0
230
0.9999999999999998
 40
0.9848079999999999
 41
3.242847639124966
 42
3.317269413765759
  0
ELLIPSE
  5
121
330
1F
100
AcDbEntity
  8
1
100
AcDbEllipse
 10
341.705796
 20
366.0080779999999
 30
0.0
 11
0.0000000000000005
 21
8.613380311504011
 31
0.0
210
0.0
220
0.0
230
1.0
 40
0.9848080000000001
 41
3.114264825317328
 42
3.594580682214421
  0
ELLIPSE
  5
122
330
1F
100
AcDbEntity
  8
1
100
AcDbEllipse
 10
329.192526
 20
366.008087
 30
0.0
 11
-52.17581850699358
 21
0.0000007072124098
 31
0.0
210
0.0
220
0.0
230
1.0
 40
0.176327
 41
1.637375008547204
 42
1.654560857027997
  0
ELLIPSE
  5
123
330
1F
100
AcDbEntity
  8
1
100
AcDbEllipse
 10
350.595132
 20
366.0080779999999
 30
0.0
 11
-53.96865854517456
 21
0.0000000000000665
 31
0.0
210
0.0
220
0.0
230
1.0
 40
0.161869
 41
1.26554794006442
 42
1.400973579971928
  0
ELLIPSE
  5
124
330
1F
100
AcDbEntity
  8
1
100
AcDbEllipse
 10
323.261247
 20
366.008061
 30
0.0
 11
-43.12864950416952
 21
-0.0000067120382749
 31
0.0
210
0.0
220
0.0
230
1.0
 40
0.161868
 41
1.957416026519499
 42
1.968225921900661
  0
ELLIPSE
  5
125
330
1F
100
AcDbEntity
  8
1
100
AcDbEllipse
 10
345.665279
 20
369.223535
 30
0.0
 11
0.0000000000000002
 21
3.0
 31
0.0
210
0.0
220
0.0
230
1.0
 40
0.9848079999999999
 41
2.81823731712736
 42
3.028727571921812
  0
ELLIPSE
  5
126
330
1F
100
AcDbEntity
  8
1
100
AcDbEllipse
 10
342.381544
 20
376.508459
 30
0.0
 11
-0.0000000000000006
 21
-9.713654555806872
 31
0.0
210
0.0
220
0.0
230
1.0
 40
0.9848080000000001
 41
5.623780386182852
 42
5.918040868216674
  0
ELLIPSE
  5
127
330
1F
100
AcDbEntity
  8
1
100
AcDbEllipse
 10
336.950316
 20
371.79935
 30
0.0
 11
-0.0000000000000002
 21
-3.0
 31
0.0
210
0.0
220
0.0
230
1.0
 40
0.9848079999999999
 41
5.189064456373551
 42
6.137327233595427
  0
ELLIPSE
  5
128
330
1F
100
AcDbEntity
  8
1
100
AcDbEllipse
 10
335.97429
 20
372.156239
 30
0.0
 11
0.0000000000000001
 21
2.4100847314039
 31
0.0
210
0.0
220
0.0
230
1.0
 40
0.9848080000000001
 41
1.719730632926063
 42
2.373470523747345
  0
ELLIPSE
  5
129
330
1F
100
AcDbEntity
  8
1
100
AcDbEllipse
 10
345.764111
 20
369.21216
 30
0.0
 11
0.0000000000000002
 21
3.0
 31
0.0
210
0.0
220
0.0
230
1.0
 40
0.9848079999999999
 41
3.028727571921816
 42
3.239217666028746
  0
ELLIPSE
  5
12A
330
1F
100
AcDbEntity
  8
1
100
AcDbEllipse
 10
341.705796
 20
366.0080779999999
 30
0.0
 11
0.0000000000000005
 21
8.613380311504011
 31
0.0
210
0.0
220
0.0
230
1.0
 40
0.9848080000000001
 41
3.914322832184261
 42
3.983547036434708
  0
ELLIPSE
  5
12B
330
1F
100
AcDbEntity
  8
1
100
AcDbEllipse
 10
341.274958
 20
361.153352
 30
0.0
 11
0.0000000000000001
 21
1.75
 31
0.0
210
0.0
220
0.0
230
1.0
 40
0.9848079999999999
 41
0.1705297889392149
 42
0.7773479676422392
  0
ELLIPSE
  5
12C
330
1F
100
AcDbEntity
  8
1
100
AcDbEllipse
 10
340.690287
 20
361.153352
 30
0.0
 11
0.0000000000000001
 21
1.75
 31
0.0
210
0.0
220
0.0
230
1.0
 40
0.9848079999999999
 41
5.264439954761348
 42
8.983466693194497
  0
ELLIPSE
  5
12D
330
1F
100
AcDbEntity
  8
1
100
AcDbEllipse
 10
340.690287
 20
361.153352
 30
0.0
 11
0.0000000000000001
 21
1.75
 31
0.0
210
0.0
220
0.0
230
1.0
 40
0.9848079999999999
 41
3.727240223841262
 42
5.231999218855071
  0
ELLIPSE
  5
12E
330
1F
100
AcDbEntity
  8
1
100
AcDbEllipse
 10
348.800422
 20
363.701615
 30
0.0
 11
-1.165040559051042
 21
-3.387118928763051
 31
0.0
210
0.0
220
0.0
230
1.0
 40
0.492419
 41
4.213458561834555
 42
4.392646680887241
  0
ELLIPSE
  5
12F
330
1F
100
AcDbEntity
  8
1
100
AcDbEllipse
 10
348.800422
 20
363.701615
 30
0.0
 11
-1.165040559051042
 21
-3.387118928763051
 31
0.0
210
0.0
220
0.0
230
1.0
 40
0.492419
 41
6.251588334289365
 42
6.506296824881343
  0
ELLIPSE
  5
130
330
1F
100
AcDbEntity
  8
1
100
AcDbEllipse
 10
348.800422
 20
363.701615
 30
0.0
 11
-1.165040559051042
 21
-3.387118928763051
 31
0.0
210
0.0
220
0.0
230
1.0
 40
0.492419
 41
1.660336619458495
 42
1.807297895239431
  0
ELLIPSE
  5
131
330
1F
100
AcDbEntity
  8
1
100
AcDbEllipse
 10
350.503084
 20
364.931274
 30
0.0
 11
-2.79506824838406
 21
-4.885395176147929
 31
0.0
210
0.0
220
0.0
230
0.9999999999999998
 40
0.5093
 41
4.861478509980387
 42
6.250158720212906
  0
ELLIPSE
  5
132
330
1F
100
AcDbEntity
  8
1
100
AcDbEllipse
 10
340.690287
 20
361.153352
 30
0.0
 11
0.0000000000000001
 21
2.0
 31
0.0
210
0.0
220
0.0
230
1.0
 40
0.9848079999999999
 41
0.0839151220067151
 42
2.507457669781949
  0
ELLIPSE
  5
133
330
1F
100
AcDbEntity
  8
1
100
AcDbEllipse
 10
347.84346
 20
360.875657
 30
0.0
 11
0.0
 21
-0.5000000000000036
 31
0.0
210
0.0
220
0.0
230
1.0
 40
0.9848079999999999
 41
0.845903367505606
 42
1.264782387984237
  0
ELLIPSE
  5
134
330
1F
100
AcDbEntity
  8
1
100
AcDbEllipse
 10
348.599586
 20
366.0080779999999
 30
0.0
 11
-52.1757929097609
 21
0.0000000000000643
 31
0.0
210
0.0
220
0.0
230
1.0
 40
0.176327
 41
5.012320808205098
 42
5.067197908589436
  0
ELLIPSE
  5
135
330
1F
100
AcDbEntity
  8
1
100
AcDbEllipse
 10
348.173926
 20
362.155811
 30
0.0
 11
-0.6083217558974
 21
-0.3684428772974164
 31
0.0
210
0.0
220
0.0
230
1.0
 40
0.5601720000000001
 41
2.577385803991028
 42
3.280539412322493
  0
ELLIPSE
  5
136
330
1F
100
AcDbEntity
  8
1
100
AcDbEllipse
 10
341.453321
 20
360.755598
 30
0.0
 11
-0.0000000000000001
 21
-2.0
 31
0.0
210
0.0
220
0.0
230
1.0
 40
0.9848079999999999
 41
3.17581982993745
 42
3.655599914886461
  0
ELLIPSE
  5
137
330
1F
100
AcDbEntity
  8
1
100
AcDbEllipse
 10
342.060507
 20
371.257177
 30
0.0
 11
-0.0000000000000001
 21
-2.399999999999999
 31
0.0
210
0.0
220
0.0
230
1.0
 40
0.9848079999999999
 41
3.141628423552417
 42
6.283123112299606
  0
ELLIPSE
  5
138
330
1F
100
AcDbEntity
  8
1
100
AcDbEllipse
 10
342.142998
 20
372.520859
 30
0.0
 11
0.0
 21
-0.085221654502479
 31
0.0
210
0.0
220
0.0
230
1.0
 40
0.9848079999999999
 41
0.903787864261732
 42
1.562651000246557
  0
ELLIPSE
  5
139
330
1F
100
AcDbEntity
  8
1
100
AcDbEllipse
 10
342.310846
 20
372.519471
 30
0.0
 11
0.0
 21
-0.0852216545024792
 31
0.0
210
0.0
220
0.0
230
1.0
 40
0.9848079999999999
 41
3.521781742253192
 42
4.704243653836371
  0
ELLIPSE
  5
13A
330
1F
100
AcDbEntity
  8
1
100
AcDbEllipse
 10
342.458515
 20
372.144258
 30
0.0
 11
0.0
 21
-0.4892877486700781
 31
0.0
210
0.0
220
0.0
230
0.9999999999999998
 40
0.9848079999999999
 41
2.221514136231427
 42
3.521781742253193
  0
ELLIPSE
  5
13B
330
1F
100
AcDbEntity
  8
1
100
AcDbEllipse
 10
342.775126
 20
372.389024
 30
0.0
 11
0.0
 21
-0.0852216545024788
 31
0.0
210
0.0
220
0.0
230
0.9999999999999998
 40
0.9848080000000001
 41
1.039052224648247
 42
2.221514136231466
  0
ELLIPSE
  5
13C
330
1F
100
AcDbEntity
  8
1
100
AcDbEllipse
 10
342.919803
 20
372.302603
 30
0.0
 11
0.0
 21
-0.0852216545024788
 31
0.0
210
0.0
220
0.0
230
1.0
 40
0.9848080000000001
 41
4.180644878238101
 42
4.839508014222943
  0
ELLIPSE
  5
13D
330
1F
100
AcDbEntity
  8
1
100
AcDbEllipse
 10
343.31452
 20
372.353829
 30
0.0
 11
0.0
 21
-0.4892877486700779
 31
0.0
210
0.0
220
0.0
230
1.0
 40
0.9848079999999999
 41
4.839508014222924
 42
6.139775620244692
  0
ELLIPSE
  5
13E
330
1F
100
AcDbEntity
  8
1
100
AcDbEllipse
 10
343.257649
 20
371.953911
 30
0.0
 11
0.0
 21
-0.085221654502479
 31
0.0
210
0.0
220
0.0
230
1.0
 40
0.9848079999999999
 41
6.139775620244664
 42
6.798638756229567
  0
ELLIPSE
  5
13F
330
1F
100
AcDbEntity
  8
1
100
AcDbEllipse
 10
343.340389
 20
371.805613
 30
0.0
 11
0.0
 21
-0.0852216545024792
 31
0.0
210
0.0
220
0.0
230
1.0
 40
0.9848079999999999
 41
2.474584191056615
 42
3.657046102639816
  0
ELLIPSE
  5
140
330
1F
100
AcDbEntity
  8
1
100
AcDbEllipse
 10
343.094216
 20
371.488148
 30
0.0
 11
0.0
 21
-0.4892877486700781
 31
0.0
210
0.0
220
0.0
230
0.9999999999999998
 40
0.9848079999999999
 41
1.17431658503483
 42
2.474584191056602
  0
ELLIPSE
  5
141
330
1F
100
AcDbEntity
  8
1
100
AcDbEllipse
 10
343.461274
 20
371.332109
 30
0.0
 11
0.0
 21
-0.0852216545024788
 31
0.0
210
0.0
220
0.0
230
0.9999999999999998
 40
0.9848080000000001
 41
6.275039980631245
 42
7.457501892214414
  0
ELLIPSE
  5
142
330
1F
100
AcDbEntity
  8
1
100
AcDbEllipse
 10
343.459907
 20
371.161671
 30
0.0
 11
0.0
 21
-0.0852216545024788
 31
0.0
210
0.0
220
0.0
230
1.0
 40
0.9848080000000001
 41
3.133447327041494
 42
3.792310463026361
  0
ELLIPSE
  5
143
330
1F
100
AcDbEntity
  8
1
100
AcDbEllipse
 10
343.7009549999999
 20
370.840176
 30
0.0
 11
0.0
 21
-0.4892877486700779
 31
0.0
210
0.0
220
0.0
230
1.0
 40
0.9848079999999999
 41
3.792310463026324
 42
5.092578069048103
  0
ELLIPSE
  5
144
330
1F
100
AcDbEntity
  8
1
100
AcDbEllipse
 10
343.331442
 20
370.690229
 30
0.0
 11
0.0
 21
-0.085221654502479
 31
0.0
210
0.0
220
0.0
230
1.0
 40
0.9848079999999999
 41
5.092578069048108
 42
5.751441205032967
  0
ELLIPSE
  5
145
330
1F
100
AcDbEntity
  8
1
100
AcDbEllipse
 10
343.246333
 20
370.54332
 30
0.0
 11
0.0
 21
-0.0852216545024792
 31
0.0
210
0.0
220
0.0
230
1.0
 40
0.9848079999999999
 41
1.427386639860008
 42
2.609848551443148
  0
ELLIPSE
  5
146
330
1F
100
AcDbEntity
  8
1
100
AcDbEllipse
 10
342.8524910000001
 20
370.601068
 30
0.0
 11
0.0
 21
-0.4892877486700781
 31
0.0
210
0.0
220
0.0
230
0.9999999999999998
 40
0.9848079999999999
 41
0.1271190338382338
 42
1.427386639860004
  0
ELLIPSE
  5
147
330
1F
100
AcDbEntity
  8
1
100
AcDbEllipse
 10
342.902939
 20
370.200262
 30
0.0
 11
0.0
 21
-0.0852216545024788
 31
0.0
210
0.0
220
0.0
230
0.9999999999999998
 40
0.9848080000000001
 41
5.227842429434704
 42
6.41030434101788
  0
ELLIPSE
  5
148
330
1F
100
AcDbEntity
  8
1
100
AcDbEllipse
 10
342.756894
 20
370.116246
 30
0.0
 11
0.0
 21
-0.0852216545024788
 31
0.0
210
0.0
220
0.0
230
1.0
 40
0.9848080000000001
 41
2.086249775844861
 42
2.745112911829678
  0
ELLIPSE
  5
149
330
1F
100
AcDbEntity
  8
1
100
AcDbEllipse
 10
342.603225
 20
369.743525
 30
0.0
 11
0.0
 21
-0.4892877486700779
 31
0.0
210
0.0
220
0.0
230
1.0
 40
0.9848079999999999
 41
2.745112911829732
 42
4.045380517851492
  0
ELLIPSE
  5
14A
330
1F
100
AcDbEntity
  8
1
100
AcDbEllipse
 10
342.290583
 20
369.993496
 30
0.0
 11
0.0
 21
-0.085221654502479
 31
0.0
210
0.0
220
0.0
230
1.0
 40
0.9848079999999999
 41
4.045380517851491
 42
4.704243653836348
  0
ELLIPSE
  5
14B
330
1F
100
AcDbEntity
  8
1
100
AcDbEllipse
 10
342.122735
 20
369.994884
 30
0.0
 11
0.0
 21
-0.0852216545024792
 31
0.0
210
0.0
220
0.0
230
1.0
 40
0.9848079999999999
 41
0.3801890886633671
 42
1.562651000246578
  0
ELLIPSE
  5
14C
330
1F
100
AcDbEntity
  8
1
100
AcDbEllipse
 10
341.975066
 20
370.370097
 30
0.0
 11
0.0
 21
-0.4892877486700781
 31
0.0
210
0.0
220
0.0
230
0.9999999999999998
 40
0.9848079999999999
 41
5.363106789821223
 42
6.663374395843
  0
ELLIPSE
  5
14D
330
1F
100
AcDbEntity
  8
1
100
AcDbEllipse
 10
341.658455
 20
370.125331
 30
0.0
 11
0.0
 21
-0.0852216545024788
 31
0.0
210
0.0
220
0.0
230
0.9999999999999998
 40
0.9848080000000001
 41
4.18064487823804
 42
5.363106789821233
  0
ELLIPSE
  5
14E
330
1F
100
AcDbEntity
  8
1
100
AcDbEllipse
 10
341.513778
 20
370.211752
 30
0.0
 11
0.0
 21
-0.0852216545024788
 31
0.0
210
0.0
220
0.0
230
1.0
 40
0.9848080000000001
 41
1.03905222464827
 42
1.697915360633135
  0
ELLIPSE
  5
14F
330
1F
100
AcDbEntity
  8
1
100
AcDbEllipse
 10
341.119061
 20
370.160526
 30
0.0
 11
0.0
 21
-0.4892877486700779
 31
0.0
210
0.0
220
0.0
230
1.0
 40
0.9848079999999999
 41
1.69791536063313
 42
2.998182966654906
  0
ELLIPSE
  5
150
330
1F
100
AcDbEntity
  8
1
100
AcDbEllipse
 10
341.175932
 20
370.560444
 30
0.0
 11
0.0
 21
-0.085221654502479
 31
0.0
210
0.0
220
0.0
230
1.0
 40
0.9848079999999999
 41
2.998182966654912
 42
3.657046102639774
  0
ELLIPSE
  5
151
330
1F
100
AcDbEntity
  8
1
100
AcDbEllipse
 10
341.093192
 20
370.708742
 30
0.0
 11
0.0
 21
-0.0852216545024792
 31
0.0
210
0.0
220
0.0
230
1.0
 40
0.9848079999999999
 41
5.616176844646389
 42
6.798638756229615
  0
ELLIPSE
  5
152
330
1F
100
AcDbEntity
  8
1
100
AcDbEllipse
 10
341.339365
 20
371.026207
 30
0.0
 11
0.0
 21
-0.4892877486700781
 31
0.0
210
0.0
220
0.0
230
0.9999999999999998
 40
0.9848079999999999
 41
4.315909238624623
 42
5.616176844646402
  0
ELLIPSE
  5
153
330
1F
100
AcDbEntity
  8
1
100
AcDbEllipse
 10
340.972307
 20
371.182246
 30
0.0
 11
0.0
 21
-0.0852216545024788
 31
0.0
210
0.0
220
0.0
230
0.9999999999999998
 40
0.9848080000000001
 41
3.133447327041452
 42
4.31590923862462
  0
ELLIPSE
  5
154
330
1F
100
AcDbEntity
  8
1
100
AcDbEllipse
 10
340.973674
 20
371.352684
 30
0.0
 11
0.0
 21
-0.0852216545024788
 31
0.0
210
0.0
220
0.0
230
1.0
 40
0.9848080000000001
 41
6.275039980631286
 42
6.933903116616106
  0
ELLIPSE
  5
155
330
1F
100
AcDbEntity
  8
1
100
AcDbEllipse
 10
340.732626
 20
371.674179
 30
0.0
 11
0.0
 21
-0.4892877486700779
 31
0.0
210
0.0
220
0.0
230
1.0
 40
0.9848079999999999
 41
0.6507178094365296
 42
1.950985415458307
  0
ELLIPSE
  5
156
330
1F
100
AcDbEntity
  8
1
100
AcDbEllipse
 10
341.10214
 20
371.824126
 30
0.0
 11
0.0
 21
-0.085221654502479
 31
0.0
210
0.0
220
0.0
230
1.0
 40
0.9848079999999999
 41
1.950985415458319
 42
2.609848551443186
  0
ELLIPSE
  5
157
330
1F
100
AcDbEntity
  8
1
100
AcDbEllipse
 10
341.187248
 20
371.971035
 30
0.0
 11
0.0
 21
-0.0852216545024792
 31
0.0
210
0.0
220
0.0
230
1.0
 40
0.9848079999999999
 41
4.568979293449775
 42
5.751441205032962
  0
ELLIPSE
  5
158
330
1F
100
AcDbEntity
  8
1
100
AcDbEllipse
 10
341.58109
 20
371.913287
 30
0.0
 11
0.0
 21
-0.4892877486700781
 31
0.0
210
0.0
220
0.0
230
0.9999999999999998
 40
0.9848079999999999
 41
3.268711687428026
 42
4.568979293449801
  0
ELLIPSE
  5
159
330
1F
100
AcDbEntity
  8
1
100
AcDbEllipse
 10
341.530642
 20
372.314093
 30
0.0
 11
0.0
 21
-0.0852216545024788
 31
0.0
210
0.0
220
0.0
230
0.9999999999999998
 40
0.9848080000000001
 41
2.086249775844874
 42
3.268711687428087
  0
ELLIPSE
  5
15A
330
1F
100
AcDbEntity
  8
1
100
AcDbEllipse
 10
341.676687
 20
372.398109
 30
0.0
 11
0.0
 21
-0.0852216545024788
 31
0.0
210
0.0
220
0.0
230
1.0
 40
0.9848080000000001
 41
5.227842429434684
 42
5.886705565419552
  0
ELLIPSE
  5
15B
330
1F
100
AcDbEntity
  8
1
100
AcDbEllipse
 10
341.830356
 20
372.77083
 30
0.0
 11
0.0
 21
-0.4892877486700779
 31
0.0
210
0.0
220
0.0
230
1.0
 40
0.9848079999999999
 41
5.886705565419526
 42
7.186973171441291
  0
ELLIPSE
  5
15C
330
1F
100
AcDbEntity
  8
1
100
AcDbEllipse
 10
345.178917
 20
369.21216
 30
0.0
 11
0.0000000000000002
 21
3.0
 31
0.0
210
0.0
220
0.0
230
1.0
 40
0.9848079999999999
 41
3.240793433319462
 42
3.327765678591223
  0
ELLIPSE
  5
15D
330
1F
100
AcDbEntity
  8
1
100
AcDbEllipse
 10
341.942697
 20
365.136005
 30
0.0
 11
8.72262106674095
 21
-1.521844080884135
 31
0.0
210
0.0
220
0.0
230
0.9999999999999998
 40
0.179901
 41
6.160164560229401
 42
6.223389229695554
  0
ELLIPSE
  5
15E
330
1F
100
AcDbEntity
  8
1
100
AcDbEllipse
 10
342.29099
 20
366.0080779999999
 30
0.0
 11
-0.0000000000000005
 21
-8.828031987059901
 31
0.0
210
0.0
220
0.0
230
1.0
 40
0.9848080000000001
 41
1.285453193870998
 42
1.311758438027265
  0
ELLIPSE
  5
15F
330
1F
100
AcDbEntity
  8
1
100
AcDbEllipse
 10
335.313843
 20
371.79935
 30
0.0
 11
-0.2899898376844093
 21
2.996544730774948
 31
0.0
210
0.0
220
0.0
230
1.0
 40
0.4963740000000001
 41
1.249295891772775
 42
1.504283020738534
  0
ELLIPSE
  5
160
330
1F
100
AcDbEntity
  8
1
100
AcDbEllipse
 10
342.090742
 20
371.257177
 30
0.0
 11
0.0000000000000002
 21
2.7
 31
0.0
210
0.0
220
0.0
230
1.0
 40
0.9848079999999999
 41
3.028727466658821
 42
6.283185307179585
  0
ELLIPSE
  5
161
330
1F
100
AcDbEntity
  8
1
100
AcDbEllipse
 10
342.090742
 20
371.257177
 30
0.0
 11
0.0000000000000002
 21
2.7
 31
0.0
210
0.0
220
0.0
230
1.0
 40
0.9848079999999999
 41
0.0
 42
0.4017668783159389
  0
ELLIPSE
  5
162
330
1F
100
AcDbEntity
  8
1
100
AcDbEllipse
 10
342.090742
 20
371.257177
 30
0.0
 11
0.0000000000000002
 21
2.7
 31
0.0
210
0.0
220
0.0
230
1.0
 40
0.9848079999999999
 41
2.739701159346654
 42
3.028727842668617
  0
ELLIPSE
  5
163
330
1F
100
AcDbEntity
  8
1
100
AcDbEllipse
 10
350.898913
 20
362.923315
 30
0.0
 11
0.0
 21
0.65
 31
0.0
210
0.0
220
0.0
230
1.0
 40
0.9848079999999999
 41
4.3691040818364
 42
6.081891123488586
  0
ELLIPSE
  5
164
330
1F
100
AcDbEntity
  8
1
100
AcDbEllipse
 10
332.578148
 20
356.65934
 30
0.0
 11
-0.285647171106736
 21
0.0198505486123535
 31
0.0
210
0.0
220
0.0
230
1.0
 40
0.102323
 41
1.194860428997925
 42
1.805725667227176
  0
ELLIPSE
  5
165
330
1F
100
AcDbEntity
  8
1
100
AcDbEllipse
 10
341.818958
 20
366.005965
 30
0.0
 11
-0.0000000000000006
 21
-9.273588877985668
 31
0.0
210
0.0
220
0.0
230
1.0
 40
0.9848079999999999
 41
6.238970756168079
 42
7.129088674685183
  0
ELLIPSE
  5
166
330
1F
100
AcDbEntity
  8
1
100
AcDbEllipse
 10
342.405622
 20
366.005965
 30
0.0
 11
-0.0000000000000006
 21
-9.808685220001587
 31
0.0
210
0.0
220
0.0
230
1.0
 40
0.9848079999999999
 41
6.238970756168076
 42
7.510696735426191
  0
ELLIPSE
  5
167
330
1F
100
AcDbEntity
  8
1
100
AcDbEllipse
 10
341.589875
 20
365.583066
 30
0.0
 11
-8.300030443883249
 21
3.819784975185678
 31
0.0
210
0.0
220
0.0
230
1.0
 40
0.931362
 41
2.874282070356616
 42
2.90737641665149
  0
ELLIPSE
  5
168
330
1F
100
AcDbEntity
  8
1
100
AcDbEllipse
 10
341.86274
 20
365.116516
 30
0.0
 11
-9.733932138591507
 21
1.501057345644186
 31
0.0
210
0.0
220
0.0
230
1.0
 40
0.615147
 41
2.482220077152043
 42
2.990337891514118
  0
ELLIPSE
  5
169
330
1F
100
AcDbEntity
  8
1
100
AcDbEllipse
 10
350.787763
 20
362.870921
 30
0.0
 11
-0.5733849292400432
 21
0.0884209634753488
 31
0.0
210
0.0
220
0.0
230
1.0
 40
0.615147
 41
2.990337891085713
 42
3.109135944628638
  0
ELLIPSE
  5
170
330
1F
100
AcDbEntity
  8
1
100
AcDbEllipse
 10
351.317625
 20
366.4442160000001
 30
0.0
 11
-0.3227044843702168
 21
-0.744321238107778
 31
0.0
210
0.0
220
0.0
230
1.0
 40
0.8738269999999999
 41
0.3219146368845439
 42
1.883726913341046
  0
ELLIPSE
  5
171
330
1F
100
AcDbEntity
  8
1
100
AcDbEllipse
 10
342.405754
 20
366.006811
 30
0.0
 11
-0.0000000000000006
 21
-9.808685220001587
 31
0.0
210
0.0
220
0.0
230
1.0
 40
0.9848079999999999
 41
1.934469946491478
 42
3.185807204601301
  0
ELLIPSE
  5
172
330
1F
100
AcDbEntity
  8
1
100
AcDbEllipse
 10
342.450068
 20
365.942359
 30
0.0
 11
-0.5785186702463277
 21
10.21148149001416
 31
0.0
210
0.0
220
0.0
230
0.9999999999999998
 40
0.939249
 41
4.715036659524961
 42
4.988328492707509
  0
ELLIPSE
  5
173
330
1F
100
AcDbEntity
  8
1
100
AcDbEllipse
 10
333.828385
 20
374.78911
 30
0.0
 11
0.0
 21
0.65
 31
0.0
210
0.0
220
0.0
230
1.0
 40
0.9848079999999999
 41
0.0442145510115036
 42
1.757001592663699
  0
ELLIPSE
  5
174
330
1F
100
AcDbEntity
  8
1
100
AcDbEllipse
 10
341.365783
 20
360.755598
 30
0.0
 11
-0.0000000000000001
 21
-1.75
 31
0.0
210
0.0
220
0.0
230
1.0
 40
0.9848079999999999
 41
2.844675978580231
 42
3.141556207378857
  0
ELLIPSE
  5
175
330
1F
100
AcDbEntity
  8
1
100
AcDbEllipse
 10
340.653825
 20
360.755598
 30
0.0
 11
0.0000000000000001
 21
1.75
 31
0.0
210
0.0
220
0.0
230
1.0
 40
0.9848079999999999
 41
0.0
 42
6.283185307179585
  0
ELLIPSE
  5
176
330
1F
100
AcDbEntity
  8
1
100
AcDbEllipse
 10
340.584366
 20
360.755598
 30
0.0
 11
0.0000000000000001
 21
1.35
 31
0.0
210
0.0
220
0.0
230
1.0
 40
0.9848079999999999
 41
0.0
 42
6.283185307179585
  0
ELLIPSE
  5
177
330
1F
100
AcDbEntity
  8
1
100
AcDbEllipse
 10
350.889544
 20
365.69756
 30
0.0
 11
-0.2767550262737606
 21
0.0321977258691411
 31
0.0
210
0.0
220
0.0
230
1.0
 40
0.099409
 41
1.583152510382531
 42
2.194017748594371
  0
ELLIPSE
  5
178
330
1F
100
AcDbEntity
  8
1
100
AcDbEllipse
 10
342.131481
 20
366.336251
 30
0.0
 11
-8.838973010505846
 21
0.9866484966465968
 31
0.0
210
0.0
220
0.0
230
1.0
 40
0.019557
 41
4.333577369257997
 42
4.789023120937605
  0
ELLIPSE
  5
179
330
1F
100
AcDbEntity
  8
1
100
AcDbEllipse
 10
342.131481
 20
366.336251
 30
0.0
 11
-8.838973010505842
 21
0.9866484966465966
 31
0.0
210
0.0
220
0.0
230
1.0
 40
0.019557
 41
4.004529763325188
 42
4.043559610787788
  0
ELLIPSE
  5
17A
330
1F
100
AcDbEntity
  8
1
100
AcDbEllipse
 10
429.4593459999999
 20
356.592071
 30
0.0
 11
-134.6812444135254
 21
15.02798716849043
 31
0.0
210
0.0
220
0.0
230
1.0
 40
0.001691
 41
5.424493738058183
 42
5.436497489627268
  0
ELLIPSE
  5
17B
330
1F
100
AcDbEntity
  8
1
100
AcDbEllipse
 10
342.216791
 20
371.257177
 30
0.0
 11
0.0000000000000001
 21
1.5
 31
0.0
210
0.0
220
0.0
230
1.0
 40
0.9848079999999999
 41
0.0
 42
6.283185307179585
  0
ELLIPSE
  5
17C
330
1F
100
AcDbEntity
  8
1
100
AcDbEllipse
 10
342.162893
 20
371.257177
 30
0.0
 11
0.0000000000000001
 21
2.399999999999999
 31
0.0
210
0.0
220
0.0
230
1.0
 40
0.9848079999999999
 41
0.0
 42
6.283185307179585
  0
ELLIPSE
  5
17D
330
1F
100
AcDbEntity
  8
1
100
AcDbEllipse
 10
351.510168
 20
368.801726
 30
0.0
 11
0.0277473180831029
 21
-0.1474112829439969
 31
0.0
210
0.0
220
0.0
230
1.0
 40
0.170739
 41
1.520261735112309
 42
1.538668992156505
  0
SPLINE
  5
17E
330
1F
100
AcDbEntity
  8
1
100
AcDbSpline
210
0.0
220
0.0
230
1.0
 70
     8
 71
     3
 72
    16
 73
    12
 74
     0
 42
0.000000001
 43
0.0000000001
 40
0.0
 40
0.0
 40
0.0
 40
0.0
 40
0.1632640658304159
 40
0.1632640658304159
 40
0.4421760438868862
 40
0.4421760438868862
 40
0.5816320329151651
 40
0.5816320329151651
 40
0.7210880219434439
 40
0.7210880219434439
 40
1.0
 40
1.0
 40
1.0
 40
1.0
 10
341.291657786879
 20
372.3993117608933
 30
0.0
 10
341.2964711387291
 20
372.3993122765057
 30
0.0
 10
341.3012181136608
 20
372.3988648840339
 30
0.0
 10
341.3136723842799
 20
372.3965150424615
 30
0.0
 10
341.3213052164762
 20
372.3937450791976
 30
0.0
 10
341.3315955050496
 20
372.3880491106599
 30
0.0
 10
341.3348541287696
 20
372.3858939035374
 30
0.0
 10
341.3410315209467
 20
372.3810769206811
 30
0.0
 10
341.3439686159156
 20
372.3783918039013
 30
0.0
 10
341.3520251331259
 20
372.3697917931371
 30
0.0
 10
341.35646668032
 20
372.363318859075
 30
0.0
 10
341.3599695271784
 20
372.3561008450818
 30
0.0
  0
SPLINE
  5
17F
330
1F
100
AcDbEntity
  8
1
100
AcDbSpline
210
0.0
220
0.0
230
1.0
 70
     8
 71
     3
 72
    11
 73
     7
 74
     0
 42
0.000000001
 43
0.0000000001
 40
0.0
 40
0.0
 40
0.0
 40
0.0
 40
0.2179564430630393
 40
0.5523272003606802
 40
0.8875582362209353
 40
1.0
 40
1.0
 40
1.0
 40
1.0
 10
340.931138161791
 20
362.5074443346376
 30
0.0
 10
340.9671843159764
 20
362.5278422253352
 30
0.0
 10
341.0600701208643
 20
362.5765264787012
 30
0.0
 10
341.2148460387748
 20
362.6421275114808
 30
0.0
 10
341.3558432556274
 20
362.686143732502
 30
0.0
 10
341.437821644632
 20
362.7056822705323
 30
0.0
 10
341.4584819211604
 20
362.7102505352725
 30
0.0
  0
SPLINE
  5
180
330
1F
100
AcDbEntity
  8
1
100
AcDbSpline
210
0.0
220
0.0
230
1.0
 70
     8
 71
     3
 72
     8
 73
     4
 74
     0
 42
0.000000001
 43
0.0000000001
 40
0.0
 40
0.0
 40
0.0
 40
0.0
 40
1.0
 40
1.0
 40
1.0
 40
1.0
 10
341.4740159848627
 20
359.5863248450884
 30
0.0
 10
341.5335790918913
 20
359.6189587536051
 30
0.0
 10
341.5897879049648
 20
359.6552395552686
 30
0.0
 10
341.6428846937727
 20
359.6949821717545
 30
0.0
  0
SPLINE
  5
181
330
1F
100
AcDbEntity
  8
1
100
AcDbSpline
210
0.0
220
0.0
230
1.0
 70
     8
 71
     3
 72
    30
 73
    26
 74
     0
 42
0.000000001
 43
0.0000000001
 40
0.0
 40
0.0
 40
0.0
 40
0.0
 40
0.1249999999999984
 40
0.1249999999999984
 40
0.2499999999999968
 40
0.2499999999999968
 40
0.3749999999999952
 40
0.3749999999999952
 40
0.4374999999999961
 40
0.4374999999999961
 40
0.4999999999999968
 40
0.4999999999999968
 40
0.6249999999999952
 40
0.6249999999999952
 40
0.7499999999999934
 40
0.7499999999999934
 40
0.7812499999999912
 40
0.7812499999999912
 40
0.8124999999999888
 40
0.8124999999999888
 40
0.8749999999999925
 40
0.8749999999999925
 40
0.9374999999999964
 40
0.9374999999999964
 40
1.0
 40
1.0
 40
1.0
 40
1.0
 10
331.1748486011854
 20
358.3405256368728
 30
0.0
 10
331.1748486011854
 20
358.3212843356467
 30
0.0
 10
331.1732530104415
 20
358.3023632165914
 30
0.0
 10
331.1667679729566
 20
358.2651549047635
 30
0.0
 10
331.1618807030405
 20
358.2468675731539
 30
0.0
 10
331.1484641687199
 20
358.2109426617173
 30
0.0
 10
331.1399420615413
 20
358.1933045150162
 30
0.0
 10
331.1238874192154
 20
358.1673701939663
 30
0.0
 10
331.1179685065549
 20
358.1587891313482
 30
0.0
 10
331.1049651068574
 20
358.1419231888453
 30
0.0
 10
331.0979166927419
 20
358.1336803355701
 30
0.0
 10
331.0749749086162
 20
358.1095534269629
 30
0.0
 10
331.0573258509272
 20
358.0942604200972
 30
0.0
 10
331.0157867738775
 20
358.0656063399139
 30
0.0
 10
330.9924925789924
 20
358.0526509572036
 30
0.0
 10
330.9592991068071
 20
358.0386035387651
 30
0.0
 10
330.9524522860456
 20
358.0359027789003
 30
0.0
 10
330.9382990919748
 20
358.0307383636818
 30
0.0
 10
330.9310076091254
 20
358.028282166139
 30
0.0
 10
330.9087564014326
 20
358.0214132823532
 30
0.0
 10
330.8933164536796
 20
358.0174572709207
 30
0.0
 10
330.8610702374349
 20
358.0109298880578
 30
0.0
 10
330.844105540584
 20
358.0083514753793
 30
0.0
 10
330.8098566247445
 20
358.0049249789807
 30
0.0
 10
330.7924842897676
 20
358.0040437297177
 30
0.0
 10
330.7748486011854
 20
358.0040437297177
 30
0.0
  0
SPLINE
  5
182
330
1F
100
AcDbEntity
  8
1
100
AcDbSpline
210
0.0
220
0.0
230
1.0
 70
     8
 71
     3
 72
    30
 73
    26
 74
     0
 42
0.000000001
 43
0.0000000001
 40
0.0
 40
0.0
 40
0.0
 40
0.0
 40
0.0341040646540372
 40
0.0341040646540372
 40
0.1084037519883418
 40
0.1084037519883418
 40
0.1827034393226467
 40
0.1827034393226467
 40
0.2570031266569516
 40
0.2570031266569516
 40
0.3313028139912562
 40
0.3313028139912562
 40
0.4056025013255612
 40
0.4056025013255612
 40
0.4799021886598661
 40
0.4799021886598661
 40
0.5542018759941709
 40
0.5542018759941709
 40
0.6285015633284758
 40
0.6285015633284758
 40
0.7028012506627804
 40
0.7028012506627804
 40
0.8514006253313903
 40
0.8514006253313903
 40
1.0
 40
1.0
 40
1.0
 40
1.0
 10
330.695548426917
 20
356.8080781637112
 30
0.0
 10
330.7011974053066
 20
356.8080793977268
 30
0.0
 10
330.7071128725574
 20
356.8081061031118
 30
0.0
 10
330.7267548099313
 20
356.8082686059424
 30
0.0
 10
330.7413539346066
 20
356.8084945757652
 30
0.0
 10
330.7727683974216
 20
356.8091415729725
 30
0.0
 10
330.7896210046396
 20
356.8095637278328
 30
0.0
 10
330.8253514762028
 20
356.8105656043697
 30
0.0
 10
330.8441974529933
 20
356.8111441294876
 30
0.0
 10
330.8838181183435
 20
356.8124200899103
 30
0.0
 10
330.9046381593585
 20
356.8131191377357
 30
0.0
 10
330.9478978735143
 20
356.8145905475367
 30
0.0
 10
330.9703520743278
 20
356.8153633048694
 30
0.0
 10
331.0169000538311
 20
356.8169472687501
 30
0.0
 10
331.0410170678853
 20
356.8177591728566
 30
0.0
 10
331.0905002778147
 20
356.8193736611444
 30
0.0
 10
331.1159113582672
 20
356.8201778384661
 30
0.0
 10
331.1680821407227
 20
356.8217470485862
 30
0.0
 10
331.1948032629518
 20
356.8225106948461
 30
0.0
 10
331.2491706016384
 20
356.8239557473809
 30
0.0
 10
331.2768653400834
 20
356.8246386772598
 30
0.0
 10
331.3615134351155
 20
356.8265261227284
 30
0.0
 10
331.4193356090323
 20
356.8275525430997
 30
0.0
 10
331.5376111140632
 20
356.8289633109592
 30
0.0
 10
331.5972201573548
 20
356.8293373626561
 30
0.0
 10
331.6573204529586
 20
356.8293373626561
 30
0.0
  0
SPLINE
  5
183
330
1F
100
AcDbEntity
  8
1
100
AcDbSpline
210
0.0
220
0.0
230
1.0
 70
     8
 71
     3
 72
     9
 73
     5
 74
     0
 42
0.000000001
 43
0.0000000001
 40
0.0
 40
0.0
 40
0.0
 40
0.0
 40
0.5
 40
1.0
 40
1.0
 40
1.0
 40
1.0
 10
332.4975851046557
 20
356.8293373626561
 30
0.0
 10
332.5179968022553
 20
356.8293373626561
 30
0.0
 10
332.5586683272678
 20
356.8292513721479
 30
0.0
 10
332.5990411330334
 20
356.828997777405
 30
0.0
 10
332.6191532778121
 20
356.8288304491431
 30
0.0
  0
SPLINE
  5
184
330
1F
100
AcDbEntity
  8
1
100
AcDbSpline
210
0.0
220
0.0
230
1.0
 70
    12
 71
     2
 72
     6
 73
     3
 74
     0
 42
0.000000001
 43
0.0000000001
 40
0.0
 40
0.0
 40
0.0
 40
1.0
 40
1.0
 40
1.0
 10
332.6191532778121
 20
356.8288304491431
 30
0.0
 41
0.5000000341673696
 10
332.6414541782844
 20
356.8286449109543
 30
0.0
 41
0.4999999658326303
 10
332.6637571500897
 20
356.8284610297445
 30
0.0
 41
0.5000000341673696
  0
SPLINE
  5
185
330
1F
100
AcDbEntity
  8
1
100
AcDbSpline
210
0.0
220
0.0
230
1.0
 70
     9
 71
     3
 72
   118
 73
   114
 74
     0
 42
0.000000001
 43
0.0000000001
 40
0.0
 40
0.0
 40
0.0
 40
0.0
 40
0.0312500000000024
 40
0.0312500000000024
 40
0.0390625000000029
 40
0.0390625000000029
 40
0.0468750000000033
 40
0.0468750000000033
 40
0.0625000000000043
 40
0.0625000000000043
 40
0.0937500000000061
 40
0.0937500000000061
 40
0.1015625000000066
 40
0.1015625000000066
 40
0.1093750000000071
 40
0.1250000000000077
 40
0.1406250000000084
 40
0.1406250000000084
 40
0.1484375000000088
 40
0.1484375000000088
 40
0.1562500000000092
 40
0.1562500000000092
 40
0.1875000000000105
 40
0.1875000000000105
 40
0.2031250000000112
 40
0.2031250000000112
 40
0.2187500000000119
 40
0.2343750000000125
 40
0.2343750000000125
 40
0.2500000000000132
 40
0.2500000000000132
 40
0.2812500000000145
 40
0.2812500000000145
 40
0.2968750000000155
 40
0.2968750000000155
 40
0.3125000000000165
 40
0.3125000000000165
 40
0.3437500000000178
 40
0.3437500000000178
 40
0.3593750000000185
 40
0.3593750000000185
 40
0.3750000000000192
 40
0.3750000000000192
 40
0.4062500000000206
 40
0.4062500000000206
 40
0.414062500000021
 40
0.414062500000021
 40
0.4218750000000215
 40
0.4375000000000221
 40
0.4531250000000224
 40
0.4531250000000224
 40
0.4687500000000229
 40
0.4687500000000229
 40
0.5000000000000236
 40
0.5000000000000236
 40
0.5156250000000238
 40
0.5156250000000238
 40
0.5234375000000238
 40
0.5234375000000238
 40
0.5312500000000239
 40
0.5312500000000239
 40
0.5625000000000242
 40
0.5625000000000242
 40
0.5781250000000244
 40
0.5781250000000244
 40
0.5859375000000245
 40
0.5859375000000245
 40
0.5937500000000245
 40
0.5937500000000245
 40
0.6250000000000248
 40
0.6250000000000248
 40
0.6328125000000247
 40
0.6328125000000247
 40
0.6406250000000247
 40
0.6562500000000246
 40
0.6718750000000245
 40
0.6718750000000245
 40
0.6875000000000242
 40
0.6875000000000242
 40
0.7187500000000233
 40
0.7187500000000233
 40
0.7343750000000231
 40
0.7343750000000231
 40
0.750000000000023
 40
0.7656250000000227
 40
0.7656250000000227
 40
0.7734375000000222
 40
0.7734375000000222
 40
0.7812500000000219
 40
0.7812500000000219
 40
0.8125000000000191
 40
0.8125000000000191
 40
0.8281250000000174
 40
0.8281250000000174
 40
0.8359375000000166
 40
0.8359375000000166
 40
0.8437500000000158
 40
0.8437500000000158
 40
0.875000000000012
 40
0.875000000000012
 40
0.8906250000000103
 40
0.8906250000000103
 40
0.9062500000000087
 40
0.9062500000000087
 40
0.9375000000000056
 40
0.9375000000000056
 40
0.9453125000000051
 40
0.9453125000000051
 40
0.9531250000000047
 40
0.9531250000000047
 40
0.9687500000000031
 40
0.9687500000000031
 40
1.0
 40
1.0
 40
1.0
 40
1.0
 10
328.5843941722768
 20
356.9802055111613
 30
0.0
 10
328.6194246813724
 20
356.9738839805669
 30
0.0
 10
328.6507887310801
 20
356.9671618038088
 30
0.0
 10
328.6853386814052
 20
356.9583762027542
 30
0.0
 10
328.6920137440546
 20
356.9565997111914
 30
0.0
 10
328.7048831097101
 20
356.9530100650537
 30
0.0
 10
328.7110891626069
 20
356.9511929283988
 30
0.0
 10
328.7287869242773
 20
356.9457457199823
 30
0.0
 10
328.7394162570658
 20
356.9421058870918
 30
0.0
 10
328.7678460220624
 20
356.9311917534249
 30
0.0
 10
328.7822256280811
 20
356.9239242033668
 30
0.0
 10
328.7941105282302
 20
356.9149258754769
 30
0.0
 10
328.7961743112269
 20
356.9131329416403
 30
0.0
 10
328.7996334657539
 20
356.9096022943766
 30
0.0
 10
328.8038398394623
 20
356.9043721589376
 30
0.0
 10
328.8060313554313
 20
356.8959852518046
 30
0.0
 10
328.8026785555841
 20
356.8896291523783
 30
0.0
 10
328.7982027508835
 20
356.8849950905415
 30
0.0
 10
328.796375919938
 20
356.8834679643729
 30
0.0
 10
328.7920951354268
 20
356.8804862987779
 30
0.0
 10
328.7896435997891
 20
356.8790313012493
 30
0.0
 10
328.7758674632862
 20
356.8719279900916
 30
0.0
 10
328.7600331383857
 20
356.8667922911942
 30
0.0
 10
328.7292008983561
 20
356.8597984671871
 30
0.0
 10
328.7176864673987
 20
356.8575814350866
 30
0.0
 10
328.6928015038345
 20
356.8534585092983
 30
0.0
 10
328.6659653224607
 20
356.8496201084281
 30
0.0
 10
328.6353574004652
 20
356.8462856519545
 30
0.0
 10
328.6028718994312
 20
356.8431772471853
 30
0.0
 10
328.5855960131883
 20
356.8417300188872
 30
0.0
 10
328.5318632156512
 20
356.8377642126038
 30
0.0
 10
328.4934213294966
 20
356.8355989841454
 30
0.0
 10
328.4320091130866
 20
356.8328966487018
 30
0.0
 10
328.4108715180208
 20
356.8320866385712
 30
0.0
 10
328.3674692058888
 20
356.8306383341917
 30
0.0
 10
328.3454537216067
 20
356.8300078628072
 30
0.0
 10
328.2785026046897
 20
356.8283599618867
 30
0.0
 10
328.2326700923045
 20
356.8275823392984
 30
0.0
 10
328.1621234092487
 20
356.8268248987887
 30
0.0
 10
328.1382204491346
 20
356.8266416866338
 30
0.0
 10
328.0906971789599
 20
356.8264152622374
 30
0.0
 10
328.0669839545308
 20
356.8263705736782
 30
0.0
 10
327.9959864784459
 20
356.8264355681384
 30
0.0
 10
327.9488431354778
 20
356.8267402268713
 30
0.0
 10
327.8901584324561
 20
356.8274863351975
 30
0.0
 10
327.878425480323
 20
356.8276543991673
 30
0.0
 10
327.855224344048
 20
356.8280257229049
 30
0.0
 10
327.8207309271737
 20
356.8286368115375
 30
0.0
 10
327.7647577469141
 20
356.8299322695759
 30
0.0
 10
327.7215873296651
 20
356.8312923168987
 30
0.0
 10
327.6792390656428
 20
356.8328364455527
 30
0.0
 10
327.6584439230703
 20
356.8337020079595
 30
0.0
 10
327.5975555437164
 20
356.8366128382764
 30
0.0
 10
327.5600266387383
 20
356.8389159982218
 30
0.0
 10
327.5082814558341
 20
356.8430535270396
 30
0.0
 10
327.4917964058014
 20
356.8445472597934
 30
0.0
 10
327.4682591931567
 20
356.8469856280233
 30
0.0
 10
327.4606122247254
 20
356.8478314480867
 30
0.0
 10
327.4457284048362
 20
356.8495944458606
 30
0.0
 10
327.4385044936718
 20
356.8505105346367
 30
0.0
 10
327.4038536054726
 20
356.8552231279992
 30
0.0
 10
327.3804387930301
 20
356.8594537707742
 30
0.0
 10
327.3518519192198
 20
356.8666293651757
 30
0.0
 10
327.3434199326757
 20
356.86916005363
 30
0.0
 10
327.3325053426284
 20
356.8731885036738
 30
0.0
 10
327.3291673046422
 20
356.8745672195253
 30
0.0
 10
327.3231559315176
 20
356.8773694215723
 30
0.0
 10
327.3204715668261
 20
356.8787968325612
 30
0.0
 10
327.3086365540835
 20
356.8860673107714
 30
0.0
 10
327.304197915429
 20
356.8923097423509
 30
0.0
 10
327.3051063467163
 20
356.9006834724479
 30
0.0
 10
327.3056169486048
 20
356.9023921179945
 30
0.0
 10
327.307291334206
 20
356.9058397347086
 30
0.0
 10
327.3107753680557
 20
356.9110485015571
 30
0.0
 10
327.3213104935826
 20
356.9199079512554
 30
0.0
 10
327.3346701309295
 20
356.9271640329844
 30
0.0
 10
327.3505149446175
 20
356.9344913054695
 30
0.0
 10
327.359732747539
 20
356.9382054557534
 30
0.0
 10
327.3904987453225
 20
356.9491832247856
 30
0.0
 10
327.4152434412147
 20
356.9563551750467
 30
0.0
 10
327.4584654649242
 20
356.9667705053372
 30
0.0
 10
327.4739879435336
 20
356.9702014635262
 30
0.0
 10
327.5065360371694
 20
356.9768031184289
 30
0.0
 10
327.5406161519192
 20
356.9831588786316
 30
0.0
 10
327.5776428327441
 20
356.98899329076
 30
0.0
 10
327.6065067364533
 20
356.9931576129363
 30
0.0
 10
327.6163106848956
 20
356.9945104212558
 30
0.0
 10
327.6362860004234
 20
356.9971421151121
 30
0.0
 10
327.6464809490473
 20
356.998423778913
 30
0.0
 10
327.6980902118828
 20
357.0046027675108
 30
0.0
 10
327.7410687627377
 20
357.0087832395663
 30
0.0
 10
327.8079341430916
 20
357.013862510873
 30
0.0
 10
327.8306251815038
 20
357.0153561007103
 30
0.0
 10
327.8652738096342
 20
357.0172826947989
 30
0.0
 10
327.8769532156758
 20
357.0178737373634
 30
0.0
 10
327.900374865389
 20
357.0189414879817
 30
0.0
 10
327.9121016275792
 20
357.0194178195476
 30
0.0
 10
327.9708135073808
 20
357.0215147963437
 30
0.0
 10
328.0180307715872
 20
357.0222862849927
 30
0.0
 10
328.0892230892929
 20
357.0220817034187
 30
0.0
 10
328.1130153305838
 20
357.0217855967939
 30
0.0
 10
328.1607269022317
 20
357.0207250651368
 30
0.0
 10
328.184334668253
 20
357.0199670737267
 30
0.0
 10
328.2542019592576
 20
357.0170463922909
 30
0.0
 10
328.2996175900937
 20
357.0142383819747
 30
0.0
 10
328.3549047416556
 20
357.0096961677236
 30
0.0
 10
328.3658874239112
 20
357.0087358174418
 30
0.0
 10
328.3876999121067
 20
357.0067111788369
 30
0.0
 10
328.3985548597682
 20
357.0056441212451
 30
0.0
 10
328.4306037898378
 20
357.002316048638
 30
0.0
 10
328.4513348254215
 20
356.9999247805447
 30
0.0
 10
328.5116419841642
 20
356.9922700920356
 30
0.0
 10
328.5493636631814
 20
356.9865270417559
 30
0.0
 10
328.5843941722768
 20
356.9802055111613
 30
0.0
  0
SPLINE
  5
186
330
1F
100
AcDbEntity
  8
1
100
AcDbSpline
210
0.0
220
0.0
230
1.0
 70
     8
 71
     3
 72
     8
 73
     4
 74
     0
 42
0.000000001
 43
0.0000000001
 40
0.0
 40
0.0
 40
0.0
 40
0.0
 40
1.0
 40
1.0
 40
1.0
 40
1.0
 10
334.3759263030125
 20
357.6760837251268
 30
0.0
 10
334.103739976305
 20
357.3970000590202
 30
0.0
 10
333.8310213250074
 20
357.1184612586098
 30
0.0
 10
333.5578995679841
 20
356.8403350607472
 30
0.0
  0
SPLINE
  5
187
330
1F
100
AcDbEntity
  8
1
100
AcDbSpline
210
0.0
220
0.0
230
1.0
 70
     8
 71
     3
 72
    32
 73
    28
 74
     0
 42
0.000000001
 43
0.0000000001
 40
0.0
 40
0.0
 40
0.0
 40
0.0
 40
0.0624999999999954
 40
0.0624999999999954
 40
0.124999999999991
 40
0.124999999999991
 40
0.2499999999999878
 40
0.2499999999999878
 40
0.3124999999999893
 40
0.3124999999999893
 40
0.3749999999999911
 40
0.3749999999999911
 40
0.5000000000000008
 40
0.5000000000000008
 40
0.5625000000000023
 40
0.5937500000000029
 40
0.5937500000000029
 40
0.6250000000000036
 40
0.6250000000000036
 40
0.7500000000000111
 40
0.7500000000000111
 40
0.812500000000012
 40
0.8437500000000095
 40
0.8437500000000095
 40
0.8750000000000072
 40
0.8750000000000072
 40
1.0
 40
1.0
 40
1.0
 40
1.0
 10
339.9541727066806
 20
359.5710155987205
 30
0.0
 10
339.9837460995176
 20
359.5581482673317
 30
0.0
 10
340.0138605017898
 20
359.545839783367
 30
0.0
 10
340.0752684377358
 20
359.5224167232333
 30
0.0
 10
340.1066704282717
 20
359.5112687731082
 30
0.0
 10
340.2017609679102
 20
359.4801045543495
 30
0.0
 10
340.2664080470466
 20
359.4623010703035
 30
0.0
 10
340.3654722942062
 20
359.4404593097597
 30
0.0
 10
340.3988436728306
 20
359.4339919231574
 30
0.0
 10
340.4663368620531
 20
359.4227890437931
 30
0.0
 10
340.5005817871298
 20
359.4180460072781
 30
0.0
 10
340.6027940723528
 20
359.4067767167431
 30
0.0
 10
340.6706636562337
 20
359.4031036350533
 30
0.0
 10
340.7720498889864
 20
359.4034960491816
 30
0.0
 10
340.8226384045399
 20
359.4051714439237
 30
0.0
 10
340.873067439823
 20
359.4091280022444
 30
0.0
 10
340.9066510162899
 20
359.4122822946308
 30
0.0
 10
340.9233929152703
 20
359.4141160289332
 30
0.0
 10
341.0061809734246
 20
359.424474162629
 30
0.0
 10
341.0701018319711
 20
359.4366070230748
 30
0.0
 10
341.1628550429604
 20
359.4601762158782
 30
0.0
 10
341.2084472638578
 20
359.4733080014911
 30
0.0
 10
341.2529068094863
 20
359.4884241201701
 30
0.0
 10
341.2822985013175
 20
359.4989408414414
 30
0.0
 10
341.2968804096103
 20
359.5044238460795
 30
0.0
 10
341.3686101954779
 20
359.5326986871067
 30
0.0
 10
341.4227083363784
 20
359.5582140028173
 30
0.0
 10
341.4740159848627
 20
359.5863248450884
 30
0.0
  0
SPLINE
  5
188
330
1F
100
AcDbEntity
  8
1
100
AcDbSpline
210
0.0
220
0.0
230
1.0
 70
     8
 71
     3
 72
    80
 73
    76
 74
     0
 42
0.000000001
 43
0.0000000001
 40
0.0
 40
0.0
 40
0.0
 40
0.0
 40
0.0156250000000031
 40
0.0156250000000031
 40
0.0312500000000062
 40
0.0312500000000062
 40
0.0625000000000113
 40
0.0625000000000113
 40
0.0937500000000163
 40
0.0937500000000163
 40
0.1093750000000181
 40
0.1093750000000181
 40
0.1250000000000199
 40
0.1250000000000199
 40
0.156250000000025
 40
0.156250000000025
 40
0.1875000000000302
 40
0.1875000000000302
 40
0.203125000000032
 40
0.203125000000032
 40
0.2187500000000338
 40
0.2187500000000338
 40
0.2500000000000386
 40
0.2500000000000386
 40
0.2812500000000435
 40
0.2812500000000435
 40
0.2890625000000449
 40
0.2890625000000449
 40
0.2968750000000462
 40
0.3125000000000476
 40
0.3125000000000476
 40
0.3437500000000504
 40
0.3750000000000532
 40
0.3750000000000532
 40
0.4062500000000561
 40
0.4062500000000561
 40
0.4375000000000588
 40
0.4687500000000617
 40
0.4765625000000619
 40
0.4765625000000619
 40
0.484375000000062
 40
0.484375000000062
 40
0.5000000000000613
 40
0.5000000000000613
 40
0.5625000000000571
 40
0.5625000000000571
 40
0.5781250000000558
 40
0.5781250000000558
 40
0.5859375000000549
 40
0.5859375000000549
 40
0.593750000000054
 40
0.593750000000054
 40
0.6250000000000502
 40
0.6250000000000502
 40
0.6875000000000423
 40
0.6875000000000423
 40
0.7031250000000405
 40
0.7031250000000405
 40
0.7187500000000387
 40
0.7187500000000387
 40
0.7500000000000348
 40
0.7500000000000348
 40
0.8125000000000264
 40
0.8125000000000264
 40
0.8437500000000227
 40
0.8437500000000227
 40
0.8593750000000204
 40
0.8593750000000204
 40
0.8750000000000181
 40
0.8750000000000181
 40
0.9375000000000097
 40
0.9375000000000097
 40
0.9687500000000047
 40
0.9687500000000047
 40
1.0
 40
1.0
 40
1.0
 40
1.0
 10
341.4740159848627
 20
362.7887807545739
 30
0.0
 10
341.4440399082884
 20
362.8088806058169
 30
0.0
 10
341.4134381081385
 20
362.828336077989
 30
0.0
 10
341.3515043708653
 20
362.8656024708008
 30
0.0
 10
341.3201513058301
 20
362.8834320882958
 30
0.0
 10
341.2249399276028
 20
362.9345141239771
 30
0.0
 10
341.1599324017116
 20
362.965365730481
 30
0.0
 10
341.0268149572556
 20
363.0205431498659
 30
0.0
 10
340.9587056143081
 20
363.044870229908
 30
0.0
 10
340.8541119312904
 20
363.0762223995837
 30
0.0
 10
340.8187383052088
 20
363.0858371189364
 30
0.0
 10
340.747893979692
 20
363.1031163204866
 30
0.0
 10
340.7123808349805
 20
363.1107997533542
 30
0.0
 10
340.6055701887022
 20
363.1310086814662
 30
0.0
 10
340.534002162155
 20
363.1407007834545
 30
0.0
 10
340.3901370409349
 20
363.1524766278246
 30
0.0
 10
340.3178400593092
 20
363.1545615919008
 30
0.0
 10
340.2088249364263
 20
363.1517454455783
 30
0.0
 10
340.1723547074579
 20
363.1498037694228
 30
0.0
 10
340.1001399850128
 20
363.1439681716113
 30
0.0
 10
340.0642823324108
 20
363.1400742070659
 30
0.0
 10
339.9574506277244
 20
363.1255040841312
 30
0.0
 10
339.8872153383863
 20
363.11194811053
 30
0.0
 10
339.7487353621338
 20
363.0771582635352
 30
0.0
 10
339.6804903755705
 20
363.0559252092163
 30
0.0
 10
339.5964921242363
 20
363.0244150859065
 30
0.0
 10
339.5797838362753
 20
363.017872614114
 30
0.0
 10
339.5467170789558
 20
363.0043772788393
 30
0.0
 10
339.4975676724782
 20
362.9834909884016
 30
0.0
 10
339.4497557382955
 20
362.9607037373686
 30
0.0
 10
339.3558922445583
 20
362.9126496931874
 30
0.0
 10
339.2354250552281
 20
362.8419787484942
 30
0.0
 10
339.1243402961263
 20
362.7583552389057
 30
0.0
 10
339.0181199336191
 20
362.6681655543052
 30
0.0
 10
338.9685299537029
 20
362.6207057517131
 30
0.0
 10
338.8761991755855
 20
362.5216713659663
 30
0.0
 10
338.7906447276572
 20
362.4184538259228
 30
0.0
 10
338.7091988334836
 20
362.2935184378467
 30
0.0
 10
338.669082359614
 20
362.2211626698324
 30
0.0
 10
338.6534491992355
 20
362.191984980376
 30
0.0
 10
338.6458416177378
 20
362.177281439818
 30
0.0
 10
338.6237802757213
 20
362.1331128997733
 30
0.0
 10
338.6100349668233
 20
362.1034942416148
 30
0.0
 10
338.5459174662427
 20
361.9546140744403
 30
0.0
 10
338.5092519708502
 20
361.8330266177887
 30
0.0
 10
338.4798448841044
 20
361.6787828565936
 30
0.0
 10
338.4747917617515
 20
361.6478191246949
 30
0.0
 10
338.4684391911684
 20
361.6012114483737
 30
0.0
 10
338.4665253234187
 20
361.5856358147494
 30
0.0
 10
338.4631202023741
 20
361.5545867081267
 30
0.0
 10
338.4616262564827
 20
361.5390960522268
 30
0.0
 10
338.4551730894603
 20
361.461811219962
 30
0.0
 10
338.4532554046842
 20
361.4005221735321
 30
0.0
 10
338.4564292114709
 20
361.2182369964519
 30
0.0
 10
338.4703824089732
 20
361.0988211831964
 30
0.0
 10
338.50117784638
 20
360.9521032947181
 30
0.0
 10
338.5080100270996
 20
360.9228874459848
 30
0.0
 10
338.5230050119811
 20
360.8647096318175
 30
0.0
 10
338.5311449296602
 20
360.835843277402
 30
0.0
 10
338.5573236322448
 20
360.7502338849166
 30
0.0
 10
338.5771547469409
 20
360.6943310597209
 30
0.0
 10
338.6433390907659
 20
360.5298910332086
 30
0.0
 10
338.6963288261406
 20
360.4246060269367
 30
0.0
 10
338.7884421926673
 20
360.2725824955764
 30
0.0
 10
338.8212653958345
 20
360.2228963322552
 30
0.0
 10
338.8737234017498
 20
360.1498100648438
 30
0.0
 10
338.8917753651357
 20
360.1256533421747
 30
0.0
 10
338.9288380075028
 20
360.077992155437
 30
0.0
 10
338.9478193566943
 20
360.0545221652583
 30
0.0
 10
339.044965648742
 20
359.9389298968234
 30
0.0
 10
339.1297740475044
 20
359.8520389300909
 30
0.0
 10
339.2682899355709
 20
359.729710329863
 30
0.0
 10
339.3163599177959
 20
359.6902767189774
 30
0.0
 10
339.4166217120251
 20
359.6141437472465
 30
0.0
 10
339.4688108421555
 20
359.5774432734638
 30
0.0
 10
339.5233269840993
 20
359.542183230644
 30
0.0
  0
SPLINE
  5
189
330
1F
100
AcDbEntity
  8
1
100
AcDbSpline
210
0.0
220
0.0
230
1.0
 70
     8
 71
     3
 72
     8
 73
     4
 74
     0
 42
0.000000001
 43
0.0000000001
 40
0.0
 40
0.0
 40
0.0
 40
0.0
 40
1.0
 40
1.0
 40
1.0
 40
1.0
 10
347.5832712987333
 20
360.3343105885884
 30
0.0
 10
347.5972970503747
 20
360.2537942905211
 30
0.0
 10
347.6120078493033
 20
360.1742177858287
 30
0.0
 10
347.627380355916
 20
360.0955490556933
 30
0.0
  0
SPLINE
  5
18A
330
1F
100
AcDbEntity
  8
1
100
AcDbSpline
210
0.0
220
0.0
230
1.0
 70
     8
 71
     3
 72
    10
 73
     6
 74
     0
 42
0.000000001
 43
0.0000000001
 40
0.0
 40
0.0
 40
0.0
 40
0.0
 40
0.5
 40
0.5
 40
1.0
 40
1.0
 40
1.0
 40
1.0
 10
347.627380355916
 20
359.7154282287176
 30
0.0
 10
347.2718761634006
 20
359.4520298893322
 30
0.0
 10
346.9131667130073
 20
359.1936166509307
 30
0.0
 10
346.1910202947573
 20
358.6841428280657
 30
0.0
 10
345.8275736337568
 20
358.4330973192382
 30
0.0
 10
345.4623168464548
 20
358.1848670791815
 30
0.0
  0
SPLINE
  5
18B
330
1F
100
AcDbEntity
  8
1
100
AcDbSpline
210
0.0
220
0.0
230
1.0
 70
     8
 71
     3
 72
     8
 73
     4
 74
     0
 42
0.000000001
 43
0.0000000001
 40
0.0
 40
0.0
 40
0.0
 40
0.0
 40
1.0
 40
1.0
 40
1.0
 40
1.0
 10
345.4182077892722
 20
358.2634140554627
 30
0.0
 10
345.432907236415
 20
358.2372296290459
 30
0.0
 10
345.4476102896285
 20
358.2110473237074
 30
0.0
 10
345.4623168464548
 20
358.1848670791815
 30
0.0
  0
SPLINE
  5
18C
330
1F
100
AcDbEntity
  8
1
100
AcDbSpline
210
0.0
220
0.0
230
1.0
 70
     8
 71
     3
 72
     8
 73
     4
 74
     0
 42
0.000000001
 43
0.0000000001
 40
0.0
 40
0.0
 40
0.0
 40
0.0
 40
1.0
 40
1.0
 40
1.0
 40
1.0
 10
324.5748486011854
 20
358.3884019764295
 30
0.0
 10
325.4410567703765
 20
358.257543853203
 30
0.0
 10
326.3077544138547
 20
358.1296094690347
 30
0.0
 10
327.1748486011854
 20
358.0040437297177
 30
0.0
  0
SPLINE
  5
18D
330
1F
100
AcDbEntity
  8
1
100
AcDbSpline
210
0.0
220
0.0
230
1.0
 70
     8
 71
     3
 72
    34
 73
    30
 74
     0
 42
0.000000001
 43
0.0000000001
 40
0.0
 40
0.0
 40
0.0
 40
0.0
 40
0.1249999999999981
 40
0.1249999999999981
 40
0.1874999999999972
 40
0.1874999999999972
 40
0.2499999999999962
 40
0.2499999999999962
 40
0.3749999999999964
 40
0.3749999999999964
 40
0.4999999999999968
 40
0.4999999999999968
 40
0.5624999999999963
 40
0.5624999999999963
 40
0.6249999999999956
 40
0.6249999999999956
 40
0.6874999999999949
 40
0.6874999999999949
 40
0.7187499999999957
 40
0.7187499999999957
 40
0.7499999999999963
 40
0.7499999999999963
 40
0.8124999999999971
 40
0.8124999999999971
 40
0.8749999999999982
 40
0.8749999999999982
 40
0.9374999999999992
 40
0.9374999999999992
 40
1.0
 40
1.0
 40
1.0
 40
1.0
 10
324.1748486011854
 20
358.8306375154645
 30
0.0
 10
324.1748486011854
 20
358.8086448359128
 30
0.0
 10
324.1764400937299
 20
358.7867144008189
 30
0.0
 10
324.1813426062788
 20
358.7539017648957
 30
0.0
 10
324.1833977718853
 20
358.7429779141449
 30
0.0
 10
324.1883959058221
 20
358.7211539306836
 30
0.0
 10
324.1913440466025
 20
358.7102371562207
 30
0.0
 10
324.2015840375977
 20
358.6776256641364
 30
0.0
 10
324.2101976466404
 20
358.6562530244667
 30
0.0
 10
324.2314179708149
 20
358.6142497122908
 30
0.0
 10
324.2440152050315
 20
358.593618333769
 30
0.0
 10
324.2665503539369
 20
358.5632591791741
 30
0.0
 10
324.2747058226649
 20
358.5532024027332
 30
0.0
 10
324.292242358852
 20
358.5334984464783
 30
0.0
 10
324.3016109978228
 20
358.523857609433
 30
0.0
 10
324.3216905559623
 20
358.5050274099521
 30
0.0
 10
324.3324002704697
 20
358.4958377291873
 30
0.0
 10
324.3496311613835
 20
358.4824279815409
 30
0.0
 10
324.3555698463968
 20
358.478020705898
 30
0.0
 10
324.3678750198881
 20
358.4693404179688
 30
0.0
 10
324.3742611453177
 20
358.4650551777813
 30
0.0
 10
324.3939662713901
 20
358.4525225927948
 30
0.0
 10
324.4078065482143
 20
358.4446043101451
 30
0.0
 10
324.4371172213031
 20
358.4297525367214
 30
0.0
 10
324.45258417268
 20
358.4228170736824
 30
0.0
 10
324.4855233055722
 20
358.41012962554
 30
0.0
 10
324.5025854926913
 20
358.4045430609791
 30
0.0
 10
324.5377982405554
 20
358.3951125547447
 30
0.0
 10
324.5559808740468
 20
358.3912523251687
 30
0.0
 10
324.5748486011854
 20
358.3884019764295
 30
0.0
  0
SPLINE
  5
18E
330
1F
100
AcDbEntity
  8
1
100
AcDbSpline
210
0.0
220
0.0
230
1.0
 70
     8
 71
     3
 72
    49
 73
    45
 74
     0
 42
0.000000001
 43
0.0000000001
 40
0.0
 40
0.0
 40
0.0
 40
0.0
 40
0.0312499999999992
 40
0.0312499999999992
 40
0.0468749999999986
 40
0.0468749999999986
 40
0.0624999999999981
 40
0.0624999999999981
 40
0.1249999999999992
 40
0.1249999999999992
 40
0.1875000000000004
 40
0.1875000000000004
 40
0.2187500000000009
 40
0.2187500000000009
 40
0.2500000000000015
 40
0.2500000000000015
 40
0.3125000000000029
 40
0.3125000000000029
 40
0.3750000000000043
 40
0.3750000000000043
 40
0.4062500000000047
 40
0.4062500000000047
 40
0.4375000000000052
 40
0.4375000000000052
 40
0.5000000000000055
 40
0.5000000000000055
 40
0.5625000000000062
 40
0.6250000000000067
 40
0.6250000000000067
 40
0.6562500000000066
 40
0.6562500000000066
 40
0.6875000000000066
 40
0.6875000000000066
 40
0.7500000000000061
 40
0.8125000000000055
 40
0.8125000000000055
 40
0.8437500000000051
 40
0.8593750000000047
 40
0.8593750000000047
 40
0.8750000000000044
 40
0.8750000000000044
 40
0.9375000000000021
 40
0.9375000000000021
 40
1.0
 40
1.0
 40
1.0
 40
1.0
 10
341.4740159848627
 20
362.7887807545739
 30
0.0
 10
341.5085526829225
 20
362.7656228709294
 30
0.0
 10
341.542416814939
 20
362.7415375308767
 30
0.0
 10
341.5922149474501
 20
362.7040360722057
 30
0.0
 10
341.6086800576727
 20
362.6912799082189
 30
0.0
 10
341.6410166303913
 20
362.6655226082318
 30
0.0
 10
341.6569403603901
 20
362.6524822922765
 30
0.0
 10
341.7353700625252
 20
362.5864966798749
 30
0.0
 10
341.7943237611273
 20
362.5312090118545
 30
0.0
 10
341.9052622056343
 20
362.4160866892923
 30
0.0
 10
341.957243814529
 20
362.356249844041
 30
0.0
 10
342.0302099314165
 20
362.2632651201549
 30
0.0
 10
342.0536954630897
 20
362.2317305731605
 30
0.0
 10
342.0990072803448
 20
362.167597410864
 30
0.0
 10
342.1208467242623
 20
362.1349664287267
 30
0.0
 10
342.18319777818
 20
362.036623278999
 30
0.0
 10
342.2208176812535
 20
361.9701052616231
 30
0.0
 10
342.2887156488044
 20
361.8353470355665
 30
0.0
 10
342.3189913574166
 20
361.7671061217343
 30
0.0
 10
342.3591000357688
 20
361.6635387141443
 30
0.0
 10
342.37158349341
 20
361.6288147286691
 30
0.0
 10
342.3947901607333
 20
361.5589724686877
 30
0.0
 10
342.4055154906868
 20
361.5238292186071
 30
0.0
 10
342.4348051682168
 20
361.4187905152268
 30
0.0
 10
342.4506052776731
 20
361.3489667369033
 30
0.0
 10
342.475155555226
 20
361.2097442562904
 30
0.0
 10
342.4926533174436
 20
361.0709468452932
 30
0.0
 10
342.4963733327894
 20
360.9330460990161
 30
0.0
 10
342.4939555384091
 20
360.8299763447036
 30
0.0
 10
342.4922786457326
 20
360.7957688428361
 30
0.0
 10
342.4872318526623
 20
360.7280469345416
 30
0.0
 10
342.4838608651665
 20
360.6944720065837
 30
0.0
 10
342.4712450769436
 20
360.5945930434542
 30
0.0
 10
342.4477628704854
 20
360.4636731573032
 30
0.0
 10
342.4110513446434
 20
360.3372148572386
 30
0.0
 10
342.3784196583418
 20
360.244072483749
 30
0.0
 10
342.3608265715257
 20
360.1979273316177
 30
0.0
 10
342.3412645256592
 20
360.1524334257821
 30
0.0
 10
342.3277775637886
 20
360.1222507672325
 30
0.0
 10
342.3208018867929
 20
360.1072136549506
 30
0.0
 10
342.2849470964757
 20
360.0327244344719
 30
0.0
 10
342.2531151485726
 20
359.9752546135067
 30
0.0
 10
342.1830995809988
 20
359.8645209038738
 30
0.0
 10
342.1449171686271
 20
359.8112564989062
 30
0.0
 10
342.1034031907748
 20
359.7601489721582
 30
0.0
  0
SPLINE
  5
18F
330
1F
100
AcDbEntity
  8
1
100
AcDbSpline
210
0.0
220
0.0
230
1.0
 70
     8
 71
     3
 72
    14
 73
    10
 74
     0
 42
0.000000001
 43
0.0000000001
 40
0.0
 40
0.0
 40
0.0
 40
0.0
 40
0.25
 40
0.25
 40
0.5
 40
0.5
 40
0.75
 40
0.75
 40
1.0
 40
1.0
 40
1.0
 40
1.0
 10
349.6753218791778
 20
363.1386264605407
 30
0.0
 10
349.6677823182424
 20
363.145805308782
 30
0.0
 10
349.6596724431053
 20
363.1524433314055
 30
0.0
 10
349.6425923229978
 20
363.1644154519332
 30
0.0
 10
349.6335887649744
 20
363.1697971712725
 30
0.0
 10
349.6146799109476
 20
363.1793848611849
 30
0.0
 10
349.6047075361226
 20
363.1836113194073
 30
0.0
 10
349.5842491146037
 20
363.1907140345581
 30
0.0
 10
349.5737602192492
 20
363.193605601421
 30
0.0
 10
349.5630099618962
 20
363.1958331157314
 30
0.0
  0
SPLINE
  5
190
330
1F
100
AcDbEntity
  8
1
100
AcDbSpline
210
0.0
220
0.0
230
1.0
 70
     8
 71
     3
 72
    18
 73
    14
 74
     0
 42
0.000000001
 43
0.0000000001
 40
0.0
 40
0.0
 40
0.0
 40
0.0
 40
0.2500000000000133
 40
0.2500000000000133
 40
0.3750000000000179
 40
0.3750000000000179
 40
0.5000000000000227
 40
0.5000000000000227
 40
0.7500000000000148
 40
0.7500000000000148
 40
0.8750000000000074
 40
0.8750000000000074
 40
1.0
 40
1.0
 40
1.0
 40
1.0
 10
349.6753218791778
 20
363.1386264605407
 30
0.0
 10
349.6901256996894
 20
363.1245308942667
 30
0.0
 10
349.7035339911518
 20
363.1089067981454
 30
0.0
 10
349.7218697201729
 20
363.0833781868672
 30
0.0
 10
349.7276754950545
 20
363.0745123323823
 30
0.0
 10
349.7386195807047
 20
363.0560168070243
 30
0.0
 10
349.7436711277073
 20
363.0464976198331
 30
0.0
 10
349.7575515965273
 20
363.0174414448952
 30
0.0
 10
349.7652360147049
 20
362.997325427109
 30
0.0
 10
349.7745558807947
 20
362.9660990769915
 30
0.0
 10
349.7772671020454
 20
362.9555630342198
 30
0.0
 10
349.7817826548066
 20
362.9344502774919
 30
0.0
 10
349.7835845365627
 20
362.9238362133108
 30
0.0
 10
349.7849208526076
 20
362.9131596715489
 30
0.0
  0
SPLINE
  5
191
330
1F
100
AcDbEntity
  8
1
100
AcDbSpline
210
0.0
220
0.0
230
1.0
 70
     8
 71
     3
 72
    12
 73
     8
 74
     0
 42
0.000000001
 43
0.0000000001
 40
0.0
 40
0.0
 40
0.0
 40
0.0
 40
0.499999999999988
 40
0.499999999999988
 40
0.749999999999994
 40
0.749999999999994
 40
1.0
 40
1.0
 40
1.0
 40
1.0
 10
349.7776069882091
 20
362.8205247008764
 30
0.0
 10
349.7820456016834
 20
362.8357193277708
 30
0.0
 10
349.7847973646591
 20
362.8510569160404
 30
0.0
 10
349.7866132635965
 20
362.8742592199632
 30
0.0
 10
349.7868283403806
 20
362.88202639284
 30
0.0
 10
349.7864668346199
 20
362.897627832098
 30
0.0
 10
349.785883562373
 20
362.9054680696627
 30
0.0
 10
349.7849208526076
 20
362.9131596715489
 30
0.0
  0
SPLINE
  5
192
330
1F
100
AcDbEntity
  8
1
100
AcDbSpline
210
0.0
220
0.0
230
1.0
 70
    24
 71
     1
 72
     4
 73
     2
 74
     0
 42
0.000000001
 43
0.0000000001
 40
0.0
 40
0.0
 40
1.0
 40
1.0
 10
351.3590810870282
 20
362.77110102394
 30
0.0
 10
349.7776069882091
 20
362.8205247008764
 30
0.0
  0
SPLINE
  5
193
330
1F
100
AcDbEntity
  8
1
100
AcDbSpline
210
0.0
220
0.0
230
1.0
 70
     8
 71
     3
 72
    10
 73
     6
 74
     0
 42
0.000000001
 43
0.0000000001
 40
0.0
 40
0.0
 40
0.0
 40
0.0
 40
0.5
 40
0.5
 40
1.0
 40
1.0
 40
1.0
 40
1.0
 10
333.5578995679841
 20
370.184135927669
 30
0.0
 10
333.6894790681932
 20
370.0184929419259
 30
0.0
 10
333.8234045556435
 20
369.8593103014764
 30
0.0
 10
334.0960434596276
 20
369.5529237265329
 30
0.0
 10
334.2347565581669
 20
369.4057225866368
 30
0.0
 10
334.3759263030126
 20
369.2641899233482
 30
0.0
  0
SPLINE
  5
194
330
1F
100
AcDbEntity
  8
1
100
AcDbSpline
210
0.0
220
0.0
230
1.0
 70
     8
 71
     3
 72
    25
 73
    21
 74
     0
 42
0.000000001
 43
0.0000000001
 40
0.0
 40
0.0
 40
0.0
 40
0.0
 40
0.1249999999999997
 40
0.1249999999999997
 40
0.2499999999999994
 40
0.2499999999999994
 40
0.3749999999999991
 40
0.3749999999999991
 40
0.4999999999999988
 40
0.4999999999999988
 40
0.5624999999999991
 40
0.5937499999999992
 40
0.5937499999999992
 40
0.6249999999999992
 40
0.6249999999999992
 40
0.7499999999999995
 40
0.7499999999999995
 40
0.8749999999999998
 40
0.8749999999999998
 40
1.0
 40
1.0
 40
1.0
 40
1.0
 10
334.3759263030126
 20
369.2641899233482
 30
0.0
 10
334.579127106437
 20
369.0954768871467
 30
0.0
 10
334.7880397566387
 20
368.9329326121489
 30
0.0
 10
335.2172184008284
 20
368.6214472146102
 30
0.0
 10
335.4374832835926
 20
368.4725027144303
 30
0.0
 10
335.8893285831921
 20
368.1893457358246
 30
0.0
 10
336.1209079296175
 20
368.0551304773169
 30
0.0
 10
336.5954114839404
 20
367.8025233641555
 30
0.0
 10
336.8383344421094
 20
367.6841288296971
 30
0.0
 10
337.2113253212905
 20
367.5192549993683
 30
0.0
 10
337.3999737262404
 20
367.4399984381128
 30
0.0
 10
337.5918847885495
 20
367.3656846450327
 30
0.0
 10
337.7205554242372
 20
367.3172608388168
 30
0.0
 10
337.7853155569067
 20
367.2935878256327
 30
0.0
 10
338.1097756658757
 20
367.1784813647241
 30
0.0
 10
338.372010728533
 20
367.0965835124132
 30
0.0
 10
338.9016355359946
 20
366.9531857031579
 30
0.0
 10
339.1690250575384
 20
366.8916839486685
 30
0.0
 10
339.708882900461
 20
366.7893241275104
 30
0.0
 10
339.9813507101247
 20
366.7484635666406
 30
0.0
 10
340.25637702511
 20
366.718191854839
 30
0.0
  0
SPLINE
  5
195
330
1F
100
AcDbEntity
  8
1
100
AcDbSpline
210
0.0
220
0.0
230
1.0
 70
     8
 71
     3
 72
    30
 73
    26
 74
     0
 42
0.000000001
 43
0.0000000001
 40
0.0
 40
0.0
 40
0.0
 40
0.0
 40
0.0625000000000001
 40
0.0625000000000001
 40
0.1250000000000001
 40
0.1250000000000001
 40
0.1875000000000002
 40
0.1875000000000002
 40
0.2500000000000002
 40
0.2500000000000002
 40
0.3750000000000003
 40
0.3750000000000003
 40
0.4375000000000007
 40
0.4375000000000007
 40
0.5000000000000008
 40
0.5000000000000008
 40
0.6249999999999995
 40
0.6249999999999995
 40
0.7499999999999979
 40
0.7499999999999979
 40
0.812499999999998
 40
0.812499999999998
 40
0.8749999999999984
 40
0.8749999999999984
 40
1.0
 40
1.0
 40
1.0
 40
1.0
 10
324.5748486011854
 20
368.8394714625475
 30
0.0
 10
324.555970539419
 20
368.8366195525555
 30
0.0
 10
324.5377791863926
 20
368.8318506790281
 30
0.0
 10
324.5025513378548
 20
368.8190885543432
 30
0.0
 10
324.4854871676972
 20
368.8110724332954
 30
0.0
 10
324.4525275680187
 20
368.7921872421152
 30
0.0
 10
324.4370297458418
 20
368.7815582572179
 30
0.0
 10
324.407635340765
 20
368.7583602231177
 30
0.0
 10
324.3937032338121
 20
368.7457474046962
 30
0.0
 10
324.3542524314664
 20
368.70562284698
 30
0.0
 10
324.3316005291035
 20
368.676507676432
 30
0.0
 10
324.3015138061775
 20
368.6302781134433
 30
0.0
 10
324.2921491132507
 20
368.6144321399075
 30
0.0
 10
324.2746122141157
 20
368.5819519207789
 30
0.0
 10
324.266462087732
 20
368.5653458282172
 30
0.0
 10
324.24395615885
 20
368.5151886067653
 30
0.0
 10
324.2313882101765
 20
368.4810542693277
 30
0.0
 10
324.2102223928361
 20
368.4116214989933
 30
0.0
 10
324.2016343725659
 20
368.3763205048177
 30
0.0
 10
324.191418734532
 20
368.3225713856198
 30
0.0
 10
324.1884549520407
 20
368.3044761717641
 30
0.0
 10
324.1834277644571
 20
368.2682756765118
 30
0.0
 10
324.181362999757
 20
368.2501817835982
 30
0.0
 10
324.1764409361407
 20
368.1959159427325
 30
0.0
 10
324.1748486011854
 20
368.1597595051222
 30
0.0
 10
324.1748486011854
 20
368.123619808852
 30
0.0
  0
SPLINE
  5
196
330
1F
100
AcDbEntity
  8
1
100
AcDbSpline
210
0.0
220
0.0
230
1.0
 70
     8
 71
     3
 72
     8
 73
     4
 74
     0
 42
0.000000001
 43
0.0000000001
 40
0.0
 40
0.0
 40
0.0
 40
0.0
 40
1.0
 40
1.0
 40
1.0
 40
1.0
 10
327.1748486011854
 20
369.2238297092594
 30
0.0
 10
326.3077544138548
 20
369.0982639699423
 30
0.0
 10
325.4410567703766
 20
368.970329585774
 30
0.0
 10
324.5748486011854
 20
368.8394714625475
 30
0.0
  0
SPLINE
  5
197
330
1F
100
AcDbEntity
  8
1
100
AcDbSpline
210
0.0
220
0.0
230
1.0
 70
     8
 71
     3
 72
    30
 73
    26
 74
     0
 42
0.000000001
 43
0.0000000001
 40
0.0
 40
0.0
 40
0.0
 40
0.0
 40
0.0625000000000022
 40
0.0625000000000022
 40
0.1250000000000043
 40
0.1250000000000043
 40
0.1875000000000065
 40
0.1875000000000065
 40
0.2187500000000072
 40
0.2187500000000072
 40
0.2500000000000079
 40
0.2500000000000079
 40
0.3750000000000041
 40
0.3750000000000041
 40
0.4375000000000041
 40
0.4375000000000041
 40
0.5000000000000041
 40
0.5000000000000041
 40
0.6250000000000031
 40
0.6250000000000031
 40
0.7500000000000022
 40
0.7500000000000022
 40
0.875000000000001
 40
0.875000000000001
 40
1.0
 40
1.0
 40
1.0
 40
1.0
 10
330.7748486011854
 20
369.2238297092594
 30
0.0
 10
330.7924664412713
 20
369.2238297092594
 30
0.0
 10
330.809738305799
 20
369.2221586684042
 30
0.0
 10
330.8436481907609
 20
369.2157531944396
 30
0.0
 10
330.8603385605933
 20
369.2109965097637
 30
0.0
 10
330.8928840478371
 20
369.1985927070904
 30
0.0
 10
330.9083474518867
 20
369.1911100299534
 30
0.0
 10
330.9305086131597
 20
369.1782443431833
 30
0.0
 10
330.9377222639977
 20
369.1736804588944
 30
0.0
 10
330.9518224718873
 20
369.1640322899221
 30
0.0
 10
330.9587323520696
 20
369.1589288610018
 30
0.0
 10
330.9921895502519
 20
369.132419235587
 30
0.0
 10
331.0153967946149
 20
369.1082671968251
 30
0.0
 10
331.0463224955481
 20
369.0687811130505
 30
0.0
 10
331.0560104440484
 20
369.0549950608268
 30
0.0
 10
331.073947814759
 20
369.0267926568856
 30
0.0
 10
331.0821978432781
 20
369.0123944221633
 30
0.0
 10
331.1050846376658
 20
368.9684209048551
 30
0.0
 10
331.1178752677724
 20
368.9380735467655
 30
0.0
 10
331.1394102103446
 20
368.875650426427
 30
0.0
 10
331.1481596629239
 20
368.8434288375898
 30
0.0
 10
331.1617869987411
 20
368.7786919580426
 30
0.0
 10
331.1667213830551
 20
368.7460501596518
 30
0.0
 10
331.1732536650985
 20
368.6802645156979
 30
0.0
 10
331.1748486011854
 20
368.6471203440487
 30
0.0
 10
331.1748486011854
 20
368.6137316874437
 30
0.0
  0
SPLINE
  5
198
330
1F
100
AcDbEntity
  8
1
100
AcDbSpline
210
0.0
220
0.0
230
1.0
 70
     8
 71
     3
 72
    30
 73
    26
 74
     0
 42
0.000000001
 43
0.0000000001
 40
0.0
 40
0.0
 40
0.0
 40
0.0
 40
0.1250000000000005
 40
0.1250000000000005
 40
0.2500000000000008
 40
0.2500000000000008
 40
0.3750000000000011
 40
0.3750000000000011
 40
0.4062500000000013
 40
0.4062500000000013
 40
0.4218750000000013
 40
0.4218750000000013
 40
0.4375000000000013
 40
0.5000000000000007
 40
0.5000000000000007
 40
0.6250000000000005
 40
0.6250000000000005
 40
0.7500000000000002
 40
0.7500000000000002
 40
0.8125000000000003
 40
0.8125000000000003
 40
0.84375
 40
0.84375
 40
0.8749999999999996
 40
1.0
 40
1.0
 40
1.0
 40
1.0
 10
330.4731314405654
 20
374.6350366239024
 30
0.0
 10
330.5469434448548
 20
374.5273313516818
 30
0.0
 10
330.623890916185
 20
374.4061777416359
 30
0.0
 10
330.7868611509545
 20
374.1388195415696
 30
0.0
 10
330.8728813110415
 20
373.9926078056748
 30
0.0
 10
331.0574143995443
 20
373.6765360523281
 30
0.0
 10
331.155921772265
 20
373.5066703033947
 30
0.0
 10
331.2894585997917
 20
373.2802869263312
 30
0.0
 10
331.3166881583512
 20
373.234307342435
 30
0.0
 10
331.3583711293322
 20
373.1642966237274
 30
0.0
 10
331.3724050444661
 20
373.1407866529536
 30
0.0
 10
331.4006751180613
 20
373.0935664288411
 30
0.0
 10
331.4719083031959
 20
372.9749269698642
 30
0.0
 10
331.5460058382674
 20
372.853423536659
 30
0.0
 10
331.7299217452885
 20
372.5569058403171
 30
0.0
 10
331.860635563073
 20
372.3526835096978
 30
0.0
 10
332.1414849366062
 20
371.9341745485851
 30
0.0
 10
332.2916166315491
 20
371.7198814902809
 30
0.0
 10
332.5339627996803
 20
371.3931580607872
 30
0.0
 10
332.6176051471581
 20
371.2833702672512
 30
0.0
 10
332.7477068688875
 20
371.1176651607354
 30
0.0
 10
332.7918570261143
 20
371.0622500905178
 30
0.0
 10
332.8813446009409
 20
370.9516393985376
 30
0.0
 10
333.1082772638531
 20
370.6753453616197
 30
0.0
 10
333.3516589066336
 20
370.4008777753224
 30
0.0
 10
333.5578995679841
 20
370.184135927669
 30
0.0
  0
SPLINE
  5
199
330
1F
100
AcDbEntity
  8
1
100
AcDbSpline
210
0.0
220
0.0
230
1.0
 70
     8
 71
     3
 72
    16
 73
    12
 74
     0
 42
0.000000001
 43
0.0000000001
 40
0.0
 40
0.0
 40
0.0
 40
0.0
 40
0.2499999999999601
 40
0.2499999999999601
 40
0.4999999999999202
 40
0.4999999999999202
 40
0.6249999999999419
 40
0.6249999999999419
 40
0.7499999999999636
 40
0.7499999999999636
 40
1.0
 40
1.0
 40
1.0
 40
1.0
 10
343.3000469809878
 20
371.299198282738
 30
0.0
 10
343.2964919727202
 20
371.2911318100164
 30
0.0
 10
343.2916804327202
 20
371.2837077077038
 30
0.0
 10
343.2802446197883
 20
371.2707565279197
 30
0.0
 10
343.273447267333
 20
371.2650666016549
 30
0.0
 10
343.2624481627549
 20
371.2582813836316
 30
0.0
 10
343.2586359164734
 20
371.2562911636654
 30
0.0
 10
343.2507232949075
 20
371.2528477918996
 30
0.0
 10
343.2465912786465
 20
371.2513886662433
 30
0.0
 10
343.2341012018661
 20
371.2479426554826
 30
0.0
 10
343.2255908703897
 20
371.2468222240607
 30
0.0
 10
343.2168957701376
 20
371.2468898053056
 30
0.0
  0
SPLINE
  5
19A
330
1F
100
AcDbEntity
  8
1
100
AcDbSpline
210
0.0
220
0.0
230
1.0
 70
     8
 71
     3
 72
    12
 73
     8
 74
     0
 42
0.000000001
 43
0.0000000001
 40
0.0
 40
0.0
 40
0.0
 40
0.0
 40
0.2499999999999587
 40
0.2499999999999587
 40
0.4999999999999174
 40
0.4999999999999174
 40
1.0
 40
1.0
 40
1.0
 40
1.0
 10
343.162083518767
 20
371.2294775178078
 30
0.0
 10
343.166074683689
 20
371.2323800333547
 30
0.0
 10
343.1702515758373
 20
371.2349125213115
 30
0.0
 10
343.1789549779062
 20
371.2392824339929
 30
0.0
 10
343.1835098283451
 20
371.2411280520521
 30
0.0
 10
343.1975166876582
 20
371.2455402411894
 30
0.0
 10
343.207089395993
 20
371.246966023745
 30
0.0
 10
343.2168957701376
 20
371.2468898053056
 30
0.0
  0
SPLINE
  5
19B
330
1F
100
AcDbEntity
  8
1
100
AcDbSpline
210
0.0
220
0.0
230
1.0
 70
     8
 71
     3
 72
    25
 73
    21
 74
     0
 42
0.000000001
 43
0.0000000001
 40
0.0
 40
0.0
 40
0.0
 40
0.0
 40
0.1250000000000189
 40
0.1250000000000189
 40
0.1875000000000228
 40
0.1875000000000228
 40
0.2500000000000266
 40
0.2500000000000266
 40
0.3750000000000222
 40
0.3750000000000222
 40
0.4375000000000201
 40
0.4375000000000201
 40
0.5000000000000178
 40
0.5000000000000178
 40
0.6250000000000134
 40
0.6250000000000134
 40
0.7500000000000089
 40
0.7500000000000089
 40
0.8750000000000044
 40
1.0
 40
1.0
 40
1.0
 40
1.0
 10
343.1536655230592
 20
371.8725698483108
 30
0.0
 10
343.1749067463014
 20
371.8561432148673
 30
0.0
 10
343.1945374796334
 20
371.8381994032546
 30
0.0
 10
343.2216267016264
 20
371.809063150538
 30
0.0
 10
343.2302616941869
 20
371.7989791547478
 30
0.0
 10
343.2467286098323
 20
371.7780545228291
 30
0.0
 10
343.2545863344523
 20
371.767174160835
 30
0.0
 10
343.276727872661
 20
371.7336348051494
 30
0.0
 10
343.2894398174535
 20
371.7103419324939
 30
0.0
 10
343.3055247524857
 20
371.6740432742117
 30
0.0
 10
343.3103866952071
 20
371.6617160118685
 30
0.0
 10
343.3190959880372
 20
371.63659908888
 30
0.0
 10
343.3229536458366
 20
371.6237681252606
 30
0.0
 10
343.332880146916
 20
371.5848368844572
 30
0.0
 10
343.3372322535975
 20
371.5586830456469
 30
0.0
 10
343.3415820540656
 20
371.5059920637872
 30
0.0
 10
343.3415755797831
 20
371.4794075123152
 30
0.0
 10
343.3370437569092
 20
371.4260350469295
 30
0.0
 10
343.3281221884163
 20
371.3737880998455
 30
0.0
 10
343.3108411985882
 20
371.3236908451372
 30
0.0
 10
343.3000469809878
 20
371.299198282738
 30
0.0
  0
SPLINE
  5
19C
330
1F
100
AcDbEntity
  8
1
100
AcDbSpline
210
0.0
220
0.0
230
1.0
 70
     8
 71
     3
 72
    18
 73
    14
 74
     0
 42
0.000000001
 43
0.0000000001
 40
0.0
 40
0.0
 40
0.0
 40
0.0
 40
0.250000000000006
 40
0.250000000000006
 40
0.3750000000000089
 40
0.3750000000000089
 40
0.5000000000000119
 40
0.5000000000000119
 40
0.625000000000015
 40
0.625000000000015
 40
0.7500000000000178
 40
0.7500000000000178
 40
1.0
 40
1.0
 40
1.0
 40
1.0
 10
343.0451924511893
 20
370.6167741885422
 30
0.0
 10
343.0527523199992
 20
370.6125713370086
 30
0.0
 10
343.0596965763629
 20
370.607318231793
 30
0.0
 10
343.0687212310581
 20
370.5982595714183
 30
0.0
 10
343.0715048837355
 20
370.5950429163087
 30
0.0
 10
343.0766131488514
 20
370.5882072523995
 30
0.0
 10
343.078950337286
 20
370.5845598830954
 30
0.0
 10
343.0830211295073
 20
370.5770409614254
 30
0.0
 10
343.0847687148646
 20
370.5731583179866
 30
0.0
 10
343.0876806168607
 20
370.5651440436667
 30
0.0
 10
343.0888507116159
 20
370.560981184864
 30
0.0
 10
343.091372415791
 20
370.5483209423023
 30
0.0
 10
343.0917549635562
 20
370.5397819215597
 30
0.0
 10
343.0907549376052
 20
370.5311398328055
 30
0.0
  0
SPLINE
  5
19D
330
1F
100
AcDbEntity
  8
1
100
AcDbSpline
210
0.0
220
0.0
230
1.0
 70
     8
 71
     3
 72
    10
 73
     6
 74
     0
 42
0.000000001
 43
0.0000000001
 40
0.0
 40
0.0
 40
0.0
 40
0.0
 40
0.5
 40
0.5
 40
1.0
 40
1.0
 40
1.0
 40
1.0
 10
343.0451924511893
 20
370.6167741885422
 30
0.0
 10
343.0366576312362
 20
370.6215190567446
 30
0.0
 10
343.0290256523191
 20
370.6274891939486
 30
0.0
 10
343.0158259741193
 20
370.6417245762664
 30
0.0
 10
343.0104989391725
 20
370.6497042612179
 30
0.0
 10
343.0065231984098
 20
370.6586033622806
 30
0.0
  0
SPLINE
  5
19E
330
1F
100
AcDbEntity
  8
1
100
AcDbSpline
210
0.0
220
0.0
230
1.0
 70
     8
 71
     3
 72
     8
 73
     4
 74
     0
 42
0.000000001
 43
0.0000000001
 40
0.0
 40
0.0
 40
0.0
 40
0.0
 40
1.0
 40
1.0
 40
1.0
 40
1.0
 10
343.0113318541462
 20
371.8686810688218
 30
0.0
 10
343.0071268250063
 20
371.8686809299048
 30
0.0
 10
343.0029063306724
 20
371.8689727011764
 30
0.0
 10
342.9986697945918
 20
371.8695639344369
 30
0.0
  0
SPLINE
  5
19F
330
1F
100
AcDbEntity
  8
1
100
AcDbSpline
210
0.0
220
0.0
230
1.0
 70
     8
 71
     3
 72
    28
 73
    24
 74
     0
 42
0.000000001
 43
0.0000000001
 40
0.0
 40
0.0
 40
0.0
 40
0.0
 40
0.0625000000000026
 40
0.0625000000000026
 40
0.1250000000000049
 40
0.1250000000000049
 40
0.2500000000000095
 40
0.2500000000000095
 40
0.3125000000000119
 40
0.3125000000000119
 40
0.3750000000000141
 40
0.3750000000000141
 40
0.5000000000000147
 40
0.5000000000000147
 40
0.5625000000000129
 40
0.5625000000000129
 40
0.6250000000000111
 40
0.6250000000000111
 40
0.7500000000000073
 40
0.7500000000000073
 40
0.8750000000000037
 40
0.8750000000000037
 40
1.0
 40
1.0
 40
1.0
 40
1.0
 10
343.0065231984098
 20
370.6586033622806
 30
0.0
 10
343.0011073004889
 20
370.6707260397431
 30
0.0
 10
342.9961748351554
 20
370.6830924438723
 30
0.0
 10
342.9873682499718
 20
370.7081245861608
 30
0.0
 10
342.9834990930988
 20
370.7207675172521
 30
0.0
 10
342.9734929630695
 20
370.7590829644872
 30
0.0
 10
342.9689450196583
 20
370.7851391006312
 30
0.0
 10
342.9655117178233
 20
370.8250676112456
 30
0.0
 10
342.9649408182385
 20
370.8385518818914
 30
0.0
 10
342.9649859493608
 20
370.8652985557108
 30
0.0
 10
342.9655937268567
 20
370.8786210076547
 30
0.0
 10
342.969165592129
 20
370.9184386371663
 30
0.0
 10
342.9738661662249
 20
370.9447854268695
 30
0.0
 10
342.9845768305703
 20
370.9839968501819
 30
0.0
 10
342.9887317112964
 20
370.9968948679382
 30
0.0
 10
342.9980838391622
 20
371.0220780377813
 30
0.0
 10
343.0032932047371
 20
371.034408313148
 30
0.0
 10
343.0204821223842
 20
371.070634599975
 30
0.0
 10
343.034012252569
 20
371.0937710515093
 30
0.0
 10
343.0652558395684
 20
371.1379970486844
 30
0.0
 10
343.0825672343226
 20
371.1585049069341
 30
0.0
 10
343.1200932527658
 20
371.1963167119213
 30
0.0
 10
343.1403441470056
 20
371.213667881837
 30
0.0
 10
343.162083518767
 20
371.2294775178078
 30
0.0
  0
SPLINE
  5
1A0
330
1F
100
AcDbEntity
  8
1
100
AcDbSpline
210
0.0
220
0.0
230
1.0
 70
     8
 71
     3
 72
    22
 73
    18
 74
     0
 42
0.000000001
 43
0.0000000001
 40
0.0
 40
0.0
 40
0.0
 40
0.0
 40
0.1669343216171024
 40
0.1669343216171024
 40
0.2504014824256562
 40
0.2504014824256562
 40
0.3338686432342101
 40
0.3338686432342101
 40
0.5008029648513223
 40
0.5008029648513223
 40
0.5842701256598783
 40
0.5842701256598783
 40
0.6677372864684344
 40
0.6677372864684344
 40
0.8346716080855465
 40
0.8346716080855465
 40
1.0
 40
1.0
 40
1.0
 40
1.0
 10
343.0907549376052
 20
370.5311398328055
 30
0.0
 10
343.0877138766821
 20
370.5048593964066
 30
0.0
 10
343.0825287908357
 20
370.4791578704674
 30
0.0
 10
343.0716171366834
 20
370.4414593376931
 30
0.0
 10
343.0674549939423
 20
370.4290361285969
 30
0.0
 10
343.0580633084714
 20
370.4044814529592
 30
0.0
 10
343.0528131239397
 20
370.3923080341847
 30
0.0
 10
343.0355468866395
 20
370.3565381392144
 30
0.0
 10
343.0221694811776
 20
370.3339458727405
 30
0.0
 10
342.9993872282638
 20
370.3018861009945
 30
0.0
 10
342.9913381325649
 20
370.2915058166957
 30
0.0
 10
342.9743161913812
 20
370.2713673918789
 30
0.0
 10
342.965313329713
 20
370.2615795855746
 30
0.0
 10
342.9370729606637
 20
370.2333841748052
 30
0.0
 10
342.9168979191944
 20
370.2164004669387
 30
0.0
 10
342.8741629689461
 20
370.1860635614912
 30
0.0
 10
342.8515860944183
 20
370.1726569320598
 30
0.0
 10
342.827769794417
 20
370.1610684038314
 30
0.0
  0
SPLINE
  5
1A1
330
1F
100
AcDbEntity
  8
1
100
AcDbSpline
210
0.0
220
0.0
230
1.0
 70
     8
 71
     3
 72
    16
 73
    12
 74
     0
 42
0.000000001
 43
0.0000000001
 40
0.0
 40
0.0
 40
0.0
 40
0.0
 40
0.2499999999999997
 40
0.2499999999999997
 40
0.4999999999999992
 40
0.4999999999999992
 40
0.6249999999999992
 40
0.6249999999999992
 40
0.7499999999999992
 40
0.7499999999999992
 40
1.0
 40
1.0
 40
1.0
 40
1.0
 10
342.6032586621029
 20
372.4406474074062
 30
0.0
 10
342.6082459911389
 20
372.4336898094366
 30
0.0
 10
342.6120223286496
 20
372.426009898305
 30
0.0
 10
342.6169995085723
 20
372.4100944275232
 30
0.0
 10
342.6182475008721
 20
372.4016344489277
 30
0.0
 10
342.6182026787882
 20
372.3891535971535
 30
0.0
 10
342.6178790197712
 20
372.3850081910023
 30
0.0
 10
342.6166210673121
 20
372.3767475217326
 30
0.0
 10
342.6156750960142
 20
372.3726031207851
 30
0.0
 10
342.6119929852305
 20
372.3605579156213
 30
0.0
 10
342.6084371042125
 20
372.352964586002
 30
0.0
 10
342.6037697123645
 20
372.3458131694422
 30
0.0
  0
SPLINE
  5
1A2
330
1F
100
AcDbEntity
  8
1
100
AcDbSpline
210
0.0
220
0.0
230
1.0
 70
     8
 71
     3
 72
    28
 73
    24
 74
     0
 42
0.000000001
 43
0.0000000001
 40
0.0
 40
0.0
 40
0.0
 40
0.0
 40
0.0624999999999946
 40
0.0624999999999946
 40
0.1249999999999891
 40
0.1249999999999891
 40
0.249999999999995
 40
0.249999999999995
 40
0.312500000000005
 40
0.312500000000005
 40
0.375000000000015
 40
0.375000000000015
 40
0.5000000000000197
 40
0.5000000000000197
 40
0.5625000000000151
 40
0.5625000000000151
 40
0.6250000000000106
 40
0.6250000000000106
 40
0.7500000000000071
 40
0.7500000000000071
 40
0.8750000000000035
 40
0.8750000000000035
 40
1.0
 40
1.0
 40
1.0
 40
1.0
 10
342.9986697945918
 20
371.8695639344369
 30
0.0
 10
342.9853003162145
 20
371.8714297229351
 30
0.0
 10
342.9719762994092
 20
371.873822058768
 30
0.0
 10
342.9456328814515
 20
371.8796335071389
 30
0.0
 10
342.9326356681821
 20
371.8830448338803
 30
0.0
 10
342.894164754495
 20
371.8947925622369
 30
0.0
 10
342.8692078000512
 20
371.9046310934769
 30
0.0
 10
342.8328643300998
 20
371.9225836947896
 30
0.0
 10
342.8209073049068
 20
371.9291250814022
 30
0.0
 10
342.7978248594986
 20
371.9430546803856
 30
0.0
 10
342.7866430615565
 20
371.950467418253
 30
0.0
 10
342.7541716976176
 20
371.9740415468219
 30
0.0
 10
342.7339487743678
 20
371.9915293174458
 30
0.0
 10
342.7058626884625
 20
372.0205522582479
 30
0.0
 10
342.6969665056105
 20
372.0306082164193
 30
0.0
 10
342.6802673343898
 20
372.0512433255426
 30
0.0
 10
342.6724320537299
 20
372.0618555701975
 30
0.0
 10
342.6504299204231
 20
372.0945572691917
 30
0.0
 10
342.6377571527991
 20
372.1175056190423
 30
0.0
 10
342.6164276814989
 20
372.1657436932233
 30
0.0
 10
342.6080564270898
 20
372.1904054778558
 30
0.0
 10
342.5956223692148
 20
372.240461879827
 30
0.0
 10
342.5915386067329
 20
372.2659098152154
 30
0.0
 10
342.5895693518162
 20
372.2917984620969
 30
0.0
  0
SPLINE
  5
1A3
330
1F
100
AcDbEntity
  8
1
100
AcDbSpline
210
0.0
220
0.0
230
1.0
 70
     8
 71
     3
 72
    12
 73
     8
 74
     0
 42
0.000000001
 43
0.0000000001
 40
0.0
 40
0.0
 40
0.0
 40
0.0
 40
0.2499999999999993
 40
0.2499999999999993
 40
0.4999999999999988
 40
0.4999999999999988
 40
1.0
 40
1.0
 40
1.0
 40
1.0
 10
342.5895693518162
 20
372.2917984620969
 30
0.0
 10
342.589207801171
 20
372.29655155775
 30
0.0
 10
342.5892609132891
 20
372.3012720292609
 30
0.0
 10
342.5901459849317
 20
372.3106529812081
 30
0.0
 10
342.5909859774839
 20
372.3153409632418
 30
0.0
 10
342.5946471850766
 20
372.3291242175226
 30
0.0
 10
342.5985058839516
 20
372.3377478878236
 30
0.0
 10
342.6037697123645
 20
372.3458131694422
 30
0.0
  0
SPLINE
  5
1A4
330
1F
100
AcDbEntity
  8
1
100
AcDbSpline
210
0.0
220
0.0
230
1.0
 70
     8
 71
     3
 72
    13
 73
     9
 74
     0
 42
0.000000001
 43
0.0000000001
 40
0.0
 40
0.0
 40
0.0
 40
0.0
 40
0.2382413485006494
 40
0.2382413485006494
 40
0.492160899000433
 40
0.492160899000433
 40
0.7460804495002165
 40
1.0
 40
1.0
 40
1.0
 40
1.0
 10
342.3574289248938
 20
372.6144388457712
 30
0.0
 10
342.3811858980375
 20
372.6074904377408
 30
0.0
 10
342.4040577602304
 20
372.5987743793029
 30
0.0
 10
342.4495443235433
 20
372.5772525119642
 30
0.0
 10
342.472080400103
 20
372.5641889714138
 30
0.0
 10
342.5149770600758
 20
372.5341466523728
 30
0.0
 10
342.5546355400949
 20
372.5009527180447
 30
0.0
 10
342.5881151418416
 20
372.4617734500357
 30
0.0
 10
342.6032586621029
 20
372.4406474074062
 30
0.0
  0
SPLINE
  5
1A5
330
1F
100
AcDbEntity
  8
1
100
AcDbSpline
210
0.0
220
0.0
230
1.0
 70
     8
 71
     3
 72
    24
 73
    20
 74
     0
 42
0.000000001
 43
0.0000000001
 40
0.0
 40
0.0
 40
0.0
 40
0.0
 40
0.0900881324842375
 40
0.0900881324842375
 40
0.180176264968475
 40
0.180176264968475
 40
0.3603525299369503
 40
0.3603525299369503
 40
0.4504406624211955
 40
0.4504406624211955
 40
0.5405287949054407
 40
0.5405287949054407
 40
0.7207050598739285
 40
0.7207050598739285
 40
0.8107931923581725
 40
0.8107931923581725
 40
0.9008813248424164
 40
0.9008813248424164
 40
1.0
 40
1.0
 40
1.0
 40
1.0
 10
341.9776597348914
 20
370.0462169087887
 30
0.0
 10
341.9849684024563
 20
370.0564738176976
 30
0.0
 10
341.9927383144389
 20
370.0664479482708
 30
0.0
 10
342.0090927431843
 20
370.0856683727413
 30
0.0
 10
342.0176608965602
 20
370.0948998831623
 30
0.0
 10
342.0445457909081
 20
370.1214674413188
 30
0.0
 10
342.0640338083473
 20
370.1376850995391
 30
0.0
 10
342.0957984154033
 20
370.1596613412727
 30
0.0
 10
342.1068418772996
 20
370.1666041454623
 30
0.0
 10
342.1293818179831
 20
370.1794209904699
 30
0.0
 10
342.1409244969308
 20
370.1853306405533
 30
0.0
 10
342.1763714122422
 20
370.20157408817
 30
0.0
 10
342.2010894213386
 20
370.2104332563231
 30
0.0
 10
342.239888585683
 20
370.2206221948238
 30
0.0
 10
342.2529923330791
 20
370.2234638972251
 30
0.0
 10
342.2792486639943
 20
370.2280117863498
 30
0.0
 10
342.2924455029956
 20
370.2297297820674
 30
0.0
 10
342.3203019639045
 20
370.2321972874862
 30
0.0
 10
342.3349752687924
 20
370.2328357957558
 30
0.0
 10
342.3497284126033
 20
370.2328147485949
 30
0.0
  0
SPLINE
  5
1A6
330
1F
100
AcDbEntity
  8
1
100
AcDbSpline
210
0.0
220
0.0
230
1.0
 70
     8
 71
     3
 72
    10
 73
     6
 74
     0
 42
0.000000001
 43
0.0000000001
 40
0.0
 40
0.0
 40
0.0
 40
0.0
 40
0.5
 40
0.5
 40
1.0
 40
1.0
 40
1.0
 40
1.0
 10
341.9629642022213
 20
369.9941896730388
 30
0.0
 10
341.9624478210951
 20
370.0035472674064
 30
0.0
 10
341.9634330448062
 20
370.0127334804058
 30
0.0
 10
341.9684124003631
 20
370.0304700554184
 30
0.0
 10
341.9722942587487
 20
370.0386870547408
 30
0.0
 10
341.9776597348914
 20
370.0462169087887
 30
0.0
  0
SPLINE
  5
1A7
330
1F
100
AcDbEntity
  8
1
100
AcDbSpline
210
0.0
220
0.0
230
1.0
 70
     8
 71
     3
 72
    18
 73
    14
 74
     0
 42
0.000000001
 43
0.0000000001
 40
0.0
 40
0.0
 40
0.0
 40
0.0
 40
0.2499999999999659
 40
0.2499999999999659
 40
0.3749999999999715
 40
0.3749999999999715
 40
0.4999999999999769
 40
0.4999999999999769
 40
0.6249999999999825
 40
0.6249999999999825
 40
0.749999999999988
 40
0.749999999999988
 40
1.0
 40
1.0
 40
1.0
 40
1.0
 10
341.9629642022213
 20
369.9941896730388
 30
0.0
 10
341.9634216029842
 20
369.9859008906138
 30
0.0
 10
341.962675267503
 20
369.9776280014337
 30
0.0
 10
341.9598359547688
 20
369.9658204809507
 30
0.0
 10
341.9586063249446
 20
369.9619787722394
 30
0.0
 10
341.9555689542335
 20
369.9544882766781
 30
0.0
 10
341.9537440103263
 20
369.9508153803745
 30
0.0
 10
341.9495888027902
 20
369.9438667202326
 30
0.0
 10
341.9472568745432
 20
369.9405745391658
 30
0.0
 10
341.9420785355658
 20
369.9343599603671
 30
0.0
 10
341.93920927484
 20
369.9314181816724
 30
0.0
 10
341.92993692793
 20
369.9233361494332
 30
0.0
 10
341.9229915363081
 20
369.9189874531119
 30
0.0
 10
341.9152361968372
 20
369.9157474654398
 30
0.0
  0
SPLINE
  5
1A8
330
1F
100
AcDbEntity
  8
1
100
AcDbSpline
210
0.0
220
0.0
230
1.0
 70
     8
 71
     3
 72
    12
 73
     8
 74
     0
 42
0.000000001
 43
0.0000000001
 40
0.0
 40
0.0
 40
0.0
 40
0.0
 40
0.1836301793407334
 40
0.1836301793407334
 40
0.5918150896703668
 40
0.5918150896703668
 40
1.0
 40
1.0
 40
1.0
 40
1.0
 10
341.57549961926
 20
372.2815402143652
 30
0.0
 10
341.5639792956853
 20
372.2815574442923
 30
0.0
 10
341.5524799123863
 20
372.2820157465036
 30
0.0
 10
341.5154808349678
 20
372.2849238713572
 30
0.0
 10
341.4907255463181
 20
372.2890783349806
 30
0.0
 10
341.4428684561984
 20
372.3013228902179
 30
0.0
 10
341.4197118863274
 20
372.3094195403274
 30
0.0
 10
341.3972921641227
 20
372.3194984252342
 30
0.0
  0
SPLINE
  5
1A9
330
1F
100
AcDbEntity
  8
1
100
AcDbSpline
210
0.0
220
0.0
230
1.0
 70
     8
 71
     3
 72
    12
 73
     8
 74
     0
 42
0.000000001
 43
0.0000000001
 40
0.0
 40
0.0
 40
0.0
 40
0.0
 40
0.250000000000021
 40
0.250000000000021
 40
0.500000000000042
 40
0.500000000000042
 40
1.0
 40
1.0
 40
1.0
 40
1.0
 10
341.3972921641227
 20
372.3194984252342
 30
0.0
 10
341.3931757705791
 20
372.3213489680901
 30
0.0
 10
341.3893009018293
 20
372.3235369473983
 30
0.0
 10
341.3820032456719
 20
372.3285478159945
 30
0.0
 10
341.3785622922965
 20
372.3313895655081
 30
0.0
 10
341.369056982614
 20
372.3407620343814
 30
0.0
 10
341.3639200803566
 20
372.3479602813418
 30
0.0
 10
341.3599695271784
 20
372.3561008450818
 30
0.0
  0
SPLINE
  5
1AA
330
1F
100
AcDbEntity
  8
1
100
AcDbSpline
210
0.0
220
0.0
230
1.0
 70
     8
 71
     3
 72
     8
 73
     4
 74
     0
 42
0.000000001
 43
0.0000000001
 40
0.0
 40
0.0
 40
0.0
 40
0.0
 40
1.0
 40
1.0
 40
1.0
 40
1.0
 10
341.9152361968372
 20
369.9157474654398
 30
0.0
 10
341.8993069722815
 20
369.9090926321626
 30
0.0
 10
341.8830935307116
 20
369.9033938363156
 30
0.0
 10
341.8666028482929
 20
369.8986367334534
 30
0.0
  0
SPLINE
  5
1AB
330
1F
100
AcDbEntity
  8
1
100
AcDbSpline
210
0.0
220
0.0
230
1.0
 70
     8
 71
     3
 72
    10
 73
     6
 74
     0
 42
0.000000001
 43
0.0000000001
 40
0.0
 40
0.0
 40
0.0
 40
0.0
 40
0.5605099253954914
 40
0.5605099253954914
 40
1.0
 40
1.0
 40
1.0
 40
1.0
 10
336.5209155961816
 20
368.8312049911374
 30
0.0
 10
336.5569097122185
 20
368.8182411589544
 30
0.0
 10
336.588621607362
 20
368.8098640121975
 30
0.0
 10
336.6392257329568
 20
368.8010576869136
 30
0.0
 10
336.6593983435137
 20
368.7993142043499
 30
0.0
 10
336.677788118641
 20
368.7993479644106
 30
0.0
  0
SPLINE
  5
1AC
330
1F
100
AcDbEntity
  8
1
100
AcDbSpline
210
0.0
220
0.0
230
1.0
 70
     8
 71
     3
 72
    20
 73
    16
 74
     0
 42
0.000000001
 43
0.0000000001
 40
0.0
 40
0.0
 40
0.0
 40
0.0
 40
0.2500000000000007
 40
0.2500000000000007
 40
0.5000000000000014
 40
0.5000000000000014
 40
0.6250000000000019
 40
0.6250000000000019
 40
0.7500000000000025
 40
0.7500000000000025
 40
0.8125000000000021
 40
0.8125000000000021
 40
0.8750000000000019
 40
0.8750000000000019
 40
1.0
 40
1.0
 40
1.0
 40
1.0
 10
334.3252361836535
 20
370.4228662810659
 30
0.0
 10
334.2557702775017
 20
370.5242330582454
 30
0.0
 10
334.1920558815522
 20
370.6292237678409
 30
0.0
 10
334.0768268688661
 20
370.8474015406899
 30
0.0
 10
334.0252968095885
 20
370.9605731709524
 30
0.0
 10
333.9583419254475
 20
371.1378246068967
 30
0.0
 10
333.9377552542512
 20
371.1981653597771
 30
0.0
 10
333.9003883616421
 20
371.3217248212931
 30
0.0
 10
333.8836061184671
 20
371.3849416114041
 30
0.0
 10
333.8616545262591
 20
371.4823035820716
 30
0.0
 10
333.8548674762161
 20
371.515226187446
 30
0.0
 10
333.8424879485129
 20
371.5818052977803
 30
0.0
 10
333.8369186938548
 20
371.6153287139228
 30
0.0
 10
333.8221482212804
 20
371.7166483599357
 30
0.0
 10
333.8148780895662
 20
371.7851911305319
 30
0.0
 10
333.8104518414374
 20
371.8548878069754
 30
0.0
  0
SPLINE
  5
1AD
330
1F
100
AcDbEntity
  8
1
100
AcDbSpline
210
0.0
220
0.0
230
1.0
 70
     8
 71
     3
 72
     8
 73
     4
 74
     0
 42
0.000000001
 43
0.0000000001
 40
0.0
 40
0.0
 40
0.0
 40
0.0
 40
1.0
 40
1.0
 40
1.0
 40
1.0
 10
348.8376351616458
 20
360.0735128795699
 30
0.0
 10
348.8884927521278
 20
360.1361345124436
 30
0.0
 10
348.9394728599219
 20
360.1989127541717
 30
0.0
 10
348.9905379787209
 20
360.2618648981736
 30
0.0
  0
SPLINE
  5
1AE
330
1F
100
AcDbEntity
  8
1
100
AcDbSpline
210
0.0
220
0.0
230
1.0
 70
     8
 71
     3
 72
     8
 73
     4
 74
     0
 42
0.000000001
 43
0.0000000001
 40
0.0
 40
0.0
 40
0.0
 40
0.0
 40
1.0
 40
1.0
 40
1.0
 40
1.0
 10
348.9905379787209
 20
360.2618648981736
 30
0.0
 10
349.0111474298124
 20
360.3469853316594
 30
0.0
 10
349.0344912385783
 20
360.4321463865381
 30
0.0
 10
349.0610027384562
 20
360.5173545003757
 30
0.0
  0
SPLINE
  5
1AF
330
1F
100
AcDbEntity
  8
1
100
AcDbSpline
210
0.0
220
0.0
230
1.0
 70
     8
 71
     3
 72
    35
 73
    31
 74
     0
 42
0.000000001
 43
0.0000000001
 40
0.0
 40
0.0
 40
0.0
 40
0.0
 40
0.0257022031818363
 40
0.0257022031818363
 40
0.0622625970542104
 40
0.0622625970542104
 40
0.0988229909265845
 40
0.1719437786713328
 40
0.2450645664160811
 40
0.2450645664160811
 40
0.281624960288455
 40
0.281624960288455
 40
0.3181853541608289
 40
0.3181853541608289
 40
0.4644269296503283
 40
0.4644269296503283
 40
0.537547717395078
 40
0.537547717395078
 40
0.574108111267453
 40
0.574108111267453
 40
0.6106685051398279
 40
0.6106685051398279
 40
0.7569100806293278
 40
0.7569100806293278
 40
0.9031516561188279
 40
0.9031516561188279
 40
0.9397120499912027
 40
0.9397120499912027
 40
0.9762724438635778
 40
1.0
 40
1.0
 40
1.0
 40
1.0
 10
333.3171851923274
 20
375.1642883493579
 30
0.0
 10
333.3091143978227
 20
375.164728107632
 30
0.0
 10
333.3010979857844
 20
375.1651777575898
 30
0.0
 10
333.2818102013309
 20
375.1662896794213
 30
0.0
 10
333.2706145705276
 20
375.1669605351271
 30
0.0
 10
333.2486543244034
 20
375.1683233370038
 30
0.0
 10
333.2162837839005
 20
375.170403597212
 30
0.0
 10
333.1651060901497
 20
375.1740193469816
 30
0.0
 10
333.1270271925319
 20
375.177007399989
 30
0.0
 10
333.0995301426991
 20
375.1792614835513
 30
0.0
 10
333.0905417173994
 20
375.1800150248702
 30
0.0
 10
333.072920262865
 20
375.1815227010827
 30
0.0
 10
333.0642697200222
 20
375.1822784103794
 30
0.0
 10
333.0221513685978
 20
375.1860275524247
 30
0.0
 10
332.9921449687237
 20
375.1889229032617
 30
0.0
 10
332.9522963596278
 20
375.1929591492987
 30
0.0
 10
332.9398786498096
 20
375.1942536421414
 30
0.0
 10
332.9225443049132
 20
375.1961011168017
 30
0.0
 10
332.9169818242248
 20
375.1967012329807
 30
0.0
 10
332.9062903894045
 20
375.1978670586972
 30
0.0
 10
332.9011517892844
 20
375.1984338502772
 30
0.0
 10
332.876694600376
 20
375.20115845488
 30
0.0
 10
332.8610563928087
 20
375.2029875498095
 30
0.0
 10
332.8372097041417
 20
375.2058531905333
 30
0.0
 10
332.8290031046556
 20
375.2068901220409
 30
0.0
 10
332.823481205167
 20
375.2076356465792
 30
0.0
 10
332.8226170442618
 20
375.2077569553443
 30
0.0
 10
332.82137682316
 20
375.2079422614472
 30
0.0
 10
332.8207530794448
 20
375.2080483147642
 30
0.0
 10
332.8207760814703
 20
375.2080780925017
 30
0.0
 10
332.8208847928766
 20
375.2080780727572
 30
0.0
  0
SPLINE
  5
1B0
330
1F
100
AcDbEntity
  8
1
100
AcDbSpline
210
0.0
220
0.0
230
1.0
 70
     8
 71
     3
 72
    29
 73
    25
 74
     0
 42
0.000000001
 43
0.0000000001
 40
0.0
 40
0.0
 40
0.0
 40
0.0
 40
0.1319542140150113
 40
0.1319542140150113
 40
0.2128796559057468
 40
0.2128796559057468
 40
0.2938050977964823
 40
0.2938050977964823
 40
0.3747305396872177
 40
0.3747305396872177
 40
0.4556559815779532
 40
0.5365814234686887
 40
0.5365814234686887
 40
0.6175068653594242
 40
0.6175068653594242
 40
0.6984323072501599
 40
0.6984323072501599
 40
0.7793577491408953
 40
0.7793577491408953
 40
0.8602831910316307
 40
0.8602831910316307
 40
0.9412086329223663
 40
0.9412086329223663
 40
1.0
 40
1.0
 40
1.0
 40
1.0
 10
332.8250173633332
 20
375.2077152058647
 30
0.0
 10
332.8287622110408
 20
375.2073391141905
 30
0.0
 10
332.8349950278822
 20
375.2066726857789
 30
0.0
 10
332.849138295047
 20
375.2051442980147
 30
0.0
 10
332.8554967377522
 20
375.2044549628275
 30
0.0
 10
332.8700607366483
 20
375.2028850366009
 30
0.0
 10
332.8782586328595
 20
375.2020052762792
 30
0.0
 10
332.8964914919864
 20
375.2000720389784
 30
0.0
 10
332.9065356099285
 20
375.1990175923458
 30
0.0
 10
332.9284625770333
 20
375.1967551749971
 30
0.0
 10
332.9521261030258
 20
375.1943498252602
 30
0.0
 10
332.9792762926041
 20
375.1917031387085
 30
0.0
 10
333.0082120117471
 20
375.18895862733
 30
0.0
 10
333.0235184720978
 20
375.1875427358236
 30
0.0
 10
333.0557116493952
 20
375.1846610562189
 30
0.0
 10
333.0726149287517
 20
375.1831936496226
 30
0.0
 10
333.1080783158155
 20
375.1802337504031
 30
0.0
 10
333.1266093439564
 20
375.1787440009776
 30
0.0
 10
333.1650433431509
 20
375.1757951131732
 30
0.0
 10
333.1849803783632
 20
375.1743330501571
 30
0.0
 10
333.2263374643755
 20
375.17146486302
 30
0.0
 10
333.2477284619146
 20
375.1700612225665
 30
0.0
 10
333.2856330015269
 20
375.1677353403236
 30
0.0
 10
333.3019032906896
 20
375.1667847877392
 30
0.0
 10
333.318501552308
 20
375.1658684087122
 30
0.0
  0
SPLINE
  5
1B1
330
1F
100
AcDbEntity
  8
1
100
AcDbSpline
210
0.0
220
0.0
230
1.0
 70
     8
 71
     3
 72
    48
 73
    44
 74
     0
 42
0.000000001
 43
0.0000000001
 40
0.0
 40
0.0
 40
0.0
 40
0.0
 40
0.0782268737801682
 40
0.0782268737801682
 40
0.1173403106702522
 40
0.1173403106702522
 40
0.1564537475603363
 40
0.1564537475603363
 40
0.2346806213405045
 40
0.2346806213405045
 40
0.2737940582305885
 40
0.2737940582305885
 40
0.3129074951206725
 40
0.3129074951206725
 40
0.3911343689008406
 40
0.3911343689008406
 40
0.4302478057909246
 40
0.4302478057909246
 40
0.4693612426810086
 40
0.4693612426810086
 40
0.5475881164611768
 40
0.5475881164611768
 40
0.5671448349062188
 40
0.5671448349062188
 40
0.5867015533512609
 40
0.6258149902413449
 40
0.6258149902413449
 40
0.7040418640215137
 40
0.7040418640215137
 40
0.7431553009115979
 40
0.7431553009115979
 40
0.782268737801682
 40
0.8213821746917659
 40
0.8213821746917659
 40
0.8409388931368081
 40
0.8409388931368081
 40
0.8604956115818501
 40
0.8604956115818501
 40
0.9387224853620184
 40
0.9387224853620184
 40
0.9778359222521025
 40
0.9778359222521025
 40
1.0
 40
1.0
 40
1.0
 40
1.0
 10
330.6519612460921
 20
375.1982513316054
 30
0.0
 10
330.6217443586014
 20
375.196526346002
 30
0.0
 10
330.588314654156
 20
375.1947464865237
 30
0.0
 10
330.5337186477038
 20
375.1921467604092
 30
0.0
 10
330.5147718660535
 20
375.1912916298329
 30
0.0
 10
330.4753750710923
 20
375.1896285585617
 30
0.0
 10
330.4548524565606
 20
375.1888185097251
 30
0.0
 10
330.3922521379384
 20
375.1865405379955
 30
0.0
 10
330.3488119184043
 20
375.1852090150267
 30
0.0
 10
330.2811735495453
 20
375.1835909400833
 30
0.0
 10
330.2581688934661
 20
375.1831139833024
 30
0.0
 10
330.2114867151368
 20
375.1823059267297
 30
0.0
 10
330.1880678487563
 20
375.1819790628174
 30
0.0
 10
330.1175861806375
 20
375.1812349905905
 30
0.0
 10
330.0703002360065
 20
375.1810543205133
 30
0.0
 10
329.9989201165703
 20
375.1812750587214
 30
0.0
 10
329.974935878362
 20
375.1814321459897
 30
0.0
 10
329.9276314529163
 20
375.1819035106176
 30
0.0
 10
329.9042618887988
 20
375.182217061635
 30
0.0
 10
329.834985245077
 20
375.1833742930054
 30
0.0
 10
329.7899024272945
 20
375.184434821312
 30
0.0
 10
329.7349871953613
 20
375.1860642784885
 30
0.0
 10
329.724047635477
 20
375.1864063186953
 30
0.0
 10
329.7024839384923
 20
375.1871136212644
 30
0.0
 10
329.6706247635508
 20
375.1882086636209
 30
0.0
 10
329.6401999218573
 20
375.1893932004116
 30
0.0
 10
329.5812543872959
 20
375.1918482187157
 30
0.0
 10
329.5444755487874
 20
375.1936003195461
 30
0.0
 10
329.4933923493636
 20
375.1962621257321
 30
0.0
 10
329.4772800500622
 20
375.1971428781207
 30
0.0
 10
329.4470752172547
 20
375.1988545451429
 30
0.0
 10
329.4188167616813
 20
375.2005201470672
 30
0.0
 10
329.3944807592715
 20
375.2020450353175
 30
0.0
 10
329.3777572113187
 20
375.2031168426727
 30
0.0
 10
329.3724379285467
 20
375.2034621240536
 30
0.0
 10
329.3623259684509
 20
375.2041253277553
 30
0.0
 10
329.3575430996336
 20
375.2044426237378
 30
0.0
 10
329.3352550252903
 20
375.205934270836
 30
0.0
 10
329.3223271441532
 20
375.2068407520391
 30
0.0
 10
329.3103106699367
 20
375.2076885314418
 30
0.0
 10
329.3075412804892
 20
375.2078859579868
 30
0.0
 10
329.3052438499838
 20
375.2080498123372
 30
0.0
 10
329.3048378389394
 20
375.2080787889064
 30
0.0
 10
329.304848143748
 20
375.2080780617617
 30
0.0
  0
SPLINE
  5
1B2
330
1F
100
AcDbEntity
  8
1
100
AcDbSpline
210
0.0
220
0.0
230
1.0
 70
     8
 71
     3
 72
    22
 73
    18
 74
     0
 42
0.000000001
 43
0.0000000001
 40
0.0
 40
0.0
 40
0.0
 40
0.0
 40
0.069293097910594
 40
0.069293097910594
 40
0.2244109149254966
 40
0.2244109149254966
 40
0.3019698234329469
 40
0.3019698234329469
 40
0.3795287319403982
 40
0.3795287319403982
 40
0.6897643659702024
 40
0.6897643659702024
 40
0.7673232744776515
 40
0.7673232744776515
 40
0.8448821829851006
 40
0.8448821829851006
 40
1.0
 40
1.0
 40
1.0
 40
1.0
 10
330.8048530495533
 20
375.208078049419
 30
0.0
 10
330.8048615369751
 20
375.2080788178958
 30
0.0
 10
330.8046143943105
 20
375.2080613321701
 30
0.0
 10
330.8029923563156
 20
375.2079455729456
 30
0.0
 10
330.8005900075682
 20
375.2077740584311
 30
0.0
 10
330.7950075624645
 20
375.2073794337249
 30
0.0
 10
330.792815818472
 20
375.2072249750078
 30
0.0
 10
330.7878283920189
 20
375.2068754613697
 30
0.0
 10
330.7850274833004
 20
375.2066800365351
 30
0.0
 10
330.7695194369983
 20
375.2056054160626
 30
0.0
 10
330.7523469621354
 20
375.2044338941078
 30
0.0
 10
330.7249739617799
 20
375.2026690762569
 30
0.0
 10
330.7191909296472
 20
375.2023004658207
 30
0.0
 10
330.7071253649657
 20
375.2015421533613
 30
0.0
 10
330.7008337258852
 20
375.201151850392
 30
0.0
 10
330.6811939424296
 20
375.1999523514934
 30
0.0
 10
330.6670696898375
 20
375.1991138244072
 30
0.0
 10
330.6519612460921
 20
375.1982513316054
 30
0.0
  0
SPLINE
  5
1B6
330
1F
100
AcDbEntity
  8
1
100
AcDbSpline
210
0.0
220
0.0
230
1.0
 70
     8
 71
     3
 72
     8
 73
     4
 74
     0
 42
0.000000001
 43
0.0000000001
 40
0.0
 40
0.0
 40
0.0
 40
0.0
 40
1.0
 40
1.0
 40
1.0
 40
1.0
 10
351.433645997888
 20
369.4958581969623
 30
0.0
 10
351.4645242629666
 20
369.4134767370145
 30
0.0
 10
351.4934498299963
 20
369.3306156502019
 30
0.0
 10
351.5207384210553
 20
369.2473044041744
 30
0.0
  0
SPLINE
  5
1B7
330
1F
100
AcDbEntity
  8
1
100
AcDbSpline
210
0.0
220
0.0
230
1.0
 70
     8
 71
     3
 72
    12
 73
     8
 74
     0
 42
0.000000001
 43
0.0000000001
 40
0.0
 40
0.0
 40
0.0
 40
0.0
 40
0.5000000000000023
 40
0.5000000000000023
 40
0.7500000000000011
 40
0.7500000000000011
 40
1.0
 40
1.0
 40
1.0
 40
1.0
 10
352.0396266458473
 20
366.5127665659533
 30
0.0
 10
352.0406869168431
 20
366.4948411144758
 30
0.0
 10
352.040944961181
 20
366.4772180698098
 30
0.0
 10
352.0401484697484
 20
366.4512324217976
 30
0.0
 10
352.0396785618448
 20
366.4425998276907
 30
0.0
 10
352.0383427670844
 20
366.4258228083815
 30
0.0
 10
352.0374788510767
 20
366.4176590899542
 30
0.0
 10
352.0364161761697
 20
366.4097255133528
 30
0.0
  0
SPLINE
  5
1B8
330
1F
100
AcDbEntity
  8
1
100
AcDbSpline
210
0.0
220
0.0
230
1.0
 70
     8
 71
     3
 72
    12
 73
     8
 74
     0
 42
0.000000001
 43
0.0000000001
 40
0.0
 40
0.0
 40
0.0
 40
0.0
 40
0.2805286317993061
 40
0.2805286317993061
 40
0.5610572635984168
 40
0.5610572635984168
 40
1.0
 40
1.0
 40
1.0
 40
1.0
 10
352.0364161761695
 20
366.4097255133529
 30
0.0
 10
352.0363577454168
 20
366.4092892888321
 30
0.0
 10
352.0362992904381
 20
366.4088530675556
 30
0.0
 10
352.0361823320309
 20
366.4079806314992
 30
0.0
 10
352.0361238286022
 20
366.407544416718
 30
0.0
 10
352.0359737228183
 20
366.4064256656509
 30
0.0
 10
352.0358820853794
 20
366.405743134069
 30
0.0
 10
352.0357903886376
 20
366.405060610457
 30
0.0
  0
SPLINE
  5
1B9
330
1F
100
AcDbEntity
  8
1
100
AcDbSpline
210
0.0
220
0.0
230
1.0
 70
     8
 71
     3
 72
    40
 73
    36
 74
     0
 42
0.000000001
 43
0.0000000001
 40
0.0
 40
0.0
 40
0.0
 40
0.0
 40
0.0960234833760181
 40
0.2041208989824464
 40
0.3122071649209881
 40
0.4202883587277086
 40
0.4233092628147287
 40
0.4275422602199247
 40
0.4329873508218654
 40
0.4396445343023547
 40
0.4475138101682825
 40
0.4565951777588559
 40
0.4668886362486127
 40
0.4783941846488319
 40
0.491111821808272
 40
0.5050415464135965
 40
0.5201833569895965
 40
0.5365372518993955
 40
0.5541032293445041
 40
0.5728812873649286
 40
0.5928714238392021
 40
0.6140736364844218
 40
0.6364879228562744
 40
0.6601142803490517
 40
0.684952706195683
 40
0.7110031974677169
 40
0.7382657510753603
 40
0.7667403637674689
 40
0.7964270321315463
 40
0.8273257525937738
 40
0.8594365214189862
 40
0.8927593347106933
 40
0.9272941884110814
 40
0.9630410783010036
 40
1.0
 40
1.0
 40
1.0
 40
1.0
 10
333.2372293623913
 20
375.0412311928853
 30
0.0
 10
333.2327204301133
 20
375.0318783445343
 30
0.0
 10
333.2236674056367
 20
375.0117312147962
 30
0.0
 10
333.2116023309336
 20
374.9801660254753
 30
0.0
 10
333.2010748587335
 20
374.9466733498749
 30
0.0
 10
333.1953391163551
 20
374.923635730013
 30
0.0
 10
333.1927008047676
 20
374.9114327436885
 30
0.0
 10
333.1924130249337
 20
374.9100885096354
 30
0.0
 10
333.1920475125068
 20
374.9083583357137
 30
0.0
 10
333.191607781022
 20
374.9062414684444
 30
0.0
 10
333.1910981350585
 20
374.9037370197245
 30
0.0
 10
333.1905236687427
 20
374.9008439723874
 30
0.0
 10
333.1898902705957
 20
374.8975612014281
 30
0.0
 10
333.1892046265187
 20
374.8938874934054
 30
0.0
 10
333.188474223693
 20
374.8898215702314
 30
0.0
 10
333.1877073543047
 20
374.8853621152579
 30
0.0
 10
333.1869131192908
 20
374.8805078023673
 30
0.0
 10
333.1861014318648
 20
374.8752573278596
 30
0.0
 10
333.1852830207028
 20
374.869609445218
 30
0.0
 10
333.1844694326145
 20
374.8635630027405
 30
0.0
 10
333.1836730345232
 20
374.8571169840508
 30
0.0
 10
333.1829070145587
 20
374.8502705514844
 30
0.0
 10
333.1821853820698
 20
374.8430230923477
 30
0.0
 10
333.1815229662848
 20
374.8353742680287
 30
0.0
 10
333.1809354135946
 20
374.8273240659604
 30
0.0
 10
333.1804391823761
 20
374.8188728543095
 30
0.0
 10
333.1800515384514
 20
374.8100214397236
 30
0.0
 10
333.1797905375034
 20
374.8007711265545
 30
0.0
 10
333.1796750476047
 20
374.7911237835629
 30
0.0
 10
333.1797245991331
 20
374.7810818938376
 30
0.0
 10
333.1799599041145
 20
374.7706486836795
 30
0.0
 10
333.1804007123988
 20
374.7598279510972
 30
0.0
 10
333.1810741580316
 20
374.7486250906779
 30
0.0
 10
333.1819817780633
 20
374.7370434177215
 30
0.0
 10
333.1827995920435
 20
374.7292110263945
 30
0.0
 10
333.1832153156589
 20
374.7252295463527
 30
0.0
  0
SPLINE
  5
1BA
330
1F
100
AcDbEntity
  8
1
100
AcDbSpline
210
0.0
220
0.0
230
1.0
 70
     8
 71
     3
 72
     8
 73
     4
 74
     0
 42
0.000000001
 43
0.0000000001
 40
0.0
 40
0.0
 40
0.0
 40
0.0
 40
1.0
 40
1.0
 40
1.0
 40
1.0
 10
345.4623168464548
 20
366.1285633376155
 30
0.0
 10
345.4476136489315
 20
366.1297029550988
 30
0.0
 10
345.4329106282241
 20
366.1308425508222
 30
0.0
 10
345.4182077892722
 20
366.1319821241777
 30
0.0
  0
SPLINE
  5
1BB
330
1F
100
AcDbEntity
  8
1
100
AcDbSpline
210
0.0
220
0.0
230
1.0
 70
     8
 71
     3
 72
     8
 73
     4
 74
     0
 42
0.000000001
 43
0.0000000001
 40
0.0
 40
0.0
 40
0.0
 40
0.0
 40
1.0
 40
1.0
 40
1.0
 40
1.0
 10
345.4623168464548
 20
366.1285633376155
 30
0.0
 10
346.1846438953142
 20
366.0397498641575
 30
0.0
 10
346.9064436963955
 20
365.9509776846585
 30
0.0
 10
347.627380355916
 20
365.8622731062641
 30
0.0
  0
SPLINE
  5
1BC
330
1F
100
AcDbEntity
  8
1
100
AcDbSpline
210
0.0
220
0.0
230
1.0
 70
     8
 71
     3
 72
    10
 73
     6
 74
     0
 42
0.000000001
 43
0.0000000001
 40
0.0
 40
0.0
 40
0.0
 40
0.0
 40
0.4220018695076876
 40
0.4220018695076876
 40
1.0
 40
1.0
 40
1.0
 40
1.0
 10
333.9204610477138
 20
372.3700817760157
 30
0.0
 10
333.9039316947719
 20
372.3968957417824
 30
0.0
 10
333.8875525808383
 20
372.4238079339849
 30
0.0
 10
333.8490466650569
 20
372.4877636173998
 30
0.0
 10
333.8270398250669
 20
372.5248719367296
 30
0.0
 10
333.8052489667329
 20
372.56210322251
 30
0.0
  0
SPLINE
  5
1BD
330
1F
100
AcDbEntity
  8
1
100
AcDbSpline
210
0.0
220
0.0
230
1.0
 70
     8
 71
     3
 72
    66
 73
    62
 74
     0
 42
0.000000001
 43
0.0000000001
 40
0.0
 40
0.0
 40
0.0
 40
0.0
 40
0.0197211196678041
 40
0.0420685153851229
 40
0.0670453411521167
 40
0.09465303777505
 40
0.1248917458287644
 40
0.1557995677588971
 40
0.1837684709543767
 40
0.2088005134422795
 40
0.2308976751857093
 40
0.2500620249126051
 40
0.3221856068323835
 40
0.3744821691373527
 40
0.3991266374085969
 40
0.4372665976237605
 40
0.4616990917873768
 40
0.4802530122985406
 40
0.4929295761861623
 40
0.4997301940966873
 40
0.5184917993104188
 40
0.5372529412277907
 40
0.5560137281298542
 40
0.5747742681601409
 40
0.5935346693665222
 40
0.6122950397430574
 40
0.6310554872718504
 40
0.6498161199649167
 40
0.6872238222802243
 40
0.7246255643089153
 40
0.7620234485487801
 40
0.7994195778293351
 40
0.8004648116559021
 40
0.8019294301767887
 40
0.8038134333499826
 40
0.8061168210653896
 40
0.8088395931523891
 40
0.8119817493823484
 40
0.8155432894696586
 40
0.8195242130722213
 40
0.8239245197917067
 40
0.828744209173697
 40
0.8339832807077742
 40
0.8396417338275742
 40
0.8457195679108217
 40
0.8522167822793589
 40
0.8591333761991551
 40
0.8664693488803262
 40
0.8742246994771385
 40
0.8823994270880175
 40
0.8909935307555542
 40
0.900007009466505
 40
0.9094398621517992
 40
0.9192920876865391
 40
0.9295636848900027
 40
0.940254652525644
 40
0.951364989301096
 40
0.9628946938681743
 40
0.9748437648228708
 40
0.9872122007053599
 40
1.0
 40
1.0
 40
1.0
 40
1.0
 10
350.9276631237828
 20
363.4850084166245
 30
0.0
 10
350.9336524370957
 20
363.4837527828401
 30
0.0
 10
350.9464286649919
 20
363.4810743015943
 30
0.0
 10
350.9665168864362
 20
363.4758548357836
 30
0.0
 10
350.9886909837046
 20
363.469163992809
 30
0.0
 10
351.0128061103576
 20
363.4606492066716
 30
0.0
 10
351.03813543194
 20
363.4502597290592
 30
0.0
 10
351.0630106099708
 20
363.4385379746164
 30
0.0
 10
351.0859168774379
 20
363.426385354711
 30
0.0
 10
351.1059636949835
 20
363.414631286075
 30
0.0
 10
351.1232839067163
 20
363.4035855174343
 30
0.0
 10
351.1523621284624
 20
363.383748639743
 30
0.0
 10
351.1873734764984
 20
363.3558610069958
 30
0.0
 10
351.220401038371
 20
363.3232825550227
 30
0.0
 10
351.2440773457824
 20
363.2965179807592
 30
0.0
 10
351.260963877869
 20
363.2753055063041
 30
0.0
 10
351.2756441021543
 20
363.2547891456407
 30
0.0
 10
351.2852413867804
 20
363.2403654143728
 30
0.0
 10
351.2915537346008
 20
363.2303449775546
 30
0.0
 10
351.2978025166631
 20
363.2201843735995
 30
0.0
 10
351.3049379193016
 20
363.2082988577262
 30
0.0
 10
351.3134317730661
 20
363.1928997184886
 30
0.0
 10
351.3214453071374
 20
363.1772425273005
 30
0.0
 10
351.3289445971035
 20
363.1613346952771
 30
0.0
 10
351.3359289839943
 20
363.1451948687042
 30
0.0
 10
351.3423887063486
 20
363.1288389855766
 30
0.0
 10
351.3483203764652
 20
363.1122840930972
 30
0.0
 10
351.3554922942313
 20
363.090001717269
 30
0.0
 10
351.3631749484273
 20
363.0617680873263
 30
0.0
 10
351.3703906148653
 20
363.0274022642615
 30
0.0
 10
351.3755617261909
 20
362.9926550236819
 30
0.0
 10
351.3776676653286
 20
362.9689907295094
 30
0.0
 10
351.378396029605
 20
362.9565186925646
 30
0.0
 10
351.3784733280338
 20
362.9551452829874
 30
0.0
 10
351.3785679604368
 20
362.9533783362201
 30
0.0
 10
351.3786763128742
 20
362.9512176683813
 30
0.0
 10
351.3787940062382
 20
362.9486630853327
 30
0.0
 10
351.3789158486203
 20
362.9457143919237
 30
0.0
 10
351.3790358516842
 20
362.9423714122983
 30
0.0
 10
351.379147224408
 20
362.9386340100343
 30
0.0
 10
351.3792423749446
 20
362.9345021120967
 30
0.0
 10
351.3793129102726
 20
362.929975735249
 30
0.0
 10
351.3793496371832
 20
362.9250550153653
 30
0.0
 10
351.379342563638
 20
362.9197402394896
 30
0.0
 10
351.3792809009972
 20
362.9140318806787
 30
0.0
 10
351.3791530671691
 20
362.9079306355958
 30
0.0
 10
351.3789466908972
 20
362.901437464836
 30
0.0
 10
351.3786486173629
 20
362.8945536359528
 30
0.0
 10
351.3782449152992
 20
362.8872807691494
 30
0.0
 10
351.3777208858791
 20
362.8796208855722
 30
0.0
 10
351.3770610734053
 20
362.8715764582029
 30
0.0
 10
351.3762492788459
 20
362.8631504650513
 30
0.0
 10
351.3752685732179
 20
362.8543464454704
 30
0.0
 10
351.374101324077
 20
362.8451685558574
 30
0.0
 10
351.3727291835428
 20
362.835621639116
 30
0.0
 10
351.3711332442289
 20
362.8257112501202
 30
0.0
 10
351.3692935461361
 20
362.8154438655084
 30
0.0
 10
351.3671911677129
 20
362.8048263737454
 30
0.0
 10
351.3648001399256
 20
362.793868413194
 30
0.0
 10
351.36211945591
 20
362.7825735024531
 30
0.0
 10
351.360105070165
 20
362.7749674486543
 30
0.0
 10
351.3590810870282
 20
362.77110102394
 30
0.0
  0
SPLINE
  5
1BE
330
1F
100
AcDbEntity
  8
1
100
AcDbSpline
210
0.0
220
0.0
230
1.0
 70
     8
 71
     3
 72
     8
 73
     4
 74
     0
 42
0.000000001
 43
0.0000000001
 40
0.0
 40
0.0
 40
0.0
 40
0.0
 40
1.0
 40
1.0
 40
1.0
 40
1.0
 10
347.627380355916
 20
365.613345050977
 30
0.0
 10
347.6119532736745
 20
365.5121142152183
 30
0.0
 10
347.5972470345638
 20
365.4112882478402
 30
0.0
 10
347.5832712987333
 20
365.3108725745572
 30
0.0
  0
LINE
  5
1BF
330
1F
100
AcDbEntity
  8
4
100
AcDbLine
 10
320.174849
 20
366.0080779999999
 30
0.0
 11
353.418208
 21
366.0080779999999
 31
0.0
  0
LINE
  5
1C0
330
1F
100
AcDbEntity
  8
SK4
100
AcDbLine
 10
324.674849
 20
366.0080779999999
 30
0.0
 11
299.674849
 21
366.0080779999999
 31
0.0
  0
MTEXT
  5
1C4
330
1F
100
AcDbEntity
  8
SK6
100
AcDbMText
 10
306.93896
 20
338.718141
 30
0.0
 40
3.5
 41
0.0
 71
     7
 72
     5
  1
\W0.7294;20L2R030M10-SZP20-C
  7
cesky
 73
     2
 44
0.8433729999999998
  0
MTEXT
  5
33B
330
1F
100
AcDbEntity
  8
2
100
AcDbMText
 10
362.530433
 20
361.682713
 30
0.0
 40
3.5
 41
0.0
 71
     7
 72
     5
  1
\W0.7045;20
  7
cesky
 11
0.0000000000000001
 21
1.0
 31
0.0
 73
     2
 44
0.8433729999999998
  0
MTEXT
  5
33C
330
1F
100
AcDbEntity
  8
2
100
AcDbMText
 10
362.530433
 20
354.945213
 30
0.0
 40
3.5
 41
0.0
 71
     7
 72
     5
  1
\W3.0115;\H2.63;%%c\H3.50;
  7
cesky
 11
0.0000000000000001
 21
1.0
 31
0.0
 73
     2
 44
0.8433729999999998
  0
LINE
  5
33D
330
1F
100
AcDbEntity
  8
2
100
AcDbLine
 10
353.674849
 20
376.008075
 30
0.0
 11
363.717849
 21
376.008075
 31
0.0
  0
LINE
  5
33E
330
1F
100
AcDbEntity
  8
2
100
AcDbLine
 10
362.717849
 20
376.008075
 30
0.0
 11
362.717849
 21
354.787713
 31
0.0
  0
SOLID
  5
33F
330
1F
100
AcDbEntity
  8
2
100
AcDbTrace
 10
362.717849
 20
376.008075
 30
0.0
 11
363.334994
 21
372.508077
 31
0.0
 12
362.100705
 22
372.508073
 32
0.0
 13
362.100705
 23
372.508073
 33
0.0
  0
MTEXT
  5
340
330
1F
100
AcDbEntity
  8
2
100
AcDbMText
 10
338.6479700000001
 20
381.887581
 30
0.0
 40
3.5
 41
0.0
 71
     7
 72
     5
  1
\W0.9176;17,9
  7
cesky
 73
     2
 44
0.8433729999999998
  0
LINE
  5
341
330
1F
100
AcDbEntity
  8
2
100
AcDbLine
 10
352.174849
 20
377.508075
 30
0.0
 11
352.174849
 21
383.013414
 31
0.0
  0
LINE
  5
342
330
1F
100
AcDbEntity
  8
2
100
AcDbLine
 10
333.800091
 20
375.438474
 30
0.0
 11
333.800091
 21
383.013414
 31
0.0
  0
LINE
  5
343
330
1F
100
AcDbEntity
  8
2
100
AcDbLine
 10
352.174849
 20
382.013414
 30
0.0
 11
333.800091
 21
382.013414
 31
0.0
  0
SOLID
  5
344
330
1F
100
AcDbEntity
  8
2
100
AcDbTrace
 10
352.174849
 20
382.013414
 30
0.0
 11
348.674851
 21
381.39627
 31
0.0
 12
348.674846
 22
382.630558
 32
0.0
 13
348.674846
 23
382.630558
 33
0.0
  0
SOLID
  5
345
330
1F
100
AcDbEntity
  8
2
100
AcDbTrace
 10
333.800091
 20
382.013414
 30
0.0
 11
337.300089
 21
382.630558
 31
0.0
 12
337.300093
 22
381.39627
 32
0.0
 13
337.300093
 23
381.39627
 33
0.0
  0
MTEXT
  5
346
330
1F
100
AcDbEntity
  8
2
100
AcDbMText
 10
335.3603490000001
 20
391.67585
 30
0.0
 40
3.5
 41
0.0
 71
     7
 72
     5
  1
\W0.7045;30
  7
cesky
 73
     2
 44
0.8433729999999998
  0
LINE
  5
347
330
1F
100
AcDbEntity
  8
2
100
AcDbLine
 10
352.174849
 20
377.508075
 30
0.0
 11
352.174849
 21
392.801684
 31
0.0
  0
LINE
  5
348
330
1F
100
AcDbEntity
  8
2
100
AcDbLine
 10
322.174849
 20
366.008075
 30
0.0
 11
322.174849
 21
392.801684
 31
0.0
  0
LINE
  5
349
330
1F
100
AcDbEntity
  8
2
100
AcDbLine
 10
352.174849
 20
391.801684
 30
0.0
 11
322.174849
 21
391.801684
 31
0.0
  0
SOLID
  5
34A
330
1F
100
AcDbEntity
  8
2
100
AcDbTrace
 10
352.174849
 20
391.801684
 30
0.0
 11
348.674851
 21
391.184539
 31
0.0
 12
348.674846
 22
392.418828
 32
0.0
 13
348.674846
 23
392.418828
 33
0.0
  0
SOLID
  5
34B
330
1F
100
AcDbEntity
  8
2
100
AcDbTrace
 10
322.174849
 20
391.801684
 30
0.0
 11
325.674846
 21
392.418828
 31
0.0
 12
325.674851
 22
391.184539
 32
0.0
 13
325.674851
 23
391.184539
 33
0.0
  0
MTEXT
  5
34C
330
1F
100
AcDbEntity
  8
SK2
100
AcDbMText
 10
317.940776
 20
384.653078
 30
0.0
 40
3.5
 41
0.0
 71
     7
 72
     5
  1
\W0.9023;10,5
  7
cesky
 11
0.0000000000000001
 21
1.0
 31
0.0
 73
     2
 44
0.8433729999999998
  0
MTEXT
  5
34D
330
1F
100
AcDbEntity
  8
SK2
100
AcDbMText
 10
317.940776
 20
377.915578
 30
0.0
 40
3.5
 41
0.0
 71
     7
 72
     5
  1
\W3.0115;\H2.63;%%c\H3.50;
  7
cesky
 11
0.0000000000000001
 21
1.0
 31
0.0
 73
     2
 44
0.8433729999999998
  0
LINE
  5
34E
330
1F
100
AcDbEntity
  8
SK2
100
AcDbLine
 10
318.128193
 20
360.758078
 30
0.0
 11
318.128193
 21
393.545578
 31
0.0
  0
SOLID
  5
34F
330
1F
100
AcDbEntity
  8
SK2
100
AcDbTrace
 10
318.128193
 20
371.258078
 30
0.0
 11
318.745337
 21
367.75808
 31
0.0
 12
317.511048
 22
367.758076
 32
0.0
 13
317.511048
 23
367.758076
 33
0.0
  0
SOLID
  5
350
330
1F
100
AcDbEntity
  8
SK2
100
AcDbTrace
 10
318.128193
 20
360.758078
 30
0.0
 11
317.511048
 21
364.2580759999999
 31
0.0
 12
318.745337
 22
364.25808
 32
0.0
 13
318.745337
 23
364.25808
 33
0.0
  0
MTEXT
  5
351
330
1F
100
AcDbEntity
  8
SK2
100
AcDbMText
 10
323.085349
 20
401.098582
 30
0.0
 40
3.5
 41
0.0
 71
     7
 72
     5
  1
\W0.8459;49,5
  7
cesky
 73
     2
 44
0.8433729999999998
  0
LINE
  5
352
330
1F
100
AcDbEntity
  8
SK2
100
AcDbLine
 10
352.174849
 20
377.508075
 30
0.0
 11
352.174849
 21
402.2244149999999
 31
0.0
  0
LINE
  5
353
330
1F
100
AcDbEntity
  8
SK2
100
AcDbLine
 10
302.674849
 20
369.508078
 30
0.0
 11
302.674849
 21
402.2244149999999
 31
0.0
  0
LINE
  5
354
330
1F
100
AcDbEntity
  8
SK2
100
AcDbLine
 10
352.174849
 20
401.2244149999999
 30
0.0
 11
302.674849
 21
401.2244149999999
 31
0.0
  0
SOLID
  5
355
330
1F
100
AcDbEntity
  8
SK2
100
AcDbTrace
 10
352.174849
 20
401.2244149999999
 30
0.0
 11
348.674851
 21
400.6072709999999
 31
0.0
 12
348.674846
 22
401.8415599999999
 32
0.0
 13
348.674846
 23
401.8415599999999
 33
0.0
  0
SOLID
  5
356
330
1F
100
AcDbEntity
  8
SK2
100
AcDbTrace
 10
302.674849
 20
401.2244149999999
 30
0.0
 11
306.174846
 21
401.8415599999999
 31
0.0
 12
306.174851
 22
400.6072709999999
 32
0.0
 13
306.174851
 23
400.6072709999999
 33
0.0
  0
MTEXT
  5
357
330
1F
100
AcDbEntity
  8
SK2
100
AcDbMText
 10
298.016018
 20
362.553078
 30
0.0
 40
3.5
 41
0.0
 71
     7
 72
     5
  1
\W0.5332;M
  7
cesky
 11
0.0000000000000001
 21
1.0
 31
0.0
 73
     2
 44
0.8433729999999998
  0
MTEXT
  5
358
330
1F
100
AcDbEntity
  8
SK2
100
AcDbMText
 10
298.016018
 20
365.778078
 30
0.0
 40
3.5
 41
0.0
 71
     7
 72
     5
  1
\W0.7984;10
  7
cesky
 11
0.0000000000000001
 21
1.0
 31
0.0
 73
     2
 44
0.8433729999999998
  0
LINE
  5
359
330
1F
100
AcDbEntity
  8
SK2
100
AcDbLine
 10
304.174849
 20
371.008078
 30
0.0
 11
296.547184
 21
371.008078
 31
0.0
  0
LINE
  5
35A
330
1F
100
AcDbEntity
  8
SK2
100
AcDbLine
 10
304.174849
 20
361.008078
 30
0.0
 11
296.547184
 21
361.008078
 31
0.0
  0
LINE
  5
35B
330
1F
100
AcDbEntity
  8
SK2
100
AcDbLine
 10
297.5471839999999
 20
379.758078
 30
0.0
 11
297.5471839999999
 21
352.258078
 31
0.0
  0
SOLID
  5
35C
330
1F
100
AcDbEntity
  8
SK2
100
AcDbTrace
 10
297.5471839999999
 20
371.008078
 30
0.0
 11
296.93004
 21
374.508076
 31
0.0
 12
298.164329
 22
374.50808
 32
0.0
 13
298.164329
 23
374.50808
 33
0.0
  0
SOLID
  5
35D
330
1F
100
AcDbEntity
  8
SK2
100
AcDbTrace
 10
297.5471839999999
 20
361.008078
 30
0.0
 11
298.164329
 21
357.50808
 31
0.0
 12
296.93004
 22
357.508076
 32
0.0
 13
296.93004
 23
357.508076
 33
0.0
  0
LINE
  5
35F
330
1F
100
AcDbEntity
  8
CUT
100
AcDbLine
 10
352.0364161761697
 20
366.4097255133529
 30
0.0
 11
352.0357903886377
 21
366.4050606104571
 31
0.0
  0
ELLIPSE
  5
361
330
1F
100
AcDbEntity
  8
CUT
100
AcDbEllipse
 10
350.889544
 20
365.69756
 30
0.0
 11
-0.2767550262764863
 21
0.0321977258696304
 31
0.0
210
0.0
220
0.0
230
1.0
 40
0.099409
 41
1.583152510388498
 42
2.194017748594712
  0
ELLIPSE
  5
362
330
1F
100
AcDbEntity
  8
CUT
100
AcDbEllipse
 10
351.317625
 20
366.4442160000001
 30
0.0
 11
-0.3227044843703992
 21
-0.7443212381076283
 31
0.0
210
0.0
220
0.0
230
1.0
 40
0.8738269999999999
 41
0.3219146368847913
 42
1.883726913341396
  0
ELLIPSE
  5
363
330
1F
100
AcDbEntity
  8
CUT
100
AcDbEllipse
 10
333.828385
 20
374.78911
 30
0.0
 11
0.0
 21
0.65
 31
0.0
210
0.0
220
0.0
230
1.0
 40
0.9848079999999999
 41
0.0442145510115091
 42
1.757001592663696
  0
ELLIPSE
  5
364
330
1F
100
AcDbEntity
  8
CUT
100
AcDbEllipse
 10
342.450068
 20
365.942359
 30
0.0
 11
-0.5785186703508804
 21
10.2114814899437
 31
0.0
210
0.0
220
0.0
230
1.0
 40
0.939249
 41
4.715036659513695
 42
4.988328492697956
  0
ELLIPSE
  5
365
330
1F
100
AcDbEntity
  8
CUT
100
AcDbEllipse
 10
342.405754
 20
366.006811
 30
0.0
 11
0.0000000000000006
 21
9.808685220001587
 31
0.0
210
0.0
220
0.0
230
1.0
 40
0.9848079999999999
 41
5.076062600081271
 42
6.327399858191093
  0
ELLIPSE
  5
366
330
1F
100
AcDbEntity
  8
CUT
100
AcDbEllipse
 10
342.692016
 20
376.484667
 30
0.0
 11
0.0000000000000006
 21
9.808685220001587
 31
0.0
210
0.0
220
0.0
230
1.0
 40
0.9848079999999999
 41
1.757001592663695
 42
3.028727571921808
  0
LINE
  5
367
330
1F
100
AcDbEntity
  8
CUT
100
AcDbLine
 10
341.978795
 20
375.80591
 30
0.0
 11
333.800091
 21
375.438474
 31
0.0
  0
LINE
  5
368
330
1F
100
AcDbEntity
  8
CUT
100
AcDbLine
 10
341.60409
 20
366.73839
 30
0.0
 11
350.889764
 21
365.669652
 31
0.0
  0
LINE
  5
369
330
1F
100
AcDbEntity
  8
CUT
100
AcDbLine
 10
351.048475
 20
365.656428
 30
0.0
 11
351.217276
 21
365.648913
 31
0.0
  0
LINE
  5
36A
330
1F
100
AcDbEntity
  8
CUT
100
AcDbLine
 10
351.5207384210554
 20
369.2473044041744
 30
0.0
 11
351.5207384210554
 21
369.2473044041744
 31
0.0
  0
ARC
  5
36B
330
1F
100
AcDbEntity
  8
CUT
100
AcDbCircle
 10
345.4950209446745
 20
367.2754483652816
 30
0.0
 40
6.340148842360118
100
AcDbArc
 50
18.12016867107441
 51
20.500413983026
  0
ARC
  5
36C
330
1F
100
AcDbEntity
  8
CUT
100
AcDbCircle
 10
351.5581620044666
 20
366.4729280092207
 30
0.0
 40
0.4824122803529631
100
AcDbArc
 50
352.4718405279626
 51
357.6604491250969
  0
ARC
  5
36D
330
1F
100
AcDbEntity
  8
CUT
100
AcDbCircle
 10
351.4568079425416
 20
366.4776576228065
 30
0.0
 40
0.5838752253794877
100
AcDbArc
 50
357.60272458881
 51
3.447326386381444
  0
ENDSEC
  0
SECTION
  2
OBJECTS
  0
DICTIONARY
  5
C
330
0
100
AcDbDictionary
281
     1
  3
ACAD_CIP_PREVIOUS_PRODUCT_INFO
350
2BE
  3
ACAD_COLOR
350
2B8
  3
ACAD_DETAILVIEWSTYLE
350
2B4
  3
ACAD_FIELDLIST
350
328
  3
ACAD_GROUP
350
D
  3
ACAD_IMAGE_DICT
350
FE
  3
ACAD_IMAGE_VARS
350
2BD
  3
ACAD_LAYOUT
350
1A
  3
ACAD_MATERIAL
350
43
  3
ACAD_MLEADERSTYLE
350
6B
  3
ACAD_MLINESTYLE
350
17
  3
ACAD_PLOTSETTINGS
350
19
  3
ACAD_PLOTSTYLENAME
350
E
  3
ACAD_SCALELIST
350
47
  3
ACAD_SECTIONVIEWSTYLE
350
2B5
  3
ACAD_TABLESTYLE
350
69
  3
ACAD_VISUALSTYLE
350
2A
  3
ACDB_RECOMPOSE_DATA
350
39A
  3
AcDbVariableDictionary
350
271
  3
AcmDictionary
350
2EA
  3
AMG
350
2D0
  3
AMGSNAPSETTINGS
350
332
  0
DICTIONARY
  5
37C
330
10
100
AcDbDictionary
280
     1
281
     1
  3
ADSK_XREC_LAYER_RECONCILED
360
37D
  0
DICTIONARY
  5
37E
330
76
100
AcDbDictionary
280
     1
281
     1
  3
ADSK_XREC_LAYER_RECONCILED
360
37F
  0
DICTIONARY
  5
380
330
36E
100
AcDbDictionary
280
     1
281
     1
  3
ADSK_XREC_LAYER_RECONCILED
360
381
  0
DICTIONARY
  5
382
330
36F
100
AcDbDictionary
280
     1
281
     1
  3
ADSK_XREC_LAYER_RECONCILED
360
383
  0
DICTIONARY
  5
384
330
370
100
AcDbDictionary
280
     1
281
     1
  3
ADSK_XREC_LAYER_RECONCILED
360
385
  0
DICTIONARY
  5
386
330
372
100
AcDbDictionary
280
     1
281
     1
  3
ADSK_XREC_LAYER_RECONCILED
360
387
  0
DICTIONARY
  5
388
330
373
100
AcDbDictionary
280
     1
281
     1
  3
ADSK_XREC_LAYER_RECONCILED
360
389
  0
DICTIONARY
  5
38A
330
375
100
AcDbDictionary
280
     1
281
     1
  3
ADSK_XREC_LAYER_RECONCILED
360
38B
  0
DICTIONARY
  5
38C
330
376
100
AcDbDictionary
280
     1
281
     1
  3
ADSK_XREC_LAYER_RECONCILED
360
38D
  0
DICTIONARY
  5
38E
330
377
100
AcDbDictionary
280
     1
281
     1
  3
ADSK_XREC_LAYER_RECONCILED
360
38F
  0
DICTIONARY
  5
390
330
378
100
AcDbDictionary
280
     1
281
     1
  3
ADSK_XREC_LAYER_RECONCILED
360
391
  0
DICTIONARY
  5
392
330
379
100
AcDbDictionary
280
     1
281
     1
  3
ADSK_XREC_LAYER_RECONCILED
360
393
  0
DICTIONARY
  5
394
330
37A
100
AcDbDictionary
280
     1
281
     1
  3
ADSK_XREC_LAYER_RECONCILED
360
395
  0
DICTIONARY
  5
339
330
1F
100
AcDbDictionary
280
     1
281
     1
  3
ACAD_SORTENTS
360
33A
  0
XRECORD
  5
2BE
102
{ACAD_REACTORS
330
C
102
}
330
C
100
AcDbXrecord
280
     1
300
AMECH_PP
300
2019
300

  0
DICTIONARY
  5
2B8
102
{ACAD_REACTORS
330
C
102
}
330
C
100
AcDbDictionary
281
     1
  0
DICTIONARY
  5
2B4
102
{ACAD_REACTORS
330
C
102
}
330
C
100
AcDbDictionary
281
     1
  3
Metric50
350
2BA
  0
FIELDLIST
  5
328
102
{ACAD_REACTORS
330
C
102
}
330
C
100
AcDbIdSet
 90
        3
330
326
330
327
330
329
100
AcDbFieldList
  0
DICTIONARY
  5
D
102
{ACAD_REACTORS
330
C
102
}
330
C
100
AcDbDictionary
281
     1
  3
NULOVY_BOD
350
37B
  0
DICTIONARY
  5
FE
102
{ACAD_REACTORS
330
C
102
}
330
C
100
AcDbDictionary
281
     1
  3
20L2R030M10-SZP20-C_115009381ndi000_00-2D_DormerPramet_jpg
350
FF
  0
RASTERVARIABLES
  5
2BD
102
{ACAD_REACTORS
330
C
102
}
330
C
100
AcDbRasterVariables
 90
        0
 70
     1
 71
     1
 72
     1
  0
DICTIONARY
  5
1A
102
{ACAD_REACTORS
330
C
102
}
330
C
100
AcDbDictionary
281
     1
  3
Layout1
350
1E
  3
Layout2
350
26
  3
Model
350
22
  0
DICTIONARY
  5
43
102
{ACAD_REACTORS
330
C
102
}
330
C
100
AcDbDictionary
281
     1
  3
ByBlock
350
45
  3
ByLayer
350
44
  3
Global
350
46
  0
DICTIONARY
  5
6B
102
{ACAD_REACTORS
330
C
102
}
330
C
100
AcDbDictionary
281
     1
  3
Standard
350
6C
  0
DICTIONARY
  5
17
102
{ACAD_REACTORS
330
C
102
}
330
C
100
AcDbDictionary
281
     1
  3
Standard
350
18
  0
DICTIONARY
  5
19
102
{ACAD_REACTORS
330
C
102
}
330
C
100
AcDbDictionary
281
     1
  0
ACDBDICTIONARYWDFLT
  5
E
102
{ACAD_REACTORS
330
C
102
}
330
C
100
AcDbDictionary
281
     1
  3
Normal
350
F
100
AcDbDictionaryWithDefault
340
F
  0
DICTIONARY
  5
47
102
{ACAD_REACTORS
330
C
102
}
330
C
100
AcDbDictionary
281
     1
  3
A0
350
48
  3
A1
350
49
  3
A2
350
4A
  3
A3
350
4B
  3
A4
350
4C
  3
A5
350
4D
  3
A6
350
4E
  3
A7
350
4F
  3
A8
350
50
  3
A9
350
51
  3
B0
350
52
  3
B1
350
53
  3
B2
350
54
  3
B3
350
55
  3
B4
350
56
  3
B5
350
57
  3
B6
350
58
  3
B7
350
59
  3
B8
350
5A
  3
B9
350
5B
  3
C0
350
5C
  3
C1
350
5D
  3
C2
350
5E
  3
C3
350
5F
  3
C4
350
60
  3
C5
350
61
  3
C6
350
62
  3
C7
350
63
  3
C8
350
64
  3
C9
350
65
  3
D0
350
66
  3
D1
350
67
  3
D2
350
68
  0
DICTIONARY
  5
2B5
102
{ACAD_REACTORS
330
C
102
}
330
C
100
AcDbDictionary
281
     1
  3
Metric50
350
2B9
  0
DICTIONARY
  5
69
102
{ACAD_REACTORS
330
C
102
}
330
C
100
AcDbDictionary
281
     1
  3
Standard
350
6A
  0
DICTIONARY
  5
2A
102
{ACAD_REACTORS
330
C
102
}
330
C
100
AcDbDictionary
281
     1
  3
2dWireframe
350
2F
  3
Basic
350
32
  3
Brighten
350
36
  3
ColorChange
350
3A
  3
Conceptual
350
34
  3
Dim
350
35
  3
EdgeColorOff
350
3D
  3
Facepattern
350
39
  3
Flat
350
2B
  3
FlatWithEdges
350
2C
  3
Gouraud
350
2D
  3
GouraudWithEdges
350
2E
  3
Hidden
350
31
  3
JitterOff
350
3B
  3
Linepattern
350
38
  3
OverhangOff
350
3C
  3
Realistic
350
33
  3
Shaded
350
42
  3
Shaded with edges
350
41
  3
Shades of Gray
350
3E
  3
Sketchy
350
3F
  3
Thicken
350
37
  3
Wireframe
350
30
  3
X-Ray
350
40
  0
XRECORD
  5
39A
102
{ACAD_REACTORS
330
C
102
}
330
C
100
AcDbXrecord
280
     1
 90
        1
330
6A
  0
DICTIONARY
  5
271
102
{ACAD_REACTORS
330
C
102
}
330
C
100
AcDbDictionary
281
     1
  3
CANNOSCALE
350
272
  3
CMLEADERSTYLE
350
2B3
  3
CTABLESTYLE
350
2B2
  3
CVIEWDETAILSTYLE
350
396
  3
CVIEWSECTIONSTYLE
350
397
  3
MSLTSCALE
350
273
  3
XCLIPFRAME
350
398
  0
DICTIONARY
  5
2EA
102
{ACAD_REACTORS
330
C
102
}
330
C
100
AcDbDictionary
281
     1
  3
AcmStdDictionary
350
2F1
  0
DICTIONARY
  5
2D0
102
{ACAD_REACTORS
330
C
102
}
330
C
100
AcDbDictionary
281
     1
  0
DICTIONARY
  5
332
102
{ACAD_REACTORS
330
C
102
}
330
C
100
AcDbDictionary
281
     1
  0
XRECORD
  5
37D
102
{ACAD_REACTORS
330
37C
102
}
330
37C
100
AcDbXrecord
280
     1
290
     1
  0
XRECORD
  5
37F
102
{ACAD_REACTORS
330
37E
102
}
330
37E
100
AcDbXrecord
280
     1
290
     1
  0
XRECORD
  5
381
102
{ACAD_REACTORS
330
380
102
}
330
380
100
AcDbXrecord
280
     1
290
     1
  0
XRECORD
  5
383
102
{ACAD_REACTORS
330
382
102
}
330
382
100
AcDbXrecord
280
     1
290
     1
  0
XRECORD
  5
385
102
{ACAD_REACTORS
330
384
102
}
330
384
100
AcDbXrecord
280
     1
290
     1
  0
XRECORD
  5
387
102
{ACAD_REACTORS
330
386
102
}
330
386
100
AcDbXrecord
280
     1
290
     1
  0
XRECORD
  5
389
102
{ACAD_REACTORS
330
388
102
}
330
388
100
AcDbXrecord
280
     1
290
     1
  0
XRECORD
  5
38B
102
{ACAD_REACTORS
330
38A
102
}
330
38A
100
AcDbXrecord
280
     1
290
     1
  0
XRECORD
  5
38D
102
{ACAD_REACTORS
330
38C
102
}
330
38C
100
AcDbXrecord
280
     1
290
     1
  0
XRECORD
  5
38F
102
{ACAD_REACTORS
330
38E
102
}
330
38E
100
AcDbXrecord
280
     1
290
     1
  0
XRECORD
  5
391
102
{ACAD_REACTORS
330
390
102
}
330
390
100
AcDbXrecord
280
     1
290
     1
  0
XRECORD
  5
393
102
{ACAD_REACTORS
330
392
102
}
330
392
100
AcDbXrecord
280
     1
290
     1
  0
XRECORD
  5
395
102
{ACAD_REACTORS
330
394
102
}
330
394
100
AcDbXrecord
280
     1
290
     1
  0
SORTENTSTABLE
  5
33A
102
{ACAD_REACTORS
330
339
102
}
330
339
100
AcDbSortentsTable
330
1F
331
33B
  5
1E2
331
33C
  5
213
331
33D
  5
243
331
33E
  5
33B
331
33F
  5
33C
331
340
  5
343
331
341
  5
345
331
342
  5
346
331
343
  5
347
331
344
  5
348
331
345
  5
349
331
346
  5
351
331
347
  5
352
331
348
  5
353
331
349
  5
354
331
34A
  5
355
331
34B
  5
356
331
34C
  5
33E
331
34D
  5
33F
331
34E
  5
340
331
34F
  5
341
331
350
  5
342
331
351
  5
34A
331
352
  5
34C
331
353
  5
34D
331
354
  5
34E
331
355
  5
34F
331
356
  5
350
331
35F
  5
368
331
367
  5
36B
331
368
  5
36C
331
369
  5
36D
331
36A
  5
35F
331
36B
  5
367
331
36C
  5
369
331
36D
  5
36A
  0
ACDBDETAILVIEWSTYLE
  5
2BA
102
{ACAD_XDICTIONARY
360
3CE
102
}
102
{ACAD_REACTORS
330
2B4
330
31C
102
}
330
2B4
100
AcDbModelDocViewStyle
 70
     0
  3
Metric50
290
     0
100
AcDbDetailViewStyle
 70
     0
 71
     0
 90
        3
 71
     1
340
11
 62
   256
 40
5.0
340
0
 62
   256
 40
5.0
300

 40
0.0
280
     1
 71
     2
340
16
 90
       25
 62
   256
 71
     3
340
11
 62
   256
 40
5.0
 90
        0
 40
15.0
 90
        1
300
%<\AcVar ViewDetailId>% (%<\AcVar ViewScale \f "%sn">%)
 71
     4
340
16
 90
       25
 62
   256
340
16
 90
       25
 62
   256
280
     0
  0
GROUP
  5
37B
102
{ACAD_REACTORS
330
D
102
}
330
D
100
AcDbGroup
300

 70
     0
 71
     1
340
73
  0
IMAGEDEF
  5
FF
102
{ACAD_REACTORS
330
FE
330
102
102
}
330
FE
100
AcDbRasterImageDef
 90
        0
  1
R:\Katalog\Data\ZP\20L2R030M10-SZP20-C\20L2R030M10-SZP20-C_115009381ndi000_00-2D_DormerPramet.jpg
 10
2089.0
 20
531.0
 11
0.0004786979415989
 21
0.0004786979415989
280
     1
281
     0
  0
LAYOUT
  5
1E
102
{ACAD_REACTORS
330
1A
102
}
330
1A
100
AcDbPlotSettings
  1

  2
none_device
  4

  6

 40
0.0
 41
0.0
 42
0.0
 43
0.0
 44
0.0
 45
0.0
 46
0.0
 47
0.0
 48
0.0
 49
0.0
140
0.0
141
0.0
142
1.0
143
1.0
 70
   688
 72
     0
 73
     0
 74
     5
  7

 75
    16
147
1.0
 76
     0
 77
     2
 78
   300
148
0.0
149
0.0
100
AcDbLayout
  1
Layout1
 70
     1
 71
     1
 10
-0.5
 20
-0.5
 11
5.0
 21
5.0
 12
0.0
 22
0.0
 32
0.0
 14
-0.5
 24
-0.5
 34
-0.5
 15
5.0
 25
5.0
 35
5.0
146
0.0
 13
0.0
 23
0.0
 33
0.0
 16
1.0
 26
0.0
 36
0.0
 17
0.0
 27
1.0
 37
0.0
 76
     0
330
1B
  0
LAYOUT
  5
26
102
{ACAD_REACTORS
330
1A
102
}
330
1A
100
AcDbPlotSettings
  1

  2
none_device
  4

  6

 40
0.0
 41
0.0
 42
0.0
 43
0.0
 44
0.0
 45
0.0
 46
0.0
 47
0.0
 48
0.0
 49
0.0
140
0.0
141
0.0
142
1.0
143
1.0
 70
   688
 72
     0
 73
     0
 74
     5
  7

 75
    16
147
1.0
 76
     0
 77
     2
 78
   300
148
0.0
149
0.0
100
AcDbLayout
  1
Layout2
 70
     1
 71
     2
 10
0.0
 20
0.0
 11
0.0
 21
0.0
 12
0.0
 22
0.0
 32
0.0
 14
0.0
 24
0.0
 34
0.0
 15
0.0
 25
0.0
 35
0.0
146
0.0
 13
0.0
 23
0.0
 33
0.0
 16
1.0
 26
0.0
 36
0.0
 17
0.0
 27
1.0
 37
0.0
 76
     0
330
23
  0
LAYOUT
  5
22
102
{ACAD_REACTORS
330
1A
102
}
330
1A
100
AcDbPlotSettings
  1

  2
none_device
  4
Letter_(8.50_x_11.00_Inches)
  6

 40
6.349999999999999
 41
6.349999999999999
 42
6.350005
 43
6.350005
 44
215.9
 45
279.4
 46
0.0
 47
0.0
 48
0.0
 49
0.0
140
0.0
141
0.0
142
1.0
143
1.0
 70
  1712
 72
     0
 73
     0
 74
     0
  7

 75
     0
147
1.0
 76
     0
 77
     2
 78
   300
148
0.0
149
0.0
100
AcDbLayout
  1
Model
 70
     1
 71
     0
 10
-0.5
 20
-0.5
 11
5.0
 21
5.0
 12
0.0
 22
0.0
 32
0.0
 14
-0.5
 24
-0.5
 34
-0.5
 15
5.0
 25
5.0
 35
5.0
146
0.0
 13
0.0
 23
0.0
 33
0.0
 16
1.0
 26
0.0
 36
0.0
 17
0.0
 27
1.0
 37
0.0
 76
     0
330
1F
331
29
  0
MATERIAL
  5
45
102
{ACAD_XDICTIONARY
360
2A7
102
}
102
{ACAD_REACTORS
330
43
102
}
330
43
100
AcDbMaterial
  1
ByBlock
  0
MATERIAL
  5
44
102
{ACAD_XDICTIONARY
360
2A5
102
}
102
{ACAD_REACTORS
330
43
102
}
330
43
100
AcDbMaterial
  1
ByLayer
  0
MATERIAL
  5
46
102
{ACAD_XDICTIONARY
360
2A9
102
}
102
{ACAD_REACTORS
330
43
102
}
330
43
100
AcDbMaterial
  1
Global
  0
MLEADERSTYLE
  5
6C
102
{ACAD_REACTORS
330
6B
102
}
330
6B
100
AcDbMLeaderStyle
170
     2
171
     1
172
     0
 90
        2
 40
0.0
 41
0.0
173
     1
 91
-1056964608
340
14
 92
       -2
290
     1
 42
0.09
291
     1
 43
0.36
  3
Standard
 44
0.18
300

342
11
174
     1
178
     6
175
     1
176
     0
 93
-1056964608
 45
0.18
292
     0
297
     0
 46
0.18
 94
-1056964608
 47
1.0
 49
1.0
140
1.0
293
     1
141
0.0
294
     1
177
     0
142
1.0
295
     0
296
     0
143
0.125
1001
ACAD_MLEADERVER
1070
     2
  0
MLINESTYLE
  5
18
102
{ACAD_REACTORS
330
17
102
}
330
17
100
AcDbMlineStyle
  2
STANDARD
 70
     0
  3

 62
   256
 51
90.0
 52
90.0
 71
     2
 49
0.5
 62
   256
  6
BYLAYER
 49
-0.5
 62
   256
  6
BYLAYER
  0
ACDBPLACEHOLDER
  5
F
102
{ACAD_REACTORS
330
E
102
}
330
E
  0
SCALE
  5
48
102
{ACAD_REACTORS
330
47
102
}
330
47
100
AcDbScale
 70
     0
300
1:1
140
1.0
141
1.0
290
     1
  0
SCALE
  5
49
102
{ACAD_REACTORS
330
47
102
}
330
47
100
AcDbScale
 70
     0
300
1:2
140
1.0
141
2.0
290
     0
  0
SCALE
  5
4A
102
{ACAD_REACTORS
330
47
102
}
330
47
100
AcDbScale
 70
     0
300
1:4
140
1.0
141
4.0
290
     0
  0
SCALE
  5
4B
102
{ACAD_REACTORS
330
47
102
}
330
47
100
AcDbScale
 70
     0
300
1:5
140
1.0
141
5.0
290
     0
  0
SCALE
  5
4C
102
{ACAD_REACTORS
330
47
102
}
330
47
100
AcDbScale
 70
     0
300
1:8
140
1.0
141
8.0
290
     0
  0
SCALE
  5
4D
102
{ACAD_REACTORS
330
47
102
}
330
47
100
AcDbScale
 70
     0
300
1:10
140
1.0
141
10.0
290
     0
  0
SCALE
  5
4E
102
{ACAD_REACTORS
330
47
102
}
330
47
100
AcDbScale
 70
     0
300
1:16
140
1.0
141
16.0
290
     0
  0
SCALE
  5
4F
102
{ACAD_REACTORS
330
47
102
}
330
47
100
AcDbScale
 70
     0
300
1:20
140
1.0
141
20.0
290
     0
  0
SCALE
  5
50
102
{ACAD_REACTORS
330
47
102
}
330
47
100
AcDbScale
 70
     0
300
1:30
140
1.0
141
30.0
290
     0
  0
SCALE
  5
51
102
{ACAD_REACTORS
330
47
102
}
330
47
100
AcDbScale
 70
     0
300
1:40
140
1.0
141
40.0
290
     0
  0
SCALE
  5
52
102
{ACAD_REACTORS
330
47
102
}
330
47
100
AcDbScale
 70
     0
300
1:50
140
1.0
141
50.0
290
     0
  0
SCALE
  5
53
102
{ACAD_REACTORS
330
47
102
}
330
47
100
AcDbScale
 70
     0
300
1:100
140
1.0
141
100.0
290
     0
  0
SCALE
  5
54
102
{ACAD_REACTORS
330
47
102
}
330
47
100
AcDbScale
 70
     0
300
2:1
140
2.0
141
1.0
290
     0
  0
SCALE
  5
55
102
{ACAD_REACTORS
330
47
102
}
330
47
100
AcDbScale
 70
     0
300
4:1
140
4.0
141
1.0
290
     0
  0
SCALE
  5
56
102
{ACAD_REACTORS
330
47
102
}
330
47
100
AcDbScale
 70
     0
300
8:1
140
8.0
141
1.0
290
     0
  0
SCALE
  5
57
102
{ACAD_REACTORS
330
47
102
}
330
47
100
AcDbScale
 70
     0
300
10:1
140
10.0
141
1.0
290
     0
  0
SCALE
  5
58
102
{ACAD_REACTORS
330
47
102
}
330
47
100
AcDbScale
 70
     0
300
100:1
140
100.0
141
1.0
290
     0
  0
SCALE
  5
59
102
{ACAD_REACTORS
330
47
102
}
330
47
100
AcDbScale
 70
     0
300
1/128" = 1'-0"
140
0.007812
141
12.0
290
     0
  0
SCALE
  5
5A
102
{ACAD_REACTORS
330
47
102
}
330
47
100
AcDbScale
 70
     0
300
1/64" = 1'-0"
140
0.015625
141
12.0
290
     0
  0
SCALE
  5
5B
102
{ACAD_REACTORS
330
47
102
}
330
47
100
AcDbScale
 70
     0
300
1/32" = 1'-0"
140
0.03125
141
12.0
290
     0
  0
SCALE
  5
5C
102
{ACAD_REACTORS
330
47
102
}
330
47
100
AcDbScale
 70
     0
300
1/16" = 1'-0"
140
0.0625
141
12.0
290
     0
  0
SCALE
  5
5D
102
{ACAD_REACTORS
330
47
102
}
330
47
100
AcDbScale
 70
     0
300
3/32" = 1'-0"
140
0.09375
141
12.0
290
     0
  0
SCALE
  5
5E
102
{ACAD_REACTORS
330
47
102
}
330
47
100
AcDbScale
 70
     0
300
1/8" = 1'-0"
140
0.125
141
12.0
290
     0
  0
SCALE
  5
5F
102
{ACAD_REACTORS
330
47
102
}
330
47
100
AcDbScale
 70
     0
300
3/16" = 1'-0"
140
0.1875
141
12.0
290
     0
  0
SCALE
  5
60
102
{ACAD_REACTORS
330
47
102
}
330
47
100
AcDbScale
 70
     0
300
1/4" = 1'-0"
140
0.25
141
12.0
290
     0
  0
SCALE
  5
61
102
{ACAD_REACTORS
330
47
102
}
330
47
100
AcDbScale
 70
     0
300
3/8" = 1'-0"
140
0.375
141
12.0
290
     0
  0
SCALE
  5
62
102
{ACAD_REACTORS
330
47
102
}
330
47
100
AcDbScale
 70
     0
300
1/2" = 1'-0"
140
0.5
141
12.0
290
     0
  0
SCALE
  5
63
102
{ACAD_REACTORS
330
47
102
}
330
47
100
AcDbScale
 70
     0
300
3/4" = 1'-0"
140
0.75
141
12.0
290
     0
  0
SCALE
  5
64
102
{ACAD_REACTORS
330
47
102
}
330
47
100
AcDbScale
 70
     0
300
1" = 1'-0"
140
1.0
141
12.0
290
     0
  0
SCALE
  5
65
102
{ACAD_REACTORS
330
47
102
}
330
47
100
AcDbScale
 70
     0
300
1-1/2" = 1'-0"
140
1.5
141
12.0
290
     0
  0
SCALE
  5
66
102
{ACAD_REACTORS
330
47
102
}
330
47
100
AcDbScale
 70
     0
300
3" = 1'-0"
140
3.0
141
12.0
290
     0
  0
SCALE
  5
67
102
{ACAD_REACTORS
330
47
102
}
330
47
100
AcDbScale
 70
     0
300
6" = 1'-0"
140
6.0
141
12.0
290
     0
  0
SCALE
  5
68
102
{ACAD_REACTORS
330
47
102
}
330
47
100
AcDbScale
 70
     0
300
1'-0" = 1'-0"
140
12.0
141
12.0
290
     0
  0
ACDBSECTIONVIEWSTYLE
  5
2B9
102
{ACAD_XDICTIONARY
360
3CC
102
}
102
{ACAD_REACTORS
330
2B5
330
31B
102
}
330
2B5
100
AcDbModelDocViewStyle
 70
     0
  3
Metric50
290
     0
100
AcDbSectionViewStyle
 70
     0
 71
     0
 90
      102
 71
     1
340
11
 62
   256
 40
5.0
340
0
340
0
 62
   256
 40
5.0
300
I, O, Q, S, X, Z
 40
10.0
 90
        0
 40
2.5
 90
        0
 71
     2
340
16
 90
       25
 62
   256
340
16
 90
       50
 62
   256
 40
5.0
 40
2.5
 40
5.0
 71
     3
340
11
 62
   256
 40
5.0
 90
        0
 40
15.0
 90
        1
300
%<\AcVar ViewSectionStartId>%-%<\AcVar ViewSectionEndId>% (%<\AcVar ViewScale \f "%sn">%)
 71
     4
 62
   256
 62
   257
300
ANSI31
 40
1.0
 90
        0
290
     0
290
     0
 90
        6
 40
0.0
 40
1.570796326794896
 40
0.2617993877991494
 40
1.308996938995747
 40
-0.2617993877991494
 40
1.832595714594046
  0
TABLESTYLE
  5
6A
102
{ACAD_XDICTIONARY
360
2AB
102
}
102
{ACAD_REACTORS
330
69
102
}
330
69
100
AcDbTableStyle
  3
Standard
 70
     0
 71
     0
 40
0.06
 41
0.06
280
     0
281
     0
  7
Standard
140
0.18
170
     2
 62
     0
 63
     7
283
     0
274
    -2
284
     1
 64
     0
275
    -2
285
     1
 65
     0
276
    -2
286
     1
 66
     0
277
    -2
287
     1
 67
     0
278
    -2
288
     1
 68
     0
279
    -2
289
     1
 69
     0
  7
Standard
140
0.25
170
     5
 62
     0
 63
     7
283
     0
274
    -2
284
     1
 64
     0
275
    -2
285
     1
 65
     0
276
    -2
286
     1
 66
     0
277
    -2
287
     1
 67
     0
278
    -2
288
     1
 68
     0
279
    -2
289
     1
 69
     0
  7
Standard
140
0.18
170
     5
 62
     0
 63
     7
283
     0
274
    -2
284
     1
 64
     0
275
    -2
285
     1
 65
     0
276
    -2
286
     1
 66
     0
277
    -2
287
     1
 67
     0
278
    -2
288
     1
 68
     0
279
    -2
289
     1
 69
     0
  0
VISUALSTYLE
  5
2F
102
{ACAD_XDICTIONARY
360
3A3
102
}
102
{ACAD_REACTORS
330
2A
102
}
330
2A
100
AcDbVisualStyle
  2

 70
     4
 71
     0
 72
     2
 73
     0
 90
        0
 40
-0.6
 41
-30.0
 62
     5
 63
     7
421
 16777215
 74
     1
 91
        4
 64
     7
 65
   257
 75
     1
175
     1
 42
1.0
 92
        0
 66
   257
 43
1.0
 76
     1
 77
     6
 78
     2
 67
     7
 79
     5
170
     0
171
     0
290
     0
174
     0
 93
        1
 44
0.0
173
     0
291
     0
 45
0.0
1001
ACAD
1000
AcDbSavedByObjectVersion
1070
     0
  0
VISUALSTYLE
  5
32
102
{ACAD_XDICTIONARY
360
3A9
102
}
102
{ACAD_REACTORS
330
2A
102
}
330
2A
100
AcDbVisualStyle
  2

 70
     7
 71
     1
 72
     0
 73
     1
 90
        0
 40
-0.6
 41
-30.0
 62
     5
 63
     7
421
 16777215
 74
     0
 91
        4
 64
     7
 65
   257
 75
     1
175
     1
 42
1.0
 92
        8
 66
     7
 43
1.0
 76
     1
 77
     6
 78
     2
 67
     7
 79
     5
170
     0
171
     0
290
     0
174
     0
 93
        1
 44
0.0
173
     0
291
     1
 45
0.0
1001
ACAD
1000
AcDbSavedByObjectVersion
1070
     0
  0
VISUALSTYLE
  5
36
102
{ACAD_XDICTIONARY
360
3B1
102
}
102
{ACAD_REACTORS
330
2A
102
}
330
2A
100
AcDbVisualStyle
  2

 70
    12
 71
     2
 72
     2
 73
     0
 90
        0
 40
-0.6
 41
-30.0
 62
     5
 63
     7
421
 16777215
 74
     1
 91
        4
 64
     7
 65
   257
 75
     1
175
     1
 42
1.0
 92
        8
 66
     7
 43
1.0
 76
     1
 77
     6
 78
     2
 67
     7
 79
     5
170
     0
171
     0
290
     0
174
     0
 93
        1
 44
50.0
173
     0
291
     1
 45
0.0
1001
ACAD
1000
AcDbSavedByObjectVersion
1070
     0
  0
VISUALSTYLE
  5
3A
102
{ACAD_XDICTIONARY
360
3B9
102
}
102
{ACAD_REACTORS
330
2A
102
}
330
2A
100
AcDbVisualStyle
  2

 70
    16
 71
     2
 72
     2
 73
     3
 90
        0
 40
-0.6
 41
-30.0
 62
     5
 63
     8
421
  8421504
 74
     1
 91
        4
 64
     7
 65
   257
 75
     1
175
     1
 42
1.0
 92
        8
 66
     8
424
  8421504
 43
1.0
 76
     1
 77
     6
 78
     2
 67
     7
 79
     5
170
     0
171
     0
290
     0
174
     0
 93
        1
 44
0.0
173
     0
291
     1
 45
0.0
1001
ACAD
1000
AcDbSavedByObjectVersion
1070
     0
  0
VISUALSTYLE
  5
34
102
{ACAD_XDICTIONARY
360
3AD
102
}
102
{ACAD_REACTORS
330
2A
102
}
330
2A
100
AcDbVisualStyle
  2

 70
     9
 71
     3
 72
     2
 73
     0
 90
        0
 40
-0.6
 41
-30.0
 62
     5
 63
     7
421
 16777215
 74
     2
 91
        2
 64
     7
 65
   257
 75
     1
175
     1
 42
179.0
 92
        8
 66
     7
 43
1.0
 76
     1
 77
     6
 78
     2
 67
     7
 79
     3
170
     0
171
     0
290
     0
174
     0
 93
        1
 44
0.0
173
     0
291
     0
 45
0.0
1001
ACAD
1000
AcDbSavedByObjectVersion
1070
     0
  0
VISUALSTYLE
  5
35
102
{ACAD_XDICTIONARY
360
3AF
102
}
102
{ACAD_REACTORS
330
2A
102
}
330
2A
100
AcDbVisualStyle
  2

 70
    11
 71
     2
 72
     2
 73
     0
 90
        0
 40
-0.6
 41
-30.0
 62
     5
 63
     7
421
 16777215
 74
     1
 91
        4
 64
     7
 65
   257
 75
     1
175
     1
 42
1.0
 92
        8
 66
     7
 43
1.0
 76
     1
 77
     6
 78
     2
 67
     7
 79
     5
170
     0
171
     0
290
     0
174
     0
 93
        1
 44
-50.0
173
     0
291
     1
 45
0.0
1001
ACAD
1000
AcDbSavedByObjectVersion
1070
     0
  0
VISUALSTYLE
  5
3D
102
{ACAD_XDICTIONARY
360
3BF
102
}
102
{ACAD_REACTORS
330
2A
102
}
330
2A
100
AcDbVisualStyle
  2

 70
    22
 71
     2
 72
     2
 73
     0
 90
        0
 40
-0.6
 41
-30.0
 62
     5
 63
     7
421
 16777215
 74
     1
 91
        4
 64
     7
 65
   257
 75
     1
175
     1
 42
1.0
 92
        8
 66
     7
 43
1.0
 76
     1
 77
     6
 78
     2
 67
     7
 79
     5
170
     0
171
     0
290
     0
174
     0
 93
        1
 44
0.0
173
     0
291
     1
 45
0.0
1001
ACAD
1000
AcDbSavedByObjectVersion
1070
     0
  0
VISUALSTYLE
  5
39
102
{ACAD_XDICTIONARY
360
3B7
102
}
102
{ACAD_REACTORS
330
2A
102
}
330
2A
100
AcDbVisualStyle
  2

 70
    15
 71
     2
 72
     2
 73
     0
 90
        0
 40
-0.6
 41
-30.0
 62
     5
 63
     7
421
 16777215
 74
     1
 91
        4
 64
     7
 65
   257
 75
     1
175
     1
 42
1.0
 92
        8
 66
     7
 43
1.0
 76
     1
 77
     6
 78
     2
 67
     7
 79
     5
170
     0
171
     0
290
     0
174
     0
 93
        1
 44
0.0
173
     0
291
     1
 45
0.0
1001
ACAD
1000
AcDbSavedByObjectVersion
1070
     0
  0
VISUALSTYLE
  5
2B
102
{ACAD_XDICTIONARY
360
39B
102
}
102
{ACAD_REACTORS
330
2A
102
}
330
2A
100
AcDbVisualStyle
  2

 70
     0
 71
     2
 72
     1
 73
     1
 90
        2
 40
-0.6
 41
30.0
 62
     5
 63
     7
421
 16777215
 74
     0
 91
        0
 64
     7
 65
   257
 75
     1
175
     1
 42
1.0
 92
        8
 66
     7
 43
1.0
 76
     1
 77
     6
 78
     2
 67
     7
 79
     5
170
     0
171
     0
290
     0
174
     0
 93
       13
 44
0.0
173
     0
291
     1
 45
0.0
1001
ACAD
1000
AcDbSavedByObjectVersion
1070
     0
  0
VISUALSTYLE
  5
2C
102
{ACAD_XDICTIONARY
360
39D
102
}
102
{ACAD_REACTORS
330
2A
102
}
330
2A
100
AcDbVisualStyle
  2

 70
     1
 71
     2
 72
     1
 73
     1
 90
        2
 40
-0.6
 41
30.0
 62
     5
 63
     7
421
 16777215
 74
     1
 91
        0
 64
     7
 65
   257
 75
     1
175
     1
 42
1.0
 92
        0
 66
   257
 43
1.0
 76
     1
 77
     6
 78
     2
 67
     7
 79
     5
170
     0
171
     0
290
     0
174
     0
 93
       13
 44
0.0
173
     0
291
     1
 45
0.0
1001
ACAD
1000
AcDbSavedByObjectVersion
1070
     0
  0
VISUALSTYLE
  5
2D
102
{ACAD_XDICTIONARY
360
39F
102
}
102
{ACAD_REACTORS
330
2A
102
}
330
2A
100
AcDbVisualStyle
  2

 70
     2
 71
     2
 72
     2
 73
     1
 90
        2
 40
-0.6
 41
30.0
 62
     5
 63
     7
421
 16777215
 74
     0
 91
        0
 64
     7
 65
   257
 75
     1
175
     1
 42
1.0
 92
        0
 66
     7
 43
1.0
 76
     1
 77
     6
 78
     2
 67
     7
 79
     5
170
     0
171
     0
290
     0
174
     0
 93
       13
 44
0.0
173
     0
291
     1
 45
0.0
1001
ACAD
1000
AcDbSavedByObjectVersion
1070
     0
  0
VISUALSTYLE
  5
2E
102
{ACAD_XDICTIONARY
360
3A1
102
}
102
{ACAD_REACTORS
330
2A
102
}
330
2A
100
AcDbVisualStyle
  2

 70
     3
 71
     2
 72
     2
 73
     1
 90
        2
 40
-0.6
 41
30.0
 62
     5
 63
     7
421
 16777215
 74
     1
 91
        0
 64
     7
 65
   257
 75
     1
175
     1
 42
1.0
 92
        0
 66
   257
 43
1.0
 76
     1
 77
     6
 78
     2
 67
     7
 79
     5
170
     0
171
     0
290
     0
174
     0
 93
       13
 44
0.0
173
     0
291
     1
 45
0.0
1001
ACAD
1000
AcDbSavedByObjectVersion
1070
     0
  0
VISUALSTYLE
  5
31
102
{ACAD_XDICTIONARY
360
3A7
102
}
102
{ACAD_REACTORS
330
2A
102
}
330
2A
100
AcDbVisualStyle
  2

 70
     6
 71
     1
 72
     2
 73
     2
 90
        0
 40
-0.6
 41
-30.0
 62
     5
 63
     7
421
 16777215
 74
     2
 91
        2
 64
     7
 65
   257
 75
     2
175
     1
 42
40.0
 92
        0
 66
   257
 43
1.0
 76
     1
 77
     6
 78
     2
 67
     7
 79
     3
170
     0
171
     0
290
     0
174
     0
 93
        1
 44
0.0
173
     0
291
     0
 45
0.0
1001
ACAD
1000
AcDbSavedByObjectVersion
1070
     0
  0
VISUALSTYLE
  5
3B
102
{ACAD_XDICTIONARY
360
3BB
102
}
102
{ACAD_REACTORS
330
2A
102
}
330
2A
100
AcDbVisualStyle
  2

 70
    20
 71
     2
 72
     2
 73
     0
 90
        0
 40
-0.6
 41
-30.0
 62
     5
 63
     7
421
 16777215
 74
     1
 91
        4
 64
     7
 65
   257
 75
     1
175
     1
 42
1.0
 92
       10
 66
     7
 43
1.0
 76
     1
 77
     6
 78
     2
 67
     7
 79
     5
170
     0
171
     0
290
     0
174
     0
 93
        1
 44
0.0
173
     0
291
     1
 45
0.0
1001
ACAD
1000
AcDbSavedByObjectVersion
1070
     0
  0
VISUALSTYLE
  5
38
102
{ACAD_XDICTIONARY
360
3B5
102
}
102
{ACAD_REACTORS
330
2A
102
}
330
2A
100
AcDbVisualStyle
  2

 70
    14
 71
     2
 72
     2
 73
     0
 90
        0
 40
-0.6
 41
-30.0
 62
     5
 63
     7
421
 16777215
 74
     1
 91
        4
 64
     7
 65
   257
 75
     7
175
     7
 42
1.0
 92
        8
 66
     7
 43
1.0
 76
     1
 77
     6
 78
     2
 67
     7
 79
     5
170
     0
171
     0
290
     0
174
     0
 93
        1
 44
0.0
173
     0
291
     1
 45
0.0
1001
ACAD
1000
AcDbSavedByObjectVersion
1070
     0
  0
VISUALSTYLE
  5
3C
102
{ACAD_XDICTIONARY
360
3BD
102
}
102
{ACAD_REACTORS
330
2A
102
}
330
2A
100
AcDbVisualStyle
  2

 70
    21
 71
     2
 72
     2
 73
     0
 90
        0
 40
-0.6
 41
-30.0
 62
     5
 63
     7
421
 16777215
 74
     1
 91
        4
 64
     7
 65
   257
 75
     1
175
     1
 42
1.0
 92
        9
 66
     7
 43
1.0
 76
     1
 77
     6
 78
     2
 67
     7
 79
     5
170
     0
171
     0
290
     0
174
     0
 93
        1
 44
0.0
173
     0
291
     1
 45
0.0
1001
ACAD
1000
AcDbSavedByObjectVersion
1070
     0
  0
VISUALSTYLE
  5
33
102
{ACAD_XDICTIONARY
360
3AB
102
}
102
{ACAD_REACTORS
330
2A
102
}
330
2A
100
AcDbVisualStyle
  2

 70
     8
 71
     2
 72
     3
 73
     0
 90
        2
 40
-0.6
 41
30.0
 62
     5
 63
     7
421
 16777215
 74
     0
 91
        0
 64
     7
 65
   257
 75
     1
175
     1
 42
1.0
 92
        8
 66
   257
 43
1.0
 76
     1
 77
     6
 78
     2
 67
     7
 79
     3
170
     0
171
     0
290
     0
174
     0
 93
       13
 44
0.0
173
     0
291
     0
 45
0.0
1001
ACAD
1000
AcDbSavedByObjectVersion
1070
     0
  0
VISUALSTYLE
  5
42
102
{ACAD_XDICTIONARY
360
3C9
102
}
102
{ACAD_REACTORS
330
2A
102
}
330
2A
100
AcDbVisualStyle
  2

 70
    27
 71
     2
 72
     2
 73
     1
 90
        2
 40
-0.6
 41
30.0
 62
     5
 63
     7
421
 16777215
 74
     0
 91
        4
 64
     7
 65
   257
 75
     1
175
     1
 42
1.0
 92
        8
 66
   257
 43
1.0
 76
     1
 77
     6
 78
     2
 67
     8
425
  7895160
 79
     3
170
     0
171
     0
290
     0
174
     0
 93
        5
 44
0.0
173
     0
291
     0
 45
0.0
1001
ACAD
1000
AcDbSavedByObjectVersion
1070
     0
  0
VISUALSTYLE
  5
41
102
{ACAD_XDICTIONARY
360
3C7
102
}
102
{ACAD_REACTORS
330
2A
102
}
330
2A
100
AcDbVisualStyle
  2

 70
    26
 71
     2
 72
     2
 73
     1
 90
        2
 40
-0.6
 41
30.0
 62
     5
 63
     7
421
 16777215
 74
     1
 91
       10
 64
     7
 65
   257
 75
     2
175
     1
 42
1.0
 92
        8
 66
   257
 43
1.0
 76
     1
 77
     6
 78
     2
 67
     7
 79
     3
170
     0
171
     0
290
     0
174
     0
 93
        5
 44
0.0
173
     0
291
     0
 45
0.0
1001
ACAD
1000
AcDbSavedByObjectVersion
1070
     0
  0
VISUALSTYLE
  5
3E
102
{ACAD_XDICTIONARY
360
3C1
102
}
102
{ACAD_REACTORS
330
2A
102
}
330
2A
100
AcDbVisualStyle
  2

 70
    23
 71
     2
 72
     2
 73
     3
 90
        0
 40
-0.6
 41
-30.0
 62
     5
 63
     7
421
 16777215
 74
     2
 91
        2
 64
     7
 65
     7
 75
     1
175
     1
 42
40.0
 92
        8
 66
     7
 43
1.0
 76
     1
 77
     6
 78
     2
 67
     7
 79
     3
170
     0
171
     0
290
     0
174
     0
 93
        1
 44
0.0
173
     0
291
     0
 45
0.0
1001
ACAD
1000
AcDbSavedByObjectVersion
1070
     0
  0
VISUALSTYLE
  5
3F
102
{ACAD_XDICTIONARY
360
3C3
102
}
102
{ACAD_REACTORS
330
2A
102
}
330
2A
100
AcDbVisualStyle
  2

 70
    24
 71
     1
 72
     2
 73
     2
 90
        0
 40
-0.6
 41
-30.0
 62
     5
 63
     7
421
 16777215
 74
     2
 91
        2
 64
     7
 65
     7
 75
     1
175
     1
 42
40.0
 92
       11
 66
     7
 43
1.0
 76
     1
 77
     6
 78
     2
 67
     7
 79
     6
170
     0
171
     0
290
     0
174
     0
 93
        1
 44
0.0
173
     0
291
     0
 45
0.0
1001
ACAD
1000
AcDbSavedByObjectVersion
1070
     0
  0
VISUALSTYLE
  5
37
102
{ACAD_XDICTIONARY
360
3B3
102
}
102
{ACAD_REACTORS
330
2A
102
}
330
2A
100
AcDbVisualStyle
  2

 70
    13
 71
     2
 72
     2
 73
     0
 90
        0
 40
-0.6
 41
-30.0
 62
     5
 63
     7
421
 16777215
 74
     1
 91
        4
 64
     7
 65
   257
 75
     1
175
     1
 42
1.0
 92
       12
 66
     7
 43
1.0
 76
     1
 77
     6
 78
     2
 67
     7
 79
     5
170
     0
171
     0
290
     0
174
     0
 93
        1
 44
0.0
173
     0
291
     1
 45
0.0
1001
ACAD
1000
AcDbSavedByObjectVersion
1070
     0
  0
VISUALSTYLE
  5
30
102
{ACAD_XDICTIONARY
360
3A5
102
}
102
{ACAD_REACTORS
330
2A
102
}
330
2A
100
AcDbVisualStyle
  2

 70
     5
 71
     0
 72
     2
 73
     0
 90
        0
 40
-0.6
 41
-30.0
 62
     5
 63
     7
421
 16777215
 74
     1
 91
        4
 64
     7
 65
   257
 75
     1
175
     1
 42
1.0
 92
        0
 66
   257
 43
1.0
 76
     1
 77
     6
 78
     2
 67
     7
 79
     3
170
     0
171
     0
290
     0
174
     0
 93
        1
 44
0.0
173
     0
291
     0
 45
0.0
1001
ACAD
1000
AcDbSavedByObjectVersion
1070
     0
  0
VISUALSTYLE
  5
40
102
{ACAD_XDICTIONARY
360
3C5
102
}
102
{ACAD_REACTORS
330
2A
102
}
330
2A
100
AcDbVisualStyle
  2

 70
    25
 71
     2
 72
     2
 73
     1
 90
        1
 40
0.5
 41
-30.0
 62
     5
 63
     7
421
 16777215
 74
     1
 91
        0
 64
     7
 65
   257
 75
     1
175
     1
 42
1.0
 92
        8
 66
     7
 43
1.0
 76
     1
 77
     6
 78
     2
 67
     7
 79
     3
170
     0
171
     0
290
     0
174
     0
 93
       13
 44
0.0
173
     0
291
     0
 45
0.0
1001
ACAD
1000
AcDbSavedByObjectVersion
1070
     0
  0
DICTIONARYVAR
  5
272
102
{ACAD_REACTORS
330
271
102
}
330
271
100
DictionaryVariables
280
     0
  1
1:1
  0
DICTIONARYVAR
  5
2B3
102
{ACAD_REACTORS
330
271
102
}
330
271
100
DictionaryVariables
280
     0
  1
STANDARD
  0
DICTIONARYVAR
  5
2B2
102
{ACAD_REACTORS
330
271
102
}
330
271
100
DictionaryVariables
280
     0
  1
STANDARD
  0
DICTIONARYVAR
  5
396
102
{ACAD_REACTORS
330
271
102
}
330
271
100
DictionaryVariables
280
     0
  1
Metric50
  0
DICTIONARYVAR
  5
397
102
{ACAD_REACTORS
330
271
102
}
330
271
100
DictionaryVariables
280
     0
  1
Metric50
  0
DICTIONARYVAR
  5
273
102
{ACAD_REACTORS
330
271
102
}
330
271
100
DictionaryVariables
280
     0
  1
1
  0
DICTIONARYVAR
  5
398
102
{ACAD_REACTORS
330
271
102
}
330
271
100
DictionaryVariables
280
     0
  1
2
  0
DICTIONARY
  5
2F1
102
{ACAD_REACTORS
330
2EA
102
}
330
2EA
100
AcDbDictionary
281
     1
  0
DICTIONARY
  5
3CE
330
2BA
100
AcDbDictionary
280
     1
281
     1
  3
ACAD_XREC_ROUNDTRIP
360
3CF
  0
DICTIONARY
  5
2A7
330
45
100
AcDbDictionary
280
     1
281
     1
  3
ACAD_XREC_ROUNDTRIP
360
2A8
  0
DICTIONARY
  5
2A5
330
44
100
AcDbDictionary
280
     1
281
     1
  3
ACAD_XREC_ROUNDTRIP
360
2A6
  0
DICTIONARY
  5
2A9
330
46
100
AcDbDictionary
280
     1
281
     1
  3
ACAD_XREC_ROUNDTRIP
360
2AA
  0
DICTIONARY
  5
3CC
330
2B9
100
AcDbDictionary
280
     1
281
     1
  3
ACAD_XREC_ROUNDTRIP
360
3CD
  0
DICTIONARY
  5
2AB
330
6A
100
AcDbDictionary
280
     1
281
     1
  3
ACAD_ROUNDTRIP_2008_TABLESTYLE_CELLSTYLEMAP
360
399
  3
ACAD_XREC_ROUNDTRIP
360
3CB
  0
DICTIONARY
  5
3A3
330
2F
100
AcDbDictionary
280
     1
281
     1
  3
ACAD_XREC_ROUNDTRIP
360
3A4
  0
DICTIONARY
  5
3A9
330
32
100
AcDbDictionary
280
     1
281
     1
  3
ACAD_XREC_ROUNDTRIP
360
3AA
  0
DICTIONARY
  5
3B1
330
36
100
AcDbDictionary
280
     1
281
     1
  3
ACAD_XREC_ROUNDTRIP
360
3B2
  0
DICTIONARY
  5
3B9
330
3A
100
AcDbDictionary
280
     1
281
     1
  3
ACAD_XREC_ROUNDTRIP
360
3BA
  0
DICTIONARY
  5
3AD
330
34
100
AcDbDictionary
280
     1
281
     1
  3
ACAD_XREC_ROUNDTRIP
360
3AE
  0
DICTIONARY
  5
3AF
330
35
100
AcDbDictionary
280
     1
281
     1
  3
ACAD_XREC_ROUNDTRIP
360
3B0
  0
DICTIONARY
  5
3BF
330
3D
100
AcDbDictionary
280
     1
281
     1
  3
ACAD_XREC_ROUNDTRIP
360
3C0
  0
DICTIONARY
  5
3B7
330
39
100
AcDbDictionary
280
     1
281
     1
  3
ACAD_XREC_ROUNDTRIP
360
3B8
  0
DICTIONARY
  5
39B
330
2B
100
AcDbDictionary
280
     1
281
     1
  3
ACAD_XREC_ROUNDTRIP
360
39C
  0
DICTIONARY
  5
39D
330
2C
100
AcDbDictionary
280
     1
281
     1
  3
ACAD_XREC_ROUNDTRIP
360
39E
  0
DICTIONARY
  5
39F
330
2D
100
AcDbDictionary
280
     1
281
     1
  3
ACAD_XREC_ROUNDTRIP
360
3A0
  0
DICTIONARY
  5
3A1
330
2E
100
AcDbDictionary
280
     1
281
     1
  3
ACAD_XREC_ROUNDTRIP
360
3A2
  0
DICTIONARY
  5
3A7
330
31
100
AcDbDictionary
280
     1
281
     1
  3
ACAD_XREC_ROUNDTRIP
360
3A8
  0
DICTIONARY
  5
3BB
330
3B
100
AcDbDictionary
280
     1
281
     1
  3
ACAD_XREC_ROUNDTRIP
360
3BC
  0
DICTIONARY
  5
3B5
330
38
100
AcDbDictionary
280
     1
281
     1
  3
ACAD_XREC_ROUNDTRIP
360
3B6
  0
DICTIONARY
  5
3BD
330
3C
100
AcDbDictionary
280
     1
281
     1
  3
ACAD_XREC_ROUNDTRIP
360
3BE
  0
DICTIONARY
  5
3AB
330
33
100
AcDbDictionary
280
     1
281
     1
  3
ACAD_XREC_ROUNDTRIP
360
3AC
  0
DICTIONARY
  5
3C9
330
42
100
AcDbDictionary
280
     1
281
     1
  3
ACAD_XREC_ROUNDTRIP
360
3CA
  0
DICTIONARY
  5
3C7
330
41
100
AcDbDictionary
280
     1
281
     1
  3
ACAD_XREC_ROUNDTRIP
360
3C8
  0
DICTIONARY
  5
3C1
330
3E
100
AcDbDictionary
280
     1
281
     1
  3
ACAD_XREC_ROUNDTRIP
360
3C2
  0
DICTIONARY
  5
3C3
330
3F
100
AcDbDictionary
280
     1
281
     1
  3
ACAD_XREC_ROUNDTRIP
360
3C4
  0
DICTIONARY
  5
3B3
330
37
100
AcDbDictionary
280
     1
281
     1
  3
ACAD_XREC_ROUNDTRIP
360
3B4
  0
DICTIONARY
  5
3A5
330
30
100
AcDbDictionary
280
     1
281
     1
  3
ACAD_XREC_ROUNDTRIP
360
3A6
  0
DICTIONARY
  5
3C5
330
40
100
AcDbDictionary
280
     1
281
     1
  3
ACAD_XREC_ROUNDTRIP
360
3C6
  0
XRECORD
  5
3CF
102
{ACAD_REACTORS
330
3CE
102
}
330
3CE
100
AcDbXrecord
280
     1
102
DISPLAYNAME
  1
Metric50
102
FLAGS
 90
        0
  0
XRECORD
  5
2A8
102
{ACAD_REACTORS
330
2A7
102
}
330
2A7
100
AcDbXrecord
280
     1
102
MATERIAL
148
0.0
149
0.0
149
0.0
 93
        0
 94
      127
282
     0
 72
     1
 77
     1
171
     1
175
     1
179
     1
273
     0
  0
XRECORD
  5
2A6
102
{ACAD_REACTORS
330
2A5
102
}
330
2A5
100
AcDbXrecord
280
     1
102
MATERIAL
148
0.0
149
0.0
149
0.0
 93
        0
 94
      127
282
     0
 72
     1
 77
     1
171
     1
175
     1
179
     1
273
     0
  0
XRECORD
  5
2AA
102
{ACAD_REACTORS
330
2A9
102
}
330
2A9
100
AcDbXrecord
280
     1
102
MATERIAL
148
0.0
149
0.0
149
0.0
 93
        0
 94
      127
282
     0
 72
     1
 77
     1
171
     1
175
     1
179
     1
273
     0
  0
XRECORD
  5
3CD
102
{ACAD_REACTORS
330
3CC
102
}
330
3CC
100
AcDbXrecord
280
     1
102
DISPLAYNAME
  1
Metric50
102
FLAGS
 90
        0
  0
CELLSTYLEMAP
  5
399
102
{ACAD_REACTORS
330
2AB
102
}
330
2AB
100
AcDbCellStyleMap
 90
        3
300
CELLSTYLE
  1
TABLEFORMAT_BEGIN
 90
        5
170
     1
 91
        0
 92
    32768
 62
   257
 93
        1
300
CONTENTFORMAT
  1
CONTENTFORMAT_BEGIN
 90
        0
 91
        0
 92
        4
 93
        0
300

 40
0.0
140
1.0
 94
        5
 62
     0
340
11
144
0.25
309
CONTENTFORMAT_END
171
     1
301
MARGIN
  1
CELLMARGIN_BEGIN
 40
0.06
 40
0.06
 40
0.06
 40
0.06
 40
0.18
 40
0.18
309
CELLMARGIN_END
 94
        6
 95
        1
302
GRIDFORMAT
  1
GRIDFORMAT_BEGIN
 90
        0
 91
        1
 62
     0
 92
       -2
340
14
 93
        0
 40
0.045
309
GRIDFORMAT_END
 95
        2
302
GRIDFORMAT
  1
GRIDFORMAT_BEGIN
 90
        0
 91
        1
 62
     0
 92
       -2
340
14
 93
        0
 40
0.045
309
GRIDFORMAT_END
 95
        4
302
GRIDFORMAT
  1
GRIDFORMAT_BEGIN
 90
        0
 91
        1
 62
     0
 92
       -2
340
14
 93
        0
 40
0.045
309
GRIDFORMAT_END
 95
        8
302
GRIDFORMAT
  1
GRIDFORMAT_BEGIN
 90
        0
 91
        1
 62
     0
 92
       -2
340
14
 93
        0
 40
0.045
309
GRIDFORMAT_END
 95
       16
302
GRIDFORMAT
  1
GRIDFORMAT_BEGIN
 90
        0
 91
        1
 62
     0
 92
       -2
340
14
 93
        0
 40
0.045
309
GRIDFORMAT_END
 95
       32
302
GRIDFORMAT
  1
GRIDFORMAT_BEGIN
 90
        0
 91
        1
 62
     0
 92
       -2
340
14
 93
        0
 40
0.045
309
GRIDFORMAT_END
309
TABLEFORMAT_END
  1
CELLSTYLE_BEGIN
 90
        1
 91
        1
300
_TITLE
309
CELLSTYLE_END
300
CELLSTYLE
  1
TABLEFORMAT_BEGIN
 90
        5
170
     1
 91
        0
 92
        0
 62
   257
 93
        1
300
CONTENTFORMAT
  1
CONTENTFORMAT_BEGIN
 90
        0
 91
        0
 92
        4
 93
        0
300

 40
0.0
140
1.0
 94
        5
 62
     0
340
11
144
0.18
309
CONTENTFORMAT_END
171
     1
301
MARGIN
  1
CELLMARGIN_BEGIN
 40
0.06
 40
0.06
 40
0.06
 40
0.06
 40
0.18
 40
0.18
309
CELLMARGIN_END
 94
        6
 95
        1
302
GRIDFORMAT
  1
GRIDFORMAT_BEGIN
 90
        0
 91
        1
 62
     0
 92
       -2
340
14
 93
        0
 40
0.045
309
GRIDFORMAT_END
 95
        2
302
GRIDFORMAT
  1
GRIDFORMAT_BEGIN
 90
        0
 91
        1
 62
     0
 92
       -2
340
14
 93
        0
 40
0.045
309
GRIDFORMAT_END
 95
        4
302
GRIDFORMAT
  1
GRIDFORMAT_BEGIN
 90
        0
 91
        1
 62
     0
 92
       -2
340
14
 93
        0
 40
0.045
309
GRIDFORMAT_END
 95
        8
302
GRIDFORMAT
  1
GRIDFORMAT_BEGIN
 90
        0
 91
        1
 62
     0
 92
       -2
340
14
 93
        0
 40
0.045
309
GRIDFORMAT_END
 95
       16
302
GRIDFORMAT
  1
GRIDFORMAT_BEGIN
 90
        0
 91
        1
 62
     0
 92
       -2
340
14
 93
        0
 40
0.045
309
GRIDFORMAT_END
 95
       32
302
GRIDFORMAT
  1
GRIDFORMAT_BEGIN
 90
        0
 91
        1
 62
     0
 92
       -2
340
14
 93
        0
 40
0.045
309
GRIDFORMAT_END
309
TABLEFORMAT_END
  1
CELLSTYLE_BEGIN
 90
        2
 91
        1
300
_HEADER
309
CELLSTYLE_END
300
CELLSTYLE
  1
TABLEFORMAT_BEGIN
 90
        5
170
     1
 91
        0
 92
        0
 62
   257
 93
        1
300
CONTENTFORMAT
  1
CONTENTFORMAT_BEGIN
 90
        0
 91
        0
 92
        4
 93
        0
300

 40
0.0
140
1.0
 94
        2
 62
     0
340
11
144
0.18
309
CONTENTFORMAT_END
171
     1
301
MARGIN
  1
CELLMARGIN_BEGIN
 40
0.06
 40
0.06
 40
0.06
 40
0.06
 40
0.18
 40
0.18
309
CELLMARGIN_END
 94
        6
 95
        1
302
GRIDFORMAT
  1
GRIDFORMAT_BEGIN
 90
        0
 91
        1
 62
     0
 92
       -2
340
14
 93
        0
 40
0.045
309
GRIDFORMAT_END
 95
        2
302
GRIDFORMAT
  1
GRIDFORMAT_BEGIN
 90
        0
 91
        1
 62
     0
 92
       -2
340
14
 93
        0
 40
0.045
309
GRIDFORMAT_END
 95
        4
302
GRIDFORMAT
  1
GRIDFORMAT_BEGIN
 90
        0
 91
        1
 62
     0
 92
       -2
340
14
 93
        0
 40
0.045
309
GRIDFORMAT_END
 95
        8
302
GRIDFORMAT
  1
GRIDFORMAT_BEGIN
 90
        0
 91
        1
 62
     0
 92
       -2
340
14
 93
        0
 40
0.045
309
GRIDFORMAT_END
 95
       16
302
GRIDFORMAT
  1
GRIDFORMAT_BEGIN
 90
        0
 91
        1
 62
     0
 92
       -2
340
14
 93
        0
 40
0.045
309
GRIDFORMAT_END
 95
       32
302
GRIDFORMAT
  1
GRIDFORMAT_BEGIN
 90
        0
 91
        1
 62
     0
 92
       -2
340
14
 93
        0
 40
0.045
309
GRIDFORMAT_END
309
TABLEFORMAT_END
  1
CELLSTYLE_BEGIN
 90
        3
 91
        2
300
_DATA
309
CELLSTYLE_END
  0
XRECORD
  5
3CB
102
{ACAD_REACTORS
330
2AB
102
}
330
2AB
100
AcDbXrecord
280
     1
102
ACAD_ROUNDTRIP_PRE2007_TABLESTYLE
 90
        4
 91
        0
  1

 92
        4
 93
        0
  2

 94
        4
 95
        0
  3

  0
XRECORD
  5
3A4
102
{ACAD_REACTORS
330
3A3
102
}
330
3A3
100
AcDbXrecord
280
     1
102
RTVSPost2010Prop28
280
     1
102
RTVSPost2010PropOp28
 70
     1
102
RTVSPost2010Prop29
280
     1
102
RTVSPost2010PropOp29
 70
     1
102
RTVSPost2010Prop30
280
     0
102
RTVSPost2010PropOp30
 70
     1
102
RTVSPost2010Prop31
280
     0
102
RTVSPost2010PropOp31
 70
     1
102
RTVSPost2010Prop32
280
     0
102
RTVSPost2010PropOp32
 70
     1
102
RTVSPost2010Prop33
280
     0
102
RTVSPost2010PropOp33
 70
     1
102
RTVSPost2010Prop34
280
     0
102
RTVSPost2010PropOp34
 70
     1
102
RTVSPost2010Prop35
280
     0
102
RTVSPost2010PropOp35
 70
     1
102
RTVSPost2010Prop36
280
     0
102
RTVSPost2010PropOp36
 70
     1
102
RTVSPost2010Prop37
 90
       50
102
RTVSPost2010PropOp37
 70
     1
102
RTVSPost2010Prop38
140
0.0
102
RTVSPost2010PropOp38
 70
     1
102
RTVSPost2010Prop39
140
1.0
102
RTVSPost2010PropOp39
 70
     1
102
RTVSPost2010Prop40
 90
        0
102
RTVSPost2010PropOp40
 70
     1
102
RTVSPost2010Prop41ColorIndex
 90
       18
102
RTVSPost2010Prop41ColorRGB
 90
        0
102
RTVSPost2010PropOp41
 70
     1
102
RTVSPost2010Prop42
 90
       50
102
RTVSPost2010PropOp42
 70
     1
102
RTVSPost2010Prop43
 90
        3
102
RTVSPost2010PropOp43
 70
     1
102
RTVSPost2010Prop44ColorIndex
 90
        5
102
RTVSPost2010Prop44ColorRGB
 90
      255
102
RTVSPost2010PropOp44
 70
     1
102
RTVSPost2010Prop45
280
     0
102
RTVSPost2010PropOp45
 70
     1
102
RTVSPost2010Prop46
 90
       50
102
RTVSPost2010PropOp46
 70
     1
102
RTVSPost2010Prop47
 90
       50
102
RTVSPost2010PropOp47
 70
     1
102
RTVSPost2010Prop48
 90
       50
102
RTVSPost2010PropOp48
 70
     1
102
RTVSPost2010Prop49
280
     0
102
RTVSPost2010PropOp49
 70
     1
102
RTVSPost2010Prop50
 90
       50
102
RTVSPost2010PropOp50
 70
     1
102
RTVSPost2010Prop51ColorIndex
 90
      256
102
RTVSPost2010Prop51ColorRGB
 90
-16777216
102
RTVSPost2010PropOp51
 70
     0
102
RTVSPost2010Prop52
140
1.0
102
RTVSPost2010PropOp52
 70
     0
102
RTVSPost2010Prop53
 90
        2
102
RTVSPost2010PropOp53
 70
     1
102
RTVSPost2010Prop54
  1
strokes_ogs.tif
102
RTVSPost2010PropOp54
 70
     1
102
RTVSPost2010Prop55
280
     0
102
RTVSPost2010PropOp55
 70
     1
102
RTVSPost2010Prop56
140
1.0
102
RTVSPost2010PropOp56
 70
     1
102
RTVSPost2010Prop57
140
1.0
102
RTVSPost2010PropOp57
 70
     1
102
RTVSPropertyOp0
 70
     1
102
RTVSPropertyOp1
 70
     1
102
RTVSPropertyOp2
 70
     1
102
RTVSPropertyOp3
 70
     1
102
RTVSPropertyOp4
 70
     1
102
RTVSPropertyOp5
 70
     1
102
RTVSPropertyOp6
 70
     1
102
RTVSPropertyOp7
 70
     1
102
RTVSPropertyOp8
 70
     1
102
RTVSPropertyOp9
 70
     1
102
RTVSPropertyOp10
 70
     1
102
RTVSPropertyOp11
 70
     1
102
RTVSPropertyOp12
 70
     1
102
RTVSPropertyOp13
 70
     1
102
RTVSPropertyOp14
 70
     1
102
RTVSPropertyOp15
 70
     1
102
RTVSPropertyOp16
 70
     1
102
RTVSPropertyOp17
 70
     1
102
RTVSPropertyOp18
 70
     1
102
RTVSPropertyOp19
 70
     1
102
RTVSPropertyOp20
 70
     1
102
RTVSPropertyOp21
 70
     1
102
RTVSPropertyOp22
 70
     1
102
RTVSPropertyOp23
 70
     1
102
RTVSPropertyOp24
 70
     1
102
RTVSPropertyOp25
 70
     1
102
RTVSPropertyOp26
 70
     1
102
RTVSPropertyOp27
 70
     1
102
RTVSPropertyOp28
 70
     1
102
RTVSPropertyOp29
 70
     1
102
RTVSPropertyOp30
 70
     1
102
RTVSPropertyOp31
 70
     1
102
RTVSPropertyOp32
 70
     1
102
RTVSPropertyOp33
 70
     1
102
RTVSPropertyOp34
 70
     1
102
RTVSPropertyOp35
 70
     1
102
RTVSPropertyOp36
 70
     1
102
RTVSPropertyOp37
 70
     1
102
RTVSPropertyOp38
 70
     1
102
RTVSPropertyOp39
 70
     1
102
RTVSPropertyOp40
 70
     1
102
RTVSPropertyOp41
 70
     1
102
RTVSPropertyOp42
 70
     1
102
RTVSPropertyOp43
 70
     1
102
RTVSPropertyOp44
 70
     1
102
RTVSPropertyOp45
 70
     1
102
RTVSPropertyOp46
 70
     1
102
RTVSPropertyOp47
 70
     1
102
RTVSPropertyOp48
 70
     1
102
RTVSPropertyOp49
 70
     1
102
RTVSPropertyOp50
 70
     1
102
RTVSPropertyOp51
 70
     0
102
RTVSPropertyOp52
 70
     0
102
RTVSPropertyOp53
 70
     1
102
RTVSPropertyOp54
 70
     1
102
RTVSPropertyOp55
 70
     1
102
RTVSPropertyOp56
 70
     1
102
RTVSPropertyOp57
 70
     1
102
RTVSPropertyOp58
 70
     1
102
RTVSPropertyOp59
 70
     1
102
RTVSPropertyOp60
 70
     1
102
RTVSPropertyOp61
 70
     1
102
RTVSPropertyOp62
 70
     1
  0
XRECORD
  5
3AA
102
{ACAD_REACTORS
330
3A9
102
}
330
3A9
100
AcDbXrecord
280
     1
102
RTVSPost2010Prop28
280
     0
102
RTVSPost2010PropOp28
 70
     1
102
RTVSPost2010Prop29
280
     1
102
RTVSPost2010PropOp29
 70
     1
102
RTVSPost2010Prop30
280
     1
102
RTVSPost2010PropOp30
 70
     1
102
RTVSPost2010Prop31
280
     0
102
RTVSPost2010PropOp31
 70
     1
102
RTVSPost2010Prop32
280
     0
102
RTVSPost2010PropOp32
 70
     1
102
RTVSPost2010Prop33
280
     0
102
RTVSPost2010PropOp33
 70
     1
102
RTVSPost2010Prop34
280
     0
102
RTVSPost2010PropOp34
 70
     1
102
RTVSPost2010Prop35
280
     0
102
RTVSPost2010PropOp35
 70
     1
102
RTVSPost2010Prop36
280
     0
102
RTVSPost2010PropOp36
 70
     1
102
RTVSPost2010Prop37
 90
       50
102
RTVSPost2010PropOp37
 70
     1
102
RTVSPost2010Prop38
140
0.0
102
RTVSPost2010PropOp38
 70
     1
102
RTVSPost2010Prop39
140
1.0
102
RTVSPost2010PropOp39
 70
     1
102
RTVSPost2010Prop40
 90
        0
102
RTVSPost2010PropOp40
 70
     1
102
RTVSPost2010Prop41ColorIndex
 90
       18
102
RTVSPost2010Prop41ColorRGB
 90
        0
102
RTVSPost2010PropOp41
 70
     1
102
RTVSPost2010Prop42
 90
       50
102
RTVSPost2010PropOp42
 70
     1
102
RTVSPost2010Prop43
 90
        3
102
RTVSPost2010PropOp43
 70
     1
102
RTVSPost2010Prop44ColorIndex
 90
        5
102
RTVSPost2010Prop44ColorRGB
 90
      255
102
RTVSPost2010PropOp44
 70
     1
102
RTVSPost2010Prop45
280
     0
102
RTVSPost2010PropOp45
 70
     1
102
RTVSPost2010Prop46
 90
       50
102
RTVSPost2010PropOp46
 70
     1
102
RTVSPost2010Prop47
 90
       50
102
RTVSPost2010PropOp47
 70
     1
102
RTVSPost2010Prop48
 90
       50
102
RTVSPost2010PropOp48
 70
     1
102
RTVSPost2010Prop49
280
     0
102
RTVSPost2010PropOp49
 70
     1
102
RTVSPost2010Prop50
 90
       50
102
RTVSPost2010PropOp50
 70
     1
102
RTVSPost2010Prop51ColorIndex
 90
      256
102
RTVSPost2010Prop51ColorRGB
 90
-16777216
102
RTVSPost2010PropOp51
 70
     0
102
RTVSPost2010Prop52
140
1.0
102
RTVSPost2010PropOp52
 70
     0
102
RTVSPost2010Prop53
 90
        2
102
RTVSPost2010PropOp53
 70
     1
102
RTVSPost2010Prop54
  1
strokes_ogs.tif
102
RTVSPost2010PropOp54
 70
     1
102
RTVSPost2010Prop55
280
     0
102
RTVSPost2010PropOp55
 70
     1
102
RTVSPost2010Prop56
140
1.0
102
RTVSPost2010PropOp56
 70
     1
102
RTVSPost2010Prop57
140
1.0
102
RTVSPost2010PropOp57
 70
     1
102
RTVSPropertyOp0
 70
     1
102
RTVSPropertyOp1
 70
     1
102
RTVSPropertyOp2
 70
     1
102
RTVSPropertyOp3
 70
     1
102
RTVSPropertyOp4
 70
     1
102
RTVSPropertyOp5
 70
     1
102
RTVSPropertyOp6
 70
     1
102
RTVSPropertyOp7
 70
     1
102
RTVSPropertyOp8
 70
     1
102
RTVSPropertyOp9
 70
     1
102
RTVSPropertyOp10
 70
     1
102
RTVSPropertyOp11
 70
     1
102
RTVSPropertyOp12
 70
     1
102
RTVSPropertyOp13
 70
     1
102
RTVSPropertyOp14
 70
     1
102
RTVSPropertyOp15
 70
     1
102
RTVSPropertyOp16
 70
     1
102
RTVSPropertyOp17
 70
     1
102
RTVSPropertyOp18
 70
     1
102
RTVSPropertyOp19
 70
     1
102
RTVSPropertyOp20
 70
     1
102
RTVSPropertyOp21
 70
     1
102
RTVSPropertyOp22
 70
     1
102
RTVSPropertyOp23
 70
     1
102
RTVSPropertyOp24
 70
     1
102
RTVSPropertyOp25
 70
     1
102
RTVSPropertyOp26
 70
     1
102
RTVSPropertyOp27
 70
     1
102
RTVSPropertyOp28
 70
     1
102
RTVSPropertyOp29
 70
     1
102
RTVSPropertyOp30
 70
     1
102
RTVSPropertyOp31
 70
     1
102
RTVSPropertyOp32
 70
     1
102
RTVSPropertyOp33
 70
     1
102
RTVSPropertyOp34
 70
     1
102
RTVSPropertyOp35
 70
     1
102
RTVSPropertyOp36
 70
     1
102
RTVSPropertyOp37
 70
     1
102
RTVSPropertyOp38
 70
     1
102
RTVSPropertyOp39
 70
     1
102
RTVSPropertyOp40
 70
     1
102
RTVSPropertyOp41
 70
     1
102
RTVSPropertyOp42
 70
     1
102
RTVSPropertyOp43
 70
     1
102
RTVSPropertyOp44
 70
     1
102
RTVSPropertyOp45
 70
     1
102
RTVSPropertyOp46
 70
     1
102
RTVSPropertyOp47
 70
     1
102
RTVSPropertyOp48
 70
     1
102
RTVSPropertyOp49
 70
     1
102
RTVSPropertyOp50
 70
     1
102
RTVSPropertyOp51
 70
     0
102
RTVSPropertyOp52
 70
     0
102
RTVSPropertyOp53
 70
     1
102
RTVSPropertyOp54
 70
     1
102
RTVSPropertyOp55
 70
     1
102
RTVSPropertyOp56
 70
     1
102
RTVSPropertyOp57
 70
     1
102
RTVSPropertyOp58
 70
     1
102
RTVSPropertyOp59
 70
     1
102
RTVSPropertyOp60
 70
     1
102
RTVSPropertyOp61
 70
     1
102
RTVSPropertyOp62
 70
     1
  0
XRECORD
  5
3B2
102
{ACAD_REACTORS
330
3B1
102
}
330
3B1
100
AcDbXrecord
280
     1
102
RTVSPost2010Prop28
280
     0
102
RTVSPost2010PropOp28
 70
     1
102
RTVSPost2010Prop29
280
     1
102
RTVSPost2010PropOp29
 70
     1
102
RTVSPost2010Prop30
280
     1
102
RTVSPost2010PropOp30
 70
     1
102
RTVSPost2010Prop31
280
     0
102
RTVSPost2010PropOp31
 70
     1
102
RTVSPost2010Prop32
280
     0
102
RTVSPost2010PropOp32
 70
     1
102
RTVSPost2010Prop33
280
     0
102
RTVSPost2010PropOp33
 70
     1
102
RTVSPost2010Prop34
280
     0
102
RTVSPost2010PropOp34
 70
     1
102
RTVSPost2010Prop35
280
     0
102
RTVSPost2010PropOp35
 70
     1
102
RTVSPost2010Prop36
280
     0
102
RTVSPost2010PropOp36
 70
     1
102
RTVSPost2010Prop37
 90
       50
102
RTVSPost2010PropOp37
 70
     1
102
RTVSPost2010Prop38
140
0.0
102
RTVSPost2010PropOp38
 70
     1
102
RTVSPost2010Prop39
140
1.0
102
RTVSPost2010PropOp39
 70
     1
102
RTVSPost2010Prop40
 90
        0
102
RTVSPost2010PropOp40
 70
     1
102
RTVSPost2010Prop41ColorIndex
 90
       18
102
RTVSPost2010Prop41ColorRGB
 90
        0
102
RTVSPost2010PropOp41
 70
     1
102
RTVSPost2010Prop42
 90
       50
102
RTVSPost2010PropOp42
 70
     1
102
RTVSPost2010Prop43
 90
        3
102
RTVSPost2010PropOp43
 70
     1
102
RTVSPost2010Prop44ColorIndex
 90
        5
102
RTVSPost2010Prop44ColorRGB
 90
      255
102
RTVSPost2010PropOp44
 70
     1
102
RTVSPost2010Prop45
280
     0
102
RTVSPost2010PropOp45
 70
     1
102
RTVSPost2010Prop46
 90
       50
102
RTVSPost2010PropOp46
 70
     1
102
RTVSPost2010Prop47
 90
       50
102
RTVSPost2010PropOp47
 70
     1
102
RTVSPost2010Prop48
 90
       50
102
RTVSPost2010PropOp48
 70
     1
102
RTVSPost2010Prop49
280
     0
102
RTVSPost2010PropOp49
 70
     1
102
RTVSPost2010Prop50
 90
       50
102
RTVSPost2010PropOp50
 70
     1
102
RTVSPost2010Prop51ColorIndex
 90
      256
102
RTVSPost2010Prop51ColorRGB
 90
-16777216
102
RTVSPost2010PropOp51
 70
     0
102
RTVSPost2010Prop52
140
1.0
102
RTVSPost2010PropOp52
 70
     0
102
RTVSPost2010Prop53
 90
        2
102
RTVSPost2010PropOp53
 70
     1
102
RTVSPost2010Prop54
  1
strokes_ogs.tif
102
RTVSPost2010PropOp54
 70
     1
102
RTVSPost2010Prop55
280
     0
102
RTVSPost2010PropOp55
 70
     1
102
RTVSPost2010Prop56
140
1.0
102
RTVSPost2010PropOp56
 70
     1
102
RTVSPost2010Prop57
140
1.0
102
RTVSPost2010PropOp57
 70
     1
102
RTVSPropertyOp0
 70
     1
102
RTVSPropertyOp1
 70
     1
102
RTVSPropertyOp2
 70
     1
102
RTVSPropertyOp3
 70
     1
102
RTVSPropertyOp4
 70
     1
102
RTVSPropertyOp5
 70
     1
102
RTVSPropertyOp6
 70
     1
102
RTVSPropertyOp7
 70
     1
102
RTVSPropertyOp8
 70
     1
102
RTVSPropertyOp9
 70
     1
102
RTVSPropertyOp10
 70
     1
102
RTVSPropertyOp11
 70
     1
102
RTVSPropertyOp12
 70
     1
102
RTVSPropertyOp13
 70
     1
102
RTVSPropertyOp14
 70
     1
102
RTVSPropertyOp15
 70
     1
102
RTVSPropertyOp16
 70
     1
102
RTVSPropertyOp17
 70
     1
102
RTVSPropertyOp18
 70
     1
102
RTVSPropertyOp19
 70
     1
102
RTVSPropertyOp20
 70
     1
102
RTVSPropertyOp21
 70
     1
102
RTVSPropertyOp22
 70
     1
102
RTVSPropertyOp23
 70
     1
102
RTVSPropertyOp24
 70
     1
102
RTVSPropertyOp25
 70
     1
102
RTVSPropertyOp26
 70
     1
102
RTVSPropertyOp27
 70
     1
102
RTVSPropertyOp28
 70
     1
102
RTVSPropertyOp29
 70
     1
102
RTVSPropertyOp30
 70
     1
102
RTVSPropertyOp31
 70
     1
102
RTVSPropertyOp32
 70
     1
102
RTVSPropertyOp33
 70
     1
102
RTVSPropertyOp34
 70
     1
102
RTVSPropertyOp35
 70
     1
102
RTVSPropertyOp36
 70
     1
102
RTVSPropertyOp37
 70
     1
102
RTVSPropertyOp38
 70
     1
102
RTVSPropertyOp39
 70
     1
102
RTVSPropertyOp40
 70
     1
102
RTVSPropertyOp41
 70
     1
102
RTVSPropertyOp42
 70
     1
102
RTVSPropertyOp43
 70
     1
102
RTVSPropertyOp44
 70
     1
102
RTVSPropertyOp45
 70
     1
102
RTVSPropertyOp46
 70
     1
102
RTVSPropertyOp47
 70
     1
102
RTVSPropertyOp48
 70
     1
102
RTVSPropertyOp49
 70
     1
102
RTVSPropertyOp50
 70
     1
102
RTVSPropertyOp51
 70
     0
102
RTVSPropertyOp52
 70
     0
102
RTVSPropertyOp53
 70
     1
102
RTVSPropertyOp54
 70
     1
102
RTVSPropertyOp55
 70
     1
102
RTVSPropertyOp56
 70
     1
102
RTVSPropertyOp57
 70
     1
102
RTVSPropertyOp58
 70
     1
102
RTVSPropertyOp59
 70
     1
102
RTVSPropertyOp60
 70
     1
102
RTVSPropertyOp61
 70
     1
102
RTVSPropertyOp62
 70
     1
  0
XRECORD
  5
3BA
102
{ACAD_REACTORS
330
3B9
102
}
330
3B9
100
AcDbXrecord
280
     1
102
RTVSPost2010Prop28
280
     0
102
RTVSPost2010PropOp28
 70
     1
102
RTVSPost2010Prop29
280
     1
102
RTVSPost2010PropOp29
 70
     1
102
RTVSPost2010Prop30
280
     1
102
RTVSPost2010PropOp30
 70
     1
102
RTVSPost2010Prop31
280
     0
102
RTVSPost2010PropOp31
 70
     1
102
RTVSPost2010Prop32
280
     0
102
RTVSPost2010PropOp32
 70
     1
102
RTVSPost2010Prop33
280
     0
102
RTVSPost2010PropOp33
 70
     1
102
RTVSPost2010Prop34
280
     0
102
RTVSPost2010PropOp34
 70
     1
102
RTVSPost2010Prop35
280
     0
102
RTVSPost2010PropOp35
 70
     1
102
RTVSPost2010Prop36
280
     0
102
RTVSPost2010PropOp36
 70
     1
102
RTVSPost2010Prop37
 90
       50
102
RTVSPost2010PropOp37
 70
     1
102
RTVSPost2010Prop38
140
0.0
102
RTVSPost2010PropOp38
 70
     1
102
RTVSPost2010Prop39
140
1.0
102
RTVSPost2010PropOp39
 70
     1
102
RTVSPost2010Prop40
 90
        0
102
RTVSPost2010PropOp40
 70
     1
102
RTVSPost2010Prop41ColorIndex
 90
       18
102
RTVSPost2010Prop41ColorRGB
 90
        0
102
RTVSPost2010PropOp41
 70
     1
102
RTVSPost2010Prop42
 90
       50
102
RTVSPost2010PropOp42
 70
     1
102
RTVSPost2010Prop43
 90
        3
102
RTVSPost2010PropOp43
 70
     1
102
RTVSPost2010Prop44ColorIndex
 90
        5
102
RTVSPost2010Prop44ColorRGB
 90
      255
102
RTVSPost2010PropOp44
 70
     1
102
RTVSPost2010Prop45
280
     0
102
RTVSPost2010PropOp45
 70
     1
102
RTVSPost2010Prop46
 90
       50
102
RTVSPost2010PropOp46
 70
     1
102
RTVSPost2010Prop47
 90
       50
102
RTVSPost2010PropOp47
 70
     1
102
RTVSPost2010Prop48
 90
       50
102
RTVSPost2010PropOp48
 70
     1
102
RTVSPost2010Prop49
280
     0
102
RTVSPost2010PropOp49
 70
     1
102
RTVSPost2010Prop50
 90
       50
102
RTVSPost2010PropOp50
 70
     1
102
RTVSPost2010Prop51ColorIndex
 90
      256
102
RTVSPost2010Prop51ColorRGB
 90
-16777216
102
RTVSPost2010PropOp51
 70
     0
102
RTVSPost2010Prop52
140
1.0
102
RTVSPost2010PropOp52
 70
     0
102
RTVSPost2010Prop53
 90
        2
102
RTVSPost2010PropOp53
 70
     1
102
RTVSPost2010Prop54
  1
strokes_ogs.tif
102
RTVSPost2010PropOp54
 70
     1
102
RTVSPost2010Prop55
280
     0
102
RTVSPost2010PropOp55
 70
     1
102
RTVSPost2010Prop56
140
1.0
102
RTVSPost2010PropOp56
 70
     1
102
RTVSPost2010Prop57
140
1.0
102
RTVSPost2010PropOp57
 70
     1
102
RTVSPropertyOp0
 70
     1
102
RTVSPropertyOp1
 70
     1
102
RTVSPropertyOp2
 70
     1
102
RTVSPropertyOp3
 70
     1
102
RTVSPropertyOp4
 70
     1
102
RTVSPropertyOp5
 70
     1
102
RTVSPropertyOp6
 70
     1
102
RTVSPropertyOp7
 70
     1
102
RTVSPropertyOp8
 70
     1
102
RTVSPropertyOp9
 70
     1
102
RTVSPropertyOp10
 70
     1
102
RTVSPropertyOp11
 70
     1
102
RTVSPropertyOp12
 70
     1
102
RTVSPropertyOp13
 70
     1
102
RTVSPropertyOp14
 70
     1
102
RTVSPropertyOp15
 70
     1
102
RTVSPropertyOp16
 70
     1
102
RTVSPropertyOp17
 70
     1
102
RTVSPropertyOp18
 70
     1
102
RTVSPropertyOp19
 70
     1
102
RTVSPropertyOp20
 70
     1
102
RTVSPropertyOp21
 70
     1
102
RTVSPropertyOp22
 70
     1
102
RTVSPropertyOp23
 70
     1
102
RTVSPropertyOp24
 70
     1
102
RTVSPropertyOp25
 70
     1
102
RTVSPropertyOp26
 70
     1
102
RTVSPropertyOp27
 70
     1
102
RTVSPropertyOp28
 70
     1
102
RTVSPropertyOp29
 70
     1
102
RTVSPropertyOp30
 70
     1
102
RTVSPropertyOp31
 70
     1
102
RTVSPropertyOp32
 70
     1
102
RTVSPropertyOp33
 70
     1
102
RTVSPropertyOp34
 70
     1
102
RTVSPropertyOp35
 70
     1
102
RTVSPropertyOp36
 70
     1
102
RTVSPropertyOp37
 70
     1
102
RTVSPropertyOp38
 70
     1
102
RTVSPropertyOp39
 70
     1
102
RTVSPropertyOp40
 70
     1
102
RTVSPropertyOp41
 70
     1
102
RTVSPropertyOp42
 70
     1
102
RTVSPropertyOp43
 70
     1
102
RTVSPropertyOp44
 70
     1
102
RTVSPropertyOp45
 70
     1
102
RTVSPropertyOp46
 70
     1
102
RTVSPropertyOp47
 70
     1
102
RTVSPropertyOp48
 70
     1
102
RTVSPropertyOp49
 70
     1
102
RTVSPropertyOp50
 70
     1
102
RTVSPropertyOp51
 70
     0
102
RTVSPropertyOp52
 70
     0
102
RTVSPropertyOp53
 70
     1
102
RTVSPropertyOp54
 70
     1
102
RTVSPropertyOp55
 70
     1
102
RTVSPropertyOp56
 70
     1
102
RTVSPropertyOp57
 70
     1
102
RTVSPropertyOp58
 70
     1
102
RTVSPropertyOp59
 70
     1
102
RTVSPropertyOp60
 70
     1
102
RTVSPropertyOp61
 70
     1
102
RTVSPropertyOp62
 70
     1
  0
XRECORD
  5
3AE
102
{ACAD_REACTORS
330
3AD
102
}
330
3AD
100
AcDbXrecord
280
     1
102
RTVSPost2010Prop28
280
     0
102
RTVSPost2010PropOp28
 70
     1
102
RTVSPost2010Prop29
280
     1
102
RTVSPost2010PropOp29
 70
     1
102
RTVSPost2010Prop30
280
     1
102
RTVSPost2010PropOp30
 70
     1
102
RTVSPost2010Prop31
280
     0
102
RTVSPost2010PropOp31
 70
     1
102
RTVSPost2010Prop32
280
     0
102
RTVSPost2010PropOp32
 70
     1
102
RTVSPost2010Prop33
280
     0
102
RTVSPost2010PropOp33
 70
     1
102
RTVSPost2010Prop34
280
     0
102
RTVSPost2010PropOp34
 70
     1
102
RTVSPost2010Prop35
280
     0
102
RTVSPost2010PropOp35
 70
     1
102
RTVSPost2010Prop36
280
     0
102
RTVSPost2010PropOp36
 70
     1
102
RTVSPost2010Prop37
 90
       50
102
RTVSPost2010PropOp37
 70
     1
102
RTVSPost2010Prop38
140
0.0
102
RTVSPost2010PropOp38
 70
     1
102
RTVSPost2010Prop39
140
1.0
102
RTVSPost2010PropOp39
 70
     1
102
RTVSPost2010Prop40
 90
        0
102
RTVSPost2010PropOp40
 70
     1
102
RTVSPost2010Prop41ColorIndex
 90
       18
102
RTVSPost2010Prop41ColorRGB
 90
        0
102
RTVSPost2010PropOp41
 70
     1
102
RTVSPost2010Prop42
 90
       50
102
RTVSPost2010PropOp42
 70
     1
102
RTVSPost2010Prop43
 90
        3
102
RTVSPost2010PropOp43
 70
     1
102
RTVSPost2010Prop44ColorIndex
 90
        5
102
RTVSPost2010Prop44ColorRGB
 90
      255
102
RTVSPost2010PropOp44
 70
     1
102
RTVSPost2010Prop45
280
     0
102
RTVSPost2010PropOp45
 70
     1
102
RTVSPost2010Prop46
 90
       50
102
RTVSPost2010PropOp46
 70
     1
102
RTVSPost2010Prop47
 90
       50
102
RTVSPost2010PropOp47
 70
     1
102
RTVSPost2010Prop48
 90
       50
102
RTVSPost2010PropOp48
 70
     1
102
RTVSPost2010Prop49
280
     0
102
RTVSPost2010PropOp49
 70
     1
102
RTVSPost2010Prop50
 90
       50
102
RTVSPost2010PropOp50
 70
     1
102
RTVSPost2010Prop51ColorIndex
 90
      256
102
RTVSPost2010Prop51ColorRGB
 90
-16777216
102
RTVSPost2010PropOp51
 70
     0
102
RTVSPost2010Prop52
140
1.0
102
RTVSPost2010PropOp52
 70
     0
102
RTVSPost2010Prop53
 90
        2
102
RTVSPost2010PropOp53
 70
     1
102
RTVSPost2010Prop54
  1
strokes_ogs.tif
102
RTVSPost2010PropOp54
 70
     1
102
RTVSPost2010Prop55
280
     0
102
RTVSPost2010PropOp55
 70
     1
102
RTVSPost2010Prop56
140
1.0
102
RTVSPost2010PropOp56
 70
     1
102
RTVSPost2010Prop57
140
1.0
102
RTVSPost2010PropOp57
 70
     1
102
RTVSPropertyOp0
 70
     1
102
RTVSPropertyOp1
 70
     1
102
RTVSPropertyOp2
 70
     1
102
RTVSPropertyOp3
 70
     1
102
RTVSPropertyOp4
 70
     1
102
RTVSPropertyOp5
 70
     1
102
RTVSPropertyOp6
 70
     1
102
RTVSPropertyOp7
 70
     1
102
RTVSPropertyOp8
 70
     1
102
RTVSPropertyOp9
 70
     1
102
RTVSPropertyOp10
 70
     1
102
RTVSPropertyOp11
 70
     1
102
RTVSPropertyOp12
 70
     1
102
RTVSPropertyOp13
 70
     1
102
RTVSPropertyOp14
 70
     1
102
RTVSPropertyOp15
 70
     1
102
RTVSPropertyOp16
 70
     1
102
RTVSPropertyOp17
 70
     1
102
RTVSPropertyOp18
 70
     1
102
RTVSPropertyOp19
 70
     1
102
RTVSPropertyOp20
 70
     1
102
RTVSPropertyOp21
 70
     1
102
RTVSPropertyOp22
 70
     1
102
RTVSPropertyOp23
 70
     1
102
RTVSPropertyOp24
 70
     1
102
RTVSPropertyOp25
 70
     1
102
RTVSPropertyOp26
 70
     1
102
RTVSPropertyOp27
 70
     1
102
RTVSPropertyOp28
 70
     1
102
RTVSPropertyOp29
 70
     1
102
RTVSPropertyOp30
 70
     1
102
RTVSPropertyOp31
 70
     1
102
RTVSPropertyOp32
 70
     1
102
RTVSPropertyOp33
 70
     1
102
RTVSPropertyOp34
 70
     1
102
RTVSPropertyOp35
 70
     1
102
RTVSPropertyOp36
 70
     1
102
RTVSPropertyOp37
 70
     1
102
RTVSPropertyOp38
 70
     1
102
RTVSPropertyOp39
 70
     1
102
RTVSPropertyOp40
 70
     1
102
RTVSPropertyOp41
 70
     1
102
RTVSPropertyOp42
 70
     1
102
RTVSPropertyOp43
 70
     1
102
RTVSPropertyOp44
 70
     1
102
RTVSPropertyOp45
 70
     1
102
RTVSPropertyOp46
 70
     1
102
RTVSPropertyOp47
 70
     1
102
RTVSPropertyOp48
 70
     1
102
RTVSPropertyOp49
 70
     1
102
RTVSPropertyOp50
 70
     1
102
RTVSPropertyOp51
 70
     0
102
RTVSPropertyOp52
 70
     0
102
RTVSPropertyOp53
 70
     1
102
RTVSPropertyOp54
 70
     1
102
RTVSPropertyOp55
 70
     1
102
RTVSPropertyOp56
 70
     1
102
RTVSPropertyOp57
 70
     1
102
RTVSPropertyOp58
 70
     1
102
RTVSPropertyOp59
 70
     1
102
RTVSPropertyOp60
 70
     1
102
RTVSPropertyOp61
 70
     1
102
RTVSPropertyOp62
 70
     1
  0
XRECORD
  5
3B0
102
{ACAD_REACTORS
330
3AF
102
}
330
3AF
100
AcDbXrecord
280
     1
102
RTVSPost2010Prop28
280
     0
102
RTVSPost2010PropOp28
 70
     1
102
RTVSPost2010Prop29
280
     1
102
RTVSPost2010PropOp29
 70
     1
102
RTVSPost2010Prop30
280
     1
102
RTVSPost2010PropOp30
 70
     1
102
RTVSPost2010Prop31
280
     0
102
RTVSPost2010PropOp31
 70
     1
102
RTVSPost2010Prop32
280
     0
102
RTVSPost2010PropOp32
 70
     1
102
RTVSPost2010Prop33
280
     0
102
RTVSPost2010PropOp33
 70
     1
102
RTVSPost2010Prop34
280
     0
102
RTVSPost2010PropOp34
 70
     1
102
RTVSPost2010Prop35
280
     0
102
RTVSPost2010PropOp35
 70
     1
102
RTVSPost2010Prop36
280
     0
102
RTVSPost2010PropOp36
 70
     1
102
RTVSPost2010Prop37
 90
       50
102
RTVSPost2010PropOp37
 70
     1
102
RTVSPost2010Prop38
140
0.0
102
RTVSPost2010PropOp38
 70
     1
102
RTVSPost2010Prop39
140
1.0
102
RTVSPost2010PropOp39
 70
     1
102
RTVSPost2010Prop40
 90
        0
102
RTVSPost2010PropOp40
 70
     1
102
RTVSPost2010Prop41ColorIndex
 90
       18
102
RTVSPost2010Prop41ColorRGB
 90
        0
102
RTVSPost2010PropOp41
 70
     1
102
RTVSPost2010Prop42
 90
       50
102
RTVSPost2010PropOp42
 70
     1
102
RTVSPost2010Prop43
 90
        3
102
RTVSPost2010PropOp43
 70
     1
102
RTVSPost2010Prop44ColorIndex
 90
        5
102
RTVSPost2010Prop44ColorRGB
 90
      255
102
RTVSPost2010PropOp44
 70
     1
102
RTVSPost2010Prop45
280
     0
102
RTVSPost2010PropOp45
 70
     1
102
RTVSPost2010Prop46
 90
       50
102
RTVSPost2010PropOp46
 70
     1
102
RTVSPost2010Prop47
 90
       50
102
RTVSPost2010PropOp47
 70
     1
102
RTVSPost2010Prop48
 90
       50
102
RTVSPost2010PropOp48
 70
     1
102
RTVSPost2010Prop49
280
     0
102
RTVSPost2010PropOp49
 70
     1
102
RTVSPost2010Prop50
 90
       50
102
RTVSPost2010PropOp50
 70
     1
102
RTVSPost2010Prop51ColorIndex
 90
      256
102
RTVSPost2010Prop51ColorRGB
 90
-16777216
102
RTVSPost2010PropOp51
 70
     0
102
RTVSPost2010Prop52
140
1.0
102
RTVSPost2010PropOp52
 70
     0
102
RTVSPost2010Prop53
 90
        2
102
RTVSPost2010PropOp53
 70
     1
102
RTVSPost2010Prop54
  1
strokes_ogs.tif
102
RTVSPost2010PropOp54
 70
     1
102
RTVSPost2010Prop55
280
     0
102
RTVSPost2010PropOp55
 70
     1
102
RTVSPost2010Prop56
140
1.0
102
RTVSPost2010PropOp56
 70
     1
102
RTVSPost2010Prop57
140
1.0
102
RTVSPost2010PropOp57
 70
     1
102
RTVSPropertyOp0
 70
     1
102
RTVSPropertyOp1
 70
     1
102
RTVSPropertyOp2
 70
     1
102
RTVSPropertyOp3
 70
     1
102
RTVSPropertyOp4
 70
     1
102
RTVSPropertyOp5
 70
     1
102
RTVSPropertyOp6
 70
     1
102
RTVSPropertyOp7
 70
     1
102
RTVSPropertyOp8
 70
     1
102
RTVSPropertyOp9
 70
     1
102
RTVSPropertyOp10
 70
     1
102
RTVSPropertyOp11
 70
     1
102
RTVSPropertyOp12
 70
     1
102
RTVSPropertyOp13
 70
     1
102
RTVSPropertyOp14
 70
     1
102
RTVSPropertyOp15
 70
     1
102
RTVSPropertyOp16
 70
     1
102
RTVSPropertyOp17
 70
     1
102
RTVSPropertyOp18
 70
     1
102
RTVSPropertyOp19
 70
     1
102
RTVSPropertyOp20
 70
     1
102
RTVSPropertyOp21
 70
     1
102
RTVSPropertyOp22
 70
     1
102
RTVSPropertyOp23
 70
     1
102
RTVSPropertyOp24
 70
     1
102
RTVSPropertyOp25
 70
     1
102
RTVSPropertyOp26
 70
     1
102
RTVSPropertyOp27
 70
     1
102
RTVSPropertyOp28
 70
     1
102
RTVSPropertyOp29
 70
     1
102
RTVSPropertyOp30
 70
     1
102
RTVSPropertyOp31
 70
     1
102
RTVSPropertyOp32
 70
     1
102
RTVSPropertyOp33
 70
     1
102
RTVSPropertyOp34
 70
     1
102
RTVSPropertyOp35
 70
     1
102
RTVSPropertyOp36
 70
     1
102
RTVSPropertyOp37
 70
     1
102
RTVSPropertyOp38
 70
     1
102
RTVSPropertyOp39
 70
     1
102
RTVSPropertyOp40
 70
     1
102
RTVSPropertyOp41
 70
     1
102
RTVSPropertyOp42
 70
     1
102
RTVSPropertyOp43
 70
     1
102
RTVSPropertyOp44
 70
     1
102
RTVSPropertyOp45
 70
     1
102
RTVSPropertyOp46
 70
     1
102
RTVSPropertyOp47
 70
     1
102
RTVSPropertyOp48
 70
     1
102
RTVSPropertyOp49
 70
     1
102
RTVSPropertyOp50
 70
     1
102
RTVSPropertyOp51
 70
     0
102
RTVSPropertyOp52
 70
     0
102
RTVSPropertyOp53
 70
     1
102
RTVSPropertyOp54
 70
     1
102
RTVSPropertyOp55
 70
     1
102
RTVSPropertyOp56
 70
     1
102
RTVSPropertyOp57
 70
     1
102
RTVSPropertyOp58
 70
     1
102
RTVSPropertyOp59
 70
     1
102
RTVSPropertyOp60
 70
     1
102
RTVSPropertyOp61
 70
     1
102
RTVSPropertyOp62
 70
     1
  0
XRECORD
  5
3C0
102
{ACAD_REACTORS
330
3BF
102
}
330
3BF
100
AcDbXrecord
280
     1
102
RTVSPost2010Prop28
280
     0
102
RTVSPost2010PropOp28
 70
     0
102
RTVSPost2010Prop29
280
     1
102
RTVSPost2010PropOp29
 70
     0
102
RTVSPost2010Prop30
280
     1
102
RTVSPost2010PropOp30
 70
     0
102
RTVSPost2010Prop31
280
     0
102
RTVSPost2010PropOp31
 70
     0
102
RTVSPost2010Prop32
280
     0
102
RTVSPost2010PropOp32
 70
     0
102
RTVSPost2010Prop33
280
     0
102
RTVSPost2010PropOp33
 70
     0
102
RTVSPost2010Prop34
280
     0
102
RTVSPost2010PropOp34
 70
     0
102
RTVSPost2010Prop35
280
     0
102
RTVSPost2010PropOp35
 70
     0
102
RTVSPost2010Prop36
280
     0
102
RTVSPost2010PropOp36
 70
     0
102
RTVSPost2010Prop37
 90
       50
102
RTVSPost2010PropOp37
 70
     0
102
RTVSPost2010Prop38
140
0.0
102
RTVSPost2010PropOp38
 70
     0
102
RTVSPost2010Prop39
140
1.0
102
RTVSPost2010PropOp39
 70
     0
102
RTVSPost2010Prop40
 90
        0
102
RTVSPost2010PropOp40
 70
     0
102
RTVSPost2010Prop41ColorIndex
 90
       18
102
RTVSPost2010Prop41ColorRGB
 90
        0
102
RTVSPost2010PropOp41
 70
     0
102
RTVSPost2010Prop42
 90
       50
102
RTVSPost2010PropOp42
 70
     0
102
RTVSPost2010Prop43
 90
        3
102
RTVSPost2010PropOp43
 70
     0
102
RTVSPost2010Prop44ColorIndex
 90
        5
102
RTVSPost2010Prop44ColorRGB
 90
      255
102
RTVSPost2010PropOp44
 70
     0
102
RTVSPost2010Prop45
280
     0
102
RTVSPost2010PropOp45
 70
     0
102
RTVSPost2010Prop46
 90
       50
102
RTVSPost2010PropOp46
 70
     0
102
RTVSPost2010Prop47
 90
       50
102
RTVSPost2010PropOp47
 70
     0
102
RTVSPost2010Prop48
 90
       50
102
RTVSPost2010PropOp48
 70
     0
102
RTVSPost2010Prop49
280
     0
102
RTVSPost2010PropOp49
 70
     0
102
RTVSPost2010Prop50
 90
       50
102
RTVSPost2010PropOp50
 70
     0
102
RTVSPost2010Prop51ColorIndex
 90
      256
102
RTVSPost2010Prop51ColorRGB
 90
-16777216
102
RTVSPost2010PropOp51
 70
     0
102
RTVSPost2010Prop52
140
1.0
102
RTVSPost2010PropOp52
 70
     0
102
RTVSPost2010Prop53
 90
        2
102
RTVSPost2010PropOp53
 70
     0
102
RTVSPost2010Prop54
  1
strokes_ogs.tif
102
RTVSPost2010PropOp54
 70
     0
102
RTVSPost2010Prop55
280
     0
102
RTVSPost2010PropOp55
 70
     0
102
RTVSPost2010Prop56
140
1.0
102
RTVSPost2010PropOp56
 70
     0
102
RTVSPost2010Prop57
140
1.0
102
RTVSPost2010PropOp57
 70
     0
102
RTVSPropertyOp0
 70
     0
102
RTVSPropertyOp1
 70
     0
102
RTVSPropertyOp2
 70
     0
102
RTVSPropertyOp3
 70
     0
102
RTVSPropertyOp4
 70
     0
102
RTVSPropertyOp5
 70
     0
102
RTVSPropertyOp6
 70
     0
102
RTVSPropertyOp7
 70
     0
102
RTVSPropertyOp8
 70
     0
102
RTVSPropertyOp9
 70
     0
102
RTVSPropertyOp10
 70
     0
102
RTVSPropertyOp11
 70
     0
102
RTVSPropertyOp12
 70
     0
102
RTVSPropertyOp13
 70
     0
102
RTVSPropertyOp14
 70
     2
102
RTVSPropertyOp15
 70
     0
102
RTVSPropertyOp16
 70
     0
102
RTVSPropertyOp17
 70
     0
102
RTVSPropertyOp18
 70
     0
102
RTVSPropertyOp19
 70
     0
102
RTVSPropertyOp20
 70
     0
102
RTVSPropertyOp21
 70
     0
102
RTVSPropertyOp22
 70
     0
102
RTVSPropertyOp23
 70
     0
102
RTVSPropertyOp24
 70
     0
102
RTVSPropertyOp25
 70
     0
102
RTVSPropertyOp26
 70
     0
102
RTVSPropertyOp27
 70
     0
102
RTVSPropertyOp28
 70
     0
102
RTVSPropertyOp29
 70
     0
102
RTVSPropertyOp30
 70
     0
102
RTVSPropertyOp31
 70
     0
102
RTVSPropertyOp32
 70
     0
102
RTVSPropertyOp33
 70
     0
102
RTVSPropertyOp34
 70
     0
102
RTVSPropertyOp35
 70
     0
102
RTVSPropertyOp36
 70
     0
102
RTVSPropertyOp37
 70
     0
102
RTVSPropertyOp38
 70
     0
102
RTVSPropertyOp39
 70
     0
102
RTVSPropertyOp40
 70
     0
102
RTVSPropertyOp41
 70
     0
102
RTVSPropertyOp42
 70
     0
102
RTVSPropertyOp43
 70
     0
102
RTVSPropertyOp44
 70
     0
102
RTVSPropertyOp45
 70
     0
102
RTVSPropertyOp46
 70
     0
102
RTVSPropertyOp47
 70
     0
102
RTVSPropertyOp48
 70
     0
102
RTVSPropertyOp49
 70
     0
102
RTVSPropertyOp50
 70
     0
102
RTVSPropertyOp51
 70
     0
102
RTVSPropertyOp52
 70
     0
102
RTVSPropertyOp53
 70
     0
102
RTVSPropertyOp54
 70
     0
102
RTVSPropertyOp55
 70
     0
102
RTVSPropertyOp56
 70
     0
102
RTVSPropertyOp57
 70
     0
102
RTVSPropertyOp58
 70
     1
102
RTVSPropertyOp59
 70
     1
102
RTVSPropertyOp60
 70
     1
102
RTVSPropertyOp61
 70
     1
102
RTVSPropertyOp62
 70
     1
  0
XRECORD
  5
3B8
102
{ACAD_REACTORS
330
3B7
102
}
330
3B7
100
AcDbXrecord
280
     1
102
RTVSPost2010Prop28
280
     0
102
RTVSPost2010PropOp28
 70
     1
102
RTVSPost2010Prop29
280
     1
102
RTVSPost2010PropOp29
 70
     1
102
RTVSPost2010Prop30
280
     1
102
RTVSPost2010PropOp30
 70
     1
102
RTVSPost2010Prop31
280
     0
102
RTVSPost2010PropOp31
 70
     1
102
RTVSPost2010Prop32
280
     0
102
RTVSPost2010PropOp32
 70
     1
102
RTVSPost2010Prop33
280
     0
102
RTVSPost2010PropOp33
 70
     1
102
RTVSPost2010Prop34
280
     0
102
RTVSPost2010PropOp34
 70
     1
102
RTVSPost2010Prop35
280
     0
102
RTVSPost2010PropOp35
 70
     1
102
RTVSPost2010Prop36
280
     0
102
RTVSPost2010PropOp36
 70
     1
102
RTVSPost2010Prop37
 90
       50
102
RTVSPost2010PropOp37
 70
     1
102
RTVSPost2010Prop38
140
0.0
102
RTVSPost2010PropOp38
 70
     1
102
RTVSPost2010Prop39
140
1.0
102
RTVSPost2010PropOp39
 70
     1
102
RTVSPost2010Prop40
 90
        0
102
RTVSPost2010PropOp40
 70
     1
102
RTVSPost2010Prop41ColorIndex
 90
       18
102
RTVSPost2010Prop41ColorRGB
 90
        0
102
RTVSPost2010PropOp41
 70
     1
102
RTVSPost2010Prop42
 90
       50
102
RTVSPost2010PropOp42
 70
     1
102
RTVSPost2010Prop43
 90
        3
102
RTVSPost2010PropOp43
 70
     1
102
RTVSPost2010Prop44ColorIndex
 90
        5
102
RTVSPost2010Prop44ColorRGB
 90
      255
102
RTVSPost2010PropOp44
 70
     1
102
RTVSPost2010Prop45
280
     0
102
RTVSPost2010PropOp45
 70
     1
102
RTVSPost2010Prop46
 90
       50
102
RTVSPost2010PropOp46
 70
     1
102
RTVSPost2010Prop47
 90
       50
102
RTVSPost2010PropOp47
 70
     1
102
RTVSPost2010Prop48
 90
       50
102
RTVSPost2010PropOp48
 70
     1
102
RTVSPost2010Prop49
280
     0
102
RTVSPost2010PropOp49
 70
     1
102
RTVSPost2010Prop50
 90
       50
102
RTVSPost2010PropOp50
 70
     1
102
RTVSPost2010Prop51ColorIndex
 90
      256
102
RTVSPost2010Prop51ColorRGB
 90
-16777216
102
RTVSPost2010PropOp51
 70
     0
102
RTVSPost2010Prop52
140
1.0
102
RTVSPost2010PropOp52
 70
     0
102
RTVSPost2010Prop53
 90
        2
102
RTVSPost2010PropOp53
 70
     1
102
RTVSPost2010Prop54
  1
strokes_ogs.tif
102
RTVSPost2010PropOp54
 70
     1
102
RTVSPost2010Prop55
280
     0
102
RTVSPost2010PropOp55
 70
     1
102
RTVSPost2010Prop56
140
1.0
102
RTVSPost2010PropOp56
 70
     1
102
RTVSPost2010Prop57
140
1.0
102
RTVSPost2010PropOp57
 70
     1
102
RTVSPropertyOp0
 70
     1
102
RTVSPropertyOp1
 70
     1
102
RTVSPropertyOp2
 70
     1
102
RTVSPropertyOp3
 70
     1
102
RTVSPropertyOp4
 70
     1
102
RTVSPropertyOp5
 70
     1
102
RTVSPropertyOp6
 70
     1
102
RTVSPropertyOp7
 70
     1
102
RTVSPropertyOp8
 70
     1
102
RTVSPropertyOp9
 70
     1
102
RTVSPropertyOp10
 70
     1
102
RTVSPropertyOp11
 70
     1
102
RTVSPropertyOp12
 70
     1
102
RTVSPropertyOp13
 70
     1
102
RTVSPropertyOp14
 70
     1
102
RTVSPropertyOp15
 70
     1
102
RTVSPropertyOp16
 70
     1
102
RTVSPropertyOp17
 70
     1
102
RTVSPropertyOp18
 70
     1
102
RTVSPropertyOp19
 70
     1
102
RTVSPropertyOp20
 70
     1
102
RTVSPropertyOp21
 70
     1
102
RTVSPropertyOp22
 70
     1
102
RTVSPropertyOp23
 70
     1
102
RTVSPropertyOp24
 70
     1
102
RTVSPropertyOp25
 70
     1
102
RTVSPropertyOp26
 70
     1
102
RTVSPropertyOp27
 70
     1
102
RTVSPropertyOp28
 70
     1
102
RTVSPropertyOp29
 70
     1
102
RTVSPropertyOp30
 70
     1
102
RTVSPropertyOp31
 70
     1
102
RTVSPropertyOp32
 70
     1
102
RTVSPropertyOp33
 70
     1
102
RTVSPropertyOp34
 70
     1
102
RTVSPropertyOp35
 70
     1
102
RTVSPropertyOp36
 70
     1
102
RTVSPropertyOp37
 70
     1
102
RTVSPropertyOp38
 70
     1
102
RTVSPropertyOp39
 70
     1
102
RTVSPropertyOp40
 70
     1
102
RTVSPropertyOp41
 70
     1
102
RTVSPropertyOp42
 70
     1
102
RTVSPropertyOp43
 70
     1
102
RTVSPropertyOp44
 70
     1
102
RTVSPropertyOp45
 70
     1
102
RTVSPropertyOp46
 70
     1
102
RTVSPropertyOp47
 70
     1
102
RTVSPropertyOp48
 70
     1
102
RTVSPropertyOp49
 70
     1
102
RTVSPropertyOp50
 70
     1
102
RTVSPropertyOp51
 70
     0
102
RTVSPropertyOp52
 70
     0
102
RTVSPropertyOp53
 70
     1
102
RTVSPropertyOp54
 70
     1
102
RTVSPropertyOp55
 70
     1
102
RTVSPropertyOp56
 70
     1
102
RTVSPropertyOp57
 70
     1
102
RTVSPropertyOp58
 70
     1
102
RTVSPropertyOp59
 70
     1
102
RTVSPropertyOp60
 70
     1
102
RTVSPropertyOp61
 70
     1
102
RTVSPropertyOp62
 70
     1
  0
XRECORD
  5
39C
102
{ACAD_REACTORS
330
39B
102
}
330
39B
100
AcDbXrecord
280
     1
102
RTVSPost2010Prop28
280
     0
102
RTVSPost2010PropOp28
 70
     1
102
RTVSPost2010Prop29
280
     1
102
RTVSPost2010PropOp29
 70
     1
102
RTVSPost2010Prop30
280
     1
102
RTVSPost2010PropOp30
 70
     1
102
RTVSPost2010Prop31
280
     0
102
RTVSPost2010PropOp31
 70
     1
102
RTVSPost2010Prop32
280
     0
102
RTVSPost2010PropOp32
 70
     1
102
RTVSPost2010Prop33
280
     0
102
RTVSPost2010PropOp33
 70
     1
102
RTVSPost2010Prop34
280
     0
102
RTVSPost2010PropOp34
 70
     1
102
RTVSPost2010Prop35
280
     0
102
RTVSPost2010PropOp35
 70
     1
102
RTVSPost2010Prop36
280
     0
102
RTVSPost2010PropOp36
 70
     1
102
RTVSPost2010Prop37
 90
       50
102
RTVSPost2010PropOp37
 70
     1
102
RTVSPost2010Prop38
140
0.0
102
RTVSPost2010PropOp38
 70
     1
102
RTVSPost2010Prop39
140
1.0
102
RTVSPost2010PropOp39
 70
     1
102
RTVSPost2010Prop40
 90
        0
102
RTVSPost2010PropOp40
 70
     1
102
RTVSPost2010Prop41ColorIndex
 90
       18
102
RTVSPost2010Prop41ColorRGB
 90
        0
102
RTVSPost2010PropOp41
 70
     1
102
RTVSPost2010Prop42
 90
       50
102
RTVSPost2010PropOp42
 70
     1
102
RTVSPost2010Prop43
 90
        3
102
RTVSPost2010PropOp43
 70
     1
102
RTVSPost2010Prop44ColorIndex
 90
        5
102
RTVSPost2010Prop44ColorRGB
 90
      255
102
RTVSPost2010PropOp44
 70
     1
102
RTVSPost2010Prop45
280
     0
102
RTVSPost2010PropOp45
 70
     1
102
RTVSPost2010Prop46
 90
       50
102
RTVSPost2010PropOp46
 70
     1
102
RTVSPost2010Prop47
 90
       50
102
RTVSPost2010PropOp47
 70
     1
102
RTVSPost2010Prop48
 90
       50
102
RTVSPost2010PropOp48
 70
     1
102
RTVSPost2010Prop49
280
     0
102
RTVSPost2010PropOp49
 70
     1
102
RTVSPost2010Prop50
 90
       50
102
RTVSPost2010PropOp50
 70
     1
102
RTVSPost2010Prop51ColorIndex
 90
      256
102
RTVSPost2010Prop51ColorRGB
 90
-16777216
102
RTVSPost2010PropOp51
 70
     0
102
RTVSPost2010Prop52
140
1.0
102
RTVSPost2010PropOp52
 70
     0
102
RTVSPost2010Prop53
 90
        2
102
RTVSPost2010PropOp53
 70
     1
102
RTVSPost2010Prop54
  1
strokes_ogs.tif
102
RTVSPost2010PropOp54
 70
     1
102
RTVSPost2010Prop55
280
     0
102
RTVSPost2010PropOp55
 70
     1
102
RTVSPost2010Prop56
140
1.0
102
RTVSPost2010PropOp56
 70
     1
102
RTVSPost2010Prop57
140
1.0
102
RTVSPost2010PropOp57
 70
     1
102
RTVSPropertyOp0
 70
     1
102
RTVSPropertyOp1
 70
     1
102
RTVSPropertyOp2
 70
     1
102
RTVSPropertyOp3
 70
     1
102
RTVSPropertyOp4
 70
     1
102
RTVSPropertyOp5
 70
     1
102
RTVSPropertyOp6
 70
     1
102
RTVSPropertyOp7
 70
     1
102
RTVSPropertyOp8
 70
     1
102
RTVSPropertyOp9
 70
     1
102
RTVSPropertyOp10
 70
     1
102
RTVSPropertyOp11
 70
     1
102
RTVSPropertyOp12
 70
     1
102
RTVSPropertyOp13
 70
     1
102
RTVSPropertyOp14
 70
     1
102
RTVSPropertyOp15
 70
     1
102
RTVSPropertyOp16
 70
     1
102
RTVSPropertyOp17
 70
     1
102
RTVSPropertyOp18
 70
     1
102
RTVSPropertyOp19
 70
     1
102
RTVSPropertyOp20
 70
     1
102
RTVSPropertyOp21
 70
     1
102
RTVSPropertyOp22
 70
     1
102
RTVSPropertyOp23
 70
     1
102
RTVSPropertyOp24
 70
     1
102
RTVSPropertyOp25
 70
     1
102
RTVSPropertyOp26
 70
     1
102
RTVSPropertyOp27
 70
     1
102
RTVSPropertyOp28
 70
     1
102
RTVSPropertyOp29
 70
     1
102
RTVSPropertyOp30
 70
     1
102
RTVSPropertyOp31
 70
     1
102
RTVSPropertyOp32
 70
     1
102
RTVSPropertyOp33
 70
     1
102
RTVSPropertyOp34
 70
     1
102
RTVSPropertyOp35
 70
     1
102
RTVSPropertyOp36
 70
     1
102
RTVSPropertyOp37
 70
     1
102
RTVSPropertyOp38
 70
     1
102
RTVSPropertyOp39
 70
     1
102
RTVSPropertyOp40
 70
     1
102
RTVSPropertyOp41
 70
     1
102
RTVSPropertyOp42
 70
     1
102
RTVSPropertyOp43
 70
     1
102
RTVSPropertyOp44
 70
     1
102
RTVSPropertyOp45
 70
     1
102
RTVSPropertyOp46
 70
     1
102
RTVSPropertyOp47
 70
     1
102
RTVSPropertyOp48
 70
     1
102
RTVSPropertyOp49
 70
     1
102
RTVSPropertyOp50
 70
     1
102
RTVSPropertyOp51
 70
     0
102
RTVSPropertyOp52
 70
     0
102
RTVSPropertyOp53
 70
     1
102
RTVSPropertyOp54
 70
     1
102
RTVSPropertyOp55
 70
     1
102
RTVSPropertyOp56
 70
     1
102
RTVSPropertyOp57
 70
     1
102
RTVSPropertyOp58
 70
     1
102
RTVSPropertyOp59
 70
     1
102
RTVSPropertyOp60
 70
     1
102
RTVSPropertyOp61
 70
     1
102
RTVSPropertyOp62
 70
     1
  0
XRECORD
  5
39E
102
{ACAD_REACTORS
330
39D
102
}
330
39D
100
AcDbXrecord
280
     1
102
RTVSPost2010Prop28
280
     0
102
RTVSPost2010PropOp28
 70
     1
102
RTVSPost2010Prop29
280
     1
102
RTVSPost2010PropOp29
 70
     1
102
RTVSPost2010Prop30
280
     1
102
RTVSPost2010PropOp30
 70
     1
102
RTVSPost2010Prop31
280
     0
102
RTVSPost2010PropOp31
 70
     1
102
RTVSPost2010Prop32
280
     0
102
RTVSPost2010PropOp32
 70
     1
102
RTVSPost2010Prop33
280
     0
102
RTVSPost2010PropOp33
 70
     1
102
RTVSPost2010Prop34
280
     0
102
RTVSPost2010PropOp34
 70
     1
102
RTVSPost2010Prop35
280
     0
102
RTVSPost2010PropOp35
 70
     1
102
RTVSPost2010Prop36
280
     0
102
RTVSPost2010PropOp36
 70
     1
102
RTVSPost2010Prop37
 90
       50
102
RTVSPost2010PropOp37
 70
     1
102
RTVSPost2010Prop38
140
0.0
102
RTVSPost2010PropOp38
 70
     1
102
RTVSPost2010Prop39
140
1.0
102
RTVSPost2010PropOp39
 70
     1
102
RTVSPost2010Prop40
 90
        0
102
RTVSPost2010PropOp40
 70
     1
102
RTVSPost2010Prop41ColorIndex
 90
       18
102
RTVSPost2010Prop41ColorRGB
 90
        0
102
RTVSPost2010PropOp41
 70
     1
102
RTVSPost2010Prop42
 90
       50
102
RTVSPost2010PropOp42
 70
     1
102
RTVSPost2010Prop43
 90
        3
102
RTVSPost2010PropOp43
 70
     1
102
RTVSPost2010Prop44ColorIndex
 90
        5
102
RTVSPost2010Prop44ColorRGB
 90
      255
102
RTVSPost2010PropOp44
 70
     1
102
RTVSPost2010Prop45
280
     0
102
RTVSPost2010PropOp45
 70
     1
102
RTVSPost2010Prop46
 90
       50
102
RTVSPost2010PropOp46
 70
     1
102
RTVSPost2010Prop47
 90
       50
102
RTVSPost2010PropOp47
 70
     1
102
RTVSPost2010Prop48
 90
       50
102
RTVSPost2010PropOp48
 70
     1
102
RTVSPost2010Prop49
280
     0
102
RTVSPost2010PropOp49
 70
     1
102
RTVSPost2010Prop50
 90
       50
102
RTVSPost2010PropOp50
 70
     1
102
RTVSPost2010Prop51ColorIndex
 90
      256
102
RTVSPost2010Prop51ColorRGB
 90
-16777216
102
RTVSPost2010PropOp51
 70
     0
102
RTVSPost2010Prop52
140
1.0
102
RTVSPost2010PropOp52
 70
     0
102
RTVSPost2010Prop53
 90
        2
102
RTVSPost2010PropOp53
 70
     1
102
RTVSPost2010Prop54
  1
strokes_ogs.tif
102
RTVSPost2010PropOp54
 70
     1
102
RTVSPost2010Prop55
280
     0
102
RTVSPost2010PropOp55
 70
     1
102
RTVSPost2010Prop56
140
1.0
102
RTVSPost2010PropOp56
 70
     1
102
RTVSPost2010Prop57
140
1.0
102
RTVSPost2010PropOp57
 70
     1
102
RTVSPropertyOp0
 70
     1
102
RTVSPropertyOp1
 70
     1
102
RTVSPropertyOp2
 70
     1
102
RTVSPropertyOp3
 70
     1
102
RTVSPropertyOp4
 70
     1
102
RTVSPropertyOp5
 70
     1
102
RTVSPropertyOp6
 70
     1
102
RTVSPropertyOp7
 70
     1
102
RTVSPropertyOp8
 70
     1
102
RTVSPropertyOp9
 70
     1
102
RTVSPropertyOp10
 70
     1
102
RTVSPropertyOp11
 70
     1
102
RTVSPropertyOp12
 70
     1
102
RTVSPropertyOp13
 70
     1
102
RTVSPropertyOp14
 70
     1
102
RTVSPropertyOp15
 70
     1
102
RTVSPropertyOp16
 70
     1
102
RTVSPropertyOp17
 70
     1
102
RTVSPropertyOp18
 70
     1
102
RTVSPropertyOp19
 70
     1
102
RTVSPropertyOp20
 70
     1
102
RTVSPropertyOp21
 70
     1
102
RTVSPropertyOp22
 70
     1
102
RTVSPropertyOp23
 70
     1
102
RTVSPropertyOp24
 70
     1
102
RTVSPropertyOp25
 70
     1
102
RTVSPropertyOp26
 70
     1
102
RTVSPropertyOp27
 70
     1
102
RTVSPropertyOp28
 70
     1
102
RTVSPropertyOp29
 70
     1
102
RTVSPropertyOp30
 70
     1
102
RTVSPropertyOp31
 70
     1
102
RTVSPropertyOp32
 70
     1
102
RTVSPropertyOp33
 70
     1
102
RTVSPropertyOp34
 70
     1
102
RTVSPropertyOp35
 70
     1
102
RTVSPropertyOp36
 70
     1
102
RTVSPropertyOp37
 70
     1
102
RTVSPropertyOp38
 70
     1
102
RTVSPropertyOp39
 70
     1
102
RTVSPropertyOp40
 70
     1
102
RTVSPropertyOp41
 70
     1
102
RTVSPropertyOp42
 70
     1
102
RTVSPropertyOp43
 70
     1
102
RTVSPropertyOp44
 70
     1
102
RTVSPropertyOp45
 70
     1
102
RTVSPropertyOp46
 70
     1
102
RTVSPropertyOp47
 70
     1
102
RTVSPropertyOp48
 70
     1
102
RTVSPropertyOp49
 70
     1
102
RTVSPropertyOp50
 70
     1
102
RTVSPropertyOp51
 70
     0
102
RTVSPropertyOp52
 70
     0
102
RTVSPropertyOp53
 70
     1
102
RTVSPropertyOp54
 70
     1
102
RTVSPropertyOp55
 70
     1
102
RTVSPropertyOp56
 70
     1
102
RTVSPropertyOp57
 70
     1
102
RTVSPropertyOp58
 70
     1
102
RTVSPropertyOp59
 70
     1
102
RTVSPropertyOp60
 70
     1
102
RTVSPropertyOp61
 70
     1
102
RTVSPropertyOp62
 70
     1
  0
XRECORD
  5
3A0
102
{ACAD_REACTORS
330
39F
102
}
330
39F
100
AcDbXrecord
280
     1
102
RTVSPost2010Prop28
280
     0
102
RTVSPost2010PropOp28
 70
     1
102
RTVSPost2010Prop29
280
     1
102
RTVSPost2010PropOp29
 70
     1
102
RTVSPost2010Prop30
280
     1
102
RTVSPost2010PropOp30
 70
     1
102
RTVSPost2010Prop31
280
     0
102
RTVSPost2010PropOp31
 70
     1
102
RTVSPost2010Prop32
280
     0
102
RTVSPost2010PropOp32
 70
     1
102
RTVSPost2010Prop33
280
     0
102
RTVSPost2010PropOp33
 70
     1
102
RTVSPost2010Prop34
280
     0
102
RTVSPost2010PropOp34
 70
     1
102
RTVSPost2010Prop35
280
     0
102
RTVSPost2010PropOp35
 70
     1
102
RTVSPost2010Prop36
280
     0
102
RTVSPost2010PropOp36
 70
     1
102
RTVSPost2010Prop37
 90
       50
102
RTVSPost2010PropOp37
 70
     1
102
RTVSPost2010Prop38
140
0.0
102
RTVSPost2010PropOp38
 70
     1
102
RTVSPost2010Prop39
140
1.0
102
RTVSPost2010PropOp39
 70
     1
102
RTVSPost2010Prop40
 90
        0
102
RTVSPost2010PropOp40
 70
     1
102
RTVSPost2010Prop41ColorIndex
 90
       18
102
RTVSPost2010Prop41ColorRGB
 90
        0
102
RTVSPost2010PropOp41
 70
     1
102
RTVSPost2010Prop42
 90
       50
102
RTVSPost2010PropOp42
 70
     1
102
RTVSPost2010Prop43
 90
        3
102
RTVSPost2010PropOp43
 70
     1
102
RTVSPost2010Prop44ColorIndex
 90
        5
102
RTVSPost2010Prop44ColorRGB
 90
      255
102
RTVSPost2010PropOp44
 70
     1
102
RTVSPost2010Prop45
280
     0
102
RTVSPost2010PropOp45
 70
     1
102
RTVSPost2010Prop46
 90
       50
102
RTVSPost2010PropOp46
 70
     1
102
RTVSPost2010Prop47
 90
       50
102
RTVSPost2010PropOp47
 70
     1
102
RTVSPost2010Prop48
 90
       50
102
RTVSPost2010PropOp48
 70
     1
102
RTVSPost2010Prop49
280
     0
102
RTVSPost2010PropOp49
 70
     1
102
RTVSPost2010Prop50
 90
       50
102
RTVSPost2010PropOp50
 70
     1
102
RTVSPost2010Prop51ColorIndex
 90
      256
102
RTVSPost2010Prop51ColorRGB
 90
-16777216
102
RTVSPost2010PropOp51
 70
     0
102
RTVSPost2010Prop52
140
1.0
102
RTVSPost2010PropOp52
 70
     0
102
RTVSPost2010Prop53
 90
        2
102
RTVSPost2010PropOp53
 70
     1
102
RTVSPost2010Prop54
  1
strokes_ogs.tif
102
RTVSPost2010PropOp54
 70
     1
102
RTVSPost2010Prop55
280
     0
102
RTVSPost2010PropOp55
 70
     1
102
RTVSPost2010Prop56
140
1.0
102
RTVSPost2010PropOp56
 70
     1
102
RTVSPost2010Prop57
140
1.0
102
RTVSPost2010PropOp57
 70
     1
102
RTVSPropertyOp0
 70
     1
102
RTVSPropertyOp1
 70
     1
102
RTVSPropertyOp2
 70
     1
102
RTVSPropertyOp3
 70
     1
102
RTVSPropertyOp4
 70
     1
102
RTVSPropertyOp5
 70
     1
102
RTVSPropertyOp6
 70
     1
102
RTVSPropertyOp7
 70
     1
102
RTVSPropertyOp8
 70
     1
102
RTVSPropertyOp9
 70
     1
102
RTVSPropertyOp10
 70
     1
102
RTVSPropertyOp11
 70
     1
102
RTVSPropertyOp12
 70
     1
102
RTVSPropertyOp13
 70
     1
102
RTVSPropertyOp14
 70
     1
102
RTVSPropertyOp15
 70
     1
102
RTVSPropertyOp16
 70
     1
102
RTVSPropertyOp17
 70
     1
102
RTVSPropertyOp18
 70
     1
102
RTVSPropertyOp19
 70
     1
102
RTVSPropertyOp20
 70
     1
102
RTVSPropertyOp21
 70
     1
102
RTVSPropertyOp22
 70
     1
102
RTVSPropertyOp23
 70
     1
102
RTVSPropertyOp24
 70
     1
102
RTVSPropertyOp25
 70
     1
102
RTVSPropertyOp26
 70
     1
102
RTVSPropertyOp27
 70
     1
102
RTVSPropertyOp28
 70
     1
102
RTVSPropertyOp29
 70
     1
102
RTVSPropertyOp30
 70
     1
102
RTVSPropertyOp31
 70
     1
102
RTVSPropertyOp32
 70
     1
102
RTVSPropertyOp33
 70
     1
102
RTVSPropertyOp34
 70
     1
102
RTVSPropertyOp35
 70
     1
102
RTVSPropertyOp36
 70
     1
102
RTVSPropertyOp37
 70
     1
102
RTVSPropertyOp38
 70
     1
102
RTVSPropertyOp39
 70
     1
102
RTVSPropertyOp40
 70
     1
102
RTVSPropertyOp41
 70
     1
102
RTVSPropertyOp42
 70
     1
102
RTVSPropertyOp43
 70
     1
102
RTVSPropertyOp44
 70
     1
102
RTVSPropertyOp45
 70
     1
102
RTVSPropertyOp46
 70
     1
102
RTVSPropertyOp47
 70
     1
102
RTVSPropertyOp48
 70
     1
102
RTVSPropertyOp49
 70
     1
102
RTVSPropertyOp50
 70
     1
102
RTVSPropertyOp51
 70
     0
102
RTVSPropertyOp52
 70
     0
102
RTVSPropertyOp53
 70
     1
102
RTVSPropertyOp54
 70
     1
102
RTVSPropertyOp55
 70
     1
102
RTVSPropertyOp56
 70
     1
102
RTVSPropertyOp57
 70
     1
102
RTVSPropertyOp58
 70
     1
102
RTVSPropertyOp59
 70
     1
102
RTVSPropertyOp60
 70
     1
102
RTVSPropertyOp61
 70
     1
102
RTVSPropertyOp62
 70
     1
  0
XRECORD
  5
3A2
102
{ACAD_REACTORS
330
3A1
102
}
330
3A1
100
AcDbXrecord
280
     1
102
RTVSPost2010Prop28
280
     0
102
RTVSPost2010PropOp28
 70
     1
102
RTVSPost2010Prop29
280
     1
102
RTVSPost2010PropOp29
 70
     1
102
RTVSPost2010Prop30
280
     1
102
RTVSPost2010PropOp30
 70
     1
102
RTVSPost2010Prop31
280
     0
102
RTVSPost2010PropOp31
 70
     1
102
RTVSPost2010Prop32
280
     0
102
RTVSPost2010PropOp32
 70
     1
102
RTVSPost2010Prop33
280
     0
102
RTVSPost2010PropOp33
 70
     1
102
RTVSPost2010Prop34
280
     0
102
RTVSPost2010PropOp34
 70
     1
102
RTVSPost2010Prop35
280
     0
102
RTVSPost2010PropOp35
 70
     1
102
RTVSPost2010Prop36
280
     0
102
RTVSPost2010PropOp36
 70
     1
102
RTVSPost2010Prop37
 90
       50
102
RTVSPost2010PropOp37
 70
     1
102
RTVSPost2010Prop38
140
0.0
102
RTVSPost2010PropOp38
 70
     1
102
RTVSPost2010Prop39
140
1.0
102
RTVSPost2010PropOp39
 70
     1
102
RTVSPost2010Prop40
 90
        0
102
RTVSPost2010PropOp40
 70
     1
102
RTVSPost2010Prop41ColorIndex
 90
       18
102
RTVSPost2010Prop41ColorRGB
 90
        0
102
RTVSPost2010PropOp41
 70
     1
102
RTVSPost2010Prop42
 90
       50
102
RTVSPost2010PropOp42
 70
     1
102
RTVSPost2010Prop43
 90
        3
102
RTVSPost2010PropOp43
 70
     1
102
RTVSPost2010Prop44ColorIndex
 90
        5
102
RTVSPost2010Prop44ColorRGB
 90
      255
102
RTVSPost2010PropOp44
 70
     1
102
RTVSPost2010Prop45
280
     0
102
RTVSPost2010PropOp45
 70
     1
102
RTVSPost2010Prop46
 90
       50
102
RTVSPost2010PropOp46
 70
     1
102
RTVSPost2010Prop47
 90
       50
102
RTVSPost2010PropOp47
 70
     1
102
RTVSPost2010Prop48
 90
       50
102
RTVSPost2010PropOp48
 70
     1
102
RTVSPost2010Prop49
280
     0
102
RTVSPost2010PropOp49
 70
     1
102
RTVSPost2010Prop50
 90
       50
102
RTVSPost2010PropOp50
 70
     1
102
RTVSPost2010Prop51ColorIndex
 90
      256
102
RTVSPost2010Prop51ColorRGB
 90
-16777216
102
RTVSPost2010PropOp51
 70
     0
102
RTVSPost2010Prop52
140
1.0
102
RTVSPost2010PropOp52
 70
     0
102
RTVSPost2010Prop53
 90
        2
102
RTVSPost2010PropOp53
 70
     1
102
RTVSPost2010Prop54
  1
strokes_ogs.tif
102
RTVSPost2010PropOp54
 70
     1
102
RTVSPost2010Prop55
280
     0
102
RTVSPost2010PropOp55
 70
     1
102
RTVSPost2010Prop56
140
1.0
102
RTVSPost2010PropOp56
 70
     1
102
RTVSPost2010Prop57
140
1.0
102
RTVSPost2010PropOp57
 70
     1
102
RTVSPropertyOp0
 70
     1
102
RTVSPropertyOp1
 70
     1
102
RTVSPropertyOp2
 70
     1
102
RTVSPropertyOp3
 70
     1
102
RTVSPropertyOp4
 70
     1
102
RTVSPropertyOp5
 70
     1
102
RTVSPropertyOp6
 70
     1
102
RTVSPropertyOp7
 70
     1
102
RTVSPropertyOp8
 70
     1
102
RTVSPropertyOp9
 70
     1
102
RTVSPropertyOp10
 70
     1
102
RTVSPropertyOp11
 70
     1
102
RTVSPropertyOp12
 70
     1
102
RTVSPropertyOp13
 70
     1
102
RTVSPropertyOp14
 70
     1
102
RTVSPropertyOp15
 70
     1
102
RTVSPropertyOp16
 70
     1
102
RTVSPropertyOp17
 70
     1
102
RTVSPropertyOp18
 70
     1
102
RTVSPropertyOp19
 70
     1
102
RTVSPropertyOp20
 70
     1
102
RTVSPropertyOp21
 70
     1
102
RTVSPropertyOp22
 70
     1
102
RTVSPropertyOp23
 70
     1
102
RTVSPropertyOp24
 70
     1
102
RTVSPropertyOp25
 70
     1
102
RTVSPropertyOp26
 70
     1
102
RTVSPropertyOp27
 70
     1
102
RTVSPropertyOp28
 70
     1
102
RTVSPropertyOp29
 70
     1
102
RTVSPropertyOp30
 70
     1
102
RTVSPropertyOp31
 70
     1
102
RTVSPropertyOp32
 70
     1
102
RTVSPropertyOp33
 70
     1
102
RTVSPropertyOp34
 70
     1
102
RTVSPropertyOp35
 70
     1
102
RTVSPropertyOp36
 70
     1
102
RTVSPropertyOp37
 70
     1
102
RTVSPropertyOp38
 70
     1
102
RTVSPropertyOp39
 70
     1
102
RTVSPropertyOp40
 70
     1
102
RTVSPropertyOp41
 70
     1
102
RTVSPropertyOp42
 70
     1
102
RTVSPropertyOp43
 70
     1
102
RTVSPropertyOp44
 70
     1
102
RTVSPropertyOp45
 70
     1
102
RTVSPropertyOp46
 70
     1
102
RTVSPropertyOp47
 70
     1
102
RTVSPropertyOp48
 70
     1
102
RTVSPropertyOp49
 70
     1
102
RTVSPropertyOp50
 70
     1
102
RTVSPropertyOp51
 70
     0
102
RTVSPropertyOp52
 70
     0
102
RTVSPropertyOp53
 70
     1
102
RTVSPropertyOp54
 70
     1
102
RTVSPropertyOp55
 70
     1
102
RTVSPropertyOp56
 70
     1
102
RTVSPropertyOp57
 70
     1
102
RTVSPropertyOp58
 70
     1
102
RTVSPropertyOp59
 70
     1
102
RTVSPropertyOp60
 70
     1
102
RTVSPropertyOp61
 70
     1
102
RTVSPropertyOp62
 70
     1
  0
XRECORD
  5
3A8
102
{ACAD_REACTORS
330
3A7
102
}
330
3A7
100
AcDbXrecord
280
     1
102
RTVSPost2010Prop28
280
     0
102
RTVSPost2010PropOp28
 70
     1
102
RTVSPost2010Prop29
280
     1
102
RTVSPost2010PropOp29
 70
     1
102
RTVSPost2010Prop30
280
     1
102
RTVSPost2010PropOp30
 70
     1
102
RTVSPost2010Prop31
280
     0
102
RTVSPost2010PropOp31
 70
     1
102
RTVSPost2010Prop32
280
     0
102
RTVSPost2010PropOp32
 70
     1
102
RTVSPost2010Prop33
280
     0
102
RTVSPost2010PropOp33
 70
     1
102
RTVSPost2010Prop34
280
     0
102
RTVSPost2010PropOp34
 70
     1
102
RTVSPost2010Prop35
280
     0
102
RTVSPost2010PropOp35
 70
     1
102
RTVSPost2010Prop36
280
     0
102
RTVSPost2010PropOp36
 70
     1
102
RTVSPost2010Prop37
 90
       50
102
RTVSPost2010PropOp37
 70
     1
102
RTVSPost2010Prop38
140
0.0
102
RTVSPost2010PropOp38
 70
     1
102
RTVSPost2010Prop39
140
1.0
102
RTVSPost2010PropOp39
 70
     1
102
RTVSPost2010Prop40
 90
        0
102
RTVSPost2010PropOp40
 70
     1
102
RTVSPost2010Prop41ColorIndex
 90
       18
102
RTVSPost2010Prop41ColorRGB
 90
        0
102
RTVSPost2010PropOp41
 70
     1
102
RTVSPost2010Prop42
 90
       50
102
RTVSPost2010PropOp42
 70
     1
102
RTVSPost2010Prop43
 90
        3
102
RTVSPost2010PropOp43
 70
     1
102
RTVSPost2010Prop44ColorIndex
 90
        5
102
RTVSPost2010Prop44ColorRGB
 90
      255
102
RTVSPost2010PropOp44
 70
     1
102
RTVSPost2010Prop45
280
     0
102
RTVSPost2010PropOp45
 70
     1
102
RTVSPost2010Prop46
 90
       50
102
RTVSPost2010PropOp46
 70
     1
102
RTVSPost2010Prop47
 90
       50
102
RTVSPost2010PropOp47
 70
     1
102
RTVSPost2010Prop48
 90
       50
102
RTVSPost2010PropOp48
 70
     1
102
RTVSPost2010Prop49
280
     0
102
RTVSPost2010PropOp49
 70
     1
102
RTVSPost2010Prop50
 90
       50
102
RTVSPost2010PropOp50
 70
     1
102
RTVSPost2010Prop51ColorIndex
 90
      256
102
RTVSPost2010Prop51ColorRGB
 90
-16777216
102
RTVSPost2010PropOp51
 70
     0
102
RTVSPost2010Prop52
140
1.0
102
RTVSPost2010PropOp52
 70
     0
102
RTVSPost2010Prop53
 90
        2
102
RTVSPost2010PropOp53
 70
     1
102
RTVSPost2010Prop54
  1
strokes_ogs.tif
102
RTVSPost2010PropOp54
 70
     1
102
RTVSPost2010Prop55
280
     0
102
RTVSPost2010PropOp55
 70
     1
102
RTVSPost2010Prop56
140
1.0
102
RTVSPost2010PropOp56
 70
     1
102
RTVSPost2010Prop57
140
1.0
102
RTVSPost2010PropOp57
 70
     1
102
RTVSPropertyOp0
 70
     1
102
RTVSPropertyOp1
 70
     1
102
RTVSPropertyOp2
 70
     1
102
RTVSPropertyOp3
 70
     1
102
RTVSPropertyOp4
 70
     1
102
RTVSPropertyOp5
 70
     1
102
RTVSPropertyOp6
 70
     1
102
RTVSPropertyOp7
 70
     1
102
RTVSPropertyOp8
 70
     1
102
RTVSPropertyOp9
 70
     1
102
RTVSPropertyOp10
 70
     1
102
RTVSPropertyOp11
 70
     1
102
RTVSPropertyOp12
 70
     1
102
RTVSPropertyOp13
 70
     1
102
RTVSPropertyOp14
 70
     1
102
RTVSPropertyOp15
 70
     1
102
RTVSPropertyOp16
 70
     1
102
RTVSPropertyOp17
 70
     1
102
RTVSPropertyOp18
 70
     1
102
RTVSPropertyOp19
 70
     1
102
RTVSPropertyOp20
 70
     1
102
RTVSPropertyOp21
 70
     1
102
RTVSPropertyOp22
 70
     1
102
RTVSPropertyOp23
 70
     1
102
RTVSPropertyOp24
 70
     1
102
RTVSPropertyOp25
 70
     1
102
RTVSPropertyOp26
 70
     1
102
RTVSPropertyOp27
 70
     1
102
RTVSPropertyOp28
 70
     1
102
RTVSPropertyOp29
 70
     1
102
RTVSPropertyOp30
 70
     1
102
RTVSPropertyOp31
 70
     1
102
RTVSPropertyOp32
 70
     1
102
RTVSPropertyOp33
 70
     1
102
RTVSPropertyOp34
 70
     1
102
RTVSPropertyOp35
 70
     1
102
RTVSPropertyOp36
 70
     1
102
RTVSPropertyOp37
 70
     1
102
RTVSPropertyOp38
 70
     1
102
RTVSPropertyOp39
 70
     1
102
RTVSPropertyOp40
 70
     1
102
RTVSPropertyOp41
 70
     1
102
RTVSPropertyOp42
 70
     1
102
RTVSPropertyOp43
 70
     1
102
RTVSPropertyOp44
 70
     1
102
RTVSPropertyOp45
 70
     1
102
RTVSPropertyOp46
 70
     1
102
RTVSPropertyOp47
 70
     1
102
RTVSPropertyOp48
 70
     1
102
RTVSPropertyOp49
 70
     1
102
RTVSPropertyOp50
 70
     1
102
RTVSPropertyOp51
 70
     0
102
RTVSPropertyOp52
 70
     0
102
RTVSPropertyOp53
 70
     1
102
RTVSPropertyOp54
 70
     1
102
RTVSPropertyOp55
 70
     1
102
RTVSPropertyOp56
 70
     1
102
RTVSPropertyOp57
 70
     1
102
RTVSPropertyOp58
 70
     1
102
RTVSPropertyOp59
 70
     1
102
RTVSPropertyOp60
 70
     1
102
RTVSPropertyOp61
 70
     1
102
RTVSPropertyOp62
 70
     1
  0
XRECORD
  5
3BC
102
{ACAD_REACTORS
330
3BB
102
}
330
3BB
100
AcDbXrecord
280
     1
102
RTVSPost2010Prop28
280
     0
102
RTVSPost2010PropOp28
 70
     0
102
RTVSPost2010Prop29
280
     1
102
RTVSPost2010PropOp29
 70
     0
102
RTVSPost2010Prop30
280
     1
102
RTVSPost2010PropOp30
 70
     0
102
RTVSPost2010Prop31
280
     0
102
RTVSPost2010PropOp31
 70
     0
102
RTVSPost2010Prop32
280
     0
102
RTVSPost2010PropOp32
 70
     0
102
RTVSPost2010Prop33
280
     0
102
RTVSPost2010PropOp33
 70
     0
102
RTVSPost2010Prop34
280
     0
102
RTVSPost2010PropOp34
 70
     0
102
RTVSPost2010Prop35
280
     0
102
RTVSPost2010PropOp35
 70
     0
102
RTVSPost2010Prop36
280
     0
102
RTVSPost2010PropOp36
 70
     0
102
RTVSPost2010Prop37
 90
       50
102
RTVSPost2010PropOp37
 70
     0
102
RTVSPost2010Prop38
140
0.0
102
RTVSPost2010PropOp38
 70
     0
102
RTVSPost2010Prop39
140
1.0
102
RTVSPost2010PropOp39
 70
     0
102
RTVSPost2010Prop40
 90
        0
102
RTVSPost2010PropOp40
 70
     0
102
RTVSPost2010Prop41ColorIndex
 90
       18
102
RTVSPost2010Prop41ColorRGB
 90
        0
102
RTVSPost2010PropOp41
 70
     0
102
RTVSPost2010Prop42
 90
       50
102
RTVSPost2010PropOp42
 70
     0
102
RTVSPost2010Prop43
 90
        3
102
RTVSPost2010PropOp43
 70
     0
102
RTVSPost2010Prop44ColorIndex
 90
        5
102
RTVSPost2010Prop44ColorRGB
 90
      255
102
RTVSPost2010PropOp44
 70
     0
102
RTVSPost2010Prop45
280
     0
102
RTVSPost2010PropOp45
 70
     0
102
RTVSPost2010Prop46
 90
       50
102
RTVSPost2010PropOp46
 70
     0
102
RTVSPost2010Prop47
 90
       50
102
RTVSPost2010PropOp47
 70
     0
102
RTVSPost2010Prop48
 90
       50
102
RTVSPost2010PropOp48
 70
     0
102
RTVSPost2010Prop49
280
     0
102
RTVSPost2010PropOp49
 70
     0
102
RTVSPost2010Prop50
 90
       50
102
RTVSPost2010PropOp50
 70
     0
102
RTVSPost2010Prop51ColorIndex
 90
      256
102
RTVSPost2010Prop51ColorRGB
 90
-16777216
102
RTVSPost2010PropOp51
 70
     0
102
RTVSPost2010Prop52
140
1.0
102
RTVSPost2010PropOp52
 70
     0
102
RTVSPost2010Prop53
 90
        2
102
RTVSPost2010PropOp53
 70
     0
102
RTVSPost2010Prop54
  1
strokes_ogs.tif
102
RTVSPost2010PropOp54
 70
     0
102
RTVSPost2010Prop55
280
     0
102
RTVSPost2010PropOp55
 70
     0
102
RTVSPost2010Prop56
140
1.0
102
RTVSPost2010PropOp56
 70
     0
102
RTVSPost2010Prop57
140
1.0
102
RTVSPost2010PropOp57
 70
     0
102
RTVSPropertyOp0
 70
     0
102
RTVSPropertyOp1
 70
     0
102
RTVSPropertyOp2
 70
     0
102
RTVSPropertyOp3
 70
     0
102
RTVSPropertyOp4
 70
     0
102
RTVSPropertyOp5
 70
     0
102
RTVSPropertyOp6
 70
     0
102
RTVSPropertyOp7
 70
     0
102
RTVSPropertyOp8
 70
     0
102
RTVSPropertyOp9
 70
     0
102
RTVSPropertyOp10
 70
     0
102
RTVSPropertyOp11
 70
     0
102
RTVSPropertyOp12
 70
     0
102
RTVSPropertyOp13
 70
     0
102
RTVSPropertyOp14
 70
     2
102
RTVSPropertyOp15
 70
     0
102
RTVSPropertyOp16
 70
     0
102
RTVSPropertyOp17
 70
     0
102
RTVSPropertyOp18
 70
     0
102
RTVSPropertyOp19
 70
     0
102
RTVSPropertyOp20
 70
     0
102
RTVSPropertyOp21
 70
     0
102
RTVSPropertyOp22
 70
     0
102
RTVSPropertyOp23
 70
     0
102
RTVSPropertyOp24
 70
     0
102
RTVSPropertyOp25
 70
     0
102
RTVSPropertyOp26
 70
     0
102
RTVSPropertyOp27
 70
     0
102
RTVSPropertyOp28
 70
     0
102
RTVSPropertyOp29
 70
     0
102
RTVSPropertyOp30
 70
     0
102
RTVSPropertyOp31
 70
     0
102
RTVSPropertyOp32
 70
     0
102
RTVSPropertyOp33
 70
     0
102
RTVSPropertyOp34
 70
     0
102
RTVSPropertyOp35
 70
     0
102
RTVSPropertyOp36
 70
     0
102
RTVSPropertyOp37
 70
     0
102
RTVSPropertyOp38
 70
     0
102
RTVSPropertyOp39
 70
     0
102
RTVSPropertyOp40
 70
     0
102
RTVSPropertyOp41
 70
     0
102
RTVSPropertyOp42
 70
     0
102
RTVSPropertyOp43
 70
     0
102
RTVSPropertyOp44
 70
     0
102
RTVSPropertyOp45
 70
     0
102
RTVSPropertyOp46
 70
     0
102
RTVSPropertyOp47
 70
     0
102
RTVSPropertyOp48
 70
     0
102
RTVSPropertyOp49
 70
     0
102
RTVSPropertyOp50
 70
     0
102
RTVSPropertyOp51
 70
     0
102
RTVSPropertyOp52
 70
     0
102
RTVSPropertyOp53
 70
     0
102
RTVSPropertyOp54
 70
     0
102
RTVSPropertyOp55
 70
     0
102
RTVSPropertyOp56
 70
     0
102
RTVSPropertyOp57
 70
     0
102
RTVSPropertyOp58
 70
     1
102
RTVSPropertyOp59
 70
     1
102
RTVSPropertyOp60
 70
     1
102
RTVSPropertyOp61
 70
     1
102
RTVSPropertyOp62
 70
     1
  0
XRECORD
  5
3B6
102
{ACAD_REACTORS
330
3B5
102
}
330
3B5
100
AcDbXrecord
280
     1
102
RTVSPost2010Prop28
280
     0
102
RTVSPost2010PropOp28
 70
     1
102
RTVSPost2010Prop29
280
     1
102
RTVSPost2010PropOp29
 70
     1
102
RTVSPost2010Prop30
280
     1
102
RTVSPost2010PropOp30
 70
     1
102
RTVSPost2010Prop31
280
     0
102
RTVSPost2010PropOp31
 70
     1
102
RTVSPost2010Prop32
280
     0
102
RTVSPost2010PropOp32
 70
     1
102
RTVSPost2010Prop33
280
     0
102
RTVSPost2010PropOp33
 70
     1
102
RTVSPost2010Prop34
280
     0
102
RTVSPost2010PropOp34
 70
     1
102
RTVSPost2010Prop35
280
     0
102
RTVSPost2010PropOp35
 70
     1
102
RTVSPost2010Prop36
280
     0
102
RTVSPost2010PropOp36
 70
     1
102
RTVSPost2010Prop37
 90
       50
102
RTVSPost2010PropOp37
 70
     1
102
RTVSPost2010Prop38
140
0.0
102
RTVSPost2010PropOp38
 70
     1
102
RTVSPost2010Prop39
140
1.0
102
RTVSPost2010PropOp39
 70
     1
102
RTVSPost2010Prop40
 90
        0
102
RTVSPost2010PropOp40
 70
     1
102
RTVSPost2010Prop41ColorIndex
 90
       18
102
RTVSPost2010Prop41ColorRGB
 90
        0
102
RTVSPost2010PropOp41
 70
     1
102
RTVSPost2010Prop42
 90
       50
102
RTVSPost2010PropOp42
 70
     1
102
RTVSPost2010Prop43
 90
        3
102
RTVSPost2010PropOp43
 70
     1
102
RTVSPost2010Prop44ColorIndex
 90
        5
102
RTVSPost2010Prop44ColorRGB
 90
      255
102
RTVSPost2010PropOp44
 70
     1
102
RTVSPost2010Prop45
280
     0
102
RTVSPost2010PropOp45
 70
     1
102
RTVSPost2010Prop46
 90
       50
102
RTVSPost2010PropOp46
 70
     1
102
RTVSPost2010Prop47
 90
       50
102
RTVSPost2010PropOp47
 70
     1
102
RTVSPost2010Prop48
 90
       50
102
RTVSPost2010PropOp48
 70
     1
102
RTVSPost2010Prop49
280
     0
102
RTVSPost2010PropOp49
 70
     1
102
RTVSPost2010Prop50
 90
       50
102
RTVSPost2010PropOp50
 70
     1
102
RTVSPost2010Prop51ColorIndex
 90
      256
102
RTVSPost2010Prop51ColorRGB
 90
-16777216
102
RTVSPost2010PropOp51
 70
     0
102
RTVSPost2010Prop52
140
1.0
102
RTVSPost2010PropOp52
 70
     0
102
RTVSPost2010Prop53
 90
        2
102
RTVSPost2010PropOp53
 70
     1
102
RTVSPost2010Prop54
  1
strokes_ogs.tif
102
RTVSPost2010PropOp54
 70
     1
102
RTVSPost2010Prop55
280
     0
102
RTVSPost2010PropOp55
 70
     1
102
RTVSPost2010Prop56
140
1.0
102
RTVSPost2010PropOp56
 70
     1
102
RTVSPost2010Prop57
140
1.0
102
RTVSPost2010PropOp57
 70
     1
102
RTVSPropertyOp0
 70
     1
102
RTVSPropertyOp1
 70
     1
102
RTVSPropertyOp2
 70
     1
102
RTVSPropertyOp3
 70
     1
102
RTVSPropertyOp4
 70
     1
102
RTVSPropertyOp5
 70
     1
102
RTVSPropertyOp6
 70
     1
102
RTVSPropertyOp7
 70
     1
102
RTVSPropertyOp8
 70
     1
102
RTVSPropertyOp9
 70
     1
102
RTVSPropertyOp10
 70
     1
102
RTVSPropertyOp11
 70
     1
102
RTVSPropertyOp12
 70
     1
102
RTVSPropertyOp13
 70
     1
102
RTVSPropertyOp14
 70
     1
102
RTVSPropertyOp15
 70
     1
102
RTVSPropertyOp16
 70
     1
102
RTVSPropertyOp17
 70
     1
102
RTVSPropertyOp18
 70
     1
102
RTVSPropertyOp19
 70
     1
102
RTVSPropertyOp20
 70
     1
102
RTVSPropertyOp21
 70
     1
102
RTVSPropertyOp22
 70
     1
102
RTVSPropertyOp23
 70
     1
102
RTVSPropertyOp24
 70
     1
102
RTVSPropertyOp25
 70
     1
102
RTVSPropertyOp26
 70
     1
102
RTVSPropertyOp27
 70
     1
102
RTVSPropertyOp28
 70
     1
102
RTVSPropertyOp29
 70
     1
102
RTVSPropertyOp30
 70
     1
102
RTVSPropertyOp31
 70
     1
102
RTVSPropertyOp32
 70
     1
102
RTVSPropertyOp33
 70
     1
102
RTVSPropertyOp34
 70
     1
102
RTVSPropertyOp35
 70
     1
102
RTVSPropertyOp36
 70
     1
102
RTVSPropertyOp37
 70
     1
102
RTVSPropertyOp38
 70
     1
102
RTVSPropertyOp39
 70
     1
102
RTVSPropertyOp40
 70
     1
102
RTVSPropertyOp41
 70
     1
102
RTVSPropertyOp42
 70
     1
102
RTVSPropertyOp43
 70
     1
102
RTVSPropertyOp44
 70
     1
102
RTVSPropertyOp45
 70
     1
102
RTVSPropertyOp46
 70
     1
102
RTVSPropertyOp47
 70
     1
102
RTVSPropertyOp48
 70
     1
102
RTVSPropertyOp49
 70
     1
102
RTVSPropertyOp50
 70
     1
102
RTVSPropertyOp51
 70
     0
102
RTVSPropertyOp52
 70
     0
102
RTVSPropertyOp53
 70
     1
102
RTVSPropertyOp54
 70
     1
102
RTVSPropertyOp55
 70
     1
102
RTVSPropertyOp56
 70
     1
102
RTVSPropertyOp57
 70
     1
102
RTVSPropertyOp58
 70
     1
102
RTVSPropertyOp59
 70
     1
102
RTVSPropertyOp60
 70
     1
102
RTVSPropertyOp61
 70
     1
102
RTVSPropertyOp62
 70
     1
  0
XRECORD
  5
3BE
102
{ACAD_REACTORS
330
3BD
102
}
330
3BD
100
AcDbXrecord
280
     1
102
RTVSPost2010Prop28
280
     0
102
RTVSPost2010PropOp28
 70
     0
102
RTVSPost2010Prop29
280
     1
102
RTVSPost2010PropOp29
 70
     0
102
RTVSPost2010Prop30
280
     1
102
RTVSPost2010PropOp30
 70
     0
102
RTVSPost2010Prop31
280
     0
102
RTVSPost2010PropOp31
 70
     0
102
RTVSPost2010Prop32
280
     0
102
RTVSPost2010PropOp32
 70
     0
102
RTVSPost2010Prop33
280
     0
102
RTVSPost2010PropOp33
 70
     0
102
RTVSPost2010Prop34
280
     0
102
RTVSPost2010PropOp34
 70
     0
102
RTVSPost2010Prop35
280
     0
102
RTVSPost2010PropOp35
 70
     0
102
RTVSPost2010Prop36
280
     0
102
RTVSPost2010PropOp36
 70
     0
102
RTVSPost2010Prop37
 90
       50
102
RTVSPost2010PropOp37
 70
     0
102
RTVSPost2010Prop38
140
0.0
102
RTVSPost2010PropOp38
 70
     0
102
RTVSPost2010Prop39
140
1.0
102
RTVSPost2010PropOp39
 70
     0
102
RTVSPost2010Prop40
 90
        0
102
RTVSPost2010PropOp40
 70
     0
102
RTVSPost2010Prop41ColorIndex
 90
       18
102
RTVSPost2010Prop41ColorRGB
 90
        0
102
RTVSPost2010PropOp41
 70
     0
102
RTVSPost2010Prop42
 90
       50
102
RTVSPost2010PropOp42
 70
     0
102
RTVSPost2010Prop43
 90
        3
102
RTVSPost2010PropOp43
 70
     0
102
RTVSPost2010Prop44ColorIndex
 90
        5
102
RTVSPost2010Prop44ColorRGB
 90
      255
102
RTVSPost2010PropOp44
 70
     0
102
RTVSPost2010Prop45
280
     0
102
RTVSPost2010PropOp45
 70
     0
102
RTVSPost2010Prop46
 90
       50
102
RTVSPost2010PropOp46
 70
     0
102
RTVSPost2010Prop47
 90
       50
102
RTVSPost2010PropOp47
 70
     0
102
RTVSPost2010Prop48
 90
       50
102
RTVSPost2010PropOp48
 70
     0
102
RTVSPost2010Prop49
280
     0
102
RTVSPost2010PropOp49
 70
     0
102
RTVSPost2010Prop50
 90
       50
102
RTVSPost2010PropOp50
 70
     0
102
RTVSPost2010Prop51ColorIndex
 90
      256
102
RTVSPost2010Prop51ColorRGB
 90
-16777216
102
RTVSPost2010PropOp51
 70
     0
102
RTVSPost2010Prop52
140
1.0
102
RTVSPost2010PropOp52
 70
     0
102
RTVSPost2010Prop53
 90
        2
102
RTVSPost2010PropOp53
 70
     0
102
RTVSPost2010Prop54
  1
strokes_ogs.tif
102
RTVSPost2010PropOp54
 70
     0
102
RTVSPost2010Prop55
280
     0
102
RTVSPost2010PropOp55
 70
     0
102
RTVSPost2010Prop56
140
1.0
102
RTVSPost2010PropOp56
 70
     0
102
RTVSPost2010Prop57
140
1.0
102
RTVSPost2010PropOp57
 70
     0
102
RTVSPropertyOp0
 70
     0
102
RTVSPropertyOp1
 70
     0
102
RTVSPropertyOp2
 70
     0
102
RTVSPropertyOp3
 70
     0
102
RTVSPropertyOp4
 70
     0
102
RTVSPropertyOp5
 70
     0
102
RTVSPropertyOp6
 70
     0
102
RTVSPropertyOp7
 70
     0
102
RTVSPropertyOp8
 70
     0
102
RTVSPropertyOp9
 70
     0
102
RTVSPropertyOp10
 70
     0
102
RTVSPropertyOp11
 70
     0
102
RTVSPropertyOp12
 70
     0
102
RTVSPropertyOp13
 70
     0
102
RTVSPropertyOp14
 70
     2
102
RTVSPropertyOp15
 70
     0
102
RTVSPropertyOp16
 70
     0
102
RTVSPropertyOp17
 70
     0
102
RTVSPropertyOp18
 70
     0
102
RTVSPropertyOp19
 70
     0
102
RTVSPropertyOp20
 70
     0
102
RTVSPropertyOp21
 70
     0
102
RTVSPropertyOp22
 70
     0
102
RTVSPropertyOp23
 70
     0
102
RTVSPropertyOp24
 70
     0
102
RTVSPropertyOp25
 70
     0
102
RTVSPropertyOp26
 70
     0
102
RTVSPropertyOp27
 70
     0
102
RTVSPropertyOp28
 70
     0
102
RTVSPropertyOp29
 70
     0
102
RTVSPropertyOp30
 70
     0
102
RTVSPropertyOp31
 70
     0
102
RTVSPropertyOp32
 70
     0
102
RTVSPropertyOp33
 70
     0
102
RTVSPropertyOp34
 70
     0
102
RTVSPropertyOp35
 70
     0
102
RTVSPropertyOp36
 70
     0
102
RTVSPropertyOp37
 70
     0
102
RTVSPropertyOp38
 70
     0
102
RTVSPropertyOp39
 70
     0
102
RTVSPropertyOp40
 70
     0
102
RTVSPropertyOp41
 70
     0
102
RTVSPropertyOp42
 70
     0
102
RTVSPropertyOp43
 70
     0
102
RTVSPropertyOp44
 70
     0
102
RTVSPropertyOp45
 70
     0
102
RTVSPropertyOp46
 70
     0
102
RTVSPropertyOp47
 70
     0
102
RTVSPropertyOp48
 70
     0
102
RTVSPropertyOp49
 70
     0
102
RTVSPropertyOp50
 70
     0
102
RTVSPropertyOp51
 70
     0
102
RTVSPropertyOp52
 70
     0
102
RTVSPropertyOp53
 70
     0
102
RTVSPropertyOp54
 70
     0
102
RTVSPropertyOp55
 70
     0
102
RTVSPropertyOp56
 70
     0
102
RTVSPropertyOp57
 70
     0
102
RTVSPropertyOp58
 70
     1
102
RTVSPropertyOp59
 70
     1
102
RTVSPropertyOp60
 70
     1
102
RTVSPropertyOp61
 70
     1
102
RTVSPropertyOp62
 70
     1
  0
XRECORD
  5
3AC
102
{ACAD_REACTORS
330
3AB
102
}
330
3AB
100
AcDbXrecord
280
     1
102
RTVSPost2010Prop28
280
     0
102
RTVSPost2010PropOp28
 70
     1
102
RTVSPost2010Prop29
280
     1
102
RTVSPost2010PropOp29
 70
     1
102
RTVSPost2010Prop30
280
     1
102
RTVSPost2010PropOp30
 70
     1
102
RTVSPost2010Prop31
280
     0
102
RTVSPost2010PropOp31
 70
     1
102
RTVSPost2010Prop32
280
     0
102
RTVSPost2010PropOp32
 70
     1
102
RTVSPost2010Prop33
280
     0
102
RTVSPost2010PropOp33
 70
     1
102
RTVSPost2010Prop34
280
     0
102
RTVSPost2010PropOp34
 70
     1
102
RTVSPost2010Prop35
280
     0
102
RTVSPost2010PropOp35
 70
     1
102
RTVSPost2010Prop36
280
     0
102
RTVSPost2010PropOp36
 70
     1
102
RTVSPost2010Prop37
 90
       50
102
RTVSPost2010PropOp37
 70
     1
102
RTVSPost2010Prop38
140
0.0
102
RTVSPost2010PropOp38
 70
     1
102
RTVSPost2010Prop39
140
1.0
102
RTVSPost2010PropOp39
 70
     1
102
RTVSPost2010Prop40
 90
        0
102
RTVSPost2010PropOp40
 70
     1
102
RTVSPost2010Prop41ColorIndex
 90
       18
102
RTVSPost2010Prop41ColorRGB
 90
        0
102
RTVSPost2010PropOp41
 70
     1
102
RTVSPost2010Prop42
 90
       50
102
RTVSPost2010PropOp42
 70
     1
102
RTVSPost2010Prop43
 90
        3
102
RTVSPost2010PropOp43
 70
     1
102
RTVSPost2010Prop44ColorIndex
 90
        5
102
RTVSPost2010Prop44ColorRGB
 90
      255
102
RTVSPost2010PropOp44
 70
     1
102
RTVSPost2010Prop45
280
     0
102
RTVSPost2010PropOp45
 70
     1
102
RTVSPost2010Prop46
 90
       50
102
RTVSPost2010PropOp46
 70
     1
102
RTVSPost2010Prop47
 90
       50
102
RTVSPost2010PropOp47
 70
     1
102
RTVSPost2010Prop48
 90
       50
102
RTVSPost2010PropOp48
 70
     1
102
RTVSPost2010Prop49
280
     0
102
RTVSPost2010PropOp49
 70
     1
102
RTVSPost2010Prop50
 90
       50
102
RTVSPost2010PropOp50
 70
     1
102
RTVSPost2010Prop51ColorIndex
 90
      256
102
RTVSPost2010Prop51ColorRGB
 90
-16777216
102
RTVSPost2010PropOp51
 70
     0
102
RTVSPost2010Prop52
140
1.0
102
RTVSPost2010PropOp52
 70
     0
102
RTVSPost2010Prop53
 90
        2
102
RTVSPost2010PropOp53
 70
     1
102
RTVSPost2010Prop54
  1
strokes_ogs.tif
102
RTVSPost2010PropOp54
 70
     1
102
RTVSPost2010Prop55
280
     0
102
RTVSPost2010PropOp55
 70
     1
102
RTVSPost2010Prop56
140
1.0
102
RTVSPost2010PropOp56
 70
     1
102
RTVSPost2010Prop57
140
1.0
102
RTVSPost2010PropOp57
 70
     1
102
RTVSPropertyOp0
 70
     1
102
RTVSPropertyOp1
 70
     1
102
RTVSPropertyOp2
 70
     1
102
RTVSPropertyOp3
 70
     1
102
RTVSPropertyOp4
 70
     1
102
RTVSPropertyOp5
 70
     1
102
RTVSPropertyOp6
 70
     1
102
RTVSPropertyOp7
 70
     1
102
RTVSPropertyOp8
 70
     1
102
RTVSPropertyOp9
 70
     1
102
RTVSPropertyOp10
 70
     1
102
RTVSPropertyOp11
 70
     1
102
RTVSPropertyOp12
 70
     1
102
RTVSPropertyOp13
 70
     1
102
RTVSPropertyOp14
 70
     1
102
RTVSPropertyOp15
 70
     1
102
RTVSPropertyOp16
 70
     1
102
RTVSPropertyOp17
 70
     1
102
RTVSPropertyOp18
 70
     1
102
RTVSPropertyOp19
 70
     1
102
RTVSPropertyOp20
 70
     1
102
RTVSPropertyOp21
 70
     1
102
RTVSPropertyOp22
 70
     1
102
RTVSPropertyOp23
 70
     1
102
RTVSPropertyOp24
 70
     1
102
RTVSPropertyOp25
 70
     1
102
RTVSPropertyOp26
 70
     1
102
RTVSPropertyOp27
 70
     1
102
RTVSPropertyOp28
 70
     1
102
RTVSPropertyOp29
 70
     1
102
RTVSPropertyOp30
 70
     1
102
RTVSPropertyOp31
 70
     1
102
RTVSPropertyOp32
 70
     1
102
RTVSPropertyOp33
 70
     1
102
RTVSPropertyOp34
 70
     1
102
RTVSPropertyOp35
 70
     1
102
RTVSPropertyOp36
 70
     1
102
RTVSPropertyOp37
 70
     1
102
RTVSPropertyOp38
 70
     1
102
RTVSPropertyOp39
 70
     1
102
RTVSPropertyOp40
 70
     1
102
RTVSPropertyOp41
 70
     1
102
RTVSPropertyOp42
 70
     1
102
RTVSPropertyOp43
 70
     1
102
RTVSPropertyOp44
 70
     1
102
RTVSPropertyOp45
 70
     1
102
RTVSPropertyOp46
 70
     1
102
RTVSPropertyOp47
 70
     1
102
RTVSPropertyOp48
 70
     1
102
RTVSPropertyOp49
 70
     1
102
RTVSPropertyOp50
 70
     1
102
RTVSPropertyOp51
 70
     0
102
RTVSPropertyOp52
 70
     0
102
RTVSPropertyOp53
 70
     1
102
RTVSPropertyOp54
 70
     1
102
RTVSPropertyOp55
 70
     1
102
RTVSPropertyOp56
 70
     1
102
RTVSPropertyOp57
 70
     1
102
RTVSPropertyOp58
 70
     1
102
RTVSPropertyOp59
 70
     1
102
RTVSPropertyOp60
 70
     1
102
RTVSPropertyOp61
 70
     1
102
RTVSPropertyOp62
 70
     1
  0
XRECORD
  5
3CA
102
{ACAD_REACTORS
330
3C9
102
}
330
3C9
100
AcDbXrecord
280
     1
102
RTVSPost2010Prop28
280
     0
102
RTVSPost2010PropOp28
 70
     1
102
RTVSPost2010Prop29
280
     1
102
RTVSPost2010PropOp29
 70
     1
102
RTVSPost2010Prop30
280
     1
102
RTVSPost2010PropOp30
 70
     1
102
RTVSPost2010Prop31
280
     0
102
RTVSPost2010PropOp31
 70
     1
102
RTVSPost2010Prop32
280
     0
102
RTVSPost2010PropOp32
 70
     1
102
RTVSPost2010Prop33
280
     0
102
RTVSPost2010PropOp33
 70
     1
102
RTVSPost2010Prop34
280
     0
102
RTVSPost2010PropOp34
 70
     1
102
RTVSPost2010Prop35
280
     0
102
RTVSPost2010PropOp35
 70
     1
102
RTVSPost2010Prop36
280
     0
102
RTVSPost2010PropOp36
 70
     1
102
RTVSPost2010Prop37
 90
       50
102
RTVSPost2010PropOp37
 70
     1
102
RTVSPost2010Prop38
140
0.0
102
RTVSPost2010PropOp38
 70
     1
102
RTVSPost2010Prop39
140
1.0
102
RTVSPost2010PropOp39
 70
     1
102
RTVSPost2010Prop40
 90
        0
102
RTVSPost2010PropOp40
 70
     1
102
RTVSPost2010Prop41ColorIndex
 90
       18
102
RTVSPost2010Prop41ColorRGB
 90
        0
102
RTVSPost2010PropOp41
 70
     1
102
RTVSPost2010Prop42
 90
       50
102
RTVSPost2010PropOp42
 70
     1
102
RTVSPost2010Prop43
 90
        3
102
RTVSPost2010PropOp43
 70
     1
102
RTVSPost2010Prop44ColorIndex
 90
        5
102
RTVSPost2010Prop44ColorRGB
 90
      255
102
RTVSPost2010PropOp44
 70
     1
102
RTVSPost2010Prop45
280
     0
102
RTVSPost2010PropOp45
 70
     1
102
RTVSPost2010Prop46
 90
       50
102
RTVSPost2010PropOp46
 70
     1
102
RTVSPost2010Prop47
 90
       50
102
RTVSPost2010PropOp47
 70
     1
102
RTVSPost2010Prop48
 90
       50
102
RTVSPost2010PropOp48
 70
     1
102
RTVSPost2010Prop49
280
     0
102
RTVSPost2010PropOp49
 70
     1
102
RTVSPost2010Prop50
 90
       50
102
RTVSPost2010PropOp50
 70
     1
102
RTVSPost2010Prop51ColorIndex
 90
      256
102
RTVSPost2010Prop51ColorRGB
 90
-16777216
102
RTVSPost2010PropOp51
 70
     0
102
RTVSPost2010Prop52
140
1.0
102
RTVSPost2010PropOp52
 70
     0
102
RTVSPost2010Prop53
 90
        2
102
RTVSPost2010PropOp53
 70
     1
102
RTVSPost2010Prop54
  1
strokes_ogs.tif
102
RTVSPost2010PropOp54
 70
     1
102
RTVSPost2010Prop55
280
     0
102
RTVSPost2010PropOp55
 70
     1
102
RTVSPost2010Prop56
140
1.0
102
RTVSPost2010PropOp56
 70
     1
102
RTVSPost2010Prop57
140
1.0
102
RTVSPost2010PropOp57
 70
     1
102
RTVSPropertyOp0
 70
     1
102
RTVSPropertyOp1
 70
     1
102
RTVSPropertyOp2
 70
     1
102
RTVSPropertyOp3
 70
     1
102
RTVSPropertyOp4
 70
     1
102
RTVSPropertyOp5
 70
     1
102
RTVSPropertyOp6
 70
     1
102
RTVSPropertyOp7
 70
     1
102
RTVSPropertyOp8
 70
     1
102
RTVSPropertyOp9
 70
     1
102
RTVSPropertyOp10
 70
     1
102
RTVSPropertyOp11
 70
     1
102
RTVSPropertyOp12
 70
     1
102
RTVSPropertyOp13
 70
     1
102
RTVSPropertyOp14
 70
     1
102
RTVSPropertyOp15
 70
     1
102
RTVSPropertyOp16
 70
     1
102
RTVSPropertyOp17
 70
     1
102
RTVSPropertyOp18
 70
     1
102
RTVSPropertyOp19
 70
     1
102
RTVSPropertyOp20
 70
     1
102
RTVSPropertyOp21
 70
     1
102
RTVSPropertyOp22
 70
     1
102
RTVSPropertyOp23
 70
     1
102
RTVSPropertyOp24
 70
     1
102
RTVSPropertyOp25
 70
     1
102
RTVSPropertyOp26
 70
     1
102
RTVSPropertyOp27
 70
     1
102
RTVSPropertyOp28
 70
     1
102
RTVSPropertyOp29
 70
     1
102
RTVSPropertyOp30
 70
     1
102
RTVSPropertyOp31
 70
     1
102
RTVSPropertyOp32
 70
     1
102
RTVSPropertyOp33
 70
     1
102
RTVSPropertyOp34
 70
     1
102
RTVSPropertyOp35
 70
     1
102
RTVSPropertyOp36
 70
     1
102
RTVSPropertyOp37
 70
     1
102
RTVSPropertyOp38
 70
     1
102
RTVSPropertyOp39
 70
     1
102
RTVSPropertyOp40
 70
     1
102
RTVSPropertyOp41
 70
     1
102
RTVSPropertyOp42
 70
     1
102
RTVSPropertyOp43
 70
     1
102
RTVSPropertyOp44
 70
     1
102
RTVSPropertyOp45
 70
     1
102
RTVSPropertyOp46
 70
     1
102
RTVSPropertyOp47
 70
     1
102
RTVSPropertyOp48
 70
     1
102
RTVSPropertyOp49
 70
     1
102
RTVSPropertyOp50
 70
     1
102
RTVSPropertyOp51
 70
     0
102
RTVSPropertyOp52
 70
     0
102
RTVSPropertyOp53
 70
     1
102
RTVSPropertyOp54
 70
     1
102
RTVSPropertyOp55
 70
     1
102
RTVSPropertyOp56
 70
     1
102
RTVSPropertyOp57
 70
     1
102
RTVSPropertyOp58
 70
     1
102
RTVSPropertyOp59
 70
     1
102
RTVSPropertyOp60
 70
     1
102
RTVSPropertyOp61
 70
     1
102
RTVSPropertyOp62
 70
     1
  0
XRECORD
  5
3C8
102
{ACAD_REACTORS
330
3C7
102
}
330
3C7
100
AcDbXrecord
280
     1
102
RTVSPost2010Prop28
280
     0
102
RTVSPost2010PropOp28
 70
     1
102
RTVSPost2010Prop29
280
     1
102
RTVSPost2010PropOp29
 70
     1
102
RTVSPost2010Prop30
280
     1
102
RTVSPost2010PropOp30
 70
     1
102
RTVSPost2010Prop31
280
     0
102
RTVSPost2010PropOp31
 70
     1
102
RTVSPost2010Prop32
280
     0
102
RTVSPost2010PropOp32
 70
     1
102
RTVSPost2010Prop33
280
     0
102
RTVSPost2010PropOp33
 70
     1
102
RTVSPost2010Prop34
280
     0
102
RTVSPost2010PropOp34
 70
     1
102
RTVSPost2010Prop35
280
     0
102
RTVSPost2010PropOp35
 70
     1
102
RTVSPost2010Prop36
280
     0
102
RTVSPost2010PropOp36
 70
     1
102
RTVSPost2010Prop37
 90
       50
102
RTVSPost2010PropOp37
 70
     1
102
RTVSPost2010Prop38
140
0.0
102
RTVSPost2010PropOp38
 70
     1
102
RTVSPost2010Prop39
140
1.0
102
RTVSPost2010PropOp39
 70
     1
102
RTVSPost2010Prop40
 90
        0
102
RTVSPost2010PropOp40
 70
     1
102
RTVSPost2010Prop41ColorIndex
 90
       18
102
RTVSPost2010Prop41ColorRGB
 90
        0
102
RTVSPost2010PropOp41
 70
     1
102
RTVSPost2010Prop42
 90
       50
102
RTVSPost2010PropOp42
 70
     1
102
RTVSPost2010Prop43
 90
        3
102
RTVSPost2010PropOp43
 70
     1
102
RTVSPost2010Prop44ColorIndex
 90
        5
102
RTVSPost2010Prop44ColorRGB
 90
      255
102
RTVSPost2010PropOp44
 70
     1
102
RTVSPost2010Prop45
280
     0
102
RTVSPost2010PropOp45
 70
     1
102
RTVSPost2010Prop46
 90
       50
102
RTVSPost2010PropOp46
 70
     1
102
RTVSPost2010Prop47
 90
       50
102
RTVSPost2010PropOp47
 70
     1
102
RTVSPost2010Prop48
 90
       50
102
RTVSPost2010PropOp48
 70
     1
102
RTVSPost2010Prop49
280
     0
102
RTVSPost2010PropOp49
 70
     1
102
RTVSPost2010Prop50
 90
       50
102
RTVSPost2010PropOp50
 70
     1
102
RTVSPost2010Prop51ColorIndex
 90
      256
102
RTVSPost2010Prop51ColorRGB
 90
-16777216
102
RTVSPost2010PropOp51
 70
     0
102
RTVSPost2010Prop52
140
1.0
102
RTVSPost2010PropOp52
 70
     0
102
RTVSPost2010Prop53
 90
        2
102
RTVSPost2010PropOp53
 70
     1
102
RTVSPost2010Prop54
  1
strokes_ogs.tif
102
RTVSPost2010PropOp54
 70
     1
102
RTVSPost2010Prop55
280
     0
102
RTVSPost2010PropOp55
 70
     1
102
RTVSPost2010Prop56
140
1.0
102
RTVSPost2010PropOp56
 70
     1
102
RTVSPost2010Prop57
140
1.0
102
RTVSPost2010PropOp57
 70
     1
102
RTVSPropertyOp0
 70
     1
102
RTVSPropertyOp1
 70
     1
102
RTVSPropertyOp2
 70
     1
102
RTVSPropertyOp3
 70
     1
102
RTVSPropertyOp4
 70
     1
102
RTVSPropertyOp5
 70
     1
102
RTVSPropertyOp6
 70
     1
102
RTVSPropertyOp7
 70
     1
102
RTVSPropertyOp8
 70
     1
102
RTVSPropertyOp9
 70
     1
102
RTVSPropertyOp10
 70
     1
102
RTVSPropertyOp11
 70
     1
102
RTVSPropertyOp12
 70
     1
102
RTVSPropertyOp13
 70
     1
102
RTVSPropertyOp14
 70
     1
102
RTVSPropertyOp15
 70
     1
102
RTVSPropertyOp16
 70
     1
102
RTVSPropertyOp17
 70
     1
102
RTVSPropertyOp18
 70
     1
102
RTVSPropertyOp19
 70
     1
102
RTVSPropertyOp20
 70
     1
102
RTVSPropertyOp21
 70
     1
102
RTVSPropertyOp22
 70
     1
102
RTVSPropertyOp23
 70
     1
102
RTVSPropertyOp24
 70
     1
102
RTVSPropertyOp25
 70
     1
102
RTVSPropertyOp26
 70
     1
102
RTVSPropertyOp27
 70
     1
102
RTVSPropertyOp28
 70
     1
102
RTVSPropertyOp29
 70
     1
102
RTVSPropertyOp30
 70
     1
102
RTVSPropertyOp31
 70
     1
102
RTVSPropertyOp32
 70
     1
102
RTVSPropertyOp33
 70
     1
102
RTVSPropertyOp34
 70
     1
102
RTVSPropertyOp35
 70
     1
102
RTVSPropertyOp36
 70
     1
102
RTVSPropertyOp37
 70
     1
102
RTVSPropertyOp38
 70
     1
102
RTVSPropertyOp39
 70
     1
102
RTVSPropertyOp40
 70
     1
102
RTVSPropertyOp41
 70
     1
102
RTVSPropertyOp42
 70
     1
102
RTVSPropertyOp43
 70
     1
102
RTVSPropertyOp44
 70
     1
102
RTVSPropertyOp45
 70
     1
102
RTVSPropertyOp46
 70
     1
102
RTVSPropertyOp47
 70
     1
102
RTVSPropertyOp48
 70
     1
102
RTVSPropertyOp49
 70
     1
102
RTVSPropertyOp50
 70
     1
102
RTVSPropertyOp51
 70
     0
102
RTVSPropertyOp52
 70
     0
102
RTVSPropertyOp53
 70
     1
102
RTVSPropertyOp54
 70
     1
102
RTVSPropertyOp55
 70
     1
102
RTVSPropertyOp56
 70
     1
102
RTVSPropertyOp57
 70
     1
102
RTVSPropertyOp58
 70
     1
102
RTVSPropertyOp59
 70
     1
102
RTVSPropertyOp60
 70
     1
102
RTVSPropertyOp61
 70
     1
102
RTVSPropertyOp62
 70
     1
  0
XRECORD
  5
3C2
102
{ACAD_REACTORS
330
3C1
102
}
330
3C1
100
AcDbXrecord
280
     1
102
RTVSPost2010Prop28
280
     0
102
RTVSPost2010PropOp28
 70
     1
102
RTVSPost2010Prop29
280
     1
102
RTVSPost2010PropOp29
 70
     1
102
RTVSPost2010Prop30
280
     1
102
RTVSPost2010PropOp30
 70
     1
102
RTVSPost2010Prop31
280
     0
102
RTVSPost2010PropOp31
 70
     1
102
RTVSPost2010Prop32
280
     0
102
RTVSPost2010PropOp32
 70
     1
102
RTVSPost2010Prop33
280
     0
102
RTVSPost2010PropOp33
 70
     1
102
RTVSPost2010Prop34
280
     0
102
RTVSPost2010PropOp34
 70
     1
102
RTVSPost2010Prop35
280
     0
102
RTVSPost2010PropOp35
 70
     1
102
RTVSPost2010Prop36
280
     0
102
RTVSPost2010PropOp36
 70
     1
102
RTVSPost2010Prop37
 90
       50
102
RTVSPost2010PropOp37
 70
     1
102
RTVSPost2010Prop38
140
0.0
102
RTVSPost2010PropOp38
 70
     1
102
RTVSPost2010Prop39
140
1.0
102
RTVSPost2010PropOp39
 70
     1
102
RTVSPost2010Prop40
 90
        0
102
RTVSPost2010PropOp40
 70
     1
102
RTVSPost2010Prop41ColorIndex
 90
       18
102
RTVSPost2010Prop41ColorRGB
 90
        0
102
RTVSPost2010PropOp41
 70
     1
102
RTVSPost2010Prop42
 90
       50
102
RTVSPost2010PropOp42
 70
     1
102
RTVSPost2010Prop43
 90
        3
102
RTVSPost2010PropOp43
 70
     1
102
RTVSPost2010Prop44ColorIndex
 90
        5
102
RTVSPost2010Prop44ColorRGB
 90
      255
102
RTVSPost2010PropOp44
 70
     1
102
RTVSPost2010Prop45
280
     0
102
RTVSPost2010PropOp45
 70
     1
102
RTVSPost2010Prop46
 90
       50
102
RTVSPost2010PropOp46
 70
     1
102
RTVSPost2010Prop47
 90
       50
102
RTVSPost2010PropOp47
 70
     1
102
RTVSPost2010Prop48
 90
       50
102
RTVSPost2010PropOp48
 70
     1
102
RTVSPost2010Prop49
280
     0
102
RTVSPost2010PropOp49
 70
     1
102
RTVSPost2010Prop50
 90
       50
102
RTVSPost2010PropOp50
 70
     1
102
RTVSPost2010Prop51ColorIndex
 90
      256
102
RTVSPost2010Prop51ColorRGB
 90
-16777216
102
RTVSPost2010PropOp51
 70
     0
102
RTVSPost2010Prop52
140
1.0
102
RTVSPost2010PropOp52
 70
     0
102
RTVSPost2010Prop53
 90
        2
102
RTVSPost2010PropOp53
 70
     1
102
RTVSPost2010Prop54
  1
strokes_ogs.tif
102
RTVSPost2010PropOp54
 70
     1
102
RTVSPost2010Prop55
280
     0
102
RTVSPost2010PropOp55
 70
     1
102
RTVSPost2010Prop56
140
1.0
102
RTVSPost2010PropOp56
 70
     1
102
RTVSPost2010Prop57
140
1.0
102
RTVSPost2010PropOp57
 70
     1
102
RTVSPropertyOp0
 70
     1
102
RTVSPropertyOp1
 70
     1
102
RTVSPropertyOp2
 70
     1
102
RTVSPropertyOp3
 70
     1
102
RTVSPropertyOp4
 70
     1
102
RTVSPropertyOp5
 70
     1
102
RTVSPropertyOp6
 70
     1
102
RTVSPropertyOp7
 70
     1
102
RTVSPropertyOp8
 70
     1
102
RTVSPropertyOp9
 70
     1
102
RTVSPropertyOp10
 70
     1
102
RTVSPropertyOp11
 70
     1
102
RTVSPropertyOp12
 70
     1
102
RTVSPropertyOp13
 70
     1
102
RTVSPropertyOp14
 70
     1
102
RTVSPropertyOp15
 70
     1
102
RTVSPropertyOp16
 70
     1
102
RTVSPropertyOp17
 70
     1
102
RTVSPropertyOp18
 70
     1
102
RTVSPropertyOp19
 70
     1
102
RTVSPropertyOp20
 70
     1
102
RTVSPropertyOp21
 70
     1
102
RTVSPropertyOp22
 70
     1
102
RTVSPropertyOp23
 70
     1
102
RTVSPropertyOp24
 70
     1
102
RTVSPropertyOp25
 70
     1
102
RTVSPropertyOp26
 70
     1
102
RTVSPropertyOp27
 70
     1
102
RTVSPropertyOp28
 70
     1
102
RTVSPropertyOp29
 70
     1
102
RTVSPropertyOp30
 70
     1
102
RTVSPropertyOp31
 70
     1
102
RTVSPropertyOp32
 70
     1
102
RTVSPropertyOp33
 70
     1
102
RTVSPropertyOp34
 70
     1
102
RTVSPropertyOp35
 70
     1
102
RTVSPropertyOp36
 70
     1
102
RTVSPropertyOp37
 70
     1
102
RTVSPropertyOp38
 70
     1
102
RTVSPropertyOp39
 70
     1
102
RTVSPropertyOp40
 70
     1
102
RTVSPropertyOp41
 70
     1
102
RTVSPropertyOp42
 70
     1
102
RTVSPropertyOp43
 70
     1
102
RTVSPropertyOp44
 70
     1
102
RTVSPropertyOp45
 70
     1
102
RTVSPropertyOp46
 70
     1
102
RTVSPropertyOp47
 70
     1
102
RTVSPropertyOp48
 70
     1
102
RTVSPropertyOp49
 70
     1
102
RTVSPropertyOp50
 70
     1
102
RTVSPropertyOp51
 70
     0
102
RTVSPropertyOp52
 70
     0
102
RTVSPropertyOp53
 70
     1
102
RTVSPropertyOp54
 70
     1
102
RTVSPropertyOp55
 70
     1
102
RTVSPropertyOp56
 70
     1
102
RTVSPropertyOp57
 70
     1
102
RTVSPropertyOp58
 70
     1
102
RTVSPropertyOp59
 70
     1
102
RTVSPropertyOp60
 70
     1
102
RTVSPropertyOp61
 70
     1
102
RTVSPropertyOp62
 70
     1
  0
XRECORD
  5
3C4
102
{ACAD_REACTORS
330
3C3
102
}
330
3C3
100
AcDbXrecord
280
     1
102
RTVSPost2010Prop28
280
     0
102
RTVSPost2010PropOp28
 70
     1
102
RTVSPost2010Prop29
280
     1
102
RTVSPost2010PropOp29
 70
     1
102
RTVSPost2010Prop30
280
     1
102
RTVSPost2010PropOp30
 70
     1
102
RTVSPost2010Prop31
280
     0
102
RTVSPost2010PropOp31
 70
     1
102
RTVSPost2010Prop32
280
     0
102
RTVSPost2010PropOp32
 70
     1
102
RTVSPost2010Prop33
280
     0
102
RTVSPost2010PropOp33
 70
     1
102
RTVSPost2010Prop34
280
     0
102
RTVSPost2010PropOp34
 70
     1
102
RTVSPost2010Prop35
280
     0
102
RTVSPost2010PropOp35
 70
     1
102
RTVSPost2010Prop36
280
     0
102
RTVSPost2010PropOp36
 70
     1
102
RTVSPost2010Prop37
 90
       50
102
RTVSPost2010PropOp37
 70
     1
102
RTVSPost2010Prop38
140
0.0
102
RTVSPost2010PropOp38
 70
     1
102
RTVSPost2010Prop39
140
1.0
102
RTVSPost2010PropOp39
 70
     1
102
RTVSPost2010Prop40
 90
        0
102
RTVSPost2010PropOp40
 70
     1
102
RTVSPost2010Prop41ColorIndex
 90
       18
102
RTVSPost2010Prop41ColorRGB
 90
        0
102
RTVSPost2010PropOp41
 70
     1
102
RTVSPost2010Prop42
 90
       50
102
RTVSPost2010PropOp42
 70
     1
102
RTVSPost2010Prop43
 90
        3
102
RTVSPost2010PropOp43
 70
     1
102
RTVSPost2010Prop44ColorIndex
 90
        5
102
RTVSPost2010Prop44ColorRGB
 90
      255
102
RTVSPost2010PropOp44
 70
     1
102
RTVSPost2010Prop45
280
     0
102
RTVSPost2010PropOp45
 70
     1
102
RTVSPost2010Prop46
 90
       50
102
RTVSPost2010PropOp46
 70
     1
102
RTVSPost2010Prop47
 90
       50
102
RTVSPost2010PropOp47
 70
     1
102
RTVSPost2010Prop48
 90
       50
102
RTVSPost2010PropOp48
 70
     1
102
RTVSPost2010Prop49
280
     0
102
RTVSPost2010PropOp49
 70
     1
102
RTVSPost2010Prop50
 90
       50
102
RTVSPost2010PropOp50
 70
     1
102
RTVSPost2010Prop51ColorIndex
 90
      256
102
RTVSPost2010Prop51ColorRGB
 90
-16777216
102
RTVSPost2010PropOp51
 70
     0
102
RTVSPost2010Prop52
140
1.0
102
RTVSPost2010PropOp52
 70
     0
102
RTVSPost2010Prop53
 90
        2
102
RTVSPost2010PropOp53
 70
     1
102
RTVSPost2010Prop54
  1
strokes_ogs.tif
102
RTVSPost2010PropOp54
 70
     1
102
RTVSPost2010Prop55
280
     0
102
RTVSPost2010PropOp55
 70
     1
102
RTVSPost2010Prop56
140
1.0
102
RTVSPost2010PropOp56
 70
     1
102
RTVSPost2010Prop57
140
1.0
102
RTVSPost2010PropOp57
 70
     1
102
RTVSPropertyOp0
 70
     1
102
RTVSPropertyOp1
 70
     1
102
RTVSPropertyOp2
 70
     1
102
RTVSPropertyOp3
 70
     1
102
RTVSPropertyOp4
 70
     1
102
RTVSPropertyOp5
 70
     1
102
RTVSPropertyOp6
 70
     1
102
RTVSPropertyOp7
 70
     1
102
RTVSPropertyOp8
 70
     1
102
RTVSPropertyOp9
 70
     1
102
RTVSPropertyOp10
 70
     1
102
RTVSPropertyOp11
 70
     1
102
RTVSPropertyOp12
 70
     1
102
RTVSPropertyOp13
 70
     1
102
RTVSPropertyOp14
 70
     1
102
RTVSPropertyOp15
 70
     1
102
RTVSPropertyOp16
 70
     1
102
RTVSPropertyOp17
 70
     1
102
RTVSPropertyOp18
 70
     1
102
RTVSPropertyOp19
 70
     1
102
RTVSPropertyOp20
 70
     1
102
RTVSPropertyOp21
 70
     1
102
RTVSPropertyOp22
 70
     1
102
RTVSPropertyOp23
 70
     1
102
RTVSPropertyOp24
 70
     1
102
RTVSPropertyOp25
 70
     1
102
RTVSPropertyOp26
 70
     1
102
RTVSPropertyOp27
 70
     1
102
RTVSPropertyOp28
 70
     1
102
RTVSPropertyOp29
 70
     1
102
RTVSPropertyOp30
 70
     1
102
RTVSPropertyOp31
 70
     1
102
RTVSPropertyOp32
 70
     1
102
RTVSPropertyOp33
 70
     1
102
RTVSPropertyOp34
 70
     1
102
RTVSPropertyOp35
 70
     1
102
RTVSPropertyOp36
 70
     1
102
RTVSPropertyOp37
 70
     1
102
RTVSPropertyOp38
 70
     1
102
RTVSPropertyOp39
 70
     1
102
RTVSPropertyOp40
 70
     1
102
RTVSPropertyOp41
 70
     1
102
RTVSPropertyOp42
 70
     1
102
RTVSPropertyOp43
 70
     1
102
RTVSPropertyOp44
 70
     1
102
RTVSPropertyOp45
 70
     1
102
RTVSPropertyOp46
 70
     1
102
RTVSPropertyOp47
 70
     1
102
RTVSPropertyOp48
 70
     1
102
RTVSPropertyOp49
 70
     1
102
RTVSPropertyOp50
 70
     1
102
RTVSPropertyOp51
 70
     0
102
RTVSPropertyOp52
 70
     0
102
RTVSPropertyOp53
 70
     1
102
RTVSPropertyOp54
 70
     1
102
RTVSPropertyOp55
 70
     1
102
RTVSPropertyOp56
 70
     1
102
RTVSPropertyOp57
 70
     1
102
RTVSPropertyOp58
 70
     1
102
RTVSPropertyOp59
 70
     1
102
RTVSPropertyOp60
 70
     1
102
RTVSPropertyOp61
 70
     1
102
RTVSPropertyOp62
 70
     1
  0
XRECORD
  5
3B4
102
{ACAD_REACTORS
330
3B3
102
}
330
3B3
100
AcDbXrecord
280
     1
102
RTVSPost2010Prop28
280
     0
102
RTVSPost2010PropOp28
 70
     1
102
RTVSPost2010Prop29
280
     1
102
RTVSPost2010PropOp29
 70
     1
102
RTVSPost2010Prop30
280
     1
102
RTVSPost2010PropOp30
 70
     1
102
RTVSPost2010Prop31
280
     0
102
RTVSPost2010PropOp31
 70
     1
102
RTVSPost2010Prop32
280
     0
102
RTVSPost2010PropOp32
 70
     1
102
RTVSPost2010Prop33
280
     0
102
RTVSPost2010PropOp33
 70
     1
102
RTVSPost2010Prop34
280
     0
102
RTVSPost2010PropOp34
 70
     1
102
RTVSPost2010Prop35
280
     0
102
RTVSPost2010PropOp35
 70
     1
102
RTVSPost2010Prop36
280
     0
102
RTVSPost2010PropOp36
 70
     1
102
RTVSPost2010Prop37
 90
       50
102
RTVSPost2010PropOp37
 70
     1
102
RTVSPost2010Prop38
140
0.0
102
RTVSPost2010PropOp38
 70
     1
102
RTVSPost2010Prop39
140
1.0
102
RTVSPost2010PropOp39
 70
     1
102
RTVSPost2010Prop40
 90
        0
102
RTVSPost2010PropOp40
 70
     1
102
RTVSPost2010Prop41ColorIndex
 90
       18
102
RTVSPost2010Prop41ColorRGB
 90
        0
102
RTVSPost2010PropOp41
 70
     1
102
RTVSPost2010Prop42
 90
       50
102
RTVSPost2010PropOp42
 70
     1
102
RTVSPost2010Prop43
 90
        3
102
RTVSPost2010PropOp43
 70
     1
102
RTVSPost2010Prop44ColorIndex
 90
        5
102
RTVSPost2010Prop44ColorRGB
 90
      255
102
RTVSPost2010PropOp44
 70
     1
102
RTVSPost2010Prop45
280
     0
102
RTVSPost2010PropOp45
 70
     1
102
RTVSPost2010Prop46
 90
       50
102
RTVSPost2010PropOp46
 70
     1
102
RTVSPost2010Prop47
 90
       50
102
RTVSPost2010PropOp47
 70
     1
102
RTVSPost2010Prop48
 90
       50
102
RTVSPost2010PropOp48
 70
     1
102
RTVSPost2010Prop49
280
     0
102
RTVSPost2010PropOp49
 70
     1
102
RTVSPost2010Prop50
 90
       50
102
RTVSPost2010PropOp50
 70
     1
102
RTVSPost2010Prop51ColorIndex
 90
      256
102
RTVSPost2010Prop51ColorRGB
 90
-16777216
102
RTVSPost2010PropOp51
 70
     0
102
RTVSPost2010Prop52
140
1.0
102
RTVSPost2010PropOp52
 70
     0
102
RTVSPost2010Prop53
 90
        2
102
RTVSPost2010PropOp53
 70
     1
102
RTVSPost2010Prop54
  1
strokes_ogs.tif
102
RTVSPost2010PropOp54
 70
     1
102
RTVSPost2010Prop55
280
     0
102
RTVSPost2010PropOp55
 70
     1
102
RTVSPost2010Prop56
140
1.0
102
RTVSPost2010PropOp56
 70
     1
102
RTVSPost2010Prop57
140
1.0
102
RTVSPost2010PropOp57
 70
     1
102
RTVSPropertyOp0
 70
     1
102
RTVSPropertyOp1
 70
     1
102
RTVSPropertyOp2
 70
     1
102
RTVSPropertyOp3
 70
     1
102
RTVSPropertyOp4
 70
     1
102
RTVSPropertyOp5
 70
     1
102
RTVSPropertyOp6
 70
     1
102
RTVSPropertyOp7
 70
     1
102
RTVSPropertyOp8
 70
     1
102
RTVSPropertyOp9
 70
     1
102
RTVSPropertyOp10
 70
     1
102
RTVSPropertyOp11
 70
     1
102
RTVSPropertyOp12
 70
     1
102
RTVSPropertyOp13
 70
     1
102
RTVSPropertyOp14
 70
     1
102
RTVSPropertyOp15
 70
     1
102
RTVSPropertyOp16
 70
     1
102
RTVSPropertyOp17
 70
     1
102
RTVSPropertyOp18
 70
     1
102
RTVSPropertyOp19
 70
     1
102
RTVSPropertyOp20
 70
     1
102
RTVSPropertyOp21
 70
     1
102
RTVSPropertyOp22
 70
     1
102
RTVSPropertyOp23
 70
     1
102
RTVSPropertyOp24
 70
     1
102
RTVSPropertyOp25
 70
     1
102
RTVSPropertyOp26
 70
     1
102
RTVSPropertyOp27
 70
     1
102
RTVSPropertyOp28
 70
     1
102
RTVSPropertyOp29
 70
     1
102
RTVSPropertyOp30
 70
     1
102
RTVSPropertyOp31
 70
     1
102
RTVSPropertyOp32
 70
     1
102
RTVSPropertyOp33
 70
     1
102
RTVSPropertyOp34
 70
     1
102
RTVSPropertyOp35
 70
     1
102
RTVSPropertyOp36
 70
     1
102
RTVSPropertyOp37
 70
     1
102
RTVSPropertyOp38
 70
     1
102
RTVSPropertyOp39
 70
     1
102
RTVSPropertyOp40
 70
     1
102
RTVSPropertyOp41
 70
     1
102
RTVSPropertyOp42
 70
     1
102
RTVSPropertyOp43
 70
     1
102
RTVSPropertyOp44
 70
     1
102
RTVSPropertyOp45
 70
     1
102
RTVSPropertyOp46
 70
     1
102
RTVSPropertyOp47
 70
     1
102
RTVSPropertyOp48
 70
     1
102
RTVSPropertyOp49
 70
     1
102
RTVSPropertyOp50
 70
     1
102
RTVSPropertyOp51
 70
     0
102
RTVSPropertyOp52
 70
     0
102
RTVSPropertyOp53
 70
     1
102
RTVSPropertyOp54
 70
     1
102
RTVSPropertyOp55
 70
     1
102
RTVSPropertyOp56
 70
     1
102
RTVSPropertyOp57
 70
     1
102
RTVSPropertyOp58
 70
     1
102
RTVSPropertyOp59
 70
     1
102
RTVSPropertyOp60
 70
     1
102
RTVSPropertyOp61
 70
     1
102
RTVSPropertyOp62
 70
     1
  0
XRECORD
  5
3A6
102
{ACAD_REACTORS
330
3A5
102
}
330
3A5
100
AcDbXrecord
280
     1
102
RTVSPost2010Prop28
280
     0
102
RTVSPost2010PropOp28
 70
     1
102
RTVSPost2010Prop29
280
     1
102
RTVSPost2010PropOp29
 70
     1
102
RTVSPost2010Prop30
280
     1
102
RTVSPost2010PropOp30
 70
     1
102
RTVSPost2010Prop31
280
     0
102
RTVSPost2010PropOp31
 70
     1
102
RTVSPost2010Prop32
280
     0
102
RTVSPost2010PropOp32
 70
     1
102
RTVSPost2010Prop33
280
     0
102
RTVSPost2010PropOp33
 70
     1
102
RTVSPost2010Prop34
280
     0
102
RTVSPost2010PropOp34
 70
     1
102
RTVSPost2010Prop35
280
     0
102
RTVSPost2010PropOp35
 70
     1
102
RTVSPost2010Prop36
280
     0
102
RTVSPost2010PropOp36
 70
     1
102
RTVSPost2010Prop37
 90
       50
102
RTVSPost2010PropOp37
 70
     1
102
RTVSPost2010Prop38
140
0.0
102
RTVSPost2010PropOp38
 70
     1
102
RTVSPost2010Prop39
140
1.0
102
RTVSPost2010PropOp39
 70
     1
102
RTVSPost2010Prop40
 90
        0
102
RTVSPost2010PropOp40
 70
     1
102
RTVSPost2010Prop41ColorIndex
 90
       18
102
RTVSPost2010Prop41ColorRGB
 90
        0
102
RTVSPost2010PropOp41
 70
     1
102
RTVSPost2010Prop42
 90
       50
102
RTVSPost2010PropOp42
 70
     1
102
RTVSPost2010Prop43
 90
        3
102
RTVSPost2010PropOp43
 70
     1
102
RTVSPost2010Prop44ColorIndex
 90
        5
102
RTVSPost2010Prop44ColorRGB
 90
      255
102
RTVSPost2010PropOp44
 70
     1
102
RTVSPost2010Prop45
280
     0
102
RTVSPost2010PropOp45
 70
     1
102
RTVSPost2010Prop46
 90
       50
102
RTVSPost2010PropOp46
 70
     1
102
RTVSPost2010Prop47
 90
       50
102
RTVSPost2010PropOp47
 70
     1
102
RTVSPost2010Prop48
 90
       50
102
RTVSPost2010PropOp48
 70
     1
102
RTVSPost2010Prop49
280
     0
102
RTVSPost2010PropOp49
 70
     1
102
RTVSPost2010Prop50
 90
       50
102
RTVSPost2010PropOp50
 70
     1
102
RTVSPost2010Prop51ColorIndex
 90
      256
102
RTVSPost2010Prop51ColorRGB
 90
-16777216
102
RTVSPost2010PropOp51
 70
     0
102
RTVSPost2010Prop52
140
1.0
102
RTVSPost2010PropOp52
 70
     0
102
RTVSPost2010Prop53
 90
        2
102
RTVSPost2010PropOp53
 70
     1
102
RTVSPost2010Prop54
  1
strokes_ogs.tif
102
RTVSPost2010PropOp54
 70
     1
102
RTVSPost2010Prop55
280
     0
102
RTVSPost2010PropOp55
 70
     1
102
RTVSPost2010Prop56
140
1.0
102
RTVSPost2010PropOp56
 70
     1
102
RTVSPost2010Prop57
140
1.0
102
RTVSPost2010PropOp57
 70
     1
102
RTVSPropertyOp0
 70
     1
102
RTVSPropertyOp1
 70
     1
102
RTVSPropertyOp2
 70
     1
102
RTVSPropertyOp3
 70
     1
102
RTVSPropertyOp4
 70
     1
102
RTVSPropertyOp5
 70
     1
102
RTVSPropertyOp6
 70
     1
102
RTVSPropertyOp7
 70
     1
102
RTVSPropertyOp8
 70
     1
102
RTVSPropertyOp9
 70
     1
102
RTVSPropertyOp10
 70
     1
102
RTVSPropertyOp11
 70
     1
102
RTVSPropertyOp12
 70
     1
102
RTVSPropertyOp13
 70
     1
102
RTVSPropertyOp14
 70
     1
102
RTVSPropertyOp15
 70
     1
102
RTVSPropertyOp16
 70
     1
102
RTVSPropertyOp17
 70
     1
102
RTVSPropertyOp18
 70
     1
102
RTVSPropertyOp19
 70
     1
102
RTVSPropertyOp20
 70
     1
102
RTVSPropertyOp21
 70
     1
102
RTVSPropertyOp22
 70
     1
102
RTVSPropertyOp23
 70
     1
102
RTVSPropertyOp24
 70
     1
102
RTVSPropertyOp25
 70
     1
102
RTVSPropertyOp26
 70
     1
102
RTVSPropertyOp27
 70
     1
102
RTVSPropertyOp28
 70
     1
102
RTVSPropertyOp29
 70
     1
102
RTVSPropertyOp30
 70
     1
102
RTVSPropertyOp31
 70
     1
102
RTVSPropertyOp32
 70
     1
102
RTVSPropertyOp33
 70
     1
102
RTVSPropertyOp34
 70
     1
102
RTVSPropertyOp35
 70
     1
102
RTVSPropertyOp36
 70
     1
102
RTVSPropertyOp37
 70
     1
102
RTVSPropertyOp38
 70
     1
102
RTVSPropertyOp39
 70
     1
102
RTVSPropertyOp40
 70
     1
102
RTVSPropertyOp41
 70
     1
102
RTVSPropertyOp42
 70
     1
102
RTVSPropertyOp43
 70
     1
102
RTVSPropertyOp44
 70
     1
102
RTVSPropertyOp45
 70
     1
102
RTVSPropertyOp46
 70
     1
102
RTVSPropertyOp47
 70
     1
102
RTVSPropertyOp48
 70
     1
102
RTVSPropertyOp49
 70
     1
102
RTVSPropertyOp50
 70
     1
102
RTVSPropertyOp51
 70
     0
102
RTVSPropertyOp52
 70
     0
102
RTVSPropertyOp53
 70
     1
102
RTVSPropertyOp54
 70
     1
102
RTVSPropertyOp55
 70
     1
102
RTVSPropertyOp56
 70
     1
102
RTVSPropertyOp57
 70
     1
102
RTVSPropertyOp58
 70
     1
102
RTVSPropertyOp59
 70
     1
102
RTVSPropertyOp60
 70
     1
102
RTVSPropertyOp61
 70
     1
102
RTVSPropertyOp62
 70
     1
  0
XRECORD
  5
3C6
102
{ACAD_REACTORS
330
3C5
102
}
330
3C5
100
AcDbXrecord
280
     1
102
RTVSPost2010Prop28
280
     0
102
RTVSPost2010PropOp28
 70
     1
102
RTVSPost2010Prop29
280
     1
102
RTVSPost2010PropOp29
 70
     1
102
RTVSPost2010Prop30
280
     1
102
RTVSPost2010PropOp30
 70
     1
102
RTVSPost2010Prop31
280
     0
102
RTVSPost2010PropOp31
 70
     1
102
RTVSPost2010Prop32
280
     0
102
RTVSPost2010PropOp32
 70
     1
102
RTVSPost2010Prop33
280
     0
102
RTVSPost2010PropOp33
 70
     1
102
RTVSPost2010Prop34
280
     0
102
RTVSPost2010PropOp34
 70
     1
102
RTVSPost2010Prop35
280
     0
102
RTVSPost2010PropOp35
 70
     1
102
RTVSPost2010Prop36
280
     0
102
RTVSPost2010PropOp36
 70
     1
102
RTVSPost2010Prop37
 90
       50
102
RTVSPost2010PropOp37
 70
     1
102
RTVSPost2010Prop38
140
0.0
102
RTVSPost2010PropOp38
 70
     1
102
RTVSPost2010Prop39
140
1.0
102
RTVSPost2010PropOp39
 70
     1
102
RTVSPost2010Prop40
 90
        0
102
RTVSPost2010PropOp40
 70
     1
102
RTVSPost2010Prop41ColorIndex
 90
       18
102
RTVSPost2010Prop41ColorRGB
 90
        0
102
RTVSPost2010PropOp41
 70
     1
102
RTVSPost2010Prop42
 90
       50
102
RTVSPost2010PropOp42
 70
     1
102
RTVSPost2010Prop43
 90
        3
102
RTVSPost2010PropOp43
 70
     1
102
RTVSPost2010Prop44ColorIndex
 90
        5
102
RTVSPost2010Prop44ColorRGB
 90
      255
102
RTVSPost2010PropOp44
 70
     1
102
RTVSPost2010Prop45
280
     0
102
RTVSPost2010PropOp45
 70
     1
102
RTVSPost2010Prop46
 90
       50
102
RTVSPost2010PropOp46
 70
     1
102
RTVSPost2010Prop47
 90
       50
102
RTVSPost2010PropOp47
 70
     1
102
RTVSPost2010Prop48
 90
       50
102
RTVSPost2010PropOp48
 70
     1
102
RTVSPost2010Prop49
280
     0
102
RTVSPost2010PropOp49
 70
     1
102
RTVSPost2010Prop50
 90
       50
102
RTVSPost2010PropOp50
 70
     1
102
RTVSPost2010Prop51ColorIndex
 90
      256
102
RTVSPost2010Prop51ColorRGB
 90
-16777216
102
RTVSPost2010PropOp51
 70
     0
102
RTVSPost2010Prop52
140
1.0
102
RTVSPost2010PropOp52
 70
     0
102
RTVSPost2010Prop53
 90
        2
102
RTVSPost2010PropOp53
 70
     1
102
RTVSPost2010Prop54
  1
strokes_ogs.tif
102
RTVSPost2010PropOp54
 70
     1
102
RTVSPost2010Prop55
280
     0
102
RTVSPost2010PropOp55
 70
     1
102
RTVSPost2010Prop56
140
1.0
102
RTVSPost2010PropOp56
 70
     1
102
RTVSPost2010Prop57
140
1.0
102
RTVSPost2010PropOp57
 70
     1
102
RTVSPropertyOp0
 70
     1
102
RTVSPropertyOp1
 70
     1
102
RTVSPropertyOp2
 70
     1
102
RTVSPropertyOp3
 70
     1
102
RTVSPropertyOp4
 70
     1
102
RTVSPropertyOp5
 70
     1
102
RTVSPropertyOp6
 70
     1
102
RTVSPropertyOp7
 70
     1
102
RTVSPropertyOp8
 70
     1
102
RTVSPropertyOp9
 70
     1
102
RTVSPropertyOp10
 70
     1
102
RTVSPropertyOp11
 70
     1
102
RTVSPropertyOp12
 70
     1
102
RTVSPropertyOp13
 70
     1
102
RTVSPropertyOp14
 70
     1
102
RTVSPropertyOp15
 70
     1
102
RTVSPropertyOp16
 70
     1
102
RTVSPropertyOp17
 70
     1
102
RTVSPropertyOp18
 70
     1
102
RTVSPropertyOp19
 70
     1
102
RTVSPropertyOp20
 70
     1
102
RTVSPropertyOp21
 70
     1
102
RTVSPropertyOp22
 70
     1
102
RTVSPropertyOp23
 70
     1
102
RTVSPropertyOp24
 70
     1
102
RTVSPropertyOp25
 70
     1
102
RTVSPropertyOp26
 70
     1
102
RTVSPropertyOp27
 70
     1
102
RTVSPropertyOp28
 70
     1
102
RTVSPropertyOp29
 70
     1
102
RTVSPropertyOp30
 70
     1
102
RTVSPropertyOp31
 70
     1
102
RTVSPropertyOp32
 70
     1
102
RTVSPropertyOp33
 70
     1
102
RTVSPropertyOp34
 70
     1
102
RTVSPropertyOp35
 70
     1
102
RTVSPropertyOp36
 70
     1
102
RTVSPropertyOp37
 70
     1
102
RTVSPropertyOp38
 70
     1
102
RTVSPropertyOp39
 70
     1
102
RTVSPropertyOp40
 70
     1
102
RTVSPropertyOp41
 70
     1
102
RTVSPropertyOp42
 70
     1
102
RTVSPropertyOp43
 70
     1
102
RTVSPropertyOp44
 70
     1
102
RTVSPropertyOp45
 70
     1
102
RTVSPropertyOp46
 70
     1
102
RTVSPropertyOp47
 70
     1
102
RTVSPropertyOp48
 70
     1
102
RTVSPropertyOp49
 70
     1
102
RTVSPropertyOp50
 70
     1
102
RTVSPropertyOp51
 70
     0
102
RTVSPropertyOp52
 70
     0
102
RTVSPropertyOp53
 70
     1
102
RTVSPropertyOp54
 70
     1
102
RTVSPropertyOp55
 70
     1
102
RTVSPropertyOp56
 70
     1
102
RTVSPropertyOp57
 70
     1
102
RTVSPropertyOp58
 70
     1
102
RTVSPropertyOp59
 70
     1
102
RTVSPropertyOp60
 70
     1
102
RTVSPropertyOp61
 70
     1
102
RTVSPropertyOp62
 70
     1
  0
ENDSEC
  0
EOF
